  0
SECTION
  2
HEADER
  9
$ACADVER
  1
AC1024
  9
$ACADMAINTVER
 70
     6
  9
$DWGCODEPAGE
  3
ANSI_932
  9
$INSBASE
 10
0.0
 20
0.0
 30
0.0
  9
$EXTMIN
 10
-6300.0
 20
-4455.0
 30
0.0
  9
$EXTMAX
 10
6300.0
 20
4455.0
 30
0.0
  9
$LIMMIN
 10
-6300.0
 20
-4455.0
  9
$LIMMAX
 10
6300.0
 20
4455.0
  9
$ORTHOMODE
 70
     0
  9
$REGENMODE
 70
     1
  9
$FILLMODE
 70
     1
  9
$QTEXTMODE
 70
     0
  9
$MIRRTEXT
 70
     1
  9
$LTSCALE
 40
30.0
  9
$ATTMODE
 70
     1
  9
$TEXTSIZE
 40
2.5
  9
$TRACEWID
 40
1.0
  9
$TEXTSTYLE
  7
Standard
  9
$CLAYER
  8
0
  9
$CELTYPE
  6
ByLayer
  9
$CECOLOR
 62
   256
  9
$CELTSCALE
 40
1.0
  9
$DISPSILH
 70
     0
  9
$DIMSCALE
 40
1.0
  9
$DIMASZ
 40
2.5
  9
$DIMEXO
 40
0.625
  9
$DIMDLI
 40
3.75
  9
$DIMRND
 40
0.0
  9
$DIMDLE
 40
0.0
  9
$DIMEXE
 40
1.25
  9
$DIMTP
 40
0.0
  9
$DIMTM
 40
0.0
  9
$DIMTXT
 40
2.5
  9
$DIMCEN
 40
2.5
  9
$DIMTSZ
 40
0.0
  9
$DIMTOL
 70
     0
  9
$DIMLIM
 70
     0
  9
$DIMTIH
 70
     0
  9
$DIMTOH
 70
     0
  9
$DIMSE1
 70
     0
  9
$DIMSE2
 70
     0
  9
$DIMTAD
 70
     1
  9
$DIMZIN
 70
     8
  9
$DIMBLK
  1

  9
$DIMASO
 70
     1
  9
$DIMSHO
 70
     1
  9
$DIMPOST
  1

  9
$DIMAPOST
  1

  9
$DIMALT
 70
     0
  9
$DIMALTD
 70
     3
  9
$DIMALTF
 40
0.03937007874016
  9
$DIMLFAC
 40
1.0
  9
$DIMTOFL
 70
     1
  9
$DIMTVP
 40
0.0
  9
$DIMTIX
 70
     0
  9
$DIMSOXD
 70
     0
  9
$DIMSAH
 70
     0
  9
$DIMBLK1
  1

  9
$DIMBLK2
  1

  9
$DIMSTYLE
  2
ISO-25
  9
$DIMCLRD
 70
     0
  9
$DIMCLRE
 70
     0
  9
$DIMCLRT
 70
     0
  9
$DIMTFAC
 40
1.0
  9
$DIMGAP
 40
0.625
  9
$DIMJUST
 70
     0
  9
$DIMSD1
 70
     0
  9
$DIMSD2
 70
     0
  9
$DIMTOLJ
 70
     0
  9
$DIMTZIN
 70
     8
  9
$DIMALTZ
 70
     0
  9
$DIMALTTZ
 70
     0
  9
$DIMUPT
 70
     0
  9
$DIMDEC
 70
     2
  9
$DIMTDEC
 70
     2
  9
$DIMALTU
 70
     2
  9
$DIMALTTD
 70
     3
  9
$DIMTXSTY
  7
Standard
  9
$DIMAUNIT
 70
     0
  9
$DIMADEC
 70
     0
  9
$DIMALTRND
 40
0.0
  9
$DIMAZIN
 70
     0
  9
$DIMDSEP
 70
    44
  9
$DIMATFIT
 70
     3
  9
$DIMFRAC
 70
     0
  9
$DIMLDRBLK
  1

  9
$DIMLUNIT
 70
     2
  9
$DIMLWD
 70
    -2
  9
$DIMLWE
 70
    -2
  9
$DIMTMOVE
 70
     0
  9
$DIMFXL
 40
1.0
  9
$DIMFXLON
 70
     0
  9
$DIMJOGANG
 40
0.7853981633974483
  9
$DIMTFILL
 70
     0
  9
$DIMTFILLCLR
 70
     0
  9
$DIMARCSYM
 70
     0
  9
$DIMLTYPE
  6

  9
$DIMLTEX1
  6

  9
$DIMLTEX2
  6

  9
$DIMTXTDIRECTION
 70
     0
  9
$LUNITS
 70
     2
  9
$LUPREC
 70
     4
  9
$SKETCHINC
 40
1.0
  9
$FILLETRAD
 40
10.0
  9
$AUNITS
 70
     0
  9
$AUPREC
 70
     0
  9
$MENU
  1
.
  9
$ELEVATION
 40
0.0
  9
$PELEVATION
 40
0.0
  9
$THICKNESS
 40
0.0
  9
$LIMCHECK
 70
     0
  9
$CHAMFERA
 40
10.0
  9
$CHAMFERB
 40
10.0
  9
$CHAMFERC
 40
20.0
  9
$CHAMFERD
 40
0.0
  9
$SKPOLY
 70
     0
  9
$TDCREATE
 40
2460327.687601644
  9
$TDUCREATE
 40
2460327.312601644
  9
$TDUPDATE
 40
2460327.687601655
  9
$TDUUPDATE
 40
2460327.312601655
  9
$TDINDWG
 40
0.0000000116
  9
$TDUSRTIMER
 40
0.0000000116
  9
$USRTIMER
 70
     1
  9
$ANGBASE
 50
0.0
  9
$ANGDIR
 70
     0
  9
$PDMODE
 70
     0
  9
$PDSIZE
 40
0.0
  9
$PLINEWID
 40
0.0
  9
$SPLFRAME
 70
     0
  9
$SPLINETYPE
 70
     6
  9
$SPLINESEGS
 70
     8
  9
$HANDSEED
  5
3E5
  9
$SURFTAB1
 70
     6
  9
$SURFTAB2
 70
     6
  9
$SURFTYPE
 70
     6
  9
$SURFU
 70
     6
  9
$SURFV
 70
     6
  9
$UCSBASE
  2

  9
$UCSNAME
  2

  9
$UCSORG
 10
0.0
 20
0.0
 30
0.0
  9
$UCSXDIR
 10
1.0
 20
0.0
 30
0.0
  9
$UCSYDIR
 10
0.0
 20
1.0
 30
0.0
  9
$UCSORTHOREF
  2

  9
$UCSORTHOVIEW
 70
     0
  9
$UCSORGTOP
 10
0.0
 20
0.0
 30
0.0
  9
$UCSORGBOTTOM
 10
0.0
 20
0.0
 30
0.0
  9
$UCSORGLEFT
 10
0.0
 20
0.0
 30
0.0
  9
$UCSORGRIGHT
 10
0.0
 20
0.0
 30
0.0
  9
$UCSORGFRONT
 10
0.0
 20
0.0
 30
0.0
  9
$UCSORGBACK
 10
0.0
 20
0.0
 30
0.0
  9
$PUCSBASE
  2

  9
$PUCSNAME
  2

  9
$PUCSORG
 10
0.0
 20
0.0
 30
0.0
  9
$PUCSXDIR
 10
1.0
 20
0.0
 30
0.0
  9
$PUCSYDIR
 10
0.0
 20
1.0
 30
0.0
  9
$PUCSORTHOREF
  2

  9
$PUCSORTHOVIEW
 70
     0
  9
$PUCSORGTOP
 10
0.0
 20
0.0
 30
0.0
  9
$PUCSORGBOTTOM
 10
0.0
 20
0.0
 30
0.0
  9
$PUCSORGLEFT
 10
0.0
 20
0.0
 30
0.0
  9
$PUCSORGRIGHT
 10
0.0
 20
0.0
 30
0.0
  9
$PUCSORGFRONT
 10
0.0
 20
0.0
 30
0.0
  9
$PUCSORGBACK
 10
0.0
 20
0.0
 30
0.0
  9
$USERI1
 70
     0
  9
$USERI2
 70
     0
  9
$USERI3
 70
     0
  9
$USERI4
 70
     0
  9
$USERI5
 70
     0
  9
$USERR1
 40
0.0
  9
$USERR2
 40
0.0
  9
$USERR3
 40
0.0
  9
$USERR4
 40
0.0
  9
$USERR5
 40
0.0
  9
$WORLDVIEW
 70
     1
  9
$SHADEDGE
 70
     3
  9
$SHADEDIF
 70
    70
  9
$TILEMODE
 70
     1
  9
$MAXACTVP
 70
    64
  9
$PINSBASE
 10
0.0
 20
0.0
 30
0.0
  9
$PLIMCHECK
 70
     0
  9
$PEXTMIN
 10
1.000000000000000E+20
 20
1.000000000000000E+20
 30
1.000000000000000E+20
  9
$PEXTMAX
 10
-1.000000000000000E+20
 20
-1.000000000000000E+20
 30
-1.000000000000000E+20
  9
$PLIMMIN
 10
0.0
 20
0.0
  9
$PLIMMAX
 10
420.0
 20
297.0
  9
$UNITMODE
 70
     0
  9
$VISRETAIN
 70
     1
  9
$PLINEGEN
 70
     0
  9
$PSLTSCALE
 70
     1
  9
$TREEDEPTH
 70
  3020
  9
$CMLSTYLE
  2
Standard
  9
$CMLJUST
 70
     0
  9
$CMLSCALE
 40
20.0
  9
$PROXYGRAPHICS
 70
     1
  9
$MEASUREMENT
 70
     1
  9
$CELWEIGHT
370
    -1
  9
$ENDCAPS
280
     0
  9
$JOINSTYLE
280
     0
  9
$LWDISPLAY
290
     0
  9
$INSUNITS
 70
     4
  9
$HYPERLINKBASE
  1

  9
$STYLESHEET
  1

  9
$XEDIT
290
     1
  9
$CEPSNTYPE
380
     0
  9
$PSTYLEMODE
290
     1
  9
$FINGERPRINTGUID
  2
{D60BDDAF-C49B-4384-A464-D46D964D7AC7}
  9
$VERSIONGUID
  2
{FAEB1C32-E019-11D5-929B-00C0DF256EC4}
  9
$EXTNAMES
290
     1
  9
$PSVPSCALE
 40
0.0
  9
$OLESTARTUP
290
     0
  9
$SORTENTS
280
   127
  9
$INDEXCTL
280
     0
  9
$HIDETEXT
280
     1
  9
$XCLIPFRAME
280
     2
  9
$HALOGAP
280
     0
  9
$OBSCOLOR
 70
   257
  9
$OBSLTYPE
280
     0
  9
$INTERSECTIONDISPLAY
280
     0
  9
$INTERSECTIONCOLOR
 70
   257
  9
$DIMASSOC
280
     2
  9
$PROJECTNAME
  1

  9
$CAMERADISPLAY
290
     0
  9
$LENSLENGTH
 40
50.0
  9
$CAMERAHEIGHT
 40
0.0
  9
$STEPSPERSEC
 40
2.0
  9
$STEPSIZE
 40
6.0
  9
$3DDWFPREC
 40
2.0
  9
$PSOLWIDTH
 40
5.0
  9
$PSOLHEIGHT
 40
80.0
  9
$LOFTANG1
 40
1.570796326794897
  9
$LOFTANG2
 40
1.570796326794897
  9
$LOFTMAG1
 40
0.0
  9
$LOFTMAG2
 40
0.0
  9
$LOFTPARAM
 70
     7
  9
$LOFTNORMALS
280
     1
  9
$LATITUDE
 40
37.795
  9
$LONGITUDE
 40
-122.394
  9
$NORTHDIRECTION
 40
0.0
  9
$TIMEZONE
 70
 -8000
  9
$LIGHTGLYPHDISPLAY
280
     1
  9
$TILEMODELIGHTSYNCH
280
     1
  9
$SOLIDHIST
280
     1
  9
$SHOWHIST
280
     1
  9
$DWFFRAME
280
     2
  9
$DGNFRAME
280
     2
  9
$REALWORLDSCALE
290
     1
  9
$INTERFERECOLOR
 62
   256
  9
$CSHADOW
280
     0
  9
$SHADOWPLANELOCATION
 40
0.0
  0
ENDSEC
  0
SECTION
  2
CLASSES
  0
CLASS
  1
ACDBDICTIONARYWDFLT
  2
AcDbDictionaryWithDefault
  3
ObjectDBX Classes
 90
        0
 91
        4
280
     0
281
     0
  0
CLASS
  1
VISUALSTYLE
  2
AcDbVisualStyle
  3
ObjectDBX Classes
 90
     4095
 91
        4
280
     0
281
     0
  0
CLASS
  1
MATERIAL
  2
AcDbMaterial
  3
ObjectDBX Classes
 90
     1153
 91
        4
280
     0
281
     0
  0
ENDSEC
  0
SECTION
  2
TABLES
  0
TABLE
  2
VPORT
  5
8
330
0
100
AcDbSymbolTable
 70
     1
  0
VPORT
  5
29
330
8
100
AcDbSymbolTableRecord
100
AcDbViewportTableRecord
  2
*Active
 70
     0
 10
0.0
 20
0.0
 11
1.0
 21
1.0
 12
0.0
 22
0.0
 13
0.0
 23
0.0
 14
10.0
 24
10.0
 15
10.0
 25
10.0
 16
0.0
 26
0.0
 36
1.0
 17
0.0
 27
0.0
 37
0.0
 40
9801.0
 41
1.414141414141414
 42
50.0
 43
0.0
 44
0.0
 50
0.0
 51
0.0
 71
     0
 72
 10000
 73
     1
 74
     3
 75
     0
 76
     0
 77
     0
 78
     0
281
     0
 65
     1
110
0.0
120
0.0
130
0.0
111
1.0
121
0.0
131
0.0
112
0.0
122
1.0
132
0.0
 79
     0
146
0.0
 60
     3
 61
     5
292
     1
282
     1
141
0.0
142
0.0
 63
   250
  0
ENDTAB
  0
TABLE
  2
LTYPE
  5
5
330
0
100
AcDbSymbolTable
 70
     5
  0
LTYPE
  5
14
330
5
100
AcDbSymbolTableRecord
100
AcDbLinetypeTableRecord
  2
ByBlock
 70
     0
  3

 72
    65
 73
     0
 40
0.0
  0
LTYPE
  5
15
330
5
100
AcDbSymbolTableRecord
100
AcDbLinetypeTableRecord
  2
ByLayer
 70
     0
  3

 72
    65
 73
     0
 40
0.0
  0
LTYPE
  5
16
330
5
100
AcDbSymbolTableRecord
100
AcDbLinetypeTableRecord
  2
Continuous
 70
     0
  3
Solid line
 72
    65
 73
     0
 40
0.0
  0
LTYPE
  5
3F
330
5
100
AcDbSymbolTableRecord
100
AcDbLinetypeTableRecord
  2
JWW_HOJO
 70
     0
  3
  -   -   -   -   -   -   -   - 
 72
    65
 73
     2
 40
1.693333333333333
 49
-1.27
 74
     0
 49
0.4233333333333333
 74
     0
  0
LTYPE
  5
40
330
5
100
AcDbSymbolTableRecord
100
AcDbLinetypeTableRecord
  2
JWW_DASHED2
 70
     0
  3
--    ----    ----    ----    --
 72
    65
 73
     2
 40
3.386666666666667
 49
1.693333333333333
 74
     0
 49
-1.693333333333333
 74
     0
  0
LTYPE
  5
41
330
5
100
AcDbSymbolTableRecord
100
AcDbLinetypeTableRecord
  2
JWW_CENTER1
 70
     0
  3
-----  --  ----------  --  -----
 72
    65
 73
     4
 40
6.773333333333333
 49
4.233333333333333
 74
     0
 49
-0.8466666666666667
 74
     0
 49
0.8466666666666667
 74
     0
 49
-0.8466666666666667
 74
     0
  0
LTYPE
  5
42
330
5
100
AcDbSymbolTableRecord
100
AcDbLinetypeTableRecord
  2
JWW_DASHED1
 70
     0
  3
-  --  --  --  --  --  --  --  -
 72
    65
 73
     2
 40
1.693333333333333
 49
0.8466666666666667
 74
     0
 49
-0.8466666666666667
 74
     0
  0
ENDTAB
  0
TABLE
  2
LAYER
  5
2
330
0
100
AcDbSymbolTable
 70
    16
  0
LAYER
  5
10
330
2
100
AcDbSymbolTableRecord
100
AcDbLayerTableRecord
  2
0
 70
     0
 62
     7
  6
Continuous
370
    -3
390
F
347
3E
  0
LAYER
  5
43
330
2
100
AcDbSymbolTableRecord
100
AcDbLayerTableRecord
  2
F-0_補助線
 70
     0
 62
     7
  6
Continuous
370
    -3
390
F
347
3E
  0
LAYER
  5
44
330
2
100
AcDbSymbolTableRecord
100
AcDbLayerTableRecord
  2
F-1_枠
 70
     0
 62
     7
  6
Continuous
370
    -3
390
F
347
3E
  0
LAYER
  5
45
330
2
100
AcDbSymbolTableRecord
100
AcDbLayerTableRecord
  2
F-A_文字
 70
     0
 62
     7
  6
Continuous
370
    -3
390
F
347
3E
  0
LAYER
  5
46
330
2
100
AcDbSymbolTableRecord
100
AcDbLayerTableRecord
  2
0-A_文字
 70
     0
 62
     7
  6
Continuous
370
    -3
390
F
347
3E
  0
LAYER
  5
47
330
2
100
AcDbSymbolTableRecord
100
AcDbLayerTableRecord
  2
戸当り
 70
     0
 62
     7
  6
Continuous
370
    -3
390
F
347
3E
  0
LAYER
  5
48
330
2
100
AcDbSymbolTableRecord
100
AcDbLayerTableRecord
  2
0-0_補助線
 70
     0
 62
     7
  6
Continuous
370
    -3
390
F
347
3E
  0
LAYER
  5
49
330
2
100
AcDbSymbolTableRecord
100
AcDbLayerTableRecord
  2
0-3_仕上げ
 70
     0
 62
     7
  6
Continuous
370
    -3
390
F
347
3E
  0
LAYER
  5
4A
330
2
100
AcDbSymbolTableRecord
100
AcDbLayerTableRecord
  2
0-1_通り芯
 70
     0
 62
     7
  6
Continuous
370
    -3
390
F
347
3E
  0
LAYER
  5
4B
330
2
100
AcDbSymbolTableRecord
100
AcDbLayerTableRecord
  2
0-7_金物
 70
     0
 62
     7
  6
Continuous
370
    -3
390
F
347
3E
  0
LAYER
  5
4C
330
2
100
AcDbSymbolTableRecord
100
AcDbLayerTableRecord
  2
0-B_寸法
 70
     0
 62
     7
  6
Continuous
370
    -3
390
F
347
3E
  0
LAYER
  5
4D
330
2
100
AcDbSymbolTableRecord
100
AcDbLayerTableRecord
  2
0-6_扉
 70
     0
 62
     7
  6
Continuous
370
    -3
390
F
347
3E
  0
LAYER
  5
4E
330
2
100
AcDbSymbolTableRecord
100
AcDbLayerTableRecord
  2
0-C_ハッチ
 70
     0
 62
     7
  6
Continuous
370
    -3
390
F
347
3E
  0
LAYER
  5
4F
330
2
100
AcDbSymbolTableRecord
100
AcDbLayerTableRecord
  2
0-4_枠
 70
     0
 62
     7
  6
Continuous
370
    -3
390
F
347
3E
  0
LAYER
  5
50
330
2
100
AcDbSymbolTableRecord
100
AcDbLayerTableRecord
  2
0-E
 70
     0
 62
     7
  6
Continuous
370
    -3
390
F
347
3E
  0
LAYER
  5
51
330
2
100
AcDbSymbolTableRecord
100
AcDbLayerTableRecord
  2
1-E
 70
     0
 62
     7
  6
Continuous
370
    -3
390
F
347
3E
  0
ENDTAB
  0
TABLE
  2
STYLE
  5
3
330
0
100
AcDbSymbolTable
 70
     1
  0
STYLE
  5
11
330
3
100
AcDbSymbolTableRecord
100
AcDbTextStyleTableRecord
  2
Standard
 70
     0
 40
0.0
 41
1.0
 50
0.0
 71
     0
 42
2.5
  3
txt
  4

  0
ENDTAB
  0
TABLE
  2
VIEW
  5
6
330
0
100
AcDbSymbolTable
 70
     0
  0
ENDTAB
  0
TABLE
  2
UCS
  5
7
330
0
100
AcDbSymbolTable
 70
     0
  0
ENDTAB
  0
TABLE
  2
APPID
  5
9
330
0
100
AcDbSymbolTable
 70
     1
  0
APPID
  5
12
330
9
100
AcDbSymbolTableRecord
100
AcDbRegAppTableRecord
  2
ACAD
 70
     0
  0
ENDTAB
  0
TABLE
  2
DIMSTYLE
  5
A
330
0
100
AcDbSymbolTable
 70
     1
100
AcDbDimStyleTable
  0
DIMSTYLE
105
27
330
A
100
AcDbSymbolTableRecord
100
AcDbDimStyleTableRecord
  2
ISO-25
 70
     0
 41
2.5
 42
0.625
 43
3.75
 44
1.25
 73
     0
 74
     0
 77
     1
 78
     8
140
2.5
141
2.5
143
0.03937007874016
147
0.625
171
     3
172
     1
178
     0
271
     2
272
     2
274
     3
278
    44
283
     0
284
     8
340
11
  0
ENDTAB
  0
TABLE
  2
BLOCK_RECORD
  5
1
330
0
100
AcDbSymbolTable
 70
     1
  0
BLOCK_RECORD
  5
1F
330
1
100
AcDbSymbolTableRecord
100
AcDbBlockTableRecord
  2
*Model_Space
340
22
 70
     0
280
     1
281
     0
  0
BLOCK_RECORD
  5
1B
330
1
100
AcDbSymbolTableRecord
100
AcDbBlockTableRecord
  2
*Paper_Space
340
1E
 70
     0
280
     1
281
     0
  0
BLOCK_RECORD
  5
23
330
1
100
AcDbSymbolTableRecord
100
AcDbBlockTableRecord
  2
*Paper_Space0
340
26
 70
     0
280
     1
281
     0
  0
ENDTAB
  0
ENDSEC
  0
SECTION
  2
BLOCKS
  0
BLOCK
  5
20
330
1F
100
AcDbEntity
  8
0
100
AcDbBlockBegin
  2
*Model_Space
 70
     0
 10
0.0
 20
0.0
 30
0.0
  3
*Model_Space
  1

  0
ENDBLK
  5
21
330
1F
100
AcDbEntity
  8
0
100
AcDbBlockEnd
  0
BLOCK
  5
1C
330
1B
100
AcDbEntity
 67
     1
  8
0
100
AcDbBlockBegin
  2
*Paper_Space
 70
     0
 10
0.0
 20
0.0
 30
0.0
  3
*Paper_Space
  1

  0
ENDBLK
  5
1D
330
1B
100
AcDbEntity
 67
     1
  8
0
100
AcDbBlockEnd
  0
BLOCK
  5
24
330
23
100
AcDbEntity
  8
0
100
AcDbBlockBegin
  2
*Paper_Space0
 70
     0
 10
0.0
 20
0.0
 30
0.0
  3
*Paper_Space0
  1

  0
ENDBLK
  5
25
330
23
100
AcDbEntity
  8
0
100
AcDbBlockEnd
  0
ENDSEC
  0
SECTION
  2
ENTITIES
  0
LINE
  5
52
330
1F
100
AcDbEntity
  8
F-0_補助線
  6
JWW_HOJO
 62
   120
370
     5
100
AcDbLine
 10
-6140.081333436773
 20
-4455.0
 30
0.0
 11
-6140.081333436773
 21
4424.999604096284
 31
0.0
  0
LINE
  5
53
330
1F
100
AcDbEntity
  8
F-0_補助線
  6
JWW_HOJO
 62
   120
370
     5
100
AcDbLine
 10
-6140.081333436773
 20
4424.999604096284
 30
0.0
 11
6159.917676803936
 21
4424.999604096284
 31
0.0
  0
LINE
  5
54
330
1F
100
AcDbEntity
  8
F-0_補助線
  6
JWW_HOJO
 62
   120
370
     5
100
AcDbLine
 10
6159.917676803936
 20
4424.999604096284
 30
0.0
 11
6159.917676803936
 21
-4455.0
 31
0.0
  0
LINE
  5
55
330
1F
100
AcDbEntity
  8
F-0_補助線
  6
JWW_HOJO
 62
   120
370
     5
100
AcDbLine
 10
6159.917676803936
 20
-4455.0
 30
0.0
 11
-6140.081333436773
 21
-4455.0
 31
0.0
  0
LINE
  5
56
330
1F
100
AcDbEntity
  8
F-0_補助線
  6
JWW_HOJO
 62
     7
370
     9
100
AcDbLine
 10
1009.918254163524
 20
-3795.000003092998
 30
0.0
 11
1009.918254163524
 21
-4195.000008247994
 31
0.0
  0
LINE
  5
57
330
1F
100
AcDbEntity
  8
F-0_補助線
  6
JWW_HOJO
 62
     7
370
     9
100
AcDbLine
 10
509.9185840832865
 20
-3795.000003092998
 30
0.0
 11
509.9185840832865
 21
-4195.000008247994
 31
0.0
  0
LINE
  5
58
330
1F
100
AcDbEntity
  8
F-1_枠
  6
Continuous
 62
   200
370
    20
100
AcDbLine
 10
5859.917429364114
 20
4174.999769056166
 30
0.0
 11
5859.917429364114
 21
-4205.000164959882
 31
0.0
  0
LINE
  5
59
330
1F
100
AcDbEntity
  8
F-1_枠
  6
Continuous
 62
   200
370
    20
100
AcDbLine
 10
-5840.081317971782
 20
4174.999769056166
 30
0.0
 11
-5840.081317971782
 21
-4205.000164959882
 31
0.0
  0
LINE
  5
5A
330
1F
100
AcDbEntity
  8
F-1_枠
  6
Continuous
 62
   200
370
    20
100
AcDbLine
 10
5859.917429364114
 20
-4205.000002577498
 30
0.0
 11
-5840.081085996952
 21
-4205.000002577498
 31
0.0
  0
LINE
  5
5B
330
1F
100
AcDbEntity
  8
F-1_枠
  6
Continuous
 62
   200
370
    20
100
AcDbLine
 10
-5830.081323642279
 20
4174.999769056166
 30
0.0
 11
-5830.081323642279
 21
-4205.000164959882
 31
0.0
  0
LINE
  5
5C
330
1F
100
AcDbEntity
  8
F-1_枠
  6
Continuous
 62
   200
370
    20
100
AcDbLine
 10
-5835.081309208291
 20
4174.999769056166
 30
0.0
 11
-5835.081309208291
 21
-4205.000164959882
 31
0.0
  0
LINE
  5
5D
330
1F
100
AcDbEntity
  8
F-1_枠
  6
Continuous
 62
   200
370
    20
100
AcDbLine
 10
5854.917165428305
 20
4174.999769056166
 30
0.0
 11
5854.917165428305
 21
-4205.000164959882
 31
0.0
  0
LINE
  5
5E
330
1F
100
AcDbEntity
  8
F-1_枠
  6
Continuous
 62
   200
370
    20
100
AcDbLine
 10
5849.917643811961
 20
4174.999769056166
 30
0.0
 11
5849.917643811961
 21
-4205.000164959882
 31
0.0
  0
LINE
  5
5F
330
1F
100
AcDbEntity
  8
F-1_枠
  6
Continuous
 62
   200
370
    20
100
AcDbLine
 10
5859.917429364114
 20
-4199.999993814004
 30
0.0
 11
-5840.081085996952
 21
-4199.999993814004
 31
0.0
  0
LINE
  5
60
330
1F
100
AcDbEntity
  8
F-1_枠
  6
Continuous
 62
   200
370
    20
100
AcDbLine
 10
5859.917429364114
 20
-4195.000008247994
 30
0.0
 11
-5840.081085996952
 21
-4195.000008247994
 31
0.0
  0
LINE
  5
61
330
1F
100
AcDbEntity
  8
F-1_枠
  6
Continuous
 62
   200
370
    20
100
AcDbLine
 10
4349.917891251784
 20
-3795.000003092998
 30
0.0
 11
4349.917891251784
 21
-4195.000008247994
 31
0.0
  0
LINE
  5
62
330
1F
100
AcDbEntity
  8
F-1_枠
  6
Continuous
 62
   200
370
    20
100
AcDbLine
 10
2849.91739637214
 20
-3795.000003092998
 30
0.0
 11
2849.91739637214
 21
-4195.000008247994
 31
0.0
  0
LINE
  5
63
330
1F
100
AcDbEntity
  8
F-1_枠
  6
Continuous
 62
   200
370
    20
100
AcDbLine
 10
9.918542843316231
 20
-3795.000003092998
 30
0.0
 11
9.918542843316231
 21
-4195.000008247994
 31
0.0
  0
LINE
  5
64
330
1F
100
AcDbEntity
  8
F-1_枠
  6
Continuous
 62
   200
370
    20
100
AcDbLine
 10
9.918542843316231
 20
-3994.999936078046
 30
0.0
 11
5849.917643811961
 21
-3995.005364289155
 31
0.0
  0
LINE
  5
65
330
1F
100
AcDbEntity
  8
F-1_枠
  6
Continuous
 62
   200
370
    20
100
AcDbLine
 10
-5840.081085996952
 20
4174.999769056166
 30
0.0
 11
5859.917429364114
 21
4174.999769056166
 31
0.0
  0
LINE
  5
66
330
1F
100
AcDbEntity
  8
F-1_枠
  6
Continuous
 62
   200
370
    20
100
AcDbLine
 10
-5840.081085996952
 20
4164.999983504013
 30
0.0
 11
5859.917429364114
 21
4164.999983504013
 31
0.0
  0
LINE
  5
67
330
1F
100
AcDbEntity
  8
F-1_枠
  6
Continuous
 62
   200
370
    20
100
AcDbLine
 10
-5840.081085996952
 20
4169.999505120355
 30
0.0
 11
5859.917429364114
 21
4169.999505120355
 31
0.0
  0
LINE
  5
68
330
1F
100
AcDbEntity
  8
F-0_補助線
  6
JWW_HOJO
 62
     7
370
     9
100
AcDbLine
 10
-5830.081323642279
 20
-3994.99993607839
 30
0.0
 11
9.918542843316231
 21
-3994.99993607839
 31
0.0
  0
LINE
  5
69
330
1F
100
AcDbEntity
  8
F-0_補助線
  6
JWW_HOJO
 62
     7
370
     9
100
AcDbLine
 10
-5830.081323642279
 20
-3904.99993607839
 30
0.0
 11
9.918542843316231
 21
-3904.99993607839
 31
0.0
  0
LINE
  5
6A
330
1F
100
AcDbEntity
  8
F-0_補助線
  6
JWW_HOJO
 62
     7
370
     9
100
AcDbLine
 10
-5830.081323642279
 20
-4084.99993607839
 30
0.0
 11
9.918542843316231
 21
-4084.99993607839
 31
0.0
  0
LINE
  5
6B
330
1F
100
AcDbEntity
  8
F-0_補助線
  6
JWW_HOJO
 62
     7
370
     9
100
AcDbLine
 10
9.918408067688347
 20
-4139.999739777983
 30
0.0
 11
5849.917509036333
 21
-4140.005167989091
 31
0.0
  0
LINE
  5
6C
330
1F
100
AcDbEntity
  8
F-0_補助線
  6
JWW_HOJO
 62
     7
370
     9
100
AcDbLine
 10
9.918491721639953
 20
-4049.999739778022
 30
0.0
 11
5849.917592690285
 21
-4050.005167989131
 31
0.0
  0
LINE
  5
6D
330
1F
100
AcDbEntity
  8
F-0_補助線
  6
JWW_HOJO
 62
     7
370
     9
100
AcDbLine
 10
9.91859396535915
 20
-3939.99973721807
 30
0.0
 11
5849.917694934003
 21
-3940.005165429179
 31
0.0
  0
LINE
  5
6E
330
1F
100
AcDbEntity
  8
F-0_補助線
  6
JWW_HOJO
 62
     7
370
     9
100
AcDbLine
 10
9.918677619310756
 20
-3849.999737218109
 30
0.0
 11
5849.917778587955
 21
-3850.005165429218
 31
0.0
  0
LINE
  5
6F
330
1F
100
AcDbEntity
  8
F-0_補助線
  6
JWW_HOJO
 62
     7
370
     9
100
AcDbLine
 10
2939.91739637214
 20
-3795.000003092998
 30
0.0
 11
2939.91739637214
 21
-4195.000008247994
 31
0.0
  0
LINE
  5
70
330
1F
100
AcDbEntity
  8
F-0_補助線
  6
JWW_HOJO
 62
     7
370
     9
100
AcDbLine
 10
99.91854284331623
 20
-3795.000003092998
 30
0.0
 11
99.91854284331623
 21
-4195.000008247994
 31
0.0
  0
LINE
  5
71
330
1F
100
AcDbEntity
  8
F-0_補助線
  6
JWW_HOJO
 62
     7
370
     9
100
AcDbLine
 10
4439.917891251784
 20
-3795.000003092998
 30
0.0
 11
4439.917891251784
 21
-4195.000008247994
 31
0.0
  0
MTEXT
  5
72
330
1F
100
AcDbEntity
  8
F-A_文字
  6
Continuous
 62
     7
370
     0
100
AcDbMText
 10
4439.917891251784
 20
-3887.143854850754
 30
0.0
 40
45.72
 41
240.0
 46
0.0
 71
     7
 72
     1
  1
{\fＭＳ ゴシック|b0|i0|c128|p49;ＤＡＴＥ}
 73
     1
 44
1.0
  0
MTEXT
  5
73
330
1F
100
AcDbEntity
  8
F-A_文字
  6
Continuous
 62
     7
370
     0
100
AcDbMText
 10
4439.917891251784
 20
-4087.143857410839
 30
0.0
 40
45.72
 41
180.0
 46
0.0
 71
     7
 72
     1
  1
{\fＭＳ ゴシック|b0|i0|c128|p49;ＮＯ．}
 73
     1
 44
1.0
  0
MTEXT
  5
74
330
1F
100
AcDbEntity
  8
F-A_文字
  6
Continuous
 62
     7
370
     0
100
AcDbMText
 10
2939.91739637214
 20
-3887.142460617774
 30
0.0
 40
45.72
 41
300.0
 46
0.0
 71
     7
 72
     1
  1
{\fＭＳ ゴシック|b0|i0|c128|p49;ＳＣＡＬＥ}
 73
     1
 44
1.0
  0
MTEXT
  5
75
330
1F
100
AcDbEntity
  8
F-A_文字
  6
Continuous
 62
     7
370
     0
100
AcDbMText
 10
2939.91739637214
 20
-4087.14246317786
 30
0.0
 40
45.72
 41
240.0
 46
0.0
 71
     7
 72
     1
  1
{\fＭＳ ゴシック|b0|i0|c128|p49;ＦＩＬＥ}
 73
     1
 44
1.0
  0
MTEXT
  5
76
330
1F
100
AcDbEntity
  8
F-A_文字
  6
Continuous
 62
     7
370
     0
100
AcDbMText
 10
99.91854284331623
 20
-3887.139820871936
 30
0.0
 40
45.72
 41
180.0
 46
0.0
 71
     7
 72
     1
  1
{\fＭＳ ゴシック|b0|i0|c128|p49;図面名}
 73
     1
 44
1.0
  0
MTEXT
  5
77
330
1F
100
AcDbEntity
  8
F-A_文字
  6
Continuous
 62
     7
370
     0
100
AcDbMText
 10
1604.917396372138
 20
-4164.281754523929
 30
0.0
 40
101.44125
 41
1065.0
 46
0.0
 71
     7
 72
     1
  1
{\fＭＳ ゴシック|b0|i0|c128|p49;ウッドワン・・・}
 73
     1
 44
1.0
  0
MTEXT
  5
78
330
1F
100
AcDbEntity
  8
F-A_文字
  6
Continuous
 62
     7
370
     0
100
AcDbMText
 10
1394.917396372138
 20
-4096.140669266149
 30
0.0
 40
45.72
 41
120.0
 46
0.0
 71
     7
 72
     1
  1
{\fＭＳ ゴシック|b0|i0|c128|p49;株式}
 73
     1
 44
1.0
  0
MTEXT
  5
79
330
1F
100
AcDbEntity
  8
F-A_文字
  6
Continuous
 62
     7
370
     0
100
AcDbMText
 10
1394.917396372138
 20
-4168.140669266187
 30
0.0
 40
45.72
 41
120.0
 46
0.0
 71
     7
 72
     1
  1
{\fＭＳ ゴシック|b0|i0|c128|p49;会社}
 73
     1
 44
1.0
  0
LINE
  5
7A
330
1F
100
AcDbEntity
  8
F-1_枠
  6
Continuous
 62
   200
370
    20
100
AcDbLine
 10
5859.917429364114
 20
-3795.000003092998
 30
0.0
 11
-5840.081085996952
 21
-3795.000003092998
 31
0.0
  0
LINE
  5
7B
330
1F
100
AcDbEntity
  8
F-1_枠
  6
Continuous
 62
   200
370
    20
100
AcDbLine
 10
5859.917429364114
 20
-3790.000017526987
 30
0.0
 11
-5840.081085996952
 21
-3790.000017526987
 31
0.0
  0
LINE
  5
7C
330
1F
100
AcDbEntity
  8
F-0_補助線
  6
JWW_HOJO
 62
     7
370
     9
100
AcDbLine
 10
-5087.628710189611
 20
-3795.000003092999
 30
0.0
 11
-5087.628710189611
 21
-4205.000164959882
 31
0.0
  0
LINE
  5
7D
330
1F
100
AcDbEntity
  8
F-0_補助線
  6
JWW_HOJO
 62
     7
370
     9
100
AcDbLine
 10
-50.08145715668377
 20
-3795.000003092998
 30
0.0
 11
-50.08145715668377
 21
-4195.000008247994
 31
0.0
  0
MTEXT
  5
7E
330
1F
100
AcDbEntity
  8
F-0_補助線
  6
Continuous
 62
     7
370
     0
100
AcDbMText
 10
509.9185840832865
 20
-3946.496666872503
 30
0.0
 40
78.58125
 41
412.5
 46
0.0
 71
     7
 72
     1
  1
{\fＭＳ ゴシック|b0|i0|c128|p49;DOORETUS}
 73
     1
 44
1.0
  0
MTEXT
  5
7F
330
1F
100
AcDbEntity
  8
F-0_補助線
  6
Continuous
 62
     7
370
     0
100
AcDbMText
 10
1110.209427605312
 20
-3946.734791872504
 30
0.0
 40
78.105
 41
615.0
 46
0.0
 71
     7
 72
     1
  1
{\fＭＳ ゴシック|b0|i0|c128|p49;建具納まり図}
 73
     1
 44
1.0
  0
MTEXT
  5
80
330
1F
100
AcDbEntity
  8
F-A_文字
  6
Continuous
 62
     7
370
     9
100
AcDbMText
 10
5096.167700144057
 20
-4147.857012699985
 30
0.0
 40
74.295
 41
97.5
 46
0.0
 71
     7
 72
     1
  1
{\fＭＳ ゴシック|b0|i0|c128|p49;05}
 73
     1
 44
1.0
  0
LINE
  5
81
330
1F
100
AcDbEntity
  8
0-A_文字
  6
Continuous
 62
    92
370
    13
100
AcDbLine
 10
-5659.999495325866
 20
3730.000181456216
 30
0.0
 11
-5659.999495325866
 21
4000.000181456216
 31
0.0
  0
ELLIPSE
  5
82
330
1F
100
AcDbEntity
  8
戸当り
  6
Continuous
 62
    92
370
    13
100
AcDbEllipse
 10
4675.430917458078
 20
2876.053590301854
 30
0.0
 11
11.36181697857171
 21
42.40287823032828
 31
0.0
210
0.0
220
0.0
230
0.9999999999999999
 40
0.6
 41
1.570796326794897
 42
4.71238898038469
  0
LINE
  5
83
330
1F
100
AcDbEntity
  8
戸当り
  6
Continuous
 62
    92
370
    13
100
AcDbLine
 10
4700.872644396272
 20
2869.236500114711
 30
0.0
 11
4649.989190519879
 21
2882.870680488998
 31
0.0
  0
LINE
  5
84
330
1F
100
AcDbEntity
  8
戸当り
  6
Continuous
 62
    92
370
    13
100
AcDbLine
 10
4704.133764364565
 20
2881.407165525953
 30
0.0
 11
4653.25031048817
 21
2895.041345900239
 31
0.0
  0
ELLIPSE
  5
85
330
1F
100
AcDbEntity
  8
戸当り
  6
Continuous
 62
    92
370
    13
100
AcDbEllipse
 10
4699.604310755758
 20
2966.26992228014
 30
0.0
 11
21.86569797210526
 21
81.6038957748525
 31
0.0
210
0.0
220
0.0
230
1.0
 40
0.5
 41
4.340591432030095
 42
8.225779182329084
  0
ELLIPSE
  5
86
330
1F
100
AcDbEntity
  8
戸当り
  6
Continuous
 62
    92
370
    13
100
AcDbEllipse
 10
4698.978687882654
 20
2963.935065931349
 30
0.0
 11
26.49533313827761
 21
98.88192943551533
 31
0.0
210
0.0
220
0.0
230
0.9999999999999999
 40
0.4
 41
3.840308517104466
 42
4.432552034522944
  0
ELLIPSE
  5
87
330
1F
100
AcDbEntity
  8
戸当り
  6
Continuous
 62
    92
370
    13
100
AcDbEllipse
 10
4698.978687882654
 20
2963.935065931349
 30
0.0
 11
26.49533313827761
 21
98.88192943551533
 31
0.0
210
0.0
220
0.0
230
0.9999999999999999
 40
0.4
 41
1.850633272656679
 42
2.442876790075129
  0
ELLIPSE
  5
88
330
1F
100
AcDbEntity
  8
戸当り
  6
Continuous
 62
    92
370
    13
100
AcDbEllipse
 10
4560.316707711374
 20
2838.284846937555
 30
0.0
 11
-7.622927487939132
 21
43.23177007461331
 31
0.0
210
0.0
220
0.0
230
1.0
 40
0.6000000000000001
 41
1.570796326794897
 42
4.71238898038469
  0
LINE
  5
89
330
1F
100
AcDbEntity
  8
戸当り
  6
Continuous
 62
    92
370
    13
100
AcDbLine
 10
4586.255769756144
 20
2842.858603430317
 30
0.0
 11
4534.377645666606
 21
2833.71109044479
 31
0.0
  0
LINE
  5
8A
330
1F
100
AcDbEntity
  8
戸当り
  6
Continuous
 62
    92
370
    13
100
AcDbLine
 10
4584.067802717541
 20
2855.267181118271
 30
0.0
 11
4532.189678628003
 21
2846.119668132745
 31
0.0
  0
ELLIPSE
  5
8B
330
1F
100
AcDbEntity
  8
戸当り
  6
Continuous
 62
    92
370
    13
100
AcDbEllipse
 10
4544.098172894875
 20
2930.264728583198
 30
0.0
 11
-14.67024424252691
 21
83.19908946199426
 31
0.0
210
0.0
220
0.0
230
1.0
 40
0.5
 41
4.340591432030095
 42
8.225779182329084
  0
ELLIPSE
  5
8C
330
1F
100
AcDbEntity
  8
戸当り
  6
Continuous
 62
    92
370
    13
100
AcDbEllipse
 10
4544.51791894478
 20
2927.88423044154
 30
0.0
 11
-17.7763823922528
 21
100.8148742797557
 31
0.0
210
0.0
220
0.0
230
1.0
 40
0.4000000000000001
 41
3.840308517104466
 42
4.432552034522944
  0
ELLIPSE
  5
8D
330
1F
100
AcDbEntity
  8
戸当り
  6
Continuous
 62
    92
370
    13
100
AcDbEllipse
 10
4544.51791894478
 20
2927.88423044154
 30
0.0
 11
-17.7763823922528
 21
100.8148742797557
 31
0.0
210
0.0
220
0.0
230
1.0
 40
0.4000000000000001
 41
1.850633272656679
 42
2.442876790075129
  0
LINE
  5
8E
330
1F
100
AcDbEntity
  8
0-0_補助線
  6
JWW_HOJO
 62
   120
370
     5
100
AcDbLine
 10
4619.917643811961
 20
2718.999983504357
 30
0.0
 11
4619.917643811961
 21
3536.444090121027
 31
0.0
  0
LINE
  5
8F
330
1F
100
AcDbEntity
  8
0-A_文字
  6
Continuous
 62
    92
370
    13
100
AcDbLine
 10
3869.917643811962
 20
3684.999983504357
 30
0.0
 11
3869.917643811962
 21
2718.999983504357
 31
0.0
  0
LINE
  5
90
330
1F
100
AcDbEntity
  8
0-0_補助線
  6
JWW_HOJO
 62
   120
370
     5
100
AcDbLine
 10
3899.917643811962
 20
3684.999983504357
 30
0.0
 11
3899.917643811962
 21
2718.999983504357
 31
0.0
  0
LINE
  5
91
330
1F
100
AcDbEntity
  8
0-A_文字
  6
Continuous
 62
    92
370
    13
100
AcDbLine
 10
5369.917643811961
 20
2718.999983504357
 30
0.0
 11
3869.917643811962
 21
2718.999983504357
 31
0.0
  0
LINE
  5
92
330
1F
100
AcDbEntity
  8
0-A_文字
  6
Continuous
 62
    92
370
    13
100
AcDbLine
 10
5369.917643811961
 20
3684.999983504357
 30
0.0
 11
5369.917643811961
 21
2718.999983504357
 31
0.0
  0
LINE
  5
93
330
1F
100
AcDbEntity
  8
0-0_補助線
  6
JWW_HOJO
 62
   120
370
     5
100
AcDbLine
 10
5339.917643811961
 20
3684.999983504357
 30
0.0
 11
5339.917643811961
 21
2718.999983504357
 31
0.0
  0
LINE
  5
94
330
1F
100
AcDbEntity
  8
戸当り
  6
Continuous
 62
    40
370
    15
100
AcDbLine
 10
4889.917643811961
 20
3385.504011183094
 30
0.0
 11
4854.977072723121
 21
3255.104024634069
 31
0.0
  0
LINE
  5
95
330
1F
100
AcDbEntity
  8
戸当り
  6
Continuous
 62
    40
370
    15
100
AcDbLine
 10
4820.036501634283
 20
3385.504011183094
 30
0.0
 11
4854.977072723121
 21
3255.104024634069
 31
0.0
  0
LINE
  5
96
330
1F
100
AcDbEntity
  8
戸当り
  6
Continuous
 62
    40
370
    15
100
AcDbLine
 10
4419.798785989644
 20
3385.504011183094
 30
0.0
 11
4384.858214900803
 21
3255.104024634069
 31
0.0
  0
LINE
  5
97
330
1F
100
AcDbEntity
  8
戸当り
  6
Continuous
 62
    40
370
    15
100
AcDbLine
 10
4349.917643811961
 20
3385.504011183094
 30
0.0
 11
4384.858214900803
 21
3255.104024634069
 31
0.0
  0
LINE
  5
98
330
1F
100
AcDbEntity
  8
戸当り
  6
Continuous
 62
    40
370
    15
100
AcDbLine
 10
5159.917643811961
 20
3385.504011183094
 30
0.0
 11
5124.977072723121
 21
3255.104024634069
 31
0.0
  0
LINE
  5
99
330
1F
100
AcDbEntity
  8
戸当り
  6
Continuous
 62
    40
370
    15
100
AcDbLine
 10
5090.036501634283
 20
3385.504011183094
 30
0.0
 11
5124.977072723121
 21
3255.104024634069
 31
0.0
  0
LINE
  5
9A
330
1F
100
AcDbEntity
  8
戸当り
  6
Continuous
 62
    40
370
    15
100
AcDbLine
 10
4149.798785989644
 20
3385.504011183094
 30
0.0
 11
4114.858214900803
 21
3255.104024634069
 31
0.0
  0
LINE
  5
9B
330
1F
100
AcDbEntity
  8
戸当り
  6
Continuous
 62
    40
370
    15
100
AcDbLine
 10
4079.917643811962
 20
3385.504011183094
 30
0.0
 11
4114.858214900803
 21
3255.104024634069
 31
0.0
  0
CIRCLE
  5
9C
330
1F
100
AcDbEntity
  8
0-0_補助線
  6
JWW_HOJO
 62
   120
370
     5
100
AcDbCircle
 10
5159.917643811961
 20
3385.504011183094
 30
0.0
 40
135.0
  0
CIRCLE
  5
9D
330
1F
100
AcDbEntity
  8
0-0_補助線
  6
JWW_HOJO
 62
   120
370
     5
100
AcDbCircle
 10
4079.917643811962
 20
3385.504011183094
 30
0.0
 40
135.0
  0
CIRCLE
  5
9E
330
1F
100
AcDbEntity
  8
0-0_補助線
  6
JWW_HOJO
 62
   120
370
     5
100
AcDbCircle
 10
5024.917643811961
 20
3385.504011183094
 30
0.0
 40
135.0
  0
CIRCLE
  5
9F
330
1F
100
AcDbEntity
  8
0-0_補助線
  6
JWW_HOJO
 62
   120
370
     5
100
AcDbCircle
 10
4754.917643811961
 20
3385.504011183094
 30
0.0
 40
135.0
  0
CIRCLE
  5
A0
330
1F
100
AcDbEntity
  8
0-0_補助線
  6
JWW_HOJO
 62
   120
370
     5
100
AcDbCircle
 10
4484.917643811961
 20
3385.504011183094
 30
0.0
 40
135.0
  0
CIRCLE
  5
A1
330
1F
100
AcDbEntity
  8
0-0_補助線
  6
JWW_HOJO
 62
   120
370
     5
100
AcDbCircle
 10
4214.917643811963
 20
3385.504011183094
 30
0.0
 40
135.0
  0
LINE
  5
A2
330
1F
100
AcDbEntity
  8
戸当り
  6
JWW_DASHED2
 62
     7
370
     9
100
AcDbLine
 10
5159.917643811961
 20
3385.504011183094
 30
0.0
 11
4079.917643811962
 21
3385.504011183094
 31
0.0
  0
LINE
  5
A3
330
1F
100
AcDbEntity
  8
戸当り
  6
Continuous
 62
    40
370
    15
100
AcDbLine
 10
4079.917643811962
 20
3439.504011183093
 30
0.0
 11
4079.917643811962
 21
3385.504011183094
 31
0.0
  0
LINE
  5
A4
330
1F
100
AcDbEntity
  8
戸当り
  6
Continuous
 62
    40
370
    15
100
AcDbLine
 10
4079.917643811962
 20
3439.504011183093
 30
0.0
 11
3899.917643811962
 21
3439.504011183093
 31
0.0
  0
LINE
  5
A5
330
1F
100
AcDbEntity
  8
戸当り
  6
Continuous
 62
    40
370
    15
100
AcDbLine
 10
4079.917643811962
 20
3385.504011183094
 30
0.0
 11
3899.917643811962
 21
3385.504011183094
 31
0.0
  0
LINE
  5
A6
330
1F
100
AcDbEntity
  8
戸当り
  6
Continuous
 62
    40
370
    15
100
AcDbLine
 10
5159.917643811961
 20
3439.504011183093
 30
0.0
 11
5159.917643811961
 21
3385.504011183094
 31
0.0
  0
LINE
  5
A7
330
1F
100
AcDbEntity
  8
戸当り
  6
Continuous
 62
    40
370
    15
100
AcDbLine
 10
5159.917643811961
 20
3439.504011183093
 30
0.0
 11
5339.917643811961
 21
3439.504011183093
 31
0.0
  0
LINE
  5
A8
330
1F
100
AcDbEntity
  8
戸当り
  6
Continuous
 62
    40
370
    15
100
AcDbLine
 10
5159.917643811961
 20
3385.504011183094
 30
0.0
 11
5339.917643811961
 21
3385.504011183094
 31
0.0
  0
LINE
  5
A9
330
1F
100
AcDbEntity
  8
0-A_文字
  6
Continuous
 62
    92
370
    13
100
AcDbLine
 10
5369.917643811961
 20
3540.999983504358
 30
0.0
 11
3869.917643811962
 21
3540.999983504358
 31
0.0
  0
LINE
  5
AA
330
1F
100
AcDbEntity
  8
0-A_文字
  6
Continuous
 62
    92
370
    13
100
AcDbLine
 10
5369.917643811961
 20
3684.999983504357
 30
0.0
 11
3869.917643811962
 21
3684.999983504357
 31
0.0
  0
MTEXT
  5
AB
330
1F
100
AcDbEntity
  8
0-A_文字
  6
Continuous
 62
     7
370
     9
100
AcDbMText
 10
4259.917643811961
 20
3562.188554932928
 30
0.0
 40
78.37714285714286
 41
720.0
 46
0.0
 71
     7
 72
     1
  1
{\fＭＳ ゴシック|b0|i0|c128|p49;フリーオープン}
 73
     1
 44
1.0
  0
MTEXT
  5
AC
330
1F
100
AcDbEntity
  8
F-A_文字
  6
Continuous
 62
     7
370
     0
100
AcDbMText
 10
3689.917643811962
 20
-3946.903115907308
 30
0.0
 40
76.19999999999999
 41
150.0
 46
0.0
 71
     7
 72
     1
  1
{\fＭＳ ゴシック|b0|i0|c128|p49;1/5}
 73
     1
 44
1.0
  0
MTEXT
  5
AD
330
1F
100
AcDbEntity
  8
0-A_文字
  6
Continuous
 62
    92
370
    13
100
AcDbMText
 10
-5592.499495325863
 20
3758.977681456216
 30
0.0
 40
147.955
 41
3495.0
 46
0.0
 71
     7
 72
     1
  1
{\fＭＳ ゴシック|b0|i0|c128|p49;クローゼットドア　調整枠　間口１２尺}
 73
     1
 44
1.0
  0
LINE
  5
AE
330
1F
100
AcDbEntity
  8
0-A_文字
  6
Continuous
 62
    92
370
    13
100
AcDbLine
 10
-5659.999495325866
 20
3730.000181456216
 30
0.0
 11
-2007.142857142857
 21
3730.000181456216
 31
0.0
  0
LINE
  5
AF
330
1F
100
AcDbEntity
  8
0-A_文字
  6
Continuous
 62
    92
370
    13
100
AcDbLine
 10
-5659.999495325866
 20
4000.000181456216
 30
0.0
 11
-2007.142857142857
 21
4000.000181456216
 31
0.0
  0
LINE
  5
B0
330
1F
100
AcDbEntity
  8
0-A_文字
  6
Continuous
 62
    92
370
    13
100
AcDbLine
 10
-2007.142857142857
 20
3730.000181456216
 30
0.0
 11
-2007.142857142857
 21
4000.000181456216
 31
0.0
  0
MTEXT
  5
B1
330
1F
100
AcDbEntity
  8
F-A_文字
  6
Continuous
 62
     7
370
     0
100
AcDbMText
 10
-5080.081323642279
 20
-4045.064631200342
 30
0.0
 40
79.87060975609751
 41
4297.5
 46
0.0
 71
     7
 72
     1
  1
{\fＭＳ ゴシック|b0|i0|c128|p49;ドレタス　クローゼットドア  調整枠　３方枠＋床直付けレール　枠外H2,339　枠外W3,393}
 73
     1
 44
1.0
  0
MTEXT
  5
B2
330
1F
100
AcDbEntity
  8
0-0_補助線
  6
Continuous
 62
     7
370
   211
100
AcDbMText
 10
-2175.486629360065
 20
2325.079196304378
 30
0.0
 40
91.43999999999912
 41
179.9999999999983
 46
0.0
 71
     7
 72
     1
  1
{\fＭＳ ゴシック|b0|i0|c128|p49;3.5}
 73
     1
 44
1.0
  0
MTEXT
  5
B3
330
1F
100
AcDbEntity
  8
0-0_補助線
  6
Continuous
 62
     7
370
   211
100
AcDbMText
 10
-1971.694952756371
 20
2325.079196304378
 30
0.0
 40
91.43999999999912
 41
179.9999999999983
 46
0.0
 71
     7
 72
     1
  1
{\fＭＳ ゴシック|b0|i0|c128|p49;2.5}
 73
     1
 44
1.0
  0
MTEXT
  5
B4
330
1F
100
AcDbEntity
  8
0-3_仕上げ
  6
Continuous
 62
     7
370
   211
100
AcDbMText
 10
-1662.751056947477
 20
2287.665022876923
 30
0.0
 40
91.44
 41
120.0
 46
0.0
 71
     7
 72
     1
  1
{\fＭＳ ゴシック|b0|i0|c128|p49;77}
 11
6.123031769111886E-17
 21
1.0
 31
0.0
 73
     1
 44
1.0
  0
LINE
  5
B5
330
1F
100
AcDbEntity
  8
0-0_補助線
  6
JWW_HOJO
 62
   120
370
     5
100
AcDbLine
 10
2781.918394379427
 20
2781.94514659684
 30
0.0
 11
-2762.081209716861
 21
2781.94514659684
 31
0.0
  0
LINE
  5
B6
330
1F
100
AcDbEntity
  8
0-0_補助線
  6
JWW_HOJO
 62
   120
370
     5
100
AcDbLine
 10
2781.918394379427
 20
3141.94514659684
 30
0.0
 11
-2762.081209716861
 21
3141.94514659684
 31
0.0
  0
LINE
  5
B7
330
1F
100
AcDbEntity
  8
0-0_補助線
  6
JWW_HOJO
 62
   120
370
     5
100
AcDbLine
 10
2781.918394379427
 20
2961.94514659684
 30
0.0
 11
-2762.081209716861
 21
2961.94514659684
 31
0.0
  0
LINE
  5
B8
330
1F
100
AcDbEntity
  8
0-1_通り芯
  6
JWW_CENTER1
 62
   120
370
     5
100
AcDbLine
 10
2781.918394379427
 20
2361.94514659684
 30
0.0
 11
-2762.081209716861
 21
2361.94514659684
 31
0.0
  0
LINE
  5
B9
330
1F
100
AcDbEntity
  8
0-0_補助線
  6
Continuous
 62
   120
370
     5
100
AcDbLine
 10
-1982.081407668722
 20
2324.359196304377
 30
0.0
 11
-1997.081407668722
 21
2324.359196304377
 31
0.0
  0
LWPOLYLINE
  5
BA
330
1F
100
AcDbEntity
  8
0-0_補助線
  6
Continuous
 62
     7
370
     9
100
AcDbPolyline
 90
        4
 70
     1
 43
3.0
 10
-1980.581407668722
 20
2324.359196304377
 42
0.4142135623731
 10
-1982.081407668722
 20
2325.859196304377
 42
0.4142135623731
 10
-1983.581407668722
 20
2324.359196304377
 42
0.4142135623731
 10
-1982.081407668722
 20
2322.859196304377
 42
0.4142135623731
  0
LWPOLYLINE
  5
BB
330
1F
100
AcDbEntity
  8
0-0_補助線
  6
Continuous
 62
     7
370
     9
100
AcDbPolyline
 90
        4
 70
     1
 43
3.0
 10
-1995.581407668722
 20
2324.359196304377
 42
0.4142135623731
 10
-1997.081407668722
 20
2325.859196304377
 42
0.4142135623731
 10
-1998.581407668722
 20
2324.359196304377
 42
0.4142135623731
 10
-1997.081407668722
 20
2322.859196304377
 42
0.4142135623731
  0
LINE
  5
BC
330
1F
100
AcDbEntity
  8
0-0_補助線
  6
Continuous
 62
   120
370
     5
100
AcDbLine
 10
-1997.081407668722
 20
2324.359196304377
 30
0.0
 11
-2018.081407668719
 21
2324.359196304377
 31
0.0
  0
LWPOLYLINE
  5
BD
330
1F
100
AcDbEntity
  8
0-0_補助線
  6
Continuous
 62
     7
370
     9
100
AcDbPolyline
 90
        4
 70
     1
 43
3.0
 10
-2016.581407668719
 20
2324.359196304377
 42
0.4142135623731
 10
-2018.081407668719
 20
2325.859196304377
 42
0.4142135623731
 10
-2019.581407668719
 20
2324.359196304377
 42
0.4142135623731
 10
-2018.081407668719
 20
2322.859196304377
 42
0.4142135623731
  0
LINE
  5
BE
330
1F
100
AcDbEntity
  8
0-0_補助線
  6
Continuous
 62
   120
370
     5
100
AcDbLine
 10
-2018.081407668719
 20
2324.359196304377
 30
0.0
 11
-2018.081407668719
 21
2405.688459527563
 31
0.0
  0
LINE
  5
BF
330
1F
100
AcDbEntity
  8
0-7_金物
  6
Continuous
 62
     7
370
     9
100
AcDbLine
 10
2199.918255813122
 20
2271.945220828786
 30
0.0
 11
2199.918255813122
 21
2451.945072364892
 31
0.0
  0
LINE
  5
C0
330
1F
100
AcDbEntity
  8
0-7_金物
  6
Continuous
 62
     7
370
     9
100
AcDbLine
 10
2211.918592331281
 20
2451.945072364892
 30
0.0
 11
2199.918255813122
 21
2451.945072364892
 31
0.0
  0
LINE
  5
C1
330
1F
100
AcDbEntity
  8
0-7_金物
  6
Continuous
 62
     7
370
     9
100
AcDbLine
 10
2211.918592331281
 20
2271.945220828786
 30
0.0
 11
2199.918255813122
 21
2271.945220828786
 31
0.0
  0
LINE
  5
C2
330
1F
100
AcDbEntity
  8
0-7_金物
  6
Continuous
 62
     7
370
     9
100
AcDbLine
 10
2199.918255813122
 20
2301.945319804714
 30
0.0
 11
2187.918661614431
 21
2301.945319804714
 31
0.0
  0
LINE
  5
C3
330
1F
100
AcDbEntity
  8
0-7_金物
  6
Continuous
 62
     7
370
     9
100
AcDbLine
 10
2199.918255813122
 20
2421.944973388963
 30
0.0
 11
2187.918661614431
 21
2421.944973388963
 31
0.0
  0
LINE
  5
C4
330
1F
100
AcDbEntity
  8
0-7_金物
  6
Continuous
 62
     7
370
     9
100
AcDbLine
 10
2187.918661614431
 20
2301.945319804714
 30
0.0
 11
2187.918661614431
 21
2421.944973388963
 31
0.0
  0
LINE
  5
C5
330
1F
100
AcDbEntity
  8
0-7_金物
  6
Continuous
 62
     7
370
     9
100
AcDbLine
 10
2187.918661614431
 20
2415.945547449352
 30
0.0
 11
2181.918592331281
 21
2415.945547449352
 31
0.0
  0
LINE
  5
C6
330
1F
100
AcDbEntity
  8
0-7_金物
  6
Continuous
 62
     7
370
     9
100
AcDbLine
 10
2187.918661614431
 20
2307.945488063794
 30
0.0
 11
2181.918592331281
 21
2307.945488063794
 31
0.0
  0
LINE
  5
C7
330
1F
100
AcDbEntity
  8
0-7_金物
  6
Continuous
 62
     7
370
     9
100
AcDbLine
 10
2211.918592331281
 20
2271.945220828786
 30
0.0
 11
2211.918592331281
 21
2451.945072364892
 31
0.0
  0
LINE
  5
C8
330
1F
100
AcDbEntity
  8
0-7_金物
  6
Continuous
 62
     7
370
     9
100
AcDbLine
 10
-2180.081071150561
 20
2271.945220828786
 30
0.0
 11
-2180.081071150561
 21
2451.945072364892
 31
0.0
  0
LINE
  5
C9
330
1F
100
AcDbEntity
  8
0-7_金物
  6
Continuous
 62
     7
370
     9
100
AcDbLine
 10
-2192.081407668722
 20
2451.945072364892
 30
0.0
 11
-2180.081071150561
 21
2451.945072364892
 31
0.0
  0
LINE
  5
CA
330
1F
100
AcDbEntity
  8
0-7_金物
  6
Continuous
 62
     7
370
     9
100
AcDbLine
 10
-2192.081407668722
 20
2271.945220828786
 30
0.0
 11
-2180.081071150561
 21
2271.945220828786
 31
0.0
  0
LINE
  5
CB
330
1F
100
AcDbEntity
  8
0-7_金物
  6
Continuous
 62
     7
370
     9
100
AcDbLine
 10
-2180.081071150561
 20
2301.945319804714
 30
0.0
 11
-2168.081476951872
 21
2301.945319804714
 31
0.0
  0
LINE
  5
CC
330
1F
100
AcDbEntity
  8
0-7_金物
  6
Continuous
 62
     7
370
     9
100
AcDbLine
 10
-2180.081071150561
 20
2421.944973388963
 30
0.0
 11
-2168.081476951872
 21
2421.944973388963
 31
0.0
  0
LINE
  5
CD
330
1F
100
AcDbEntity
  8
0-7_金物
  6
Continuous
 62
     7
370
     9
100
AcDbLine
 10
-2168.081476951872
 20
2301.945319804714
 30
0.0
 11
-2168.081476951872
 21
2421.944973388963
 31
0.0
  0
LINE
  5
CE
330
1F
100
AcDbEntity
  8
0-7_金物
  6
Continuous
 62
     7
370
     9
100
AcDbLine
 10
-2168.081476951872
 20
2415.945547449352
 30
0.0
 11
-2162.081407668722
 21
2415.945547449352
 31
0.0
  0
LINE
  5
CF
330
1F
100
AcDbEntity
  8
0-7_金物
  6
Continuous
 62
     7
370
     9
100
AcDbLine
 10
-2168.081476951872
 20
2307.945488063794
 30
0.0
 11
-2162.081407668722
 21
2307.945488063794
 31
0.0
  0
LINE
  5
D0
330
1F
100
AcDbEntity
  8
0-7_金物
  6
Continuous
 62
     7
370
     9
100
AcDbLine
 10
-2192.081407668722
 20
2271.945220828786
 30
0.0
 11
-2192.081407668722
 21
2451.945072364892
 31
0.0
  0
LINE
  5
D1
330
1F
100
AcDbEntity
  8
0-B_寸法
  6
Continuous
 62
   120
370
     5
100
AcDbLine
 10
-2192.081407668722
 20
3141.94514659684
 30
0.0
 11
2211.918592331281
 21
3141.94514659684
 31
0.0
  0
LWPOLYLINE
  5
D2
330
1F
100
AcDbEntity
  8
0-B_寸法
  6
Continuous
 62
     7
370
     9
100
AcDbPolyline
 90
        4
 70
     1
 43
3.0
 10
-2190.581407668722
 20
3141.94514659684
 42
0.4142135623731
 10
-2192.081407668722
 20
3143.445146596839
 42
0.4142135623731
 10
-2193.581407668722
 20
3141.94514659684
 42
0.4142135623731
 10
-2192.081407668722
 20
3140.44514659684
 42
0.4142135623731
  0
LWPOLYLINE
  5
D3
330
1F
100
AcDbEntity
  8
0-B_寸法
  6
Continuous
 62
     7
370
     9
100
AcDbPolyline
 90
        4
 70
     1
 43
3.0
 10
2213.418592331281
 20
3141.94514659684
 42
0.4142135623731
 10
2211.918592331281
 20
3143.445146596839
 42
0.4142135623731
 10
2210.418592331281
 20
3141.94514659684
 42
0.4142135623731
 10
2211.918592331281
 20
3140.44514659684
 42
0.4142135623731
  0
LINE
  5
D4
330
1F
100
AcDbEntity
  8
0-B_寸法
  6
Continuous
 62
   120
370
     5
100
AcDbLine
 10
-2192.081407668722
 20
3141.94514659684
 30
0.0
 11
-2192.081407668722
 21
2781.94514659684
 31
0.0
  0
LINE
  5
D5
330
1F
100
AcDbEntity
  8
0-B_寸法
  6
Continuous
 62
   120
370
     5
100
AcDbLine
 10
2211.918592331281
 20
3141.94514659684
 30
0.0
 11
2211.918592331281
 21
2781.94514659684
 31
0.0
  0
ARC
  5
D6
330
1F
100
AcDbEntity
  8
0-6_扉
  6
JWW_DASHED2
 62
    40
370
    15
100
AcDbCircle
 10
1720.83523222093
 20
2557.712520567019
 30
0.0
 40
18.0
100
AcDbArc
 50
85.6539792783598
 51
175.65397927836
  0
LINE
  5
D7
330
1F
100
AcDbEntity
  8
0-6_扉
  6
JWW_DASHED2
 62
    40
370
    15
100
AcDbLine
 10
1811.940478923164
 20
2568.840594224459
 30
0.0
 11
1722.199266006124
 21
2575.660763150428
 31
0.0
  0
ARC
  5
D8
330
1F
100
AcDbEntity
  8
0-6_扉
  6
JWW_DASHED2
 62
    40
370
    15
100
AcDbCircle
 10
1810.57644513797
 20
2550.89235164105
 30
0.0
 40
18.0
100
AcDbArc
 50
355.6539792783599
 51
85.6539792783597
  0
ARC
  5
D9
330
1F
100
AcDbEntity
  8
0-6_扉
  6
JWW_DASHED2
 62
    40
370
    15
100
AcDbCircle
 10
1377.608047831729
 20
2557.712520567022
 30
0.0
 40
18.0
100
AcDbArc
 50
4.346020721638975
 51
94.34602072163908
  0
LINE
  5
DA
330
1F
100
AcDbEntity
  8
0-6_扉
  6
JWW_DASHED2
 62
    40
370
    15
100
AcDbLine
 10
1286.502801129496
 20
2568.840594224464
 30
0.0
 11
1376.244014046533
 21
2575.660763150431
 31
0.0
  0
ARC
  5
DB
330
1F
100
AcDbEntity
  8
0-6_扉
  6
JWW_DASHED2
 62
    40
370
    15
100
AcDbCircle
 10
1287.866834914688
 20
2550.892351641055
 30
0.0
 40
18.0
100
AcDbArc
 50
94.34602072163908
 51
184.3460207216391
  0
LINE
  5
DC
330
1F
100
AcDbEntity
  8
0-6_扉
  6
JWW_DASHED2
 62
    40
370
    15
100
AcDbLine
 10
1828.524687721377
 20
2549.528317855859
 30
0.0
 11
1794.889171845658
 21
2106.94514659684
 31
0.0
  0
LINE
  5
DD
330
1F
100
AcDbEntity
  8
0-6_扉
  6
JWW_DASHED2
 62
    40
370
    15
100
AcDbLine
 10
1269.918592331283
 20
2549.528317855864
 30
0.0
 11
1303.554108206994
 21
2106.94514659684
 31
0.0
  0
LINE
  5
DE
330
1F
100
AcDbEntity
  8
0-6_扉
  6
JWW_DASHED2
 62
    40
370
    15
100
AcDbLine
 10
1395.556290415135
 20
2559.076554352217
 30
0.0
 11
1429.917454894576
 21
2106.94514659684
 31
0.0
  0
LINE
  5
DF
330
1F
100
AcDbEntity
  8
0-6_扉
  6
JWW_DASHED2
 62
    40
370
    15
100
AcDbLine
 10
1702.886989637523
 20
2559.076554352213
 30
0.0
 11
1668.525825158074
 21
2106.94514659684
 31
0.0
  0
LINE
  5
E0
330
1F
100
AcDbEntity
  8
0-1_通り芯
  6
JWW_CENTER1
 62
   120
370
     5
100
AcDbLine
 10
1269.918592331282
 20
2781.94514659684
 30
0.0
 11
1269.918592331282
 21
2549.528317855864
 31
0.0
  0
LWPOLYLINE
  5
E1
330
1F
100
AcDbEntity
  8
0-B_寸法
  6
Continuous
 62
     7
370
     9
100
AcDbPolyline
 90
        4
 70
     1
 43
3.0
 10
1271.418592331282
 20
2961.94514659684
 42
0.4142135623731
 10
1269.918592331282
 20
2963.445146596839
 42
0.4142135623731
 10
1268.418592331282
 20
2961.94514659684
 42
0.4142135623731
 10
1269.918592331282
 20
2960.44514659684
 42
0.4142135623731
  0
LINE
  5
E2
330
1F
100
AcDbEntity
  8
0-B_寸法
  6
Continuous
 62
   120
370
     5
100
AcDbLine
 10
1269.918592331282
 20
2961.94514659684
 30
0.0
 11
1269.918592331282
 21
2781.94514659684
 31
0.0
  0
ARC
  5
E3
330
1F
100
AcDbEntity
  8
0-6_扉
  6
JWW_DASHED2
 62
    40
370
    15
100
AcDbCircle
 10
-1700.998047558366
 20
2557.712520567019
 30
0.0
 40
18.0
100
AcDbArc
 50
4.346020721640005
 51
94.34602072164022
  0
LINE
  5
E4
330
1F
100
AcDbEntity
  8
0-6_扉
  6
JWW_DASHED2
 62
    40
370
    15
100
AcDbLine
 10
-1792.1032942606
 20
2568.840594224459
 30
0.0
 11
-1702.362081343562
 21
2575.660763150428
 31
0.0
  0
ARC
  5
E5
330
1F
100
AcDbEntity
  8
0-6_扉
  6
JWW_DASHED2
 62
    40
370
    15
100
AcDbCircle
 10
-1790.739260475408
 20
2550.89235164105
 30
0.0
 40
18.0
100
AcDbArc
 50
94.3460207216403
 51
184.3460207216401
  0
ARC
  5
E6
330
1F
100
AcDbEntity
  8
0-6_扉
  6
JWW_DASHED2
 62
    40
370
    15
100
AcDbCircle
 10
-1357.770863169166
 20
2557.712520567022
 30
0.0
 40
18.0
100
AcDbArc
 50
85.65397927836092
 51
175.653979278361
  0
LINE
  5
E7
330
1F
100
AcDbEntity
  8
0-6_扉
  6
JWW_DASHED2
 62
    40
370
    15
100
AcDbLine
 10
-1266.665616466933
 20
2568.840594224464
 30
0.0
 11
-1356.40682938397
 21
2575.660763150431
 31
0.0
  0
ARC
  5
E8
330
1F
100
AcDbEntity
  8
0-6_扉
  6
JWW_DASHED2
 62
    40
370
    15
100
AcDbCircle
 10
-1268.029650252125
 20
2550.892351641055
 30
0.0
 40
18.0
100
AcDbArc
 50
355.653979278361
 51
85.65397927836094
  0
LINE
  5
E9
330
1F
100
AcDbEntity
  8
0-6_扉
  6
JWW_DASHED2
 62
    40
370
    15
100
AcDbLine
 10
-1808.687503058813
 20
2549.528317855859
 30
0.0
 11
-1775.051987183096
 21
2106.94514659684
 31
0.0
  0
LINE
  5
EA
330
1F
100
AcDbEntity
  8
0-6_扉
  6
JWW_DASHED2
 62
    40
370
    15
100
AcDbLine
 10
-1250.08140766872
 20
2549.528317855864
 30
0.0
 11
-1283.716923544431
 21
2106.94514659684
 31
0.0
  0
LINE
  5
EB
330
1F
100
AcDbEntity
  8
0-6_扉
  6
JWW_DASHED2
 62
    40
370
    15
100
AcDbLine
 10
-1375.719105752572
 20
2559.076554352217
 30
0.0
 11
-1410.080270232012
 21
2106.94514659684
 31
0.0
  0
LINE
  5
EC
330
1F
100
AcDbEntity
  8
0-6_扉
  6
JWW_DASHED2
 62
    40
370
    15
100
AcDbLine
 10
-1683.049804974961
 20
2559.076554352213
 30
0.0
 11
-1648.688640495511
 21
2106.94514659684
 31
0.0
  0
LINE
  5
ED
330
1F
100
AcDbEntity
  8
0-1_通り芯
  6
JWW_CENTER1
 62
   120
370
     5
100
AcDbLine
 10
-1250.081407668719
 20
2781.94514659684
 30
0.0
 11
-1250.081407668719
 21
2549.528317855864
 31
0.0
  0
LWPOLYLINE
  5
EE
330
1F
100
AcDbEntity
  8
0-B_寸法
  6
Continuous
 62
     7
370
     9
100
AcDbPolyline
 90
        4
 70
     1
 43
3.0
 10
-1248.581407668719
 20
2961.94514659684
 42
0.4142135623731
 10
-1250.081407668719
 20
2963.445146596839
 42
0.4142135623731
 10
-1251.581407668719
 20
2961.94514659684
 42
0.4142135623731
 10
-1250.081407668719
 20
2960.44514659684
 42
0.4142135623731
  0
LINE
  5
EF
330
1F
100
AcDbEntity
  8
0-B_寸法
  6
Continuous
 62
   120
370
     5
100
AcDbLine
 10
-1250.081407668719
 20
2961.94514659684
 30
0.0
 11
-1250.081407668719
 21
2781.94514659684
 31
0.0
  0
LINE
  5
F0
330
1F
100
AcDbEntity
  8
0-B_寸法
  6
Continuous
 62
   120
370
     5
100
AcDbLine
 10
-1250.081407668719
 20
2961.94514659684
 30
0.0
 11
1269.918592331282
 21
2961.94514659684
 31
0.0
  0
LINE
  5
F1
330
1F
100
AcDbEntity
  8
0-C_ハッチ
  6
Continuous
 62
   120
370
     5
100
AcDbLine
 10
-2162.081407668716
 20
2387.264773392529
 30
0.0
 11
-1982.081407668719
 21
2567.264773392526
 31
0.0
  0
LINE
  5
F2
330
1F
100
AcDbEntity
  8
0-C_ハッチ
  6
Continuous
 62
   120
370
     5
100
AcDbLine
 10
-2162.081407668722
 20
2327.867803772819
 30
0.0
 11
-1982.081407668733
 21
2507.86780377281
 31
0.0
  0
LINE
  5
F3
330
1F
100
AcDbEntity
  8
0-C_ハッチ
  6
Continuous
 62
   120
370
     5
100
AcDbLine
 10
-2162.081407668719
 20
2268.470834153177
 30
0.0
 11
-2012.983390909474
 21
2417.568850912423
 31
0.0
  0
LINE
  5
F4
330
1F
100
AcDbEntity
  8
0-C_ハッチ
  6
Continuous
 62
   120
370
     5
100
AcDbLine
 10
-2162.081407668715
 20
2209.073864533535
 30
0.0
 11
-2017.956386889894
 21
2353.198885312356
 31
0.0
  0
ARC
  5
F5
330
1F
100
AcDbEntity
  8
0-4_枠
  6
Continuous
 62
    92
370
    13
100
AcDbCircle
 10
-1712.081407668717
 20
2361.94514659684
 30
0.0
 40
306.0000000000022
100
AcDbArc
 50
151.9275130641473
 51
208.0724869358527
  0
LINE
  5
F6
330
1F
100
AcDbEntity
  8
0-4_枠
  6
Continuous
 62
    92
370
    13
100
AcDbLine
 10
-2096.08140766872
 20
2190.946220485669
 30
0.0
 11
-2042.081407668719
 21
2190.946220485669
 31
0.0
  0
LINE
  5
F7
330
1F
100
AcDbEntity
  8
0-4_枠
  6
Continuous
 62
    92
370
    13
100
AcDbLine
 10
-2162.081407668719
 20
2172.946220485668
 30
0.0
 11
-2132.081407668719
 21
2172.946220485668
 31
0.0
  0
LINE
  5
F8
330
1F
100
AcDbEntity
  8
0-4_枠
  6
Continuous
 62
    92
370
    13
100
AcDbLine
 10
-2132.081407668719
 20
2130.946220485669
 30
0.0
 11
-2132.081407668719
 21
2172.946220485668
 31
0.0
  0
LINE
  5
F9
330
1F
100
AcDbEntity
  8
0-4_枠
  6
Continuous
 62
    92
370
    13
100
AcDbLine
 10
-2096.08140766872
 20
2130.946220485669
 30
0.0
 11
-2096.08140766872
 21
2190.946220485669
 31
0.0
  0
LINE
  5
FA
330
1F
100
AcDbEntity
  8
0-4_枠
  6
Continuous
 62
    92
370
    13
100
AcDbLine
 10
-2132.081407668719
 20
2130.946220485669
 30
0.0
 11
-2096.08140766872
 21
2130.946220485669
 31
0.0
  0
LINE
  5
FB
330
1F
100
AcDbEntity
  8
0-4_枠
  6
Continuous
 62
    92
370
    13
100
AcDbLine
 10
-2042.081407668719
 20
2130.946220485669
 30
0.0
 11
-2042.081407668719
 21
2190.946220485669
 31
0.0
  0
LINE
  5
FC
330
1F
100
AcDbEntity
  8
0-4_枠
  6
Continuous
 62
    92
370
    13
100
AcDbLine
 10
-2042.081407668719
 20
2130.946220485669
 30
0.0
 11
-2026.669364701597
 21
2130.946220485669
 31
0.0
  0
LINE
  5
FD
330
1F
100
AcDbEntity
  8
0-4_枠
  6
Continuous
 62
    92
370
    13
100
AcDbLine
 10
-2026.669364701597
 20
2130.946220485669
 30
0.0
 11
-1982.081407668719
 21
2130.946220485669
 31
0.0
  0
LINE
  5
FE
330
1F
100
AcDbEntity
  8
0-4_枠
  6
Continuous
 62
    92
370
    13
100
AcDbLine
 10
-1982.081407668719
 20
2130.946220485669
 30
0.0
 11
-1982.081407668719
 21
2217.94514659684
 31
0.0
  0
LINE
  5
FF
330
1F
100
AcDbEntity
  8
0-4_枠
  6
Continuous
 62
    92
370
    13
100
AcDbLine
 10
-2162.081407668719
 20
2172.946220485668
 30
0.0
 11
-2162.081407668719
 21
2592.946220485668
 31
0.0
  0
LINE
  5
100
330
1F
100
AcDbEntity
  8
0-C_ハッチ
  6
Continuous
 62
   120
370
     5
100
AcDbLine
 10
-2162.081407668735
 20
2565.455682251506
 30
0.0
 11
-2134.590869434573
 21
2592.946220485668
 31
0.0
  0
LINE
  5
101
330
1F
100
AcDbEntity
  8
0-C_ハッチ
  6
Continuous
 62
   120
370
     5
100
AcDbLine
 10
-2162.081407668729
 20
2446.661743012163
 30
0.0
 11
-2015.796930195224
 21
2592.946220485668
 31
0.0
  0
LINE
  5
102
330
1F
100
AcDbEntity
  8
0-C_ハッチ
  6
Continuous
 62
   120
370
     5
100
AcDbLine
 10
-2162.081407668717
 20
2506.058712631876
 30
0.0
 11
-2075.193899814927
 21
2592.946220485668
 31
0.0
  0
LINE
  5
103
330
1F
100
AcDbEntity
  8
0-4_枠
  6
Continuous
 62
    92
370
    13
100
AcDbLine
 10
-1982.081407668719
 20
2505.945146596838
 30
0.0
 11
-1982.081407668719
 21
2592.946220485668
 31
0.0
  0
LINE
  5
104
330
1F
100
AcDbEntity
  8
0-4_枠
  6
Continuous
 62
    92
370
    13
100
AcDbLine
 10
-2162.081407668719
 20
2592.946220485668
 30
0.0
 11
-1982.081407668719
 21
2592.946220485668
 31
0.0
  0
LINE
  5
105
330
1F
100
AcDbEntity
  8
0-C_ハッチ
  6
Continuous
 62
   120
370
     5
100
AcDbLine
 10
-2138.812082096878
 20
2172.946220485668
 30
0.0
 11
-2011.748011805087
 21
2300.010290777461
 31
0.0
  0
LINE
  5
106
330
1F
100
AcDbEntity
  8
0-C_ハッチ
  6
Continuous
 62
   120
370
     5
100
AcDbLine
 10
-2061.415112477232
 20
2190.946220485669
 30
0.0
 11
-1998.396398262596
 21
2253.964934700305
 31
0.0
  0
LINE
  5
107
330
1F
100
AcDbEntity
  8
0-C_ハッチ
  6
Continuous
 62
   120
370
     5
100
AcDbLine
 10
-2121.415112477232
 20
2130.946220485669
 30
0.0
 11
-2096.08140766872
 21
2156.27992529418
 31
0.0
  0
LINE
  5
108
330
1F
100
AcDbEntity
  8
0-C_ハッチ
  6
Continuous
 62
   120
370
     5
100
AcDbLine
 10
-2042.081407668719
 20
2150.882955674478
 30
0.0
 11
-1982.081407668722
 21
2210.882955674476
 31
0.0
  0
LINE
  5
109
330
1F
100
AcDbEntity
  8
0-C_ハッチ
  6
Continuous
 62
   120
370
     5
100
AcDbLine
 10
-2002.621173237883
 20
2130.946220485669
 30
0.0
 11
-1982.081407668726
 21
2151.485986054824
 31
0.0
  0
ARC
  5
10A
330
1F
100
AcDbEntity
  8
0-4_枠
  6
Continuous
 62
    92
370
    13
100
AcDbCircle
 10
1731.91859233128
 20
2361.94514659684
 30
0.0
 40
306.0000000000022
100
AcDbArc
 50
331.9275130641473
 51
28.07248693585271
  0
LINE
  5
10B
330
1F
100
AcDbEntity
  8
0-4_枠
  6
Continuous
 62
    92
370
    13
100
AcDbLine
 10
2115.918592331282
 20
2190.946220485669
 30
0.0
 11
2061.918592331281
 21
2190.946220485669
 31
0.0
  0
LINE
  5
10C
330
1F
100
AcDbEntity
  8
0-4_枠
  6
Continuous
 62
    92
370
    13
100
AcDbLine
 10
2181.918592331281
 20
2172.946220485668
 30
0.0
 11
2151.918592331281
 21
2172.946220485668
 31
0.0
  0
LINE
  5
10D
330
1F
100
AcDbEntity
  8
0-4_枠
  6
Continuous
 62
    92
370
    13
100
AcDbLine
 10
2151.918592331281
 20
2130.946220485669
 30
0.0
 11
2151.918592331281
 21
2172.946220485668
 31
0.0
  0
LINE
  5
10E
330
1F
100
AcDbEntity
  8
0-4_枠
  6
Continuous
 62
    92
370
    13
100
AcDbLine
 10
2115.918592331282
 20
2130.946220485669
 30
0.0
 11
2115.918592331282
 21
2190.946220485669
 31
0.0
  0
LINE
  5
10F
330
1F
100
AcDbEntity
  8
0-4_枠
  6
Continuous
 62
    92
370
    13
100
AcDbLine
 10
2151.918592331281
 20
2130.946220485669
 30
0.0
 11
2115.918592331282
 21
2130.946220485669
 31
0.0
  0
LINE
  5
110
330
1F
100
AcDbEntity
  8
0-4_枠
  6
Continuous
 62
    92
370
    13
100
AcDbLine
 10
2061.918592331281
 20
2130.946220485669
 30
0.0
 11
2061.918592331281
 21
2190.946220485669
 31
0.0
  0
LINE
  5
111
330
1F
100
AcDbEntity
  8
0-4_枠
  6
Continuous
 62
    92
370
    13
100
AcDbLine
 10
2061.918592331281
 20
2130.946220485669
 30
0.0
 11
2046.506549364159
 21
2130.946220485669
 31
0.0
  0
LINE
  5
112
330
1F
100
AcDbEntity
  8
0-4_枠
  6
Continuous
 62
    92
370
    13
100
AcDbLine
 10
2046.506549364159
 20
2130.946220485669
 30
0.0
 11
2001.918592331281
 21
2130.946220485669
 31
0.0
  0
LINE
  5
113
330
1F
100
AcDbEntity
  8
0-4_枠
  6
Continuous
 62
    92
370
    13
100
AcDbLine
 10
2001.918592331281
 20
2130.946220485669
 30
0.0
 11
2001.918592331281
 21
2217.94514659684
 31
0.0
  0
LINE
  5
114
330
1F
100
AcDbEntity
  8
0-4_枠
  6
Continuous
 62
    92
370
    13
100
AcDbLine
 10
2181.918592331281
 20
2172.946220485668
 30
0.0
 11
2181.918592331281
 21
2592.946220485668
 31
0.0
  0
LINE
  5
115
330
1F
100
AcDbEntity
  8
0-4_枠
  6
Continuous
 62
    92
370
    13
100
AcDbLine
 10
2001.918592331281
 20
2505.945146596838
 30
0.0
 11
2001.918592331281
 21
2592.946220485668
 31
0.0
  0
LINE
  5
116
330
1F
100
AcDbEntity
  8
0-4_枠
  6
Continuous
 62
    92
370
    13
100
AcDbLine
 10
2181.918592331281
 20
2592.946220485668
 30
0.0
 11
2001.918592331281
 21
2592.946220485668
 31
0.0
  0
LINE
  5
117
330
1F
100
AcDbEntity
  8
0-C_ハッチ
  6
Continuous
 62
   120
370
     5
100
AcDbLine
 10
2130.943833667051
 20
2130.946220485669
 30
0.0
 11
2151.918592331285
 21
2151.920979149904
 31
0.0
  0
LINE
  5
118
330
1F
100
AcDbEntity
  8
0-C_ハッチ
  6
Continuous
 62
   120
370
     5
100
AcDbLine
 10
2172.943833667037
 20
2172.946220485655
 30
0.0
 11
2181.918592331297
 21
2181.920979149914
 31
0.0
  0
LINE
  5
119
330
1F
100
AcDbEntity
  8
0-C_ハッチ
  6
Continuous
 62
   120
370
     5
100
AcDbLine
 10
2115.918592331265
 20
2175.317948769586
 30
0.0
 11
2181.918592331281
 21
2241.317948769601
 31
0.0
  0
LINE
  5
11A
330
1F
100
AcDbEntity
  8
0-C_ハッチ
  6
Continuous
 62
   120
370
     5
100
AcDbLine
 10
2012.149894427698
 20
2130.946220485665
 30
0.0
 11
2061.918592331286
 21
2180.714918389253
 31
0.0
  0
LINE
  5
11B
330
1F
100
AcDbEntity
  8
0-C_ハッチ
  6
Continuous
 62
   120
370
     5
100
AcDbLine
 10
2072.149894427699
 20
2190.946220485665
 30
0.0
 11
2181.918592331288
 21
2300.714918389256
 31
0.0
  0
LINE
  5
11C
330
1F
100
AcDbEntity
  8
0-C_ハッチ
  6
Continuous
 62
   120
370
     5
100
AcDbLine
 10
2001.918592331291
 20
2180.111888008906
 30
0.0
 11
2181.918592331289
 21
2360.111888008903
 31
0.0
  0
LINE
  5
11D
330
1F
100
AcDbEntity
  8
0-C_ハッチ
  6
Continuous
 62
   120
370
     5
100
AcDbLine
 10
2019.331252962004
 20
2256.92151825932
 30
0.0
 11
2181.918592331289
 21
2419.508857628606
 31
0.0
  0
LINE
  5
11E
330
1F
100
AcDbEntity
  8
0-C_ハッチ
  6
Continuous
 62
   120
370
     5
100
AcDbLine
 10
2036.601933709469
 20
2333.589168626432
 30
0.0
 11
2181.918592331286
 21
2478.905827248249
 31
0.0
  0
LINE
  5
11F
330
1F
100
AcDbEntity
  8
0-C_ハッチ
  6
Continuous
 62
   120
370
     5
100
AcDbLine
 10
2036.364246639243
 20
2392.748451175908
 30
0.0
 11
2181.918592331286
 21
2538.302796867952
 31
0.0
  0
LINE
  5
120
330
1F
100
AcDbEntity
  8
0-C_ハッチ
  6
Continuous
 62
   120
370
     5
100
AcDbLine
 10
2027.037902768963
 20
2442.819076925276
 30
0.0
 11
2177.165046329354
 21
2592.946220485668
 31
0.0
  0
LINE
  5
121
330
1F
100
AcDbEntity
  8
0-C_ハッチ
  6
Continuous
 62
   120
370
     5
100
AcDbLine
 10
2011.391040434585
 20
2486.569184210544
 30
0.0
 11
2117.768076709696
 21
2592.946220485656
 31
0.0
  0
LINE
  5
122
330
1F
100
AcDbEntity
  8
0-C_ハッチ
  6
Continuous
 62
   120
370
     5
100
AcDbLine
 10
2001.91859233129
 20
2536.493705726951
 30
0.0
 11
2058.371107089993
 21
2592.946220485655
 31
0.0
  0
LINE
  5
123
330
1F
100
AcDbEntity
  8
0-0_補助線
  6
JWW_HOJO
 62
   120
370
     5
100
AcDbLine
 10
-2762.081209716861
 20
1086.945146596839
 30
0.0
 11
-2762.081209716861
 21
3141.94514659684
 31
0.0
  0
LINE
  5
124
330
1F
100
AcDbEntity
  8
0-0_補助線
  6
JWW_HOJO
 62
   120
370
     5
100
AcDbLine
 10
2781.918394379427
 20
1086.945146596839
 30
0.0
 11
2781.918394379427
 21
3141.94514659684
 31
0.0
  0
LINE
  5
125
330
1F
100
AcDbEntity
  8
0-0_補助線
  6
JWW_HOJO
 62
   120
370
     5
100
AcDbLine
 10
2781.918394379427
 20
1446.945146596839
 30
0.0
 11
-2762.081209716861
 21
1446.945146596839
 31
0.0
  0
LINE
  5
126
330
1F
100
AcDbEntity
  8
0-0_補助線
  6
JWW_HOJO
 62
   120
370
     5
100
AcDbLine
 10
2781.918394379427
 20
1266.945146596839
 30
0.0
 11
-2762.081209716861
 21
1266.945146596839
 31
0.0
  0
LINE
  5
127
330
1F
100
AcDbEntity
  8
0-0_補助線
  6
JWW_HOJO
 62
   120
370
     5
100
AcDbLine
 10
2781.918394379427
 20
1086.945146596839
 30
0.0
 11
-2762.081209716861
 21
1086.945146596839
 31
0.0
  0
LINE
  5
128
330
1F
100
AcDbEntity
  8
0-0_補助線
  6
JWW_HOJO
 62
   120
370
     5
100
AcDbLine
 10
2781.918394379427
 20
1626.945146596839
 30
0.0
 11
-2762.081209716861
 21
1626.945146596839
 31
0.0
  0
LINE
  5
129
330
1F
100
AcDbEntity
  8
0-0_補助線
  6
JWW_HOJO
 62
   120
370
     5
100
AcDbLine
 10
2781.918394379427
 20
1806.945146596839
 30
0.0
 11
-2762.081209716861
 21
1806.945146596839
 31
0.0
  0
LINE
  5
12A
330
1F
100
AcDbEntity
  8
0-0_補助線
  6
JWW_HOJO
 62
     7
370
     9
100
AcDbLine
 10
-1982.081407668722
 20
906.9451465968393
 30
0.0
 11
-1982.081407668722
 21
3321.94514659684
 31
0.0
  0
LINE
  5
12B
330
1F
100
AcDbEntity
  8
0-0_補助線
  6
JWW_HOJO
 62
     7
370
     9
100
AcDbLine
 10
2001.918592331281
 20
906.9451465968393
 30
0.0
 11
2001.918592331281
 21
3321.94514659684
 31
0.0
  0
LINE
  5
12C
330
1F
100
AcDbEntity
  8
0-0_補助線
  6
JWW_HOJO
 62
     7
370
     9
100
AcDbLine
 10
-1499.831407668723
 20
906.9451465968393
 30
0.0
 11
-1499.831407668723
 21
3321.94514659684
 31
0.0
  0
LINE
  5
12D
330
1F
100
AcDbEntity
  8
0-0_補助線
  6
JWW_HOJO
 62
     7
370
     9
100
AcDbLine
 10
-996.5814076687243
 20
906.9451465968393
 30
0.0
 11
-996.5814076687243
 21
3321.94514659684
 31
0.0
  0
LINE
  5
12E
330
1F
100
AcDbEntity
  8
0-0_補助線
  6
JWW_HOJO
 62
     7
370
     9
100
AcDbLine
 10
-493.3314076687216
 20
906.9451465968393
 30
0.0
 11
-493.3314076687216
 21
3321.94514659684
 31
0.0
  0
LINE
  5
12F
330
1F
100
AcDbEntity
  8
0-0_補助線
  6
JWW_HOJO
 62
     7
370
     9
100
AcDbLine
 10
9.918592331276841
 20
906.9451465968393
 30
0.0
 11
9.918592331276841
 21
3321.94514659684
 31
0.0
  0
LINE
  5
130
330
1F
100
AcDbEntity
  8
0-0_補助線
  6
JWW_HOJO
 62
     7
370
     9
100
AcDbLine
 10
513.1685923312766
 20
906.9451465968393
 30
0.0
 11
513.1685923312766
 21
3321.94514659684
 31
0.0
  0
LINE
  5
131
330
1F
100
AcDbEntity
  8
0-0_補助線
  6
JWW_HOJO
 62
     7
370
     9
100
AcDbLine
 10
1016.418592331281
 20
906.9451465968393
 30
0.0
 11
1016.418592331281
 21
3321.94514659684
 31
0.0
  0
LINE
  5
132
330
1F
100
AcDbEntity
  8
0-0_補助線
  6
JWW_HOJO
 62
     7
370
     9
100
AcDbLine
 10
1519.668592331277
 20
906.9451465968393
 30
0.0
 11
1519.668592331277
 21
3321.94514659684
 31
0.0
  0
LINE
  5
133
330
1F
100
AcDbEntity
  8
0-B_寸法
  6
Continuous
 62
   120
370
     5
100
AcDbLine
 10
-1997.081407668722
 20
1626.945146596839
 30
0.0
 11
-1502.831407668724
 21
1626.945146596839
 31
0.0
  0
LWPOLYLINE
  5
134
330
1F
100
AcDbEntity
  8
0-B_寸法
  6
Continuous
 62
     7
370
     9
100
AcDbPolyline
 90
        4
 70
     1
 43
3.0
 10
-1995.581407668722
 20
1626.945146596839
 42
0.4142135623731
 10
-1997.081407668722
 20
1628.445146596839
 42
0.4142135623731
 10
-1998.581407668722
 20
1626.945146596839
 42
0.4142135623731
 10
-1997.081407668722
 20
1625.445146596839
 42
0.4142135623731
  0
LINE
  5
135
330
1F
100
AcDbEntity
  8
0-B_寸法
  6
Continuous
 62
   120
370
     5
100
AcDbLine
 10
-1997.081407668722
 20
1626.945146596839
 30
0.0
 11
-1997.081407668722
 21
1806.945146596839
 31
0.0
  0
LINE
  5
136
330
1F
100
AcDbEntity
  8
0-B_寸法
  6
Continuous
 62
   120
370
     5
100
AcDbLine
 10
-1502.831407668724
 20
1626.945146596839
 30
0.0
 11
-1502.831407668724
 21
1806.945146596839
 31
0.0
  0
LINE
  5
137
330
1F
100
AcDbEntity
  8
0-B_寸法
  6
Continuous
 62
   120
370
     5
100
AcDbLine
 10
-1496.831407668723
 20
1626.945146596839
 30
0.0
 11
-1496.831407668723
 21
1806.945146596839
 31
0.0
  0
LINE
  5
138
330
1F
100
AcDbEntity
  8
0-B_寸法
  6
Continuous
 62
   120
370
     5
100
AcDbLine
 10
-1002.581407668723
 20
1626.945146596839
 30
0.0
 11
-1002.581407668723
 21
1806.945146596839
 31
0.0
  0
LINE
  5
139
330
1F
100
AcDbEntity
  8
0-B_寸法
  6
Continuous
 62
   120
370
     5
100
AcDbLine
 10
-990.5814076687229
 20
1626.945146596839
 30
0.0
 11
-990.5814076687229
 21
1806.945146596839
 31
0.0
  0
LINE
  5
13A
330
1F
100
AcDbEntity
  8
0-B_寸法
  6
Continuous
 62
   120
370
     5
100
AcDbLine
 10
-496.3314076687232
 20
1626.945146596839
 30
0.0
 11
-496.3314076687232
 21
1806.945146596839
 31
0.0
  0
LINE
  5
13B
330
1F
100
AcDbEntity
  8
0-B_寸法
  6
Continuous
 62
   120
370
     5
100
AcDbLine
 10
-490.3314076687192
 20
1626.945146596839
 30
0.0
 11
-490.3314076687192
 21
1806.945146596839
 31
0.0
  0
LINE
  5
13C
330
1F
100
AcDbEntity
  8
0-B_寸法
  6
Continuous
 62
   120
370
     5
100
AcDbLine
 10
3.918592331277182
 20
1626.945146596839
 30
0.0
 11
3.918592331277182
 21
1806.945146596839
 31
0.0
  0
LINE
  5
13D
330
1F
100
AcDbEntity
  8
0-B_寸法
  6
Continuous
 62
   120
370
     5
100
AcDbLine
 10
15.91859233127565
 20
1626.945146596839
 30
0.0
 11
15.91859233127565
 21
1806.945146596839
 31
0.0
  0
LINE
  5
13E
330
1F
100
AcDbEntity
  8
0-B_寸法
  6
Continuous
 62
   120
370
     5
100
AcDbLine
 10
510.1685923312767
 20
1626.945146596839
 30
0.0
 11
510.1685923312767
 21
1806.945146596839
 31
0.0
  0
LINE
  5
13F
330
1F
100
AcDbEntity
  8
0-B_寸法
  6
Continuous
 62
   120
370
     5
100
AcDbLine
 10
516.1685923312751
 20
1626.945146596839
 30
0.0
 11
516.1685923312751
 21
1806.945146596839
 31
0.0
  0
LINE
  5
140
330
1F
100
AcDbEntity
  8
0-B_寸法
  6
Continuous
 62
   120
370
     5
100
AcDbLine
 10
1010.418592331286
 20
1626.945146596839
 30
0.0
 11
1010.418592331286
 21
1806.945146596839
 31
0.0
  0
LINE
  5
141
330
1F
100
AcDbEntity
  8
0-B_寸法
  6
Continuous
 62
   120
370
     5
100
AcDbLine
 10
1022.418592331276
 20
1626.945146596839
 30
0.0
 11
1022.418592331276
 21
1806.945146596839
 31
0.0
  0
LINE
  5
142
330
1F
100
AcDbEntity
  8
0-B_寸法
  6
Continuous
 62
   120
370
     5
100
AcDbLine
 10
1516.668592331276
 20
1626.945146596839
 30
0.0
 11
1516.668592331276
 21
1806.945146596839
 31
0.0
  0
LINE
  5
143
330
1F
100
AcDbEntity
  8
0-B_寸法
  6
Continuous
 62
   120
370
     5
100
AcDbLine
 10
1522.668592331275
 20
1626.945146596839
 30
0.0
 11
2016.918592331286
 21
1626.945146596839
 31
0.0
  0
LWPOLYLINE
  5
144
330
1F
100
AcDbEntity
  8
0-B_寸法
  6
Continuous
 62
     7
370
     9
100
AcDbPolyline
 90
        4
 70
     1
 43
3.0
 10
2018.418592331286
 20
1626.945146596839
 42
0.4142135623731
 10
2016.918592331286
 20
1628.445146596839
 42
0.4142135623731
 10
2015.418592331286
 20
1626.945146596839
 42
0.4142135623731
 10
2016.918592331286
 20
1625.445146596839
 42
0.4142135623731
  0
LINE
  5
145
330
1F
100
AcDbEntity
  8
0-B_寸法
  6
Continuous
 62
   120
370
     5
100
AcDbLine
 10
1522.668592331275
 20
1626.945146596839
 30
0.0
 11
1522.668592331275
 21
1806.945146596839
 31
0.0
  0
LINE
  5
146
330
1F
100
AcDbEntity
  8
0-B_寸法
  6
Continuous
 62
   120
370
     5
100
AcDbLine
 10
2016.918592331286
 20
1626.945146596839
 30
0.0
 11
2016.918592331286
 21
1806.945146596839
 31
0.0
  0
LINE
  5
147
330
1F
100
AcDbEntity
  8
0-B_寸法
  6
Continuous
 62
   120
370
     5
100
AcDbLine
 10
-1997.081407668722
 20
1446.945146596839
 30
0.0
 11
-1002.581407668723
 21
1446.945146596839
 31
0.0
  0
LWPOLYLINE
  5
148
330
1F
100
AcDbEntity
  8
0-B_寸法
  6
Continuous
 62
     7
370
     9
100
AcDbPolyline
 90
        4
 70
     1
 43
3.0
 10
-1995.581407668722
 20
1446.945146596839
 42
0.4142135623731
 10
-1997.081407668722
 20
1448.445146596839
 42
0.4142135623731
 10
-1998.581407668722
 20
1446.945146596839
 42
0.4142135623731
 10
-1997.081407668722
 20
1445.445146596839
 42
0.4142135623731
  0
LINE
  5
149
330
1F
100
AcDbEntity
  8
0-B_寸法
  6
Continuous
 62
   120
370
     5
100
AcDbLine
 10
-1997.081407668722
 20
1446.945146596839
 30
0.0
 11
-1997.081407668722
 21
1626.945146596839
 31
0.0
  0
LINE
  5
14A
330
1F
100
AcDbEntity
  8
0-B_寸法
  6
Continuous
 62
   120
370
     5
100
AcDbLine
 10
1022.418592331276
 20
1446.945146596839
 30
0.0
 11
2016.918592331286
 21
1446.945146596839
 31
0.0
  0
LWPOLYLINE
  5
14B
330
1F
100
AcDbEntity
  8
0-B_寸法
  6
Continuous
 62
     7
370
     9
100
AcDbPolyline
 90
        4
 70
     1
 43
3.0
 10
2018.418592331286
 20
1446.945146596839
 42
0.4142135623731
 10
2016.918592331286
 20
1448.445146596839
 42
0.4142135623731
 10
2015.418592331286
 20
1446.945146596839
 42
0.4142135623731
 10
2016.918592331286
 20
1445.445146596839
 42
0.4142135623731
  0
LINE
  5
14C
330
1F
100
AcDbEntity
  8
0-B_寸法
  6
Continuous
 62
   120
370
     5
100
AcDbLine
 10
2016.918592331286
 20
1446.945146596839
 30
0.0
 11
2016.918592331286
 21
1626.945146596839
 31
0.0
  0
LWPOLYLINE
  5
14D
330
1F
100
AcDbEntity
  8
0-B_寸法
  6
Continuous
 62
     7
370
     9
100
AcDbPolyline
 90
        4
 70
     1
 43
3.0
 10
-1501.331407668725
 20
1626.945146596839
 42
0.4142135623731
 10
-1502.831407668724
 20
1628.445146596839
 42
0.4142135623731
 10
-1504.331407668724
 20
1626.945146596839
 42
0.4142135623731
 10
-1502.831407668724
 20
1625.445146596839
 42
0.4142135623731
  0
LINE
  5
14E
330
1F
100
AcDbEntity
  8
0-B_寸法
  6
Continuous
 62
   120
370
     5
100
AcDbLine
 10
-1496.831407668723
 20
1626.945146596839
 30
0.0
 11
-1002.581407668723
 21
1626.945146596839
 31
0.0
  0
LWPOLYLINE
  5
14F
330
1F
100
AcDbEntity
  8
0-B_寸法
  6
Continuous
 62
     7
370
     9
100
AcDbPolyline
 90
        4
 70
     1
 43
3.0
 10
-1495.331407668723
 20
1626.945146596839
 42
0.4142135623731
 10
-1496.831407668723
 20
1628.445146596839
 42
0.4142135623731
 10
-1498.331407668723
 20
1626.945146596839
 42
0.4142135623731
 10
-1496.831407668723
 20
1625.445146596839
 42
0.4142135623731
  0
LWPOLYLINE
  5
150
330
1F
100
AcDbEntity
  8
0-B_寸法
  6
Continuous
 62
     7
370
     9
100
AcDbPolyline
 90
        4
 70
     1
 43
3.0
 10
-1001.081407668723
 20
1626.945146596839
 42
0.4142135623731
 10
-1002.581407668723
 20
1628.445146596839
 42
0.4142135623731
 10
-1004.081407668723
 20
1626.945146596839
 42
0.4142135623731
 10
-1002.581407668723
 20
1625.445146596839
 42
0.4142135623731
  0
LINE
  5
151
330
1F
100
AcDbEntity
  8
0-B_寸法
  6
Continuous
 62
   120
370
     5
100
AcDbLine
 10
-990.5814076687229
 20
1626.945146596839
 30
0.0
 11
-496.3314076687232
 21
1626.945146596839
 31
0.0
  0
LWPOLYLINE
  5
152
330
1F
100
AcDbEntity
  8
0-B_寸法
  6
Continuous
 62
     7
370
     9
100
AcDbPolyline
 90
        4
 70
     1
 43
3.0
 10
-989.081407668723
 20
1626.945146596839
 42
0.4142135623731
 10
-990.5814076687229
 20
1628.445146596839
 42
0.4142135623731
 10
-992.0814076687229
 20
1626.945146596839
 42
0.4142135623731
 10
-990.5814076687229
 20
1625.445146596839
 42
0.4142135623731
  0
LWPOLYLINE
  5
153
330
1F
100
AcDbEntity
  8
0-B_寸法
  6
Continuous
 62
     7
370
     9
100
AcDbPolyline
 90
        4
 70
     1
 43
3.0
 10
-494.8314076687232
 20
1626.945146596839
 42
0.4142135623731
 10
-496.3314076687232
 20
1628.445146596839
 42
0.4142135623731
 10
-497.8314076687232
 20
1626.945146596839
 42
0.4142135623731
 10
-496.3314076687232
 20
1625.445146596839
 42
0.4142135623731
  0
LINE
  5
154
330
1F
100
AcDbEntity
  8
0-B_寸法
  6
Continuous
 62
   120
370
     5
100
AcDbLine
 10
-490.3314076687192
 20
1626.945146596839
 30
0.0
 11
3.918592331277182
 21
1626.945146596839
 31
0.0
  0
LWPOLYLINE
  5
155
330
1F
100
AcDbEntity
  8
0-B_寸法
  6
Continuous
 62
     7
370
     9
100
AcDbPolyline
 90
        4
 70
     1
 43
3.0
 10
-488.8314076687192
 20
1626.945146596839
 42
0.4142135623731
 10
-490.3314076687192
 20
1628.445146596839
 42
0.4142135623731
 10
-491.8314076687192
 20
1626.945146596839
 42
0.4142135623731
 10
-490.3314076687192
 20
1625.445146596839
 42
0.4142135623731
  0
LWPOLYLINE
  5
156
330
1F
100
AcDbEntity
  8
0-B_寸法
  6
Continuous
 62
     7
370
     9
100
AcDbPolyline
 90
        4
 70
     1
 43
3.0
 10
5.418592331277182
 20
1626.945146596839
 42
0.4142135623731
 10
3.918592331277182
 20
1628.445146596839
 42
0.4142135623731
 10
2.418592331277182
 20
1626.945146596839
 42
0.4142135623731
 10
3.918592331277182
 20
1625.445146596839
 42
0.4142135623731
  0
LINE
  5
157
330
1F
100
AcDbEntity
  8
0-B_寸法
  6
Continuous
 62
   120
370
     5
100
AcDbLine
 10
15.91859233127565
 20
1626.945146596839
 30
0.0
 11
510.1685923312767
 21
1626.945146596839
 31
0.0
  0
LWPOLYLINE
  5
158
330
1F
100
AcDbEntity
  8
0-B_寸法
  6
Continuous
 62
     7
370
     9
100
AcDbPolyline
 90
        4
 70
     1
 43
3.0
 10
17.41859233127565
 20
1626.945146596839
 42
0.4142135623731
 10
15.91859233127565
 20
1628.445146596839
 42
0.4142135623731
 10
14.41859233127565
 20
1626.945146596839
 42
0.4142135623731
 10
15.91859233127565
 20
1625.445146596839
 42
0.4142135623731
  0
LWPOLYLINE
  5
159
330
1F
100
AcDbEntity
  8
0-B_寸法
  6
Continuous
 62
     7
370
     9
100
AcDbPolyline
 90
        4
 70
     1
 43
3.0
 10
511.6685923312768
 20
1626.945146596839
 42
0.4142135623731
 10
510.1685923312767
 20
1628.445146596839
 42
0.4142135623731
 10
508.6685923312767
 20
1626.945146596839
 42
0.4142135623731
 10
510.1685923312767
 20
1625.445146596839
 42
0.4142135623731
  0
LINE
  5
15A
330
1F
100
AcDbEntity
  8
0-B_寸法
  6
Continuous
 62
   120
370
     5
100
AcDbLine
 10
516.1685923312751
 20
1626.945146596839
 30
0.0
 11
1010.418592331286
 21
1626.945146596839
 31
0.0
  0
LWPOLYLINE
  5
15B
330
1F
100
AcDbEntity
  8
0-B_寸法
  6
Continuous
 62
     7
370
     9
100
AcDbPolyline
 90
        4
 70
     1
 43
3.0
 10
517.6685923312751
 20
1626.945146596839
 42
0.4142135623731
 10
516.1685923312751
 20
1628.445146596839
 42
0.4142135623731
 10
514.6685923312751
 20
1626.945146596839
 42
0.4142135623731
 10
516.1685923312751
 20
1625.445146596839
 42
0.4142135623731
  0
LWPOLYLINE
  5
15C
330
1F
100
AcDbEntity
  8
0-B_寸法
  6
Continuous
 62
     7
370
     9
100
AcDbPolyline
 90
        4
 70
     1
 43
3.0
 10
1011.918592331286
 20
1626.945146596839
 42
0.4142135623731
 10
1010.418592331286
 20
1628.445146596839
 42
0.4142135623731
 10
1008.918592331286
 20
1626.945146596839
 42
0.4142135623731
 10
1010.418592331286
 20
1625.445146596839
 42
0.4142135623731
  0
LINE
  5
15D
330
1F
100
AcDbEntity
  8
0-B_寸法
  6
Continuous
 62
   120
370
     5
100
AcDbLine
 10
1022.418592331276
 20
1626.945146596839
 30
0.0
 11
1516.668592331276
 21
1626.945146596839
 31
0.0
  0
LWPOLYLINE
  5
15E
330
1F
100
AcDbEntity
  8
0-B_寸法
  6
Continuous
 62
     7
370
     9
100
AcDbPolyline
 90
        4
 70
     1
 43
3.0
 10
1023.918592331276
 20
1626.945146596839
 42
0.4142135623731
 10
1022.418592331276
 20
1628.445146596839
 42
0.4142135623731
 10
1020.918592331276
 20
1626.945146596839
 42
0.4142135623731
 10
1022.418592331276
 20
1625.445146596839
 42
0.4142135623731
  0
LWPOLYLINE
  5
15F
330
1F
100
AcDbEntity
  8
0-B_寸法
  6
Continuous
 62
     7
370
     9
100
AcDbPolyline
 90
        4
 70
     1
 43
3.0
 10
1518.168592331276
 20
1626.945146596839
 42
0.4142135623731
 10
1516.668592331276
 20
1628.445146596839
 42
0.4142135623731
 10
1515.168592331276
 20
1626.945146596839
 42
0.4142135623731
 10
1516.668592331276
 20
1625.445146596839
 42
0.4142135623731
  0
LWPOLYLINE
  5
160
330
1F
100
AcDbEntity
  8
0-B_寸法
  6
Continuous
 62
     7
370
     9
100
AcDbPolyline
 90
        4
 70
     1
 43
3.0
 10
1524.168592331275
 20
1626.945146596839
 42
0.4142135623731
 10
1522.668592331275
 20
1628.445146596839
 42
0.4142135623731
 10
1521.168592331275
 20
1626.945146596839
 42
0.4142135623731
 10
1522.668592331275
 20
1625.445146596839
 42
0.4142135623731
  0
LWPOLYLINE
  5
161
330
1F
100
AcDbEntity
  8
0-B_寸法
  6
Continuous
 62
     7
370
     9
100
AcDbPolyline
 90
        4
 70
     1
 43
3.0
 10
-1001.081407668723
 20
1446.945146596839
 42
0.4142135623731
 10
-1002.581407668723
 20
1448.445146596839
 42
0.4142135623731
 10
-1004.081407668723
 20
1446.945146596839
 42
0.4142135623731
 10
-1002.581407668723
 20
1445.445146596839
 42
0.4142135623731
  0
LINE
  5
162
330
1F
100
AcDbEntity
  8
0-B_寸法
  6
Continuous
 62
   120
370
     5
100
AcDbLine
 10
-1002.581407668723
 20
1446.945146596839
 30
0.0
 11
-1002.581407668723
 21
1626.945146596839
 31
0.0
  0
LINE
  5
163
330
1F
100
AcDbEntity
  8
0-B_寸法
  6
Continuous
 62
   120
370
     5
100
AcDbLine
 10
-1002.581407668723
 20
1446.945146596839
 30
0.0
 11
-990.5814076687229
 21
1446.945146596839
 31
0.0
  0
LWPOLYLINE
  5
164
330
1F
100
AcDbEntity
  8
0-B_寸法
  6
Continuous
 62
     7
370
     9
100
AcDbPolyline
 90
        4
 70
     1
 43
3.0
 10
-989.081407668723
 20
1446.945146596839
 42
0.4142135623731
 10
-990.5814076687229
 20
1448.445146596839
 42
0.4142135623731
 10
-992.0814076687229
 20
1446.945146596839
 42
0.4142135623731
 10
-990.5814076687229
 20
1445.445146596839
 42
0.4142135623731
  0
LINE
  5
165
330
1F
100
AcDbEntity
  8
0-B_寸法
  6
Continuous
 62
   120
370
     5
100
AcDbLine
 10
-990.5814076687229
 20
1446.945146596839
 30
0.0
 11
-990.5814076687229
 21
1626.945146596839
 31
0.0
  0
LINE
  5
166
330
1F
100
AcDbEntity
  8
0-B_寸法
  6
Continuous
 62
   120
370
     5
100
AcDbLine
 10
-990.5814076687229
 20
1446.945146596839
 30
0.0
 11
3.918592331277182
 21
1446.945146596839
 31
0.0
  0
LWPOLYLINE
  5
167
330
1F
100
AcDbEntity
  8
0-B_寸法
  6
Continuous
 62
     7
370
     9
100
AcDbPolyline
 90
        4
 70
     1
 43
3.0
 10
5.418592331277182
 20
1446.945146596839
 42
0.4142135623731
 10
3.918592331277182
 20
1448.445146596839
 42
0.4142135623731
 10
2.418592331277182
 20
1446.945146596839
 42
0.4142135623731
 10
3.918592331277182
 20
1445.445146596839
 42
0.4142135623731
  0
LINE
  5
168
330
1F
100
AcDbEntity
  8
0-B_寸法
  6
Continuous
 62
   120
370
     5
100
AcDbLine
 10
3.918592331277182
 20
1446.945146596839
 30
0.0
 11
3.918592331277182
 21
1626.945146596839
 31
0.0
  0
LINE
  5
169
330
1F
100
AcDbEntity
  8
0-B_寸法
  6
Continuous
 62
   120
370
     5
100
AcDbLine
 10
3.918592331277182
 20
1446.945146596839
 30
0.0
 11
15.91859233127565
 21
1446.945146596839
 31
0.0
  0
LWPOLYLINE
  5
16A
330
1F
100
AcDbEntity
  8
0-B_寸法
  6
Continuous
 62
     7
370
     9
100
AcDbPolyline
 90
        4
 70
     1
 43
3.0
 10
17.41859233127565
 20
1446.945146596839
 42
0.4142135623731
 10
15.91859233127565
 20
1448.445146596839
 42
0.4142135623731
 10
14.41859233127565
 20
1446.945146596839
 42
0.4142135623731
 10
15.91859233127565
 20
1445.445146596839
 42
0.4142135623731
  0
LINE
  5
16B
330
1F
100
AcDbEntity
  8
0-B_寸法
  6
Continuous
 62
   120
370
     5
100
AcDbLine
 10
15.91859233127565
 20
1446.945146596839
 30
0.0
 11
15.91859233127565
 21
1626.945146596839
 31
0.0
  0
LINE
  5
16C
330
1F
100
AcDbEntity
  8
0-B_寸法
  6
Continuous
 62
   120
370
     5
100
AcDbLine
 10
15.91859233127565
 20
1446.945146596839
 30
0.0
 11
1010.418592331286
 21
1446.945146596839
 31
0.0
  0
LWPOLYLINE
  5
16D
330
1F
100
AcDbEntity
  8
0-B_寸法
  6
Continuous
 62
     7
370
     9
100
AcDbPolyline
 90
        4
 70
     1
 43
3.0
 10
1011.918592331286
 20
1446.945146596839
 42
0.4142135623731
 10
1010.418592331286
 20
1448.445146596839
 42
0.4142135623731
 10
1008.918592331286
 20
1446.945146596839
 42
0.4142135623731
 10
1010.418592331286
 20
1445.445146596839
 42
0.4142135623731
  0
LINE
  5
16E
330
1F
100
AcDbEntity
  8
0-B_寸法
  6
Continuous
 62
   120
370
     5
100
AcDbLine
 10
1010.418592331286
 20
1446.945146596839
 30
0.0
 11
1010.418592331286
 21
1626.945146596839
 31
0.0
  0
LINE
  5
16F
330
1F
100
AcDbEntity
  8
0-B_寸法
  6
Continuous
 62
   120
370
     5
100
AcDbLine
 10
1010.418592331286
 20
1446.945146596839
 30
0.0
 11
1022.418592331276
 21
1446.945146596839
 31
0.0
  0
LWPOLYLINE
  5
170
330
1F
100
AcDbEntity
  8
0-B_寸法
  6
Continuous
 62
     7
370
     9
100
AcDbPolyline
 90
        4
 70
     1
 43
3.0
 10
1023.918592331276
 20
1446.945146596839
 42
0.4142135623731
 10
1022.418592331276
 20
1448.445146596839
 42
0.4142135623731
 10
1020.918592331276
 20
1446.945146596839
 42
0.4142135623731
 10
1022.418592331276
 20
1445.445146596839
 42
0.4142135623731
  0
LINE
  5
171
330
1F
100
AcDbEntity
  8
0-B_寸法
  6
Continuous
 62
   120
370
     5
100
AcDbLine
 10
1022.418592331276
 20
1446.945146596839
 30
0.0
 11
1022.418592331276
 21
1626.945146596839
 31
0.0
  0
LINE
  5
172
330
1F
100
AcDbEntity
  8
0-B_寸法
  6
Continuous
 62
   120
370
     5
100
AcDbLine
 10
-2162.081407668729
 20
1266.945146596839
 30
0.0
 11
-1982.081407668724
 21
1266.945146596839
 31
0.0
  0
LWPOLYLINE
  5
173
330
1F
100
AcDbEntity
  8
0-B_寸法
  6
Continuous
 62
     7
370
     9
100
AcDbPolyline
 90
        4
 70
     1
 43
3.0
 10
-2160.581407668729
 20
1266.945146596839
 42
0.4142135623731
 10
-2162.081407668729
 20
1268.445146596839
 42
0.4142135623731
 10
-2163.581407668729
 20
1266.945146596839
 42
0.4142135623731
 10
-2162.081407668729
 20
1265.445146596839
 42
0.4142135623731
  0
LWPOLYLINE
  5
174
330
1F
100
AcDbEntity
  8
0-B_寸法
  6
Continuous
 62
     7
370
     9
100
AcDbPolyline
 90
        4
 70
     1
 43
3.0
 10
-1980.581407668724
 20
1266.945146596839
 42
0.4142135623731
 10
-1982.081407668724
 20
1268.445146596839
 42
0.4142135623731
 10
-1983.581407668724
 20
1266.945146596839
 42
0.4142135623731
 10
-1982.081407668724
 20
1265.445146596839
 42
0.4142135623731
  0
LINE
  5
175
330
1F
100
AcDbEntity
  8
0-B_寸法
  6
Continuous
 62
   120
370
     5
100
AcDbLine
 10
-1982.081407668724
 20
1266.945146596839
 30
0.0
 11
-1982.081407668724
 21
1626.945146596839
 31
0.0
  0
LINE
  5
176
330
1F
100
AcDbEntity
  8
0-B_寸法
  6
Continuous
 62
   120
370
     5
100
AcDbLine
 10
-1982.081407668724
 20
1266.945146596839
 30
0.0
 11
2001.918592331283
 21
1266.945146596839
 31
0.0
  0
LWPOLYLINE
  5
177
330
1F
100
AcDbEntity
  8
0-B_寸法
  6
Continuous
 62
     7
370
     9
100
AcDbPolyline
 90
        4
 70
     1
 43
3.0
 10
2003.418592331283
 20
1266.945146596839
 42
0.4142135623731
 10
2001.918592331283
 20
1268.445146596839
 42
0.4142135623731
 10
2000.418592331283
 20
1266.945146596839
 42
0.4142135623731
 10
2001.918592331283
 20
1265.445146596839
 42
0.4142135623731
  0
LINE
  5
178
330
1F
100
AcDbEntity
  8
0-B_寸法
  6
Continuous
 62
   120
370
     5
100
AcDbLine
 10
2001.918592331283
 20
1266.945146596839
 30
0.0
 11
2001.918592331283
 21
1626.945146596839
 31
0.0
  0
LINE
  5
179
330
1F
100
AcDbEntity
  8
0-B_寸法
  6
Continuous
 62
   120
370
     5
100
AcDbLine
 10
2001.918592331283
 20
1266.945146596839
 30
0.0
 11
2181.918592331269
 21
1266.945146596839
 31
0.0
  0
LWPOLYLINE
  5
17A
330
1F
100
AcDbEntity
  8
0-B_寸法
  6
Continuous
 62
     7
370
     9
100
AcDbPolyline
 90
        4
 70
     1
 43
3.0
 10
2183.418592331269
 20
1266.945146596839
 42
0.4142135623731
 10
2181.918592331269
 20
1268.445146596839
 42
0.4142135623731
 10
2180.418592331269
 20
1266.945146596839
 42
0.4142135623731
 10
2181.918592331269
 20
1265.445146596839
 42
0.4142135623731
  0
LINE
  5
17B
330
1F
100
AcDbEntity
  8
0-B_寸法
  6
Continuous
 62
   120
370
     5
100
AcDbLine
 10
-2162.081407668729
 20
1086.945146596839
 30
0.0
 11
2181.918592331269
 21
1086.945146596839
 31
0.0
  0
LWPOLYLINE
  5
17C
330
1F
100
AcDbEntity
  8
0-B_寸法
  6
Continuous
 62
     7
370
     9
100
AcDbPolyline
 90
        4
 70
     1
 43
3.0
 10
-2160.581407668729
 20
1086.945146596839
 42
0.4142135623731
 10
-2162.081407668729
 20
1088.445146596839
 42
0.4142135623731
 10
-2163.581407668729
 20
1086.945146596839
 42
0.4142135623731
 10
-2162.081407668729
 20
1085.445146596839
 42
0.4142135623731
  0
LWPOLYLINE
  5
17D
330
1F
100
AcDbEntity
  8
0-B_寸法
  6
Continuous
 62
     7
370
     9
100
AcDbPolyline
 90
        4
 70
     1
 43
3.0
 10
2183.418592331269
 20
1086.945146596839
 42
0.4142135623731
 10
2181.918592331269
 20
1088.445146596839
 42
0.4142135623731
 10
2180.418592331269
 20
1086.945146596839
 42
0.4142135623731
 10
2181.918592331269
 20
1085.445146596839
 42
0.4142135623731
  0
MTEXT
  5
17E
330
1F
100
AcDbEntity
  8
0-B_寸法
  6
Continuous
 62
     7
370
   211
100
AcDbMText
 10
-380.0814076687189
 20
3142.665146596839
 30
0.0
 40
91.44000000000005
 41
780.0000000000005
 46
0.0
 71
     7
 72
     1
  1
{\fＭＳ ゴシック|b0|i0|c128|p49;ＲＯＷ＝3,403}
 73
     1
 44
1.0
  0
MTEXT
  5
17F
330
1F
100
AcDbEntity
  8
0-B_寸法
  6
Continuous
 62
     7
370
   211
100
AcDbMText
 10
-544.1829933761946
 20
2962.665146596839
 30
0.0
 40
91.44000000000011
 41
1140.000000000001
 46
0.0
 71
     7
 72
     1
  1
{\fＭＳ ゴシック|b0|i0|c128|p49;有効開口寸法＝2,849}
 73
     1
 44
1.0
  0
MTEXT
  5
180
330
1F
100
AcDbEntity
  8
0-B_寸法
  6
Continuous
 62
     7
370
   211
100
AcDbMText
 10
-2252.081407668722
 20
1856.235146596841
 30
0.0
 40
68.5800000000026
 41
45.00000000000171
 46
0.0
 71
     7
 72
     1
  1
{\fＭＳ ゴシック|b0|i0|c128|p49;5}
 73
     1
 44
1.0
  0
MTEXT
  5
181
330
1F
100
AcDbEntity
  8
0-B_寸法
  6
Continuous
 62
     7
370
   211
100
AcDbMText
 10
-2091.581407668725
 20
1796.235146596841
 30
0.0
 40
68.5800000000026
 41
45.00000000000171
 46
0.0
 71
     7
 72
     1
  1
{\fＭＳ ゴシック|b0|i0|c128|p49;9}
 73
     1
 44
1.0
  0
MTEXT
  5
182
330
1F
100
AcDbEntity
  8
0-B_寸法
  6
Continuous
 62
     7
370
   211
100
AcDbMText
 10
-2030.831407668722
 20
1799.09264659684
 30
0.0
 40
74.29500000000066
 41
97.50000000000085
 46
0.0
 71
     7
 72
     1
  1
{\fＭＳ ゴシック|b0|i0|c128|p49;10}
 73
     1
 44
1.0
  0
MTEXT
  5
183
330
1F
100
AcDbEntity
  8
0-B_寸法
  6
Continuous
 62
     7
370
   211
100
AcDbMText
 10
-2249.081407668725
 20
1706.235146596841
 30
0.0
 40
68.5800000000026
 41
45.00000000000171
 46
0.0
 71
     7
 72
     1
  1
{\fＭＳ ゴシック|b0|i0|c128|p49;6}
 73
     1
 44
1.0
  0
MTEXT
  5
184
330
1F
100
AcDbEntity
  8
0-B_寸法
  6
Continuous
 62
     7
370
   211
100
AcDbMText
 10
-1959.956407668724
 20
1621.95014659684
 30
0.0
 40
80.01000000000032
 41
420.0000000000017
 46
0.0
 71
     7
 72
     1
  1
{\fＭＳ ゴシック|b0|i0|c128|p49;ＤＷ=416}
 73
     1
 44
1.0
  0
MTEXT
  5
185
330
1F
100
AcDbEntity
  8
0-B_寸法
  6
Continuous
 62
     7
370
   211
100
AcDbMText
 10
-1459.706407668725
 20
1621.95014659684
 30
0.0
 40
80.01000000000032
 41
420.0000000000017
 46
0.0
 71
     7
 72
     1
  1
{\fＭＳ ゴシック|b0|i0|c128|p49;ＤＷ=416}
 73
     1
 44
1.0
  0
MTEXT
  5
186
330
1F
100
AcDbEntity
  8
0-B_寸法
  6
Continuous
 62
     7
370
   211
100
AcDbMText
 10
-953.4564076687252
 20
1621.95014659684
 30
0.0
 40
80.01000000000032
 41
420.0000000000017
 46
0.0
 71
     7
 72
     1
  1
{\fＭＳ ゴシック|b0|i0|c128|p49;ＤＷ=416}
 73
     1
 44
1.0
  0
MTEXT
  5
187
330
1F
100
AcDbEntity
  8
0-B_寸法
  6
Continuous
 62
     7
370
   211
100
AcDbMText
 10
-453.2064076687223
 20
1621.95014659684
 30
0.0
 40
80.01000000000032
 41
420.0000000000017
 46
0.0
 71
     7
 72
     1
  1
{\fＭＳ ゴシック|b0|i0|c128|p49;ＤＷ=416}
 73
     1
 44
1.0
  0
MTEXT
  5
188
330
1F
100
AcDbEntity
  8
0-B_寸法
  6
Continuous
 62
     7
370
   211
100
AcDbMText
 10
53.04359233127514
 20
1621.95014659684
 30
0.0
 40
80.01000000000032
 41
420.0000000000017
 46
0.0
 71
     7
 72
     1
  1
{\fＭＳ ゴシック|b0|i0|c128|p49;ＤＷ=416}
 73
     1
 44
1.0
  0
MTEXT
  5
189
330
1F
100
AcDbEntity
  8
0-B_寸法
  6
Continuous
 62
     7
370
   211
100
AcDbMText
 10
553.293592331281
 20
1621.95014659684
 30
0.0
 40
80.0099999999999
 41
419.9999999999995
 46
0.0
 71
     7
 72
     1
  1
{\fＭＳ ゴシック|b0|i0|c128|p49;ＤＷ=416}
 73
     1
 44
1.0
  0
MTEXT
  5
18A
330
1F
100
AcDbEntity
  8
0-B_寸法
  6
Continuous
 62
     7
370
   211
100
AcDbMText
 10
1059.543592331276
 20
1621.95014659684
 30
0.0
 40
80.01
 41
420.0
 46
0.0
 71
     7
 72
     1
  1
{\fＭＳ ゴシック|b0|i0|c128|p49;ＤＷ=416}
 73
     1
 44
1.0
  0
MTEXT
  5
18B
330
1F
100
AcDbEntity
  8
0-B_寸法
  6
Continuous
 62
     7
370
   211
100
AcDbMText
 10
1559.793592331281
 20
1621.95014659684
 30
0.0
 40
80.0099999999999
 41
419.9999999999995
 46
0.0
 71
     7
 72
     1
  1
{\fＭＳ ゴシック|b0|i0|c128|p49;ＤＷ=416}
 73
     1
 44
1.0
  0
LINE
  5
18C
330
1F
100
AcDbEntity
  8
0-0_補助線
  6
JWW_HOJO
 62
   120
370
     5
100
AcDbLine
 10
2781.918394379427
 20
1986.945146596839
 30
0.0
 11
-2762.081209716861
 21
1986.945146596839
 31
0.0
  0
LINE
  5
18D
330
1F
100
AcDbEntity
  8
0-B_寸法
  6
Continuous
 62
   120
370
     5
100
AcDbLine
 10
-2162.081407668729
 20
1086.945146596839
 30
0.0
 11
-2162.081407668729
 21
1806.945146596839
 31
0.0
  0
LINE
  5
18E
330
1F
100
AcDbEntity
  8
0-B_寸法
  6
Continuous
 62
   120
370
     5
100
AcDbLine
 10
2181.918592331269
 20
1086.945146596839
 30
0.0
 11
2181.918592331269
 21
1806.945146596839
 31
0.0
  0
MTEXT
  5
18F
330
1F
100
AcDbEntity
  8
0-B_寸法
  6
Continuous
 62
     7
370
   211
100
AcDbMText
 10
-1889.831407668722
 20
1447.66514659684
 30
0.0
 40
91.4399999999998
 41
779.9999999999983
 46
0.0
 71
     7
 72
     1
  1
{\fＭＳ ゴシック|b0|i0|c128|p49;折戸:ＤＷ=833}
 73
     1
 44
1.0
  0
MTEXT
  5
190
330
1F
100
AcDbEntity
  8
0-B_寸法
  6
Continuous
 62
     7
370
   211
100
AcDbMText
 10
-966.5814076687243
 20
1447.66514659684
 30
0.0
 40
91.4400000000013
 41
60.00000000000085
 46
0.0
 71
     7
 72
     1
  1
{\fＭＳ ゴシック|b0|i0|c128|p49;2}
 73
     1
 44
1.0
  0
MTEXT
  5
191
330
1F
100
AcDbEntity
  8
0-B_寸法
  6
Continuous
 62
     7
370
   211
100
AcDbMText
 10
-883.3314076687216
 20
1447.66514659684
 30
0.0
 40
91.4399999999998
 41
779.9999999999983
 46
0.0
 71
     7
 72
     1
  1
{\fＭＳ ゴシック|b0|i0|c128|p49;折戸:ＤＷ=833}
 73
     1
 44
1.0
  0
MTEXT
  5
192
330
1F
100
AcDbEntity
  8
0-B_寸法
  6
Continuous
 62
     7
370
   211
100
AcDbMText
 10
39.91859233127727
 20
1447.665146596839
 30
0.0
 40
91.43999999999805
 41
59.99999999999872
 46
0.0
 71
     7
 72
     1
  1
{\fＭＳ ゴシック|b0|i0|c128|p49;2}
 73
     1
 44
1.0
  0
LINE
  5
193
330
1F
100
AcDbEntity
  8
0-B_寸法
  6
Continuous
 62
   120
370
     5
100
AcDbLine
 10
-2162.081407668722
 20
1806.945146596839
 30
0.0
 11
-1982.081407668722
 21
1806.945146596839
 31
0.0
  0
LWPOLYLINE
  5
194
330
1F
100
AcDbEntity
  8
0-B_寸法
  6
Continuous
 62
     7
370
     9
100
AcDbPolyline
 90
        4
 70
     1
 43
3.0
 10
-2160.581407668722
 20
1806.945146596839
 42
0.4142135623731
 10
-2162.081407668722
 20
1808.445146596839
 42
0.4142135623731
 10
-2163.581407668722
 20
1806.945146596839
 42
0.4142135623731
 10
-2162.081407668722
 20
1805.445146596839
 42
0.4142135623731
  0
LWPOLYLINE
  5
195
330
1F
100
AcDbEntity
  8
0-B_寸法
  6
Continuous
 62
     7
370
     9
100
AcDbPolyline
 90
        4
 70
     1
 43
3.0
 10
-2130.581407668722
 20
1806.945146596839
 42
0.4142135623731
 10
-2132.081407668722
 20
1808.445146596839
 42
0.4142135623731
 10
-2133.581407668722
 20
1806.945146596839
 42
0.4142135623731
 10
-2132.081407668722
 20
1805.445146596839
 42
0.4142135623731
  0
LWPOLYLINE
  5
196
330
1F
100
AcDbEntity
  8
0-B_寸法
  6
Continuous
 62
     7
370
     9
100
AcDbPolyline
 90
        4
 70
     1
 43
3.0
 10
-2094.581407668723
 20
1806.945146596839
 42
0.4142135623731
 10
-2096.081407668723
 20
1808.445146596839
 42
0.4142135623731
 10
-2097.581407668723
 20
1806.945146596839
 42
0.4142135623731
 10
-2096.081407668723
 20
1805.445146596839
 42
0.4142135623731
  0
LINE
  5
197
330
1F
100
AcDbEntity
  8
0-B_寸法
  6
Continuous
 62
   120
370
     5
100
AcDbLine
 10
-2096.081407668723
 20
1806.945146596839
 30
0.0
 11
-2096.081407668723
 21
1986.945146596839
 31
0.0
  0
LWPOLYLINE
  5
198
330
1F
100
AcDbEntity
  8
0-B_寸法
  6
Continuous
 62
     7
370
     9
100
AcDbPolyline
 90
        4
 70
     1
 43
3.0
 10
-2040.581407668722
 20
1806.945146596839
 42
0.4142135623731
 10
-2042.081407668722
 20
1808.445146596839
 42
0.4142135623731
 10
-2043.581407668722
 20
1806.945146596839
 42
0.4142135623731
 10
-2042.081407668722
 20
1805.445146596839
 42
0.4142135623731
  0
LINE
  5
199
330
1F
100
AcDbEntity
  8
0-B_寸法
  6
Continuous
 62
   120
370
     5
100
AcDbLine
 10
-2042.081407668722
 20
1806.945146596839
 30
0.0
 11
-2042.081407668722
 21
1986.945146596839
 31
0.0
  0
LWPOLYLINE
  5
19A
330
1F
100
AcDbEntity
  8
0-B_寸法
  6
Continuous
 62
     7
370
     9
100
AcDbPolyline
 90
        4
 70
     1
 43
3.0
 10
-1980.581407668722
 20
1806.945146596839
 42
0.4142135623731
 10
-1982.081407668722
 20
1808.445146596839
 42
0.4142135623731
 10
-1983.581407668722
 20
1806.945146596839
 42
0.4142135623731
 10
-1982.081407668722
 20
1805.445146596839
 42
0.4142135623731
  0
LINE
  5
19B
330
1F
100
AcDbEntity
  8
0-B_寸法
  6
Continuous
 62
   120
370
     5
100
AcDbLine
 10
-1982.081407668722
 20
1806.945146596839
 30
0.0
 11
-1982.081407668722
 21
1986.945146596839
 31
0.0
  0
MTEXT
  5
19C
330
1F
100
AcDbEntity
  8
0-B_寸法
  6
Continuous
 62
     7
370
   211
100
AcDbMText
 10
123.1685923312813
 20
1447.66514659684
 30
0.0
 40
91.44000000000005
 41
780.0000000000005
 46
0.0
 71
     7
 72
     1
  1
{\fＭＳ ゴシック|b0|i0|c128|p49;折戸:ＤＷ=833}
 73
     1
 44
1.0
  0
LINE
  5
19D
330
1F
100
AcDbEntity
  8
0-B_寸法
  6
Continuous
 62
   120
370
     5
100
AcDbLine
 10
-2114.081407668724
 20
1806.945146596839
 30
0.0
 11
-2204.081407668724
 21
1716.945146596839
 31
0.0
  0
MTEXT
  5
19E
330
1F
100
AcDbEntity
  8
0-B_寸法
  6
Continuous
 62
     7
370
   211
100
AcDbMText
 10
1046.418592331281
 20
1447.665146596839
 30
0.0
 40
91.43999999999805
 41
59.99999999999872
 46
0.0
 71
     7
 72
     1
  1
{\fＭＳ ゴシック|b0|i0|c128|p49;2}
 73
     1
 44
1.0
  0
LINE
  5
19F
330
1F
100
AcDbEntity
  8
0-B_寸法
  6
Continuous
 62
   120
370
     5
100
AcDbLine
 10
-2259.327947523899
 20
1716.945146596839
 30
0.0
 11
-2204.081407668724
 21
1716.945146596839
 31
0.0
  0
LINE
  5
1A0
330
1F
100
AcDbEntity
  8
0-B_寸法
  6
Continuous
 62
   120
370
     5
100
AcDbLine
 10
-2147.081407668722
 20
1806.945146596839
 30
0.0
 11
-2207.081407668722
 21
1866.945146596839
 31
0.0
  0
MTEXT
  5
1A1
330
1F
100
AcDbEntity
  8
0-B_寸法
  6
Continuous
 62
     7
370
   211
100
AcDbMText
 10
1129.668592331281
 20
1447.66514659684
 30
0.0
 40
91.44000000000005
 41
780.0000000000005
 46
0.0
 71
     7
 72
     1
  1
{\fＭＳ ゴシック|b0|i0|c128|p49;折戸:ＤＷ=833}
 73
     1
 44
1.0
  0
LINE
  5
1A2
330
1F
100
AcDbEntity
  8
0-B_寸法
  6
Continuous
 62
   120
370
     5
100
AcDbLine
 10
-2267.530229497385
 20
1866.945146596839
 30
0.0
 11
-2207.081407668722
 21
1866.945146596839
 31
0.0
  0
MTEXT
  5
1A3
330
1F
100
AcDbEntity
  8
0-B_寸法
  6
Continuous
 62
     7
370
   211
100
AcDbMText
 10
-2117.081407668727
 20
1271.23514659684
 30
0.0
 40
68.57999999999934
 41
89.99999999999915
 46
0.0
 71
     7
 72
     1
  1
{\fＭＳ ゴシック|b0|i0|c128|p49;30}
 73
     1
 44
1.0
  0
LINE
  5
1A4
330
1F
100
AcDbEntity
  8
0-B_寸法
  6
Continuous
 62
   120
370
     5
100
AcDbLine
 10
-2162.081407668722
 20
1806.945146596839
 30
0.0
 11
-2162.081407668722
 21
1986.945146596839
 31
0.0
  0
LINE
  5
1A5
330
1F
100
AcDbEntity
  8
0-B_寸法
  6
Continuous
 62
   120
370
     5
100
AcDbLine
 10
-2132.081407668722
 20
1806.945146596839
 30
0.0
 11
-2132.081407668722
 21
1986.945146596839
 31
0.0
  0
MTEXT
  5
1A6
330
1F
100
AcDbEntity
  8
0-B_寸法
  6
Continuous
 62
     7
370
   211
100
AcDbMText
 10
-320.0814076687197
 20
1267.66514659684
 30
0.0
 40
91.43999999999983
 41
659.9999999999987
 46
0.0
 71
     7
 72
     1
  1
{\fＭＳ ゴシック|b0|i0|c128|p49;枠内＝3,333}
 73
     1
 44
1.0
  0
MTEXT
  5
1A7
330
1F
100
AcDbEntity
  8
0-B_寸法
  6
Continuous
 62
     7
370
   211
100
AcDbMText
 10
2031.918592331277
 20
1267.66514659684
 30
0.0
 40
91.43999999999967
 41
119.9999999999996
 46
0.0
 71
     7
 72
     1
  1
{\fＭＳ ゴシック|b0|i0|c128|p49;30}
 73
     1
 44
1.0
  0
LWPOLYLINE
  5
1A8
330
1F
100
AcDbEntity
  8
0-3_仕上げ
  6
Continuous
 62
     7
370
     9
100
AcDbPolyline
 90
        4
 70
     1
 43
3.0
 10
-1646.251056947476
 20
2592.946220485668
 42
0.4142135623731
 10
-1647.751056947476
 20
2594.446220485668
 42
0.4142135623731
 10
-1649.251056947476
 20
2592.946220485668
 42
0.4142135623731
 10
-1647.751056947476
 20
2591.446220485668
 42
0.4142135623731
  0
LINE
  5
1A9
330
1F
100
AcDbEntity
  8
0-3_仕上げ
  6
Continuous
 62
   120
370
     5
100
AcDbLine
 10
-1647.751056947476
 20
2592.946220485668
 30
0.0
 11
-1810.982802487134
 21
2592.946220485668
 31
0.0
  0
LWPOLYLINE
  5
1AA
330
1F
100
AcDbEntity
  8
0-3_仕上げ
  6
Continuous
 62
     7
370
     9
100
AcDbPolyline
 90
        4
 70
     1
 43
3.0
 10
-1646.251056947476
 20
2130.946220485667
 42
0.4142135623731
 10
-1647.751056947476
 20
2132.446220485667
 42
0.4142135623731
 10
-1649.251056947476
 20
2130.946220485667
 42
0.4142135623731
 10
-1647.751056947476
 20
2129.446220485667
 42
0.4142135623731
  0
LINE
  5
1AB
330
1F
100
AcDbEntity
  8
0-3_仕上げ
  6
Continuous
 62
   120
370
     5
100
AcDbLine
 10
-1647.751056947476
 20
2130.946220485667
 30
0.0
 11
-1810.982802487134
 21
2130.946220485667
 31
0.0
  0
LINE
  5
1AC
330
1F
100
AcDbEntity
  8
0-3_仕上げ
  6
Continuous
 62
   120
370
     5
100
AcDbLine
 10
-1647.751056947476
 20
2592.946220485668
 30
0.0
 11
-1647.751056947476
 21
2130.946220485667
 31
0.0
  0
MTEXT
  5
1AD
330
1F
100
AcDbEntity
  8
0-B_寸法
  6
Continuous
 62
     7
370
   211
100
AcDbMText
 10
-320.0814076687308
 20
1087.66514659684
 30
0.0
 40
91.44000000000013
 41
660.0000000000009
 46
0.0
 71
     7
 72
     1
  1
{\fＭＳ ゴシック|b0|i0|c128|p49;枠外＝3,393}
 73
     1
 44
1.0
  0
MTEXT
  5
1AE
330
1F
100
AcDbEntity
  8
0-A_文字
  6
Continuous
 62
     7
370
     9
100
AcDbMText
 10
-2728.614622951314
 20
3310.355192580247
 30
0.0
 40
100.5840000000001
 41
660.0000000000009
 46
0.0
 71
     7
 72
     1
  1
{\fＭＳ ゴシック|b0|i0|c128|p49;■横断面図}
 73
     1
 44
1.0
  0
LINE
  5
1AF
330
1F
100
AcDbEntity
  8
0-A_文字
  6
JWW_HOJO
 62
   120
370
     5
100
AcDbLine
 10
9.918592331278546
 20
947.6368213445023
 30
0.0
 11
2419.442401855088
 21
947.6368213445023
 31
0.0
  0
LINE
  5
1B0
330
1F
100
AcDbEntity
  8
0-A_文字
  6
JWW_HOJO
 62
   120
370
     5
100
AcDbLine
 10
9.918592331278546
 20
827.6368213445023
 30
0.0
 11
2419.442401855088
 21
827.6368213445023
 31
0.0
  0
LINE
  5
1B1
330
1F
100
AcDbEntity
  8
0-A_文字
  6
JWW_HOJO
 62
   120
370
     5
100
AcDbLine
 10
9.918592331278546
 20
707.6368213445026
 30
0.0
 11
2419.442401855088
 21
707.6368213445026
 31
0.0
  0
MTEXT
  5
1B2
330
1F
100
AcDbEntity
  8
0-A_文字
  6
Continuous
 62
     7
370
     9
100
AcDbMText
 10
9.918592331278546
 20
942.3820486172292
 30
0.0
 40
79.49045454545454
 41
2295.0
 46
0.0
 71
     7
 72
     1
  1
{\fＭＳ ゴシック|b0|i0|c128|p49;※有効開口寸法にはハンドルの突出は含まない。}
 73
     1
 44
1.0
  0
MTEXT
  5
1B3
330
1F
100
AcDbEntity
  8
0-A_文字
  6
Continuous
 62
     7
370
     9
100
AcDbMText
 10
9.918592331278546
 20
822.4301546778353
 30
0.0
 40
79.58666666666664
 41
2820.0
 46
0.0
 71
     7
 72
     1
  1
{\fＭＳ ゴシック|b0|i0|c128|p49;※有効開口寸法は扉の厚さや調整によって若干異なります。}
 73
     1
 44
1.0
  0
MTEXT
  5
1B4
330
1F
100
AcDbEntity
  8
0-A_文字
  6
Continuous
 62
     7
370
     0
100
AcDbMText
 10
9.918592331278546
 20
696.926821344501
 30
0.0
 40
68.57999999999997
 41
1350.0
 46
0.0
 71
     7
 72
     1
  1
{\fＭＳ ゴシック|b0|i0|c128|p49;※扉厚（　）内はルーバーの場合}
 73
     1
 44
1.0
  0
MTEXT
  5
1B5
330
1F
100
AcDbEntity
  8
0-A_文字
  6
Continuous
 62
     7
370
   211
100
AcDbMText
 10
-1022.045434731494
 20
2227.665146596839
 30
0.0
 40
91.44
 41
240.0
 46
0.0
 71
     7
 72
     1
  1
{\fＭＳ ゴシック|b0|i0|c128|p49;(24)}
 11
6.123031769111886E-17
 21
1.0
 31
0.0
 73
     1
 44
1.0
  0
LINE
  5
1B6
330
1F
100
AcDbEntity
  8
0-C_ハッチ
  6
JWW_DASHED1
 62
   120
370
     5
100
AcDbLine
 10
-2144.101145509916
 20
2097.946220485674
 30
0.0
 11
-2132.081407668728
 21
2109.965958326864
 31
0.0
  0
LINE
  5
1B7
330
1F
100
AcDbEntity
  8
0-C_ハッチ
  6
JWW_DASHED1
 62
   120
370
     5
100
AcDbLine
 10
-2186.527552381114
 20
2097.946220485677
 30
0.0
 11
-2132.081407668738
 21
2152.392365198054
 31
0.0
  0
LINE
  5
1B8
330
1F
100
AcDbEntity
  8
0-C_ハッチ
  6
JWW_DASHED1
 62
   120
370
     5
100
AcDbLine
 10
-2228.953959252309
 20
2097.946220485681
 30
0.0
 11
-2153.953959252301
 21
2172.946220485692
 31
0.0
  0
LINE
  5
1B9
330
1F
100
AcDbEntity
  8
0-C_ハッチ
  6
JWW_DASHED1
 62
   120
370
     5
100
AcDbLine
 10
-2271.380366123521
 20
2097.946220485672
 30
0.0
 11
-2196.380366123525
 21
2172.946220485667
 31
0.0
  0
LINE
  5
1BA
330
1F
100
AcDbEntity
  8
0-C_ハッチ
  6
JWW_DASHED1
 62
   120
370
     5
100
AcDbLine
 10
-2313.806772994718
 20
2097.946220485672
 30
0.0
 11
-2238.806772994722
 21
2172.946220485668
 31
0.0
  0
LINE
  5
1BB
330
1F
100
AcDbEntity
  8
0-C_ハッチ
  6
JWW_DASHED1
 62
   120
370
     5
100
AcDbLine
 10
-2356.233179865916
 20
2097.946220485675
 30
0.0
 11
-2281.233179865921
 21
2172.946220485672
 31
0.0
  0
LINE
  5
1BC
330
1F
100
AcDbEntity
  8
0-C_ハッチ
  6
JWW_DASHED1
 62
   120
370
     5
100
AcDbLine
 10
-2398.659586737053
 20
2097.946220485684
 30
0.0
 11
-2323.659586737057
 21
2172.94622048568
 31
0.0
  0
LINE
  5
1BD
330
1F
100
AcDbEntity
  8
0-C_ハッチ
  6
JWW_DASHED1
 62
   120
370
     5
100
AcDbLine
 10
-2441.085993608248
 20
2097.946220485688
 30
0.0
 11
-2366.085993608254
 21
2172.946220485684
 31
0.0
  0
LINE
  5
1BE
330
1F
100
AcDbEntity
  8
0-C_ハッチ
  6
JWW_DASHED1
 62
   120
370
     5
100
AcDbLine
 10
-2483.512400479462
 20
2097.946220485675
 30
0.0
 11
-2408.51240047945
 21
2172.946220485687
 31
0.0
  0
LINE
  5
1BF
330
1F
100
AcDbEntity
  8
0-C_ハッチ
  6
JWW_DASHED1
 62
   120
370
     5
100
AcDbLine
 10
-2525.938807350657
 20
2097.946220485679
 30
0.0
 11
-2450.938807350646
 21
2172.946220485691
 31
0.0
  0
LINE
  5
1C0
330
1F
100
AcDbEntity
  8
0-C_ハッチ
  6
JWW_DASHED1
 62
   120
370
     5
100
AcDbLine
 10
-2568.365214221854
 20
2097.946220485684
 30
0.0
 11
-2493.36521422186
 21
2172.946220485679
 31
0.0
  0
LINE
  5
1C1
330
1F
100
AcDbEntity
  8
0-C_ハッチ
  6
JWW_DASHED1
 62
   120
370
     5
100
AcDbLine
 10
-2610.791621093067
 20
2097.946220485672
 30
0.0
 11
-2535.791621093071
 21
2172.946220485667
 31
0.0
  0
LINE
  5
1C2
330
1F
100
AcDbEntity
  8
0-C_ハッチ
  6
JWW_DASHED1
 62
   120
370
     5
100
AcDbLine
 10
-2653.218027964262
 20
2097.946220485675
 30
0.0
 11
-2578.218027964268
 21
2172.94622048567
 31
0.0
  0
LINE
  5
1C3
330
1F
100
AcDbEntity
  8
0-C_ハッチ
  6
JWW_DASHED1
 62
   120
370
     5
100
AcDbLine
 10
-2695.64443483546
 20
2097.946220485679
 30
0.0
 11
-2620.644434835462
 21
2172.946220485674
 31
0.0
  0
LINE
  5
1C4
330
1F
100
AcDbEntity
  8
0-3_仕上げ
  6
Continuous
 62
    40
370
    15
100
AcDbLine
 10
-2132.081407668738
 20
2172.946220485668
 30
0.0
 11
-2132.081407668738
 21
2097.946220485668
 31
0.0
  0
LINE
  5
1C5
330
1F
100
AcDbEntity
  8
0-3_仕上げ
  6
Continuous
 62
    40
370
    15
100
AcDbLine
 10
-2762.081209716861
 20
2172.946220485668
 30
0.0
 11
-2132.081407668719
 21
2172.946220485668
 31
0.0
  0
LINE
  5
1C6
330
1F
100
AcDbEntity
  8
0-3_仕上げ
  6
Continuous
 62
    40
370
    15
100
AcDbLine
 10
-2762.081209716861
 20
2097.946220485668
 30
0.0
 11
-2132.081407668719
 21
2097.946220485668
 31
0.0
  0
LINE
  5
1C7
330
1F
100
AcDbEntity
  8
0-C_ハッチ
  6
JWW_DASHED1
 62
   120
370
     5
100
AcDbLine
 10
-2738.070841706613
 20
2097.946220485668
 30
0.0
 11
-2663.070841706601
 21
2172.946220485682
 31
0.0
  0
LINE
  5
1C8
330
1F
100
AcDbEntity
  8
0-C_ハッチ
  6
JWW_DASHED1
 62
   120
370
     5
100
AcDbLine
 10
-2762.081209716861
 20
2116.362259346623
 30
0.0
 11
-2705.497248577798
 21
2172.946220485686
 31
0.0
  0
LINE
  5
1C9
330
1F
100
AcDbEntity
  8
0-C_ハッチ
  6
JWW_DASHED1
 62
   120
370
     5
100
AcDbLine
 10
2655.045842795837
 20
2097.946220485682
 30
0.0
 11
2730.045842795848
 21
2172.946220485692
 31
0.0
  0
LINE
  5
1CA
330
1F
100
AcDbEntity
  8
0-C_ハッチ
  6
JWW_DASHED1
 62
   120
370
     5
100
AcDbLine
 10
2612.619435924628
 20
2097.946220485673
 30
0.0
 11
2687.619435924621
 21
2172.946220485667
 31
0.0
  0
LINE
  5
1CB
330
1F
100
AcDbEntity
  8
0-C_ハッチ
  6
JWW_DASHED1
 62
   120
370
     5
100
AcDbLine
 10
2570.193029053428
 20
2097.946220485673
 30
0.0
 11
2645.193029053424
 21
2172.946220485668
 31
0.0
  0
LINE
  5
1CC
330
1F
100
AcDbEntity
  8
0-C_ハッチ
  6
JWW_DASHED1
 62
   120
370
     5
100
AcDbLine
 10
2527.766622182232
 20
2097.946220485676
 30
0.0
 11
2602.766622182227
 21
2172.946220485672
 31
0.0
  0
LINE
  5
1CD
330
1F
100
AcDbEntity
  8
0-C_ハッチ
  6
JWW_DASHED1
 62
   120
370
     5
100
AcDbLine
 10
2485.340215311095
 20
2097.946220485685
 30
0.0
 11
2560.34021531109
 21
2172.94622048568
 31
0.0
  0
LINE
  5
1CE
330
1F
100
AcDbEntity
  8
0-C_ハッチ
  6
JWW_DASHED1
 62
   120
370
     5
100
AcDbLine
 10
2442.913808439898
 20
2097.946220485688
 30
0.0
 11
2517.913808439895
 21
2172.946220485684
 31
0.0
  0
LINE
  5
1CF
330
1F
100
AcDbEntity
  8
0-C_ハッチ
  6
JWW_DASHED1
 62
   120
370
     5
100
AcDbLine
 10
2400.487401568686
 20
2097.946220485676
 30
0.0
 11
2475.487401568698
 21
2172.946220485687
 31
0.0
  0
LINE
  5
1D0
330
1F
100
AcDbEntity
  8
0-C_ハッチ
  6
JWW_DASHED1
 62
   120
370
     5
100
AcDbLine
 10
2358.06099469749
 20
2097.94622048568
 30
0.0
 11
2433.060994697502
 21
2172.94622048569
 31
0.0
  0
LINE
  5
1D1
330
1F
100
AcDbEntity
  8
0-C_ハッチ
  6
JWW_DASHED1
 62
   120
370
     5
100
AcDbLine
 10
2315.634587826295
 20
2097.946220485684
 30
0.0
 11
2390.63458782629
 21
2172.946220485679
 31
0.0
  0
LINE
  5
1D2
330
1F
100
AcDbEntity
  8
0-C_ハッチ
  6
JWW_DASHED1
 62
   120
370
     5
100
AcDbLine
 10
2273.208180955082
 20
2097.946220485672
 30
0.0
 11
2348.208180955078
 21
2172.946220485667
 31
0.0
  0
LINE
  5
1D3
330
1F
100
AcDbEntity
  8
0-C_ハッチ
  6
JWW_DASHED1
 62
   120
370
     5
100
AcDbLine
 10
2230.781774083886
 20
2097.946220485675
 30
0.0
 11
2305.781774083881
 21
2172.94622048567
 31
0.0
  0
LINE
  5
1D4
330
1F
100
AcDbEntity
  8
0-C_ハッチ
  6
JWW_DASHED1
 62
   120
370
     5
100
AcDbLine
 10
2188.35536721269
 20
2097.946220485679
 30
0.0
 11
2263.355367212685
 21
2172.946220485674
 31
0.0
  0
LINE
  5
1D5
330
1F
100
AcDbEntity
  8
0-C_ハッチ
  6
JWW_DASHED1
 62
   120
370
     5
100
AcDbLine
 10
2151.918592331263
 20
2103.935852475398
 30
0.0
 11
2220.928960341548
 21
2172.946220485682
 31
0.0
  0
LINE
  5
1D6
330
1F
100
AcDbEntity
  8
0-C_ハッチ
  6
JWW_DASHED1
 62
   120
370
     5
100
AcDbLine
 10
2151.918592331268
 20
2146.362259346602
 30
0.0
 11
2178.502553470351
 21
2172.946220485685
 31
0.0
  0
LINE
  5
1D7
330
1F
100
AcDbEntity
  8
0-3_仕上げ
  6
Continuous
 62
    40
370
    15
100
AcDbLine
 10
2151.918592331281
 20
2097.946220485668
 30
0.0
 11
2151.918592331281
 21
2172.946220485668
 31
0.0
  0
LINE
  5
1D8
330
1F
100
AcDbEntity
  8
0-3_仕上げ
  6
Continuous
 62
    40
370
    15
100
AcDbLine
 10
2151.918592331281
 20
2172.946220485668
 30
0.0
 11
2781.918394379427
 21
2172.946220485668
 31
0.0
  0
LINE
  5
1D9
330
1F
100
AcDbEntity
  8
0-3_仕上げ
  6
Continuous
 62
    40
370
    15
100
AcDbLine
 10
2151.918592331281
 20
2097.946220485668
 30
0.0
 11
2781.918394379427
 21
2097.946220485668
 31
0.0
  0
LINE
  5
1DA
330
1F
100
AcDbEntity
  8
0-C_ハッチ
  6
JWW_DASHED1
 62
   120
370
     5
100
AcDbLine
 10
2739.89865653823
 20
2097.946220485674
 30
0.0
 11
2781.918394379427
 21
2139.965958326871
 31
0.0
  0
LINE
  5
1DB
330
1F
100
AcDbEntity
  8
0-C_ハッチ
  6
JWW_DASHED1
 62
   120
370
     5
100
AcDbLine
 10
2697.472249667034
 20
2097.946220485678
 30
0.0
 11
2772.472249667026
 21
2172.946220485668
 31
0.0
  0
MTEXT
  5
1DC
330
1F
100
AcDbEntity
  8
0-A_文字
  6
Continuous
 62
     7
370
     9
100
AcDbMText
 10
-2762.081254168995
 20
198.8083809719162
 30
0.0
 40
91.44
 41
600.0
 46
0.0
 71
     7
 72
     1
  1
{\fＭＳ ゴシック|b0|i0|c128|p49;■縦断面図}
 73
     1
 44
1.0
  0
MTEXT
  5
1DD
330
1F
100
AcDbEntity
  8
0-A_文字
  6
Continuous
 62
     7
370
     9
100
AcDbMText
 10
-2762.081254168992
 20
50.28811580447199
 30
0.0
 40
91.43999999999994
 41
1439.999999999999
 46
0.0
 71
     7
 72
     1
  1
{\fＭＳ ゴシック|b0|i0|c128|p49;　[３方枠＋床直付レール]}
 73
     1
 44
1.0
  0
MTEXT
  5
1DE
330
1F
100
AcDbEntity
  8
0-A_文字
  6
Continuous
 62
     7
370
   211
100
AcDbMText
 10
-2085.881152235166
 20
-2985.712628160858
 30
0.0
 40
91.44000000000129
 41
240.0000000000034
 46
0.0
 71
     7
 72
     1
  1
{\fＭＳ ゴシック|b0|i0|c128|p49;27.4}
 73
     1
 44
1.0
  0
LINE
  5
1DF
330
1F
100
AcDbEntity
  8
0-B_寸法
  6
Continuous
 62
   120
370
     5
100
AcDbLine
 10
-1448.081299956536
 20
-381.8298970618981
 30
0.0
 11
-686.0811885147291
 21
-381.8298970618981
 31
0.0
  0
LWPOLYLINE
  5
1E0
330
1F
100
AcDbEntity
  8
0-B_寸法
  6
Continuous
 62
     7
370
     9
100
AcDbPolyline
 90
        4
 70
     1
 43
3.0
 10
-684.5811885147291
 20
-381.8298970618981
 42
0.4142135623731
 10
-686.0811885147291
 20
-380.3298970618981
 42
0.4142135623731
 10
-687.5811885147291
 20
-381.8298970618981
 42
0.4142135623731
 10
-686.0811885147291
 20
-383.3298970618982
 42
0.4142135623731
  0
LINE
  5
1E1
330
1F
100
AcDbEntity
  8
0-B_寸法
  6
Continuous
 62
   120
370
     5
100
AcDbLine
 10
-1106.081188514726
 20
-597.8289023538132
 30
0.0
 11
-896.0811885147257
 21
-597.8289023538132
 31
0.0
  0
LWPOLYLINE
  5
1E2
330
1F
100
AcDbEntity
  8
0-B_寸法
  6
Continuous
 62
     7
370
     9
100
AcDbPolyline
 90
        4
 70
     1
 43
3.0
 10
-894.5811885147257
 20
-597.8289023538132
 42
0.4142135623731
 10
-896.0811885147257
 20
-596.3289023538132
 42
0.4142135623731
 10
-897.5811885147257
 20
-597.8289023538132
 42
0.4142135623731
 10
-896.0811885147257
 20
-599.3289023538132
 42
0.4142135623731
  0
LWPOLYLINE
  5
1E3
330
1F
100
AcDbEntity
  8
0-B_寸法
  6
Continuous
 62
     7
370
     9
100
AcDbPolyline
 90
        4
 70
     1
 43
3.0
 10
-894.5811885147257
 20
-381.8298970618981
 42
0.4142135623731
 10
-896.0811885147257
 20
-380.3298970618981
 42
0.4142135623731
 10
-897.5811885147257
 20
-381.8298970618981
 42
0.4142135623731
 10
-896.0811885147257
 20
-383.3298970618982
 42
0.4142135623731
  0
LWPOLYLINE
  5
1E4
330
1F
100
AcDbEntity
  8
0-B_寸法
  6
Continuous
 62
     7
370
     9
100
AcDbPolyline
 90
        4
 70
     1
 43
3.0
 10
-1104.581188514726
 20
-597.8292735135462
 42
0.4142135623731
 10
-1106.081188514726
 20
-596.3292735135462
 42
0.4142135623731
 10
-1107.581188514726
 20
-597.8292735135462
 42
0.4142135623731
 10
-1106.081188514726
 20
-599.3292735135464
 42
0.4142135623731
  0
LWPOLYLINE
  5
1E5
330
1F
100
AcDbEntity
  8
0-B_寸法
  6
Continuous
 62
     7
370
     9
100
AcDbPolyline
 90
        4
 70
     1
 43
3.0
 10
-1104.581188514726
 20
-642.82942197744
 42
0.4142135623731
 10
-1106.081188514726
 20
-641.32942197744
 42
0.4142135623731
 10
-1107.581188514726
 20
-642.82942197744
 42
0.4142135623731
 10
-1106.081188514726
 20
-644.3294219774401
 42
0.4142135623731
  0
LINE
  5
1E6
330
1F
100
AcDbEntity
  8
0-B_寸法
  6
Continuous
 62
   120
370
     5
100
AcDbLine
 10
-1316.081311980361
 20
-642.82942197744
 30
0.0
 11
-1106.081188514726
 21
-642.82942197744
 31
0.0
  0
LWPOLYLINE
  5
1E7
330
1F
100
AcDbEntity
  8
0-B_寸法
  6
Continuous
 62
     7
370
     9
100
AcDbPolyline
 90
        4
 70
     1
 43
3.0
 10
-684.5811885147291
 20
-3309.830305131482
 42
0.4142135623731
 10
-686.0811885147291
 20
-3308.330305131482
 42
0.4142135623731
 10
-687.5811885147291
 20
-3309.830305131482
 42
0.4142135623731
 10
-686.0811885147291
 20
-3311.330305131482
 42
0.4142135623731
  0
LINE
  5
1E8
330
1F
100
AcDbEntity
  8
0-B_寸法
  6
Continuous
 62
   120
370
     5
100
AcDbLine
 10
-1316.081311980361
 20
-3309.830305131482
 30
0.0
 11
-686.0811885147291
 21
-3309.830305131482
 31
0.0
  0
LWPOLYLINE
  5
1E9
330
1F
100
AcDbEntity
  8
0-B_寸法
  6
Continuous
 62
     7
370
     9
100
AcDbPolyline
 90
        4
 70
     1
 43
3.0
 10
-894.5811885147257
 20
-3309.830305131482
 42
0.4142135623731
 10
-896.0811885147257
 20
-3308.330305131482
 42
0.4142135623731
 10
-897.5811885147257
 20
-3309.830305131482
 42
0.4142135623731
 10
-896.0811885147257
 20
-3311.330305131482
 42
0.4142135623731
  0
LINE
  5
1EA
330
1F
100
AcDbEntity
  8
0-3_仕上げ
  6
Continuous
 62
     7
370
     9
100
AcDbLine
 10
-2552.080529832413
 20
-3357.830537724914
 30
0.0
 11
-1316.080529832398
 21
-3357.830537724914
 31
0.0
  0
LINE
  5
1EB
330
1F
100
AcDbEntity
  8
0-3_仕上げ
  6
Continuous
 62
     7
370
     9
100
AcDbLine
 10
-2552.080529832413
 20
-3345.830572366489
 30
0.0
 11
-1316.080529832398
 21
-3345.830572366489
 31
0.0
  0
LINE
  5
1EC
330
1F
100
AcDbEntity
  8
0-3_仕上げ
  6
Continuous
 62
     7
370
     9
100
AcDbLine
 10
-2552.080529832413
 20
-3369.830688663209
 30
0.0
 11
-1316.080529832398
 21
-3369.830688663209
 31
0.0
  0
LINE
  5
1ED
330
1F
100
AcDbEntity
  8
0-3_仕上げ
  6
Continuous
 62
    40
370
    15
100
AcDbLine
 10
-2552.080529832413
 20
-3381.830654021633
 30
0.0
 11
-1316.080529832398
 21
-3381.830654021633
 31
0.0
  0
LINE
  5
1EE
330
1F
100
AcDbEntity
  8
0-3_仕上げ
  6
Continuous
 62
     7
370
     9
100
AcDbLine
 10
-2552.080529832413
 20
-3333.830607008066
 30
0.0
 11
-1316.080529832398
 21
-3333.830607008066
 31
0.0
  0
LINE
  5
1EF
330
1F
100
AcDbEntity
  8
0-3_仕上げ
  6
Continuous
 62
     7
370
     9
100
AcDbLine
 10
-2552.080529832413
 20
-3321.830456069772
 30
0.0
 11
-1316.080529832398
 21
-3321.830456069772
 31
0.0
  0
LINE
  5
1F0
330
1F
100
AcDbEntity
  8
0-3_仕上げ
  6
Continuous
 62
    40
370
    15
100
AcDbLine
 10
-1316.080529832398
 20
-3309.830676291216
 30
0.0
 11
-2552.080529832413
 21
-3309.830676291216
 31
0.0
  0
LWPOLYLINE
  5
1F1
330
1F
100
AcDbEntity
  8
0-B_寸法
  6
Continuous
 62
     7
370
     9
100
AcDbPolyline
 90
        4
 70
     1
 43
3.0
 10
-894.5811885147257
 20
-3279.830676291216
 42
0.4142135623731
 10
-896.0811885147257
 20
-3278.330676291216
 42
0.4142135623731
 10
-897.5811885147257
 20
-3279.830676291216
 42
0.4142135623731
 10
-896.0811885147257
 20
-3281.330676291216
 42
0.4142135623731
  0
LINE
  5
1F2
330
1F
100
AcDbEntity
  8
0-B_寸法
  6
Continuous
 62
   120
370
     5
100
AcDbLine
 10
-1316.081311980361
 20
-3279.830676291216
 30
0.0
 11
-896.0811885147257
 21
-3279.830676291216
 31
0.0
  0
LWPOLYLINE
  5
1F3
330
1F
100
AcDbEntity
  8
0-B_寸法
  6
Continuous
 62
     7
370
     9
100
AcDbPolyline
 90
        4
 70
     1
 43
3.0
 10
-1104.581188514726
 20
-3279.830676291216
 42
0.4142135623731
 10
-1106.081188514726
 20
-3278.330676291216
 42
0.4142135623731
 10
-1107.581188514726
 20
-3279.830676291216
 42
0.4142135623731
 10
-1106.081188514726
 20
-3281.330676291216
 42
0.4142135623731
  0
LWPOLYLINE
  5
1F4
330
1F
100
AcDbEntity
  8
0-B_寸法
  6
Continuous
 62
     7
370
     9
100
AcDbPolyline
 90
        4
 70
     1
 43
3.0
 10
-1104.581188514726
 20
-3240.830676291215
 42
0.4142135623731
 10
-1106.081188514726
 20
-3239.330676291215
 42
0.4142135623731
 10
-1107.581188514726
 20
-3240.830676291215
 42
0.4142135623731
 10
-1106.081188514726
 20
-3242.330676291215
 42
0.4142135623731
  0
LINE
  5
1F5
330
1F
100
AcDbEntity
  8
0-B_寸法
  6
Continuous
 62
   120
370
     5
100
AcDbLine
 10
-1316.081311980361
 20
-3240.830676291215
 30
0.0
 11
-1106.081188514726
 21
-3240.830676291215
 31
0.0
  0
MTEXT
  5
1F6
330
1F
100
AcDbEntity
  8
0-B_寸法
  6
Continuous
 62
     7
370
   211
100
AcDbMText
 10
-701.0811885147248
 20
-360.5465974679665
 30
0.0
 40
91.44000000000129
 41
60.00000000000085
 46
0.0
 71
     7
 72
     1
  1
{\fＭＳ ゴシック|b0|i0|c128|p49;5}
 11
6.123031769111886E-17
 21
1.0
 31
0.0
 73
     1
 44
1.0
  0
LINE
  5
1F7
330
1F
100
AcDbEntity
  8
0-B_寸法
  6
Continuous
 62
   120
370
     5
100
AcDbLine
 10
-1316.081311980361
 20
-3381.830282861898
 30
0.0
 11
-686.0803902403848
 21
-3381.830282861898
 31
0.0
  0
LWPOLYLINE
  5
1F8
330
1F
100
AcDbEntity
  8
0-B_寸法
  6
Continuous
 62
     7
370
     9
100
AcDbPolyline
 90
        4
 70
     1
 43
3.0
 10
-684.5803902403848
 20
-3381.830282861898
 42
0.4142135623731
 10
-686.0803902403848
 20
-3380.330282861898
 42
0.4142135623731
 10
-687.5803902403848
 20
-3381.830282861898
 42
0.4142135623731
 10
-686.0803902403848
 20
-3383.330282861898
 42
0.4142135623731
  0
LINE
  5
1F9
330
1F
100
AcDbEntity
  8
0-B_寸法
  6
Continuous
 62
   120
370
     5
100
AcDbLine
 10
-1106.081188514726
 20
-3279.830676291216
 30
0.0
 11
-1106.081188514726
 21
-597.8292735135462
 31
0.0
  0
LINE
  5
1FA
330
1F
100
AcDbEntity
  8
0-B_寸法
  6
Continuous
 62
   120
370
     5
100
AcDbLine
 10
-896.0811885147257
 20
-3309.830305131482
 30
0.0
 11
-896.0811885147257
 21
-381.8298970618981
 31
0.0
  0
LINE
  5
1FB
330
1F
100
AcDbEntity
  8
0-B_寸法
  6
Continuous
 62
   120
370
     5
100
AcDbLine
 10
-2897.081152235162
 20
-3381.830282861898
 30
0.0
 11
-2552.081311980379
 21
-3381.830282861898
 31
0.0
  0
LWPOLYLINE
  5
1FC
330
1F
100
AcDbEntity
  8
0-B_寸法
  6
Continuous
 62
     7
370
     9
100
AcDbPolyline
 90
        4
 70
     1
 43
3.0
 10
-2895.581152235162
 20
-3381.830282861898
 42
0.4142135623731
 10
-2897.081152235162
 20
-3380.330282861898
 42
0.4142135623731
 10
-2898.581152235162
 20
-3381.830282861898
 42
0.4142135623731
 10
-2897.081152235162
 20
-3383.330282861898
 42
0.4142135623731
  0
LINE
  5
1FD
330
1F
100
AcDbEntity
  8
0-0_補助線
  6
JWW_HOJO
 62
   120
370
     5
100
AcDbLine
 10
-2897.080353960855
 20
-3381.830282835507
 30
0.0
 11
-686.0803902403848
 21
-3381.830282835507
 31
0.0
  0
LINE
  5
1FE
330
1F
100
AcDbEntity
  8
0-1_通り芯
  6
JWW_CENTER1
 62
   120
370
     5
100
AcDbLine
 10
-1934.081152235161
 20
-3465.660624903154
 30
0.0
 11
-1934.081152235161
 21
-99.82988221551082
 31
0.0
  0
LINE
  5
1FF
330
1F
100
AcDbEntity
  8
0-B_寸法
  6
Continuous
 62
   120
370
     5
100
AcDbLine
 10
-2897.081152235162
 20
-351.8298970618981
 30
0.0
 11
-2225.081106458795
 21
-351.8298970618981
 31
0.0
  0
LINE
  5
200
330
1F
100
AcDbEntity
  8
0-B_寸法
  6
Continuous
 62
   120
370
     5
100
AcDbLine
 10
-686.0811885147291
 20
-351.8298970618981
 30
0.0
 11
-1316.081188514726
 21
-351.8298970618981
 31
0.0
  0
LWPOLYLINE
  5
201
330
1F
100
AcDbEntity
  8
0-B_寸法
  6
Continuous
 62
     7
370
     9
100
AcDbPolyline
 90
        4
 70
     1
 43
3.0
 10
-684.5811885147291
 20
-351.8298970618981
 42
0.4142135623731
 10
-686.0811885147291
 20
-350.3298970618981
 42
0.4142135623731
 10
-687.5811885147291
 20
-351.8298970618981
 42
0.4142135623731
 10
-686.0811885147291
 20
-353.3298970618982
 42
0.4142135623731
  0
LWPOLYLINE
  5
202
330
1F
100
AcDbEntity
  8
0-B_寸法
  6
Continuous
 62
     7
370
     9
100
AcDbPolyline
 90
        4
 70
     1
 43
3.0
 10
-2895.581152235162
 20
-351.8298970618981
 42
0.4142135623731
 10
-2897.081152235162
 20
-350.3298970618981
 42
0.4142135623731
 10
-2898.581152235162
 20
-351.8298970618981
 42
0.4142135623731
 10
-2897.081152235162
 20
-353.3298970618982
 42
0.4142135623731
  0
LINE
  5
203
330
1F
100
AcDbEntity
  8
0-B_寸法
  6
Continuous
 62
   120
370
     5
100
AcDbLine
 10
-686.0811885147291
 20
-3381.830282861898
 30
0.0
 11
-686.0811885147291
 21
-351.8298970618981
 31
0.0
  0
LINE
  5
204
330
1F
100
AcDbEntity
  8
0-B_寸法
  6
Continuous
 62
   120
370
     5
100
AcDbLine
 10
-2897.081152235162
 20
-351.8298970618981
 30
0.0
 11
-2897.081152235162
 21
-3381.830282861898
 31
0.0
  0
MTEXT
  5
205
330
1F
100
AcDbEntity
  8
0-B_寸法
  6
Continuous
 62
     7
370
   211
100
AcDbMText
 10
-1316.081254180166
 20
-388.5564480616595
 30
0.0
 40
91.44000000000129
 41
60.00000000000085
 46
0.0
 71
     7
 72
     1
  1
{\fＭＳ ゴシック|b0|i0|c128|p49;8}
 11
6.123031769111886E-17
 21
1.0
 31
0.0
 73
     1
 44
1.0
  0
MTEXT
  5
206
330
1F
100
AcDbEntity
  8
0-B_寸法
  6
Continuous
 62
     7
370
   211
100
AcDbMText
 10
-1316.081254180166
 20
-474.1098424190134
 30
0.0
 40
91.44000000000129
 41
60.00000000000085
 46
0.0
 71
     7
 72
     1
  1
{\fＭＳ ゴシック|b0|i0|c128|p49;9}
 11
6.123031769111886E-17
 21
1.0
 31
0.0
 73
     1
 44
1.0
  0
MTEXT
  5
207
330
1F
100
AcDbEntity
  8
0-B_寸法
  6
Continuous
 62
     7
370
     0
100
AcDbMText
 10
-911.0804956832251
 20
-560.359399707855
 30
0.0
 40
91.43999999999966
 41
119.9999999999996
 46
0.0
 71
     7
 72
     1
  1
{\fＭＳ ゴシック|b0|i0|c128|p49;36}
 11
6.123031769111886E-17
 21
1.0
 31
0.0
 73
     1
 44
1.0
  0
LINE
  5
208
330
1F
100
AcDbEntity
  8
0-B_寸法
  6
Continuous
 62
   120
370
     5
100
AcDbLine
 10
-1316.081254180167
 20
-381.8298424190142
 30
0.0
 11
-1316.081254180167
 21
-597.8296593135453
 31
0.0
  0
LWPOLYLINE
  5
209
330
1F
100
AcDbEntity
  8
0-B_寸法
  6
Continuous
 62
     7
370
     9
100
AcDbPolyline
 90
        4
 70
     1
 43
3.0
 10
-1314.581254180167
 20
-381.8298424190142
 42
0.4142135623731
 10
-1316.081254180167
 20
-380.3298424190142
 42
0.4142135623731
 10
-1317.581254180167
 20
-381.8298424190142
 42
0.4142135623731
 10
-1316.081254180167
 20
-383.3298424190143
 42
0.4142135623731
  0
LWPOLYLINE
  5
20A
330
1F
100
AcDbEntity
  8
0-B_寸法
  6
Continuous
 62
     7
370
     9
100
AcDbPolyline
 90
        4
 70
     1
 43
3.0
 10
-1314.581254180167
 20
-483.8298424190135
 42
0.4142135623731
 10
-1316.081254180167
 20
-482.3298424190135
 42
0.4142135623731
 10
-1317.581254180167
 20
-483.8298424190135
 42
0.4142135623731
 10
-1316.081254180167
 20
-485.3298424190136
 42
0.4142135623731
  0
LWPOLYLINE
  5
20B
330
1F
100
AcDbEntity
  8
0-B_寸法
  6
Continuous
 62
     7
370
     9
100
AcDbPolyline
 90
        4
 70
     1
 43
3.0
 10
-1314.581254180167
 20
-537.8298424190134
 42
0.4142135623731
 10
-1316.081254180167
 20
-536.3298424190134
 42
0.4142135623731
 10
-1317.581254180167
 20
-537.8298424190134
 42
0.4142135623731
 10
-1316.081254180167
 20
-539.3298424190135
 42
0.4142135623731
  0
LWPOLYLINE
  5
20C
330
1F
100
AcDbEntity
  8
0-B_寸法
  6
Continuous
 62
     7
370
     9
100
AcDbPolyline
 90
        4
 70
     1
 43
3.0
 10
-1314.581254180167
 20
-597.8296593135453
 42
0.4142135623731
 10
-1316.081254180167
 20
-596.3296593135453
 42
0.4142135623731
 10
-1317.581254180167
 20
-597.8296593135453
 42
0.4142135623731
 10
-1316.081254180167
 20
-599.3296593135454
 42
0.4142135623731
  0
LWPOLYLINE
  5
20D
330
1F
100
AcDbEntity
  8
0-B_寸法
  6
Continuous
 62
     7
370
     9
100
AcDbPolyline
 90
        4
 70
     1
 43
3.0
 10
-1314.581254180167
 20
-429.8298424190128
 42
0.4142135623731
 10
-1316.081254180167
 20
-428.3298424190128
 42
0.4142135623731
 10
-1317.581254180167
 20
-429.8298424190128
 42
0.4142135623731
 10
-1316.081254180167
 20
-431.3298424190128
 42
0.4142135623731
  0
LINE
  5
20E
330
1F
100
AcDbEntity
  8
0-B_寸法
  6
Continuous
 62
   120
370
     5
100
AcDbLine
 10
-1427.575554771998
 20
-537.8298424190134
 30
0.0
 11
-1448.081299956536
 21
-537.8298424190134
 31
0.0
  0
LINE
  5
20F
330
1F
100
AcDbEntity
  8
0-B_寸法
  6
Continuous
 62
   120
370
     5
100
AcDbLine
 10
-1316.081254180167
 20
-537.8298424190134
 30
0.0
 11
-1328.613544302174
 21
-537.8298424190134
 31
0.0
  0
LINE
  5
210
330
1F
100
AcDbEntity
  8
0-B_寸法
  6
Continuous
 62
   120
370
     5
100
AcDbLine
 10
-1316.081254180167
 20
-483.8298424190135
 30
0.0
 11
-1448.081299956536
 21
-483.8298424190135
 31
0.0
  0
LINE
  5
211
330
1F
100
AcDbEntity
  8
0-B_寸法
  6
Continuous
 62
   120
370
     5
100
AcDbLine
 10
-1427.575554771998
 20
-429.8298424190128
 30
0.0
 11
-1448.081299956536
 21
-429.8298424190128
 31
0.0
  0
LINE
  5
212
330
1F
100
AcDbEntity
  8
0-B_寸法
  6
Continuous
 62
   120
370
     5
100
AcDbLine
 10
-1316.081254180167
 20
-429.8298424190128
 30
0.0
 11
-1328.613544302174
 21
-429.8298424190128
 31
0.0
  0
MTEXT
  5
213
330
1F
100
AcDbEntity
  8
0-B_寸法
  6
Continuous
 62
     7
370
   211
100
AcDbMText
 10
-1316.081254180166
 20
-582.1098424190141
 30
0.0
 40
91.44000000000129
 41
60.00000000000085
 46
0.0
 71
     7
 72
     1
  1
{\fＭＳ ゴシック|b0|i0|c128|p49;9}
 11
6.123031769111886E-17
 21
1.0
 31
0.0
 73
     1
 44
1.0
  0
LINE
  5
214
330
1F
100
AcDbEntity
  8
0-4_枠
  6
Continuous
 62
    92
370
    13
100
AcDbLine
 10
-2165.081701551567
 20
-597.8297139564293
 30
0.0
 11
-2018.082377825867
 21
-597.8297139564293
 31
0.0
  0
LINE
  5
215
330
1F
100
AcDbEntity
  8
0-4_枠
  6
Continuous
 62
    92
370
    13
100
AcDbLine
 10
-2018.082377825867
 20
-597.8297139564293
 30
0.0
 11
-2018.082377825867
 21
-477.8292561927574
 31
0.0
  0
LINE
  5
216
330
1F
100
AcDbEntity
  8
0-4_枠
  6
Continuous
 62
    92
370
    13
100
AcDbLine
 10
-2018.082377825867
 20
-477.8292561927574
 30
0.0
 11
-1850.082124982964
 21
-477.8292561927574
 31
0.0
  0
LINE
  5
217
330
1F
100
AcDbEntity
  8
0-4_枠
  6
Continuous
 62
    92
370
    13
100
AcDbLine
 10
-1850.082124982964
 20
-477.8292561927574
 30
0.0
 11
-1850.082124982964
 21
-597.8297139564293
 31
0.0
  0
LINE
  5
218
330
1F
100
AcDbEntity
  8
0-7_金物
  6
Continuous
 62
     7
370
     9
100
AcDbLine
 10
-2000.261513982902
 20
-584.6174642005692
 30
0.0
 11
-2000.261513982902
 21
-518.61746420057
 31
0.0
  0
LINE
  5
219
330
1F
100
AcDbEntity
  8
0-7_金物
  6
Continuous
 62
     7
370
     9
100
AcDbLine
 10
-2000.261513982902
 20
-518.61746420057
 30
0.0
 11
-1964.082348142753
 21
-518.61746420057
 31
0.0
  0
LINE
  5
21A
330
1F
100
AcDbEntity
  8
0-7_金物
  6
Continuous
 62
     7
370
     9
100
AcDbLine
 10
-1964.082348142753
 20
-597.8297139564293
 30
0.0
 11
-1964.082348142753
 21
-501.8292561927582
 31
0.0
  0
LINE
  5
21B
330
1F
100
AcDbEntity
  8
0-7_金物
  6
Continuous
 62
     7
370
     9
100
AcDbLine
 10
-1964.082348142753
 20
-501.8292561927582
 30
0.0
 11
-1904.080660139213
 21
-501.8292561927582
 31
0.0
  0
LINE
  5
21C
330
1F
100
AcDbEntity
  8
0-7_金物
  6
Continuous
 62
     7
370
     9
100
AcDbLine
 10
-1904.080660139213
 20
-501.8292561927582
 30
0.0
 11
-1904.080660139213
 21
-597.8297139564293
 31
0.0
  0
LINE
  5
21D
330
1F
100
AcDbEntity
  8
0-7_金物
  6
Continuous
 62
     7
370
     9
100
AcDbLine
 10
-1868.262266431938
 20
-518.61746420057
 30
0.0
 11
-1868.262266431938
 21
-584.6174642005692
 31
0.0
  0
LINE
  5
21E
330
1F
100
AcDbEntity
  8
0-7_金物
  6
Continuous
 62
     7
370
     9
100
AcDbLine
 10
-1904.080660139213
 20
-518.61746420057
 30
0.0
 11
-1868.262266431938
 21
-518.61746420057
 31
0.0
  0
LINE
  5
21F
330
1F
100
AcDbEntity
  8
0-7_金物
  6
Continuous
 62
     7
370
     9
100
AcDbLine
 10
-1850.082124982964
 20
-597.8297139564293
 30
0.0
 11
-1832.0823538648
 21
-597.8297139564293
 31
0.0
  0
LINE
  5
220
330
1F
100
AcDbEntity
  8
0-7_金物
  6
Continuous
 62
     7
370
     9
100
AcDbLine
 10
-1869.086241041313
 20
-603.829805509163
 30
0.0
 11
-1869.086241041313
 21
-597.8297139564293
 31
0.0
  0
LINE
  5
221
330
1F
100
AcDbEntity
  8
0-7_金物
  6
Continuous
 62
     7
370
     9
100
AcDbLine
 10
-1862.082456861626
 20
-597.8297139564293
 30
0.0
 11
-1869.086241041313
 21
-597.8297139564293
 31
0.0
  0
LINE
  5
222
330
1F
100
AcDbEntity
  8
0-7_金物
  6
Continuous
 62
     7
370
     9
100
AcDbLine
 10
-2018.082377825867
 20
-597.8297139564293
 30
0.0
 11
-2036.080655847678
 21
-597.8297139564293
 31
0.0
  0
LINE
  5
223
330
1F
100
AcDbEntity
  8
0-7_金物
  6
Continuous
 62
     7
370
     9
100
AcDbLine
 10
-1998.295853887686
 20
-603.829805509163
 30
0.0
 11
-1998.295853887686
 21
-597.8297139564293
 31
0.0
  0
LINE
  5
224
330
1F
100
AcDbEntity
  8
0-7_金物
  6
Continuous
 62
     7
370
     9
100
AcDbLine
 10
-1998.295853887686
 20
-597.8297139564293
 30
0.0
 11
-2006.082784448754
 21
-597.8297139564293
 31
0.0
  0
LINE
  5
225
330
1F
100
AcDbEntity
  8
0-7_金物
  6
Continuous
 62
     7
370
     9
100
AcDbLine
 10
-1832.0823538648
 20
-597.8297139564293
 30
0.0
 11
-1832.0823538648
 21
-603.829805509163
 31
0.0
  0
LINE
  5
226
330
1F
100
AcDbEntity
  8
0-7_金物
  6
Continuous
 62
     7
370
     9
100
AcDbLine
 10
-1998.295853887686
 20
-603.829805509163
 30
0.0
 11
-2036.080655847678
 21
-603.829805509163
 31
0.0
  0
LINE
  5
227
330
1F
100
AcDbEntity
  8
0-7_金物
  6
Continuous
 62
     7
370
     9
100
AcDbLine
 10
-2036.080655847678
 20
-597.8297139564293
 30
0.0
 11
-2036.080655847678
 21
-603.829805509163
 31
0.0
  0
LINE
  5
228
330
1F
100
AcDbEntity
  8
0-7_金物
  6
Continuous
 62
     7
370
     9
100
AcDbLine
 10
-1922.081907545218
 20
-642.8298055091637
 30
0.0
 11
-1946.082588468681
 21
-642.8298055091637
 31
0.0
  0
LINE
  5
229
330
1F
100
AcDbEntity
  8
0-7_金物
  6
Continuous
 62
     7
370
     9
100
AcDbLine
 10
-1922.081907545218
 20
-597.8297139564293
 30
0.0
 11
-1922.081907545218
 21
-642.8298055091637
 31
0.0
  0
LINE
  5
22A
330
1F
100
AcDbEntity
  8
0-7_金物
  6
Continuous
 62
     7
370
     9
100
AcDbLine
 10
-1946.082588468681
 20
-642.8298055091637
 30
0.0
 11
-1946.082588468681
 21
-597.8297139564293
 31
0.0
  0
LINE
  5
22B
330
1F
100
AcDbEntity
  8
0-7_金物
  6
Continuous
 62
     7
370
     9
100
AcDbLine
 10
-1964.082348142753
 20
-584.6174642005692
 30
0.0
 11
-2000.261513982902
 21
-584.6174642005692
 31
0.0
  0
LINE
  5
22C
330
1F
100
AcDbEntity
  8
0-7_金物
  6
Continuous
 62
     7
370
     9
100
AcDbLine
 10
-1868.262266431938
 20
-584.6174642005692
 30
0.0
 11
-1904.080660139213
 21
-584.6174642005692
 31
0.0
  0
LINE
  5
22D
330
1F
100
AcDbEntity
  8
0-7_金物
  6
Continuous
 62
     7
370
     9
100
AcDbLine
 10
-1904.080660139213
 20
-597.8297139564293
 30
0.0
 11
-1964.082348142753
 21
-597.8297139564293
 31
0.0
  0
LINE
  5
22E
330
1F
100
AcDbEntity
  8
0-7_金物
  6
Continuous
 62
     7
370
     9
100
AcDbLine
 10
-1869.086241041313
 20
-603.829805509163
 30
0.0
 11
-1832.0823538648
 21
-603.829805509163
 31
0.0
  0
LINE
  5
22F
330
1F
100
AcDbEntity
  8
0-4_枠
  6
Continuous
 62
    92
370
    13
100
AcDbLine
 10
-2165.081701551567
 20
-381.8298970618981
 30
0.0
 11
-1745.081701551567
 21
-381.8298970618981
 31
0.0
  0
LINE
  5
230
330
1F
100
AcDbEntity
  8
0-4_枠
  6
Continuous
 62
    92
370
    13
100
AcDbLine
 10
-1703.081701551566
 20
-597.8297139564293
 30
0.0
 11
-1850.082124982964
 21
-597.8297139564293
 31
0.0
  0
MTEXT
  5
231
330
1F
100
AcDbEntity
  8
0-B_寸法
  6
Continuous
 62
     7
370
   211
100
AcDbMText
 10
-1316.081254180166
 20
-749.7727640664577
 30
0.0
 40
91.43999999999966
 41
119.9999999999996
 46
0.0
 71
     7
 72
     1
  1
{\fＭＳ ゴシック|b0|i0|c128|p49;10}
 11
6.123031769111886E-17
 21
1.0
 31
0.0
 73
     1
 44
1.0
  0
LINE
  5
232
330
1F
100
AcDbEntity
  8
0-B_寸法
  6
Continuous
 62
   120
370
     5
100
AcDbLine
 10
-1703.081701551566
 20
-893.3122363660347
 30
0.0
 11
-2165.081701551567
 21
-893.3122363660347
 31
0.0
  0
LWPOLYLINE
  5
233
330
1F
100
AcDbEntity
  8
0-B_寸法
  6
Continuous
 62
     7
370
     9
100
AcDbPolyline
 90
        4
 70
     1
 43
3.0
 10
-2163.581701551567
 20
-893.3122363660347
 42
0.4142135623731
 10
-2165.081701551567
 20
-891.8122363660347
 42
0.4142135623731
 10
-2166.581701551567
 20
-893.3122363660347
 42
0.4142135623731
 10
-2165.081701551567
 20
-894.8122363660347
 42
0.4142135623731
  0
LINE
  5
234
330
1F
100
AcDbEntity
  8
0-B_寸法
  6
Continuous
 62
   120
370
     5
100
AcDbLine
 10
-2165.081701551567
 20
-893.3122363660347
 30
0.0
 11
-2165.081701551567
 21
-739.6012889441387
 31
0.0
  0
LWPOLYLINE
  5
235
330
1F
100
AcDbEntity
  8
0-B_寸法
  6
Continuous
 62
     7
370
     9
100
AcDbPolyline
 90
        4
 70
     1
 43
3.0
 10
-1701.581701551566
 20
-893.3122363660347
 42
0.4142135623731
 10
-1703.081701551566
 20
-891.8122363660347
 42
0.4142135623731
 10
-1704.581701551566
 20
-893.3122363660347
 42
0.4142135623731
 10
-1703.081701551566
 20
-894.8122363660347
 42
0.4142135623731
  0
LINE
  5
236
330
1F
100
AcDbEntity
  8
0-B_寸法
  6
Continuous
 62
   120
370
     5
100
AcDbLine
 10
-1703.081701551566
 20
-893.3122363660347
 30
0.0
 11
-1703.081701551566
 21
-739.6012889441387
 31
0.0
  0
LINE
  5
237
330
1F
100
AcDbEntity
  8
0-7_金物
  6
Continuous
 62
     7
370
     9
100
AcDbLine
 10
-1862.082456861626
 20
-597.8297139564293
 30
0.0
 11
-1862.082456861626
 21
-489.829622403695
 31
0.0
  0
LINE
  5
238
330
1F
100
AcDbEntity
  8
0-7_金物
  6
Continuous
 62
     7
370
     9
100
AcDbLine
 10
-1850.082124983625
 20
-597.8297139564293
 30
0.0
 11
-1850.082124983625
 21
-477.8292561936941
 31
0.0
  0
LINE
  5
239
330
1F
100
AcDbEntity
  8
0-7_金物
  6
Continuous
 62
     7
370
     9
100
AcDbLine
 10
-2006.082784448754
 20
-597.8297139564293
 30
0.0
 11
-2006.082784448754
 21
-489.829622403695
 31
0.0
  0
LINE
  5
23A
330
1F
100
AcDbEntity
  8
0-7_金物
  6
Continuous
 62
     7
370
     9
100
AcDbLine
 10
-2018.083116326754
 20
-597.8297139564293
 30
0.0
 11
-2018.083116326754
 21
-477.8292561936941
 31
0.0
  0
LINE
  5
23B
330
1F
100
AcDbEntity
  8
0-7_金物
  6
Continuous
 62
     7
370
     9
100
AcDbLine
 10
-1862.082456861626
 20
-489.829622403695
 30
0.0
 11
-2006.082784448754
 21
-489.829622403695
 31
0.0
  0
LINE
  5
23C
330
1F
100
AcDbEntity
  8
0-7_金物
  6
Continuous
 62
     7
370
     9
100
AcDbLine
 10
-1850.082124983625
 20
-477.8292561936941
 30
0.0
 11
-2018.083116326754
 21
-477.8292561936941
 31
0.0
  0
LINE
  5
23D
330
1F
100
AcDbEntity
  8
0-7_金物
  6
Continuous
 62
     7
370
     9
100
AcDbLine
 10
-1844.081398283132
 20
-345.6843136817855
 30
0.0
 11
-2024.081260954028
 21
-345.6843136817855
 31
0.0
  0
LINE
  5
23E
330
1F
100
AcDbEntity
  8
0-7_金物
  6
Continuous
 62
     7
370
     9
100
AcDbLine
 10
-2024.081260954028
 20
-333.6839760810761
 30
0.0
 11
-2024.081260954028
 21
-345.6843136817855
 31
0.0
  0
LINE
  5
23F
330
1F
100
AcDbEntity
  8
0-7_金物
  6
Continuous
 62
     7
370
     9
100
AcDbLine
 10
-1844.081398283132
 20
-333.6839760810761
 30
0.0
 11
-1844.081398283132
 21
-345.6843136817855
 31
0.0
  0
LINE
  5
240
330
1F
100
AcDbEntity
  8
0-7_金物
  6
Continuous
 62
     7
370
     9
100
AcDbLine
 10
-1844.081398283132
 20
-333.6839760810761
 30
0.0
 11
-2024.081260954028
 21
-333.6839760810761
 31
0.0
  0
LINE
  5
241
330
1F
100
AcDbEntity
  8
0-7_金物
  6
Continuous
 62
     7
370
     9
100
AcDbLine
 10
-1874.081501279959
 20
-345.6843136817855
 30
0.0
 11
-1874.081501279959
 21
-357.6839074165255
 31
0.0
  0
LINE
  5
242
330
1F
100
AcDbEntity
  8
0-7_金物
  6
Continuous
 62
     7
370
     9
100
AcDbLine
 10
-1994.081157957205
 20
-345.6843136817855
 30
0.0
 11
-1994.081157957205
 21
-357.6839074165255
 31
0.0
  0
LINE
  5
243
330
1F
100
AcDbEntity
  8
0-7_金物
  6
Continuous
 62
     7
370
     9
100
AcDbLine
 10
-1874.081501279959
 20
-357.6839074165255
 30
0.0
 11
-1994.081157957205
 21
-357.6839074165255
 31
0.0
  0
LINE
  5
244
330
1F
100
AcDbEntity
  8
0-7_金物
  6
Continuous
 62
     7
370
     9
100
AcDbLine
 10
-1880.08166721929
 20
-357.6839074165255
 30
0.0
 11
-1880.08166721929
 21
-381.8298970619028
 31
0.0
  0
LINE
  5
245
330
1F
100
AcDbEntity
  8
0-7_金物
  6
Continuous
 62
     7
370
     9
100
AcDbLine
 10
-1988.081735883841
 20
-381.8298970619028
 30
0.0
 11
-1988.081735883841
 21
-357.6839074165255
 31
0.0
  0
LINE
  5
246
330
1F
100
AcDbEntity
  8
0-4_枠
  6
Continuous
 62
    92
370
    13
100
AcDbLine
 10
-1745.081701551567
 20
-381.8298970618981
 30
0.0
 11
-1745.081701551567
 21
-429.8298970618967
 31
0.0
  0
LINE
  5
247
330
1F
100
AcDbEntity
  8
0-4_枠
  6
Continuous
 62
    92
370
    13
100
AcDbLine
 10
-1703.081701551566
 20
-429.8298970618967
 30
0.0
 11
-1745.081701551567
 21
-429.8298970618967
 31
0.0
  0
LINE
  5
248
330
1F
100
AcDbEntity
  8
0-4_枠
  6
Continuous
 62
    92
370
    13
100
AcDbLine
 10
-1703.081701551566
 20
-429.8298970618967
 30
0.0
 11
-1703.081701551566
 21
-483.8298970618974
 31
0.0
  0
LINE
  5
249
330
1F
100
AcDbEntity
  8
0-4_枠
  6
Continuous
 62
    92
370
    13
100
AcDbLine
 10
-1703.081701551566
 20
-483.8298970618974
 30
0.0
 11
-1763.081701551566
 21
-483.8298970618974
 31
0.0
  0
LINE
  5
24A
330
1F
100
AcDbEntity
  8
0-4_枠
  6
Continuous
 62
    92
370
    13
100
AcDbLine
 10
-1763.081701551566
 20
-483.8298970618974
 30
0.0
 11
-1763.081701551566
 21
-537.8298970618973
 31
0.0
  0
LINE
  5
24B
330
1F
100
AcDbEntity
  8
0-4_枠
  6
Continuous
 62
    92
370
    13
100
AcDbLine
 10
-1703.081701551566
 20
-537.8298970618973
 30
0.0
 11
-1763.081701551566
 21
-537.8298970618973
 31
0.0
  0
LINE
  5
24C
330
1F
100
AcDbEntity
  8
0-C_ハッチ
  6
Continuous
 62
   120
370
     5
100
AcDbLine
 10
-1706.181895346043
 20
-597.8297139564361
 30
0.0
 11
-1703.081701551559
 21
-594.7295201619523
 31
0.0
  0
LINE
  5
24D
330
1F
100
AcDbEntity
  8
0-C_ハッチ
  6
Continuous
 62
   120
370
     5
100
AcDbLine
 10
-1765.578864965672
 20
-597.8297139564178
 30
0.0
 11
-1705.579048071144
 21
-537.8298970618893
 31
0.0
  0
LINE
  5
24E
330
1F
100
AcDbEntity
  8
0-C_ハッチ
  6
Continuous
 62
   120
370
     5
100
AcDbLine
 10
-1824.975834585391
 20
-597.8297139564348
 30
0.0
 11
-1763.081701551574
 21
-535.9355809226181
 31
0.0
  0
LINE
  5
24F
330
1F
100
AcDbEntity
  8
0-C_ハッチ
  6
Continuous
 62
   120
370
     5
100
AcDbLine
 10
-1710.976017690854
 20
-483.8298970618974
 30
0.0
 11
-1703.081701551566
 21
-475.9355809226088
 31
0.0
  0
LINE
  5
250
330
1F
100
AcDbEntity
  8
0-C_ハッチ
  6
Continuous
 62
   120
370
     5
100
AcDbLine
 10
-1850.082124982962
 20
-563.5390347343584
 30
0.0
 11
-1716.372987310503
 21
-429.8298970618988
 31
0.0
  0
LINE
  5
251
330
1F
100
AcDbEntity
  8
0-C_ハッチ
  6
Continuous
 62
   120
370
     5
100
AcDbLine
 10
-1850.082124982964
 20
-504.1420651146575
 30
0.0
 11
-1745.081701551566
 21
-399.1416416832602
 31
0.0
  0
LINE
  5
252
330
1F
100
AcDbEntity
  8
0-C_ハッチ
  6
Continuous
 62
   120
370
     5
100
AcDbLine
 10
-1883.166285680719
 20
-477.8292561927664
 30
0.0
 11
-1787.166926549857
 21
-381.8298970619049
 31
0.0
  0
LINE
  5
253
330
1F
100
AcDbEntity
  8
0-C_ハッチ
  6
Continuous
 62
   120
370
     5
100
AcDbLine
 10
-2062.563713064026
 20
-597.8297139564258
 30
0.0
 11
-2018.083116326759
 21
-553.3491172191591
 31
0.0
  0
LINE
  5
254
330
1F
100
AcDbEntity
  8
0-C_ハッチ
  6
Continuous
 62
   120
370
     5
100
AcDbLine
 10
-1942.56325530035
 20
-477.8292561927506
 30
0.0
 11
-1846.563896169503
 21
-381.8298970619028
 31
0.0
  0
LINE
  5
255
330
1F
100
AcDbEntity
  8
0-C_ハッチ
  6
Continuous
 62
   120
370
     5
100
AcDbLine
 10
-2121.960682683734
 20
-597.8297139564327
 30
0.0
 11
-2018.083116326745
 21
-493.9521475994437
 31
0.0
  0
LINE
  5
256
330
1F
100
AcDbEntity
  8
0-C_ハッチ
  6
Continuous
 62
   120
370
     5
100
AcDbLine
 10
-2001.960224920068
 20
-477.8292561927664
 30
0.0
 11
-1905.960865789198
 21
-381.829897061896
 31
0.0
  0
LINE
  5
257
330
1F
100
AcDbEntity
  8
0-C_ハッチ
  6
Continuous
 62
   120
370
     5
100
AcDbLine
 10
-2165.08170155157
 20
-581.5537632046212
 30
0.0
 11
-1965.357835408848
 21
-381.8298970618994
 31
0.0
  0
LINE
  5
258
330
1F
100
AcDbEntity
  8
0-C_ハッチ
  6
Continuous
 62
   120
370
     5
100
AcDbLine
 10
-2165.081701551559
 20
-522.1567935849079
 30
0.0
 11
-2024.75480502855
 21
-381.8298970618994
 31
0.0
  0
LINE
  5
259
330
1F
100
AcDbEntity
  8
0-C_ハッチ
  6
Continuous
 62
   120
370
     5
100
AcDbLine
 10
-2165.081701551573
 20
-462.7598239652734
 30
0.0
 11
-2084.151774648193
 21
-381.8298970618947
 31
0.0
  0
LINE
  5
25A
330
1F
100
AcDbEntity
  8
0-C_ハッチ
  6
Continuous
 62
   120
370
     5
100
AcDbLine
 10
-2165.081701551569
 20
-403.362854345569
 30
0.0
 11
-2143.548744267896
 21
-381.829897061896
 31
0.0
  0
LINE
  5
25B
330
1F
100
AcDbEntity
  8
0-B_寸法
  6
Continuous
 62
   120
370
     5
100
AcDbLine
 10
-1448.081299956536
 20
-597.8292735135462
 30
0.0
 11
-1106.081188514726
 21
-597.8292735135462
 31
0.0
  0
LINE
  5
25C
330
1F
100
AcDbEntity
  8
0-0_補助線
  6
JWW_HOJO
 62
   120
370
     5
100
AcDbLine
 10
-2163.767469573947
 20
-1881.830386786624
 30
0.0
 11
-1704.395933529187
 21
-1881.830386786624
 31
0.0
  0
LINE
  5
25D
330
1F
100
AcDbEntity
  8
0-0_補助線
  6
JWW_HOJO
 62
   120
370
     5
100
AcDbLine
 10
-2163.767469573947
 20
-2001.830386786624
 30
0.0
 11
-1704.395933529187
 21
-2001.830386786624
 31
0.0
  0
LINE
  5
25E
330
1F
100
AcDbEntity
  8
0-4_枠
  6
Continuous
 62
     7
370
     9
100
AcDbLine
 10
-2036.081152235162
 20
-3281.630676291216
 30
0.0
 11
-2013.88115223516
 21
-3281.630676291216
 31
0.0
  0
LINE
  5
25F
330
1F
100
AcDbEntity
  8
0-4_枠
  6
Continuous
 62
     7
370
     9
100
AcDbLine
 10
-2012.081152235161
 20
-3283.430676291215
 30
0.0
 11
-2013.88115223516
 21
-3281.630676291216
 31
0.0
  0
LINE
  5
260
330
1F
100
AcDbEntity
  8
0-4_枠
  6
Continuous
 62
     7
370
     9
100
AcDbLine
 10
-2012.081152235161
 20
-3283.430676291215
 30
0.0
 11
-2010.28115223516
 21
-3281.630676291216
 31
0.0
  0
ARC
  5
261
330
1F
100
AcDbEntity
  8
0-4_枠
  6
Continuous
 62
     7
370
     9
100
AcDbCircle
 10
-1972.481152235163
 20
-3283.430676291215
 30
0.0
 40
1.800000000000579
100
AcDbArc
 50
359.9999999999784
 51
90.00000000000004
  0
LINE
  5
262
330
1F
100
AcDbEntity
  8
0-4_枠
  6
Continuous
 62
     7
370
     9
100
AcDbLine
 10
-1970.68115223516
 20
-3283.430676291215
 30
0.0
 11
-1970.68115223516
 21
-3286.430676291217
 31
0.0
  0
ARC
  5
263
330
1F
100
AcDbEntity
  8
0-4_枠
  6
Continuous
 62
     7
370
     9
100
AcDbCircle
 10
-1971.881152235163
 20
-3286.430676291215
 30
0.0
 40
1.200000000000273
100
AcDbArc
 50
270.0
 51
359.9999999999674
  0
LINE
  5
264
330
1F
100
AcDbEntity
  8
0-4_枠
  6
Continuous
 62
     7
370
     9
100
AcDbLine
 10
-1971.881152235163
 20
-3287.630676291215
 30
0.0
 11
-1975.481152235161
 21
-3287.630676291215
 31
0.0
  0
ARC
  5
265
330
1F
100
AcDbEntity
  8
0-4_枠
  6
Continuous
 62
     7
370
     9
100
AcDbCircle
 10
-1975.481152235161
 20
-3289.430676291215
 30
0.0
 40
1.799999999999727
100
AcDbArc
 50
90.0
 51
180.0
  0
LINE
  5
266
330
1F
100
AcDbEntity
  8
0-4_枠
  6
Continuous
 62
     7
370
     9
100
AcDbLine
 10
-1977.281152235161
 20
-3289.430676291215
 30
0.0
 11
-1977.281152235161
 21
-3301.430676291217
 31
0.0
  0
ARC
  5
267
330
1F
100
AcDbEntity
  8
0-4_枠
  6
Continuous
 62
     7
370
     9
100
AcDbCircle
 10
-1974.281152235162
 20
-3301.430676291217
 30
0.0
 40
3.0
100
AcDbArc
 50
180.0
 51
270.0
  0
LINE
  5
268
330
1F
100
AcDbEntity
  8
0-4_枠
  6
Continuous
 62
     7
370
     9
100
AcDbLine
 10
-1974.281152235162
 20
-3304.430676291216
 30
0.0
 11
-1935.881152235162
 21
-3304.430676291217
 31
0.0
  0
LINE
  5
269
330
1F
100
AcDbEntity
  8
0-4_枠
  6
Continuous
 62
     7
370
     9
100
AcDbLine
 10
-1934.081152235161
 20
-3306.230676291216
 30
0.0
 11
-1935.881152235162
 21
-3304.430676291217
 31
0.0
  0
LINE
  5
26A
330
1F
100
AcDbEntity
  8
0-4_枠
  6
Continuous
 62
     7
370
     9
100
AcDbLine
 10
-1934.081152235161
 20
-3306.230676291216
 30
0.0
 11
-1932.281152235161
 21
-3304.430676291217
 31
0.0
  0
LINE
  5
26B
330
1F
100
AcDbEntity
  8
0-4_枠
  6
Continuous
 62
     7
370
     9
100
AcDbLine
 10
-1932.281152235161
 20
-3304.430676291217
 30
0.0
 11
-1893.881152235167
 21
-3304.430676291216
 31
0.0
  0
ARC
  5
26C
330
1F
100
AcDbEntity
  8
0-4_枠
  6
Continuous
 62
     7
370
     9
100
AcDbCircle
 10
-1893.881152235167
 20
-3301.430676291217
 30
0.0
 40
3.0
100
AcDbArc
 50
270.0
 51
0.0
  0
LINE
  5
26D
330
1F
100
AcDbEntity
  8
0-4_枠
  6
Continuous
 62
     7
370
     9
100
AcDbLine
 10
-1890.881152235166
 20
-3289.430676291215
 30
0.0
 11
-1890.881152235166
 21
-3301.430676291217
 31
0.0
  0
ARC
  5
26E
330
1F
100
AcDbEntity
  8
0-4_枠
  6
Continuous
 62
     7
370
     9
100
AcDbCircle
 10
-1892.681152235167
 20
-3289.430676291215
 30
0.0
 40
1.800000000000069
100
AcDbArc
 50
0.0
 51
90.0
  0
LINE
  5
26F
330
1F
100
AcDbEntity
  8
0-4_枠
  6
Continuous
 62
     7
370
     9
100
AcDbLine
 10
-1896.281152235161
 20
-3287.630676291215
 30
0.0
 11
-1892.681152235167
 21
-3287.630676291215
 31
0.0
  0
ARC
  5
270
330
1F
100
AcDbEntity
  8
0-4_枠
  6
Continuous
 62
     7
370
     9
100
AcDbCircle
 10
-1896.281152235161
 20
-3286.430676291215
 30
0.0
 40
1.199999999999932
100
AcDbArc
 50
179.9999999999674
 51
270.0
  0
LINE
  5
271
330
1F
100
AcDbEntity
  8
0-4_枠
  6
Continuous
 62
     7
370
     9
100
AcDbLine
 10
-1897.481152235163
 20
-3283.430676291214
 30
0.0
 11
-1897.481152235163
 21
-3286.430676291214
 31
0.0
  0
ARC
  5
272
330
1F
100
AcDbEntity
  8
0-4_枠
  6
Continuous
 62
     7
370
     9
100
AcDbCircle
 10
-1895.681152235162
 20
-3283.430676291214
 30
0.0
 40
1.799999999999727
100
AcDbArc
 50
89.99999999996201
 51
180.0
  0
ARC
  5
273
330
1F
100
AcDbEntity
  8
0-4_枠
  6
Continuous
 62
     7
370
     9
100
AcDbCircle
 10
-1895.681152235167
 20
-3293.630676291217
 30
0.0
 40
12.0
100
AcDbArc
 50
359.9999999999968
 51
89.9999999999682
  0
LINE
  5
274
330
1F
100
AcDbEntity
  8
0-4_枠
  6
Continuous
 62
     7
370
     9
100
AcDbLine
 10
-1883.681152235166
 20
-3293.630676291217
 30
0.0
 11
-1883.681152235169
 21
-3309.830676291216
 31
0.0
  0
ARC
  5
275
330
1F
100
AcDbEntity
  8
0-4_枠
  6
Continuous
 62
     7
370
     9
100
AcDbCircle
 10
-1977.881152235161
 20
-3303.830676291216
 30
0.0
 40
6.0
100
AcDbArc
 50
180.0
 51
270.0
  0
LINE
  5
276
330
1F
100
AcDbEntity
  8
0-4_枠
  6
Continuous
 62
     7
370
     9
100
AcDbLine
 10
-1983.881152235162
 20
-3292.276260703487
 30
0.0
 11
-1983.881152235162
 21
-3303.830676291216
 31
0.0
  0
ARC
  5
277
330
1F
100
AcDbEntity
  8
0-4_枠
  6
Continuous
 62
     7
370
     9
100
AcDbCircle
 10
-1985.681152235162
 20
-3292.276260703487
 30
0.0
 40
1.800000000000069
100
AcDbArc
 50
359.9999999999784
 51
135.0000000000384
  0
LINE
  5
278
330
1F
100
AcDbEntity
  8
0-4_枠
  6
Continuous
 62
     7
370
     9
100
AcDbLine
 10
-1992.953944441296
 20
-3297.003468497354
 30
0.0
 11
-1986.953944441298
 21
-3291.003468497353
 31
0.0
  0
ARC
  5
279
330
1F
100
AcDbEntity
  8
0-4_枠
  6
Continuous
 62
     7
370
     9
100
AcDbCircle
 10
-1991.68115223516
 20
-3298.276260703488
 30
0.0
 40
1.799999999999605
100
AcDbArc
 50
135.0000000000057
 51
180.0000000000034
  0
LINE
  5
27A
330
1F
100
AcDbEntity
  8
0-4_枠
  6
Continuous
 62
     7
370
     9
100
AcDbLine
 10
-1993.48115223516
 20
-3309.830676291216
 30
0.0
 11
-1993.48115223516
 21
-3298.276260703488
 31
0.0
  0
LINE
  5
27B
330
1F
100
AcDbEntity
  8
0-4_枠
  6
Continuous
 62
     7
370
     9
100
AcDbLine
 10
-2000.081152235161
 20
-3309.830676291216
 30
0.0
 11
-1993.48115223516
 21
-3309.830676291216
 31
0.0
  0
LINE
  5
27C
330
1F
100
AcDbEntity
  8
0-4_枠
  6
Continuous
 62
     7
370
     9
100
AcDbLine
 10
-2000.081152235161
 20
-3309.830676291216
 30
0.0
 11
-2000.081152235161
 21
-3294.230676291217
 31
0.0
  0
ARC
  5
27D
330
1F
100
AcDbEntity
  8
0-4_枠
  6
Continuous
 62
     7
370
     9
100
AcDbCircle
 10
-2000.68115223516
 20
-3294.230676291217
 30
0.0
 40
0.599999999999966
100
AcDbArc
 50
0.0
 51
90.0
  0
LINE
  5
27E
330
1F
100
AcDbEntity
  8
0-4_枠
  6
Continuous
 62
     7
370
     9
100
AcDbLine
 10
-2023.48115223516
 20
-3293.630676291217
 30
0.0
 11
-2000.68115223516
 21
-3293.630676291217
 31
0.0
  0
ARC
  5
27F
330
1F
100
AcDbEntity
  8
0-4_枠
  6
Continuous
 62
     7
370
     9
100
AcDbCircle
 10
-2023.48115223516
 20
-3294.230676291217
 30
0.0
 40
0.6000000000001362
100
AcDbArc
 50
90.0
 51
180.0
  0
LINE
  5
280
330
1F
100
AcDbEntity
  8
0-4_枠
  6
Continuous
 62
     7
370
     9
100
AcDbLine
 10
-2024.081152235161
 20
-3309.830676291216
 30
0.0
 11
-2024.081152235161
 21
-3294.230676291217
 31
0.0
  0
LINE
  5
281
330
1F
100
AcDbEntity
  8
0-4_枠
  6
Continuous
 62
     7
370
     9
100
AcDbLine
 10
-2030.681152235162
 20
-3309.830676291216
 30
0.0
 11
-2024.081152235161
 21
-3309.830676291216
 31
0.0
  0
LINE
  5
282
330
1F
100
AcDbEntity
  8
0-4_枠
  6
Continuous
 62
     7
370
     9
100
AcDbLine
 10
-2030.681152235162
 20
-3309.830676291216
 30
0.0
 11
-2030.681152235162
 21
-3297.530676291217
 31
0.0
  0
LINE
  5
283
330
1F
100
AcDbEntity
  8
0-4_枠
  6
Continuous
 62
     7
370
     9
100
AcDbLine
 10
-2030.681152235162
 20
-3297.530676291217
 30
0.0
 11
-2036.959831891604
 21
-3291.251996634777
 31
0.0
  0
ARC
  5
284
330
1F
100
AcDbEntity
  8
0-4_枠
  6
Continuous
 62
     7
370
     9
100
AcDbCircle
 10
-2039.081152235161
 20
-3293.373316978335
 30
0.0
 40
2.999999999998578
100
AcDbArc
 50
45.0
 51
180.0000000000261
  0
LINE
  5
285
330
1F
100
AcDbEntity
  8
0-4_枠
  6
Continuous
 62
     7
370
     9
100
AcDbLine
 10
-2042.081152235161
 20
-3309.830676291216
 30
0.0
 11
-2042.081152235162
 21
-3293.373316978335
 31
0.0
  0
LINE
  5
286
330
1F
100
AcDbEntity
  8
0-4_枠
  6
Continuous
 62
     7
370
     9
100
AcDbLine
 10
-2048.081152235162
 20
-3309.830676291216
 30
0.0
 11
-2042.081152235161
 21
-3309.830676291216
 31
0.0
  0
LINE
  5
287
330
1F
100
AcDbEntity
  8
0-4_枠
  6
Continuous
 62
     7
370
     9
100
AcDbLine
 10
-2048.081152235162
 20
-3309.830676291216
 30
0.0
 11
-2048.081152235162
 21
-3293.630676291217
 31
0.0
  0
ARC
  5
288
330
1F
100
AcDbEntity
  8
0-4_枠
  6
Continuous
 62
     7
370
     9
100
AcDbCircle
 10
-2036.081152235162
 20
-3293.630676291217
 30
0.0
 40
12.0
100
AcDbArc
 50
90.0
 51
180.0
  0
LINE
  5
289
330
1F
100
AcDbEntity
  8
0-4_枠
  6
Continuous
 62
     7
370
     9
100
AcDbLine
 10
-1977.881152235161
 20
-3309.830676291216
 30
0.0
 11
-1883.681152235169
 21
-3309.830676291216
 31
0.0
  0
LINE
  5
28A
330
1F
100
AcDbEntity
  8
0-4_枠
  6
Continuous
 62
     7
370
     9
100
AcDbLine
 10
-1972.481152235163
 20
-3281.630676291215
 30
0.0
 11
-2010.28115223516
 21
-3281.630676291215
 31
0.0
  0
LINE
  5
28B
330
1F
100
AcDbEntity
  8
0-A_文字
  6
Continuous
 62
   120
370
     5
100
AcDbLine
 10
-1883.681152235169
 20
-2986.432628160862
 30
0.0
 11
-2048.081152235162
 21
-2986.432628160862
 31
0.0
  0
LWPOLYLINE
  5
28C
330
1F
100
AcDbEntity
  8
0-A_文字
  6
Continuous
 62
     7
370
     9
100
AcDbPolyline
 90
        4
 70
     1
 43
3.0
 10
-1882.181152235169
 20
-2986.432628160862
 42
0.4142135623731
 10
-1883.681152235169
 20
-2984.932628160862
 42
0.4142135623731
 10
-1885.181152235169
 20
-2986.432628160862
 42
0.4142135623731
 10
-1883.681152235169
 20
-2987.932628160862
 42
0.4142135623731
  0
LWPOLYLINE
  5
28D
330
1F
100
AcDbEntity
  8
0-A_文字
  6
Continuous
 62
     7
370
     9
100
AcDbPolyline
 90
        4
 70
     1
 43
3.0
 10
-2046.581152235163
 20
-2986.432628160862
 42
0.4142135623731
 10
-2048.081152235162
 20
-2984.932628160862
 42
0.4142135623731
 10
-2049.581152235162
 20
-2986.432628160862
 42
0.4142135623731
 10
-2048.081152235162
 20
-2987.932628160862
 42
0.4142135623731
  0
LINE
  5
28E
330
1F
100
AcDbEntity
  8
0-A_文字
  6
Continuous
 62
   120
370
     5
100
AcDbLine
 10
-1883.681152235169
 20
-2986.432628160862
 30
0.0
 11
-1883.681152235169
 21
-3094.550639718878
 31
0.0
  0
LINE
  5
28F
330
1F
100
AcDbEntity
  8
0-A_文字
  6
Continuous
 62
   120
370
     5
100
AcDbLine
 10
-2048.081152235162
 20
-2986.432628160862
 30
0.0
 11
-2048.081152235162
 21
-3094.550639718878
 31
0.0
  0
LINE
  5
290
330
1F
100
AcDbEntity
  8
0-7_金物
  6
Continuous
 62
     7
370
     9
100
AcDbLine
 10
-1943.081582780453
 20
-3241.084075691819
 30
0.0
 11
-1943.081582780453
 21
-3304.430676291217
 31
0.0
  0
LINE
  5
291
330
1F
100
AcDbEntity
  8
0-7_金物
  6
Continuous
 62
     7
370
     9
100
AcDbLine
 10
-1925.081820322681
 20
-3241.084075691819
 30
0.0
 11
-1925.081820322681
 21
-3304.430676291217
 31
0.0
  0
LINE
  5
292
330
1F
100
AcDbEntity
  8
0-7_金物
  6
Continuous
 62
     7
370
     9
100
AcDbLine
 10
-1943.081582780453
 20
-3304.430676291217
 30
0.0
 11
-1925.081820322681
 21
-3304.430676291217
 31
0.0
  0
MTEXT
  5
293
330
1F
100
AcDbEntity
  8
0-B_寸法
  6
Continuous
 62
     7
370
     0
100
AcDbMText
 10
-1120.508971095027
 20
-854.3901914779514
 30
0.0
 40
91.44000000000023
 41
180.0000000000004
 46
0.0
 71
     7
 72
     1
  1
{\fＭＳ ゴシック|b0|i0|c128|p49;7.5}
 11
6.123031769111886E-17
 21
1.0
 31
0.0
 73
     1
 44
1.0
  0
LINE
  5
294
330
1F
100
AcDbEntity
  8
0-0_補助線
  6
JWW_HOJO
 62
   120
370
     5
100
AcDbLine
 10
-686.0803902403848
 20
-3381.830282861898
 30
0.0
 11
-686.0810862511746
 21
2.000074025744141
 31
0.0
  0
LINE
  5
295
330
1F
100
AcDbEntity
  8
0-0_補助線
  6
JWW_HOJO
 62
   120
370
     5
100
AcDbLine
 10
-2762.080513706069
 20
-3381.830282835507
 30
0.0
 11
-2762.081209716861
 21
2.000074025744141
 31
0.0
  0
LINE
  5
296
330
1F
100
AcDbEntity
  8
0-0_補助線
  6
JWW_HOJO
 62
   120
370
     5
100
AcDbLine
 10
-896.0803902403848
 20
-3381.830282835507
 30
0.0
 11
-896.0810862511755
 21
2.000074025744141
 31
0.0
  0
LINE
  5
297
330
1F
100
AcDbEntity
  8
0-0_補助線
  6
JWW_HOJO
 62
   120
370
     5
100
AcDbLine
 10
-1106.080390240388
 20
-3381.830282835507
 30
0.0
 11
-1106.081086251179
 21
2.000074025744141
 31
0.0
  0
LINE
  5
298
330
1F
100
AcDbEntity
  8
0-0_補助線
  6
JWW_HOJO
 62
   120
370
     5
100
AcDbLine
 10
-2552.080513706048
 20
-3381.830282835507
 30
0.0
 11
-2552.081209716841
 21
2.000074025744141
 31
0.0
  0
LINE
  5
299
330
1F
100
AcDbEntity
  8
0-0_補助線
  6
JWW_HOJO
 62
   120
370
     5
100
AcDbLine
 10
-1316.080513706033
 20
-3381.830282835507
 30
0.0
 11
-1316.081209716824
 21
2.000074025744141
 31
0.0
  0
MTEXT
  5
29A
330
1F
100
AcDbEntity
  8
0-B_寸法
  6
Continuous
 62
     7
370
     0
100
AcDbMText
 10
-1994.082250867972
 20
-892.5922363660351
 30
0.0
 40
91.43999999999805
 41
119.9999999999974
 46
0.0
 71
     7
 72
     1
  1
{\fＭＳ ゴシック|b0|i0|c128|p49;77}
 73
     1
 44
1.0
  0
LINE
  5
29B
330
1F
100
AcDbEntity
  8
0-0_補助線
  6
JWW_HOJO
 62
   120
370
     5
100
AcDbLine
 10
-2762.081254180207
 20
2.000074025744141
 30
0.0
 11
-686.0811307145184
 21
2.000074025744141
 31
0.0
  0
MTEXT
  5
29C
330
1F
100
AcDbEntity
  8
0-B_寸法
  6
Continuous
 62
     7
370
     0
100
AcDbMText
 10
-1120.547683762135
 20
-3240.455445880535
 30
0.0
 40
91.43999999999913
 41
179.9999999999983
 46
0.0
 71
     7
 72
     1
  1
{\fＭＳ ゴシック|b0|i0|c128|p49;6.5}
 11
6.123031769111886E-17
 21
1.0
 31
0.0
 73
     1
 44
1.0
  0
MTEXT
  5
29D
330
1F
100
AcDbEntity
  8
0-B_寸法
  6
Continuous
 62
     7
370
   211
100
AcDbMText
 10
-908.7068848063043
 20
-3287.030957072011
 30
0.0
 40
91.44000000000129
 41
60.00000000000085
 46
0.0
 71
     7
 72
     1
  1
{\fＭＳ ゴシック|b0|i0|c128|p49;5}
 11
6.123031769111886E-17
 21
1.0
 31
0.0
 73
     1
 44
1.0
  0
MTEXT
  5
29E
330
1F
100
AcDbEntity
  8
0-B_寸法
  6
Continuous
 62
     7
370
   211
100
AcDbMText
 10
-695.6292883037306
 20
-3530.256766696758
 30
0.0
 40
91.44000000000129
 41
120.0000000000017
 46
0.0
 71
     7
 72
     1
  1
{\fＭＳ ゴシック|b0|i0|c128|p49;12}
 11
6.123031769111886E-17
 21
1.0
 31
0.0
 73
     1
 44
1.0
  0
MTEXT
  5
29F
330
1F
100
AcDbEntity
  8
0-B_寸法
  6
Continuous
 62
     7
370
   211
100
AcDbMText
 10
-2912.081152235161
 20
-2346.110386786626
 30
0.0
 40
91.4400000000003
 41
780.0000000000025
 46
0.0
 71
     7
 72
     1
  1
{\fＭＳ ゴシック|b0|i0|c128|p49;ＲＯＨ＝2,356}
 11
6.123031769111886E-17
 21
1.0
 31
0.0
 73
     1
 44
1.0
  0
MTEXT
  5
2A0
330
1F
100
AcDbEntity
  8
0-B_寸法
  6
Continuous
 62
     7
370
     0
100
AcDbMText
 10
-1121.080495683222
 20
-2286.110386786625
 30
0.0
 40
91.44000000000014
 41
660.0000000000009
 46
0.0
 71
     7
 72
     1
  1
{\fＭＳ ゴシック|b0|i0|c128|p49;ＤＨ＝2,284}
 11
6.123031769111886E-17
 21
1.0
 31
0.0
 73
     1
 44
1.0
  0
MTEXT
  5
2A1
330
1F
100
AcDbEntity
  8
0-B_寸法
  6
Continuous
 62
     7
370
     0
100
AcDbMText
 10
-911.0804956832251
 20
-2286.110386786625
 30
0.0
 40
91.44000000000014
 41
660.0000000000009
 46
0.0
 71
     7
 72
     1
  1
{\fＭＳ ゴシック|b0|i0|c128|p49;枠内＝2,298}
 11
6.123031769111886E-17
 21
1.0
 31
0.0
 73
     1
 44
1.0
  0
MTEXT
  5
2A2
330
1F
100
AcDbEntity
  8
0-B_寸法
  6
Continuous
 62
     7
370
     0
100
AcDbMText
 10
-701.0819803221559
 20
-2286.110386786625
 30
0.0
 40
91.44000000000014
 41
660.0000000000009
 46
0.0
 71
     7
 72
     1
  1
{\fＭＳ ゴシック|b0|i0|c128|p49;枠外＝2,339}
 11
6.123031769111886E-17
 21
1.0
 31
0.0
 73
     1
 44
1.0
  0
MTEXT
  5
2A3
330
1F
100
AcDbEntity
  8
0-A_文字
  6
Continuous
 62
     7
370
     0
100
AcDbMText
 10
-1882.582784495249
 20
-3678.73803149953
 30
0.0
 40
68.58000000000003
 41
1350.0
 46
0.0
 71
     7
 72
     1
  1
{\fＭＳ ゴシック|b0|i0|c128|p49;※扉厚（　）内はルーバーの場合}
 73
     1
 44
1.0
  0
LINE
  5
2A4
330
1F
100
AcDbEntity
  8
0-A_文字
  6
JWW_HOJO
 62
   120
370
     5
100
AcDbLine
 10
-1882.582784495249
 20
-3668.028031499531
 30
0.0
 11
526.9410250285608
 21
-3668.028031499531
 31
0.0
  0
MTEXT
  5
2A5
330
1F
100
AcDbEntity
  8
0-A_文字
  6
Continuous
 62
     7
370
   211
100
AcDbMText
 10
-2040.178848787541
 20
-1413.883174603177
 30
0.0
 40
91.43999999999966
 41
239.9999999999991
 46
0.0
 71
     7
 72
     1
  1
{\fＭＳ ゴシック|b0|i0|c128|p49;(24)}
 73
     1
 44
1.0
  0
LINE
  5
2A6
330
1F
100
AcDbEntity
  8
0-3_仕上げ
  6
Continuous
 62
   120
370
     5
100
AcDbLine
 10
-2165.081701551579
 20
-153.6839760810761
 30
0.0
 11
-1745.081701551579
 21
-153.6839760810761
 31
0.0
  0
LINE
  5
2A7
330
1F
100
AcDbEntity
  8
0-3_仕上げ
  6
Continuous
 62
   120
370
     5
100
AcDbLine
 10
-2165.081701551579
 20
-333.6839760810761
 30
0.0
 11
-2165.081701551579
 21
-153.6839760810761
 31
0.0
  0
LINE
  5
2A8
330
1F
100
AcDbEntity
  8
0-3_仕上げ
  6
Continuous
 62
   120
370
     5
100
AcDbLine
 10
-1745.081701551579
 20
-153.6839760810761
 30
0.0
 11
-1745.081701551579
 21
-333.6839760810761
 31
0.0
  0
LINE
  5
2A9
330
1F
100
AcDbEntity
  8
0-3_仕上げ
  6
Continuous
 62
   120
370
     5
100
AcDbLine
 10
-1745.081701551579
 20
-333.6839760810761
 30
0.0
 11
-2165.081701551579
 21
-333.6839760810761
 31
0.0
  0
LINE
  5
2AA
330
1F
100
AcDbEntity
  8
0-3_仕上げ
  6
Continuous
 62
   120
370
     5
100
AcDbLine
 10
-2165.081701551579
 20
-333.6839760810761
 30
0.0
 11
-1745.081701551579
 21
-153.6839760810761
 31
0.0
  0
LINE
  5
2AB
330
1F
100
AcDbEntity
  8
0-3_仕上げ
  6
Continuous
 62
    40
370
    15
100
AcDbLine
 10
-1670.081701551567
 20
-429.8298970618967
 30
0.0
 11
-1745.081701551567
 21
-429.8298970618967
 31
0.0
  0
LINE
  5
2AC
330
1F
100
AcDbEntity
  8
0-C_ハッチ
  6
JWW_DASHED1
 62
   120
370
     5
100
AcDbLine
 10
-1696.01065380457
 20
-429.8298970618988
 30
0.0
 11
-1670.081701551566
 21
-403.9009448088939
 31
0.0
  0
LINE
  5
2AD
330
1F
100
AcDbEntity
  8
0-C_ハッチ
  6
JWW_DASHED1
 62
   120
370
     5
100
AcDbLine
 10
-1738.437060675769
 20
-429.8298970618976
 30
0.0
 11
-1670.081701551569
 21
-361.4745379376973
 31
0.0
  0
LINE
  5
2AE
330
1F
100
AcDbEntity
  8
0-C_ハッチ
  6
JWW_DASHED1
 62
   120
370
     5
100
AcDbLine
 10
-1745.081701551569
 20
-394.0481310664964
 30
0.0
 11
-1670.081701551573
 21
-319.0481310665007
 31
0.0
  0
LINE
  5
2AF
330
1F
100
AcDbEntity
  8
0-C_ハッチ
  6
JWW_DASHED1
 62
   120
370
     5
100
AcDbLine
 10
-1745.081701551573
 20
-351.6217241952998
 30
0.0
 11
-1670.08170155156
 21
-276.6217241952875
 31
0.0
  0
LINE
  5
2B0
330
1F
100
AcDbEntity
  8
0-C_ハッチ
  6
JWW_DASHED1
 62
   120
370
     5
100
AcDbLine
 10
-1745.081701551575
 20
-309.1953173241023
 30
0.0
 11
-1670.081701551563
 21
-234.1953173240917
 31
0.0
  0
LINE
  5
2B1
330
1F
100
AcDbEntity
  8
0-C_ハッチ
  6
JWW_DASHED1
 62
   120
370
     5
100
AcDbLine
 10
-1745.081701551555
 20
-266.7689104529373
 30
0.0
 11
-1670.08170155156
 21
-191.7689104529441
 31
0.0
  0
LINE
  5
2B2
330
1F
100
AcDbEntity
  8
0-C_ハッチ
  6
JWW_DASHED1
 62
   120
370
     5
100
AcDbLine
 10
-1745.08170155156
 20
-224.342503581742
 30
0.0
 11
-1670.081701551566
 21
-149.3425035817475
 31
0.0
  0
LINE
  5
2B3
330
1F
100
AcDbEntity
  8
0-C_ハッチ
  6
JWW_DASHED1
 62
   120
370
     5
100
AcDbLine
 10
-1745.081701551557
 20
-181.9160967105407
 30
0.0
 11
-1670.081701551562
 21
-106.9160967105441
 31
0.0
  0
LINE
  5
2B4
330
1F
100
AcDbEntity
  8
0-C_ハッチ
  6
JWW_DASHED1
 62
   120
370
     5
100
AcDbLine
 10
-1745.08170155156
 20
-139.4896898393415
 30
0.0
 11
-1670.081701551566
 21
-64.48968983934748
 31
0.0
  0
LINE
  5
2B5
330
1F
100
AcDbEntity
  8
0-3_仕上げ
  6
Continuous
 62
    40
370
    15
100
AcDbLine
 10
-1745.081701551567
 20
-429.8298970618967
 30
0.0
 11
-1745.081701551567
 21
2.000074025744141
 31
0.0
  0
LINE
  5
2B6
330
1F
100
AcDbEntity
  8
0-3_仕上げ
  6
Continuous
 62
    40
370
    15
100
AcDbLine
 10
-1670.081701551567
 20
-429.8298970618967
 30
0.0
 11
-1670.081701551567
 21
2.000074025744141
 31
0.0
  0
LINE
  5
2B7
330
1F
100
AcDbEntity
  8
0-C_ハッチ
  6
JWW_DASHED1
 62
   120
370
     5
100
AcDbLine
 10
-1745.081701551567
 20
-54.6368760969483
 30
0.0
 11
-1689.434513074463
 21
1.010312380146985
 31
0.0
  0
LINE
  5
2B8
330
1F
100
AcDbEntity
  8
0-C_ハッチ
  6
JWW_DASHED1
 62
   120
370
     5
100
AcDbLine
 10
-1745.081701551563
 20
-97.0632829681449
 30
0.0
 11
-1670.081701551567
 21
-22.06328296815045
 31
0.0
  0
LINE
  5
2B9
330
1F
100
AcDbEntity
  8
0-E
  6
Continuous
 62
    92
370
    13
100
AcDbLine
 10
1719.588128692506
 20
-3177.981209359304
 30
0.0
 11
1719.588128692506
 21
-351.8298970618986
 31
0.0
  0
LINE
  5
2BA
330
1F
100
AcDbEntity
  8
0-E
  6
Continuous
 62
    92
370
    13
100
AcDbLine
 10
1719.588128692506
 20
-351.8298970618986
 30
0.0
 11
4359.588128692511
 21
-351.8298970618986
 31
0.0
  0
LINE
  5
2BB
330
1F
100
AcDbEntity
  8
0-E
  6
Continuous
 62
    92
370
    13
100
AcDbLine
 10
-266.0812329780737
 20
-351.8298970618986
 30
0.0
 11
1719.588128692506
 21
-351.8298970618986
 31
0.0
  0
LINE
  5
2BC
330
1F
100
AcDbEntity
  8
0-E
  6
Continuous
 62
    92
370
    13
100
AcDbLine
 10
-266.0812329780737
 20
-567.8298970618995
 30
0.0
 11
1719.588128692506
 21
-567.8298970618995
 31
0.0
  0
LINE
  5
2BD
330
1F
100
AcDbEntity
  8
0-E
  6
Continuous
 62
    92
370
    13
100
AcDbLine
 10
1719.588128692506
 20
-3450.927341890803
 30
0.0
 11
1719.588128692506
 21
-351.8298970618986
 31
0.0
  0
LWPOLYLINE
  5
2BE
330
1F
100
AcDbEntity
  8
0-E
  6
Continuous
 62
     7
370
     9
100
AcDbPolyline
 90
        4
 70
     1
 43
3.0
 10
319.0688922266663
 20
-843.9498357855432
 42
0.4142135623731
 10
317.5688922266663
 20
-842.4498357855432
 42
0.4142135623731
 10
316.0688922266663
 20
-843.9498357855432
 42
0.4142135623731
 10
317.5688922266663
 20
-845.4498357855432
 42
0.4142135623731
  0
LINE
  5
2BF
330
1F
100
AcDbEntity
  8
0-E
  6
Continuous
 62
   120
370
     5
100
AcDbLine
 10
317.5688922266663
 20
-843.9498357855432
 30
0.0
 11
317.5688922266663
 21
-987.491885585544
 31
0.0
  0
LINE
  5
2C0
330
1F
100
AcDbEntity
  8
0-E
  6
Continuous
 62
    92
370
    13
100
AcDbLine
 10
317.5688922266663
 20
-1037.491885585542
 30
0.0
 11
317.5688922266663
 21
-1912.78309113437
 31
0.0
  0
LINE
  5
2C1
330
1F
100
AcDbEntity
  8
0-E
  6
Continuous
 62
    92
370
    13
100
AcDbLine
 10
-266.0812329780737
 20
-2359.813002592127
 30
0.0
 11
1719.588128692506
 21
-2359.813002592127
 31
0.0
  0
LINE
  5
2C2
330
1F
100
AcDbEntity
  8
0-E
  6
Continuous
 62
    92
370
    13
100
AcDbLine
 10
-266.0812329780737
 20
-2575.813002592127
 30
0.0
 11
1719.588128692506
 21
-2575.813002592127
 31
0.0
  0
MTEXT
  5
2C3
330
1F
100
AcDbEntity
  8
0-E
  6
Continuous
 62
     7
370
     0
100
AcDbMText
 10
6.753447857216202
 20
-537.871520024155
 30
0.0
 40
91.44000000000005
 41
1440.000000000001
 46
0.0
 71
     7
 72
     1
  1
{\fＭＳ ゴシック|b0|i0|c128|p49;竪枠下端形状図（S＝1/3）}
 73
     1
 44
1.0
  0
LINE
  5
2C4
330
1F
100
AcDbEntity
  8
0-E
  6
Continuous
 62
     7
370
     9
100
AcDbLine
 10
444.2481716999288
 20
-3037.202984114321
 30
0.0
 11
555.248171699937
 21
-3037.202984114321
 31
0.0
  0
LINE
  5
2C5
330
1F
100
AcDbEntity
  8
0-E
  6
Continuous
 62
     7
370
     9
100
AcDbLine
 10
564.2481716999356
 20
-3046.202984114319
 30
0.0
 11
555.248171699937
 21
-3037.202984114321
 31
0.0
  0
LINE
  5
2C6
330
1F
100
AcDbEntity
  8
0-E
  6
Continuous
 62
     7
370
     9
100
AcDbLine
 10
564.2481716999356
 20
-3046.202984114319
 30
0.0
 11
573.2481716999342
 21
-3037.202984114321
 31
0.0
  0
LINE
  5
2C7
330
1F
100
AcDbEntity
  8
0-E
  6
Continuous
 62
     7
370
     9
100
AcDbLine
 10
771.2481716999357
 20
-3046.202984114319
 30
0.0
 11
771.2481716999357
 21
-3061.202984114319
 31
0.0
  0
LINE
  5
2C8
330
1F
100
AcDbEntity
  8
0-E
  6
Continuous
 62
     7
370
     9
100
AcDbLine
 10
765.2481716999275
 20
-3067.202984114318
 30
0.0
 11
747.2481716999303
 21
-3067.202984114318
 31
0.0
  0
LINE
  5
2C9
330
1F
100
AcDbEntity
  8
0-E
  6
Continuous
 62
     7
370
     9
100
AcDbLine
 10
738.2481716999316
 20
-3076.202984114316
 30
0.0
 11
738.2481716999316
 21
-3136.202984114319
 31
0.0
  0
LINE
  5
2CA
330
1F
100
AcDbEntity
  8
0-E
  6
Continuous
 62
     7
370
     9
100
AcDbLine
 10
753.2481716999316
 20
-3151.202984114319
 30
0.0
 11
945.2481716999301
 21
-3151.202984114326
 31
0.0
  0
LINE
  5
2CB
330
1F
100
AcDbEntity
  8
0-E
  6
Continuous
 62
     7
370
     9
100
AcDbLine
 10
954.2481716999288
 20
-3160.202984114325
 30
0.0
 11
945.2481716999301
 21
-3151.202984114326
 31
0.0
  0
LINE
  5
2CC
330
1F
100
AcDbEntity
  8
0-E
  6
Continuous
 62
     7
370
     9
100
AcDbLine
 10
954.2481716999288
 20
-3160.202984114325
 30
0.0
 11
963.2481716999316
 21
-3151.202984114326
 31
0.0
  0
LINE
  5
2CD
330
1F
100
AcDbEntity
  8
0-E
  6
Continuous
 62
     7
370
     9
100
AcDbLine
 10
963.2481716999316
 20
-3151.202984114326
 30
0.0
 11
1155.2481716999
 21
-3151.202984114319
 31
0.0
  0
LINE
  5
2CE
330
1F
100
AcDbEntity
  8
0-E
  6
Continuous
 62
     7
370
     9
100
AcDbLine
 10
1170.248171699903
 20
-3076.202984114316
 30
0.0
 11
1170.248171699903
 21
-3136.202984114319
 31
0.0
  0
LINE
  5
2CF
330
1F
100
AcDbEntity
  8
0-E
  6
Continuous
 62
     7
370
     9
100
AcDbLine
 10
1143.248171699927
 20
-3067.202984114318
 30
0.0
 11
1161.248171699904
 21
-3067.202984114318
 31
0.0
  0
LINE
  5
2D0
330
1F
100
AcDbEntity
  8
0-E
  6
Continuous
 62
     7
370
     9
100
AcDbLine
 10
1137.24817169993
 20
-3046.202984114313
 30
0.0
 11
1137.24817169993
 21
-3061.202984114313
 31
0.0
  0
LINE
  5
2D1
330
1F
100
AcDbEntity
  8
0-E
  6
Continuous
 62
     7
370
     9
100
AcDbLine
 10
1206.248171699904
 20
-3097.202984114324
 30
0.0
 11
1206.248171699902
 21
-3178.202984114319
 31
0.0
  0
LINE
  5
2D2
330
1F
100
AcDbEntity
  8
0-E
  6
Continuous
 62
     7
370
     9
100
AcDbLine
 10
705.2481716999301
 20
-3090.430906175681
 30
0.0
 11
705.2481716999301
 21
-3148.202984114322
 31
0.0
  0
LINE
  5
2D3
330
1F
100
AcDbEntity
  8
0-E
  6
Continuous
 62
     7
370
     9
100
AcDbLine
 10
659.884210669257
 20
-3114.066945145009
 30
0.0
 11
689.8842106692475
 21
-3084.066945145009
 31
0.0
  0
LINE
  5
2D4
330
1F
100
AcDbEntity
  8
0-E
  6
Continuous
 62
     7
370
     9
100
AcDbLine
 10
657.2481716999371
 20
-3178.202984114319
 30
0.0
 11
657.2481716999371
 21
-3120.430906175687
 31
0.0
  0
LINE
  5
2D5
330
1F
100
AcDbEntity
  8
0-E
  6
Continuous
 62
     7
370
     9
100
AcDbLine
 10
624.248171699933
 20
-3178.202984114319
 30
0.0
 11
657.2481716999371
 21
-3178.202984114319
 31
0.0
  0
LINE
  5
2D6
330
1F
100
AcDbEntity
  8
0-E
  6
Continuous
 62
     7
370
     9
100
AcDbLine
 10
624.248171699933
 20
-3178.202984114319
 30
0.0
 11
624.248171699933
 21
-3100.202984114328
 31
0.0
  0
LINE
  5
2D7
330
1F
100
AcDbEntity
  8
0-E
  6
Continuous
 62
     7
370
     9
100
AcDbLine
 10
507.2481716999371
 20
-3097.202984114324
 30
0.0
 11
621.2481716999357
 21
-3097.202984114324
 31
0.0
  0
LINE
  5
2D8
330
1F
100
AcDbEntity
  8
0-E
  6
Continuous
 62
     7
370
     9
100
AcDbLine
 10
504.2481716999356
 20
-3178.202984114319
 30
0.0
 11
504.2481716999356
 21
-3100.202984114328
 31
0.0
  0
LINE
  5
2D9
330
1F
100
AcDbEntity
  8
0-E
  6
Continuous
 62
     7
370
     9
100
AcDbLine
 10
471.2481716999315
 20
-3178.202984114319
 30
0.0
 11
504.2481716999356
 21
-3178.202984114319
 31
0.0
  0
LINE
  5
2DA
330
1F
100
AcDbEntity
  8
0-E
  6
Continuous
 62
     7
370
     9
100
AcDbLine
 10
471.2481716999315
 20
-3178.202984114319
 30
0.0
 11
471.2481716999315
 21
-3116.702984114329
 31
0.0
  0
LINE
  5
2DB
330
1F
100
AcDbEntity
  8
0-E
  6
Continuous
 62
     7
370
     9
100
AcDbLine
 10
471.2481716999315
 20
-3116.702984114329
 30
0.0
 11
439.8547734177194
 21
-3085.309585832121
 31
0.0
  0
LINE
  5
2DC
330
1F
100
AcDbEntity
  8
0-E
  6
Continuous
 62
     7
370
     9
100
AcDbLine
 10
414.2481716999356
 20
-3178.202984114319
 30
0.0
 11
414.2481716999288
 21
-3095.916187549921
 31
0.0
  0
LINE
  5
2DD
330
1F
100
AcDbEntity
  8
0-E
  6
Continuous
 62
     7
370
     9
100
AcDbLine
 10
384.248171699933
 20
-3178.202984114319
 30
0.0
 11
414.2481716999356
 21
-3178.202984114319
 31
0.0
  0
LINE
  5
2DE
330
1F
100
AcDbEntity
  8
0-E
  6
Continuous
 62
     7
370
     9
100
AcDbLine
 10
384.248171699933
 20
-3178.202984114319
 30
0.0
 11
384.2481716999288
 21
-3097.202984114321
 31
0.0
  0
LINE
  5
2DF
330
1F
100
AcDbEntity
  8
0-E
  6
Continuous
 62
     7
370
     9
100
AcDbLine
 10
735.2481716999343
 20
-3178.202984114319
 30
0.0
 11
1206.248171699902
 21
-3178.202984114319
 31
0.0
  0
LINE
  5
2E0
330
1F
100
AcDbEntity
  8
0-E
  6
Continuous
 62
     7
370
     9
100
AcDbLine
 10
762.2481716999303
 20
-3037.202984114318
 30
0.0
 11
573.2481716999342
 21
-3037.202984114318
 31
0.0
  0
ARC
  5
2E1
330
1F
100
AcDbEntity
  8
0-E
  6
Continuous
 62
     7
370
     9
100
AcDbCircle
 10
762.2481716999303
 20
-3046.202984114316
 30
0.0
 40
9.000000000002899
100
AcDbArc
 50
359.9999999999784
 51
90.00000000000004
  0
ARC
  5
2E2
330
1F
100
AcDbEntity
  8
0-E
  6
Continuous
 62
     7
370
     9
100
AcDbCircle
 10
765.2481716999275
 20
-3061.202984114316
 30
0.0
 40
6.000000000001368
100
AcDbArc
 50
270.0
 51
359.9999999999674
  0
ARC
  5
2E3
330
1F
100
AcDbEntity
  8
0-E
  6
Continuous
 62
     7
370
     9
100
AcDbCircle
 10
747.2481716999303
 20
-3076.202984114316
 30
0.0
 40
8.999999999998636
100
AcDbArc
 50
90.0
 51
180.0
  0
ARC
  5
2E4
330
1F
100
AcDbEntity
  8
0-E
  6
Continuous
 62
     7
370
     9
100
AcDbCircle
 10
753.2481716999316
 20
-3136.202984114319
 30
0.0
 40
15.0
100
AcDbArc
 50
180.0
 51
270.0
  0
ARC
  5
2E5
330
1F
100
AcDbEntity
  8
0-E
  6
Continuous
 62
     7
370
     9
100
AcDbCircle
 10
1155.2481716999
 20
-3136.202984114319
 30
0.0
 40
15.0
100
AcDbArc
 50
270.0
 51
0.0
  0
ARC
  5
2E6
330
1F
100
AcDbEntity
  8
0-E
  6
Continuous
 62
     7
370
     9
100
AcDbCircle
 10
1161.248171699904
 20
-3076.202984114316
 30
0.0
 40
9.000000000000343
100
AcDbArc
 50
0.0
 51
90.0
  0
ARC
  5
2E7
330
1F
100
AcDbEntity
  8
0-E
  6
Continuous
 62
     7
370
     9
100
AcDbCircle
 10
1143.248171699927
 20
-3061.202984114316
 30
0.0
 40
5.99999999999966
100
AcDbArc
 50
179.9999999999674
 51
270.0
  0
ARC
  5
2E8
330
1F
100
AcDbEntity
  8
0-E
  6
Continuous
 62
     7
370
     9
100
AcDbCircle
 10
1146.248171699931
 20
-3046.202984114313
 30
0.0
 40
8.999999999998636
100
AcDbArc
 50
89.99999999996201
 51
180.0
  0
ARC
  5
2E9
330
1F
100
AcDbEntity
  8
0-E
  6
Continuous
 62
     7
370
     9
100
AcDbCircle
 10
1146.248171699902
 20
-3097.202984114321
 30
0.0
 40
60.0
100
AcDbArc
 50
359.9999999999968
 51
89.9999999999682
  0
ARC
  5
2EA
330
1F
100
AcDbEntity
  8
0-E
  6
Continuous
 62
     7
370
     9
100
AcDbCircle
 10
735.2481716999343
 20
-3148.202984114322
 30
0.0
 40
30.0
100
AcDbArc
 50
180.0
 51
270.0
  0
ARC
  5
2EB
330
1F
100
AcDbEntity
  8
0-E
  6
Continuous
 62
     7
370
     9
100
AcDbCircle
 10
696.2481716999315
 20
-3090.430906175678
 30
0.0
 40
9.000000000000343
100
AcDbArc
 50
359.9999999999784
 51
135.0000000000384
  0
ARC
  5
2EC
330
1F
100
AcDbEntity
  8
0-E
  6
Continuous
 62
     7
370
     9
100
AcDbCircle
 10
666.2481716999383
 20
-3120.430906175684
 30
0.0
 40
8.999999999998023
100
AcDbArc
 50
135.0000000000057
 51
180.0000000000034
  0
ARC
  5
2ED
330
1F
100
AcDbEntity
  8
0-E
  6
Continuous
 62
     7
370
     9
100
AcDbCircle
 10
621.2481716999357
 20
-3100.202984114328
 30
0.0
 40
2.99999999999983
100
AcDbArc
 50
0.0
 51
90.0
  0
ARC
  5
2EE
330
1F
100
AcDbEntity
  8
0-E
  6
Continuous
 62
     7
370
     9
100
AcDbCircle
 10
507.2481716999371
 20
-3100.202984114328
 30
0.0
 40
3.000000000000682
100
AcDbArc
 50
90.0
 51
180.0
  0
ARC
  5
2EF
330
1F
100
AcDbEntity
  8
0-E
  6
Continuous
 62
     7
370
     9
100
AcDbCircle
 10
429.2481716999288
 20
-3095.916187549914
 30
0.0
 40
14.99999999999289
100
AcDbArc
 50
45.0
 51
180.0000000000261
  0
ARC
  5
2F0
330
1F
100
AcDbEntity
  8
0-E
  6
Continuous
 62
     7
370
     9
100
AcDbCircle
 10
444.2481716999288
 20
-3097.202984114321
 30
0.0
 40
60.0
100
AcDbArc
 50
90.0
 51
180.0
  0
LINE
  5
2F1
330
1F
100
AcDbEntity
  8
0-E
  6
Continuous
 62
   120
370
     5
100
AcDbLine
 10
384.248171699933
 20
-2841.704787364111
 30
0.0
 11
1206.248171699902
 21
-2841.704787364111
 31
0.0
  0
LWPOLYLINE
  5
2F2
330
1F
100
AcDbEntity
  8
0-E
  6
Continuous
 62
     7
370
     9
100
AcDbPolyline
 90
        4
 70
     1
 43
3.0
 10
385.748171699933
 20
-2841.704787364111
 42
0.4142135623731
 10
384.248171699933
 20
-2840.204787364111
 42
0.4142135623731
 10
382.748171699933
 20
-2841.704787364111
 42
0.4142135623731
 10
384.248171699933
 20
-2843.204787364111
 42
0.4142135623731
  0
LWPOLYLINE
  5
2F3
330
1F
100
AcDbEntity
  8
0-E
  6
Continuous
 62
     7
370
     9
100
AcDbPolyline
 90
        4
 70
     1
 43
3.0
 10
1207.748171699902
 20
-2841.704787364111
 42
0.4142135623731
 10
1206.248171699902
 20
-2840.204787364111
 42
0.4142135623731
 10
1204.748171699902
 20
-2841.704787364111
 42
0.4142135623731
 10
1206.248171699902
 20
-2843.204787364111
 42
0.4142135623731
  0
LINE
  5
2F4
330
1F
100
AcDbEntity
  8
0-E
  6
Continuous
 62
   120
370
     5
100
AcDbLine
 10
384.248171699933
 20
-2841.704787364111
 30
0.0
 11
384.248171699933
 21
-2974.028001106031
 31
0.0
  0
LINE
  5
2F5
330
1F
100
AcDbEntity
  8
0-E
  6
Continuous
 62
   120
370
     5
100
AcDbLine
 10
1206.248171699902
 20
-2841.704787364111
 30
0.0
 11
1206.248171699902
 21
-2974.028001106031
 31
0.0
  0
MTEXT
  5
2F6
330
1F
100
AcDbEntity
  8
0-E
  6
Continuous
 62
     7
370
   211
100
AcDbMText
 10
675.248171699916
 20
-2840.984787364108
 30
0.0
 40
91.44000000000048
 41
240.0000000000013
 46
0.0
 71
     7
 72
     1
  1
{\fＭＳ ゴシック|b0|i0|c128|p49;27.4}
 73
     1
 44
1.0
  0
LINE
  5
2F7
330
1F
100
AcDbEntity
  8
0-E
  6
Continuous
 62
   120
370
     5
100
AcDbLine
 10
196.5992709468006
 20
-3037.202984114321
 30
0.0
 11
196.5992709468006
 21
-3178.202984114319
 31
0.0
  0
LWPOLYLINE
  5
2F8
330
1F
100
AcDbEntity
  8
0-E
  6
Continuous
 62
     7
370
     9
100
AcDbPolyline
 90
        4
 70
     1
 43
3.0
 10
198.0992709468006
 20
-3037.202984114321
 42
0.4142135623731
 10
196.5992709468006
 20
-3035.702984114321
 42
0.4142135623731
 10
195.0992709468006
 20
-3037.202984114321
 42
0.4142135623731
 10
196.5992709468006
 20
-3038.702984114321
 42
0.4142135623731
  0
LWPOLYLINE
  5
2F9
330
1F
100
AcDbEntity
  8
0-E
  6
Continuous
 62
     7
370
     9
100
AcDbPolyline
 90
        4
 70
     1
 43
3.0
 10
198.0992709468006
 20
-3178.202984114319
 42
0.4142135623731
 10
196.5992709468006
 20
-3176.702984114319
 42
0.4142135623731
 10
195.0992709468006
 20
-3178.202984114319
 42
0.4142135623731
 10
196.5992709468006
 20
-3179.702984114318
 42
0.4142135623731
  0
LINE
  5
2FA
330
1F
100
AcDbEntity
  8
0-E
  6
Continuous
 62
   120
370
     5
100
AcDbLine
 10
196.5992709468006
 20
-3037.202984114321
 30
0.0
 11
324.3596152493438
 21
-3037.202984114321
 31
0.0
  0
LINE
  5
2FB
330
1F
100
AcDbEntity
  8
0-E
  6
Continuous
 62
   120
370
     5
100
AcDbLine
 10
196.5992709468006
 20
-3178.202984114319
 30
0.0
 11
324.3596152493438
 21
-3178.202984114319
 31
0.0
  0
MTEXT
  5
2FC
330
1F
100
AcDbEntity
  8
0-E
  6
Continuous
 62
     7
370
   211
100
AcDbMText
 10
181.5992709468006
 20
-3161.449551623492
 30
0.0
 40
91.4400000000013
 41
60.00000000000085
 46
0.0
 71
     7
 72
     1
  1
{\fＭＳ ゴシック|b0|i0|c128|p49;5}
 11
6.123031769111886E-17
 21
1.0
 31
0.0
 73
     1
 44
1.0
  0
MTEXT
  5
2FD
330
1F
100
AcDbEntity
  8
0-E
  6
Continuous
 62
     7
370
     0
100
AcDbMText
 10
130.0330565787375
 20
-2545.85462555438
 30
0.0
 40
91.44
 41
1200.0
 46
0.0
 71
     7
 72
     1
  1
{\fＭＳ ゴシック|b0|i0|c128|p49;下枠詳細図（S＝1/1）}
 73
     1
 44
1.0
  0
LINE
  5
2FE
330
1F
100
AcDbEntity
  8
0-E
  6
Continuous
 62
    92
370
    13
100
AcDbLine
 10
-266.0812329780737
 20
-351.8298970618986
 30
0.0
 11
-266.0812329780737
 21
-3450.927341890803
 31
0.0
  0
LINE
  5
2FF
330
1F
100
AcDbEntity
  8
0-E
  6
Continuous
 62
    92
370
    13
100
AcDbLine
 10
-266.0812329780737
 20
-3450.927341890803
 30
0.0
 11
4359.588128692511
 21
-3450.927341890803
 31
0.0
  0
LINE
  5
300
330
1F
100
AcDbEntity
  8
0-E
  6
Continuous
 62
    92
370
    13
100
AcDbLine
 10
4359.588128692511
 20
-351.8298970618986
 30
0.0
 11
4359.588128692511
 21
-3450.927341890803
 31
0.0
  0
LWPOLYLINE
  5
301
330
1F
100
AcDbEntity
  8
0-E
  6
Continuous
 62
     7
370
     9
100
AcDbPolyline
 90
        4
 70
     1
 43
3.0
 10
1089.068892226666
 20
-843.9498357855432
 42
0.4142135623731
 10
1087.568892226666
 20
-842.4498357855432
 42
0.4142135623731
 10
1086.068892226667
 20
-843.9498357855432
 42
0.4142135623731
 10
1087.568892226666
 20
-845.4498357855432
 42
0.4142135623731
  0
LINE
  5
302
330
1F
100
AcDbEntity
  8
0-E
  6
JWW_HOJO
 62
   120
370
     5
100
AcDbLine
 10
282.5685458109074
 20
-987.491885585544
 30
0.0
 11
1135.521081432626
 21
-987.491885585544
 31
0.0
  0
LINE
  5
303
330
1F
100
AcDbEntity
  8
0-E
  6
JWW_HOJO
 62
   120
370
     5
100
AcDbLine
 10
282.5685458109074
 20
-1037.491885585542
 30
0.0
 11
1135.521081432626
 21
-1037.491885585542
 31
0.0
  0
LINE
  5
304
330
1F
100
AcDbEntity
  8
0-E
  6
Continuous
 62
   120
370
     5
100
AcDbLine
 10
317.5688922266663
 20
-843.9498357855432
 30
0.0
 11
1087.568892226666
 21
-843.9498357855432
 31
0.0
  0
LINE
  5
305
330
1F
100
AcDbEntity
  8
0-E
  6
Continuous
 62
   120
370
     5
100
AcDbLine
 10
1087.568892226666
 20
-843.9498357855432
 30
0.0
 11
1087.568892226666
 21
-987.491885585544
 31
0.0
  0
LINE
  5
306
330
1F
100
AcDbEntity
  8
0-E
  6
Continuous
 62
    92
370
    13
100
AcDbLine
 10
1087.568892226666
 20
-1037.491885585542
 30
0.0
 11
1087.568892226666
 21
-1912.78309113437
 31
0.0
  0
LINE
  5
307
330
1F
100
AcDbEntity
  8
0-E
  6
Continuous
 62
    92
370
    13
100
AcDbLine
 10
317.5688922266663
 20
-1912.78309113437
 30
0.0
 11
1087.568892226666
 21
-1912.78309113437
 31
0.0
  0
MTEXT
  5
308
330
1F
100
AcDbEntity
  8
0-E
  6
Continuous
 62
     7
370
   211
100
AcDbMText
 10
650.5140162717713
 20
-843.2298357855427
 30
0.0
 40
91.43999999999967
 41
119.9999999999996
 46
0.0
 71
     7
 72
     1
  1
{\fＭＳ ゴシック|b0|i0|c128|p49;77}
 73
     1
 44
1.0
  0
LINE
  5
309
330
1F
100
AcDbEntity
  8
0-E
  6
Continuous
 62
     7
370
     9
100
AcDbLine
 10
2977.06145605783
 20
-2583.485558114809
 30
0.0
 11
2977.06145605783
 21
-2590.985558114809
 31
0.0
  0
LINE
  5
30A
330
1F
100
AcDbEntity
  8
0-E
  6
Continuous
 62
     7
370
     9
100
AcDbLine
 10
2859.311456057831
 20
-2540.871835683869
 30
0.0
 11
2911.811456057836
 21
-2540.871835683869
 31
0.0
  0
LINE
  5
30B
330
1F
100
AcDbEntity
  8
0-E
  6
Continuous
 62
     7
370
     9
100
AcDbLine
 10
2961.311456057835
 20
-2582.123254392558
 30
0.0
 11
2961.311456057835
 21
-2599.371835683864
 31
0.0
  0
LINE
  5
30C
330
1F
100
AcDbEntity
  8
0-E
  6
Continuous
 62
     7
370
     9
100
AcDbLine
 10
2964.311456057836
 20
-2602.371835683864
 30
0.0
 11
2972.561456057829
 21
-2602.371835683864
 31
0.0
  0
LINE
  5
30D
330
1F
100
AcDbEntity
  8
0-E
  6
Continuous
 62
     7
370
     9
100
AcDbLine
 10
2972.561456057829
 20
-2602.371835683864
 30
0.0
 11
2972.561456057829
 21
-2612.871835683864
 31
0.0
  0
LINE
  5
30E
330
1F
100
AcDbEntity
  8
0-E
  6
Continuous
 62
     7
370
     9
100
AcDbLine
 10
2961.311456057835
 20
-2599.371835683864
 30
0.0
 11
2961.311456057835
 21
-2602.371835683864
 31
0.0
  0
LINE
  5
30F
330
1F
100
AcDbEntity
  8
0-E
  6
Continuous
 62
     7
370
     9
100
AcDbLine
 10
2961.311456057835
 20
-2602.371835683864
 30
0.0
 11
2964.311456057836
 21
-2602.371835683864
 31
0.0
  0
LINE
  5
310
330
1F
100
AcDbEntity
  8
0-E
  6
Continuous
 62
     7
370
     9
100
AcDbLine
 10
2930.561456057829
 20
-2552.871835683869
 30
0.0
 11
2930.561456057829
 21
-2560.371835683869
 31
0.0
  0
LINE
  5
311
330
1F
100
AcDbEntity
  8
0-E
  6
Continuous
 62
     7
370
     9
100
AcDbLine
 10
2930.561456057829
 20
-2552.871835683869
 30
0.0
 11
2923.061456057831
 21
-2545.371835683869
 31
0.0
  0
LINE
  5
312
330
1F
100
AcDbEntity
  8
0-E
  6
Continuous
 62
     7
370
     9
100
AcDbLine
 10
2848.061456057831
 20
-2545.371835683869
 30
0.0
 11
2840.561456057831
 21
-2552.871835683869
 31
0.0
  0
LINE
  5
313
330
1F
100
AcDbEntity
  8
0-E
  6
Continuous
 62
     7
370
     9
100
AcDbLine
 10
2840.561456057831
 20
-2560.371835683869
 30
0.0
 11
2840.561456057831
 21
-2552.871835683869
 31
0.0
  0
LINE
  5
314
330
1F
100
AcDbEntity
  8
0-E
  6
Continuous
 62
     7
370
     9
100
AcDbLine
 10
2806.811456057825
 20
-2602.371835683864
 30
0.0
 11
2809.811456057826
 21
-2602.371835683864
 31
0.0
  0
LINE
  5
315
330
1F
100
AcDbEntity
  8
0-E
  6
Continuous
 62
     7
370
     9
100
AcDbLine
 10
2809.811456057826
 20
-2602.371835683864
 30
0.0
 11
2809.811456057826
 21
-2599.371835683864
 31
0.0
  0
LINE
  5
316
330
1F
100
AcDbEntity
  8
0-E
  6
Continuous
 62
     7
370
     9
100
AcDbLine
 10
2798.561456057831
 20
-2612.871835683864
 30
0.0
 11
2798.561456057831
 21
-2602.371835683864
 31
0.0
  0
LINE
  5
317
330
1F
100
AcDbEntity
  8
0-E
  6
Continuous
 62
     7
370
     9
100
AcDbLine
 10
2798.561456057831
 20
-2602.371835683864
 30
0.0
 11
2806.811456057825
 21
-2602.371835683864
 31
0.0
  0
LINE
  5
318
330
1F
100
AcDbEntity
  8
0-E
  6
Continuous
 62
     7
370
     9
100
AcDbLine
 10
2809.811456057826
 20
-2599.371835683864
 30
0.0
 11
2809.811456057826
 21
-2582.123254392558
 31
0.0
  0
ARC
  5
319
330
1F
100
AcDbEntity
  8
0-E
  6
Continuous
 62
     7
370
     9
100
AcDbCircle
 10
2960.561456057831
 20
-2612.871835683864
 30
0.0
 40
12.00000000000012
100
AcDbArc
 50
270.0
 51
0.0
  0
ARC
  5
31A
330
1F
100
AcDbEntity
  8
0-E
  6
Continuous
 62
     7
370
     9
100
AcDbCircle
 10
2810.561456057831
 20
-2612.871835683864
 30
0.0
 40
12.00000000000017
100
AcDbArc
 50
180.0
 51
270.0
  0
LINE
  5
31B
330
1F
100
AcDbEntity
  8
0-E
  6
Continuous
 62
     7
370
     9
100
AcDbLine
 10
2840.561456057831
 20
-2537.565704795588
 30
0.0
 11
2930.561456057829
 21
-2537.565704795587
 31
0.0
  0
LINE
  5
31C
330
1F
100
AcDbEntity
  8
0-E
  6
Continuous
 62
     7
370
     9
100
AcDbLine
 10
2859.311456057831
 20
-2540.871835683869
 30
0.0
 11
2840.561456057831
 21
-2537.565704795588
 31
0.0
  0
LINE
  5
31D
330
1F
100
AcDbEntity
  8
0-E
  6
Continuous
 62
     7
370
     9
100
AcDbLine
 10
2911.811456057836
 20
-2540.871835683869
 30
0.0
 11
2930.561456057829
 21
-2537.565704795587
 31
0.0
  0
LINE
  5
31E
330
1F
100
AcDbEntity
  8
0-E
  6
Continuous
 62
     7
370
     9
100
AcDbLine
 10
2859.311456057831
 20
-2540.871835683869
 30
0.0
 11
2859.311456057831
 21
-2545.371835683869
 31
0.0
  0
LINE
  5
31F
330
1F
100
AcDbEntity
  8
0-E
  6
Continuous
 62
     7
370
     9
100
AcDbLine
 10
2911.811456057836
 20
-2540.871835683869
 30
0.0
 11
2911.811456057836
 21
-2545.371835683869
 31
0.0
  0
LINE
  5
320
330
1F
100
AcDbEntity
  8
0-E
  6
Continuous
 62
     7
370
     9
100
AcDbLine
 10
2848.061456057831
 20
-2545.371835683869
 30
0.0
 11
2923.061456057831
 21
-2545.371835683869
 31
0.0
  0
LINE
  5
321
330
1F
100
AcDbEntity
  8
0-E
  6
Continuous
 62
     7
370
     9
100
AcDbLine
 10
2930.561456057829
 20
-2552.871835683869
 30
0.0
 11
2840.561456057831
 21
-2552.871835683863
 31
0.0
  0
LINE
  5
322
330
1F
100
AcDbEntity
  8
0-E
  6
Continuous
 62
     7
370
     9
100
AcDbLine
 10
2807.878829215575
 20
-2581.817156371791
 30
0.0
 11
2809.811456057826
 21
-2582.123254392558
 31
0.0
  0
LINE
  5
323
330
1F
100
AcDbEntity
  8
0-E
  6
Continuous
 62
     7
370
     9
100
AcDbLine
 10
2809.811456057826
 20
-2602.371835683864
 30
0.0
 11
2961.311456057835
 21
-2602.371835683864
 31
0.0
  0
LINE
  5
324
330
1F
100
AcDbEntity
  8
0-E
  6
Continuous
 62
     7
370
     9
100
AcDbLine
 10
2810.561456057831
 20
-2624.871835683865
 30
0.0
 11
2960.561456057831
 21
-2624.871835683865
 31
0.0
  0
LINE
  5
325
330
1F
100
AcDbEntity
  8
0-E
  6
Continuous
 62
     7
370
     9
100
AcDbLine
 10
2809.811456057826
 20
-2582.280653810174
 30
0.0
 11
2961.311456057835
 21
-2582.280653810174
 31
0.0
  0
LINE
  5
326
330
1F
100
AcDbEntity
  8
0-E
  6
Continuous
 62
     7
370
     9
100
AcDbLine
 10
2840.561456057859
 20
-2476.985558114811
 30
0.0
 11
2840.561456057831
 21
-2537.565704795588
 31
0.0
  0
LINE
  5
327
330
1F
100
AcDbEntity
  8
0-E
  6
Continuous
 62
     7
370
     9
100
AcDbLine
 10
2930.561456057829
 20
-2537.565704795587
 30
0.0
 11
2930.561456057859
 21
-2476.985558114811
 31
0.0
  0
LINE
  5
328
330
1F
100
AcDbEntity
  8
0-E
  6
Continuous
 62
     7
370
     9
100
AcDbLine
 10
2961.311456057835
 20
-2582.123254392558
 30
0.0
 11
2984.996981611987
 21
-2578.371835683869
 31
0.0
  0
LINE
  5
329
330
1F
100
AcDbEntity
  8
0-E
  6
Continuous
 62
     7
370
     9
100
AcDbLine
 10
2984.996981611987
 20
-2578.371835683869
 30
0.0
 11
2998.061456057829
 21
-2578.371835683869
 31
0.0
  0
LINE
  5
32A
330
1F
100
AcDbEntity
  8
0-E
  6
Continuous
 62
     7
370
     9
100
AcDbLine
 10
2998.061456057831
 20
-2567.871835683869
 30
0.0
 11
2998.061456057829
 21
-2578.371835683869
 31
0.0
  0
ARC
  5
32B
330
1F
100
AcDbEntity
  8
0-E
  6
Continuous
 62
     7
370
     9
100
AcDbCircle
 10
2990.561456057829
 20
-2567.871835683869
 30
0.0
 40
7.500000000001705
100
AcDbArc
 50
0.0
 51
90.0
  0
LINE
  5
32C
330
1F
100
AcDbEntity
  8
0-E
  6
Continuous
 62
     7
370
     9
100
AcDbLine
 10
2930.561456057829
 20
-2560.371835683869
 30
0.0
 11
2990.561456057829
 21
-2560.371835683869
 31
0.0
  0
LINE
  5
32D
330
1F
100
AcDbEntity
  8
0-E
  6
Continuous
 62
     7
370
     9
100
AcDbLine
 10
2780.561456057832
 20
-2560.371835683869
 30
0.0
 11
2930.561456057829
 21
-2560.371835683869
 31
0.0
  0
LINE
  5
32E
330
1F
100
AcDbEntity
  8
0-E
  6
Continuous
 62
     7
370
     9
100
AcDbLine
 10
2786.125930503672
 20
-2578.371835683869
 30
0.0
 11
2807.878829215575
 21
-2581.817156371791
 31
0.0
  0
LINE
  5
32F
330
1F
100
AcDbEntity
  8
0-E
  6
Continuous
 62
     7
370
     9
100
AcDbLine
 10
2773.061456057832
 20
-2578.371835683869
 30
0.0
 11
2786.125930503672
 21
-2578.371835683869
 31
0.0
  0
LINE
  5
330
330
1F
100
AcDbEntity
  8
0-E
  6
Continuous
 62
     7
370
     9
100
AcDbLine
 10
2773.061456057832
 20
-2578.371835683869
 30
0.0
 11
2773.061456057831
 21
-2567.871835683869
 31
0.0
  0
ARC
  5
331
330
1F
100
AcDbEntity
  8
0-E
  6
Continuous
 62
     7
370
     9
100
AcDbCircle
 10
2780.561456057832
 20
-2567.871835683869
 30
0.0
 40
7.5
100
AcDbArc
 50
90.0
 51
180.0
  0
LINE
  5
332
330
1F
100
AcDbEntity
  8
0-E
  6
Continuous
 62
    92
370
    13
100
AcDbLine
 10
1719.588128692506
 20
-567.8298970618995
 30
0.0
 11
4359.588128692511
 21
-567.8298970618995
 31
0.0
  0
MTEXT
  5
333
330
1F
100
AcDbEntity
  8
0-E
  6
Continuous
 62
     7
370
     9
100
AcDbMText
 10
2019.588128692509
 20
-532.0003508307127
 30
0.0
 40
91.44000000000001
 41
2100.0
 46
0.0
 71
     7
 72
     1
  1
{\fＭＳ ゴシック|b0|i0|c128|p49;床直付レール取り付け位置（Ｓ＝1/2）}
 73
     1
 44
1.0
  0
LINE
  5
334
330
1F
100
AcDbEntity
  8
0-4_枠
  6
Continuous
 62
    92
370
    13
100
AcDbLine
 10
-2165.081701551567
 20
-381.8298970618981
 30
0.0
 11
-2165.081701551567
 21
-1881.830386786624
 31
0.0
  0
LINE
  5
335
330
1F
100
AcDbEntity
  8
0-4_枠
  6
Continuous
 62
    92
370
    13
100
AcDbLine
 10
-2165.081701551567
 20
-2001.830386786624
 30
0.0
 11
-2165.081701551567
 21
-3309.830676291216
 31
0.0
  0
LINE
  5
336
330
1F
100
AcDbEntity
  8
0-4_枠
  6
Continuous
 62
    92
370
    13
100
AcDbLine
 10
-1703.081701551566
 20
-3309.830676291216
 30
0.0
 11
-1703.081701551566
 21
-2001.830386786624
 31
0.0
  0
LINE
  5
337
330
1F
100
AcDbEntity
  8
0-4_枠
  6
Continuous
 62
    92
370
    13
100
AcDbLine
 10
-1703.081701551566
 20
-1881.830386786624
 30
0.0
 11
-1703.081701551566
 21
-537.8298970618973
 31
0.0
  0
LINE
  5
338
330
1F
100
AcDbEntity
  8
1-E
  6
Continuous
 62
    40
370
    15
100
AcDbLine
 10
4082.08812869251
 20
-2649.485558114811
 30
0.0
 11
1997.088128692506
 21
-2649.485558114811
 31
0.0
  0
LINE
  5
339
330
1F
100
AcDbEntity
  8
1-E
  6
Continuous
 62
    40
370
    15
100
AcDbLine
 10
1997.088128692506
 20
-2829.485502440855
 30
0.0
 11
4082.08812869251
 21
-2829.485502440855
 31
0.0
  0
LINE
  5
33A
330
1F
100
AcDbEntity
  8
1-E
  6
Continuous
 62
     7
370
     9
100
AcDbLine
 10
1997.088128692506
 20
-2769.485211699057
 30
0.0
 11
4082.08812869251
 21
-2769.485211699057
 31
0.0
  0
LINE
  5
33B
330
1F
100
AcDbEntity
  8
1-E
  6
Continuous
 62
     7
370
     9
100
AcDbLine
 10
1997.088128692506
 20
-2739.485298302995
 30
0.0
 11
4082.08812869251
 21
-2739.485298302995
 31
0.0
  0
LINE
  5
33C
330
1F
100
AcDbEntity
  8
1-E
  6
Continuous
 62
     7
370
     9
100
AcDbLine
 10
1997.088128692506
 20
-2799.485589044796
 30
0.0
 11
4082.08812869251
 21
-2799.485589044796
 31
0.0
  0
LINE
  5
33D
330
1F
100
AcDbEntity
  8
1-E
  6
Continuous
 62
     7
370
     9
100
AcDbLine
 10
1997.088128692506
 20
-2709.485384906936
 30
0.0
 11
4082.08812869251
 21
-2709.485384906936
 31
0.0
  0
LINE
  5
33E
330
1F
100
AcDbEntity
  8
1-E
  6
Continuous
 62
     7
370
     9
100
AcDbLine
 10
1997.088128692506
 20
-2679.485007561203
 30
0.0
 11
4082.08812869251
 21
-2679.485007561203
 31
0.0
  0
LINE
  5
33F
330
1F
100
AcDbEntity
  8
1-E
  6
Continuous
 62
     7
370
     9
100
AcDbLine
 10
2630.56145605783
 20
-2578.985558114812
 30
0.0
 11
2686.061456057832
 21
-2578.985558114812
 31
0.0
  0
LINE
  5
340
330
1F
100
AcDbEntity
  8
1-E
  6
Continuous
 62
     7
370
     9
100
AcDbLine
 10
2690.561456057831
 20
-2583.485558114811
 30
0.0
 11
2686.061456057832
 21
-2578.985558114812
 31
0.0
  0
LINE
  5
341
330
1F
100
AcDbEntity
  8
1-E
  6
Continuous
 62
     7
370
     9
100
AcDbLine
 10
2690.561456057831
 20
-2583.485558114811
 30
0.0
 11
2695.061456057833
 21
-2578.985558114812
 31
0.0
  0
ARC
  5
342
330
1F
100
AcDbEntity
  8
1-E
  6
Continuous
 62
     7
370
     9
100
AcDbCircle
 10
2789.561456057831
 20
-2583.485558114809
 30
0.0
 40
4.500000000001449
100
AcDbArc
 50
359.9999999999784
 51
90.00000000000004
  0
LINE
  5
343
330
1F
100
AcDbEntity
  8
1-E
  6
Continuous
 62
     7
370
     9
100
AcDbLine
 10
2794.061456057831
 20
-2583.485558114811
 30
0.0
 11
2794.061456057831
 21
-2590.985558114811
 31
0.0
  0
ARC
  5
344
330
1F
100
AcDbEntity
  8
1-E
  6
Continuous
 62
     7
370
     9
100
AcDbCircle
 10
2791.061456057829
 20
-2590.985558114809
 30
0.0
 40
3.000000000000683
100
AcDbArc
 50
270.0
 51
359.9999999999674
  0
LINE
  5
345
330
1F
100
AcDbEntity
  8
1-E
  6
Continuous
 62
     7
370
     9
100
AcDbLine
 10
2791.061456057829
 20
-2593.98555811481
 30
0.0
 11
2782.061456057831
 21
-2593.98555811481
 31
0.0
  0
ARC
  5
346
330
1F
100
AcDbEntity
  8
1-E
  6
Continuous
 62
     7
370
     9
100
AcDbCircle
 10
2782.061456057831
 20
-2598.485558114809
 30
0.0
 40
4.499999999999318
100
AcDbArc
 50
90.0
 51
180.0
  0
LINE
  5
347
330
1F
100
AcDbEntity
  8
1-E
  6
Continuous
 62
     7
370
     9
100
AcDbLine
 10
2777.561456057829
 20
-2598.485558114809
 30
0.0
 11
2777.561456057829
 21
-2628.485558114811
 31
0.0
  0
ARC
  5
348
330
1F
100
AcDbEntity
  8
1-E
  6
Continuous
 62
     7
370
     9
100
AcDbCircle
 10
2785.061456057829
 20
-2628.485558114811
 30
0.0
 40
7.5
100
AcDbArc
 50
180.0
 51
270.0
  0
LINE
  5
349
330
1F
100
AcDbEntity
  8
1-E
  6
Continuous
 62
     7
370
     9
100
AcDbLine
 10
2785.061456057829
 20
-2635.985558114811
 30
0.0
 11
2881.061456057829
 21
-2635.985558114814
 31
0.0
  0
LINE
  5
34A
330
1F
100
AcDbEntity
  8
1-E
  6
Continuous
 62
     7
370
     9
100
AcDbLine
 10
2885.56145605783
 20
-2640.485558114814
 30
0.0
 11
2881.061456057829
 21
-2635.985558114814
 31
0.0
  0
LINE
  5
34B
330
1F
100
AcDbEntity
  8
1-E
  6
Continuous
 62
     7
370
     9
100
AcDbLine
 10
2885.56145605783
 20
-2640.485558114814
 30
0.0
 11
2890.061456057829
 21
-2635.985558114814
 31
0.0
  0
LINE
  5
34C
330
1F
100
AcDbEntity
  8
1-E
  6
Continuous
 62
     7
370
     9
100
AcDbLine
 10
2890.061456057829
 20
-2635.985558114814
 30
0.0
 11
2986.061456057815
 21
-2635.985558114811
 31
0.0
  0
ARC
  5
34D
330
1F
100
AcDbEntity
  8
1-E
  6
Continuous
 62
     7
370
     9
100
AcDbCircle
 10
2986.061456057815
 20
-2628.485558114811
 30
0.0
 40
7.5
100
AcDbArc
 50
270.0
 51
0.0
  0
LINE
  5
34E
330
1F
100
AcDbEntity
  8
1-E
  6
Continuous
 62
     7
370
     9
100
AcDbLine
 10
2993.561456057817
 20
-2598.485558114809
 30
0.0
 11
2993.561456057817
 21
-2628.485558114811
 31
0.0
  0
ARC
  5
34F
330
1F
100
AcDbEntity
  8
1-E
  6
Continuous
 62
     7
370
     9
100
AcDbCircle
 10
2989.061456057816
 20
-2598.485558114809
 30
0.0
 40
4.500000000000171
100
AcDbArc
 50
0.0
 51
90.0
  0
LINE
  5
350
330
1F
100
AcDbEntity
  8
1-E
  6
Continuous
 62
     7
370
     9
100
AcDbLine
 10
2980.061456057829
 20
-2593.98555811481
 30
0.0
 11
2989.061456057816
 21
-2593.98555811481
 31
0.0
  0
ARC
  5
351
330
1F
100
AcDbEntity
  8
1-E
  6
Continuous
 62
     7
370
     9
100
AcDbCircle
 10
2980.061456057829
 20
-2590.985558114809
 30
0.0
 40
2.99999999999983
100
AcDbArc
 50
179.9999999999674
 51
270.0
  0
LINE
  5
352
330
1F
100
AcDbEntity
  8
1-E
  6
Continuous
 62
     7
370
     9
100
AcDbLine
 10
2977.061456057831
 20
-2583.485558114808
 30
0.0
 11
2977.061456057831
 21
-2590.985558114808
 31
0.0
  0
ARC
  5
353
330
1F
100
AcDbEntity
  8
1-E
  6
Continuous
 62
     7
370
     9
100
AcDbCircle
 10
2981.56145605783
 20
-2583.485558114808
 30
0.0
 40
4.499999999999318
100
AcDbArc
 50
89.99999999996201
 51
180.0
  0
ARC
  5
354
330
1F
100
AcDbEntity
  8
1-E
  6
Continuous
 62
     7
370
     9
100
AcDbCircle
 10
2981.561456057814
 20
-2608.985558114812
 30
0.0
 40
30.0
100
AcDbArc
 50
359.9999999999968
 51
89.9999999999682
  0
LINE
  5
355
330
1F
100
AcDbEntity
  8
1-E
  6
Continuous
 62
     7
370
     9
100
AcDbLine
 10
3011.561456057817
 20
-2608.985558114814
 30
0.0
 11
3011.561456057816
 21
-2649.485558114811
 31
0.0
  0
ARC
  5
356
330
1F
100
AcDbEntity
  8
1-E
  6
Continuous
 62
     7
370
     9
100
AcDbCircle
 10
2776.061456057831
 20
-2634.485558114812
 30
0.0
 40
15.0
100
AcDbArc
 50
180.0
 51
270.0
  0
LINE
  5
357
330
1F
100
AcDbEntity
  8
1-E
  6
Continuous
 62
     7
370
     9
100
AcDbLine
 10
2761.061456057831
 20
-2605.599519145492
 30
0.0
 11
2761.061456057831
 21
-2634.485558114812
 31
0.0
  0
ARC
  5
358
330
1F
100
AcDbEntity
  8
1-E
  6
Continuous
 62
     7
370
     9
100
AcDbCircle
 10
2756.56145605783
 20
-2605.59951914549
 30
0.0
 40
4.500000000000171
100
AcDbArc
 50
359.9999999999784
 51
135.0000000000384
  0
LINE
  5
359
330
1F
100
AcDbEntity
  8
1-E
  6
Continuous
 62
     7
370
     9
100
AcDbLine
 10
2738.379475542494
 20
-2617.417538630155
 30
0.0
 11
2753.379475542489
 21
-2602.417538630155
 31
0.0
  0
ARC
  5
35A
330
1F
100
AcDbEntity
  8
1-E
  6
Continuous
 62
     7
370
     9
100
AcDbCircle
 10
2741.561456057833
 20
-2620.599519145494
 30
0.0
 40
4.499999999999011
100
AcDbArc
 50
135.0000000000057
 51
180.0000000000034
  0
LINE
  5
35B
330
1F
100
AcDbEntity
  8
1-E
  6
Continuous
 62
     7
370
     9
100
AcDbLine
 10
2737.061456057832
 20
-2649.485558114811
 30
0.0
 11
2737.061456057832
 21
-2620.599519145494
 31
0.0
  0
LINE
  5
35C
330
1F
100
AcDbEntity
  8
1-E
  6
Continuous
 62
     7
370
     9
100
AcDbLine
 10
2720.56145605783
 20
-2649.485558114811
 30
0.0
 11
2737.061456057832
 21
-2649.485558114811
 31
0.0
  0
LINE
  5
35D
330
1F
100
AcDbEntity
  8
1-E
  6
Continuous
 62
     7
370
     9
100
AcDbLine
 10
2720.56145605783
 20
-2649.485558114811
 30
0.0
 11
2720.56145605783
 21
-2610.485558114814
 31
0.0
  0
ARC
  5
35E
330
1F
100
AcDbEntity
  8
1-E
  6
Continuous
 62
     7
370
     9
100
AcDbCircle
 10
2719.061456057831
 20
-2610.485558114814
 30
0.0
 40
1.499999999999915
100
AcDbArc
 50
0.0
 51
90.0
  0
LINE
  5
35F
330
1F
100
AcDbEntity
  8
1-E
  6
Continuous
 62
     7
370
     9
100
AcDbLine
 10
2662.061456057832
 20
-2608.985558114814
 30
0.0
 11
2719.061456057831
 21
-2608.985558114814
 31
0.0
  0
ARC
  5
360
330
1F
100
AcDbEntity
  8
1-E
  6
Continuous
 62
     7
370
     9
100
AcDbCircle
 10
2662.061456057832
 20
-2610.485558114814
 30
0.0
 40
1.500000000000341
100
AcDbArc
 50
90.0
 51
180.0
  0
LINE
  5
361
330
1F
100
AcDbEntity
  8
1-E
  6
Continuous
 62
     7
370
     9
100
AcDbLine
 10
2660.561456057831
 20
-2649.485558114811
 30
0.0
 11
2660.561456057831
 21
-2610.485558114814
 31
0.0
  0
LINE
  5
362
330
1F
100
AcDbEntity
  8
1-E
  6
Continuous
 62
     7
370
     9
100
AcDbLine
 10
2644.06145605783
 20
-2649.485558114811
 30
0.0
 11
2660.561456057831
 21
-2649.485558114811
 31
0.0
  0
LINE
  5
363
330
1F
100
AcDbEntity
  8
1-E
  6
Continuous
 62
     7
370
     9
100
AcDbLine
 10
2644.06145605783
 20
-2649.485558114811
 30
0.0
 11
2644.06145605783
 21
-2618.735558114816
 31
0.0
  0
LINE
  5
364
330
1F
100
AcDbEntity
  8
1-E
  6
Continuous
 62
     7
370
     9
100
AcDbLine
 10
2644.06145605783
 20
-2618.735558114816
 30
0.0
 11
2628.364756916723
 21
-2603.038858973712
 31
0.0
  0
ARC
  5
365
330
1F
100
AcDbEntity
  8
1-E
  6
Continuous
 62
     7
370
     9
100
AcDbCircle
 10
2623.06145605783
 20
-2608.342159832609
 30
0.0
 40
7.499999999996444
100
AcDbArc
 50
45.0
 51
180.0000000000261
  0
LINE
  5
366
330
1F
100
AcDbEntity
  8
1-E
  6
Continuous
 62
     7
370
     9
100
AcDbLine
 10
2615.561456057831
 20
-2649.485558114811
 30
0.0
 11
2615.561456057828
 21
-2608.342159832612
 31
0.0
  0
LINE
  5
367
330
1F
100
AcDbEntity
  8
1-E
  6
Continuous
 62
     7
370
     9
100
AcDbLine
 10
2600.561456057831
 20
-2649.485558114811
 30
0.0
 11
2615.561456057831
 21
-2649.485558114811
 31
0.0
  0
LINE
  5
368
330
1F
100
AcDbEntity
  8
1-E
  6
Continuous
 62
     7
370
     9
100
AcDbLine
 10
2600.561456057831
 20
-2649.485558114811
 30
0.0
 11
2600.561456057828
 21
-2608.985558114812
 31
0.0
  0
ARC
  5
369
330
1F
100
AcDbEntity
  8
1-E
  6
Continuous
 62
     7
370
     9
100
AcDbCircle
 10
2630.56145605783
 20
-2608.985558114812
 30
0.0
 40
30.0
100
AcDbArc
 50
90.0
 51
180.0
  0
LINE
  5
36A
330
1F
100
AcDbEntity
  8
1-E
  6
Continuous
 62
     7
370
     9
100
AcDbLine
 10
2776.061456057831
 20
-2649.485558114811
 30
0.0
 11
3011.561456057816
 21
-2649.485558114811
 31
0.0
  0
LINE
  5
36B
330
1F
100
AcDbEntity
  8
1-E
  6
Continuous
 62
     7
370
     9
100
AcDbLine
 10
2789.561456057831
 20
-2578.98555811481
 30
0.0
 11
2695.061456057833
 21
-2578.98555811481
 31
0.0
  0
LINE
  5
36C
330
1F
100
AcDbEntity
  8
1-E
  6
Continuous
 62
    92
370
    13
100
AcDbLine
 10
2308.060082766816
 20
-829.982576968812
 30
0.0
 11
2308.060082766816
 21
-2649.485558114811
 31
0.0
  0
LINE
  5
36D
330
1F
100
AcDbEntity
  8
1-E
  6
Continuous
 62
    92
370
    13
100
AcDbLine
 10
3463.060082766817
 20
-829.982576968812
 30
0.0
 11
3463.060082766817
 21
-2649.485558114811
 31
0.0
  0
LINE
  5
36E
330
1F
100
AcDbEntity
  8
1-E
  6
Continuous
 62
   120
370
     5
100
AcDbLine
 10
2308.060082766816
 20
-1109.658634952167
 30
0.0
 11
3463.060082766817
 21
-1109.658634952167
 31
0.0
  0
LWPOLYLINE
  5
36F
330
1F
100
AcDbEntity
  8
1-E
  6
Continuous
 62
     7
370
     9
100
AcDbPolyline
 90
        4
 70
     1
 43
3.0
 10
2309.560082766816
 20
-1109.658634952167
 42
0.4142135623731
 10
2308.060082766816
 20
-1108.158634952167
 42
0.4142135623731
 10
2306.560082766816
 20
-1109.658634952167
 42
0.4142135623731
 10
2308.060082766816
 20
-1111.158634952167
 42
0.4142135623731
  0
LWPOLYLINE
  5
370
330
1F
100
AcDbEntity
  8
1-E
  6
Continuous
 62
     7
370
     9
100
AcDbPolyline
 90
        4
 70
     1
 43
3.0
 10
3464.560082766817
 20
-1109.658634952167
 42
0.4142135623731
 10
3463.060082766817
 20
-1108.158634952167
 42
0.4142135623731
 10
3461.560082766818
 20
-1109.658634952167
 42
0.4142135623731
 10
3463.060082766817
 20
-1111.158634952167
 42
0.4142135623731
  0
LINE
  5
371
330
1F
100
AcDbEntity
  8
1-E
  6
JWW_CENTER1
 62
   120
370
     5
100
AcDbLine
 10
2885.56145605783
 20
-2969.717948411596
 30
0.0
 11
2885.56145605783
 21
-829.982576968812
 31
0.0
  0
LINE
  5
372
330
1F
100
AcDbEntity
  8
1-E
  6
Continuous
 62
     7
370
     9
100
AcDbLine
 10
3663.546746449481
 20
-1656.145834299153
 30
0.0
 11
4159.10146500985
 21
-1656.145834299153
 31
0.0
  0
LINE
  5
373
330
1F
100
AcDbEntity
  8
1-E
  6
Continuous
 62
     7
370
     9
100
AcDbLine
 10
4159.10146500985
 20
-1656.145834299153
 30
0.0
 11
4159.10146500985
 21
-1850.425809189297
 31
0.0
  0
LINE
  5
374
330
1F
100
AcDbEntity
  8
1-E
  6
Continuous
 62
     7
370
     9
100
AcDbLine
 10
4159.10146500985
 20
-1850.425809189297
 30
0.0
 11
3663.546746449481
 21
-1850.425809189297
 31
0.0
  0
LINE
  5
375
330
1F
100
AcDbEntity
  8
1-E
  6
Continuous
 62
     7
370
     9
100
AcDbLine
 10
3663.546746449481
 20
-1850.425809189297
 30
0.0
 11
3663.546746449481
 21
-1656.145834299153
 31
0.0
  0
LINE
  5
376
330
1F
100
AcDbEntity
  8
1-E
  6
Continuous
 62
   120
370
     5
100
AcDbLine
 10
2600.561456057831
 20
-2383.985558114808
 30
0.0
 11
3011.561456057816
 21
-2383.985558114808
 31
0.0
  0
LWPOLYLINE
  5
377
330
1F
100
AcDbEntity
  8
1-E
  6
Continuous
 62
     7
370
     9
100
AcDbPolyline
 90
        4
 70
     1
 43
3.0
 10
2602.061456057831
 20
-2383.985558114808
 42
0.4142135623731
 10
2600.561456057831
 20
-2382.485558114808
 42
0.4142135623731
 10
2599.061456057832
 20
-2383.985558114808
 42
0.4142135623731
 10
2600.561456057831
 20
-2385.485558114808
 42
0.4142135623731
  0
LWPOLYLINE
  5
378
330
1F
100
AcDbEntity
  8
1-E
  6
Continuous
 62
     7
370
     9
100
AcDbPolyline
 90
        4
 70
     1
 43
3.0
 10
3013.061456057816
 20
-2383.985558114808
 42
0.4142135623731
 10
3011.561456057816
 20
-2382.485558114808
 42
0.4142135623731
 10
3010.061456057816
 20
-2383.985558114808
 42
0.4142135623731
 10
3011.561456057816
 20
-2385.485558114808
 42
0.4142135623731
  0
LINE
  5
379
330
1F
100
AcDbEntity
  8
1-E
  6
Continuous
 62
   120
370
     5
100
AcDbLine
 10
2600.561456057831
 20
-2383.985558114808
 30
0.0
 11
2600.561456057831
 21
-2533.985558114808
 31
0.0
  0
LINE
  5
37A
330
1F
100
AcDbEntity
  8
1-E
  6
Continuous
 62
   120
370
     5
100
AcDbLine
 10
3011.561456057816
 20
-2383.985558114808
 30
0.0
 11
3011.561456057816
 21
-2533.985558114808
 31
0.0
  0
LINE
  5
37B
330
1F
100
AcDbEntity
  8
1-E
  6
Continuous
 62
   120
370
     5
100
AcDbLine
 10
3011.561456057816
 20
-2383.985558114808
 30
0.0
 11
3463.060082766817
 21
-2383.985558114808
 31
0.0
  0
LWPOLYLINE
  5
37C
330
1F
100
AcDbEntity
  8
1-E
  6
Continuous
 62
     7
370
     9
100
AcDbPolyline
 90
        4
 70
     1
 43
3.0
 10
3464.560082766817
 20
-2383.985558114808
 42
0.4142135623731
 10
3463.060082766817
 20
-2382.485558114808
 42
0.4142135623731
 10
3461.560082766818
 20
-2383.985558114808
 42
0.4142135623731
 10
3463.060082766817
 20
-2385.485558114808
 42
0.4142135623731
  0
LINE
  5
37D
330
1F
100
AcDbEntity
  8
1-E
  6
Continuous
 62
   120
370
     5
100
AcDbLine
 10
3463.060082766817
 20
-2383.985558114808
 30
0.0
 11
3463.060082766817
 21
-2533.985558114808
 31
0.0
  0
MTEXT
  5
37E
330
1F
100
AcDbEntity
  8
1-E
  6
Continuous
 62
     7
370
     9
100
AcDbMText
 10
3671.324105729665
 20
-1626.255296529744
 30
0.0
 40
91.44
 41
480.0
 46
0.0
 71
     7
 72
     1
  1
{\fＭＳ ゴシック|b0|i0|c128|p49;竪枠前面}
 73
     1
 44
1.0
  0
MTEXT
  5
37F
330
1F
100
AcDbEntity
  8
1-E
  6
Continuous
 62
     7
370
     9
100
AcDbMText
 10
3731.324105729665
 20
-1827.565821744225
 30
0.0
 40
91.44
 41
360.0
 46
0.0
 71
     7
 72
     1
  1
{\fＭＳ ゴシック|b0|i0|c128|p49;室内側}
 73
     1
 44
1.0
  0
MTEXT
  5
380
330
1F
100
AcDbEntity
  8
1-E
  6
Continuous
 62
     7
370
   211
100
AcDbMText
 10
2825.560082766816
 20
-1108.938634952167
 30
0.0
 40
91.44
 41
120.0
 46
0.0
 71
     7
 72
     1
  1
{\fＭＳ ゴシック|b0|i0|c128|p49;77}
 73
     1
 44
1.0
  0
MTEXT
  5
381
330
1F
100
AcDbEntity
  8
1-E
  6
Continuous
 62
     7
370
   211
100
AcDbMText
 10
2686.061456057824
 20
-2383.265558114808
 30
0.0
 40
91.44
 41
240.0
 46
0.0
 71
     7
 72
     1
  1
{\fＭＳ ゴシック|b0|i0|c128|p49;27.4}
 73
     1
 44
1.0
  0
MTEXT
  5
382
330
1F
100
AcDbEntity
  8
1-E
  6
Continuous
 62
     7
370
   211
100
AcDbMText
 10
3177.310769412317
 20
-2383.265558114808
 30
0.0
 40
91.44
 41
120.0
 46
0.0
 71
     7
 72
     1
  1
{\fＭＳ ゴシック|b0|i0|c128|p49;30}
 73
     1
 44
1.0
  0
MTEXT
  5
383
330
1F
100
AcDbEntity
  8
0-B_寸法
  6
Continuous
 62
     7
370
   211
100
AcDbMText
 10
-1186.270992761624
 20
2287.665146596839
 30
0.0
 40
91.44
 41
120.0
 46
0.0
 71
     7
 72
     1
  1
{\fＭＳ ゴシック|b0|i0|c128|p49;20}
 11
6.123031769111886E-17
 21
1.0
 31
0.0
 73
     1
 44
1.0
  0
MTEXT
  5
384
330
1F
100
AcDbEntity
  8
0-B_寸法
  6
Continuous
 62
     7
370
     0
100
AcDbMText
 10
-1997.832256125557
 20
-1244.100226289031
 30
0.0
 40
91.43999999999872
 41
119.9999999999983
 46
0.0
 71
     7
 72
     1
  1
{\fＭＳ ゴシック|b0|i0|c128|p49;20}
 11
0.9999999999914964
 21
4.124000448329335E-6
 31
0.0
 73
     1
 44
1.0
  0
MTEXT
  5
385
330
1F
100
AcDbEntity
  8
F-A_文字
  6
Continuous
 62
     7
370
     0
100
AcDbMText
 10
4938.667793092893
 20
-3938.071010139966
 30
0.0
 40
78.86699999999999
 41
517.5
 46
0.0
 71
     7
 72
     1
  1
{\fＭＳ ゴシック|b0|i0|c128|p49;2024.04.01}
 73
     1
 44
1.0
  0
LINE
  5
386
330
1F
100
AcDbEntity
  8
0-0_補助線
  6
Continuous
 62
   120
370
     5
100
AcDbLine
 10
-1982.081407668722
 20
2324.359196304377
 30
0.0
 11
-1982.081407668722
 21
2402.688459527562
 31
0.0
  0
LINE
  5
387
330
1F
100
AcDbEntity
  8
0-0_補助線
  6
Continuous
 62
   120
370
     5
100
AcDbLine
 10
-1997.081407668722
 20
2324.359196304377
 30
0.0
 11
-1997.081407668722
 21
2402.688459527562
 31
0.0
  0
LWPOLYLINE
  5
388
330
1F
100
AcDbEntity
  8
0-B_寸法
  6
Continuous
 62
     7
370
     9
100
AcDbPolyline
 90
        4
 70
     1
 43
3.0
 10
-1169.770992761625
 20
2421.94514659684
 42
0.4142135623731
 10
-1171.270992761625
 20
2423.445146596839
 42
0.4142135623731
 10
-1172.770992761625
 20
2421.94514659684
 42
0.4142135623731
 10
-1171.270992761625
 20
2420.44514659684
 42
0.4142135623731
  0
LINE
  5
389
330
1F
100
AcDbEntity
  8
0-0_補助線
  6
JWW_HOJO
 62
     7
370
     9
100
AcDbLine
 10
-1719.956407668723
 20
2439.945146596838
 30
0.0
 11
-1719.956407668723
 21
2280.9445032533
 31
0.0
  0
LINE
  5
38A
330
1F
100
AcDbEntity
  8
0-0_補助線
  6
JWW_HOJO
 62
     7
370
     9
100
AcDbLine
 10
-1779.956407668723
 20
2439.945146596838
 30
0.0
 11
-1779.956407668723
 21
2280.9445032533
 31
0.0
  0
LINE
  5
38B
330
1F
100
AcDbEntity
  8
0-6_扉
  6
Continuous
 62
   200
370
    20
100
AcDbLine
 10
-1779.956407668723
 20
2421.94514659684
 30
0.0
 11
-1997.081407668722
 21
2421.94514659684
 31
0.0
  0
LINE
  5
38C
330
1F
100
AcDbEntity
  8
0-6_扉
  6
Continuous
 62
   200
370
    20
100
AcDbLine
 10
-1502.831407668724
 20
2421.94514659684
 30
0.0
 11
-1719.956407668723
 21
2421.94514659684
 31
0.0
  0
LINE
  5
38D
330
1F
100
AcDbEntity
  8
0-6_扉
  6
Continuous
 62
   200
370
    20
100
AcDbLine
 10
-1002.581407668723
 20
2421.94514659684
 30
0.0
 11
-1219.706407668724
 21
2421.94514659684
 31
0.0
  0
LINE
  5
38E
330
1F
100
AcDbEntity
  8
0-6_扉
  6
Continuous
 62
   200
370
    20
100
AcDbLine
 10
-1279.706407668724
 20
2421.94514659684
 30
0.0
 11
-1496.831407668723
 21
2421.94514659684
 31
0.0
  0
LINE
  5
38F
330
1F
100
AcDbEntity
  8
0-0_補助線
  6
JWW_HOJO
 62
     7
370
     9
100
AcDbLine
 10
-1279.706407668724
 20
2439.945146596838
 30
0.0
 11
-1279.706407668724
 21
2280.9445032533
 31
0.0
  0
LINE
  5
390
330
1F
100
AcDbEntity
  8
0-0_補助線
  6
JWW_HOJO
 62
     7
370
     9
100
AcDbLine
 10
-1219.706407668724
 20
2439.945146596838
 30
0.0
 11
-1219.706407668724
 21
2280.9445032533
 31
0.0
  0
LINE
  5
391
330
1F
100
AcDbEntity
  8
0-0_補助線
  6
JWW_HOJO
 62
     7
370
     9
100
AcDbLine
 10
-713.4564076687243
 20
2439.945146596838
 30
0.0
 11
-713.4564076687243
 21
2280.9445032533
 31
0.0
  0
LINE
  5
392
330
1F
100
AcDbEntity
  8
0-0_補助線
  6
JWW_HOJO
 62
     7
370
     9
100
AcDbLine
 10
-773.4564076687243
 20
2439.945146596838
 30
0.0
 11
-773.4564076687243
 21
2280.9445032533
 31
0.0
  0
LINE
  5
393
330
1F
100
AcDbEntity
  8
0-6_扉
  6
Continuous
 62
   200
370
    20
100
AcDbLine
 10
-773.4564076687243
 20
2421.94514659684
 30
0.0
 11
-990.5814076687229
 21
2421.94514659684
 31
0.0
  0
LINE
  5
394
330
1F
100
AcDbEntity
  8
0-6_扉
  6
Continuous
 62
   200
370
    20
100
AcDbLine
 10
-496.3314076687232
 20
2421.94514659684
 30
0.0
 11
-713.4564076687243
 21
2421.94514659684
 31
0.0
  0
LINE
  5
395
330
1F
100
AcDbEntity
  8
0-0_補助線
  6
JWW_HOJO
 62
     7
370
     9
100
AcDbLine
 10
-273.2064076687215
 20
2439.945146596838
 30
0.0
 11
-273.2064076687215
 21
2280.9445032533
 31
0.0
  0
LINE
  5
396
330
1F
100
AcDbEntity
  8
0-0_補助線
  6
JWW_HOJO
 62
     7
370
     9
100
AcDbLine
 10
-213.2064076687215
 20
2439.945146596838
 30
0.0
 11
-213.2064076687215
 21
2280.9445032533
 31
0.0
  0
LINE
  5
397
330
1F
100
AcDbEntity
  8
0-6_扉
  6
Continuous
 62
   200
370
    20
100
AcDbLine
 10
-490.3314076687192
 20
2421.94514659684
 30
0.0
 11
-273.2064076687215
 21
2421.94514659684
 31
0.0
  0
LINE
  5
398
330
1F
100
AcDbEntity
  8
0-6_扉
  6
Continuous
 62
   200
370
    20
100
AcDbLine
 10
-213.2064076687215
 20
2421.94514659684
 30
0.0
 11
3.918592331277182
 21
2421.94514659684
 31
0.0
  0
LINE
  5
399
330
1F
100
AcDbEntity
  8
0-0_補助線
  6
JWW_HOJO
 62
     7
370
     9
100
AcDbLine
 10
233.0435923312768
 20
2439.945146596838
 30
0.0
 11
233.0435923312768
 21
2280.9445032533
 31
0.0
  0
LINE
  5
39A
330
1F
100
AcDbEntity
  8
0-0_補助線
  6
JWW_HOJO
 62
     7
370
     9
100
AcDbLine
 10
293.0435923312768
 20
2439.945146596838
 30
0.0
 11
293.0435923312768
 21
2280.9445032533
 31
0.0
  0
LINE
  5
39B
330
1F
100
AcDbEntity
  8
0-6_扉
  6
Continuous
 62
   200
370
    20
100
AcDbLine
 10
15.91859233127565
 20
2421.94514659684
 30
0.0
 11
233.0435923312768
 21
2421.94514659684
 31
0.0
  0
LINE
  5
39C
330
1F
100
AcDbEntity
  8
0-6_扉
  6
Continuous
 62
   200
370
    20
100
AcDbLine
 10
293.0435923312768
 20
2421.94514659684
 30
0.0
 11
510.1685923312767
 21
2421.94514659684
 31
0.0
  0
LINE
  5
39D
330
1F
100
AcDbEntity
  8
0-0_補助線
  6
JWW_HOJO
 62
     7
370
     9
100
AcDbLine
 10
733.2935923312759
 20
2439.945146596838
 30
0.0
 11
733.2935923312759
 21
2280.9445032533
 31
0.0
  0
LINE
  5
39E
330
1F
100
AcDbEntity
  8
0-0_補助線
  6
JWW_HOJO
 62
     7
370
     9
100
AcDbLine
 10
793.2935923312759
 20
2439.945146596838
 30
0.0
 11
793.2935923312759
 21
2280.9445032533
 31
0.0
  0
LINE
  5
39F
330
1F
100
AcDbEntity
  8
0-6_扉
  6
Continuous
 62
   200
370
    20
100
AcDbLine
 10
516.1685923312751
 20
2421.94514659684
 30
0.0
 11
733.2935923312759
 21
2421.94514659684
 31
0.0
  0
LINE
  5
3A0
330
1F
100
AcDbEntity
  8
0-6_扉
  6
Continuous
 62
   200
370
    20
100
AcDbLine
 10
793.2935923312759
 20
2421.94514659684
 30
0.0
 11
1010.418592331286
 21
2421.94514659684
 31
0.0
  0
LINE
  5
3A1
330
1F
100
AcDbEntity
  8
0-0_補助線
  6
JWW_HOJO
 62
     7
370
     9
100
AcDbLine
 10
1239.543592331276
 20
2439.945146596838
 30
0.0
 11
1239.543592331276
 21
2280.9445032533
 31
0.0
  0
LINE
  5
3A2
330
1F
100
AcDbEntity
  8
0-0_補助線
  6
JWW_HOJO
 62
     7
370
     9
100
AcDbLine
 10
1299.543592331276
 20
2439.945146596838
 30
0.0
 11
1299.543592331276
 21
2280.9445032533
 31
0.0
  0
LINE
  5
3A3
330
1F
100
AcDbEntity
  8
0-6_扉
  6
Continuous
 62
   200
370
    20
100
AcDbLine
 10
1022.418592331276
 20
2421.94514659684
 30
0.0
 11
1239.543592331276
 21
2421.94514659684
 31
0.0
  0
LINE
  5
3A4
330
1F
100
AcDbEntity
  8
0-6_扉
  6
Continuous
 62
   200
370
    20
100
AcDbLine
 10
1299.543592331276
 20
2421.94514659684
 30
0.0
 11
1516.668592331276
 21
2421.94514659684
 31
0.0
  0
LINE
  5
3A5
330
1F
100
AcDbEntity
  8
0-0_補助線
  6
JWW_HOJO
 62
     7
370
     9
100
AcDbLine
 10
1739.793592331276
 20
2439.945146596838
 30
0.0
 11
1739.793592331276
 21
2280.9445032533
 31
0.0
  0
LINE
  5
3A6
330
1F
100
AcDbEntity
  8
0-0_補助線
  6
JWW_HOJO
 62
     7
370
     9
100
AcDbLine
 10
1799.793592331276
 20
2439.945146596838
 30
0.0
 11
1799.793592331276
 21
2280.9445032533
 31
0.0
  0
LINE
  5
3A7
330
1F
100
AcDbEntity
  8
0-6_扉
  6
Continuous
 62
   200
370
    20
100
AcDbLine
 10
1522.668592331275
 20
2421.94514659684
 30
0.0
 11
1739.793592331276
 21
2421.94514659684
 31
0.0
  0
LINE
  5
3A8
330
1F
100
AcDbEntity
  8
0-6_扉
  6
Continuous
 62
   200
370
    20
100
AcDbLine
 10
1799.793592331276
 20
2421.94514659684
 30
0.0
 11
2016.918592331286
 21
2421.94514659684
 31
0.0
  0
CIRCLE
  5
3A9
330
1F
100
AcDbEntity
  8
0-7_金物
  6
Continuous
 62
     7
370
     9
100
AcDbCircle
 10
-1499.831407668723
 20
2451.945146596815
 30
0.0
 40
21.00000000000001
  0
CIRCLE
  5
3AA
330
1F
100
AcDbEntity
  8
0-7_金物
  6
Continuous
 62
     7
370
     9
100
AcDbCircle
 10
-1499.831407668723
 20
2451.945146596815
 30
0.0
 40
30.0
  0
CIRCLE
  5
3AB
330
1F
100
AcDbEntity
  8
0-7_金物
  6
Continuous
 62
     7
370
     9
100
AcDbCircle
 10
-493.3314076687216
 20
2451.945146596815
 30
0.0
 40
21.00000000000001
  0
CIRCLE
  5
3AC
330
1F
100
AcDbEntity
  8
0-7_金物
  6
Continuous
 62
     7
370
     9
100
AcDbCircle
 10
-493.3314076687216
 20
2451.945146596815
 30
0.0
 40
30.0
  0
CIRCLE
  5
3AD
330
1F
100
AcDbEntity
  8
0-7_金物
  6
Continuous
 62
     7
370
     9
100
AcDbCircle
 10
1519.668592331277
 20
2451.945146596815
 30
0.0
 40
21.00000000000001
  0
CIRCLE
  5
3AE
330
1F
100
AcDbEntity
  8
0-7_金物
  6
Continuous
 62
     7
370
     9
100
AcDbCircle
 10
1519.668592331277
 20
2451.945146596815
 30
0.0
 40
30.0
  0
CIRCLE
  5
3AF
330
1F
100
AcDbEntity
  8
0-7_金物
  6
Continuous
 62
     7
370
     9
100
AcDbCircle
 10
513.1685923312766
 20
2451.945146596815
 30
0.0
 40
21.00000000000001
  0
CIRCLE
  5
3B0
330
1F
100
AcDbEntity
  8
0-7_金物
  6
Continuous
 62
     7
370
     9
100
AcDbCircle
 10
513.1685923312766
 20
2451.945146596815
 30
0.0
 40
30.0
  0
LWPOLYLINE
  5
3B1
330
1F
100
AcDbEntity
  8
0-B_寸法
  6
Continuous
 62
     7
370
     9
100
AcDbPolyline
 90
        4
 70
     1
 43
3.0
 10
-1169.770992761625
 20
2301.94514659684
 42
0.4142135623731
 10
-1171.270992761625
 20
2303.445146596839
 42
0.4142135623731
 10
-1172.770992761625
 20
2301.94514659684
 42
0.4142135623731
 10
-1171.270992761625
 20
2300.44514659684
 42
0.4142135623731
  0
LINE
  5
3B2
330
1F
100
AcDbEntity
  8
0-6_扉
  6
Continuous
 62
   200
370
    20
100
AcDbLine
 10
-1779.956407668723
 20
2301.94514659684
 30
0.0
 11
-1997.081407668722
 21
2301.94514659684
 31
0.0
  0
LINE
  5
3B3
330
1F
100
AcDbEntity
  8
0-6_扉
  6
Continuous
 62
   200
370
    20
100
AcDbLine
 10
-1502.831407668724
 20
2301.94514659684
 30
0.0
 11
-1719.956407668723
 21
2301.94514659684
 31
0.0
  0
LINE
  5
3B4
330
1F
100
AcDbEntity
  8
0-6_扉
  6
Continuous
 62
   200
370
    20
100
AcDbLine
 10
-1002.581407668723
 20
2301.94514659684
 30
0.0
 11
-1219.706407668724
 21
2301.94514659684
 31
0.0
  0
LINE
  5
3B5
330
1F
100
AcDbEntity
  8
0-6_扉
  6
Continuous
 62
   200
370
    20
100
AcDbLine
 10
-1279.706407668724
 20
2301.94514659684
 30
0.0
 11
-1496.831407668723
 21
2301.94514659684
 31
0.0
  0
LINE
  5
3B6
330
1F
100
AcDbEntity
  8
0-6_扉
  6
Continuous
 62
   200
370
    20
100
AcDbLine
 10
-773.4564076687243
 20
2301.94514659684
 30
0.0
 11
-990.5814076687229
 21
2301.94514659684
 31
0.0
  0
LINE
  5
3B7
330
1F
100
AcDbEntity
  8
0-6_扉
  6
Continuous
 62
   200
370
    20
100
AcDbLine
 10
-496.3314076687232
 20
2301.94514659684
 30
0.0
 11
-713.4564076687243
 21
2301.94514659684
 31
0.0
  0
LINE
  5
3B8
330
1F
100
AcDbEntity
  8
0-6_扉
  6
Continuous
 62
   200
370
    20
100
AcDbLine
 10
-490.3314076687192
 20
2301.94514659684
 30
0.0
 11
-273.2064076687215
 21
2301.94514659684
 31
0.0
  0
LINE
  5
3B9
330
1F
100
AcDbEntity
  8
0-6_扉
  6
Continuous
 62
   200
370
    20
100
AcDbLine
 10
-213.2064076687215
 20
2301.94514659684
 30
0.0
 11
3.918592331277182
 21
2301.94514659684
 31
0.0
  0
LINE
  5
3BA
330
1F
100
AcDbEntity
  8
0-6_扉
  6
Continuous
 62
   200
370
    20
100
AcDbLine
 10
15.91859233127565
 20
2301.94514659684
 30
0.0
 11
233.0435923312768
 21
2301.94514659684
 31
0.0
  0
LINE
  5
3BB
330
1F
100
AcDbEntity
  8
0-6_扉
  6
Continuous
 62
   200
370
    20
100
AcDbLine
 10
293.0435923312768
 20
2301.94514659684
 30
0.0
 11
510.1685923312767
 21
2301.94514659684
 31
0.0
  0
LINE
  5
3BC
330
1F
100
AcDbEntity
  8
0-6_扉
  6
Continuous
 62
   200
370
    20
100
AcDbLine
 10
516.1685923312751
 20
2301.94514659684
 30
0.0
 11
733.2935923312759
 21
2301.94514659684
 31
0.0
  0
LINE
  5
3BD
330
1F
100
AcDbEntity
  8
0-6_扉
  6
Continuous
 62
   200
370
    20
100
AcDbLine
 10
793.2935923312759
 20
2301.94514659684
 30
0.0
 11
1010.418592331286
 21
2301.94514659684
 31
0.0
  0
LINE
  5
3BE
330
1F
100
AcDbEntity
  8
0-6_扉
  6
Continuous
 62
   200
370
    20
100
AcDbLine
 10
1022.418592331276
 20
2301.94514659684
 30
0.0
 11
1239.543592331276
 21
2301.94514659684
 31
0.0
  0
LINE
  5
3BF
330
1F
100
AcDbEntity
  8
0-6_扉
  6
Continuous
 62
   200
370
    20
100
AcDbLine
 10
1299.543592331276
 20
2301.94514659684
 30
0.0
 11
1516.668592331276
 21
2301.94514659684
 31
0.0
  0
LINE
  5
3C0
330
1F
100
AcDbEntity
  8
0-6_扉
  6
Continuous
 62
   200
370
    20
100
AcDbLine
 10
1522.668592331275
 20
2301.94514659684
 30
0.0
 11
1739.793592331276
 21
2301.94514659684
 31
0.0
  0
LINE
  5
3C1
330
1F
100
AcDbEntity
  8
0-6_扉
  6
Continuous
 62
   200
370
    20
100
AcDbLine
 10
1799.793592331276
 20
2301.94514659684
 30
0.0
 11
2016.918592331286
 21
2301.94514659684
 31
0.0
  0
LINE
  5
3C2
330
1F
100
AcDbEntity
  8
0-B_寸法
  6
Continuous
 62
   120
370
     5
100
AcDbLine
 10
-1171.270992761625
 20
2421.94514659684
 30
0.0
 11
-1171.270992761625
 21
2301.94514659684
 31
0.0
  0
LINE
  5
3C3
330
1F
100
AcDbEntity
  8
0-6_扉
  6
Continuous
 62
   200
370
    20
100
AcDbLine
 10
-1997.081407668722
 20
2421.94514659684
 30
0.0
 11
-1997.081407668722
 21
2301.94514659684
 31
0.0
  0
LINE
  5
3C4
330
1F
100
AcDbEntity
  8
0-6_扉
  6
Continuous
 62
   200
370
    20
100
AcDbLine
 10
-1496.831407668723
 20
2421.94514659684
 30
0.0
 11
-1496.831407668723
 21
2301.94514659684
 31
0.0
  0
LINE
  5
3C5
330
1F
100
AcDbEntity
  8
0-6_扉
  6
Continuous
 62
   200
370
    20
100
AcDbLine
 10
-1502.831407668724
 20
2421.94514659684
 30
0.0
 11
-1502.831407668724
 21
2301.94514659684
 31
0.0
  0
LINE
  5
3C6
330
1F
100
AcDbEntity
  8
0-6_扉
  6
Continuous
 62
   200
370
    20
100
AcDbLine
 10
-990.5814076687229
 20
2421.94514659684
 30
0.0
 11
-990.5814076687229
 21
2301.94514659684
 31
0.0
  0
LINE
  5
3C7
330
1F
100
AcDbEntity
  8
0-6_扉
  6
Continuous
 62
   200
370
    20
100
AcDbLine
 10
-1002.581407668723
 20
2421.94514659684
 30
0.0
 11
-1002.581407668723
 21
2301.94514659684
 31
0.0
  0
LINE
  5
3C8
330
1F
100
AcDbEntity
  8
0-6_扉
  6
Continuous
 62
   200
370
    20
100
AcDbLine
 10
-490.3314076687192
 20
2421.94514659684
 30
0.0
 11
-490.3314076687192
 21
2301.94514659684
 31
0.0
  0
LINE
  5
3C9
330
1F
100
AcDbEntity
  8
0-6_扉
  6
Continuous
 62
   200
370
    20
100
AcDbLine
 10
-496.3314076687232
 20
2421.94514659684
 30
0.0
 11
-496.3314076687232
 21
2301.94514659684
 31
0.0
  0
LINE
  5
3CA
330
1F
100
AcDbEntity
  8
0-6_扉
  6
Continuous
 62
   200
370
    20
100
AcDbLine
 10
3.918592331277182
 20
2421.94514659684
 30
0.0
 11
3.918592331277182
 21
2301.94514659684
 31
0.0
  0
LINE
  5
3CB
330
1F
100
AcDbEntity
  8
0-6_扉
  6
Continuous
 62
   200
370
    20
100
AcDbLine
 10
15.91859233127565
 20
2421.94514659684
 30
0.0
 11
15.91859233127565
 21
2301.94514659684
 31
0.0
  0
LINE
  5
3CC
330
1F
100
AcDbEntity
  8
0-6_扉
  6
Continuous
 62
   200
370
    20
100
AcDbLine
 10
510.1685923312767
 20
2421.94514659684
 30
0.0
 11
510.1685923312767
 21
2301.94514659684
 31
0.0
  0
LINE
  5
3CD
330
1F
100
AcDbEntity
  8
0-6_扉
  6
Continuous
 62
   200
370
    20
100
AcDbLine
 10
516.1685923312751
 20
2421.94514659684
 30
0.0
 11
516.1685923312751
 21
2301.94514659684
 31
0.0
  0
LINE
  5
3CE
330
1F
100
AcDbEntity
  8
0-6_扉
  6
Continuous
 62
   200
370
    20
100
AcDbLine
 10
1010.418592331286
 20
2421.94514659684
 30
0.0
 11
1010.418592331286
 21
2301.94514659684
 31
0.0
  0
LINE
  5
3CF
330
1F
100
AcDbEntity
  8
0-6_扉
  6
Continuous
 62
   200
370
    20
100
AcDbLine
 10
1022.418592331276
 20
2421.94514659684
 30
0.0
 11
1022.418592331276
 21
2301.94514659684
 31
0.0
  0
LINE
  5
3D0
330
1F
100
AcDbEntity
  8
0-6_扉
  6
Continuous
 62
   200
370
    20
100
AcDbLine
 10
1516.668592331276
 20
2421.94514659684
 30
0.0
 11
1516.668592331276
 21
2301.94514659684
 31
0.0
  0
LINE
  5
3D1
330
1F
100
AcDbEntity
  8
0-6_扉
  6
Continuous
 62
   200
370
    20
100
AcDbLine
 10
1522.668592331275
 20
2421.94514659684
 30
0.0
 11
1522.668592331275
 21
2301.94514659684
 31
0.0
  0
LINE
  5
3D2
330
1F
100
AcDbEntity
  8
0-6_扉
  6
Continuous
 62
   200
370
    20
100
AcDbLine
 10
2016.918592331286
 20
2421.94514659684
 30
0.0
 11
2016.918592331286
 21
2301.94514659684
 31
0.0
  0
LWPOLYLINE
  5
3D3
330
1F
100
AcDbEntity
  8
0-B_寸法
  6
Continuous
 62
     7
370
     9
100
AcDbPolyline
 90
        4
 70
     1
 43
3.0
 10
-1872.581152235161
 20
-1244.819842757105
 42
0.4142135623731
 10
-1874.08115223516
 20
-1243.319842757105
 42
0.4142135623731
 10
-1875.58115223516
 20
-1244.819842757105
 42
0.4142135623731
 10
-1874.08115223516
 20
-1246.319842757104
 42
0.4142135623731
  0
LINE
  5
3D4
330
1F
100
AcDbEntity
  8
0-B_寸法
  6
Continuous
 62
   120
370
     5
100
AcDbLine
 10
-1874.08115223516
 20
-1160.582914178132
 30
0.0
 11
-1874.08115223516
 21
-1244.819842757105
 31
0.0
  0
LINE
  5
3D5
330
1F
100
AcDbEntity
  8
0-6_扉
  6
Continuous
 62
   200
370
    20
100
AcDbLine
 10
-1874.08115223516
 20
-642.8298055091637
 30
0.0
 11
-1874.08115223516
 21
-1881.830386786624
 31
0.0
  0
LINE
  5
3D6
330
1F
100
AcDbEntity
  8
0-6_扉
  6
Continuous
 62
   200
370
    20
100
AcDbLine
 10
-1874.081152235161
 20
-3004.432628160862
 30
0.0
 11
-1874.081152235161
 21
-3240.830676291215
 31
0.0
  0
LWPOLYLINE
  5
3D7
330
1F
100
AcDbEntity
  8
0-B_寸法
  6
Continuous
 62
     7
370
     9
100
AcDbPolyline
 90
        4
 70
     1
 43
3.0
 10
-1992.581152235161
 20
-1244.819842757105
 42
0.4142135623731
 10
-1994.081152235161
 20
-1243.319842757105
 42
0.4142135623731
 10
-1995.581152235161
 20
-1244.819842757105
 42
0.4142135623731
 10
-1994.081152235161
 20
-1246.319842757104
 42
0.4142135623731
  0
LINE
  5
3D8
330
1F
100
AcDbEntity
  8
0-B_寸法
  6
Continuous
 62
   120
370
     5
100
AcDbLine
 10
-1994.081152235161
 20
-1160.582914178132
 30
0.0
 11
-1994.081152235161
 21
-1244.819842757105
 31
0.0
  0
LINE
  5
3D9
330
1F
100
AcDbEntity
  8
0-6_扉
  6
Continuous
 62
   200
370
    20
100
AcDbLine
 10
-1994.081152235161
 20
-642.8298055091637
 30
0.0
 11
-1994.081152235161
 21
-1881.830386786624
 31
0.0
  0
LINE
  5
3DA
330
1F
100
AcDbEntity
  8
0-6_扉
  6
Continuous
 62
   200
370
    20
100
AcDbLine
 10
-1994.081152235161
 20
-3004.432628160862
 30
0.0
 11
-1994.081152235161
 21
-3240.830676291215
 31
0.0
  0
LINE
  5
3DB
330
1F
100
AcDbEntity
  8
0-6_扉
  6
Continuous
 62
   200
370
    20
100
AcDbLine
 10
-1994.081152235161
 20
-642.8298055091637
 30
0.0
 11
-1874.08115223516
 21
-642.8298055091637
 31
0.0
  0
LINE
  5
3DC
330
1F
100
AcDbEntity
  8
0-B_寸法
  6
Continuous
 62
   120
370
     5
100
AcDbLine
 10
-1994.081152235161
 20
-1244.819842757105
 30
0.0
 11
-1874.08115223516
 21
-1244.819842757105
 31
0.0
  0
LINE
  5
3DD
330
1F
100
AcDbEntity
  8
0-6_扉
  6
Continuous
 62
   200
370
    20
100
AcDbLine
 10
-1994.081152235161
 20
-2001.830386786624
 30
0.0
 11
-1994.081152235161
 21
-3240.830676291215
 31
0.0
  0
LINE
  5
3DE
330
1F
100
AcDbEntity
  8
0-6_扉
  6
Continuous
 62
   200
370
    20
100
AcDbLine
 10
-1874.081152235161
 20
-3240.830676291215
 30
0.0
 11
-1994.081152235161
 21
-3240.830676291215
 31
0.0
  0
LINE
  5
3DF
330
1F
100
AcDbEntity
  8
0-6_扉
  6
Continuous
 62
   200
370
    20
100
AcDbLine
 10
-1874.081152235161
 20
-2001.830386786624
 30
0.0
 11
-1874.081152235161
 21
-3240.830676291215
 31
0.0
  0
LINE
  5
3E0
330
1F
100
AcDbEntity
  8
1-E
  6
JWW_DASHED2
 62
     7
370
     9
100
AcDbLine
 10
2735.56145605783
 20
-829.982576968812
 30
0.0
 11
2735.56145605783
 21
-2476.985558114811
 31
0.0
  0
LINE
  5
3E1
330
1F
100
AcDbEntity
  8
1-E
  6
JWW_DASHED2
 62
     7
370
     9
100
AcDbLine
 10
3035.56145605783
 20
-2476.985558114811
 30
0.0
 11
2735.56145605783
 21
-2476.985558114811
 31
0.0
  0
LINE
  5
3E2
330
1F
100
AcDbEntity
  8
1-E
  6
JWW_DASHED2
 62
     7
370
     9
100
AcDbLine
 10
3035.56145605783
 20
-829.982576968812
 30
0.0
 11
3035.56145605783
 21
-2476.985558114811
 31
0.0
  0
ENDSEC
  0
SECTION
  2
OBJECTS
  0
DICTIONARY
  5
C
330
0
100
AcDbDictionary
281
     1
  3
ACAD_GROUP
350
D
  3
ACAD_LAYOUT
350
1A
  3
ACAD_MATERIAL
350
3B
  3
ACAD_MLEADERSTYLE
350
3E4
  3
ACAD_MLINESTYLE
350
17
  3
ACAD_PLOTSETTINGS
350
19
  3
ACAD_PLOTSTYLENAME
350
E
  3
ACAD_TABLESTYLE
350
3E3
  3
ACAD_VISUALSTYLE
350
2A
  0
DICTIONARY
  5
D
102
{ACAD_REACTORS
330
C
102
}
330
C
100
AcDbDictionary
281
     1
  0
DICTIONARY
  5
1A
102
{ACAD_REACTORS
330
C
102
}
330
C
100
AcDbDictionary
281
     1
  3
Layout1
350
1E
  3
Layout2
350
26
  3
Model
350
22
  0
DICTIONARY
  5
3B
102
{ACAD_REACTORS
330
C
102
}
330
C
100
AcDbDictionary
281
     1
  3
ByBlock
350
3D
  3
ByLayer
350
3C
  3
Global
350
3E
  0
DICTIONARY
  5
3E4
102
{ACAD_REACTORS
330
C
102
}
330
C
100
AcDbDictionary
281
     1
  0
DICTIONARY
  5
17
102
{ACAD_REACTORS
330
C
102
}
330
C
100
AcDbDictionary
281
     1
  3
Standard
350
18
  0
DICTIONARY
  5
19
102
{ACAD_REACTORS
330
C
102
}
330
C
100
AcDbDictionary
281
     1
  0
ACDBDICTIONARYWDFLT
  5
E
102
{ACAD_REACTORS
330
C
102
}
330
C
100
AcDbDictionary
281
     1
  3
Normal
350
F
100
AcDbDictionaryWithDefault
340
F
  0
DICTIONARY
  5
3E3
102
{ACAD_REACTORS
330
C
102
}
330
C
100
AcDbDictionary
281
     1
  0
DICTIONARY
  5
2A
102
{ACAD_REACTORS
330
C
102
}
330
C
100
AcDbDictionary
281
     1
  3
2dWireframe
350
2F
  3
3D Hidden
350
31
  3
3dWireframe
350
30
  3
Basic
350
32
  3
Brighten
350
36
  3
ColorChange
350
3A
  3
Conceptual
350
34
  3
Dim
350
35
  3
Facepattern
350
39
  3
Flat
350
2B
  3
FlatWithEdges
350
2C
  3
Gouraud
350
2D
  3
GouraudWithEdges
350
2E
  3
Linepattern
350
38
  3
Realistic
350
33
  3
Thicken
350
37
  0
LAYOUT
  5
1E
102
{ACAD_REACTORS
330
1A
102
}
330
1A
100
AcDbPlotSettings
  1

  2
none_device
  4

  6

 40
0.0
 41
0.0
 42
0.0
 43
0.0
 44
0.0
 45
0.0
 46
0.0
 47
0.0
 48
0.0
 49
0.0
140
0.0
141
0.0
142
1.0
143
1.0
 70
   688
 72
     0
 73
     0
 74
     5
  7

 75
    16
 76
     0
 77
     5
 78
   300
147
1.0
148
0.0
149
0.0
100
AcDbLayout
  1
Layout1
 70
     1
 71
     1
 10
0.0
 20
0.0
 11
420.0
 21
297.0
 12
0.0
 22
0.0
 32
0.0
 14
1.000000000000000E+20
 24
1.000000000000000E+20
 34
1.000000000000000E+20
 15
-1.000000000000000E+20
 25
-1.000000000000000E+20
 35
-1.000000000000000E+20
146
0.0
 13
0.0
 23
0.0
 33
0.0
 16
1.0
 26
0.0
 36
0.0
 17
0.0
 27
1.0
 37
0.0
 76
     0
330
1B
  0
LAYOUT
  5
26
102
{ACAD_REACTORS
330
1A
102
}
330
1A
100
AcDbPlotSettings
  1

  2
none_device
  4

  6

 40
0.0
 41
0.0
 42
0.0
 43
0.0
 44
0.0
 45
0.0
 46
0.0
 47
0.0
 48
0.0
 49
0.0
140
0.0
141
0.0
142
1.0
143
1.0
 70
   688
 72
     0
 73
     0
 74
     5
  7

 75
    16
 76
     0
 77
     5
 78
   300
147
1.0
148
0.0
149
0.0
100
AcDbLayout
  1
Layout2
 70
     1
 71
     2
 10
0.0
 20
0.0
 11
0.0
 21
0.0
 12
0.0
 22
0.0
 32
0.0
 14
0.0
 24
0.0
 34
0.0
 15
0.0
 25
0.0
 35
0.0
146
0.0
 13
0.0
 23
0.0
 33
0.0
 16
1.0
 26
0.0
 36
0.0
 17
0.0
 27
1.0
 37
0.0
 76
     0
330
23
  0
LAYOUT
  5
22
102
{ACAD_REACTORS
330
1A
102
}
330
1A
100
AcDbPlotSettings
  1

  2
none_device
  4

  6

 40
0.0
 41
0.0
 42
0.0
 43
0.0
 44
0.0
 45
0.0
 46
0.0
 47
0.0
 48
0.0
 49
0.0
140
0.0
141
0.0
142
1.0
143
1.0
 70
  1712
 72
     0
 73
     0
 74
     0
  7

 75
     0
 76
     0
 77
     5
 78
   300
147
1.0
148
0.0
149
0.0
100
AcDbLayout
  1
Model
 70
     1
 71
     0
 10
-6300.0
 20
-4455.0
 11
6300.0
 21
4455.0
 12
0.0
 22
0.0
 32
0.0
 14
-6300.0
 24
-4455.0
 34
0.0
 15
6300.0
 25
4455.0
 35
0.0
146
0.0
 13
0.0
 23
0.0
 33
0.0
 16
1.0
 26
0.0
 36
0.0
 17
0.0
 27
1.0
 37
0.0
 76
     0
330
1F
331
29
  0
MATERIAL
  5
3D
102
{ACAD_REACTORS
330
3B
102
}
330
3B
100
AcDbMaterial
  1
ByBlock
 72
     1
 94
      127
  0
MATERIAL
  5
3C
102
{ACAD_REACTORS
330
3B
102
}
330
3B
100
AcDbMaterial
  1
ByLayer
 72
     1
 94
      127
  0
MATERIAL
  5
3E
102
{ACAD_REACTORS
330
3B
102
}
330
3B
100
AcDbMaterial
  1
Global
 72
     1
 94
      127
  0
MLINESTYLE
  5
18
102
{ACAD_REACTORS
330
17
102
}
330
17
100
AcDbMlineStyle
  2
Standard
 70
     0
  3

 62
   256
 51
90.0
 52
90.0
 71
     2
 49
0.5
 62
   256
  6
BYLAYER
 49
-0.5
 62
   256
  6
BYLAYER
  0
ACDBPLACEHOLDER
  5
F
102
{ACAD_REACTORS
330
E
102
}
330
E
  0
VISUALSTYLE
  5
2F
102
{ACAD_REACTORS
330
2A
102
}
330
2A
100
AcDbVisualStyle
  2
2dWireframe
 70
     4
177
     2
291
     0
 71
     0
176
     1
 72
     2
176
     1
 73
     0
176
     1
 90
        0
176
     1
 40
-0.6
176
     1
 41
-30.0
176
     1
 62
     5
 63
     7
421
 16777215
176
     1
 74
     1
176
     1
 91
        4
176
     1
 64
     7
176
     1
 65
   257
176
     1
 75
     1
176
     1
175
     1
176
     1
 42
1.0
176
     1
 92
        0
176
     1
 66
   257
176
     1
 43
1.0
176
     1
 76
     1
176
     1
 77
     6
176
     1
 78
     2
176
     1
 67
     7
176
     1
 79
     5
176
     1
170
     0
176
     1
171
     0
176
     1
290
     0
176
     1
 93
        1
176
     1
 44
0.0
176
     1
173
     0
176
     1
  0
VISUALSTYLE
  5
31
102
{ACAD_REACTORS
330
2A
102
}
330
2A
100
AcDbVisualStyle
  2
3D Hidden
 70
     6
177
     2
291
     0
 71
     1
176
     1
 72
     2
176
     1
 73
     2
176
     1
 90
        0
176
     1
 40
-0.6
176
     1
 41
-30.0
176
     1
 62
     5
 63
     7
421
 16777215
176
     1
 74
     2
176
     1
 91
        2
176
     1
 64
     7
176
     1
 65
   257
176
     1
 75
     2
176
     1
175
     1
176
     1
 42
40.0
176
     1
 92
        0
176
     1
 66
   257
176
     1
 43
1.0
176
     1
 76
     1
176
     1
 77
     6
176
     1
 78
     2
176
     1
 67
     7
176
     1
 79
     3
176
     1
170
     0
176
     1
171
     0
176
     1
290
     0
176
     1
 93
        1
176
     1
 44
0.0
176
     1
173
     0
176
     1
  0
VISUALSTYLE
  5
30
102
{ACAD_REACTORS
330
2A
102
}
330
2A
100
AcDbVisualStyle
  2
3dWireframe
 70
     5
177
     2
291
     0
 71
     0
176
     1
 72
     2
176
     1
 73
     0
176
     1
 90
        0
176
     1
 40
-0.6
176
     1
 41
-30.0
176
     1
 62
     5
 63
     7
421
 16777215
176
     1
 74
     1
176
     1
 91
        4
176
     1
 64
     7
176
     1
 65
   257
176
     1
 75
     1
176
     1
175
     1
176
     1
 42
1.0
176
     1
 92
        0
176
     1
 66
   257
176
     1
 43
1.0
176
     1
 76
     1
176
     1
 77
     6
176
     1
 78
     2
176
     1
 67
     7
176
     1
 79
     5
176
     1
170
     0
176
     1
171
     0
176
     1
290
     0
176
     1
 93
        1
176
     1
 44
0.0
176
     1
173
     0
176
     1
  0
VISUALSTYLE
  5
32
102
{ACAD_REACTORS
330
2A
102
}
330
2A
100
AcDbVisualStyle
  2
Basic
 70
     7
177
     2
291
     1
 71
     1
176
     1
 72
     0
176
     1
 73
     1
176
     1
 90
        0
176
     1
 40
-0.6
176
     1
 41
-30.0
176
     1
 62
     5
 63
     7
421
 16777215
176
     1
 74
     0
176
     1
 91
        4
176
     1
 64
     7
176
     1
 65
   257
176
     1
 75
     1
176
     1
175
     1
176
     1
 42
1.0
176
     1
 92
        8
176
     1
 66
     7
176
     1
 43
1.0
176
     1
 76
     1
176
     1
 77
     6
176
     1
 78
     2
176
     1
 67
     7
176
     1
 79
     5
176
     1
170
     0
176
     1
171
     0
176
     1
290
     0
176
     1
 93
        1
176
     1
 44
0.0
176
     1
173
     0
176
     1
  0
VISUALSTYLE
  5
36
102
{ACAD_REACTORS
330
2A
102
}
330
2A
100
AcDbVisualStyle
  2
Brighten
 70
    12
177
     2
291
     1
 71
     2
176
     1
 72
     2
176
     1
 73
     0
176
     1
 90
        0
176
     1
 40
-0.6
176
     1
 41
-30.0
176
     1
 62
     5
 63
     7
421
 16777215
176
     1
 74
     1
176
     1
 91
        4
176
     1
 64
     7
176
     1
 65
   257
176
     1
 75
     1
176
     1
175
     1
176
     1
 42
1.0
176
     1
 92
        8
176
     1
 66
     7
176
     1
 43
1.0
176
     1
 76
     1
176
     1
 77
     6
176
     1
 78
     2
176
     1
 67
     7
176
     1
 79
     5
176
     1
170
     0
176
     1
171
     0
176
     1
290
     0
176
     1
 93
        1
176
     1
 44
50.0
176
     1
173
     0
176
     1
  0
VISUALSTYLE
  5
3A
102
{ACAD_REACTORS
330
2A
102
}
330
2A
100
AcDbVisualStyle
  2
ColorChange
 70
    16
177
     2
291
     1
 71
     2
176
     1
 72
     2
176
     1
 73
     3
176
     1
 90
        0
176
     1
 40
-0.6
176
     1
 41
-30.0
176
     1
 62
     5
 63
     8
421
  8421504
176
     1
 74
     1
176
     1
 91
        4
176
     1
 64
     7
176
     1
 65
   257
176
     1
 75
     1
176
     1
175
     1
176
     1
 42
1.0
176
     1
 92
        8
176
     1
 66
     8
424
  8421504
176
     1
 43
1.0
176
     1
 76
     1
176
     1
 77
     6
176
     1
 78
     2
176
     1
 67
     7
176
     1
 79
     5
176
     1
170
     0
176
     1
171
     0
176
     1
290
     0
176
     1
 93
        1
176
     1
 44
0.0
176
     1
173
     0
176
     1
  0
VISUALSTYLE
  5
34
102
{ACAD_REACTORS
330
2A
102
}
330
2A
100
AcDbVisualStyle
  2
Conceptual
 70
     9
177
     2
291
     0
 71
     3
176
     1
 72
     2
176
     1
 73
     0
176
     1
 90
        0
176
     1
 40
-0.6
176
     1
 41
-30.0
176
     1
 62
     5
 63
     7
421
 16777215
176
     1
 74
     2
176
     1
 91
        2
176
     1
 64
     7
176
     1
 65
   257
176
     1
 75
     1
176
     1
175
     1
176
     1
 42
40.0
176
     1
 92
        8
176
     1
 66
     7
176
     1
 43
1.0
176
     1
 76
     1
176
     1
 77
     6
176
     1
 78
     2
176
     1
 67
     7
176
     1
 79
     3
176
     1
170
     0
176
     1
171
     0
176
     1
290
     0
176
     1
 93
        1
176
     1
 44
0.0
176
     1
173
     0
176
     1
  0
VISUALSTYLE
  5
35
102
{ACAD_REACTORS
330
2A
102
}
330
2A
100
AcDbVisualStyle
  2
Dim
 70
    11
177
     2
291
     1
 71
     2
176
     1
 72
     2
176
     1
 73
     0
176
     1
 90
        0
176
     1
 40
-0.6
176
     1
 41
-30.0
176
     1
 62
     5
 63
     7
421
 16777215
176
     1
 74
     1
176
     1
 91
        4
176
     1
 64
     7
176
     1
 65
   257
176
     1
 75
     1
176
     1
175
     1
176
     1
 42
1.0
176
     1
 92
        8
176
     1
 66
     7
176
     1
 43
1.0
176
     1
 76
     1
176
     1
 77
     6
176
     1
 78
     2
176
     1
 67
     7
176
     1
 79
     5
176
     1
170
     0
176
     1
171
     0
176
     1
290
     0
176
     1
 93
        1
176
     1
 44
-50.0
176
     1
173
     0
176
     1
  0
VISUALSTYLE
  5
39
102
{ACAD_REACTORS
330
2A
102
}
330
2A
100
AcDbVisualStyle
  2
Facepattern
 70
    15
177
     2
291
     1
 71
     2
176
     1
 72
     2
176
     1
 73
     0
176
     1
 90
        0
176
     1
 40
-0.6
176
     1
 41
-30.0
176
     1
 62
     5
 63
     7
421
 16777215
176
     1
 74
     1
176
     1
 91
        4
176
     1
 64
     7
176
     1
 65
   257
176
     1
 75
     1
176
     1
175
     1
176
     1
 42
1.0
176
     1
 92
        8
176
     1
 66
     7
176
     1
 43
1.0
176
     1
 76
     1
176
     1
 77
     6
176
     1
 78
     2
176
     1
 67
     7
176
     1
 79
     5
176
     1
170
     0
176
     1
171
     0
176
     1
290
     0
176
     1
 93
        1
176
     1
 44
0.0
176
     1
173
     0
176
     1
  0
VISUALSTYLE
  5
2B
102
{ACAD_REACTORS
330
2A
102
}
330
2A
100
AcDbVisualStyle
  2
Flat
 70
     0
177
     2
291
     1
 71
     2
176
     1
 72
     1
176
     1
 73
     1
176
     1
 90
        2
176
     1
 40
-0.6
176
     1
 41
30.0
176
     1
 62
     5
 63
     7
421
 16777215
176
     1
 74
     0
176
     1
 91
        4
176
     1
 64
     7
176
     1
 65
   257
176
     1
 75
     1
176
     1
175
     1
176
     1
 42
1.0
176
     1
 92
        8
176
     1
 66
     7
176
     1
 43
1.0
176
     1
 76
     1
176
     1
 77
     6
176
     1
 78
     2
176
     1
 67
     7
176
     1
 79
     5
176
     1
170
     0
176
     1
171
     0
176
     1
290
     0
176
     1
 93
       13
176
     1
 44
0.0
176
     1
173
     0
176
     1
  0
VISUALSTYLE
  5
2C
102
{ACAD_REACTORS
330
2A
102
}
330
2A
100
AcDbVisualStyle
  2
FlatWithEdges
 70
     1
177
     2
291
     1
 71
     2
176
     1
 72
     1
176
     1
 73
     1
176
     1
 90
        2
176
     1
 40
-0.6
176
     1
 41
30.0
176
     1
 62
     5
 63
     7
421
 16777215
176
     1
 74
     1
176
     1
 91
        4
176
     1
 64
     7
176
     1
 65
   257
176
     1
 75
     1
176
     1
175
     1
176
     1
 42
1.0
176
     1
 92
        0
176
     1
 66
   257
176
     1
 43
1.0
176
     1
 76
     1
176
     1
 77
     6
176
     1
 78
     2
176
     1
 67
     7
176
     1
 79
     5
176
     1
170
     0
176
     1
171
     0
176
     1
290
     0
176
     1
 93
       13
176
     1
 44
0.0
176
     1
173
     0
176
     1
  0
VISUALSTYLE
  5
2D
102
{ACAD_REACTORS
330
2A
102
}
330
2A
100
AcDbVisualStyle
  2
Gouraud
 70
     2
177
     2
291
     1
 71
     2
176
     1
 72
     2
176
     1
 73
     1
176
     1
 90
        2
176
     1
 40
-0.6
176
     1
 41
30.0
176
     1
 62
     5
 63
     7
421
 16777215
176
     1
 74
     0
176
     1
 91
        4
176
     1
 64
     7
176
     1
 65
   257
176
     1
 75
     1
176
     1
175
     1
176
     1
 42
1.0
176
     1
 92
        0
176
     1
 66
     7
176
     1
 43
1.0
176
     1
 76
     1
176
     1
 77
     6
176
     1
 78
     2
176
     1
 67
     7
176
     1
 79
     5
176
     1
170
     0
176
     1
171
     0
176
     1
290
     0
176
     1
 93
       13
176
     1
 44
0.0
176
     1
173
     0
176
     1
  0
VISUALSTYLE
  5
2E
102
{ACAD_REACTORS
330
2A
102
}
330
2A
100
AcDbVisualStyle
  2
GouraudWithEdges
 70
     3
177
     2
291
     1
 71
     2
176
     1
 72
     2
176
     1
 73
     1
176
     1
 90
        2
176
     1
 40
-0.6
176
     1
 41
30.0
176
     1
 62
     5
 63
     7
421
 16777215
176
     1
 74
     1
176
     1
 91
        4
176
     1
 64
     7
176
     1
 65
   257
176
     1
 75
     1
176
     1
175
     1
176
     1
 42
1.0
176
     1
 92
        0
176
     1
 66
   257
176
     1
 43
1.0
176
     1
 76
     1
176
     1
 77
     6
176
     1
 78
     2
176
     1
 67
     7
176
     1
 79
     5
176
     1
170
     0
176
     1
171
     0
176
     1
290
     0
176
     1
 93
       13
176
     1
 44
0.0
176
     1
173
     0
176
     1
  0
VISUALSTYLE
  5
38
102
{ACAD_REACTORS
330
2A
102
}
330
2A
100
AcDbVisualStyle
  2
Linepattern
 70
    14
177
     2
291
     1
 71
     2
176
     1
 72
     2
176
     1
 73
     0
176
     1
 90
        0
176
     1
 40
-0.6
176
     1
 41
-30.0
176
     1
 62
     5
 63
     7
421
 16777215
176
     1
 74
     1
176
     1
 91
        4
176
     1
 64
     7
176
     1
 65
   257
176
     1
 75
     7
176
     1
175
     7
176
     1
 42
1.0
176
     1
 92
        8
176
     1
 66
     7
176
     1
 43
1.0
176
     1
 76
     1
176
     1
 77
     6
176
     1
 78
     2
176
     1
 67
     7
176
     1
 79
     5
176
     1
170
     0
176
     1
171
     0
176
     1
290
     0
176
     1
 93
        1
176
     1
 44
0.0
176
     1
173
     0
176
     1
  0
VISUALSTYLE
  5
33
102
{ACAD_REACTORS
330
2A
102
}
330
2A
100
AcDbVisualStyle
  2
Realistic
 70
     8
177
     2
291
     0
 71
     2
176
     1
 72
     2
176
     1
 73
     0
176
     1
 90
        0
176
     1
 40
-0.6
176
     1
 41
-30.0
176
     1
 62
     5
 63
     7
421
 16777215
176
     1
 74
     1
176
     1
 91
        0
176
     1
 64
     7
176
     1
 65
   257
176
     1
 75
     1
176
     1
175
     1
176
     1
 42
1.0
176
     1
 92
        8
176
     1
 66
     8
424
  7895160
176
     1
 43
1.0
176
     1
 76
     1
176
     1
 77
     6
176
     1
 78
     2
176
     1
 67
     7
176
     1
 79
     5
176
     1
170
     0
176
     1
171
     0
176
     1
290
     0
176
     1
 93
       13
176
     1
 44
0.0
176
     1
173
     0
176
     1
  0
VISUALSTYLE
  5
37
102
{ACAD_REACTORS
330
2A
102
}
330
2A
100
AcDbVisualStyle
  2
Thicken
 70
    13
177
     2
291
     1
 71
     2
176
     1
 72
     2
176
     1
 73
     0
176
     1
 90
        0
176
     1
 40
-0.6
176
     1
 41
-30.0
176
     1
 62
     5
 63
     7
421
 16777215
176
     1
 74
     1
176
     1
 91
        4
176
     1
 64
     7
176
     1
 65
   257
176
     1
 75
     1
176
     1
175
     1
176
     1
 42
1.0
176
     1
 92
       12
176
     1
 66
     7
176
     1
 43
1.0
176
     1
 76
     1
176
     1
 77
     6
176
     1
 78
     2
176
     1
 67
     7
176
     1
 79
     5
176
     1
170
     0
176
     1
171
     0
176
     1
290
     0
176
     1
 93
        1
176
     1
 44
0.0
176
     1
173
     0
176
     1
  0
ENDSEC
  0
EOF
