  0
SECTION
  2
HEADER
  9
$ACADVER
  1
AC1024
  9
$ACADMAINTVER
 70
     6
  9
$DWGCODEPAGE
  3
ANSI_932
  9
$INSBASE
 10
0.0
 20
0.0
 30
0.0
  9
$EXTMIN
 10
-6300.0
 20
-4455.0
 30
0.0
  9
$EXTMAX
 10
6300.0
 20
4455.0
 30
0.0
  9
$LIMMIN
 10
-6300.0
 20
-4455.0
  9
$LIMMAX
 10
6300.0
 20
4455.0
  9
$ORTHOMODE
 70
     0
  9
$REGENMODE
 70
     1
  9
$FILLMODE
 70
     1
  9
$QTEXTMODE
 70
     0
  9
$MIRRTEXT
 70
     1
  9
$LTSCALE
 40
30.0
  9
$ATTMODE
 70
     1
  9
$TEXTSIZE
 40
2.5
  9
$TRACEWID
 40
1.0
  9
$TEXTSTYLE
  7
Standard
  9
$CLAYER
  8
0
  9
$CELTYPE
  6
ByLayer
  9
$CECOLOR
 62
   256
  9
$CELTSCALE
 40
1.0
  9
$DISPSILH
 70
     0
  9
$DIMSCALE
 40
1.0
  9
$DIMASZ
 40
2.5
  9
$DIMEXO
 40
0.625
  9
$DIMDLI
 40
3.75
  9
$DIMRND
 40
0.0
  9
$DIMDLE
 40
0.0
  9
$DIMEXE
 40
1.25
  9
$DIMTP
 40
0.0
  9
$DIMTM
 40
0.0
  9
$DIMTXT
 40
2.5
  9
$DIMCEN
 40
2.5
  9
$DIMTSZ
 40
0.0
  9
$DIMTOL
 70
     0
  9
$DIMLIM
 70
     0
  9
$DIMTIH
 70
     0
  9
$DIMTOH
 70
     0
  9
$DIMSE1
 70
     0
  9
$DIMSE2
 70
     0
  9
$DIMTAD
 70
     1
  9
$DIMZIN
 70
     8
  9
$DIMBLK
  1

  9
$DIMASO
 70
     1
  9
$DIMSHO
 70
     1
  9
$DIMPOST
  1

  9
$DIMAPOST
  1

  9
$DIMALT
 70
     0
  9
$DIMALTD
 70
     3
  9
$DIMALTF
 40
0.03937007874016
  9
$DIMLFAC
 40
1.0
  9
$DIMTOFL
 70
     1
  9
$DIMTVP
 40
0.0
  9
$DIMTIX
 70
     0
  9
$DIMSOXD
 70
     0
  9
$DIMSAH
 70
     0
  9
$DIMBLK1
  1

  9
$DIMBLK2
  1

  9
$DIMSTYLE
  2
ISO-25
  9
$DIMCLRD
 70
     0
  9
$DIMCLRE
 70
     0
  9
$DIMCLRT
 70
     0
  9
$DIMTFAC
 40
1.0
  9
$DIMGAP
 40
0.625
  9
$DIMJUST
 70
     0
  9
$DIMSD1
 70
     0
  9
$DIMSD2
 70
     0
  9
$DIMTOLJ
 70
     0
  9
$DIMTZIN
 70
     8
  9
$DIMALTZ
 70
     0
  9
$DIMALTTZ
 70
     0
  9
$DIMUPT
 70
     0
  9
$DIMDEC
 70
     2
  9
$DIMTDEC
 70
     2
  9
$DIMALTU
 70
     2
  9
$DIMALTTD
 70
     3
  9
$DIMTXSTY
  7
Standard
  9
$DIMAUNIT
 70
     0
  9
$DIMADEC
 70
     0
  9
$DIMALTRND
 40
0.0
  9
$DIMAZIN
 70
     0
  9
$DIMDSEP
 70
    44
  9
$DIMATFIT
 70
     3
  9
$DIMFRAC
 70
     0
  9
$DIMLDRBLK
  1

  9
$DIMLUNIT
 70
     2
  9
$DIMLWD
 70
    -2
  9
$DIMLWE
 70
    -2
  9
$DIMTMOVE
 70
     0
  9
$DIMFXL
 40
1.0
  9
$DIMFXLON
 70
     0
  9
$DIMJOGANG
 40
0.7853981633974483
  9
$DIMTFILL
 70
     0
  9
$DIMTFILLCLR
 70
     0
  9
$DIMARCSYM
 70
     0
  9
$DIMLTYPE
  6

  9
$DIMLTEX1
  6

  9
$DIMLTEX2
  6

  9
$DIMTXTDIRECTION
 70
     0
  9
$LUNITS
 70
     2
  9
$LUPREC
 70
     4
  9
$SKETCHINC
 40
1.0
  9
$FILLETRAD
 40
10.0
  9
$AUNITS
 70
     0
  9
$AUPREC
 70
     0
  9
$MENU
  1
.
  9
$ELEVATION
 40
0.0
  9
$PELEVATION
 40
0.0
  9
$THICKNESS
 40
0.0
  9
$LIMCHECK
 70
     0
  9
$CHAMFERA
 40
10.0
  9
$CHAMFERB
 40
10.0
  9
$CHAMFERC
 40
20.0
  9
$CHAMFERD
 40
0.0
  9
$SKPOLY
 70
     0
  9
$TDCREATE
 40
2460327.686761898
  9
$TDUCREATE
 40
2460327.311761898
  9
$TDUPDATE
 40
2460327.68676191
  9
$TDUUPDATE
 40
2460327.31176191
  9
$TDINDWG
 40
0.0000000116
  9
$TDUSRTIMER
 40
0.0000000116
  9
$USRTIMER
 70
     1
  9
$ANGBASE
 50
0.0
  9
$ANGDIR
 70
     0
  9
$PDMODE
 70
     0
  9
$PDSIZE
 40
0.0
  9
$PLINEWID
 40
0.0
  9
$SPLFRAME
 70
     0
  9
$SPLINETYPE
 70
     6
  9
$SPLINESEGS
 70
     8
  9
$HANDSEED
  5
38C
  9
$SURFTAB1
 70
     6
  9
$SURFTAB2
 70
     6
  9
$SURFTYPE
 70
     6
  9
$SURFU
 70
     6
  9
$SURFV
 70
     6
  9
$UCSBASE
  2

  9
$UCSNAME
  2

  9
$UCSORG
 10
0.0
 20
0.0
 30
0.0
  9
$UCSXDIR
 10
1.0
 20
0.0
 30
0.0
  9
$UCSYDIR
 10
0.0
 20
1.0
 30
0.0
  9
$UCSORTHOREF
  2

  9
$UCSORTHOVIEW
 70
     0
  9
$UCSORGTOP
 10
0.0
 20
0.0
 30
0.0
  9
$UCSORGBOTTOM
 10
0.0
 20
0.0
 30
0.0
  9
$UCSORGLEFT
 10
0.0
 20
0.0
 30
0.0
  9
$UCSORGRIGHT
 10
0.0
 20
0.0
 30
0.0
  9
$UCSORGFRONT
 10
0.0
 20
0.0
 30
0.0
  9
$UCSORGBACK
 10
0.0
 20
0.0
 30
0.0
  9
$PUCSBASE
  2

  9
$PUCSNAME
  2

  9
$PUCSORG
 10
0.0
 20
0.0
 30
0.0
  9
$PUCSXDIR
 10
1.0
 20
0.0
 30
0.0
  9
$PUCSYDIR
 10
0.0
 20
1.0
 30
0.0
  9
$PUCSORTHOREF
  2

  9
$PUCSORTHOVIEW
 70
     0
  9
$PUCSORGTOP
 10
0.0
 20
0.0
 30
0.0
  9
$PUCSORGBOTTOM
 10
0.0
 20
0.0
 30
0.0
  9
$PUCSORGLEFT
 10
0.0
 20
0.0
 30
0.0
  9
$PUCSORGRIGHT
 10
0.0
 20
0.0
 30
0.0
  9
$PUCSORGFRONT
 10
0.0
 20
0.0
 30
0.0
  9
$PUCSORGBACK
 10
0.0
 20
0.0
 30
0.0
  9
$USERI1
 70
     0
  9
$USERI2
 70
     0
  9
$USERI3
 70
     0
  9
$USERI4
 70
     0
  9
$USERI5
 70
     0
  9
$USERR1
 40
0.0
  9
$USERR2
 40
0.0
  9
$USERR3
 40
0.0
  9
$USERR4
 40
0.0
  9
$USERR5
 40
0.0
  9
$WORLDVIEW
 70
     1
  9
$SHADEDGE
 70
     3
  9
$SHADEDIF
 70
    70
  9
$TILEMODE
 70
     1
  9
$MAXACTVP
 70
    64
  9
$PINSBASE
 10
0.0
 20
0.0
 30
0.0
  9
$PLIMCHECK
 70
     0
  9
$PEXTMIN
 10
1.000000000000000E+20
 20
1.000000000000000E+20
 30
1.000000000000000E+20
  9
$PEXTMAX
 10
-1.000000000000000E+20
 20
-1.000000000000000E+20
 30
-1.000000000000000E+20
  9
$PLIMMIN
 10
0.0
 20
0.0
  9
$PLIMMAX
 10
420.0
 20
297.0
  9
$UNITMODE
 70
     0
  9
$VISRETAIN
 70
     1
  9
$PLINEGEN
 70
     0
  9
$PSLTSCALE
 70
     1
  9
$TREEDEPTH
 70
  3020
  9
$CMLSTYLE
  2
Standard
  9
$CMLJUST
 70
     0
  9
$CMLSCALE
 40
20.0
  9
$PROXYGRAPHICS
 70
     1
  9
$MEASUREMENT
 70
     1
  9
$CELWEIGHT
370
    -1
  9
$ENDCAPS
280
     0
  9
$JOINSTYLE
280
     0
  9
$LWDISPLAY
290
     0
  9
$INSUNITS
 70
     4
  9
$HYPERLINKBASE
  1

  9
$STYLESHEET
  1

  9
$XEDIT
290
     1
  9
$CEPSNTYPE
380
     0
  9
$PSTYLEMODE
290
     1
  9
$FINGERPRINTGUID
  2
{75E8D378-4980-4F42-991A-B8E245660A72}
  9
$VERSIONGUID
  2
{FAEB1C32-E019-11D5-929B-00C0DF256EC4}
  9
$EXTNAMES
290
     1
  9
$PSVPSCALE
 40
0.0
  9
$OLESTARTUP
290
     0
  9
$SORTENTS
280
   127
  9
$INDEXCTL
280
     0
  9
$HIDETEXT
280
     1
  9
$XCLIPFRAME
280
     2
  9
$HALOGAP
280
     0
  9
$OBSCOLOR
 70
   257
  9
$OBSLTYPE
280
     0
  9
$INTERSECTIONDISPLAY
280
     0
  9
$INTERSECTIONCOLOR
 70
   257
  9
$DIMASSOC
280
     2
  9
$PROJECTNAME
  1

  9
$CAMERADISPLAY
290
     0
  9
$LENSLENGTH
 40
50.0
  9
$CAMERAHEIGHT
 40
0.0
  9
$STEPSPERSEC
 40
2.0
  9
$STEPSIZE
 40
6.0
  9
$3DDWFPREC
 40
2.0
  9
$PSOLWIDTH
 40
5.0
  9
$PSOLHEIGHT
 40
80.0
  9
$LOFTANG1
 40
1.570796326794897
  9
$LOFTANG2
 40
1.570796326794897
  9
$LOFTMAG1
 40
0.0
  9
$LOFTMAG2
 40
0.0
  9
$LOFTPARAM
 70
     7
  9
$LOFTNORMALS
280
     1
  9
$LATITUDE
 40
37.795
  9
$LONGITUDE
 40
-122.394
  9
$NORTHDIRECTION
 40
0.0
  9
$TIMEZONE
 70
 -8000
  9
$LIGHTGLYPHDISPLAY
280
     1
  9
$TILEMODELIGHTSYNCH
280
     1
  9
$SOLIDHIST
280
     1
  9
$SHOWHIST
280
     1
  9
$DWFFRAME
280
     2
  9
$DGNFRAME
280
     2
  9
$REALWORLDSCALE
290
     1
  9
$INTERFERECOLOR
 62
   256
  9
$CSHADOW
280
     0
  9
$SHADOWPLANELOCATION
 40
0.0
  0
ENDSEC
  0
SECTION
  2
CLASSES
  0
CLASS
  1
ACDBDICTIONARYWDFLT
  2
AcDbDictionaryWithDefault
  3
ObjectDBX Classes
 90
        0
 91
        4
280
     0
281
     0
  0
CLASS
  1
VISUALSTYLE
  2
AcDbVisualStyle
  3
ObjectDBX Classes
 90
     4095
 91
        4
280
     0
281
     0
  0
CLASS
  1
MATERIAL
  2
AcDbMaterial
  3
ObjectDBX Classes
 90
     1153
 91
        4
280
     0
281
     0
  0
ENDSEC
  0
SECTION
  2
TABLES
  0
TABLE
  2
VPORT
  5
8
330
0
100
AcDbSymbolTable
 70
     1
  0
VPORT
  5
29
330
8
100
AcDbSymbolTableRecord
100
AcDbViewportTableRecord
  2
*Active
 70
     0
 10
0.0
 20
0.0
 11
1.0
 21
1.0
 12
0.0
 22
0.0
 13
0.0
 23
0.0
 14
10.0
 24
10.0
 15
10.0
 25
10.0
 16
0.0
 26
0.0
 36
1.0
 17
0.0
 27
0.0
 37
0.0
 40
9801.0
 41
1.414141414141414
 42
50.0
 43
0.0
 44
0.0
 50
0.0
 51
0.0
 71
     0
 72
 10000
 73
     1
 74
     3
 75
     0
 76
     0
 77
     0
 78
     0
281
     0
 65
     1
110
0.0
120
0.0
130
0.0
111
1.0
121
0.0
131
0.0
112
0.0
122
1.0
132
0.0
 79
     0
146
0.0
 60
     3
 61
     5
292
     1
282
     1
141
0.0
142
0.0
 63
   250
  0
ENDTAB
  0
TABLE
  2
LTYPE
  5
5
330
0
100
AcDbSymbolTable
 70
     5
  0
LTYPE
  5
14
330
5
100
AcDbSymbolTableRecord
100
AcDbLinetypeTableRecord
  2
ByBlock
 70
     0
  3

 72
    65
 73
     0
 40
0.0
  0
LTYPE
  5
15
330
5
100
AcDbSymbolTableRecord
100
AcDbLinetypeTableRecord
  2
ByLayer
 70
     0
  3

 72
    65
 73
     0
 40
0.0
  0
LTYPE
  5
16
330
5
100
AcDbSymbolTableRecord
100
AcDbLinetypeTableRecord
  2
Continuous
 70
     0
  3
Solid line
 72
    65
 73
     0
 40
0.0
  0
LTYPE
  5
3F
330
5
100
AcDbSymbolTableRecord
100
AcDbLinetypeTableRecord
  2
JWW_HOJO
 70
     0
  3
  -   -   -   -   -   -   -   - 
 72
    65
 73
     2
 40
1.693333333333333
 49
-1.27
 74
     0
 49
0.4233333333333333
 74
     0
  0
LTYPE
  5
40
330
5
100
AcDbSymbolTableRecord
100
AcDbLinetypeTableRecord
  2
JWW_DASHED2
 70
     0
  3
--    ----    ----    ----    --
 72
    65
 73
     2
 40
3.386666666666667
 49
1.693333333333333
 74
     0
 49
-1.693333333333333
 74
     0
  0
LTYPE
  5
41
330
5
100
AcDbSymbolTableRecord
100
AcDbLinetypeTableRecord
  2
JWW_CENTER1
 70
     0
  3
-----  --  ----------  --  -----
 72
    65
 73
     4
 40
6.773333333333333
 49
4.233333333333333
 74
     0
 49
-0.8466666666666667
 74
     0
 49
0.8466666666666667
 74
     0
 49
-0.8466666666666667
 74
     0
  0
LTYPE
  5
42
330
5
100
AcDbSymbolTableRecord
100
AcDbLinetypeTableRecord
  2
JWW_DASHED1
 70
     0
  3
-  --  --  --  --  --  --  --  -
 72
    65
 73
     2
 40
1.693333333333333
 49
0.8466666666666667
 74
     0
 49
-0.8466666666666667
 74
     0
  0
ENDTAB
  0
TABLE
  2
LAYER
  5
2
330
0
100
AcDbSymbolTable
 70
    16
  0
LAYER
  5
10
330
2
100
AcDbSymbolTableRecord
100
AcDbLayerTableRecord
  2
0
 70
     0
 62
     7
  6
Continuous
370
    -3
390
F
347
3E
  0
LAYER
  5
43
330
2
100
AcDbSymbolTableRecord
100
AcDbLayerTableRecord
  2
F-0_補助線
 70
     0
 62
     7
  6
Continuous
370
    -3
390
F
347
3E
  0
LAYER
  5
44
330
2
100
AcDbSymbolTableRecord
100
AcDbLayerTableRecord
  2
F-1_枠
 70
     0
 62
     7
  6
Continuous
370
    -3
390
F
347
3E
  0
LAYER
  5
45
330
2
100
AcDbSymbolTableRecord
100
AcDbLayerTableRecord
  2
F-A_文字
 70
     0
 62
     7
  6
Continuous
370
    -3
390
F
347
3E
  0
LAYER
  5
46
330
2
100
AcDbSymbolTableRecord
100
AcDbLayerTableRecord
  2
0-A_文字
 70
     0
 62
     7
  6
Continuous
370
    -3
390
F
347
3E
  0
LAYER
  5
47
330
2
100
AcDbSymbolTableRecord
100
AcDbLayerTableRecord
  2
戸当り
 70
     0
 62
     7
  6
Continuous
370
    -3
390
F
347
3E
  0
LAYER
  5
48
330
2
100
AcDbSymbolTableRecord
100
AcDbLayerTableRecord
  2
0-0_補助線
 70
     0
 62
     7
  6
Continuous
370
    -3
390
F
347
3E
  0
LAYER
  5
49
330
2
100
AcDbSymbolTableRecord
100
AcDbLayerTableRecord
  2
0-1_通り芯
 70
     0
 62
     7
  6
Continuous
370
    -3
390
F
347
3E
  0
LAYER
  5
4A
330
2
100
AcDbSymbolTableRecord
100
AcDbLayerTableRecord
  2
0-7_金物
 70
     0
 62
     7
  6
Continuous
370
    -3
390
F
347
3E
  0
LAYER
  5
4B
330
2
100
AcDbSymbolTableRecord
100
AcDbLayerTableRecord
  2
0-B_寸法
 70
     0
 62
     7
  6
Continuous
370
    -3
390
F
347
3E
  0
LAYER
  5
4C
330
2
100
AcDbSymbolTableRecord
100
AcDbLayerTableRecord
  2
0-6_扉
 70
     0
 62
     7
  6
Continuous
370
    -3
390
F
347
3E
  0
LAYER
  5
4D
330
2
100
AcDbSymbolTableRecord
100
AcDbLayerTableRecord
  2
0-C_ハッチ
 70
     0
 62
     7
  6
Continuous
370
    -3
390
F
347
3E
  0
LAYER
  5
4E
330
2
100
AcDbSymbolTableRecord
100
AcDbLayerTableRecord
  2
0-4_枠
 70
     0
 62
     7
  6
Continuous
370
    -3
390
F
347
3E
  0
LAYER
  5
4F
330
2
100
AcDbSymbolTableRecord
100
AcDbLayerTableRecord
  2
0-3_仕上げ
 70
     0
 62
     7
  6
Continuous
370
    -3
390
F
347
3E
  0
LAYER
  5
50
330
2
100
AcDbSymbolTableRecord
100
AcDbLayerTableRecord
  2
0-E
 70
     0
 62
     7
  6
Continuous
370
    -3
390
F
347
3E
  0
LAYER
  5
51
330
2
100
AcDbSymbolTableRecord
100
AcDbLayerTableRecord
  2
1-E
 70
     0
 62
     7
  6
Continuous
370
    -3
390
F
347
3E
  0
ENDTAB
  0
TABLE
  2
STYLE
  5
3
330
0
100
AcDbSymbolTable
 70
     1
  0
STYLE
  5
11
330
3
100
AcDbSymbolTableRecord
100
AcDbTextStyleTableRecord
  2
Standard
 70
     0
 40
0.0
 41
1.0
 50
0.0
 71
     0
 42
2.5
  3
txt
  4

  0
ENDTAB
  0
TABLE
  2
VIEW
  5
6
330
0
100
AcDbSymbolTable
 70
     0
  0
ENDTAB
  0
TABLE
  2
UCS
  5
7
330
0
100
AcDbSymbolTable
 70
     0
  0
ENDTAB
  0
TABLE
  2
APPID
  5
9
330
0
100
AcDbSymbolTable
 70
     1
  0
APPID
  5
12
330
9
100
AcDbSymbolTableRecord
100
AcDbRegAppTableRecord
  2
ACAD
 70
     0
  0
ENDTAB
  0
TABLE
  2
DIMSTYLE
  5
A
330
0
100
AcDbSymbolTable
 70
     1
100
AcDbDimStyleTable
  0
DIMSTYLE
105
27
330
A
100
AcDbSymbolTableRecord
100
AcDbDimStyleTableRecord
  2
ISO-25
 70
     0
 41
2.5
 42
0.625
 43
3.75
 44
1.25
 73
     0
 74
     0
 77
     1
 78
     8
140
2.5
141
2.5
143
0.03937007874016
147
0.625
171
     3
172
     1
178
     0
271
     2
272
     2
274
     3
278
    44
283
     0
284
     8
340
11
  0
ENDTAB
  0
TABLE
  2
BLOCK_RECORD
  5
1
330
0
100
AcDbSymbolTable
 70
     1
  0
BLOCK_RECORD
  5
1F
330
1
100
AcDbSymbolTableRecord
100
AcDbBlockTableRecord
  2
*Model_Space
340
22
 70
     0
280
     1
281
     0
  0
BLOCK_RECORD
  5
1B
330
1
100
AcDbSymbolTableRecord
100
AcDbBlockTableRecord
  2
*Paper_Space
340
1E
 70
     0
280
     1
281
     0
  0
BLOCK_RECORD
  5
23
330
1
100
AcDbSymbolTableRecord
100
AcDbBlockTableRecord
  2
*Paper_Space0
340
26
 70
     0
280
     1
281
     0
  0
ENDTAB
  0
ENDSEC
  0
SECTION
  2
BLOCKS
  0
BLOCK
  5
20
330
1F
100
AcDbEntity
  8
0
100
AcDbBlockBegin
  2
*Model_Space
 70
     0
 10
0.0
 20
0.0
 30
0.0
  3
*Model_Space
  1

  0
ENDBLK
  5
21
330
1F
100
AcDbEntity
  8
0
100
AcDbBlockEnd
  0
BLOCK
  5
1C
330
1B
100
AcDbEntity
 67
     1
  8
0
100
AcDbBlockBegin
  2
*Paper_Space
 70
     0
 10
0.0
 20
0.0
 30
0.0
  3
*Paper_Space
  1

  0
ENDBLK
  5
1D
330
1B
100
AcDbEntity
 67
     1
  8
0
100
AcDbBlockEnd
  0
BLOCK
  5
24
330
23
100
AcDbEntity
  8
0
100
AcDbBlockBegin
  2
*Paper_Space0
 70
     0
 10
0.0
 20
0.0
 30
0.0
  3
*Paper_Space0
  1

  0
ENDBLK
  5
25
330
23
100
AcDbEntity
  8
0
100
AcDbBlockEnd
  0
ENDSEC
  0
SECTION
  2
ENTITIES
  0
LINE
  5
52
330
1F
100
AcDbEntity
  8
F-0_補助線
  6
JWW_HOJO
 62
   120
370
     5
100
AcDbLine
 10
-6140.081333436773
 20
-4455.0
 30
0.0
 11
-6140.081333436773
 21
4424.999604096284
 31
0.0
  0
LINE
  5
53
330
1F
100
AcDbEntity
  8
F-0_補助線
  6
JWW_HOJO
 62
   120
370
     5
100
AcDbLine
 10
-6140.081333436773
 20
4424.999604096284
 30
0.0
 11
6159.917676803936
 21
4424.999604096284
 31
0.0
  0
LINE
  5
54
330
1F
100
AcDbEntity
  8
F-0_補助線
  6
JWW_HOJO
 62
   120
370
     5
100
AcDbLine
 10
6159.917676803936
 20
4424.999604096284
 30
0.0
 11
6159.917676803936
 21
-4455.0
 31
0.0
  0
LINE
  5
55
330
1F
100
AcDbEntity
  8
F-0_補助線
  6
JWW_HOJO
 62
   120
370
     5
100
AcDbLine
 10
6159.917676803936
 20
-4455.0
 30
0.0
 11
-6140.081333436773
 21
-4455.0
 31
0.0
  0
LINE
  5
56
330
1F
100
AcDbEntity
  8
F-0_補助線
  6
JWW_HOJO
 62
     7
370
     9
100
AcDbLine
 10
1009.918254163524
 20
-3795.000003092998
 30
0.0
 11
1009.918254163524
 21
-4195.000008247994
 31
0.0
  0
LINE
  5
57
330
1F
100
AcDbEntity
  8
F-0_補助線
  6
JWW_HOJO
 62
     7
370
     9
100
AcDbLine
 10
509.9185840832865
 20
-3795.000003092998
 30
0.0
 11
509.9185840832865
 21
-4195.000008247994
 31
0.0
  0
LINE
  5
58
330
1F
100
AcDbEntity
  8
F-1_枠
  6
Continuous
 62
   200
370
    20
100
AcDbLine
 10
5859.917429364118
 20
4174.999769056166
 30
0.0
 11
5859.917429364118
 21
-4205.000164959882
 31
0.0
  0
LINE
  5
59
330
1F
100
AcDbEntity
  8
F-1_枠
  6
Continuous
 62
   200
370
    20
100
AcDbLine
 10
-5840.081317971782
 20
4174.999769056166
 30
0.0
 11
-5840.081317971782
 21
-4205.000164959882
 31
0.0
  0
LINE
  5
5A
330
1F
100
AcDbEntity
  8
F-1_枠
  6
Continuous
 62
   200
370
    20
100
AcDbLine
 10
5859.917429364118
 20
-4205.000002577498
 30
0.0
 11
-5840.081085996952
 21
-4205.000002577498
 31
0.0
  0
LINE
  5
5B
330
1F
100
AcDbEntity
  8
F-1_枠
  6
Continuous
 62
   200
370
    20
100
AcDbLine
 10
-5830.081323642278
 20
4174.999769056166
 30
0.0
 11
-5830.081323642278
 21
-4205.000164959882
 31
0.0
  0
LINE
  5
5C
330
1F
100
AcDbEntity
  8
F-1_枠
  6
Continuous
 62
   200
370
    20
100
AcDbLine
 10
-5835.081309208292
 20
4174.999769056166
 30
0.0
 11
-5835.081309208292
 21
-4205.000164959882
 31
0.0
  0
LINE
  5
5D
330
1F
100
AcDbEntity
  8
F-1_枠
  6
Continuous
 62
   200
370
    20
100
AcDbLine
 10
5854.917165428305
 20
4174.999769056166
 30
0.0
 11
5854.917165428305
 21
-4205.000164959882
 31
0.0
  0
LINE
  5
5E
330
1F
100
AcDbEntity
  8
F-1_枠
  6
Continuous
 62
   200
370
    20
100
AcDbLine
 10
5849.917643811961
 20
4174.999769056166
 30
0.0
 11
5849.917643811961
 21
-4205.000164959882
 31
0.0
  0
LINE
  5
5F
330
1F
100
AcDbEntity
  8
F-1_枠
  6
Continuous
 62
   200
370
    20
100
AcDbLine
 10
5859.917429364118
 20
-4199.999993814004
 30
0.0
 11
-5840.081085996952
 21
-4199.999993814004
 31
0.0
  0
LINE
  5
60
330
1F
100
AcDbEntity
  8
F-1_枠
  6
Continuous
 62
   200
370
    20
100
AcDbLine
 10
5859.917429364118
 20
-4195.000008247994
 30
0.0
 11
-5840.081085996952
 21
-4195.000008247994
 31
0.0
  0
LINE
  5
61
330
1F
100
AcDbEntity
  8
F-1_枠
  6
Continuous
 62
   200
370
    20
100
AcDbLine
 10
4349.917891251784
 20
-3795.000003092998
 30
0.0
 11
4349.917891251784
 21
-4195.000008247994
 31
0.0
  0
LINE
  5
62
330
1F
100
AcDbEntity
  8
F-1_枠
  6
Continuous
 62
   200
370
    20
100
AcDbLine
 10
2849.91739637214
 20
-3795.000003092998
 30
0.0
 11
2849.91739637214
 21
-4195.000008247994
 31
0.0
  0
LINE
  5
63
330
1F
100
AcDbEntity
  8
F-1_枠
  6
Continuous
 62
   200
370
    20
100
AcDbLine
 10
9.918542843317937
 20
-3795.000003092998
 30
0.0
 11
9.918542843317937
 21
-4195.000008247994
 31
0.0
  0
LINE
  5
64
330
1F
100
AcDbEntity
  8
F-1_枠
  6
Continuous
 62
   200
370
    20
100
AcDbLine
 10
9.918542843317937
 20
-3994.999936078046
 30
0.0
 11
5849.917643811961
 21
-3995.005364289155
 31
0.0
  0
LINE
  5
65
330
1F
100
AcDbEntity
  8
F-1_枠
  6
Continuous
 62
   200
370
    20
100
AcDbLine
 10
-5840.081085996952
 20
4174.999769056166
 30
0.0
 11
5859.917429364118
 21
4174.999769056166
 31
0.0
  0
LINE
  5
66
330
1F
100
AcDbEntity
  8
F-1_枠
  6
Continuous
 62
   200
370
    20
100
AcDbLine
 10
-5840.081085996952
 20
4164.999983504013
 30
0.0
 11
5859.917429364118
 21
4164.999983504013
 31
0.0
  0
LINE
  5
67
330
1F
100
AcDbEntity
  8
F-1_枠
  6
Continuous
 62
   200
370
    20
100
AcDbLine
 10
-5840.081085996952
 20
4169.999505120355
 30
0.0
 11
5859.917429364118
 21
4169.999505120355
 31
0.0
  0
LINE
  5
68
330
1F
100
AcDbEntity
  8
F-0_補助線
  6
JWW_HOJO
 62
     7
370
     9
100
AcDbLine
 10
-5830.081323642278
 20
-3994.99993607839
 30
0.0
 11
9.918542843317937
 21
-3994.99993607839
 31
0.0
  0
LINE
  5
69
330
1F
100
AcDbEntity
  8
F-0_補助線
  6
JWW_HOJO
 62
     7
370
     9
100
AcDbLine
 10
-5830.081323642278
 20
-3904.99993607839
 30
0.0
 11
9.918542843317937
 21
-3904.99993607839
 31
0.0
  0
LINE
  5
6A
330
1F
100
AcDbEntity
  8
F-0_補助線
  6
JWW_HOJO
 62
     7
370
     9
100
AcDbLine
 10
-5830.081323642278
 20
-4084.99993607839
 30
0.0
 11
9.918542843317937
 21
-4084.99993607839
 31
0.0
  0
LINE
  5
6B
330
1F
100
AcDbEntity
  8
F-0_補助線
  6
JWW_HOJO
 62
     7
370
     9
100
AcDbLine
 10
9.918408067690052
 20
-4139.999739777983
 30
0.0
 11
5849.917509036333
 21
-4140.005167989091
 31
0.0
  0
LINE
  5
6C
330
1F
100
AcDbEntity
  8
F-0_補助線
  6
JWW_HOJO
 62
     7
370
     9
100
AcDbLine
 10
9.918491721641658
 20
-4049.999739778022
 30
0.0
 11
5849.917592690285
 21
-4050.005167989131
 31
0.0
  0
LINE
  5
6D
330
1F
100
AcDbEntity
  8
F-0_補助線
  6
JWW_HOJO
 62
     7
370
     9
100
AcDbLine
 10
9.91859396535915
 20
-3939.99973721807
 30
0.0
 11
5849.917694934006
 21
-3940.005165429179
 31
0.0
  0
LINE
  5
6E
330
1F
100
AcDbEntity
  8
F-0_補助線
  6
JWW_HOJO
 62
     7
370
     9
100
AcDbLine
 10
9.918677619310756
 20
-3849.999737218109
 30
0.0
 11
5849.917778587951
 21
-3850.005165429218
 31
0.0
  0
LINE
  5
6F
330
1F
100
AcDbEntity
  8
F-0_補助線
  6
JWW_HOJO
 62
     7
370
     9
100
AcDbLine
 10
2939.91739637214
 20
-3795.000003092998
 30
0.0
 11
2939.91739637214
 21
-4195.000008247994
 31
0.0
  0
LINE
  5
70
330
1F
100
AcDbEntity
  8
F-0_補助線
  6
JWW_HOJO
 62
     7
370
     9
100
AcDbLine
 10
99.91854284331794
 20
-3795.000003092998
 30
0.0
 11
99.91854284331794
 21
-4195.000008247994
 31
0.0
  0
LINE
  5
71
330
1F
100
AcDbEntity
  8
F-0_補助線
  6
JWW_HOJO
 62
     7
370
     9
100
AcDbLine
 10
4439.917891251784
 20
-3795.000003092998
 30
0.0
 11
4439.917891251784
 21
-4195.000008247994
 31
0.0
  0
MTEXT
  5
72
330
1F
100
AcDbEntity
  8
F-A_文字
  6
Continuous
 62
     7
370
     0
100
AcDbMText
 10
4439.917891251784
 20
-3887.143854850754
 30
0.0
 40
45.72
 41
240.0
 46
0.0
 71
     7
 72
     1
  1
{\fＭＳ ゴシック|b0|i0|c128|p49;ＤＡＴＥ}
 73
     1
 44
1.0
  0
MTEXT
  5
73
330
1F
100
AcDbEntity
  8
F-A_文字
  6
Continuous
 62
     7
370
     0
100
AcDbMText
 10
4439.917891251784
 20
-4087.143857410839
 30
0.0
 40
45.72
 41
180.0
 46
0.0
 71
     7
 72
     1
  1
{\fＭＳ ゴシック|b0|i0|c128|p49;ＮＯ．}
 73
     1
 44
1.0
  0
MTEXT
  5
74
330
1F
100
AcDbEntity
  8
F-A_文字
  6
Continuous
 62
     7
370
     0
100
AcDbMText
 10
2939.91739637214
 20
-3887.142460617774
 30
0.0
 40
45.72
 41
300.0
 46
0.0
 71
     7
 72
     1
  1
{\fＭＳ ゴシック|b0|i0|c128|p49;ＳＣＡＬＥ}
 73
     1
 44
1.0
  0
MTEXT
  5
75
330
1F
100
AcDbEntity
  8
F-A_文字
  6
Continuous
 62
     7
370
     0
100
AcDbMText
 10
2939.91739637214
 20
-4087.14246317786
 30
0.0
 40
45.72
 41
240.0
 46
0.0
 71
     7
 72
     1
  1
{\fＭＳ ゴシック|b0|i0|c128|p49;ＦＩＬＥ}
 73
     1
 44
1.0
  0
MTEXT
  5
76
330
1F
100
AcDbEntity
  8
F-A_文字
  6
Continuous
 62
     7
370
     0
100
AcDbMText
 10
99.91854284331794
 20
-3887.139820871936
 30
0.0
 40
45.72
 41
180.0
 46
0.0
 71
     7
 72
     1
  1
{\fＭＳ ゴシック|b0|i0|c128|p49;図面名}
 73
     1
 44
1.0
  0
MTEXT
  5
77
330
1F
100
AcDbEntity
  8
F-A_文字
  6
Continuous
 62
     7
370
     0
100
AcDbMText
 10
1604.917396372136
 20
-4164.281754523929
 30
0.0
 40
101.44125
 41
1065.0
 46
0.0
 71
     7
 72
     1
  1
{\fＭＳ ゴシック|b0|i0|c128|p49;ウッドワン・・・}
 73
     1
 44
1.0
  0
MTEXT
  5
78
330
1F
100
AcDbEntity
  8
F-A_文字
  6
Continuous
 62
     7
370
     0
100
AcDbMText
 10
1394.917396372136
 20
-4096.140669266149
 30
0.0
 40
45.72
 41
120.0
 46
0.0
 71
     7
 72
     1
  1
{\fＭＳ ゴシック|b0|i0|c128|p49;株式}
 73
     1
 44
1.0
  0
MTEXT
  5
79
330
1F
100
AcDbEntity
  8
F-A_文字
  6
Continuous
 62
     7
370
     0
100
AcDbMText
 10
1394.917396372136
 20
-4168.140669266187
 30
0.0
 40
45.72
 41
120.0
 46
0.0
 71
     7
 72
     1
  1
{\fＭＳ ゴシック|b0|i0|c128|p49;会社}
 73
     1
 44
1.0
  0
LINE
  5
7A
330
1F
100
AcDbEntity
  8
F-1_枠
  6
Continuous
 62
   200
370
    20
100
AcDbLine
 10
5859.917429364118
 20
-3795.000003092998
 30
0.0
 11
-5840.081085996952
 21
-3795.000003092998
 31
0.0
  0
LINE
  5
7B
330
1F
100
AcDbEntity
  8
F-1_枠
  6
Continuous
 62
   200
370
    20
100
AcDbLine
 10
5859.917429364118
 20
-3790.000017526987
 30
0.0
 11
-5840.081085996952
 21
-3790.000017526987
 31
0.0
  0
LINE
  5
7C
330
1F
100
AcDbEntity
  8
F-0_補助線
  6
JWW_HOJO
 62
     7
370
     9
100
AcDbLine
 10
-5087.628710189612
 20
-3795.000003092999
 30
0.0
 11
-5087.628710189612
 21
-4205.000164959882
 31
0.0
  0
LINE
  5
7D
330
1F
100
AcDbEntity
  8
F-0_補助線
  6
JWW_HOJO
 62
     7
370
     9
100
AcDbLine
 10
-50.08145715668206
 20
-3795.000003092998
 30
0.0
 11
-50.08145715668206
 21
-4195.000008247994
 31
0.0
  0
MTEXT
  5
7E
330
1F
100
AcDbEntity
  8
F-0_補助線
  6
Continuous
 62
     7
370
     0
100
AcDbMText
 10
509.9185840832865
 20
-3946.496666872503
 30
0.0
 40
78.58125
 41
412.5
 46
0.0
 71
     7
 72
     1
  1
{\fＭＳ ゴシック|b0|i0|c128|p49;DOORETUS}
 73
     1
 44
1.0
  0
MTEXT
  5
7F
330
1F
100
AcDbEntity
  8
F-0_補助線
  6
Continuous
 62
     7
370
     0
100
AcDbMText
 10
1110.209427605312
 20
-3946.734791872504
 30
0.0
 40
78.105
 41
615.0
 46
0.0
 71
     7
 72
     1
  1
{\fＭＳ ゴシック|b0|i0|c128|p49;建具納まり図}
 73
     1
 44
1.0
  0
MTEXT
  5
80
330
1F
100
AcDbEntity
  8
F-A_文字
  6
Continuous
 62
     7
370
     9
100
AcDbMText
 10
5096.167700144057
 20
-4147.857012699985
 30
0.0
 40
74.295
 41
97.5
 46
0.0
 71
     7
 72
     1
  1
{\fＭＳ ゴシック|b0|i0|c128|p49;03}
 73
     1
 44
1.0
  0
LINE
  5
81
330
1F
100
AcDbEntity
  8
0-A_文字
  6
Continuous
 62
    92
370
    13
100
AcDbLine
 10
-5659.999495325865
 20
3730.000181455871
 30
0.0
 11
-5659.999495325865
 21
4000.000181455871
 31
0.0
  0
ELLIPSE
  5
82
330
1F
100
AcDbEntity
  8
戸当り
  6
Continuous
 62
    92
370
    13
100
AcDbEllipse
 10
4855.430917458078
 20
2876.053590301512
 30
0.0
 11
11.36181697857171
 21
42.40287823032828
 31
0.0
210
0.0
220
0.0
230
0.9999999999999999
 40
0.6
 41
1.570796326794897
 42
4.71238898038469
  0
LINE
  5
83
330
1F
100
AcDbEntity
  8
戸当り
  6
Continuous
 62
    92
370
    13
100
AcDbLine
 10
4880.872644396272
 20
2869.236500114368
 30
0.0
 11
4829.989190519878
 21
2882.870680488654
 31
0.0
  0
LINE
  5
84
330
1F
100
AcDbEntity
  8
戸当り
  6
Continuous
 62
    92
370
    13
100
AcDbLine
 10
4884.133764364564
 20
2881.407165525611
 30
0.0
 11
4833.25031048817
 21
2895.041345899896
 31
0.0
  0
ELLIPSE
  5
85
330
1F
100
AcDbEntity
  8
戸当り
  6
Continuous
 62
    92
370
    13
100
AcDbEllipse
 10
4879.604310755758
 20
2966.269922279796
 30
0.0
 11
21.86569797210526
 21
81.6038957748525
 31
0.0
210
0.0
220
0.0
230
1.0
 40
0.5
 41
4.340591432030095
 42
8.225779182329084
  0
ELLIPSE
  5
86
330
1F
100
AcDbEntity
  8
戸当り
  6
Continuous
 62
    92
370
    13
100
AcDbEllipse
 10
4878.978687882654
 20
2963.935065931004
 30
0.0
 11
26.49533313827761
 21
98.88192943551533
 31
0.0
210
0.0
220
0.0
230
0.9999999999999999
 40
0.4
 41
3.840308517104466
 42
4.432552034522944
  0
ELLIPSE
  5
87
330
1F
100
AcDbEntity
  8
戸当り
  6
Continuous
 62
    92
370
    13
100
AcDbEllipse
 10
4878.978687882654
 20
2963.935065931004
 30
0.0
 11
26.49533313827761
 21
98.88192943551533
 31
0.0
210
0.0
220
0.0
230
0.9999999999999999
 40
0.4
 41
1.850633272656679
 42
2.442876790075129
  0
ELLIPSE
  5
88
330
1F
100
AcDbEntity
  8
戸当り
  6
Continuous
 62
    92
370
    13
100
AcDbEllipse
 10
4740.316707711373
 20
2838.28484693721
 30
0.0
 11
-7.622927487939132
 21
43.23177007461331
 31
0.0
210
0.0
220
0.0
230
1.0
 40
0.6000000000000001
 41
1.570796326794897
 42
4.71238898038469
  0
LINE
  5
89
330
1F
100
AcDbEntity
  8
戸当り
  6
Continuous
 62
    92
370
    13
100
AcDbLine
 10
4766.255769756144
 20
2842.858603429974
 30
0.0
 11
4714.377645666606
 21
2833.711090444447
 31
0.0
  0
LINE
  5
8A
330
1F
100
AcDbEntity
  8
戸当り
  6
Continuous
 62
    92
370
    13
100
AcDbLine
 10
4764.067802717541
 20
2855.267181117928
 30
0.0
 11
4712.189678628002
 21
2846.1196681324
 31
0.0
  0
ELLIPSE
  5
8B
330
1F
100
AcDbEntity
  8
戸当り
  6
Continuous
 62
    92
370
    13
100
AcDbEllipse
 10
4724.098172894875
 20
2930.264728582853
 30
0.0
 11
-14.67024424252691
 21
83.19908946199426
 31
0.0
210
0.0
220
0.0
230
1.0
 40
0.5
 41
4.340591432030095
 42
8.225779182329084
  0
ELLIPSE
  5
8C
330
1F
100
AcDbEntity
  8
戸当り
  6
Continuous
 62
    92
370
    13
100
AcDbEllipse
 10
4724.517918944779
 20
2927.884230441197
 30
0.0
 11
-17.7763823922528
 21
100.8148742797557
 31
0.0
210
0.0
220
0.0
230
1.0
 40
0.4000000000000001
 41
3.840308517104466
 42
4.432552034522944
  0
ELLIPSE
  5
8D
330
1F
100
AcDbEntity
  8
戸当り
  6
Continuous
 62
    92
370
    13
100
AcDbEllipse
 10
4724.517918944779
 20
2927.884230441197
 30
0.0
 11
-17.7763823922528
 21
100.8148742797557
 31
0.0
210
0.0
220
0.0
230
1.0
 40
0.4000000000000001
 41
1.850633272656679
 42
2.442876790075129
  0
LINE
  5
8E
330
1F
100
AcDbEntity
  8
0-A_文字
  6
Continuous
 62
    92
370
    13
100
AcDbLine
 10
5369.917643811961
 20
3684.999983504013
 30
0.0
 11
5369.917643811961
 21
2718.999983504013
 31
0.0
  0
LINE
  5
8F
330
1F
100
AcDbEntity
  8
0-A_文字
  6
Continuous
 62
    92
370
    13
100
AcDbLine
 10
5369.917643811961
 20
2718.999983504013
 30
0.0
 11
4229.917643811961
 21
2718.999983504013
 31
0.0
  0
LINE
  5
90
330
1F
100
AcDbEntity
  8
0-A_文字
  6
Continuous
 62
    92
370
    13
100
AcDbLine
 10
4229.917643811961
 20
3684.999983504013
 30
0.0
 11
4229.917643811961
 21
2718.999983504013
 31
0.0
  0
LINE
  5
91
330
1F
100
AcDbEntity
  8
0-0_補助線
  6
JWW_HOJO
 62
   120
370
     5
100
AcDbLine
 10
5339.917643811961
 20
3684.999983504013
 30
0.0
 11
5339.917643811961
 21
2718.999983504013
 31
0.0
  0
LINE
  5
92
330
1F
100
AcDbEntity
  8
0-0_補助線
  6
JWW_HOJO
 62
   120
370
     5
100
AcDbLine
 10
4259.917643811961
 20
3684.999983504013
 30
0.0
 11
4259.917643811961
 21
2718.999983504013
 31
0.0
  0
LINE
  5
93
330
1F
100
AcDbEntity
  8
0-0_補助線
  6
JWW_HOJO
 62
   120
370
     5
100
AcDbLine
 10
4799.917643811961
 20
3684.999983504013
 30
0.0
 11
4799.917643811961
 21
2718.999983504013
 31
0.0
  0
CIRCLE
  5
94
330
1F
100
AcDbEntity
  8
0-0_補助線
  6
JWW_HOJO
 62
   120
370
     5
100
AcDbCircle
 10
5159.917643811961
 20
3385.504011182749
 30
0.0
 40
240.0
  0
CIRCLE
  5
95
330
1F
100
AcDbEntity
  8
0-0_補助線
  6
JWW_HOJO
 62
   120
370
     5
100
AcDbCircle
 10
4799.917643811961
 20
3385.504011182749
 30
0.0
 40
240.0
  0
CIRCLE
  5
96
330
1F
100
AcDbEntity
  8
0-0_補助線
  6
JWW_HOJO
 62
   120
370
     5
100
AcDbCircle
 10
4444.047372024825
 20
3385.504011182749
 30
0.0
 40
240.0
  0
LINE
  5
97
330
1F
100
AcDbEntity
  8
戸当り
  6
Continuous
 62
    40
370
    15
100
AcDbLine
 10
4502.034214636565
 20
3153.681812873372
 30
0.0
 11
4564.150785461171
 21
3385.504011182749
 31
0.0
  0
LINE
  5
98
330
1F
100
AcDbEntity
  8
戸当り
  6
Continuous
 62
    40
370
    15
100
AcDbLine
 10
4502.034214636565
 20
3153.681812873372
 30
0.0
 11
4439.917643811961
 21
3385.504011182749
 31
0.0
  0
LINE
  5
99
330
1F
100
AcDbEntity
  8
戸当り
  6
Continuous
 62
    40
370
    15
100
AcDbLine
 10
5035.684502162752
 20
3385.504011182749
 30
0.0
 11
5097.801072987355
 21
3153.681812873372
 31
0.0
  0
LINE
  5
9A
330
1F
100
AcDbEntity
  8
戸当り
  6
Continuous
 62
    40
370
    15
100
AcDbLine
 10
5159.917643811961
 20
3385.504011182749
 30
0.0
 11
5097.801072987355
 21
3153.681812873372
 31
0.0
  0
LINE
  5
9B
330
1F
100
AcDbEntity
  8
戸当り
  6
JWW_DASHED2
 62
     7
370
     9
100
AcDbLine
 10
5159.917643811961
 20
3385.504011182749
 30
0.0
 11
4439.917643811961
 21
3385.504011182749
 31
0.0
  0
LINE
  5
9C
330
1F
100
AcDbEntity
  8
戸当り
  6
Continuous
 62
    40
370
    15
100
AcDbLine
 10
5159.917643811961
 20
3439.504011182748
 30
0.0
 11
5159.917643811961
 21
3385.504011182749
 31
0.0
  0
LINE
  5
9D
330
1F
100
AcDbEntity
  8
戸当り
  6
Continuous
 62
    40
370
    15
100
AcDbLine
 10
5159.917643811961
 20
3439.504011182748
 30
0.0
 11
5339.917643811961
 21
3439.504011182748
 31
0.0
  0
LINE
  5
9E
330
1F
100
AcDbEntity
  8
戸当り
  6
Continuous
 62
    40
370
    15
100
AcDbLine
 10
5159.917643811961
 20
3385.504011182749
 30
0.0
 11
5339.917643811961
 21
3385.504011182749
 31
0.0
  0
LINE
  5
9F
330
1F
100
AcDbEntity
  8
戸当り
  6
Continuous
 62
    40
370
    15
100
AcDbLine
 10
4439.917643811961
 20
3439.504011182748
 30
0.0
 11
4439.917643811961
 21
3385.504011182749
 31
0.0
  0
LINE
  5
A0
330
1F
100
AcDbEntity
  8
戸当り
  6
Continuous
 62
    40
370
    15
100
AcDbLine
 10
4439.917643811961
 20
3439.504011182748
 30
0.0
 11
4259.917643811961
 21
3439.504011182748
 31
0.0
  0
LINE
  5
A1
330
1F
100
AcDbEntity
  8
戸当り
  6
Continuous
 62
    40
370
    15
100
AcDbLine
 10
4439.917643811961
 20
3385.504011182749
 30
0.0
 11
4259.917643811961
 21
3385.504011182749
 31
0.0
  0
LINE
  5
A2
330
1F
100
AcDbEntity
  8
0-A_文字
  6
Continuous
 62
    92
370
    13
100
AcDbLine
 10
5369.917643811961
 20
3540.999983504013
 30
0.0
 11
4229.917643811961
 21
3540.999983504013
 31
0.0
  0
LINE
  5
A3
330
1F
100
AcDbEntity
  8
0-A_文字
  6
Continuous
 62
    92
370
    13
100
AcDbLine
 10
5369.917643811961
 20
3684.999983504013
 30
0.0
 11
4229.917643811961
 21
3684.999983504013
 31
0.0
  0
MTEXT
  5
A4
330
1F
100
AcDbEntity
  8
0-A_文字
  6
Continuous
 62
     7
370
     9
100
AcDbMText
 10
4278.667643811961
 20
3554.775383504014
 30
0.0
 40
63.55080000000001
 41
1042.5
 46
0.0
 71
     7
 72
     1
  1
{\fＭＳ ゴシック|b0|i0|c128|p49;上吊軸固定/フリーオープン}
 73
     1
 44
1.0
  0
MTEXT
  5
A5
330
1F
100
AcDbEntity
  8
F-A_文字
  6
Continuous
 62
     7
370
     0
100
AcDbMText
 10
3689.917643811962
 20
-3946.903115907308
 30
0.0
 40
76.19999999999999
 41
150.0
 46
0.0
 71
     7
 72
     1
  1
{\fＭＳ ゴシック|b0|i0|c128|p49;1/5}
 73
     1
 44
1.0
  0
MTEXT
  5
A6
330
1F
100
AcDbEntity
  8
0-A_文字
  6
Continuous
 62
    92
370
    13
100
AcDbMText
 10
-5592.499495325861
 20
3758.959004985283
 30
0.0
 40
147.9176470588235
 41
3300.0
 46
0.0
 71
     7
 72
     1
  1
{\fＭＳ ゴシック|b0|i0|c128|p49;クローゼットドア　調整枠　間口６尺}
 73
     1
 44
1.0
  0
LINE
  5
A7
330
1F
100
AcDbEntity
  8
0-A_文字
  6
Continuous
 62
    92
370
    13
100
AcDbLine
 10
-5659.999495325865
 20
3730.000181455871
 30
0.0
 11
-2221.428571428571
 21
3730.000181455871
 31
0.0
  0
LINE
  5
A8
330
1F
100
AcDbEntity
  8
0-A_文字
  6
Continuous
 62
    92
370
    13
100
AcDbLine
 10
-5659.999495325865
 20
4000.000181455871
 30
0.0
 11
-2221.428571428571
 21
4000.000181455871
 31
0.0
  0
LINE
  5
A9
330
1F
100
AcDbEntity
  8
0-A_文字
  6
Continuous
 62
    92
370
    13
100
AcDbLine
 10
-2221.428571428571
 20
3730.000181455871
 30
0.0
 11
-2221.428571428571
 21
4000.000181455871
 31
0.0
  0
MTEXT
  5
AA
330
1F
100
AcDbEntity
  8
F-A_文字
  6
Continuous
 62
     7
370
     0
100
AcDbMText
 10
-5080.081323642278
 20
-4045.064631200342
 30
0.0
 40
79.87060975609751
 41
4297.5
 46
0.0
 71
     7
 72
     1
  1
{\fＭＳ ゴシック|b0|i0|c128|p49;ドレタス　クローゼットドア  調整枠　３方枠＋床直付けレール　枠外H2,038　枠外W1,635}
 73
     1
 44
1.0
  0
LINE
  5
AB
330
1F
100
AcDbEntity
  8
0-0_補助線
  6
JWW_HOJO
 62
   120
370
     5
100
AcDbLine
 10
2781.918394379421
 20
1086.945146596495
 30
0.0
 11
2781.918394379421
 21
3141.945146596494
 31
0.0
  0
LINE
  5
AC
330
1F
100
AcDbEntity
  8
0-0_補助線
  6
JWW_HOJO
 62
   120
370
     5
100
AcDbLine
 10
2781.918394379421
 20
2781.945146596495
 30
0.0
 11
-2762.081209716868
 21
2781.945146596495
 31
0.0
  0
LINE
  5
AD
330
1F
100
AcDbEntity
  8
0-0_補助線
  6
JWW_HOJO
 62
   120
370
     5
100
AcDbLine
 10
2781.918394379421
 20
3141.945146596494
 30
0.0
 11
-2762.081209716868
 21
3141.945146596494
 31
0.0
  0
LINE
  5
AE
330
1F
100
AcDbEntity
  8
0-0_補助線
  6
JWW_HOJO
 62
   120
370
     5
100
AcDbLine
 10
2781.918394379421
 20
2961.945146596494
 30
0.0
 11
-2762.081209716868
 21
2961.945146596494
 31
0.0
  0
LINE
  5
AF
330
1F
100
AcDbEntity
  8
0-1_通り芯
  6
JWW_CENTER1
 62
   120
370
     5
100
AcDbLine
 10
2781.918394379421
 20
2361.945146596495
 30
0.0
 11
-2762.081209716868
 21
2361.945146596495
 31
0.0
  0
LINE
  5
B0
330
1F
100
AcDbEntity
  8
0-0_補助線
  6
Continuous
 62
   120
370
     5
100
AcDbLine
 10
-1982.081407668727
 20
2324.359196304034
 30
0.0
 11
-1997.081407668727
 21
2324.359196304034
 31
0.0
  0
LWPOLYLINE
  5
B1
330
1F
100
AcDbEntity
  8
0-0_補助線
  6
Continuous
 62
     7
370
     9
100
AcDbPolyline
 90
        4
 70
     1
 43
3.0
 10
-1980.581407668727
 20
2324.359196304034
 42
0.4142135623731
 10
-1982.081407668727
 20
2325.859196304033
 42
0.4142135623731
 10
-1983.581407668727
 20
2324.359196304034
 42
0.4142135623731
 10
-1982.081407668727
 20
2322.859196304034
 42
0.4142135623731
  0
LWPOLYLINE
  5
B2
330
1F
100
AcDbEntity
  8
0-0_補助線
  6
Continuous
 62
     7
370
     9
100
AcDbPolyline
 90
        4
 70
     1
 43
3.0
 10
-1995.581407668727
 20
2324.359196304034
 42
0.4142135623731
 10
-1997.081407668727
 20
2325.859196304033
 42
0.4142135623731
 10
-1998.581407668727
 20
2324.359196304034
 42
0.4142135623731
 10
-1997.081407668727
 20
2322.859196304034
 42
0.4142135623731
  0
LINE
  5
B3
330
1F
100
AcDbEntity
  8
0-0_補助線
  6
Continuous
 62
   120
370
     5
100
AcDbLine
 10
-1997.081407668727
 20
2324.359196304034
 30
0.0
 11
-2018.081407668726
 21
2324.359196304034
 31
0.0
  0
LWPOLYLINE
  5
B4
330
1F
100
AcDbEntity
  8
0-0_補助線
  6
Continuous
 62
     7
370
     9
100
AcDbPolyline
 90
        4
 70
     1
 43
3.0
 10
-2016.581407668726
 20
2324.359196304034
 42
0.4142135623731
 10
-2018.081407668726
 20
2325.859196304033
 42
0.4142135623731
 10
-2019.581407668725
 20
2324.359196304034
 42
0.4142135623731
 10
-2018.081407668726
 20
2322.859196304034
 42
0.4142135623731
  0
LINE
  5
B5
330
1F
100
AcDbEntity
  8
0-0_補助線
  6
Continuous
 62
   120
370
     5
100
AcDbLine
 10
-2018.081407668726
 20
2324.359196304034
 30
0.0
 11
-2018.081407668726
 21
2405.688459527219
 31
0.0
  0
MTEXT
  5
B6
330
1F
100
AcDbEntity
  8
0-0_補助線
  6
Continuous
 62
     7
370
   211
100
AcDbMText
 10
-1971.694952756376
 20
2325.079196304033
 30
0.0
 40
91.43999999999912
 41
179.9999999999983
 46
0.0
 71
     7
 72
     1
  1
{\fＭＳ ゴシック|b0|i0|c128|p49;2.5}
 73
     1
 44
1.0
  0
LINE
  5
B7
330
1F
100
AcDbEntity
  8
0-7_金物
  6
Continuous
 62
     7
370
     9
100
AcDbLine
 10
2199.918255813116
 20
2271.945220828441
 30
0.0
 11
2199.918255813116
 21
2451.945072364547
 31
0.0
  0
LINE
  5
B8
330
1F
100
AcDbEntity
  8
0-7_金物
  6
Continuous
 62
     7
370
     9
100
AcDbLine
 10
2211.918592331277
 20
2451.945072364547
 30
0.0
 11
2199.918255813116
 21
2451.945072364547
 31
0.0
  0
LINE
  5
B9
330
1F
100
AcDbEntity
  8
0-7_金物
  6
Continuous
 62
     7
370
     9
100
AcDbLine
 10
2211.918592331277
 20
2271.945220828441
 30
0.0
 11
2199.918255813116
 21
2271.945220828441
 31
0.0
  0
LINE
  5
BA
330
1F
100
AcDbEntity
  8
0-7_金物
  6
Continuous
 62
     7
370
     9
100
AcDbLine
 10
2199.918255813116
 20
2301.945319804373
 30
0.0
 11
2187.918661614427
 21
2301.945319804373
 31
0.0
  0
LINE
  5
BB
330
1F
100
AcDbEntity
  8
0-7_金物
  6
Continuous
 62
     7
370
     9
100
AcDbLine
 10
2199.918255813116
 20
2421.94497338862
 30
0.0
 11
2187.918661614427
 21
2421.94497338862
 31
0.0
  0
LINE
  5
BC
330
1F
100
AcDbEntity
  8
0-7_金物
  6
Continuous
 62
     7
370
     9
100
AcDbLine
 10
2187.918661614427
 20
2301.945319804373
 30
0.0
 11
2187.918661614427
 21
2421.94497338862
 31
0.0
  0
LINE
  5
BD
330
1F
100
AcDbEntity
  8
0-7_金物
  6
Continuous
 62
     7
370
     9
100
AcDbLine
 10
2187.918661614427
 20
2415.94554744901
 30
0.0
 11
2181.918592331277
 21
2415.94554744901
 31
0.0
  0
LINE
  5
BE
330
1F
100
AcDbEntity
  8
0-7_金物
  6
Continuous
 62
     7
370
     9
100
AcDbLine
 10
2187.918661614427
 20
2307.945488063451
 30
0.0
 11
2181.918592331277
 21
2307.945488063451
 31
0.0
  0
LINE
  5
BF
330
1F
100
AcDbEntity
  8
0-7_金物
  6
Continuous
 62
     7
370
     9
100
AcDbLine
 10
2211.918592331277
 20
2271.945220828441
 30
0.0
 11
2211.918592331277
 21
2451.945072364547
 31
0.0
  0
LINE
  5
C0
330
1F
100
AcDbEntity
  8
0-7_金物
  6
Continuous
 62
     7
370
     9
100
AcDbLine
 10
-2180.081071150568
 20
2271.945220828441
 30
0.0
 11
-2180.081071150568
 21
2451.945072364547
 31
0.0
  0
LINE
  5
C1
330
1F
100
AcDbEntity
  8
0-7_金物
  6
Continuous
 62
     7
370
     9
100
AcDbLine
 10
-2192.081407668727
 20
2451.945072364547
 30
0.0
 11
-2180.081071150568
 21
2451.945072364547
 31
0.0
  0
LINE
  5
C2
330
1F
100
AcDbEntity
  8
0-7_金物
  6
Continuous
 62
     7
370
     9
100
AcDbLine
 10
-2192.081407668727
 20
2271.945220828441
 30
0.0
 11
-2180.081071150568
 21
2271.945220828441
 31
0.0
  0
LINE
  5
C3
330
1F
100
AcDbEntity
  8
0-7_金物
  6
Continuous
 62
     7
370
     9
100
AcDbLine
 10
-2180.081071150568
 20
2301.945319804373
 30
0.0
 11
-2168.081476951877
 21
2301.945319804373
 31
0.0
  0
LINE
  5
C4
330
1F
100
AcDbEntity
  8
0-7_金物
  6
Continuous
 62
     7
370
     9
100
AcDbLine
 10
-2180.081071150568
 20
2421.94497338862
 30
0.0
 11
-2168.081476951877
 21
2421.94497338862
 31
0.0
  0
LINE
  5
C5
330
1F
100
AcDbEntity
  8
0-7_金物
  6
Continuous
 62
     7
370
     9
100
AcDbLine
 10
-2168.081476951877
 20
2301.945319804373
 30
0.0
 11
-2168.081476951877
 21
2421.94497338862
 31
0.0
  0
LINE
  5
C6
330
1F
100
AcDbEntity
  8
0-7_金物
  6
Continuous
 62
     7
370
     9
100
AcDbLine
 10
-2168.081476951877
 20
2415.94554744901
 30
0.0
 11
-2162.081407668727
 21
2415.94554744901
 31
0.0
  0
LINE
  5
C7
330
1F
100
AcDbEntity
  8
0-7_金物
  6
Continuous
 62
     7
370
     9
100
AcDbLine
 10
-2168.081476951877
 20
2307.945488063451
 30
0.0
 11
-2162.081407668727
 21
2307.945488063451
 31
0.0
  0
LINE
  5
C8
330
1F
100
AcDbEntity
  8
0-7_金物
  6
Continuous
 62
     7
370
     9
100
AcDbLine
 10
-2192.081407668727
 20
2271.945220828441
 30
0.0
 11
-2192.081407668727
 21
2451.945072364547
 31
0.0
  0
MTEXT
  5
C9
330
1F
100
AcDbEntity
  8
0-0_補助線
  6
Continuous
 62
     7
370
   211
100
AcDbMText
 10
-2175.486629360072
 20
2325.079196304033
 30
0.0
 40
91.43999999999912
 41
179.9999999999983
 46
0.0
 71
     7
 72
     1
  1
{\fＭＳ ゴシック|b0|i0|c128|p49;3.5}
 73
     1
 44
1.0
  0
LINE
  5
CA
330
1F
100
AcDbEntity
  8
0-B_寸法
  6
Continuous
 62
   120
370
     5
100
AcDbLine
 10
-2192.081407668727
 20
3141.945146596494
 30
0.0
 11
2211.918592331277
 21
3141.945146596494
 31
0.0
  0
LWPOLYLINE
  5
CB
330
1F
100
AcDbEntity
  8
0-B_寸法
  6
Continuous
 62
     7
370
     9
100
AcDbPolyline
 90
        4
 70
     1
 43
3.0
 10
-2190.581407668727
 20
3141.945146596494
 42
0.4142135623731
 10
-2192.081407668727
 20
3143.445146596494
 42
0.4142135623731
 10
-2193.581407668727
 20
3141.945146596494
 42
0.4142135623731
 10
-2192.081407668727
 20
3140.445146596494
 42
0.4142135623731
  0
LWPOLYLINE
  5
CC
330
1F
100
AcDbEntity
  8
0-B_寸法
  6
Continuous
 62
     7
370
     9
100
AcDbPolyline
 90
        4
 70
     1
 43
3.0
 10
2213.418592331277
 20
3141.945146596494
 42
0.4142135623731
 10
2211.918592331277
 20
3143.445146596494
 42
0.4142135623731
 10
2210.418592331277
 20
3141.945146596494
 42
0.4142135623731
 10
2211.918592331277
 20
3140.445146596494
 42
0.4142135623731
  0
LINE
  5
CD
330
1F
100
AcDbEntity
  8
0-B_寸法
  6
Continuous
 62
   120
370
     5
100
AcDbLine
 10
-2192.081407668727
 20
3141.945146596494
 30
0.0
 11
-2192.081407668727
 21
2781.945146596495
 31
0.0
  0
LINE
  5
CE
330
1F
100
AcDbEntity
  8
0-B_寸法
  6
Continuous
 62
   120
370
     5
100
AcDbLine
 10
2211.918592331277
 20
3141.945146596494
 30
0.0
 11
2211.918592331277
 21
2781.945146596495
 31
0.0
  0
ARC
  5
CF
330
1F
100
AcDbEntity
  8
0-6_扉
  6
JWW_DASHED2
 62
    40
370
    15
100
AcDbCircle
 10
1720.835232220923
 20
2557.712520566674
 30
0.0
 40
18.0
100
AcDbArc
 50
85.6539792783598
 51
175.65397927836
  0
LINE
  5
D0
330
1F
100
AcDbEntity
  8
0-6_扉
  6
JWW_DASHED2
 62
    40
370
    15
100
AcDbLine
 10
1811.940478923157
 20
2568.840594224116
 30
0.0
 11
1722.199266006118
 21
2575.660763150083
 31
0.0
  0
ARC
  5
D1
330
1F
100
AcDbEntity
  8
0-6_扉
  6
JWW_DASHED2
 62
    40
370
    15
100
AcDbCircle
 10
1810.576445137963
 20
2550.892351640707
 30
0.0
 40
18.0
100
AcDbArc
 50
355.6539792783599
 51
85.6539792783597
  0
ARC
  5
D2
330
1F
100
AcDbEntity
  8
0-6_扉
  6
JWW_DASHED2
 62
    40
370
    15
100
AcDbCircle
 10
1377.608047831722
 20
2557.712520566677
 30
0.0
 40
18.0
100
AcDbArc
 50
4.346020721638975
 51
94.34602072163908
  0
LINE
  5
D3
330
1F
100
AcDbEntity
  8
0-6_扉
  6
JWW_DASHED2
 62
    40
370
    15
100
AcDbLine
 10
1286.50280112949
 20
2568.840594224119
 30
0.0
 11
1376.244014046528
 21
2575.660763150086
 31
0.0
  0
ARC
  5
D4
330
1F
100
AcDbEntity
  8
0-6_扉
  6
JWW_DASHED2
 62
    40
370
    15
100
AcDbCircle
 10
1287.866834914682
 20
2550.89235164071
 30
0.0
 40
18.0
100
AcDbArc
 50
94.34602072163908
 51
184.3460207216391
  0
LINE
  5
D5
330
1F
100
AcDbEntity
  8
0-6_扉
  6
JWW_DASHED2
 62
    40
370
    15
100
AcDbLine
 10
1828.52468772137
 20
2549.528317855514
 30
0.0
 11
1794.889171845651
 21
2106.945146596495
 31
0.0
  0
LINE
  5
D6
330
1F
100
AcDbEntity
  8
0-6_扉
  6
JWW_DASHED2
 62
    40
370
    15
100
AcDbLine
 10
1269.918592331277
 20
2549.528317855521
 30
0.0
 11
1303.554108206988
 21
2106.945146596495
 31
0.0
  0
LINE
  5
D7
330
1F
100
AcDbEntity
  8
0-6_扉
  6
JWW_DASHED2
 62
    40
370
    15
100
AcDbLine
 10
1395.556290415129
 20
2559.076554351873
 30
0.0
 11
1429.917454894569
 21
2106.945146596495
 31
0.0
  0
LINE
  5
D8
330
1F
100
AcDbEntity
  8
0-6_扉
  6
JWW_DASHED2
 62
    40
370
    15
100
AcDbLine
 10
1702.886989637516
 20
2559.076554351871
 30
0.0
 11
1668.525825158068
 21
2106.945146596495
 31
0.0
  0
LINE
  5
D9
330
1F
100
AcDbEntity
  8
0-1_通り芯
  6
JWW_CENTER1
 62
   120
370
     5
100
AcDbLine
 10
1269.918592331275
 20
2781.945146596495
 30
0.0
 11
1269.918592331275
 21
2549.528317855521
 31
0.0
  0
LWPOLYLINE
  5
DA
330
1F
100
AcDbEntity
  8
0-B_寸法
  6
Continuous
 62
     7
370
     9
100
AcDbPolyline
 90
        4
 70
     1
 43
3.0
 10
1271.418592331275
 20
2961.945146596494
 42
0.4142135623731
 10
1269.918592331275
 20
2963.445146596494
 42
0.4142135623731
 10
1268.418592331275
 20
2961.945146596494
 42
0.4142135623731
 10
1269.918592331275
 20
2960.445146596494
 42
0.4142135623731
  0
LINE
  5
DB
330
1F
100
AcDbEntity
  8
0-B_寸法
  6
Continuous
 62
   120
370
     5
100
AcDbLine
 10
1269.918592331275
 20
2961.945146596494
 30
0.0
 11
1269.918592331275
 21
2781.945146596495
 31
0.0
  0
ARC
  5
DC
330
1F
100
AcDbEntity
  8
0-6_扉
  6
JWW_DASHED2
 62
    40
370
    15
100
AcDbCircle
 10
-1700.998047558375
 20
2557.712520566674
 30
0.0
 40
18.0
100
AcDbArc
 50
4.346020721640005
 51
94.34602072164022
  0
LINE
  5
DD
330
1F
100
AcDbEntity
  8
0-6_扉
  6
JWW_DASHED2
 62
    40
370
    15
100
AcDbLine
 10
-1792.103294260609
 20
2568.840594224116
 30
0.0
 11
-1702.362081343568
 21
2575.660763150083
 31
0.0
  0
ARC
  5
DE
330
1F
100
AcDbEntity
  8
0-6_扉
  6
JWW_DASHED2
 62
    40
370
    15
100
AcDbCircle
 10
-1790.739260475413
 20
2550.892351640707
 30
0.0
 40
18.0
100
AcDbArc
 50
94.3460207216403
 51
184.3460207216401
  0
ARC
  5
DF
330
1F
100
AcDbEntity
  8
0-6_扉
  6
JWW_DASHED2
 62
    40
370
    15
100
AcDbCircle
 10
-1357.770863169173
 20
2557.712520566677
 30
0.0
 40
18.0
100
AcDbArc
 50
85.65397927836092
 51
175.653979278361
  0
LINE
  5
E0
330
1F
100
AcDbEntity
  8
0-6_扉
  6
JWW_DASHED2
 62
    40
370
    15
100
AcDbLine
 10
-1266.665616466939
 20
2568.840594224119
 30
0.0
 11
-1356.406829383977
 21
2575.660763150086
 31
0.0
  0
ARC
  5
E1
330
1F
100
AcDbEntity
  8
0-6_扉
  6
JWW_DASHED2
 62
    40
370
    15
100
AcDbCircle
 10
-1268.029650252132
 20
2550.89235164071
 30
0.0
 40
18.0
100
AcDbArc
 50
355.653979278361
 51
85.65397927836094
  0
LINE
  5
E2
330
1F
100
AcDbEntity
  8
0-6_扉
  6
JWW_DASHED2
 62
    40
370
    15
100
AcDbLine
 10
-1808.687503058821
 20
2549.528317855514
 30
0.0
 11
-1775.051987183101
 21
2106.945146596495
 31
0.0
  0
LINE
  5
E3
330
1F
100
AcDbEntity
  8
0-6_扉
  6
JWW_DASHED2
 62
    40
370
    15
100
AcDbLine
 10
-1250.081407668727
 20
2549.528317855521
 30
0.0
 11
-1283.716923544438
 21
2106.945146596495
 31
0.0
  0
LINE
  5
E4
330
1F
100
AcDbEntity
  8
0-6_扉
  6
JWW_DASHED2
 62
    40
370
    15
100
AcDbLine
 10
-1375.719105752579
 20
2559.076554351873
 30
0.0
 11
-1410.080270232019
 21
2106.945146596495
 31
0.0
  0
LINE
  5
E5
330
1F
100
AcDbEntity
  8
0-6_扉
  6
JWW_DASHED2
 62
    40
370
    15
100
AcDbLine
 10
-1683.049804974966
 20
2559.076554351871
 30
0.0
 11
-1648.688640495519
 21
2106.945146596495
 31
0.0
  0
LINE
  5
E6
330
1F
100
AcDbEntity
  8
0-1_通り芯
  6
JWW_CENTER1
 62
   120
370
     5
100
AcDbLine
 10
-1250.081407668727
 20
2781.945146596495
 30
0.0
 11
-1250.081407668727
 21
2549.528317855521
 31
0.0
  0
LWPOLYLINE
  5
E7
330
1F
100
AcDbEntity
  8
0-B_寸法
  6
Continuous
 62
     7
370
     9
100
AcDbPolyline
 90
        4
 70
     1
 43
3.0
 10
-1248.581407668727
 20
2961.945146596494
 42
0.4142135623731
 10
-1250.081407668727
 20
2963.445146596494
 42
0.4142135623731
 10
-1251.581407668727
 20
2961.945146596494
 42
0.4142135623731
 10
-1250.081407668727
 20
2960.445146596494
 42
0.4142135623731
  0
LINE
  5
E8
330
1F
100
AcDbEntity
  8
0-B_寸法
  6
Continuous
 62
   120
370
     5
100
AcDbLine
 10
-1250.081407668727
 20
2961.945146596494
 30
0.0
 11
-1250.081407668727
 21
2781.945146596495
 31
0.0
  0
LINE
  5
E9
330
1F
100
AcDbEntity
  8
0-B_寸法
  6
Continuous
 62
   120
370
     5
100
AcDbLine
 10
-1250.081407668727
 20
2961.945146596494
 30
0.0
 11
1269.918592331275
 21
2961.945146596494
 31
0.0
  0
MTEXT
  5
EA
330
1F
100
AcDbEntity
  8
0-B_寸法
  6
Continuous
 62
     7
370
   211
100
AcDbMText
 10
-380.0814076687274
 20
3142.665146596495
 30
0.0
 40
91.44000000000041
 41
780.0000000000034
 46
0.0
 71
     7
 72
     1
  1
{\fＭＳ ゴシック|b0|i0|c128|p49;ＲＯＷ＝1,645}
 73
     1
 44
1.0
  0
MTEXT
  5
EB
330
1F
100
AcDbEntity
  8
0-B_寸法
  6
Continuous
 62
     7
370
   211
100
AcDbMText
 10
-544.1829933761996
 20
2962.665146596494
 30
0.0
 40
91.43999999999993
 41
1139.999999999999
 46
0.0
 71
     7
 72
     1
  1
{\fＭＳ ゴシック|b0|i0|c128|p49;有効開口寸法＝1,331}
 73
     1
 44
1.0
  0
LINE
  5
EC
330
1F
100
AcDbEntity
  8
0-0_補助線
  6
JWW_HOJO
 62
     7
370
     9
100
AcDbLine
 10
9.918592331274283
 20
906.9451465964949
 30
0.0
 11
9.918592331274283
 21
3321.945146596494
 31
0.0
  0
LINE
  5
ED
330
1F
100
AcDbEntity
  8
0-0_補助線
  6
JWW_HOJO
 62
   120
370
     5
100
AcDbLine
 10
-2762.081209716868
 20
1086.945146596495
 30
0.0
 11
-2762.081209716868
 21
3141.945146596494
 31
0.0
  0
LINE
  5
EE
330
1F
100
AcDbEntity
  8
0-0_補助線
  6
JWW_HOJO
 62
   120
370
     5
100
AcDbLine
 10
2781.918394379421
 20
1446.945146596495
 30
0.0
 11
-2762.081209716868
 21
1446.945146596495
 31
0.0
  0
LINE
  5
EF
330
1F
100
AcDbEntity
  8
0-0_補助線
  6
JWW_HOJO
 62
   120
370
     5
100
AcDbLine
 10
2781.918394379421
 20
1266.945146596495
 30
0.0
 11
-2762.081209716868
 21
1266.945146596495
 31
0.0
  0
LINE
  5
F0
330
1F
100
AcDbEntity
  8
0-0_補助線
  6
JWW_HOJO
 62
   120
370
     5
100
AcDbLine
 10
2781.918394379421
 20
1086.945146596495
 30
0.0
 11
-2762.081209716868
 21
1086.945146596495
 31
0.0
  0
LINE
  5
F1
330
1F
100
AcDbEntity
  8
0-0_補助線
  6
JWW_HOJO
 62
     7
370
     9
100
AcDbLine
 10
-1982.081407668727
 20
906.9451465964949
 30
0.0
 11
-1982.081407668727
 21
3321.945146596494
 31
0.0
  0
LINE
  5
F2
330
1F
100
AcDbEntity
  8
0-0_補助線
  6
JWW_HOJO
 62
     7
370
     9
100
AcDbLine
 10
2001.918592331277
 20
906.9451465964949
 30
0.0
 11
2001.918592331277
 21
3321.945146596494
 31
0.0
  0
LINE
  5
F3
330
1F
100
AcDbEntity
  8
0-0_補助線
  6
JWW_HOJO
 62
   120
370
     5
100
AcDbLine
 10
2781.918394379421
 20
1626.945146596495
 30
0.0
 11
-2762.081209716868
 21
1626.945146596495
 31
0.0
  0
LINE
  5
F4
330
1F
100
AcDbEntity
  8
0-0_補助線
  6
JWW_HOJO
 62
   120
370
     5
100
AcDbLine
 10
2781.918394379421
 20
1806.945146596495
 30
0.0
 11
-2762.081209716868
 21
1806.945146596495
 31
0.0
  0
LINE
  5
F5
330
1F
100
AcDbEntity
  8
0-B_寸法
  6
Continuous
 62
   120
370
     5
100
AcDbLine
 10
-2162.081407668727
 20
1266.945146596495
 30
0.0
 11
-1982.081407668727
 21
1266.945146596495
 31
0.0
  0
LWPOLYLINE
  5
F6
330
1F
100
AcDbEntity
  8
0-B_寸法
  6
Continuous
 62
     7
370
     9
100
AcDbPolyline
 90
        4
 70
     1
 43
3.0
 10
-2160.581407668727
 20
1266.945146596495
 42
0.4142135623731
 10
-2162.081407668727
 20
1268.445146596495
 42
0.4142135623731
 10
-2163.581407668727
 20
1266.945146596495
 42
0.4142135623731
 10
-2162.081407668727
 20
1265.445146596495
 42
0.4142135623731
  0
LWPOLYLINE
  5
F7
330
1F
100
AcDbEntity
  8
0-B_寸法
  6
Continuous
 62
     7
370
     9
100
AcDbPolyline
 90
        4
 70
     1
 43
3.0
 10
-1980.581407668727
 20
1266.945146596495
 42
0.4142135623731
 10
-1982.081407668727
 20
1268.445146596495
 42
0.4142135623731
 10
-1983.581407668727
 20
1266.945146596495
 42
0.4142135623731
 10
-1982.081407668727
 20
1265.445146596495
 42
0.4142135623731
  0
LINE
  5
F8
330
1F
100
AcDbEntity
  8
0-B_寸法
  6
Continuous
 62
   120
370
     5
100
AcDbLine
 10
-1982.081407668727
 20
1266.945146596495
 30
0.0
 11
-1982.081407668727
 21
1626.945146596495
 31
0.0
  0
MTEXT
  5
F9
330
1F
100
AcDbEntity
  8
0-B_寸法
  6
Continuous
 62
     7
370
   211
100
AcDbMText
 10
-2132.081407668727
 20
1267.665146596496
 30
0.0
 40
91.4400000000013
 41
120.0000000000017
 46
0.0
 71
     7
 72
     1
  1
{\fＭＳ ゴシック|b0|i0|c128|p49;30}
 73
     1
 44
1.0
  0
LINE
  5
FA
330
1F
100
AcDbEntity
  8
0-B_寸法
  6
Continuous
 62
   120
370
     5
100
AcDbLine
 10
-1982.081407668727
 20
1266.945146596495
 30
0.0
 11
2001.918592331277
 21
1266.945146596495
 31
0.0
  0
LWPOLYLINE
  5
FB
330
1F
100
AcDbEntity
  8
0-B_寸法
  6
Continuous
 62
     7
370
     9
100
AcDbPolyline
 90
        4
 70
     1
 43
3.0
 10
2003.418592331277
 20
1266.945146596495
 42
0.4142135623731
 10
2001.918592331277
 20
1268.445146596495
 42
0.4142135623731
 10
2000.418592331277
 20
1266.945146596495
 42
0.4142135623731
 10
2001.918592331277
 20
1265.445146596495
 42
0.4142135623731
  0
LINE
  5
FC
330
1F
100
AcDbEntity
  8
0-B_寸法
  6
Continuous
 62
   120
370
     5
100
AcDbLine
 10
2001.918592331277
 20
1266.945146596495
 30
0.0
 11
2001.918592331277
 21
1626.945146596495
 31
0.0
  0
LINE
  5
FD
330
1F
100
AcDbEntity
  8
0-B_寸法
  6
Continuous
 62
   120
370
     5
100
AcDbLine
 10
2001.918592331277
 20
1266.945146596495
 30
0.0
 11
2181.918592331277
 21
1266.945146596495
 31
0.0
  0
LWPOLYLINE
  5
FE
330
1F
100
AcDbEntity
  8
0-B_寸法
  6
Continuous
 62
     7
370
     9
100
AcDbPolyline
 90
        4
 70
     1
 43
3.0
 10
2183.418592331277
 20
1266.945146596495
 42
0.4142135623731
 10
2181.918592331277
 20
1268.445146596495
 42
0.4142135623731
 10
2180.418592331277
 20
1266.945146596495
 42
0.4142135623731
 10
2181.918592331277
 20
1265.445146596495
 42
0.4142135623731
  0
MTEXT
  5
FF
330
1F
100
AcDbEntity
  8
0-B_寸法
  6
Continuous
 62
     7
370
   211
100
AcDbMText
 10
2031.918592331276
 20
1267.665146596495
 30
0.0
 40
91.43999999999967
 41
119.9999999999996
 46
0.0
 71
     7
 72
     1
  1
{\fＭＳ ゴシック|b0|i0|c128|p49;30}
 73
     1
 44
1.0
  0
LINE
  5
100
330
1F
100
AcDbEntity
  8
0-B_寸法
  6
Continuous
 62
   120
370
     5
100
AcDbLine
 10
-2162.081407668727
 20
1086.945146596495
 30
0.0
 11
2181.918592331277
 21
1086.945146596495
 31
0.0
  0
LWPOLYLINE
  5
101
330
1F
100
AcDbEntity
  8
0-B_寸法
  6
Continuous
 62
     7
370
     9
100
AcDbPolyline
 90
        4
 70
     1
 43
3.0
 10
-2160.581407668727
 20
1086.945146596495
 42
0.4142135623731
 10
-2162.081407668727
 20
1088.445146596495
 42
0.4142135623731
 10
-2163.581407668727
 20
1086.945146596495
 42
0.4142135623731
 10
-2162.081407668727
 20
1085.445146596495
 42
0.4142135623731
  0
LWPOLYLINE
  5
102
330
1F
100
AcDbEntity
  8
0-B_寸法
  6
Continuous
 62
     7
370
     9
100
AcDbPolyline
 90
        4
 70
     1
 43
3.0
 10
2183.418592331277
 20
1086.945146596495
 42
0.4142135623731
 10
2181.918592331277
 20
1088.445146596495
 42
0.4142135623731
 10
2180.418592331277
 20
1086.945146596495
 42
0.4142135623731
 10
2181.918592331277
 20
1085.445146596495
 42
0.4142135623731
  0
LINE
  5
103
330
1F
100
AcDbEntity
  8
0-B_寸法
  6
Continuous
 62
   120
370
     5
100
AcDbLine
 10
-2162.081407668727
 20
1086.945146596495
 30
0.0
 11
-2162.081407668727
 21
1266.945146596495
 31
0.0
  0
LINE
  5
104
330
1F
100
AcDbEntity
  8
0-B_寸法
  6
Continuous
 62
   120
370
     5
100
AcDbLine
 10
2181.918592331277
 20
1086.945146596495
 30
0.0
 11
2181.918592331277
 21
1266.945146596495
 31
0.0
  0
LINE
  5
105
330
1F
100
AcDbEntity
  8
0-0_補助線
  6
JWW_HOJO
 62
     7
370
     9
100
AcDbLine
 10
-996.5814076687252
 20
906.9451465964949
 30
0.0
 11
-996.5814076687252
 21
3321.945146596494
 31
0.0
  0
LINE
  5
106
330
1F
100
AcDbEntity
  8
0-0_補助線
  6
JWW_HOJO
 62
     7
370
     9
100
AcDbLine
 10
1016.418592331275
 20
906.9451465964949
 30
0.0
 11
1016.418592331275
 21
3321.945146596494
 31
0.0
  0
LINE
  5
107
330
1F
100
AcDbEntity
  8
0-B_寸法
  6
Continuous
 62
   120
370
     5
100
AcDbLine
 10
-1997.081407668727
 20
1626.945146596495
 30
0.0
 11
-999.5814076687259
 21
1626.945146596495
 31
0.0
  0
LWPOLYLINE
  5
108
330
1F
100
AcDbEntity
  8
0-B_寸法
  6
Continuous
 62
     7
370
     9
100
AcDbPolyline
 90
        4
 70
     1
 43
3.0
 10
-1995.581407668727
 20
1626.945146596495
 42
0.4142135623731
 10
-1997.081407668727
 20
1628.445146596495
 42
0.4142135623731
 10
-1998.581407668727
 20
1626.945146596495
 42
0.4142135623731
 10
-1997.081407668727
 20
1625.445146596495
 42
0.4142135623731
  0
LWPOLYLINE
  5
109
330
1F
100
AcDbEntity
  8
0-B_寸法
  6
Continuous
 62
     7
370
     9
100
AcDbPolyline
 90
        4
 70
     1
 43
3.0
 10
-998.081407668726
 20
1626.945146596495
 42
0.4142135623731
 10
-999.5814076687259
 20
1628.445146596495
 42
0.4142135623731
 10
-1001.081407668726
 20
1626.945146596495
 42
0.4142135623731
 10
-999.5814076687259
 20
1625.445146596495
 42
0.4142135623731
  0
LINE
  5
10A
330
1F
100
AcDbEntity
  8
0-B_寸法
  6
Continuous
 62
   120
370
     5
100
AcDbLine
 10
-1997.081407668727
 20
1446.945146596495
 30
0.0
 11
-1997.081407668727
 21
1806.945146596495
 31
0.0
  0
LINE
  5
10B
330
1F
100
AcDbEntity
  8
0-B_寸法
  6
Continuous
 62
   120
370
     5
100
AcDbLine
 10
-999.5814076687259
 20
1626.945146596495
 30
0.0
 11
-999.5814076687259
 21
1806.945146596495
 31
0.0
  0
LINE
  5
10C
330
1F
100
AcDbEntity
  8
0-B_寸法
  6
Continuous
 62
   120
370
     5
100
AcDbLine
 10
-993.5814076687254
 20
1626.945146596495
 30
0.0
 11
3.918592331274624
 21
1626.945146596495
 31
0.0
  0
LWPOLYLINE
  5
10D
330
1F
100
AcDbEntity
  8
0-B_寸法
  6
Continuous
 62
     7
370
     9
100
AcDbPolyline
 90
        4
 70
     1
 43
3.0
 10
-992.0814076687254
 20
1626.945146596495
 42
0.4142135623731
 10
-993.5814076687254
 20
1628.445146596495
 42
0.4142135623731
 10
-995.0814076687253
 20
1626.945146596495
 42
0.4142135623731
 10
-993.5814076687254
 20
1625.445146596495
 42
0.4142135623731
  0
LWPOLYLINE
  5
10E
330
1F
100
AcDbEntity
  8
0-B_寸法
  6
Continuous
 62
     7
370
     9
100
AcDbPolyline
 90
        4
 70
     1
 43
3.0
 10
5.418592331274624
 20
1626.945146596495
 42
0.4142135623731
 10
3.918592331274624
 20
1628.445146596495
 42
0.4142135623731
 10
2.418592331274624
 20
1626.945146596495
 42
0.4142135623731
 10
3.918592331274624
 20
1625.445146596495
 42
0.4142135623731
  0
LINE
  5
10F
330
1F
100
AcDbEntity
  8
0-B_寸法
  6
Continuous
 62
   120
370
     5
100
AcDbLine
 10
-993.5814076687254
 20
1626.945146596495
 30
0.0
 11
-993.5814076687254
 21
1806.945146596495
 31
0.0
  0
LINE
  5
110
330
1F
100
AcDbEntity
  8
0-B_寸法
  6
Continuous
 62
   120
370
     5
100
AcDbLine
 10
3.918592331274624
 20
1446.945146596495
 30
0.0
 11
3.918592331274624
 21
1806.945146596495
 31
0.0
  0
LINE
  5
111
330
1F
100
AcDbEntity
  8
0-B_寸法
  6
Continuous
 62
   120
370
     5
100
AcDbLine
 10
15.91859233127565
 20
1626.945146596495
 30
0.0
 11
1013.418592331275
 21
1626.945146596495
 31
0.0
  0
LWPOLYLINE
  5
112
330
1F
100
AcDbEntity
  8
0-B_寸法
  6
Continuous
 62
     7
370
     9
100
AcDbPolyline
 90
        4
 70
     1
 43
3.0
 10
17.41859233127565
 20
1626.945146596495
 42
0.4142135623731
 10
15.91859233127565
 20
1628.445146596495
 42
0.4142135623731
 10
14.41859233127565
 20
1626.945146596495
 42
0.4142135623731
 10
15.91859233127565
 20
1625.445146596495
 42
0.4142135623731
  0
LWPOLYLINE
  5
113
330
1F
100
AcDbEntity
  8
0-B_寸法
  6
Continuous
 62
     7
370
     9
100
AcDbPolyline
 90
        4
 70
     1
 43
3.0
 10
1014.918592331275
 20
1626.945146596495
 42
0.4142135623731
 10
1013.418592331275
 20
1628.445146596495
 42
0.4142135623731
 10
1011.918592331275
 20
1626.945146596495
 42
0.4142135623731
 10
1013.418592331275
 20
1625.445146596495
 42
0.4142135623731
  0
LINE
  5
114
330
1F
100
AcDbEntity
  8
0-B_寸法
  6
Continuous
 62
   120
370
     5
100
AcDbLine
 10
15.91859233127565
 20
1446.945146596495
 30
0.0
 11
15.91859233127565
 21
1806.945146596495
 31
0.0
  0
LINE
  5
115
330
1F
100
AcDbEntity
  8
0-B_寸法
  6
Continuous
 62
   120
370
     5
100
AcDbLine
 10
1013.418592331275
 20
1626.945146596495
 30
0.0
 11
1013.418592331275
 21
1806.945146596495
 31
0.0
  0
LINE
  5
116
330
1F
100
AcDbEntity
  8
0-B_寸法
  6
Continuous
 62
   120
370
     5
100
AcDbLine
 10
1019.418592331276
 20
1626.945146596495
 30
0.0
 11
2016.918592331279
 21
1626.945146596495
 31
0.0
  0
LWPOLYLINE
  5
117
330
1F
100
AcDbEntity
  8
0-B_寸法
  6
Continuous
 62
     7
370
     9
100
AcDbPolyline
 90
        4
 70
     1
 43
3.0
 10
1020.918592331276
 20
1626.945146596495
 42
0.4142135623731
 10
1019.418592331276
 20
1628.445146596495
 42
0.4142135623731
 10
1017.918592331276
 20
1626.945146596495
 42
0.4142135623731
 10
1019.418592331276
 20
1625.445146596495
 42
0.4142135623731
  0
LWPOLYLINE
  5
118
330
1F
100
AcDbEntity
  8
0-B_寸法
  6
Continuous
 62
     7
370
     9
100
AcDbPolyline
 90
        4
 70
     1
 43
3.0
 10
2018.418592331279
 20
1626.945146596495
 42
0.4142135623731
 10
2016.918592331279
 20
1628.445146596495
 42
0.4142135623731
 10
2015.418592331279
 20
1626.945146596495
 42
0.4142135623731
 10
2016.918592331279
 20
1625.445146596495
 42
0.4142135623731
  0
LINE
  5
119
330
1F
100
AcDbEntity
  8
0-B_寸法
  6
Continuous
 62
   120
370
     5
100
AcDbLine
 10
1019.418592331276
 20
1626.945146596495
 30
0.0
 11
1019.418592331276
 21
1806.945146596495
 31
0.0
  0
LINE
  5
11A
330
1F
100
AcDbEntity
  8
0-B_寸法
  6
Continuous
 62
   120
370
     5
100
AcDbLine
 10
2016.918592331279
 20
1446.945146596495
 30
0.0
 11
2016.918592331279
 21
1806.945146596495
 31
0.0
  0
LINE
  5
11B
330
1F
100
AcDbEntity
  8
0-B_寸法
  6
Continuous
 62
   120
370
     5
100
AcDbLine
 10
-1997.081407668727
 20
1446.945146596495
 30
0.0
 11
3.918592331274624
 21
1446.945146596495
 31
0.0
  0
LWPOLYLINE
  5
11C
330
1F
100
AcDbEntity
  8
0-B_寸法
  6
Continuous
 62
     7
370
     9
100
AcDbPolyline
 90
        4
 70
     1
 43
3.0
 10
-1995.581407668727
 20
1446.945146596495
 42
0.4142135623731
 10
-1997.081407668727
 20
1448.445146596495
 42
0.4142135623731
 10
-1998.581407668727
 20
1446.945146596495
 42
0.4142135623731
 10
-1997.081407668727
 20
1445.445146596495
 42
0.4142135623731
  0
LWPOLYLINE
  5
11D
330
1F
100
AcDbEntity
  8
0-B_寸法
  6
Continuous
 62
     7
370
     9
100
AcDbPolyline
 90
        4
 70
     1
 43
3.0
 10
5.418592331274624
 20
1446.945146596495
 42
0.4142135623731
 10
3.918592331274624
 20
1448.445146596495
 42
0.4142135623731
 10
2.418592331274624
 20
1446.945146596495
 42
0.4142135623731
 10
3.918592331274624
 20
1445.445146596495
 42
0.4142135623731
  0
LINE
  5
11E
330
1F
100
AcDbEntity
  8
0-B_寸法
  6
Continuous
 62
   120
370
     5
100
AcDbLine
 10
3.918592331274624
 20
1446.945146596495
 30
0.0
 11
15.91859233127565
 21
1446.945146596495
 31
0.0
  0
LWPOLYLINE
  5
11F
330
1F
100
AcDbEntity
  8
0-B_寸法
  6
Continuous
 62
     7
370
     9
100
AcDbPolyline
 90
        4
 70
     1
 43
3.0
 10
17.41859233127565
 20
1446.945146596495
 42
0.4142135623731
 10
15.91859233127565
 20
1448.445146596495
 42
0.4142135623731
 10
14.41859233127565
 20
1446.945146596495
 42
0.4142135623731
 10
15.91859233127565
 20
1445.445146596495
 42
0.4142135623731
  0
LINE
  5
120
330
1F
100
AcDbEntity
  8
0-B_寸法
  6
Continuous
 62
   120
370
     5
100
AcDbLine
 10
15.91859233127565
 20
1446.945146596495
 30
0.0
 11
2016.918592331279
 21
1446.945146596495
 31
0.0
  0
LWPOLYLINE
  5
121
330
1F
100
AcDbEntity
  8
0-B_寸法
  6
Continuous
 62
     7
370
     9
100
AcDbPolyline
 90
        4
 70
     1
 43
3.0
 10
2018.418592331279
 20
1446.945146596495
 42
0.4142135623731
 10
2016.918592331279
 20
1448.445146596495
 42
0.4142135623731
 10
2015.418592331279
 20
1446.945146596495
 42
0.4142135623731
 10
2016.918592331279
 20
1445.445146596495
 42
0.4142135623731
  0
MTEXT
  5
122
330
1F
100
AcDbEntity
  8
0-B_寸法
  6
Continuous
 62
     7
370
   211
100
AcDbMText
 10
-1768.331407668725
 20
1627.665146596495
 30
0.0
 40
91.43999999999986
 41
539.9999999999991
 46
0.0
 71
     7
 72
     1
  1
{\fＭＳ ゴシック|b0|i0|c128|p49;ＤＷ＝394}
 73
     1
 44
1.0
  0
MTEXT
  5
123
330
1F
100
AcDbEntity
  8
0-B_寸法
  6
Continuous
 62
     7
370
   211
100
AcDbMText
 10
-764.8314076687254
 20
1627.665146596495
 30
0.0
 40
91.43999999999986
 41
539.9999999999991
 46
0.0
 71
     7
 72
     1
  1
{\fＭＳ ゴシック|b0|i0|c128|p49;ＤＷ＝394}
 73
     1
 44
1.0
  0
MTEXT
  5
124
330
1F
100
AcDbEntity
  8
0-B_寸法
  6
Continuous
 62
     7
370
   211
100
AcDbMText
 10
244.6685923312756
 20
1627.665146596495
 30
0.0
 40
91.43999999999986
 41
539.9999999999991
 46
0.0
 71
     7
 72
     1
  1
{\fＭＳ ゴシック|b0|i0|c128|p49;ＤＷ＝394}
 73
     1
 44
1.0
  0
MTEXT
  5
125
330
1F
100
AcDbEntity
  8
0-B_寸法
  6
Continuous
 62
     7
370
   211
100
AcDbMText
 10
1248.168592331277
 20
1627.665146596495
 30
0.0
 40
91.43999999999986
 41
539.9999999999991
 46
0.0
 71
     7
 72
     1
  1
{\fＭＳ ゴシック|b0|i0|c128|p49;ＤＷ＝394}
 73
     1
 44
1.0
  0
MTEXT
  5
126
330
1F
100
AcDbEntity
  8
0-B_寸法
  6
Continuous
 62
     7
370
   211
100
AcDbMText
 10
-1446.581407668725
 20
1447.665146596495
 30
0.0
 40
91.44000000000001
 41
900.0
 46
0.0
 71
     7
 72
     1
  1
{\fＭＳ ゴシック|b0|i0|c128|p49;折戸：ＤＷ＝789}
 73
     1
 44
1.0
  0
MTEXT
  5
127
330
1F
100
AcDbEntity
  8
0-B_寸法
  6
Continuous
 62
     7
370
   211
100
AcDbMText
 10
566.4185923312772
 20
1447.665146596495
 30
0.0
 40
91.44000000000001
 41
900.0
 46
0.0
 71
     7
 72
     1
  1
{\fＭＳ ゴシック|b0|i0|c128|p49;折戸：ＤＷ＝789}
 73
     1
 44
1.0
  0
MTEXT
  5
128
330
1F
100
AcDbEntity
  8
0-B_寸法
  6
Continuous
 62
     7
370
   211
100
AcDbMText
 10
-320.0814076687266
 20
1267.665146596495
 30
0.0
 40
91.44000000000024
 41
660.0000000000017
 46
0.0
 71
     7
 72
     1
  1
{\fＭＳ ゴシック|b0|i0|c128|p49;枠内＝1,575}
 73
     1
 44
1.0
  0
MTEXT
  5
129
330
1F
100
AcDbEntity
  8
0-B_寸法
  6
Continuous
 62
     7
370
   211
100
AcDbMText
 10
-320.0814076687266
 20
1087.665146596495
 30
0.0
 40
91.44000000000024
 41
660.0000000000017
 46
0.0
 71
     7
 72
     1
  1
{\fＭＳ ゴシック|b0|i0|c128|p49;枠外＝1,635}
 73
     1
 44
1.0
  0
MTEXT
  5
12A
330
1F
100
AcDbEntity
  8
0-B_寸法
  6
Continuous
 62
     7
370
   211
100
AcDbMText
 10
39.91859233127343
 20
1447.665146596496
 30
0.0
 40
91.4400000000013
 41
60.00000000000085
 46
0.0
 71
     7
 72
     1
  1
{\fＭＳ ゴシック|b0|i0|c128|p49;2}
 73
     1
 44
1.0
  0
LINE
  5
12B
330
1F
100
AcDbEntity
  8
0-0_補助線
  6
JWW_HOJO
 62
   120
370
     5
100
AcDbLine
 10
2781.918394379421
 20
1986.945146596495
 30
0.0
 11
-2762.081209716868
 21
1986.945146596495
 31
0.0
  0
LINE
  5
12C
330
1F
100
AcDbEntity
  8
0-C_ハッチ
  6
Continuous
 62
   120
370
     5
100
AcDbLine
 10
-2162.081407668722
 20
2387.264773392185
 30
0.0
 11
-1982.081407668726
 21
2567.264773392183
 31
0.0
  0
LINE
  5
12D
330
1F
100
AcDbEntity
  8
0-C_ハッチ
  6
Continuous
 62
   120
370
     5
100
AcDbLine
 10
-2162.081407668728
 20
2327.867803772477
 30
0.0
 11
-1982.08140766874
 21
2507.867803772467
 31
0.0
  0
LINE
  5
12E
330
1F
100
AcDbEntity
  8
0-C_ハッチ
  6
Continuous
 62
   120
370
     5
100
AcDbLine
 10
-2162.081407668726
 20
2268.470834152834
 30
0.0
 11
-2012.98339090948
 21
2417.568850912078
 31
0.0
  0
LINE
  5
12F
330
1F
100
AcDbEntity
  8
0-C_ハッチ
  6
Continuous
 62
   120
370
     5
100
AcDbLine
 10
-2162.08140766872
 20
2209.07386453319
 30
0.0
 11
-2017.956386889899
 21
2353.198885312011
 31
0.0
  0
ARC
  5
130
330
1F
100
AcDbEntity
  8
0-4_枠
  6
Continuous
 62
    92
370
    13
100
AcDbCircle
 10
-1712.081407668723
 20
2361.945146596495
 30
0.0
 40
306.0000000000022
100
AcDbArc
 50
151.9275130641473
 51
208.0724869358527
  0
LINE
  5
131
330
1F
100
AcDbEntity
  8
0-4_枠
  6
Continuous
 62
    92
370
    13
100
AcDbLine
 10
-2096.081407668725
 20
2190.946220485323
 30
0.0
 11
-2042.081407668726
 21
2190.946220485323
 31
0.0
  0
LINE
  5
132
330
1F
100
AcDbEntity
  8
0-4_枠
  6
Continuous
 62
    92
370
    13
100
AcDbLine
 10
-2162.081407668726
 20
2172.946220485326
 30
0.0
 11
-2132.081407668726
 21
2172.946220485326
 31
0.0
  0
LINE
  5
133
330
1F
100
AcDbEntity
  8
0-4_枠
  6
Continuous
 62
    92
370
    13
100
AcDbLine
 10
-2132.081407668726
 20
2130.946220485323
 30
0.0
 11
-2132.081407668726
 21
2172.946220485326
 31
0.0
  0
LINE
  5
134
330
1F
100
AcDbEntity
  8
0-4_枠
  6
Continuous
 62
    92
370
    13
100
AcDbLine
 10
-2096.081407668725
 20
2130.946220485323
 30
0.0
 11
-2096.081407668725
 21
2190.946220485323
 31
0.0
  0
LINE
  5
135
330
1F
100
AcDbEntity
  8
0-4_枠
  6
Continuous
 62
    92
370
    13
100
AcDbLine
 10
-2132.081407668726
 20
2130.946220485323
 30
0.0
 11
-2096.081407668725
 21
2130.946220485323
 31
0.0
  0
LINE
  5
136
330
1F
100
AcDbEntity
  8
0-4_枠
  6
Continuous
 62
    92
370
    13
100
AcDbLine
 10
-2042.081407668726
 20
2130.946220485323
 30
0.0
 11
-2042.081407668726
 21
2190.946220485323
 31
0.0
  0
LINE
  5
137
330
1F
100
AcDbEntity
  8
0-4_枠
  6
Continuous
 62
    92
370
    13
100
AcDbLine
 10
-2042.081407668726
 20
2130.946220485323
 30
0.0
 11
-2026.669364701604
 21
2130.946220485323
 31
0.0
  0
LINE
  5
138
330
1F
100
AcDbEntity
  8
0-4_枠
  6
Continuous
 62
    92
370
    13
100
AcDbLine
 10
-2026.669364701604
 20
2130.946220485323
 30
0.0
 11
-1982.081407668726
 21
2130.946220485323
 31
0.0
  0
LINE
  5
139
330
1F
100
AcDbEntity
  8
0-4_枠
  6
Continuous
 62
    92
370
    13
100
AcDbLine
 10
-1982.081407668726
 20
2130.946220485323
 30
0.0
 11
-1982.081407668726
 21
2217.945146596496
 31
0.0
  0
LINE
  5
13A
330
1F
100
AcDbEntity
  8
0-4_枠
  6
Continuous
 62
    92
370
    13
100
AcDbLine
 10
-2162.081407668726
 20
2172.946220485326
 30
0.0
 11
-2162.081407668726
 21
2592.946220485323
 31
0.0
  0
LINE
  5
13B
330
1F
100
AcDbEntity
  8
0-C_ハッチ
  6
Continuous
 62
   120
370
     5
100
AcDbLine
 10
-2162.08140766874
 20
2565.455682251161
 30
0.0
 11
-2134.59086943458
 21
2592.946220485323
 31
0.0
  0
LINE
  5
13C
330
1F
100
AcDbEntity
  8
0-C_ハッチ
  6
Continuous
 62
   120
370
     5
100
AcDbLine
 10
-2162.081407668735
 20
2446.661743011819
 30
0.0
 11
-2015.796930195231
 21
2592.946220485323
 31
0.0
  0
LINE
  5
13D
330
1F
100
AcDbEntity
  8
0-C_ハッチ
  6
Continuous
 62
   120
370
     5
100
AcDbLine
 10
-2162.081407668724
 20
2506.058712631534
 30
0.0
 11
-2075.193899814934
 21
2592.946220485323
 31
0.0
  0
LINE
  5
13E
330
1F
100
AcDbEntity
  8
0-4_枠
  6
Continuous
 62
    92
370
    13
100
AcDbLine
 10
-1982.081407668726
 20
2505.945146596496
 30
0.0
 11
-1982.081407668726
 21
2592.946220485323
 31
0.0
  0
LINE
  5
13F
330
1F
100
AcDbEntity
  8
0-4_枠
  6
Continuous
 62
    92
370
    13
100
AcDbLine
 10
-2162.081407668726
 20
2592.946220485323
 30
0.0
 11
-1982.081407668726
 21
2592.946220485323
 31
0.0
  0
LINE
  5
140
330
1F
100
AcDbEntity
  8
0-C_ハッチ
  6
Continuous
 62
   120
370
     5
100
AcDbLine
 10
-2138.812082096885
 20
2172.946220485326
 30
0.0
 11
-2011.748011805093
 21
2300.010290777116
 31
0.0
  0
LINE
  5
141
330
1F
100
AcDbEntity
  8
0-C_ハッチ
  6
Continuous
 62
   120
370
     5
100
AcDbLine
 10
-2061.415112477238
 20
2190.946220485323
 30
0.0
 11
-1998.396398262602
 21
2253.964934699959
 31
0.0
  0
LINE
  5
142
330
1F
100
AcDbEntity
  8
0-C_ハッチ
  6
Continuous
 62
   120
370
     5
100
AcDbLine
 10
-2121.415112477238
 20
2130.946220485323
 30
0.0
 11
-2096.081407668725
 21
2156.279925293836
 31
0.0
  0
LINE
  5
143
330
1F
100
AcDbEntity
  8
0-C_ハッチ
  6
Continuous
 62
   120
370
     5
100
AcDbLine
 10
-2042.081407668726
 20
2150.882955674133
 30
0.0
 11
-1982.081407668728
 21
2210.882955674131
 31
0.0
  0
LINE
  5
144
330
1F
100
AcDbEntity
  8
0-C_ハッチ
  6
Continuous
 62
   120
370
     5
100
AcDbLine
 10
-2002.621173237889
 20
2130.946220485323
 30
0.0
 11
-1982.081407668733
 21
2151.485986054481
 31
0.0
  0
ARC
  5
145
330
1F
100
AcDbEntity
  8
0-4_枠
  6
Continuous
 62
    92
370
    13
100
AcDbCircle
 10
1731.918592331273
 20
2361.945146596495
 30
0.0
 40
306.0000000000022
100
AcDbArc
 50
331.9275130641473
 51
28.07248693585271
  0
LINE
  5
146
330
1F
100
AcDbEntity
  8
0-4_枠
  6
Continuous
 62
    92
370
    13
100
AcDbLine
 10
2115.918592331275
 20
2190.946220485323
 30
0.0
 11
2061.918592331277
 21
2190.946220485323
 31
0.0
  0
LINE
  5
147
330
1F
100
AcDbEntity
  8
0-4_枠
  6
Continuous
 62
    92
370
    13
100
AcDbLine
 10
2181.918592331277
 20
2172.946220485326
 30
0.0
 11
2151.918592331277
 21
2172.946220485326
 31
0.0
  0
LINE
  5
148
330
1F
100
AcDbEntity
  8
0-4_枠
  6
Continuous
 62
    92
370
    13
100
AcDbLine
 10
2151.918592331277
 20
2130.946220485323
 30
0.0
 11
2151.918592331277
 21
2172.946220485326
 31
0.0
  0
LINE
  5
149
330
1F
100
AcDbEntity
  8
0-4_枠
  6
Continuous
 62
    92
370
    13
100
AcDbLine
 10
2115.918592331275
 20
2130.946220485323
 30
0.0
 11
2115.918592331275
 21
2190.946220485323
 31
0.0
  0
LINE
  5
14A
330
1F
100
AcDbEntity
  8
0-4_枠
  6
Continuous
 62
    92
370
    13
100
AcDbLine
 10
2151.918592331277
 20
2130.946220485323
 30
0.0
 11
2115.918592331275
 21
2130.946220485323
 31
0.0
  0
LINE
  5
14B
330
1F
100
AcDbEntity
  8
0-4_枠
  6
Continuous
 62
    92
370
    13
100
AcDbLine
 10
2061.918592331277
 20
2130.946220485323
 30
0.0
 11
2061.918592331277
 21
2190.946220485323
 31
0.0
  0
LINE
  5
14C
330
1F
100
AcDbEntity
  8
0-4_枠
  6
Continuous
 62
    92
370
    13
100
AcDbLine
 10
2061.918592331277
 20
2130.946220485323
 30
0.0
 11
2046.506549364153
 21
2130.946220485323
 31
0.0
  0
LINE
  5
14D
330
1F
100
AcDbEntity
  8
0-4_枠
  6
Continuous
 62
    92
370
    13
100
AcDbLine
 10
2046.506549364153
 20
2130.946220485323
 30
0.0
 11
2001.918592331277
 21
2130.946220485323
 31
0.0
  0
LINE
  5
14E
330
1F
100
AcDbEntity
  8
0-4_枠
  6
Continuous
 62
    92
370
    13
100
AcDbLine
 10
2001.918592331277
 20
2130.946220485323
 30
0.0
 11
2001.918592331277
 21
2217.945146596496
 31
0.0
  0
LINE
  5
14F
330
1F
100
AcDbEntity
  8
0-4_枠
  6
Continuous
 62
    92
370
    13
100
AcDbLine
 10
2181.918592331277
 20
2172.946220485326
 30
0.0
 11
2181.918592331277
 21
2592.946220485323
 31
0.0
  0
LINE
  5
150
330
1F
100
AcDbEntity
  8
0-4_枠
  6
Continuous
 62
    92
370
    13
100
AcDbLine
 10
2001.918592331277
 20
2505.945146596496
 30
0.0
 11
2001.918592331277
 21
2592.946220485323
 31
0.0
  0
LINE
  5
151
330
1F
100
AcDbEntity
  8
0-4_枠
  6
Continuous
 62
    92
370
    13
100
AcDbLine
 10
2181.918592331277
 20
2592.946220485323
 30
0.0
 11
2001.918592331277
 21
2592.946220485323
 31
0.0
  0
LINE
  5
152
330
1F
100
AcDbEntity
  8
0-C_ハッチ
  6
Continuous
 62
   120
370
     5
100
AcDbLine
 10
2130.943833667043
 20
2130.946220485326
 30
0.0
 11
2151.918592331279
 21
2151.920979149559
 31
0.0
  0
LINE
  5
153
330
1F
100
AcDbEntity
  8
0-C_ハッチ
  6
Continuous
 62
   120
370
     5
100
AcDbLine
 10
2172.943833667032
 20
2172.946220485313
 30
0.0
 11
2181.91859233129
 21
2181.92097914957
 31
0.0
  0
LINE
  5
154
330
1F
100
AcDbEntity
  8
0-C_ハッチ
  6
Continuous
 62
   120
370
     5
100
AcDbLine
 10
2115.918592331258
 20
2175.317948769244
 30
0.0
 11
2181.918592331277
 21
2241.317948769259
 31
0.0
  0
LINE
  5
155
330
1F
100
AcDbEntity
  8
0-C_ハッチ
  6
Continuous
 62
   120
370
     5
100
AcDbLine
 10
2012.149894427691
 20
2130.946220485323
 30
0.0
 11
2061.918592331279
 21
2180.714918388908
 31
0.0
  0
LINE
  5
156
330
1F
100
AcDbEntity
  8
0-C_ハッチ
  6
Continuous
 62
   120
370
     5
100
AcDbLine
 10
2072.149894427694
 20
2190.946220485323
 30
0.0
 11
2181.918592331283
 21
2300.714918388913
 31
0.0
  0
LINE
  5
157
330
1F
100
AcDbEntity
  8
0-C_ハッチ
  6
Continuous
 62
   120
370
     5
100
AcDbLine
 10
2001.918592331283
 20
2180.111888008561
 30
0.0
 11
2181.918592331283
 21
2360.11188800856
 31
0.0
  0
LINE
  5
158
330
1F
100
AcDbEntity
  8
0-C_ハッチ
  6
Continuous
 62
   120
370
     5
100
AcDbLine
 10
2019.331252961996
 20
2256.921518258976
 30
0.0
 11
2181.918592331283
 21
2419.508857628262
 31
0.0
  0
LINE
  5
159
330
1F
100
AcDbEntity
  8
0-C_ハッチ
  6
Continuous
 62
   120
370
     5
100
AcDbLine
 10
2036.601933709461
 20
2333.589168626088
 30
0.0
 11
2181.918592331279
 21
2478.905827247905
 31
0.0
  0
LINE
  5
15A
330
1F
100
AcDbEntity
  8
0-C_ハッチ
  6
Continuous
 62
   120
370
     5
100
AcDbLine
 10
2036.364246639236
 20
2392.748451175564
 30
0.0
 11
2181.918592331279
 21
2538.302796867608
 31
0.0
  0
LINE
  5
15B
330
1F
100
AcDbEntity
  8
0-C_ハッチ
  6
Continuous
 62
   120
370
     5
100
AcDbLine
 10
2027.037902768956
 20
2442.819076924932
 30
0.0
 11
2177.165046329348
 21
2592.946220485323
 31
0.0
  0
LINE
  5
15C
330
1F
100
AcDbEntity
  8
0-C_ハッチ
  6
Continuous
 62
   120
370
     5
100
AcDbLine
 10
2011.391040434577
 20
2486.5691842102
 30
0.0
 11
2117.76807670969
 21
2592.946220485313
 31
0.0
  0
LINE
  5
15D
330
1F
100
AcDbEntity
  8
0-C_ハッチ
  6
Continuous
 62
   120
370
     5
100
AcDbLine
 10
2001.918592331283
 20
2536.493705726607
 30
0.0
 11
2058.371107089989
 21
2592.946220485313
 31
0.0
  0
LINE
  5
15E
330
1F
100
AcDbEntity
  8
0-B_寸法
  6
Continuous
 62
   120
370
     5
100
AcDbLine
 10
2181.918592331277
 20
1266.945146596495
 30
0.0
 11
2181.918592331277
 21
1806.945146596495
 31
0.0
  0
LINE
  5
15F
330
1F
100
AcDbEntity
  8
0-B_寸法
  6
Continuous
 62
   120
370
     5
100
AcDbLine
 10
-2162.081407668727
 20
1266.945146596495
 30
0.0
 11
-2162.081407668727
 21
1806.945146596495
 31
0.0
  0
LINE
  5
160
330
1F
100
AcDbEntity
  8
0-B_寸法
  6
Continuous
 62
   120
370
     5
100
AcDbLine
 10
-2162.081407668727
 20
1806.945146596495
 30
0.0
 11
-1982.081407668727
 21
1806.945146596495
 31
0.0
  0
LWPOLYLINE
  5
161
330
1F
100
AcDbEntity
  8
0-B_寸法
  6
Continuous
 62
     7
370
     9
100
AcDbPolyline
 90
        4
 70
     1
 43
3.0
 10
-2160.581407668727
 20
1806.945146596495
 42
0.4142135623731
 10
-2162.081407668727
 20
1808.445146596495
 42
0.4142135623731
 10
-2163.581407668727
 20
1806.945146596495
 42
0.4142135623731
 10
-2162.081407668727
 20
1805.445146596495
 42
0.4142135623731
  0
LWPOLYLINE
  5
162
330
1F
100
AcDbEntity
  8
0-B_寸法
  6
Continuous
 62
     7
370
     9
100
AcDbPolyline
 90
        4
 70
     1
 43
3.0
 10
-2130.581407668727
 20
1806.945146596495
 42
0.4142135623731
 10
-2132.081407668727
 20
1808.445146596495
 42
0.4142135623731
 10
-2133.581407668727
 20
1806.945146596495
 42
0.4142135623731
 10
-2132.081407668727
 20
1805.445146596495
 42
0.4142135623731
  0
LWPOLYLINE
  5
163
330
1F
100
AcDbEntity
  8
0-B_寸法
  6
Continuous
 62
     7
370
     9
100
AcDbPolyline
 90
        4
 70
     1
 43
3.0
 10
-2094.58140766873
 20
1806.945146596495
 42
0.4142135623731
 10
-2096.08140766873
 20
1808.445146596495
 42
0.4142135623731
 10
-2097.58140766873
 20
1806.945146596495
 42
0.4142135623731
 10
-2096.08140766873
 20
1805.445146596495
 42
0.4142135623731
  0
LINE
  5
164
330
1F
100
AcDbEntity
  8
0-B_寸法
  6
Continuous
 62
   120
370
     5
100
AcDbLine
 10
-2096.08140766873
 20
1806.945146596495
 30
0.0
 11
-2096.08140766873
 21
1986.945146596495
 31
0.0
  0
LWPOLYLINE
  5
165
330
1F
100
AcDbEntity
  8
0-B_寸法
  6
Continuous
 62
     7
370
     9
100
AcDbPolyline
 90
        4
 70
     1
 43
3.0
 10
-2040.581407668727
 20
1806.945146596495
 42
0.4142135623731
 10
-2042.081407668727
 20
1808.445146596495
 42
0.4142135623731
 10
-2043.581407668727
 20
1806.945146596495
 42
0.4142135623731
 10
-2042.081407668727
 20
1805.445146596495
 42
0.4142135623731
  0
LINE
  5
166
330
1F
100
AcDbEntity
  8
0-B_寸法
  6
Continuous
 62
   120
370
     5
100
AcDbLine
 10
-2042.081407668727
 20
1806.945146596495
 30
0.0
 11
-2042.081407668727
 21
1986.945146596495
 31
0.0
  0
LWPOLYLINE
  5
167
330
1F
100
AcDbEntity
  8
0-B_寸法
  6
Continuous
 62
     7
370
     9
100
AcDbPolyline
 90
        4
 70
     1
 43
3.0
 10
-1980.581407668727
 20
1806.945146596495
 42
0.4142135623731
 10
-1982.081407668727
 20
1808.445146596495
 42
0.4142135623731
 10
-1983.581407668727
 20
1806.945146596495
 42
0.4142135623731
 10
-1982.081407668727
 20
1805.445146596495
 42
0.4142135623731
  0
LINE
  5
168
330
1F
100
AcDbEntity
  8
0-B_寸法
  6
Continuous
 62
   120
370
     5
100
AcDbLine
 10
-1982.081407668727
 20
1806.945146596495
 30
0.0
 11
-1982.081407668727
 21
1986.945146596495
 31
0.0
  0
MTEXT
  5
169
330
1F
100
AcDbEntity
  8
0-B_寸法
  6
Continuous
 62
     7
370
   211
100
AcDbMText
 10
-2091.58140766873
 20
1796.235146596497
 30
0.0
 40
68.5800000000026
 41
45.00000000000171
 46
0.0
 71
     7
 72
     1
  1
{\fＭＳ ゴシック|b0|i0|c128|p49;9}
 73
     1
 44
1.0
  0
LINE
  5
16A
330
1F
100
AcDbEntity
  8
0-B_寸法
  6
Continuous
 62
   120
370
     5
100
AcDbLine
 10
-2114.081407668729
 20
1806.945146596495
 30
0.0
 11
-2204.081407668729
 21
1716.945146596495
 31
0.0
  0
MTEXT
  5
16B
330
1F
100
AcDbEntity
  8
0-B_寸法
  6
Continuous
 62
     7
370
   211
100
AcDbMText
 10
-2249.08140766873
 20
1706.235146596497
 30
0.0
 40
68.5800000000026
 41
45.00000000000171
 46
0.0
 71
     7
 72
     1
  1
{\fＭＳ ゴシック|b0|i0|c128|p49;6}
 73
     1
 44
1.0
  0
LINE
  5
16C
330
1F
100
AcDbEntity
  8
0-B_寸法
  6
Continuous
 62
   120
370
     5
100
AcDbLine
 10
-2259.327947523904
 20
1716.945146596495
 30
0.0
 11
-2204.081407668729
 21
1716.945146596495
 31
0.0
  0
LINE
  5
16D
330
1F
100
AcDbEntity
  8
0-B_寸法
  6
Continuous
 62
   120
370
     5
100
AcDbLine
 10
-2147.081407668727
 20
1806.945146596495
 30
0.0
 11
-2207.081407668727
 21
1866.945146596495
 31
0.0
  0
MTEXT
  5
16E
330
1F
100
AcDbEntity
  8
0-B_寸法
  6
Continuous
 62
     7
370
   211
100
AcDbMText
 10
-2252.081407668727
 20
1856.235146596497
 30
0.0
 40
68.5800000000026
 41
45.00000000000171
 46
0.0
 71
     7
 72
     1
  1
{\fＭＳ ゴシック|b0|i0|c128|p49;5}
 73
     1
 44
1.0
  0
LINE
  5
16F
330
1F
100
AcDbEntity
  8
0-B_寸法
  6
Continuous
 62
   120
370
     5
100
AcDbLine
 10
-2267.53022949739
 20
1866.945146596495
 30
0.0
 11
-2207.081407668727
 21
1866.945146596495
 31
0.0
  0
MTEXT
  5
170
330
1F
100
AcDbEntity
  8
0-B_寸法
  6
Continuous
 62
     7
370
   211
100
AcDbMText
 10
-2030.831407668727
 20
1799.092646596496
 30
0.0
 40
74.29500000000066
 41
97.50000000000085
 46
0.0
 71
     7
 72
     1
  1
{\fＭＳ ゴシック|b0|i0|c128|p49;10}
 73
     1
 44
1.0
  0
LINE
  5
171
330
1F
100
AcDbEntity
  8
0-B_寸法
  6
Continuous
 62
   120
370
     5
100
AcDbLine
 10
-2162.081407668727
 20
1806.945146596495
 30
0.0
 11
-2162.081407668727
 21
1986.945146596495
 31
0.0
  0
LINE
  5
172
330
1F
100
AcDbEntity
  8
0-B_寸法
  6
Continuous
 62
   120
370
     5
100
AcDbLine
 10
-2132.081407668727
 20
1806.945146596495
 30
0.0
 11
-2132.081407668727
 21
1986.945146596495
 31
0.0
  0
LWPOLYLINE
  5
173
330
1F
100
AcDbEntity
  8
0-3_仕上げ
  6
Continuous
 62
     7
370
     9
100
AcDbPolyline
 90
        4
 70
     1
 43
3.0
 10
-1565.414763801667
 20
2592.946220485323
 42
0.4142135623731
 10
-1566.914763801667
 20
2594.446220485323
 42
0.4142135623731
 10
-1568.414763801667
 20
2592.946220485323
 42
0.4142135623731
 10
-1566.914763801667
 20
2591.446220485323
 42
0.4142135623731
  0
LINE
  5
174
330
1F
100
AcDbEntity
  8
0-3_仕上げ
  6
Continuous
 62
   120
370
     5
100
AcDbLine
 10
-1566.914763801667
 20
2592.946220485323
 30
0.0
 11
-1730.146509341325
 21
2592.946220485323
 31
0.0
  0
LWPOLYLINE
  5
175
330
1F
100
AcDbEntity
  8
0-3_仕上げ
  6
Continuous
 62
     7
370
     9
100
AcDbPolyline
 90
        4
 70
     1
 43
3.0
 10
-1565.414763801667
 20
2130.946220485323
 42
0.4142135623731
 10
-1566.914763801667
 20
2132.446220485323
 42
0.4142135623731
 10
-1568.414763801667
 20
2130.946220485323
 42
0.4142135623731
 10
-1566.914763801667
 20
2129.446220485323
 42
0.4142135623731
  0
LINE
  5
176
330
1F
100
AcDbEntity
  8
0-3_仕上げ
  6
Continuous
 62
   120
370
     5
100
AcDbLine
 10
-1566.914763801667
 20
2130.946220485323
 30
0.0
 11
-1730.146509341325
 21
2130.946220485323
 31
0.0
  0
LINE
  5
177
330
1F
100
AcDbEntity
  8
0-3_仕上げ
  6
Continuous
 62
   120
370
     5
100
AcDbLine
 10
-1566.914763801667
 20
2592.946220485323
 30
0.0
 11
-1566.914763801667
 21
2130.946220485323
 31
0.0
  0
MTEXT
  5
178
330
1F
100
AcDbEntity
  8
0-3_仕上げ
  6
Continuous
 62
     7
370
   211
100
AcDbMText
 10
-1581.914763801666
 20
2287.665022876576
 30
0.0
 40
91.44
 41
120.0
 46
0.0
 71
     7
 72
     1
  1
{\fＭＳ ゴシック|b0|i0|c128|p49;77}
 11
6.123031769111886E-17
 21
1.0
 31
0.0
 73
     1
 44
1.0
  0
MTEXT
  5
179
330
1F
100
AcDbEntity
  8
0-A_文字
  6
Continuous
 62
     7
370
     9
100
AcDbMText
 10
-2728.614622951318
 20
3310.3551925799
 30
0.0
 40
100.5839999999995
 41
659.9999999999966
 46
0.0
 71
     7
 72
     1
  1
{\fＭＳ ゴシック|b0|i0|c128|p49;■横断面図}
 73
     1
 44
1.0
  0
LINE
  5
17A
330
1F
100
AcDbEntity
  8
0-A_文字
  6
JWW_HOJO
 62
   120
370
     5
100
AcDbLine
 10
9.918592331275988
 20
947.6368213441579
 30
0.0
 11
2419.442401855085
 21
947.6368213441579
 31
0.0
  0
LINE
  5
17B
330
1F
100
AcDbEntity
  8
0-A_文字
  6
JWW_HOJO
 62
   120
370
     5
100
AcDbLine
 10
9.918592331275988
 20
827.6368213441579
 30
0.0
 11
2419.442401855085
 21
827.6368213441579
 31
0.0
  0
LINE
  5
17C
330
1F
100
AcDbEntity
  8
0-A_文字
  6
JWW_HOJO
 62
   120
370
     5
100
AcDbLine
 10
9.918592331275988
 20
707.6368213441581
 30
0.0
 11
2419.442401855085
 21
707.6368213441581
 31
0.0
  0
MTEXT
  5
17D
330
1F
100
AcDbEntity
  8
0-A_文字
  6
Continuous
 62
     7
370
     9
100
AcDbMText
 10
9.918592331275136
 20
942.3820486168848
 30
0.0
 40
79.49045454545461
 41
2295.000000000002
 46
0.0
 71
     7
 72
     1
  1
{\fＭＳ ゴシック|b0|i0|c128|p49;※有効開口寸法にはハンドルの突出は含まない。}
 73
     1
 44
1.0
  0
MTEXT
  5
17E
330
1F
100
AcDbEntity
  8
0-A_文字
  6
Continuous
 62
     7
370
     9
100
AcDbMText
 10
9.918592331275136
 20
822.4301546774908
 30
0.0
 40
79.58666666666667
 41
2820.000000000001
 46
0.0
 71
     7
 72
     1
  1
{\fＭＳ ゴシック|b0|i0|c128|p49;※有効開口寸法は扉の厚さや調整によって若干異なります。}
 73
     1
 44
1.0
  0
MTEXT
  5
17F
330
1F
100
AcDbEntity
  8
0-A_文字
  6
Continuous
 62
     7
370
     0
100
AcDbMText
 10
9.918592331275988
 20
696.9268213441566
 30
0.0
 40
68.57999999999997
 41
1350.0
 46
0.0
 71
     7
 72
     1
  1
{\fＭＳ ゴシック|b0|i0|c128|p49;※扉厚（　）内はルーバーの場合}
 73
     1
 44
1.0
  0
MTEXT
  5
180
330
1F
100
AcDbEntity
  8
0-A_文字
  6
Continuous
 62
     7
370
   211
100
AcDbMText
 10
-1022.045434731497
 20
2227.665146596494
 30
0.0
 40
91.44
 41
240.0
 46
0.0
 71
     7
 72
     1
  1
{\fＭＳ ゴシック|b0|i0|c128|p49;(24)}
 11
6.123031769111886E-17
 21
1.0
 31
0.0
 73
     1
 44
1.0
  0
LINE
  5
181
330
1F
100
AcDbEntity
  8
0-C_ハッチ
  6
JWW_DASHED1
 62
   120
370
     5
100
AcDbLine
 10
-2144.101145509905
 20
2097.946220485333
 30
0.0
 11
-2132.081407668717
 21
2109.965958326523
 31
0.0
  0
LINE
  5
182
330
1F
100
AcDbEntity
  8
0-C_ハッチ
  6
JWW_DASHED1
 62
   120
370
     5
100
AcDbLine
 10
-2186.527552381102
 20
2097.946220485337
 30
0.0
 11
-2132.081407668726
 21
2152.392365197713
 31
0.0
  0
LINE
  5
183
330
1F
100
AcDbEntity
  8
0-C_ハッチ
  6
JWW_DASHED1
 62
   120
370
     5
100
AcDbLine
 10
-2228.953959252298
 20
2097.94622048534
 30
0.0
 11
-2153.953959252289
 21
2172.946220485351
 31
0.0
  0
LINE
  5
184
330
1F
100
AcDbEntity
  8
0-C_ハッチ
  6
JWW_DASHED1
 62
   120
370
     5
100
AcDbLine
 10
-2271.380366123509
 20
2097.946220485333
 30
0.0
 11
-2196.380366123514
 21
2172.946220485326
 31
0.0
  0
LINE
  5
185
330
1F
100
AcDbEntity
  8
0-C_ハッチ
  6
JWW_DASHED1
 62
   120
370
     5
100
AcDbLine
 10
-2313.806772994707
 20
2097.946220485333
 30
0.0
 11
-2238.806772994712
 21
2172.946220485326
 31
0.0
  0
LINE
  5
186
330
1F
100
AcDbEntity
  8
0-C_ハッチ
  6
JWW_DASHED1
 62
   120
370
     5
100
AcDbLine
 10
-2356.233179865903
 20
2097.946220485335
 30
0.0
 11
-2281.233179865909
 21
2172.94622048533
 31
0.0
  0
LINE
  5
187
330
1F
100
AcDbEntity
  8
0-C_ハッチ
  6
JWW_DASHED1
 62
   120
370
     5
100
AcDbLine
 10
-2398.659586737041
 20
2097.946220485344
 30
0.0
 11
-2323.659586737046
 21
2172.94622048534
 31
0.0
  0
LINE
  5
188
330
1F
100
AcDbEntity
  8
0-C_ハッチ
  6
JWW_DASHED1
 62
   120
370
     5
100
AcDbLine
 10
-2441.085993608237
 20
2097.946220485347
 30
0.0
 11
-2366.085993608242
 21
2172.946220485341
 31
0.0
  0
LINE
  5
189
330
1F
100
AcDbEntity
  8
0-C_ハッチ
  6
JWW_DASHED1
 62
   120
370
     5
100
AcDbLine
 10
-2483.51240047945
 20
2097.946220485335
 30
0.0
 11
-2408.512400479439
 21
2172.946220485347
 31
0.0
  0
LINE
  5
18A
330
1F
100
AcDbEntity
  8
0-C_ハッチ
  6
JWW_DASHED1
 62
   120
370
     5
100
AcDbLine
 10
-2525.938807350646
 20
2097.94622048534
 30
0.0
 11
-2450.938807350634
 21
2172.946220485351
 31
0.0
  0
LINE
  5
18B
330
1F
100
AcDbEntity
  8
0-C_ハッチ
  6
JWW_DASHED1
 62
   120
370
     5
100
AcDbLine
 10
-2568.365214221842
 20
2097.946220485341
 30
0.0
 11
-2493.365214221848
 21
2172.94622048534
 31
0.0
  0
LINE
  5
18C
330
1F
100
AcDbEntity
  8
0-C_ハッチ
  6
JWW_DASHED1
 62
   120
370
     5
100
AcDbLine
 10
-2610.791621093054
 20
2097.94622048533
 30
0.0
 11
-2535.79162109306
 21
2172.946220485326
 31
0.0
  0
LINE
  5
18D
330
1F
100
AcDbEntity
  8
0-C_ハッチ
  6
JWW_DASHED1
 62
   120
370
     5
100
AcDbLine
 10
-2653.21802796425
 20
2097.946220485333
 30
0.0
 11
-2578.218027964255
 21
2172.94622048533
 31
0.0
  0
LINE
  5
18E
330
1F
100
AcDbEntity
  8
0-C_ハッチ
  6
JWW_DASHED1
 62
   120
370
     5
100
AcDbLine
 10
-2695.644434835448
 20
2097.94622048534
 30
0.0
 11
-2620.64443483545
 21
2172.946220485333
 31
0.0
  0
LINE
  5
18F
330
1F
100
AcDbEntity
  8
0-3_仕上げ
  6
Continuous
 62
    40
370
    15
100
AcDbLine
 10
-2132.081407668726
 20
2172.946220485326
 30
0.0
 11
-2132.081407668726
 21
2097.946220485326
 31
0.0
  0
LINE
  5
190
330
1F
100
AcDbEntity
  8
0-3_仕上げ
  6
Continuous
 62
    40
370
    15
100
AcDbLine
 10
-2762.081209716868
 20
2172.946220485326
 30
0.0
 11
-2132.081407668708
 21
2172.946220485326
 31
0.0
  0
LINE
  5
191
330
1F
100
AcDbEntity
  8
0-3_仕上げ
  6
Continuous
 62
    40
370
    15
100
AcDbLine
 10
-2762.081209716868
 20
2097.946220485326
 30
0.0
 11
-2132.081407668708
 21
2097.946220485326
 31
0.0
  0
LINE
  5
192
330
1F
100
AcDbEntity
  8
0-C_ハッチ
  6
JWW_DASHED1
 62
   120
370
     5
100
AcDbLine
 10
-2762.081209716868
 20
2116.362259346265
 30
0.0
 11
-2705.497248577786
 21
2172.946220485347
 31
0.0
  0
LINE
  5
193
330
1F
100
AcDbEntity
  8
0-C_ハッチ
  6
JWW_DASHED1
 62
   120
370
     5
100
AcDbLine
 10
-2738.070841706603
 20
2097.946220485326
 30
0.0
 11
-2663.070841706589
 21
2172.94622048534
 31
0.0
  0
LINE
  5
194
330
1F
100
AcDbEntity
  8
0-C_ハッチ
  6
JWW_DASHED1
 62
   120
370
     5
100
AcDbLine
 10
2655.045842795831
 20
2097.946220485338
 30
0.0
 11
2730.045842795841
 21
2172.946220485349
 31
0.0
  0
LINE
  5
195
330
1F
100
AcDbEntity
  8
0-C_ハッチ
  6
JWW_DASHED1
 62
   120
370
     5
100
AcDbLine
 10
2612.619435924623
 20
2097.946220485328
 30
0.0
 11
2687.619435924616
 21
2172.946220485324
 31
0.0
  0
LINE
  5
196
330
1F
100
AcDbEntity
  8
0-C_ハッチ
  6
JWW_DASHED1
 62
   120
370
     5
100
AcDbLine
 10
2570.193029053423
 20
2097.946220485328
 30
0.0
 11
2645.193029053417
 21
2172.946220485326
 31
0.0
  0
LINE
  5
197
330
1F
100
AcDbEntity
  8
0-C_ハッチ
  6
JWW_DASHED1
 62
   120
370
     5
100
AcDbLine
 10
2527.766622182226
 20
2097.946220485333
 30
0.0
 11
2602.766622182221
 21
2172.946220485328
 31
0.0
  0
LINE
  5
198
330
1F
100
AcDbEntity
  8
0-C_ハッチ
  6
JWW_DASHED1
 62
   120
370
     5
100
AcDbLine
 10
2485.340215311089
 20
2097.946220485342
 30
0.0
 11
2560.340215311085
 21
2172.946220485338
 31
0.0
  0
LINE
  5
199
330
1F
100
AcDbEntity
  8
0-C_ハッチ
  6
JWW_DASHED1
 62
   120
370
     5
100
AcDbLine
 10
2442.913808439892
 20
2097.946220485344
 30
0.0
 11
2517.913808439887
 21
2172.946220485342
 31
0.0
  0
LINE
  5
19A
330
1F
100
AcDbEntity
  8
0-C_ハッチ
  6
JWW_DASHED1
 62
   120
370
     5
100
AcDbLine
 10
2400.487401568681
 20
2097.946220485333
 30
0.0
 11
2475.487401568692
 21
2172.946220485344
 31
0.0
  0
LINE
  5
19B
330
1F
100
AcDbEntity
  8
0-C_ハッチ
  6
JWW_DASHED1
 62
   120
370
     5
100
AcDbLine
 10
2358.060994697485
 20
2097.946220485335
 30
0.0
 11
2433.060994697496
 21
2172.946220485349
 31
0.0
  0
LINE
  5
19C
330
1F
100
AcDbEntity
  8
0-C_ハッチ
  6
JWW_DASHED1
 62
   120
370
     5
100
AcDbLine
 10
2315.634587826287
 20
2097.946220485342
 30
0.0
 11
2390.634587826285
 21
2172.946220485335
 31
0.0
  0
LINE
  5
19D
330
1F
100
AcDbEntity
  8
0-C_ハッチ
  6
JWW_DASHED1
 62
   120
370
     5
100
AcDbLine
 10
2273.208180955075
 20
2097.946220485328
 30
0.0
 11
2348.208180955072
 21
2172.946220485324
 31
0.0
  0
LINE
  5
19E
330
1F
100
AcDbEntity
  8
0-C_ハッチ
  6
JWW_DASHED1
 62
   120
370
     5
100
AcDbLine
 10
2230.78177408388
 20
2097.946220485333
 30
0.0
 11
2305.781774083875
 21
2172.946220485328
 31
0.0
  0
LINE
  5
19F
330
1F
100
AcDbEntity
  8
0-C_ハッチ
  6
JWW_DASHED1
 62
   120
370
     5
100
AcDbLine
 10
2188.355367212685
 20
2097.946220485335
 30
0.0
 11
2263.355367212678
 21
2172.94622048533
 31
0.0
  0
LINE
  5
1A0
330
1F
100
AcDbEntity
  8
0-C_ハッチ
  6
JWW_DASHED1
 62
   120
370
     5
100
AcDbLine
 10
2151.918592331256
 20
2103.935852475054
 30
0.0
 11
2220.928960341542
 21
2172.94622048534
 31
0.0
  0
LINE
  5
1A1
330
1F
100
AcDbEntity
  8
0-C_ハッチ
  6
JWW_DASHED1
 62
   120
370
     5
100
AcDbLine
 10
2151.918592331263
 20
2146.362259346259
 30
0.0
 11
2178.502553470346
 21
2172.946220485342
 31
0.0
  0
LINE
  5
1A2
330
1F
100
AcDbEntity
  8
0-3_仕上げ
  6
Continuous
 62
    40
370
    15
100
AcDbLine
 10
2151.918592331277
 20
2097.946220485326
 30
0.0
 11
2151.918592331277
 21
2172.946220485326
 31
0.0
  0
LINE
  5
1A3
330
1F
100
AcDbEntity
  8
0-3_仕上げ
  6
Continuous
 62
    40
370
    15
100
AcDbLine
 10
2151.918592331277
 20
2172.946220485326
 30
0.0
 11
2781.918394379421
 21
2172.946220485326
 31
0.0
  0
LINE
  5
1A4
330
1F
100
AcDbEntity
  8
0-3_仕上げ
  6
Continuous
 62
    40
370
    15
100
AcDbLine
 10
2151.918592331277
 20
2097.946220485326
 30
0.0
 11
2781.918394379421
 21
2097.946220485326
 31
0.0
  0
LINE
  5
1A5
330
1F
100
AcDbEntity
  8
0-C_ハッチ
  6
JWW_DASHED1
 62
   120
370
     5
100
AcDbLine
 10
2739.898656538224
 20
2097.94622048533
 30
0.0
 11
2781.918394379421
 21
2139.96595832653
 31
0.0
  0
LINE
  5
1A6
330
1F
100
AcDbEntity
  8
0-C_ハッチ
  6
JWW_DASHED1
 62
   120
370
     5
100
AcDbLine
 10
2697.472249667027
 20
2097.946220485335
 30
0.0
 11
2772.472249667018
 21
2172.946220485326
 31
0.0
  0
MTEXT
  5
1A7
330
1F
100
AcDbEntity
  8
0-A_文字
  6
Continuous
 62
     7
370
     9
100
AcDbMText
 10
-2762.081254169001
 20
198.8083809715717
 30
0.0
 40
91.44
 41
600.0
 46
0.0
 71
     7
 72
     1
  1
{\fＭＳ ゴシック|b0|i0|c128|p49;■縦断面図}
 73
     1
 44
1.0
  0
MTEXT
  5
1A8
330
1F
100
AcDbEntity
  8
0-A_文字
  6
Continuous
 62
     7
370
     9
100
AcDbMText
 10
-2762.081254168998
 20
50.28811580412751
 30
0.0
 40
91.43999999999994
 41
1439.999999999999
 46
0.0
 71
     7
 72
     1
  1
{\fＭＳ ゴシック|b0|i0|c128|p49;　[３方枠＋床直付レール]}
 73
     1
 44
1.0
  0
MTEXT
  5
1A9
330
1F
100
AcDbEntity
  8
0-A_文字
  6
Continuous
 62
     7
370
   211
100
AcDbMText
 10
-2085.88115223517
 20
-2985.712628161204
 30
0.0
 40
91.43999999999967
 41
239.9999999999991
 46
0.0
 71
     7
 72
     1
  1
{\fＭＳ ゴシック|b0|i0|c128|p49;27.4}
 73
     1
 44
1.0
  0
LINE
  5
1AA
330
1F
100
AcDbEntity
  8
0-B_寸法
  6
Continuous
 62
   120
370
     5
100
AcDbLine
 10
-1448.081299956542
 20
-381.8298970622426
 30
0.0
 11
-686.0811885147359
 21
-381.8298970622426
 31
0.0
  0
LWPOLYLINE
  5
1AB
330
1F
100
AcDbEntity
  8
0-B_寸法
  6
Continuous
 62
     7
370
     9
100
AcDbPolyline
 90
        4
 70
     1
 43
3.0
 10
-684.5811885147359
 20
-381.8298970622426
 42
0.4142135623731
 10
-686.0811885147359
 20
-380.3298970622426
 42
0.4142135623731
 10
-687.5811885147359
 20
-381.8298970622426
 42
0.4142135623731
 10
-686.0811885147359
 20
-383.3298970622427
 42
0.4142135623731
  0
LINE
  5
1AC
330
1F
100
AcDbEntity
  8
0-B_寸法
  6
Continuous
 62
   120
370
     5
100
AcDbLine
 10
-1106.081188514733
 20
-597.8289023541577
 30
0.0
 11
-896.0811885147325
 21
-597.8289023541577
 31
0.0
  0
LWPOLYLINE
  5
1AD
330
1F
100
AcDbEntity
  8
0-B_寸法
  6
Continuous
 62
     7
370
     9
100
AcDbPolyline
 90
        4
 70
     1
 43
3.0
 10
-894.5811885147325
 20
-597.8289023541577
 42
0.4142135623731
 10
-896.0811885147325
 20
-596.3289023541577
 42
0.4142135623731
 10
-897.5811885147325
 20
-597.8289023541577
 42
0.4142135623731
 10
-896.0811885147325
 20
-599.3289023541577
 42
0.4142135623731
  0
LWPOLYLINE
  5
1AE
330
1F
100
AcDbEntity
  8
0-B_寸法
  6
Continuous
 62
     7
370
     9
100
AcDbPolyline
 90
        4
 70
     1
 43
3.0
 10
-894.5811885147325
 20
-381.8298970622426
 42
0.4142135623731
 10
-896.0811885147325
 20
-380.3298970622426
 42
0.4142135623731
 10
-897.5811885147325
 20
-381.8298970622426
 42
0.4142135623731
 10
-896.0811885147325
 20
-383.3298970622427
 42
0.4142135623731
  0
LWPOLYLINE
  5
1AF
330
1F
100
AcDbEntity
  8
0-B_寸法
  6
Continuous
 62
     7
370
     9
100
AcDbPolyline
 90
        4
 70
     1
 43
3.0
 10
-1104.581188514733
 20
-597.8292735138907
 42
0.4142135623731
 10
-1106.081188514733
 20
-596.3292735138907
 42
0.4142135623731
 10
-1107.581188514733
 20
-597.8292735138907
 42
0.4142135623731
 10
-1106.081188514733
 20
-599.3292735138908
 42
0.4142135623731
  0
LWPOLYLINE
  5
1B0
330
1F
100
AcDbEntity
  8
0-B_寸法
  6
Continuous
 62
     7
370
     9
100
AcDbPolyline
 90
        4
 70
     1
 43
3.0
 10
-1104.581188514733
 20
-642.8294219777845
 42
0.4142135623731
 10
-1106.081188514733
 20
-641.3294219777845
 42
0.4142135623731
 10
-1107.581188514733
 20
-642.8294219777845
 42
0.4142135623731
 10
-1106.081188514733
 20
-644.3294219777846
 42
0.4142135623731
  0
LINE
  5
1B1
330
1F
100
AcDbEntity
  8
0-B_寸法
  6
Continuous
 62
   120
370
     5
100
AcDbLine
 10
-1316.081311980367
 20
-642.8294219777845
 30
0.0
 11
-1106.081188514733
 21
-642.8294219777845
 31
0.0
  0
LWPOLYLINE
  5
1B2
330
1F
100
AcDbEntity
  8
0-B_寸法
  6
Continuous
 62
     7
370
     9
100
AcDbPolyline
 90
        4
 70
     1
 43
3.0
 10
-684.5811885147359
 20
-3309.830305131827
 42
0.4142135623731
 10
-686.0811885147359
 20
-3308.330305131827
 42
0.4142135623731
 10
-687.5811885147359
 20
-3309.830305131827
 42
0.4142135623731
 10
-686.0811885147359
 20
-3311.330305131827
 42
0.4142135623731
  0
LINE
  5
1B3
330
1F
100
AcDbEntity
  8
0-B_寸法
  6
Continuous
 62
   120
370
     5
100
AcDbLine
 10
-1316.081311980367
 20
-3309.830305131827
 30
0.0
 11
-686.0811885147359
 21
-3309.830305131827
 31
0.0
  0
LWPOLYLINE
  5
1B4
330
1F
100
AcDbEntity
  8
0-B_寸法
  6
Continuous
 62
     7
370
     9
100
AcDbPolyline
 90
        4
 70
     1
 43
3.0
 10
-894.5811885147325
 20
-3309.830305131827
 42
0.4142135623731
 10
-896.0811885147325
 20
-3308.330305131827
 42
0.4142135623731
 10
-897.5811885147325
 20
-3309.830305131827
 42
0.4142135623731
 10
-896.0811885147325
 20
-3311.330305131827
 42
0.4142135623731
  0
LINE
  5
1B5
330
1F
100
AcDbEntity
  8
0-3_仕上げ
  6
Continuous
 62
     7
370
     9
100
AcDbLine
 10
-2552.080529832419
 20
-3357.830537725259
 30
0.0
 11
-1316.080529832404
 21
-3357.830537725259
 31
0.0
  0
LINE
  5
1B6
330
1F
100
AcDbEntity
  8
0-3_仕上げ
  6
Continuous
 62
     7
370
     9
100
AcDbLine
 10
-2552.080529832419
 20
-3345.830572366834
 30
0.0
 11
-1316.080529832404
 21
-3345.830572366834
 31
0.0
  0
LINE
  5
1B7
330
1F
100
AcDbEntity
  8
0-3_仕上げ
  6
Continuous
 62
     7
370
     9
100
AcDbLine
 10
-2552.080529832419
 20
-3369.830688663553
 30
0.0
 11
-1316.080529832404
 21
-3369.830688663553
 31
0.0
  0
LINE
  5
1B8
330
1F
100
AcDbEntity
  8
0-3_仕上げ
  6
Continuous
 62
    40
370
    15
100
AcDbLine
 10
-2552.080529832419
 20
-3381.830654021977
 30
0.0
 11
-1316.080529832404
 21
-3381.830654021977
 31
0.0
  0
LINE
  5
1B9
330
1F
100
AcDbEntity
  8
0-3_仕上げ
  6
Continuous
 62
     7
370
     9
100
AcDbLine
 10
-2552.080529832419
 20
-3333.83060700841
 30
0.0
 11
-1316.080529832404
 21
-3333.83060700841
 31
0.0
  0
LINE
  5
1BA
330
1F
100
AcDbEntity
  8
0-3_仕上げ
  6
Continuous
 62
     7
370
     9
100
AcDbLine
 10
-2552.080529832419
 20
-3321.830456070117
 30
0.0
 11
-1316.080529832404
 21
-3321.830456070117
 31
0.0
  0
LINE
  5
1BB
330
1F
100
AcDbEntity
  8
0-3_仕上げ
  6
Continuous
 62
    40
370
    15
100
AcDbLine
 10
-1316.080529832404
 20
-3309.83067629156
 30
0.0
 11
-2552.080529832419
 21
-3309.83067629156
 31
0.0
  0
LWPOLYLINE
  5
1BC
330
1F
100
AcDbEntity
  8
0-B_寸法
  6
Continuous
 62
     7
370
     9
100
AcDbPolyline
 90
        4
 70
     1
 43
3.0
 10
-894.5811885147325
 20
-3279.83067629156
 42
0.4142135623731
 10
-896.0811885147325
 20
-3278.33067629156
 42
0.4142135623731
 10
-897.5811885147325
 20
-3279.83067629156
 42
0.4142135623731
 10
-896.0811885147325
 20
-3281.33067629156
 42
0.4142135623731
  0
LINE
  5
1BD
330
1F
100
AcDbEntity
  8
0-B_寸法
  6
Continuous
 62
   120
370
     5
100
AcDbLine
 10
-1316.081311980367
 20
-3279.83067629156
 30
0.0
 11
-896.0811885147325
 21
-3279.83067629156
 31
0.0
  0
LWPOLYLINE
  5
1BE
330
1F
100
AcDbEntity
  8
0-B_寸法
  6
Continuous
 62
     7
370
     9
100
AcDbPolyline
 90
        4
 70
     1
 43
3.0
 10
-1104.581188514733
 20
-3279.83067629156
 42
0.4142135623731
 10
-1106.081188514733
 20
-3278.33067629156
 42
0.4142135623731
 10
-1107.581188514733
 20
-3279.83067629156
 42
0.4142135623731
 10
-1106.081188514733
 20
-3281.33067629156
 42
0.4142135623731
  0
LWPOLYLINE
  5
1BF
330
1F
100
AcDbEntity
  8
0-B_寸法
  6
Continuous
 62
     7
370
     9
100
AcDbPolyline
 90
        4
 70
     1
 43
3.0
 10
-1104.581188514733
 20
-3240.83067629156
 42
0.4142135623731
 10
-1106.081188514733
 20
-3239.33067629156
 42
0.4142135623731
 10
-1107.581188514733
 20
-3240.83067629156
 42
0.4142135623731
 10
-1106.081188514733
 20
-3242.330676291559
 42
0.4142135623731
  0
LINE
  5
1C0
330
1F
100
AcDbEntity
  8
0-B_寸法
  6
Continuous
 62
   120
370
     5
100
AcDbLine
 10
-1316.081311980367
 20
-3240.83067629156
 30
0.0
 11
-1106.081188514733
 21
-3240.83067629156
 31
0.0
  0
MTEXT
  5
1C1
330
1F
100
AcDbEntity
  8
0-B_寸法
  6
Continuous
 62
     7
370
   211
100
AcDbMText
 10
-701.0811885147316
 20
-360.546597468311
 30
0.0
 40
91.44000000000129
 41
60.00000000000085
 46
0.0
 71
     7
 72
     1
  1
{\fＭＳ ゴシック|b0|i0|c128|p49;5}
 11
6.123031769111886E-17
 21
1.0
 31
0.0
 73
     1
 44
1.0
  0
LINE
  5
1C2
330
1F
100
AcDbEntity
  8
0-B_寸法
  6
Continuous
 62
   120
370
     5
100
AcDbLine
 10
-1316.081311980367
 20
-3381.830282862243
 30
0.0
 11
-686.0803902403916
 21
-3381.830282862243
 31
0.0
  0
LWPOLYLINE
  5
1C3
330
1F
100
AcDbEntity
  8
0-B_寸法
  6
Continuous
 62
     7
370
     9
100
AcDbPolyline
 90
        4
 70
     1
 43
3.0
 10
-684.5803902403916
 20
-3381.830282862243
 42
0.4142135623731
 10
-686.0803902403916
 20
-3380.330282862243
 42
0.4142135623731
 10
-687.5803902403916
 20
-3381.830282862243
 42
0.4142135623731
 10
-686.0803902403916
 20
-3383.330282862243
 42
0.4142135623731
  0
LINE
  5
1C4
330
1F
100
AcDbEntity
  8
0-B_寸法
  6
Continuous
 62
   120
370
     5
100
AcDbLine
 10
-1106.081188514733
 20
-3279.83067629156
 30
0.0
 11
-1106.081188514733
 21
-597.8292735138907
 31
0.0
  0
LINE
  5
1C5
330
1F
100
AcDbEntity
  8
0-B_寸法
  6
Continuous
 62
   120
370
     5
100
AcDbLine
 10
-896.0811885147325
 20
-3309.830305131827
 30
0.0
 11
-896.0811885147325
 21
-381.8298970622426
 31
0.0
  0
LINE
  5
1C6
330
1F
100
AcDbEntity
  8
0-B_寸法
  6
Continuous
 62
   120
370
     5
100
AcDbLine
 10
-2897.081152235168
 20
-3381.830282862243
 30
0.0
 11
-2552.081311980386
 21
-3381.830282862243
 31
0.0
  0
LWPOLYLINE
  5
1C7
330
1F
100
AcDbEntity
  8
0-B_寸法
  6
Continuous
 62
     7
370
     9
100
AcDbPolyline
 90
        4
 70
     1
 43
3.0
 10
-2895.581152235168
 20
-3381.830282862243
 42
0.4142135623731
 10
-2897.081152235168
 20
-3380.330282862243
 42
0.4142135623731
 10
-2898.581152235168
 20
-3381.830282862243
 42
0.4142135623731
 10
-2897.081152235168
 20
-3383.330282862243
 42
0.4142135623731
  0
LINE
  5
1C8
330
1F
100
AcDbEntity
  8
0-0_補助線
  6
JWW_HOJO
 62
   120
370
     5
100
AcDbLine
 10
-2897.080353960861
 20
-3381.830282835852
 30
0.0
 11
-686.0803902403916
 21
-3381.830282835852
 31
0.0
  0
LINE
  5
1C9
330
1F
100
AcDbEntity
  8
0-1_通り芯
  6
JWW_CENTER1
 62
   120
370
     5
100
AcDbLine
 10
-1934.081152235168
 20
-3465.660624903499
 30
0.0
 11
-1934.081152235168
 21
-99.82988221585529
 31
0.0
  0
LINE
  5
1CA
330
1F
100
AcDbEntity
  8
0-B_寸法
  6
Continuous
 62
   120
370
     5
100
AcDbLine
 10
-2897.081152235168
 20
-351.8298970622426
 30
0.0
 11
-2225.081106458801
 21
-351.8298970622426
 31
0.0
  0
LINE
  5
1CB
330
1F
100
AcDbEntity
  8
0-B_寸法
  6
Continuous
 62
   120
370
     5
100
AcDbLine
 10
-686.0811885147359
 20
-351.8298970622426
 30
0.0
 11
-1316.081188514733
 21
-351.8298970622426
 31
0.0
  0
LWPOLYLINE
  5
1CC
330
1F
100
AcDbEntity
  8
0-B_寸法
  6
Continuous
 62
     7
370
     9
100
AcDbPolyline
 90
        4
 70
     1
 43
3.0
 10
-684.5811885147359
 20
-351.8298970622426
 42
0.4142135623731
 10
-686.0811885147359
 20
-350.3298970622426
 42
0.4142135623731
 10
-687.5811885147359
 20
-351.8298970622426
 42
0.4142135623731
 10
-686.0811885147359
 20
-353.3298970622427
 42
0.4142135623731
  0
LWPOLYLINE
  5
1CD
330
1F
100
AcDbEntity
  8
0-B_寸法
  6
Continuous
 62
     7
370
     9
100
AcDbPolyline
 90
        4
 70
     1
 43
3.0
 10
-2895.581152235168
 20
-351.8298970622426
 42
0.4142135623731
 10
-2897.081152235168
 20
-350.3298970622426
 42
0.4142135623731
 10
-2898.581152235168
 20
-351.8298970622426
 42
0.4142135623731
 10
-2897.081152235168
 20
-353.3298970622427
 42
0.4142135623731
  0
LINE
  5
1CE
330
1F
100
AcDbEntity
  8
0-B_寸法
  6
Continuous
 62
   120
370
     5
100
AcDbLine
 10
-686.0811885147359
 20
-3381.830282862243
 30
0.0
 11
-686.0811885147359
 21
-351.8298970622426
 31
0.0
  0
LINE
  5
1CF
330
1F
100
AcDbEntity
  8
0-B_寸法
  6
Continuous
 62
   120
370
     5
100
AcDbLine
 10
-2897.081152235168
 20
-351.8298970622426
 30
0.0
 11
-2897.081152235168
 21
-3381.830282862243
 31
0.0
  0
MTEXT
  5
1D0
330
1F
100
AcDbEntity
  8
0-B_寸法
  6
Continuous
 62
     7
370
   211
100
AcDbMText
 10
-1316.081254180176
 20
-388.5564480620018
 30
0.0
 40
91.44000000000129
 41
60.00000000000085
 46
0.0
 71
     7
 72
     1
  1
{\fＭＳ ゴシック|b0|i0|c128|p49;8}
 11
6.123031769111886E-17
 21
1.0
 31
0.0
 73
     1
 44
1.0
  0
MTEXT
  5
1D1
330
1F
100
AcDbEntity
  8
0-B_寸法
  6
Continuous
 62
     7
370
   211
100
AcDbMText
 10
-1316.081254180176
 20
-474.1098424193557
 30
0.0
 40
91.44000000000129
 41
60.00000000000085
 46
0.0
 71
     7
 72
     1
  1
{\fＭＳ ゴシック|b0|i0|c128|p49;9}
 11
6.123031769111886E-17
 21
1.0
 31
0.0
 73
     1
 44
1.0
  0
MTEXT
  5
1D2
330
1F
100
AcDbEntity
  8
0-B_寸法
  6
Continuous
 62
     7
370
     0
100
AcDbMText
 10
-911.0804956832319
 20
-560.3593997081995
 30
0.0
 40
91.43999999999966
 41
119.9999999999996
 46
0.0
 71
     7
 72
     1
  1
{\fＭＳ ゴシック|b0|i0|c128|p49;36}
 11
6.123031769111886E-17
 21
1.0
 31
0.0
 73
     1
 44
1.0
  0
LINE
  5
1D3
330
1F
100
AcDbEntity
  8
0-B_寸法
  6
Continuous
 62
   120
370
     5
100
AcDbLine
 10
-1316.081254180174
 20
-381.8298424193587
 30
0.0
 11
-1316.081254180174
 21
-597.8296593138898
 31
0.0
  0
LWPOLYLINE
  5
1D4
330
1F
100
AcDbEntity
  8
0-B_寸法
  6
Continuous
 62
     7
370
     9
100
AcDbPolyline
 90
        4
 70
     1
 43
3.0
 10
-1314.581254180174
 20
-381.8298424193587
 42
0.4142135623731
 10
-1316.081254180174
 20
-380.3298424193587
 42
0.4142135623731
 10
-1317.581254180174
 20
-381.8298424193587
 42
0.4142135623731
 10
-1316.081254180174
 20
-383.3298424193587
 42
0.4142135623731
  0
LWPOLYLINE
  5
1D5
330
1F
100
AcDbEntity
  8
0-B_寸法
  6
Continuous
 62
     7
370
     9
100
AcDbPolyline
 90
        4
 70
     1
 43
3.0
 10
-1314.581254180174
 20
-483.829842419358
 42
0.4142135623731
 10
-1316.081254180174
 20
-482.329842419358
 42
0.4142135623731
 10
-1317.581254180174
 20
-483.829842419358
 42
0.4142135623731
 10
-1316.081254180174
 20
-485.329842419358
 42
0.4142135623731
  0
LWPOLYLINE
  5
1D6
330
1F
100
AcDbEntity
  8
0-B_寸法
  6
Continuous
 62
     7
370
     9
100
AcDbPolyline
 90
        4
 70
     1
 43
3.0
 10
-1314.581254180174
 20
-537.8298424193579
 42
0.4142135623731
 10
-1316.081254180174
 20
-536.3298424193579
 42
0.4142135623731
 10
-1317.581254180174
 20
-537.8298424193579
 42
0.4142135623731
 10
-1316.081254180174
 20
-539.329842419358
 42
0.4142135623731
  0
LWPOLYLINE
  5
1D7
330
1F
100
AcDbEntity
  8
0-B_寸法
  6
Continuous
 62
     7
370
     9
100
AcDbPolyline
 90
        4
 70
     1
 43
3.0
 10
-1314.581254180174
 20
-597.8296593138898
 42
0.4142135623731
 10
-1316.081254180174
 20
-596.3296593138898
 42
0.4142135623731
 10
-1317.581254180174
 20
-597.8296593138898
 42
0.4142135623731
 10
-1316.081254180174
 20
-599.3296593138899
 42
0.4142135623731
  0
LWPOLYLINE
  5
1D8
330
1F
100
AcDbEntity
  8
0-B_寸法
  6
Continuous
 62
     7
370
     9
100
AcDbPolyline
 90
        4
 70
     1
 43
3.0
 10
-1314.581254180174
 20
-429.8298424193572
 42
0.4142135623731
 10
-1316.081254180174
 20
-428.3298424193572
 42
0.4142135623731
 10
-1317.581254180174
 20
-429.8298424193572
 42
0.4142135623731
 10
-1316.081254180174
 20
-431.3298424193572
 42
0.4142135623731
  0
LINE
  5
1D9
330
1F
100
AcDbEntity
  8
0-B_寸法
  6
Continuous
 62
   120
370
     5
100
AcDbLine
 10
-1427.575554772004
 20
-537.8298424193579
 30
0.0
 11
-1448.081299956542
 21
-537.8298424193579
 31
0.0
  0
LINE
  5
1DA
330
1F
100
AcDbEntity
  8
0-B_寸法
  6
Continuous
 62
   120
370
     5
100
AcDbLine
 10
-1316.081254180174
 20
-537.8298424193579
 30
0.0
 11
-1328.613544302179
 21
-537.8298424193579
 31
0.0
  0
LINE
  5
1DB
330
1F
100
AcDbEntity
  8
0-B_寸法
  6
Continuous
 62
   120
370
     5
100
AcDbLine
 10
-1316.081254180174
 20
-483.829842419358
 30
0.0
 11
-1448.081299956542
 21
-483.829842419358
 31
0.0
  0
LINE
  5
1DC
330
1F
100
AcDbEntity
  8
0-B_寸法
  6
Continuous
 62
   120
370
     5
100
AcDbLine
 10
-1427.575554772004
 20
-429.8298424193572
 30
0.0
 11
-1448.081299956542
 21
-429.8298424193572
 31
0.0
  0
LINE
  5
1DD
330
1F
100
AcDbEntity
  8
0-B_寸法
  6
Continuous
 62
   120
370
     5
100
AcDbLine
 10
-1316.081254180174
 20
-429.8298424193572
 30
0.0
 11
-1328.613544302179
 21
-429.8298424193572
 31
0.0
  0
MTEXT
  5
1DE
330
1F
100
AcDbEntity
  8
0-B_寸法
  6
Continuous
 62
     7
370
   211
100
AcDbMText
 10
-1316.081254180176
 20
-582.1098424193564
 30
0.0
 40
91.44000000000129
 41
60.00000000000085
 46
0.0
 71
     7
 72
     1
  1
{\fＭＳ ゴシック|b0|i0|c128|p49;9}
 11
6.123031769111886E-17
 21
1.0
 31
0.0
 73
     1
 44
1.0
  0
LINE
  5
1DF
330
1F
100
AcDbEntity
  8
0-4_枠
  6
Continuous
 62
    92
370
    13
100
AcDbLine
 10
-2165.081701551574
 20
-597.8297139567737
 30
0.0
 11
-2018.082377825874
 21
-597.8297139567737
 31
0.0
  0
LINE
  5
1E0
330
1F
100
AcDbEntity
  8
0-4_枠
  6
Continuous
 62
    92
370
    13
100
AcDbLine
 10
-2018.082377825874
 20
-597.8297139567737
 30
0.0
 11
-2018.082377825874
 21
-477.8292561931019
 31
0.0
  0
LINE
  5
1E1
330
1F
100
AcDbEntity
  8
0-4_枠
  6
Continuous
 62
    92
370
    13
100
AcDbLine
 10
-2018.082377825874
 20
-477.8292561931019
 30
0.0
 11
-1850.082124982971
 21
-477.8292561931019
 31
0.0
  0
LINE
  5
1E2
330
1F
100
AcDbEntity
  8
0-4_枠
  6
Continuous
 62
    92
370
    13
100
AcDbLine
 10
-1850.082124982971
 20
-477.8292561931019
 30
0.0
 11
-1850.082124982971
 21
-597.8297139567737
 31
0.0
  0
LINE
  5
1E3
330
1F
100
AcDbEntity
  8
0-7_金物
  6
Continuous
 62
     7
370
     9
100
AcDbLine
 10
-2000.261513982909
 20
-584.6174642009137
 30
0.0
 11
-2000.261513982909
 21
-518.6174642009145
 31
0.0
  0
LINE
  5
1E4
330
1F
100
AcDbEntity
  8
0-7_金物
  6
Continuous
 62
     7
370
     9
100
AcDbLine
 10
-2000.261513982909
 20
-518.6174642009145
 30
0.0
 11
-1964.08234814276
 21
-518.6174642009145
 31
0.0
  0
LINE
  5
1E5
330
1F
100
AcDbEntity
  8
0-7_金物
  6
Continuous
 62
     7
370
     9
100
AcDbLine
 10
-1964.08234814276
 20
-597.8297139567737
 30
0.0
 11
-1964.08234814276
 21
-501.8292561931027
 31
0.0
  0
LINE
  5
1E6
330
1F
100
AcDbEntity
  8
0-7_金物
  6
Continuous
 62
     7
370
     9
100
AcDbLine
 10
-1964.08234814276
 20
-501.8292561931027
 30
0.0
 11
-1904.080660139219
 21
-501.8292561931027
 31
0.0
  0
LINE
  5
1E7
330
1F
100
AcDbEntity
  8
0-7_金物
  6
Continuous
 62
     7
370
     9
100
AcDbLine
 10
-1904.080660139219
 20
-501.8292561931027
 30
0.0
 11
-1904.080660139219
 21
-597.8297139567737
 31
0.0
  0
LINE
  5
1E8
330
1F
100
AcDbEntity
  8
0-7_金物
  6
Continuous
 62
     7
370
     9
100
AcDbLine
 10
-1868.262266431945
 20
-518.6174642009145
 30
0.0
 11
-1868.262266431945
 21
-584.6174642009137
 31
0.0
  0
LINE
  5
1E9
330
1F
100
AcDbEntity
  8
0-7_金物
  6
Continuous
 62
     7
370
     9
100
AcDbLine
 10
-1904.080660139219
 20
-518.6174642009145
 30
0.0
 11
-1868.262266431945
 21
-518.6174642009145
 31
0.0
  0
LINE
  5
1EA
330
1F
100
AcDbEntity
  8
0-7_金物
  6
Continuous
 62
     7
370
     9
100
AcDbLine
 10
-1850.082124982971
 20
-597.8297139567737
 30
0.0
 11
-1832.082353864806
 21
-597.8297139567737
 31
0.0
  0
LINE
  5
1EB
330
1F
100
AcDbEntity
  8
0-7_金物
  6
Continuous
 62
     7
370
     9
100
AcDbLine
 10
-1869.08624104132
 20
-603.8298055095074
 30
0.0
 11
-1869.08624104132
 21
-597.8297139567737
 31
0.0
  0
LINE
  5
1EC
330
1F
100
AcDbEntity
  8
0-7_金物
  6
Continuous
 62
     7
370
     9
100
AcDbLine
 10
-1862.082456861633
 20
-597.8297139567737
 30
0.0
 11
-1869.08624104132
 21
-597.8297139567737
 31
0.0
  0
LINE
  5
1ED
330
1F
100
AcDbEntity
  8
0-7_金物
  6
Continuous
 62
     7
370
     9
100
AcDbLine
 10
-2018.082377825874
 20
-597.8297139567737
 30
0.0
 11
-2036.080655847686
 21
-597.8297139567737
 31
0.0
  0
LINE
  5
1EE
330
1F
100
AcDbEntity
  8
0-7_金物
  6
Continuous
 62
     7
370
     9
100
AcDbLine
 10
-1998.295853887693
 20
-603.8298055095074
 30
0.0
 11
-1998.295853887693
 21
-597.8297139567737
 31
0.0
  0
LINE
  5
1EF
330
1F
100
AcDbEntity
  8
0-7_金物
  6
Continuous
 62
     7
370
     9
100
AcDbLine
 10
-1998.295853887693
 20
-597.8297139567737
 30
0.0
 11
-2006.08278444876
 21
-597.8297139567737
 31
0.0
  0
LINE
  5
1F0
330
1F
100
AcDbEntity
  8
0-7_金物
  6
Continuous
 62
     7
370
     9
100
AcDbLine
 10
-1832.082353864806
 20
-597.8297139567737
 30
0.0
 11
-1832.082353864806
 21
-603.8298055095074
 31
0.0
  0
LINE
  5
1F1
330
1F
100
AcDbEntity
  8
0-7_金物
  6
Continuous
 62
     7
370
     9
100
AcDbLine
 10
-1998.295853887693
 20
-603.8298055095074
 30
0.0
 11
-2036.080655847686
 21
-603.8298055095074
 31
0.0
  0
LINE
  5
1F2
330
1F
100
AcDbEntity
  8
0-7_金物
  6
Continuous
 62
     7
370
     9
100
AcDbLine
 10
-2036.080655847686
 20
-597.8297139567737
 30
0.0
 11
-2036.080655847686
 21
-603.8298055095074
 31
0.0
  0
LINE
  5
1F3
330
1F
100
AcDbEntity
  8
0-7_金物
  6
Continuous
 62
     7
370
     9
100
AcDbLine
 10
-1922.081907545225
 20
-642.8298055095082
 30
0.0
 11
-1946.082588468688
 21
-642.8298055095082
 31
0.0
  0
LINE
  5
1F4
330
1F
100
AcDbEntity
  8
0-7_金物
  6
Continuous
 62
     7
370
     9
100
AcDbLine
 10
-1922.081907545225
 20
-597.8297139567737
 30
0.0
 11
-1922.081907545225
 21
-642.8298055095082
 31
0.0
  0
LINE
  5
1F5
330
1F
100
AcDbEntity
  8
0-7_金物
  6
Continuous
 62
     7
370
     9
100
AcDbLine
 10
-1946.082588468688
 20
-642.8298055095082
 30
0.0
 11
-1946.082588468688
 21
-597.8297139567737
 31
0.0
  0
LINE
  5
1F6
330
1F
100
AcDbEntity
  8
0-7_金物
  6
Continuous
 62
     7
370
     9
100
AcDbLine
 10
-1964.08234814276
 20
-584.6174642009137
 30
0.0
 11
-2000.261513982909
 21
-584.6174642009137
 31
0.0
  0
LINE
  5
1F7
330
1F
100
AcDbEntity
  8
0-7_金物
  6
Continuous
 62
     7
370
     9
100
AcDbLine
 10
-1868.262266431945
 20
-584.6174642009137
 30
0.0
 11
-1904.080660139219
 21
-584.6174642009137
 31
0.0
  0
LINE
  5
1F8
330
1F
100
AcDbEntity
  8
0-7_金物
  6
Continuous
 62
     7
370
     9
100
AcDbLine
 10
-1904.080660139219
 20
-597.8297139567737
 30
0.0
 11
-1964.08234814276
 21
-597.8297139567737
 31
0.0
  0
LINE
  5
1F9
330
1F
100
AcDbEntity
  8
0-7_金物
  6
Continuous
 62
     7
370
     9
100
AcDbLine
 10
-1869.08624104132
 20
-603.8298055095074
 30
0.0
 11
-1832.082353864806
 21
-603.8298055095074
 31
0.0
  0
LINE
  5
1FA
330
1F
100
AcDbEntity
  8
0-4_枠
  6
Continuous
 62
    92
370
    13
100
AcDbLine
 10
-2165.081701551574
 20
-381.8298970622426
 30
0.0
 11
-1745.081701551574
 21
-381.8298970622426
 31
0.0
  0
LINE
  5
1FB
330
1F
100
AcDbEntity
  8
0-4_枠
  6
Continuous
 62
    92
370
    13
100
AcDbLine
 10
-1703.081701551573
 20
-597.8297139567737
 30
0.0
 11
-1850.082124982971
 21
-597.8297139567737
 31
0.0
  0
MTEXT
  5
1FC
330
1F
100
AcDbEntity
  8
0-B_寸法
  6
Continuous
 62
     7
370
   211
100
AcDbMText
 10
-1316.081254180176
 20
-749.7727640668
 30
0.0
 40
91.43999999999967
 41
119.9999999999996
 46
0.0
 71
     7
 72
     1
  1
{\fＭＳ ゴシック|b0|i0|c128|p49;10}
 11
6.123031769111886E-17
 21
1.0
 31
0.0
 73
     1
 44
1.0
  0
LINE
  5
1FD
330
1F
100
AcDbEntity
  8
0-B_寸法
  6
Continuous
 62
   120
370
     5
100
AcDbLine
 10
-1703.081701551573
 20
-893.3122363663791
 30
0.0
 11
-2165.081701551574
 21
-893.3122363663791
 31
0.0
  0
LWPOLYLINE
  5
1FE
330
1F
100
AcDbEntity
  8
0-B_寸法
  6
Continuous
 62
     7
370
     9
100
AcDbPolyline
 90
        4
 70
     1
 43
3.0
 10
-2163.581701551574
 20
-893.3122363663791
 42
0.4142135623731
 10
-2165.081701551574
 20
-891.8122363663791
 42
0.4142135623731
 10
-2166.581701551574
 20
-893.3122363663791
 42
0.4142135623731
 10
-2165.081701551574
 20
-894.8122363663791
 42
0.4142135623731
  0
LINE
  5
1FF
330
1F
100
AcDbEntity
  8
0-B_寸法
  6
Continuous
 62
   120
370
     5
100
AcDbLine
 10
-2165.081701551574
 20
-893.3122363663791
 30
0.0
 11
-2165.081701551574
 21
-739.6012889444831
 31
0.0
  0
LWPOLYLINE
  5
200
330
1F
100
AcDbEntity
  8
0-B_寸法
  6
Continuous
 62
     7
370
     9
100
AcDbPolyline
 90
        4
 70
     1
 43
3.0
 10
-1701.581701551573
 20
-893.3122363663791
 42
0.4142135623731
 10
-1703.081701551573
 20
-891.8122363663791
 42
0.4142135623731
 10
-1704.581701551572
 20
-893.3122363663791
 42
0.4142135623731
 10
-1703.081701551573
 20
-894.8122363663791
 42
0.4142135623731
  0
LINE
  5
201
330
1F
100
AcDbEntity
  8
0-B_寸法
  6
Continuous
 62
   120
370
     5
100
AcDbLine
 10
-1703.081701551573
 20
-893.3122363663791
 30
0.0
 11
-1703.081701551573
 21
-739.6012889444831
 31
0.0
  0
LINE
  5
202
330
1F
100
AcDbEntity
  8
0-7_金物
  6
Continuous
 62
     7
370
     9
100
AcDbLine
 10
-1862.082456861633
 20
-597.8297139567737
 30
0.0
 11
-1862.082456861633
 21
-489.8296224040395
 31
0.0
  0
LINE
  5
203
330
1F
100
AcDbEntity
  8
0-7_金物
  6
Continuous
 62
     7
370
     9
100
AcDbLine
 10
-1850.082124983632
 20
-597.8297139567737
 30
0.0
 11
-1850.082124983632
 21
-477.8292561940385
 31
0.0
  0
LINE
  5
204
330
1F
100
AcDbEntity
  8
0-7_金物
  6
Continuous
 62
     7
370
     9
100
AcDbLine
 10
-2006.08278444876
 20
-597.8297139567737
 30
0.0
 11
-2006.08278444876
 21
-489.8296224040395
 31
0.0
  0
LINE
  5
205
330
1F
100
AcDbEntity
  8
0-7_金物
  6
Continuous
 62
     7
370
     9
100
AcDbLine
 10
-2018.083116326761
 20
-597.8297139567737
 30
0.0
 11
-2018.083116326761
 21
-477.8292561940385
 31
0.0
  0
LINE
  5
206
330
1F
100
AcDbEntity
  8
0-7_金物
  6
Continuous
 62
     7
370
     9
100
AcDbLine
 10
-1862.082456861633
 20
-489.8296224040395
 30
0.0
 11
-2006.08278444876
 21
-489.8296224040395
 31
0.0
  0
LINE
  5
207
330
1F
100
AcDbEntity
  8
0-7_金物
  6
Continuous
 62
     7
370
     9
100
AcDbLine
 10
-1850.082124983632
 20
-477.8292561940385
 30
0.0
 11
-2018.083116326761
 21
-477.8292561940385
 31
0.0
  0
LINE
  5
208
330
1F
100
AcDbEntity
  8
0-7_金物
  6
Continuous
 62
     7
370
     9
100
AcDbLine
 10
-1844.081398283139
 20
-345.68431368213
 30
0.0
 11
-2024.081260954035
 21
-345.68431368213
 31
0.0
  0
LINE
  5
209
330
1F
100
AcDbEntity
  8
0-7_金物
  6
Continuous
 62
     7
370
     9
100
AcDbLine
 10
-2024.081260954035
 20
-333.6839760814206
 30
0.0
 11
-2024.081260954035
 21
-345.68431368213
 31
0.0
  0
LINE
  5
20A
330
1F
100
AcDbEntity
  8
0-7_金物
  6
Continuous
 62
     7
370
     9
100
AcDbLine
 10
-1844.081398283139
 20
-333.6839760814206
 30
0.0
 11
-1844.081398283139
 21
-345.68431368213
 31
0.0
  0
LINE
  5
20B
330
1F
100
AcDbEntity
  8
0-7_金物
  6
Continuous
 62
     7
370
     9
100
AcDbLine
 10
-1844.081398283139
 20
-333.6839760814206
 30
0.0
 11
-2024.081260954035
 21
-333.6839760814206
 31
0.0
  0
LINE
  5
20C
330
1F
100
AcDbEntity
  8
0-7_金物
  6
Continuous
 62
     7
370
     9
100
AcDbLine
 10
-1874.081501279966
 20
-345.68431368213
 30
0.0
 11
-1874.081501279966
 21
-357.68390741687
 31
0.0
  0
LINE
  5
20D
330
1F
100
AcDbEntity
  8
0-7_金物
  6
Continuous
 62
     7
370
     9
100
AcDbLine
 10
-1994.081157957212
 20
-345.68431368213
 30
0.0
 11
-1994.081157957212
 21
-357.68390741687
 31
0.0
  0
LINE
  5
20E
330
1F
100
AcDbEntity
  8
0-7_金物
  6
Continuous
 62
     7
370
     9
100
AcDbLine
 10
-1874.081501279966
 20
-357.68390741687
 30
0.0
 11
-1994.081157957212
 21
-357.68390741687
 31
0.0
  0
LINE
  5
20F
330
1F
100
AcDbEntity
  8
0-7_金物
  6
Continuous
 62
     7
370
     9
100
AcDbLine
 10
-1880.081667219297
 20
-357.68390741687
 30
0.0
 11
-1880.081667219297
 21
-381.8298970622473
 31
0.0
  0
LINE
  5
210
330
1F
100
AcDbEntity
  8
0-7_金物
  6
Continuous
 62
     7
370
     9
100
AcDbLine
 10
-1988.081735883848
 20
-381.8298970622473
 30
0.0
 11
-1988.081735883848
 21
-357.68390741687
 31
0.0
  0
LINE
  5
211
330
1F
100
AcDbEntity
  8
0-4_枠
  6
Continuous
 62
    92
370
    13
100
AcDbLine
 10
-1745.081701551574
 20
-381.8298970622426
 30
0.0
 11
-1745.081701551574
 21
-429.8298970622412
 31
0.0
  0
LINE
  5
212
330
1F
100
AcDbEntity
  8
0-4_枠
  6
Continuous
 62
    92
370
    13
100
AcDbLine
 10
-1703.081701551573
 20
-429.8298970622412
 30
0.0
 11
-1745.081701551574
 21
-429.8298970622412
 31
0.0
  0
LINE
  5
213
330
1F
100
AcDbEntity
  8
0-4_枠
  6
Continuous
 62
    92
370
    13
100
AcDbLine
 10
-1703.081701551573
 20
-429.8298970622412
 30
0.0
 11
-1703.081701551573
 21
-483.8298970622419
 31
0.0
  0
LINE
  5
214
330
1F
100
AcDbEntity
  8
0-4_枠
  6
Continuous
 62
    92
370
    13
100
AcDbLine
 10
-1703.081701551573
 20
-483.8298970622419
 30
0.0
 11
-1763.081701551573
 21
-483.8298970622419
 31
0.0
  0
LINE
  5
215
330
1F
100
AcDbEntity
  8
0-4_枠
  6
Continuous
 62
    92
370
    13
100
AcDbLine
 10
-1763.081701551573
 20
-483.8298970622419
 30
0.0
 11
-1763.081701551573
 21
-537.8298970622418
 31
0.0
  0
LINE
  5
216
330
1F
100
AcDbEntity
  8
0-4_枠
  6
Continuous
 62
    92
370
    13
100
AcDbLine
 10
-1703.081701551573
 20
-537.8298970622418
 30
0.0
 11
-1763.081701551573
 21
-537.8298970622418
 31
0.0
  0
LINE
  5
217
330
1F
100
AcDbEntity
  8
0-C_ハッチ
  6
Continuous
 62
   120
370
     5
100
AcDbLine
 10
-1706.18189534605
 20
-597.8297139567806
 30
0.0
 11
-1703.081701551566
 21
-594.7295201622968
 31
0.0
  0
LINE
  5
218
330
1F
100
AcDbEntity
  8
0-C_ハッチ
  6
Continuous
 62
   120
370
     5
100
AcDbLine
 10
-1765.578864965679
 20
-597.8297139567622
 30
0.0
 11
-1705.579048071151
 21
-537.8298970622337
 31
0.0
  0
LINE
  5
219
330
1F
100
AcDbEntity
  8
0-C_ハッチ
  6
Continuous
 62
   120
370
     5
100
AcDbLine
 10
-1824.975834585397
 20
-597.8297139567793
 30
0.0
 11
-1763.081701551581
 21
-535.9355809229626
 31
0.0
  0
LINE
  5
21A
330
1F
100
AcDbEntity
  8
0-C_ハッチ
  6
Continuous
 62
   120
370
     5
100
AcDbLine
 10
-1710.976017690861
 20
-483.8298970622419
 30
0.0
 11
-1703.081701551572
 21
-475.9355809229532
 31
0.0
  0
LINE
  5
21B
330
1F
100
AcDbEntity
  8
0-C_ハッチ
  6
Continuous
 62
   120
370
     5
100
AcDbLine
 10
-1850.082124982969
 20
-563.5390347347029
 30
0.0
 11
-1716.372987310509
 21
-429.8298970622433
 31
0.0
  0
LINE
  5
21C
330
1F
100
AcDbEntity
  8
0-C_ハッチ
  6
Continuous
 62
   120
370
     5
100
AcDbLine
 10
-1850.08212498297
 20
-504.142065115002
 30
0.0
 11
-1745.081701551571
 21
-399.1416416836047
 31
0.0
  0
LINE
  5
21D
330
1F
100
AcDbEntity
  8
0-C_ハッチ
  6
Continuous
 62
   120
370
     5
100
AcDbLine
 10
-1883.166285680726
 20
-477.8292561931108
 30
0.0
 11
-1787.166926549864
 21
-381.8298970622494
 31
0.0
  0
LINE
  5
21E
330
1F
100
AcDbEntity
  8
0-C_ハッチ
  6
Continuous
 62
   120
370
     5
100
AcDbLine
 10
-2062.563713064033
 20
-597.8297139567703
 30
0.0
 11
-2018.083116326766
 21
-553.3491172195036
 31
0.0
  0
LINE
  5
21F
330
1F
100
AcDbEntity
  8
0-C_ハッチ
  6
Continuous
 62
   120
370
     5
100
AcDbLine
 10
-1942.563255300357
 20
-477.8292561930951
 30
0.0
 11
-1846.563896169509
 21
-381.8298970622473
 31
0.0
  0
LINE
  5
220
330
1F
100
AcDbEntity
  8
0-C_ハッチ
  6
Continuous
 62
   120
370
     5
100
AcDbLine
 10
-2121.960682683741
 20
-597.8297139567771
 30
0.0
 11
-2018.083116326751
 21
-493.9521475997881
 31
0.0
  0
LINE
  5
221
330
1F
100
AcDbEntity
  8
0-C_ハッチ
  6
Continuous
 62
   120
370
     5
100
AcDbLine
 10
-2001.960224920075
 20
-477.8292561931108
 30
0.0
 11
-1905.960865789204
 21
-381.8298970622405
 31
0.0
  0
LINE
  5
222
330
1F
100
AcDbEntity
  8
0-C_ハッチ
  6
Continuous
 62
   120
370
     5
100
AcDbLine
 10
-2165.081701551575
 20
-581.5537632049657
 30
0.0
 11
-1965.357835408855
 21
-381.8298970622439
 31
0.0
  0
LINE
  5
223
330
1F
100
AcDbEntity
  8
0-C_ハッチ
  6
Continuous
 62
   120
370
     5
100
AcDbLine
 10
-2165.081701551563
 20
-522.1567935852523
 30
0.0
 11
-2024.754805028557
 21
-381.8298970622439
 31
0.0
  0
LINE
  5
224
330
1F
100
AcDbEntity
  8
0-C_ハッチ
  6
Continuous
 62
   120
370
     5
100
AcDbLine
 10
-2165.081701551577
 20
-462.7598239656179
 30
0.0
 11
-2084.1517746482
 21
-381.8298970622392
 31
0.0
  0
LINE
  5
225
330
1F
100
AcDbEntity
  8
0-C_ハッチ
  6
Continuous
 62
   120
370
     5
100
AcDbLine
 10
-2165.081701551575
 20
-403.3628543459134
 30
0.0
 11
-2143.548744267902
 21
-381.8298970622405
 31
0.0
  0
LINE
  5
226
330
1F
100
AcDbEntity
  8
0-B_寸法
  6
Continuous
 62
   120
370
     5
100
AcDbLine
 10
-1448.081299956542
 20
-597.8292735138907
 30
0.0
 11
-1106.081188514733
 21
-597.8292735138907
 31
0.0
  0
LINE
  5
227
330
1F
100
AcDbEntity
  8
0-0_補助線
  6
JWW_HOJO
 62
   120
370
     5
100
AcDbLine
 10
-2163.767469573953
 20
-1881.830386786969
 30
0.0
 11
-1704.395933529194
 21
-1881.830386786969
 31
0.0
  0
LINE
  5
228
330
1F
100
AcDbEntity
  8
0-0_補助線
  6
JWW_HOJO
 62
   120
370
     5
100
AcDbLine
 10
-2163.767469573953
 20
-2001.830386786969
 30
0.0
 11
-1704.395933529194
 21
-2001.830386786969
 31
0.0
  0
LINE
  5
229
330
1F
100
AcDbEntity
  8
0-4_枠
  6
Continuous
 62
     7
370
     9
100
AcDbLine
 10
-2036.081152235169
 20
-3281.63067629156
 30
0.0
 11
-2013.881152235167
 21
-3281.63067629156
 31
0.0
  0
LINE
  5
22A
330
1F
100
AcDbEntity
  8
0-4_枠
  6
Continuous
 62
     7
370
     9
100
AcDbLine
 10
-2012.081152235168
 20
-3283.430676291559
 30
0.0
 11
-2013.881152235167
 21
-3281.63067629156
 31
0.0
  0
LINE
  5
22B
330
1F
100
AcDbEntity
  8
0-4_枠
  6
Continuous
 62
     7
370
     9
100
AcDbLine
 10
-2012.081152235168
 20
-3283.430676291559
 30
0.0
 11
-2010.281152235167
 21
-3281.63067629156
 31
0.0
  0
ARC
  5
22C
330
1F
100
AcDbEntity
  8
0-4_枠
  6
Continuous
 62
     7
370
     9
100
AcDbCircle
 10
-1972.481152235168
 20
-3283.430676291559
 30
0.0
 40
1.800000000000579
100
AcDbArc
 50
359.9999999999784
 51
90.00000000000004
  0
LINE
  5
22D
330
1F
100
AcDbEntity
  8
0-4_枠
  6
Continuous
 62
     7
370
     9
100
AcDbLine
 10
-1970.681152235167
 20
-3283.430676291559
 30
0.0
 11
-1970.681152235167
 21
-3286.430676291561
 31
0.0
  0
ARC
  5
22E
330
1F
100
AcDbEntity
  8
0-4_枠
  6
Continuous
 62
     7
370
     9
100
AcDbCircle
 10
-1971.881152235169
 20
-3286.430676291559
 30
0.0
 40
1.200000000000273
100
AcDbArc
 50
270.0
 51
359.9999999999674
  0
LINE
  5
22F
330
1F
100
AcDbEntity
  8
0-4_枠
  6
Continuous
 62
     7
370
     9
100
AcDbLine
 10
-1971.881152235169
 20
-3287.63067629156
 30
0.0
 11
-1975.481152235168
 21
-3287.63067629156
 31
0.0
  0
ARC
  5
230
330
1F
100
AcDbEntity
  8
0-4_枠
  6
Continuous
 62
     7
370
     9
100
AcDbCircle
 10
-1975.481152235168
 20
-3289.430676291559
 30
0.0
 40
1.799999999999727
100
AcDbArc
 50
90.0
 51
180.0
  0
LINE
  5
231
330
1F
100
AcDbEntity
  8
0-4_枠
  6
Continuous
 62
     7
370
     9
100
AcDbLine
 10
-1977.281152235168
 20
-3289.430676291559
 30
0.0
 11
-1977.281152235168
 21
-3301.430676291561
 31
0.0
  0
ARC
  5
232
330
1F
100
AcDbEntity
  8
0-4_枠
  6
Continuous
 62
     7
370
     9
100
AcDbCircle
 10
-1974.281152235168
 20
-3301.430676291561
 30
0.0
 40
3.0
100
AcDbArc
 50
180.0
 51
270.0
  0
LINE
  5
233
330
1F
100
AcDbEntity
  8
0-4_枠
  6
Continuous
 62
     7
370
     9
100
AcDbLine
 10
-1974.281152235168
 20
-3304.43067629156
 30
0.0
 11
-1935.881152235169
 21
-3304.430676291561
 31
0.0
  0
LINE
  5
234
330
1F
100
AcDbEntity
  8
0-4_枠
  6
Continuous
 62
     7
370
     9
100
AcDbLine
 10
-1934.081152235168
 20
-3306.230676291561
 30
0.0
 11
-1935.881152235169
 21
-3304.430676291561
 31
0.0
  0
LINE
  5
235
330
1F
100
AcDbEntity
  8
0-4_枠
  6
Continuous
 62
     7
370
     9
100
AcDbLine
 10
-1934.081152235168
 20
-3306.230676291561
 30
0.0
 11
-1932.281152235168
 21
-3304.430676291561
 31
0.0
  0
LINE
  5
236
330
1F
100
AcDbEntity
  8
0-4_枠
  6
Continuous
 62
     7
370
     9
100
AcDbLine
 10
-1932.281152235168
 20
-3304.430676291561
 30
0.0
 11
-1893.881152235174
 21
-3304.43067629156
 31
0.0
  0
ARC
  5
237
330
1F
100
AcDbEntity
  8
0-4_枠
  6
Continuous
 62
     7
370
     9
100
AcDbCircle
 10
-1893.881152235174
 20
-3301.430676291561
 30
0.0
 40
3.0
100
AcDbArc
 50
270.0
 51
0.0
  0
LINE
  5
238
330
1F
100
AcDbEntity
  8
0-4_枠
  6
Continuous
 62
     7
370
     9
100
AcDbLine
 10
-1890.881152235173
 20
-3289.430676291559
 30
0.0
 11
-1890.881152235173
 21
-3301.430676291561
 31
0.0
  0
ARC
  5
239
330
1F
100
AcDbEntity
  8
0-4_枠
  6
Continuous
 62
     7
370
     9
100
AcDbCircle
 10
-1892.681152235174
 20
-3289.430676291559
 30
0.0
 40
1.800000000000069
100
AcDbArc
 50
0.0
 51
90.0
  0
LINE
  5
23A
330
1F
100
AcDbEntity
  8
0-4_枠
  6
Continuous
 62
     7
370
     9
100
AcDbLine
 10
-1896.281152235168
 20
-3287.63067629156
 30
0.0
 11
-1892.681152235174
 21
-3287.63067629156
 31
0.0
  0
ARC
  5
23B
330
1F
100
AcDbEntity
  8
0-4_枠
  6
Continuous
 62
     7
370
     9
100
AcDbCircle
 10
-1896.281152235168
 20
-3286.430676291559
 30
0.0
 40
1.199999999999932
100
AcDbArc
 50
179.9999999999674
 51
270.0
  0
LINE
  5
23C
330
1F
100
AcDbEntity
  8
0-4_枠
  6
Continuous
 62
     7
370
     9
100
AcDbLine
 10
-1897.481152235168
 20
-3283.430676291558
 30
0.0
 11
-1897.481152235168
 21
-3286.430676291558
 31
0.0
  0
ARC
  5
23D
330
1F
100
AcDbEntity
  8
0-4_枠
  6
Continuous
 62
     7
370
     9
100
AcDbCircle
 10
-1895.681152235169
 20
-3283.430676291558
 30
0.0
 40
1.799999999999727
100
AcDbArc
 50
89.99999999996201
 51
180.0
  0
ARC
  5
23E
330
1F
100
AcDbEntity
  8
0-4_枠
  6
Continuous
 62
     7
370
     9
100
AcDbCircle
 10
-1895.681152235174
 20
-3293.630676291561
 30
0.0
 40
12.0
100
AcDbArc
 50
359.9999999999968
 51
89.9999999999682
  0
LINE
  5
23F
330
1F
100
AcDbEntity
  8
0-4_枠
  6
Continuous
 62
     7
370
     9
100
AcDbLine
 10
-1883.681152235173
 20
-3293.630676291561
 30
0.0
 11
-1883.681152235174
 21
-3309.83067629156
 31
0.0
  0
ARC
  5
240
330
1F
100
AcDbEntity
  8
0-4_枠
  6
Continuous
 62
     7
370
     9
100
AcDbCircle
 10
-1977.881152235168
 20
-3303.83067629156
 30
0.0
 40
6.0
100
AcDbArc
 50
180.0
 51
270.0
  0
LINE
  5
241
330
1F
100
AcDbEntity
  8
0-4_枠
  6
Continuous
 62
     7
370
     9
100
AcDbLine
 10
-1983.881152235169
 20
-3292.276260703832
 30
0.0
 11
-1983.881152235169
 21
-3303.83067629156
 31
0.0
  0
ARC
  5
242
330
1F
100
AcDbEntity
  8
0-4_枠
  6
Continuous
 62
     7
370
     9
100
AcDbCircle
 10
-1985.681152235169
 20
-3292.276260703832
 30
0.0
 40
1.800000000000069
100
AcDbArc
 50
359.9999999999784
 51
135.0000000000384
  0
LINE
  5
243
330
1F
100
AcDbEntity
  8
0-4_枠
  6
Continuous
 62
     7
370
     9
100
AcDbLine
 10
-1992.953944441302
 20
-3297.003468497698
 30
0.0
 11
-1986.953944441304
 21
-3291.003468497698
 31
0.0
  0
ARC
  5
244
330
1F
100
AcDbEntity
  8
0-4_枠
  6
Continuous
 62
     7
370
     9
100
AcDbCircle
 10
-1991.681152235167
 20
-3298.276260703833
 30
0.0
 40
1.799999999999605
100
AcDbArc
 50
135.0000000000057
 51
180.0000000000034
  0
LINE
  5
245
330
1F
100
AcDbEntity
  8
0-4_枠
  6
Continuous
 62
     7
370
     9
100
AcDbLine
 10
-1993.481152235167
 20
-3309.83067629156
 30
0.0
 11
-1993.481152235167
 21
-3298.276260703833
 31
0.0
  0
LINE
  5
246
330
1F
100
AcDbEntity
  8
0-4_枠
  6
Continuous
 62
     7
370
     9
100
AcDbLine
 10
-2000.081152235168
 20
-3309.83067629156
 30
0.0
 11
-1993.481152235167
 21
-3309.83067629156
 31
0.0
  0
LINE
  5
247
330
1F
100
AcDbEntity
  8
0-4_枠
  6
Continuous
 62
     7
370
     9
100
AcDbLine
 10
-2000.081152235168
 20
-3309.83067629156
 30
0.0
 11
-2000.081152235168
 21
-3294.230676291561
 31
0.0
  0
ARC
  5
248
330
1F
100
AcDbEntity
  8
0-4_枠
  6
Continuous
 62
     7
370
     9
100
AcDbCircle
 10
-2000.681152235167
 20
-3294.230676291561
 30
0.0
 40
0.599999999999966
100
AcDbArc
 50
0.0
 51
90.0
  0
LINE
  5
249
330
1F
100
AcDbEntity
  8
0-4_枠
  6
Continuous
 62
     7
370
     9
100
AcDbLine
 10
-2023.481152235167
 20
-3293.630676291561
 30
0.0
 11
-2000.681152235167
 21
-3293.630676291561
 31
0.0
  0
ARC
  5
24A
330
1F
100
AcDbEntity
  8
0-4_枠
  6
Continuous
 62
     7
370
     9
100
AcDbCircle
 10
-2023.481152235167
 20
-3294.230676291561
 30
0.0
 40
0.6000000000001362
100
AcDbArc
 50
90.0
 51
180.0
  0
LINE
  5
24B
330
1F
100
AcDbEntity
  8
0-4_枠
  6
Continuous
 62
     7
370
     9
100
AcDbLine
 10
-2024.081152235168
 20
-3309.83067629156
 30
0.0
 11
-2024.081152235168
 21
-3294.230676291561
 31
0.0
  0
LINE
  5
24C
330
1F
100
AcDbEntity
  8
0-4_枠
  6
Continuous
 62
     7
370
     9
100
AcDbLine
 10
-2030.681152235169
 20
-3309.83067629156
 30
0.0
 11
-2024.081152235168
 21
-3309.83067629156
 31
0.0
  0
LINE
  5
24D
330
1F
100
AcDbEntity
  8
0-4_枠
  6
Continuous
 62
     7
370
     9
100
AcDbLine
 10
-2030.681152235169
 20
-3309.83067629156
 30
0.0
 11
-2030.681152235169
 21
-3297.530676291562
 31
0.0
  0
LINE
  5
24E
330
1F
100
AcDbEntity
  8
0-4_枠
  6
Continuous
 62
     7
370
     9
100
AcDbLine
 10
-2030.681152235169
 20
-3297.530676291562
 30
0.0
 11
-2036.959831891611
 21
-3291.251996635121
 31
0.0
  0
ARC
  5
24F
330
1F
100
AcDbEntity
  8
0-4_枠
  6
Continuous
 62
     7
370
     9
100
AcDbCircle
 10
-2039.081152235168
 20
-3293.373316978679
 30
0.0
 40
2.999999999998578
100
AcDbArc
 50
45.0
 51
180.0000000000261
  0
LINE
  5
250
330
1F
100
AcDbEntity
  8
0-4_枠
  6
Continuous
 62
     7
370
     9
100
AcDbLine
 10
-2042.081152235168
 20
-3309.83067629156
 30
0.0
 11
-2042.081152235169
 21
-3293.37331697868
 31
0.0
  0
LINE
  5
251
330
1F
100
AcDbEntity
  8
0-4_枠
  6
Continuous
 62
     7
370
     9
100
AcDbLine
 10
-2048.081152235167
 20
-3309.83067629156
 30
0.0
 11
-2042.081152235168
 21
-3309.83067629156
 31
0.0
  0
LINE
  5
252
330
1F
100
AcDbEntity
  8
0-4_枠
  6
Continuous
 62
     7
370
     9
100
AcDbLine
 10
-2048.081152235167
 20
-3309.83067629156
 30
0.0
 11
-2048.081152235169
 21
-3293.630676291561
 31
0.0
  0
ARC
  5
253
330
1F
100
AcDbEntity
  8
0-4_枠
  6
Continuous
 62
     7
370
     9
100
AcDbCircle
 10
-2036.081152235169
 20
-3293.630676291561
 30
0.0
 40
12.0
100
AcDbArc
 50
90.0
 51
180.0
  0
LINE
  5
254
330
1F
100
AcDbEntity
  8
0-4_枠
  6
Continuous
 62
     7
370
     9
100
AcDbLine
 10
-1977.881152235168
 20
-3309.83067629156
 30
0.0
 11
-1883.681152235174
 21
-3309.83067629156
 31
0.0
  0
LINE
  5
255
330
1F
100
AcDbEntity
  8
0-4_枠
  6
Continuous
 62
     7
370
     9
100
AcDbLine
 10
-1972.481152235168
 20
-3281.630676291559
 30
0.0
 11
-2010.281152235167
 21
-3281.630676291559
 31
0.0
  0
LINE
  5
256
330
1F
100
AcDbEntity
  8
0-A_文字
  6
Continuous
 62
   120
370
     5
100
AcDbLine
 10
-1883.681152235174
 20
-2986.432628161206
 30
0.0
 11
-2048.081152235167
 21
-2986.432628161206
 31
0.0
  0
LWPOLYLINE
  5
257
330
1F
100
AcDbEntity
  8
0-A_文字
  6
Continuous
 62
     7
370
     9
100
AcDbPolyline
 90
        4
 70
     1
 43
3.0
 10
-1882.181152235174
 20
-2986.432628161206
 42
0.4142135623731
 10
-1883.681152235174
 20
-2984.932628161206
 42
0.4142135623731
 10
-1885.181152235174
 20
-2986.432628161206
 42
0.4142135623731
 10
-1883.681152235174
 20
-2987.932628161206
 42
0.4142135623731
  0
LWPOLYLINE
  5
258
330
1F
100
AcDbEntity
  8
0-A_文字
  6
Continuous
 62
     7
370
     9
100
AcDbPolyline
 90
        4
 70
     1
 43
3.0
 10
-2046.581152235168
 20
-2986.432628161206
 42
0.4142135623731
 10
-2048.081152235167
 20
-2984.932628161206
 42
0.4142135623731
 10
-2049.581152235167
 20
-2986.432628161206
 42
0.4142135623731
 10
-2048.081152235167
 20
-2987.932628161206
 42
0.4142135623731
  0
LINE
  5
259
330
1F
100
AcDbEntity
  8
0-A_文字
  6
Continuous
 62
   120
370
     5
100
AcDbLine
 10
-1883.681152235174
 20
-2986.432628161206
 30
0.0
 11
-1883.681152235174
 21
-3094.550639719223
 31
0.0
  0
LINE
  5
25A
330
1F
100
AcDbEntity
  8
0-A_文字
  6
Continuous
 62
   120
370
     5
100
AcDbLine
 10
-2048.081152235167
 20
-2986.432628161206
 30
0.0
 11
-2048.081152235167
 21
-3094.550639719223
 31
0.0
  0
LINE
  5
25B
330
1F
100
AcDbEntity
  8
0-7_金物
  6
Continuous
 62
     7
370
     9
100
AcDbLine
 10
-1943.08158278046
 20
-3241.084075692163
 30
0.0
 11
-1943.08158278046
 21
-3304.430676291561
 31
0.0
  0
LINE
  5
25C
330
1F
100
AcDbEntity
  8
0-7_金物
  6
Continuous
 62
     7
370
     9
100
AcDbLine
 10
-1925.081820322689
 20
-3241.084075692163
 30
0.0
 11
-1925.081820322689
 21
-3304.430676291561
 31
0.0
  0
LINE
  5
25D
330
1F
100
AcDbEntity
  8
0-7_金物
  6
Continuous
 62
     7
370
     9
100
AcDbLine
 10
-1943.08158278046
 20
-3304.430676291561
 30
0.0
 11
-1925.081820322689
 21
-3304.430676291561
 31
0.0
  0
MTEXT
  5
25E
330
1F
100
AcDbEntity
  8
0-B_寸法
  6
Continuous
 62
     7
370
     0
100
AcDbMText
 10
-1120.508971095034
 20
-854.3901914782958
 30
0.0
 40
91.44000000000023
 41
180.0000000000004
 46
0.0
 71
     7
 72
     1
  1
{\fＭＳ ゴシック|b0|i0|c128|p49;7.5}
 11
6.123031769111886E-17
 21
1.0
 31
0.0
 73
     1
 44
1.0
  0
LINE
  5
25F
330
1F
100
AcDbEntity
  8
0-0_補助線
  6
JWW_HOJO
 62
   120
370
     5
100
AcDbLine
 10
-686.0803902403916
 20
-3381.830282862243
 30
0.0
 11
-686.0810862511806
 21
2.00007402539967
 31
0.0
  0
LINE
  5
260
330
1F
100
AcDbEntity
  8
0-0_補助線
  6
JWW_HOJO
 62
   120
370
     5
100
AcDbLine
 10
-2762.080513706075
 20
-3381.830282835852
 30
0.0
 11
-2762.081209716868
 21
2.00007402539967
 31
0.0
  0
LINE
  5
261
330
1F
100
AcDbEntity
  8
0-0_補助線
  6
JWW_HOJO
 62
   120
370
     5
100
AcDbLine
 10
-896.0803902403916
 20
-3381.830282835852
 30
0.0
 11
-896.0810862511806
 21
2.00007402539967
 31
0.0
  0
LINE
  5
262
330
1F
100
AcDbEntity
  8
0-0_補助線
  6
JWW_HOJO
 62
   120
370
     5
100
AcDbLine
 10
-1106.080390240395
 20
-3381.830282835852
 30
0.0
 11
-1106.081086251185
 21
2.00007402539967
 31
0.0
  0
LINE
  5
263
330
1F
100
AcDbEntity
  8
0-0_補助線
  6
JWW_HOJO
 62
   120
370
     5
100
AcDbLine
 10
-2552.080513706054
 20
-3381.830282835852
 30
0.0
 11
-2552.081209716848
 21
2.00007402539967
 31
0.0
  0
LINE
  5
264
330
1F
100
AcDbEntity
  8
0-0_補助線
  6
JWW_HOJO
 62
   120
370
     5
100
AcDbLine
 10
-1316.08051370604
 20
-3381.830282835852
 30
0.0
 11
-1316.08120971683
 21
2.00007402539967
 31
0.0
  0
MTEXT
  5
265
330
1F
100
AcDbEntity
  8
0-B_寸法
  6
Continuous
 62
     7
370
     0
100
AcDbMText
 10
-1994.082250867979
 20
-892.5922363663796
 30
0.0
 40
91.43999999999805
 41
119.9999999999974
 46
0.0
 71
     7
 72
     1
  1
{\fＭＳ ゴシック|b0|i0|c128|p49;77}
 73
     1
 44
1.0
  0
LINE
  5
266
330
1F
100
AcDbEntity
  8
0-0_補助線
  6
JWW_HOJO
 62
   120
370
     5
100
AcDbLine
 10
-2762.081254180212
 20
2.00007402539967
 30
0.0
 11
-686.0811307145252
 21
2.00007402539967
 31
0.0
  0
MTEXT
  5
267
330
1F
100
AcDbEntity
  8
0-B_寸法
  6
Continuous
 62
     7
370
     0
100
AcDbMText
 10
-1120.547683762142
 20
-3240.455445880879
 30
0.0
 40
91.43999999999913
 41
179.9999999999983
 46
0.0
 71
     7
 72
     1
  1
{\fＭＳ ゴシック|b0|i0|c128|p49;6.5}
 11
6.123031769111886E-17
 21
1.0
 31
0.0
 73
     1
 44
1.0
  0
MTEXT
  5
268
330
1F
100
AcDbEntity
  8
0-B_寸法
  6
Continuous
 62
     7
370
   211
100
AcDbMText
 10
-908.7068848063111
 20
-3287.030957072355
 30
0.0
 40
91.44000000000129
 41
60.00000000000085
 46
0.0
 71
     7
 72
     1
  1
{\fＭＳ ゴシック|b0|i0|c128|p49;5}
 11
6.123031769111886E-17
 21
1.0
 31
0.0
 73
     1
 44
1.0
  0
MTEXT
  5
269
330
1F
100
AcDbEntity
  8
0-B_寸法
  6
Continuous
 62
     7
370
   211
100
AcDbMText
 10
-695.6292883037374
 20
-3530.256766697102
 30
0.0
 40
91.44000000000129
 41
120.0000000000017
 46
0.0
 71
     7
 72
     1
  1
{\fＭＳ ゴシック|b0|i0|c128|p49;12}
 11
6.123031769111886E-17
 21
1.0
 31
0.0
 73
     1
 44
1.0
  0
MTEXT
  5
26A
330
1F
100
AcDbEntity
  8
0-B_寸法
  6
Continuous
 62
     7
370
   211
100
AcDbMText
 10
-2912.081152235169
 20
-2346.110386786968
 30
0.0
 40
91.44000000000028
 41
780.0000000000025
 46
0.0
 71
     7
 72
     1
  1
{\fＭＳ ゴシック|b0|i0|c128|p49;ＲＯＨ＝2,055}
 11
6.123031769111886E-17
 21
1.0
 31
0.0
 73
     1
 44
1.0
  0
MTEXT
  5
26B
330
1F
100
AcDbEntity
  8
0-B_寸法
  6
Continuous
 62
     7
370
     0
100
AcDbMText
 10
-1121.080495683228
 20
-2286.11038678697
 30
0.0
 40
91.44000000000014
 41
660.0000000000009
 46
0.0
 71
     7
 72
     1
  1
{\fＭＳ ゴシック|b0|i0|c128|p49;ＤＨ＝1,983}
 11
6.123031769111886E-17
 21
1.0
 31
0.0
 73
     1
 44
1.0
  0
MTEXT
  5
26C
330
1F
100
AcDbEntity
  8
0-B_寸法
  6
Continuous
 62
     7
370
     0
100
AcDbMText
 10
-911.0804956832319
 20
-2286.11038678697
 30
0.0
 40
91.44000000000014
 41
660.0000000000009
 46
0.0
 71
     7
 72
     1
  1
{\fＭＳ ゴシック|b0|i0|c128|p49;枠内＝1,997}
 11
6.123031769111886E-17
 21
1.0
 31
0.0
 73
     1
 44
1.0
  0
MTEXT
  5
26D
330
1F
100
AcDbEntity
  8
0-B_寸法
  6
Continuous
 62
     7
370
     0
100
AcDbMText
 10
-701.0819803221627
 20
-2286.11038678697
 30
0.0
 40
91.44000000000014
 41
660.0000000000009
 46
0.0
 71
     7
 72
     1
  1
{\fＭＳ ゴシック|b0|i0|c128|p49;枠外＝2,038}
 11
6.123031769111886E-17
 21
1.0
 31
0.0
 73
     1
 44
1.0
  0
MTEXT
  5
26E
330
1F
100
AcDbEntity
  8
0-A_文字
  6
Continuous
 62
     7
370
   211
100
AcDbMText
 10
-2054.081152235171
 20
-1408.325400787585
 30
0.0
 40
91.43999999999966
 41
239.9999999999991
 46
0.0
 71
     7
 72
     1
  1
{\fＭＳ ゴシック|b0|i0|c128|p49;(24)}
 73
     1
 44
1.0
  0
MTEXT
  5
26F
330
1F
100
AcDbEntity
  8
0-A_文字
  6
Continuous
 62
     7
370
     0
100
AcDbMText
 10
-1882.582784495259
 20
-3678.738031499875
 30
0.0
 40
68.57999999999997
 41
1349.999999999999
 46
0.0
 71
     7
 72
     1
  1
{\fＭＳ ゴシック|b0|i0|c128|p49;※扉厚（　）内はルーバーの場合}
 73
     1
 44
1.0
  0
LINE
  5
270
330
1F
100
AcDbEntity
  8
0-A_文字
  6
JWW_HOJO
 62
   120
370
     5
100
AcDbLine
 10
-1882.582784495259
 20
-3668.028031499875
 30
0.0
 11
526.9410250285506
 21
-3668.028031499875
 31
0.0
  0
LINE
  5
271
330
1F
100
AcDbEntity
  8
0-3_仕上げ
  6
Continuous
 62
   120
370
     5
100
AcDbLine
 10
-2165.081701551586
 20
-153.6839760814206
 30
0.0
 11
-1745.081701551586
 21
-153.6839760814206
 31
0.0
  0
LINE
  5
272
330
1F
100
AcDbEntity
  8
0-3_仕上げ
  6
Continuous
 62
   120
370
     5
100
AcDbLine
 10
-2165.081701551586
 20
-333.6839760814206
 30
0.0
 11
-2165.081701551586
 21
-153.6839760814206
 31
0.0
  0
LINE
  5
273
330
1F
100
AcDbEntity
  8
0-3_仕上げ
  6
Continuous
 62
   120
370
     5
100
AcDbLine
 10
-1745.081701551586
 20
-153.6839760814206
 30
0.0
 11
-1745.081701551586
 21
-333.6839760814206
 31
0.0
  0
LINE
  5
274
330
1F
100
AcDbEntity
  8
0-3_仕上げ
  6
Continuous
 62
   120
370
     5
100
AcDbLine
 10
-1745.081701551586
 20
-333.6839760814206
 30
0.0
 11
-2165.081701551586
 21
-333.6839760814206
 31
0.0
  0
LINE
  5
275
330
1F
100
AcDbEntity
  8
0-3_仕上げ
  6
Continuous
 62
   120
370
     5
100
AcDbLine
 10
-2165.081701551586
 20
-333.6839760814206
 30
0.0
 11
-1745.081701551586
 21
-153.6839760814206
 31
0.0
  0
LINE
  5
276
330
1F
100
AcDbEntity
  8
0-3_仕上げ
  6
Continuous
 62
    40
370
    15
100
AcDbLine
 10
-1670.081701551574
 20
-429.8298970622412
 30
0.0
 11
-1745.081701551574
 21
-429.8298970622412
 31
0.0
  0
LINE
  5
277
330
1F
100
AcDbEntity
  8
0-C_ハッチ
  6
JWW_DASHED1
 62
   120
370
     5
100
AcDbLine
 10
-1696.010653804577
 20
-429.8298970622433
 30
0.0
 11
-1670.081701551573
 21
-403.9009448092384
 31
0.0
  0
LINE
  5
278
330
1F
100
AcDbEntity
  8
0-C_ハッチ
  6
JWW_DASHED1
 62
   120
370
     5
100
AcDbLine
 10
-1738.437060675776
 20
-429.829897062242
 30
0.0
 11
-1670.081701551575
 21
-361.4745379380417
 31
0.0
  0
LINE
  5
279
330
1F
100
AcDbEntity
  8
0-C_ハッチ
  6
JWW_DASHED1
 62
   120
370
     5
100
AcDbLine
 10
-1745.081701551575
 20
-394.0481310668409
 30
0.0
 11
-1670.081701551579
 21
-319.0481310668451
 31
0.0
  0
LINE
  5
27A
330
1F
100
AcDbEntity
  8
0-C_ハッチ
  6
JWW_DASHED1
 62
   120
370
     5
100
AcDbLine
 10
-1745.081701551579
 20
-351.6217241956443
 30
0.0
 11
-1670.081701551567
 21
-276.6217241956319
 31
0.0
  0
LINE
  5
27B
330
1F
100
AcDbEntity
  8
0-C_ハッチ
  6
JWW_DASHED1
 62
   120
370
     5
100
AcDbLine
 10
-1745.081701551582
 20
-309.1953173244468
 30
0.0
 11
-1670.08170155157
 21
-234.1953173244362
 31
0.0
  0
LINE
  5
27C
330
1F
100
AcDbEntity
  8
0-C_ハッチ
  6
JWW_DASHED1
 62
   120
370
     5
100
AcDbLine
 10
-1745.081701551562
 20
-266.7689104532818
 30
0.0
 11
-1670.081701551567
 21
-191.7689104532886
 31
0.0
  0
LINE
  5
27D
330
1F
100
AcDbEntity
  8
0-C_ハッチ
  6
JWW_DASHED1
 62
   120
370
     5
100
AcDbLine
 10
-1745.081701551567
 20
-224.3425035820864
 30
0.0
 11
-1670.081701551573
 21
-149.342503582092
 31
0.0
  0
LINE
  5
27E
330
1F
100
AcDbEntity
  8
0-C_ハッチ
  6
JWW_DASHED1
 62
   120
370
     5
100
AcDbLine
 10
-1745.081701551563
 20
-181.9160967108851
 30
0.0
 11
-1670.081701551569
 21
-106.9160967108886
 31
0.0
  0
LINE
  5
27F
330
1F
100
AcDbEntity
  8
0-C_ハッチ
  6
JWW_DASHED1
 62
   120
370
     5
100
AcDbLine
 10
-1745.081701551567
 20
-139.489689839686
 30
0.0
 11
-1670.081701551573
 21
-64.48968983969195
 31
0.0
  0
LINE
  5
280
330
1F
100
AcDbEntity
  8
0-3_仕上げ
  6
Continuous
 62
    40
370
    15
100
AcDbLine
 10
-1745.081701551574
 20
-429.8298970622412
 30
0.0
 11
-1745.081701551574
 21
2.00007402539967
 31
0.0
  0
LINE
  5
281
330
1F
100
AcDbEntity
  8
0-3_仕上げ
  6
Continuous
 62
    40
370
    15
100
AcDbLine
 10
-1670.081701551574
 20
-429.8298970622412
 30
0.0
 11
-1670.081701551574
 21
2.00007402539967
 31
0.0
  0
LINE
  5
282
330
1F
100
AcDbEntity
  8
0-C_ハッチ
  6
JWW_DASHED1
 62
   120
370
     5
100
AcDbLine
 10
-1745.08170155157
 20
-97.06328296848937
 30
0.0
 11
-1670.081701551574
 21
-22.06328296849492
 31
0.0
  0
LINE
  5
283
330
1F
100
AcDbEntity
  8
0-C_ハッチ
  6
JWW_DASHED1
 62
   120
370
     5
100
AcDbLine
 10
-1745.081701551574
 20
-54.63687609729277
 30
0.0
 11
-1688.444751428872
 21
2.00007402539967
 31
0.0
  0
LINE
  5
284
330
1F
100
AcDbEntity
  8
0-E
  6
Continuous
 62
    92
370
    13
100
AcDbLine
 10
1719.588084229156
 20
-3177.981209359648
 30
0.0
 11
1719.588084229156
 21
-351.829897062243
 31
0.0
  0
LINE
  5
285
330
1F
100
AcDbEntity
  8
0-E
  6
Continuous
 62
    92
370
    13
100
AcDbLine
 10
1719.588084229156
 20
-351.829897062243
 30
0.0
 11
4359.588084229161
 21
-351.829897062243
 31
0.0
  0
LINE
  5
286
330
1F
100
AcDbEntity
  8
0-E
  6
Continuous
 62
    92
370
    13
100
AcDbLine
 10
-266.0812774414234
 20
-351.829897062243
 30
0.0
 11
1719.588084229156
 21
-351.829897062243
 31
0.0
  0
LINE
  5
287
330
1F
100
AcDbEntity
  8
0-E
  6
Continuous
 62
    92
370
    13
100
AcDbLine
 10
-266.0812774414234
 20
-567.829897062244
 30
0.0
 11
1719.588084229156
 21
-567.829897062244
 31
0.0
  0
LINE
  5
288
330
1F
100
AcDbEntity
  8
0-E
  6
Continuous
 62
    92
370
    13
100
AcDbLine
 10
1719.588084229156
 20
-3450.927341891148
 30
0.0
 11
1719.588084229156
 21
-351.829897062243
 31
0.0
  0
LWPOLYLINE
  5
289
330
1F
100
AcDbEntity
  8
0-E
  6
Continuous
 62
     7
370
     9
100
AcDbPolyline
 90
        4
 70
     1
 43
3.0
 10
319.0688477633162
 20
-843.9498357858877
 42
0.4142135623731
 10
317.5688477633162
 20
-842.4498357858877
 42
0.4142135623731
 10
316.0688477633162
 20
-843.9498357858877
 42
0.4142135623731
 10
317.5688477633162
 20
-845.4498357858877
 42
0.4142135623731
  0
LINE
  5
28A
330
1F
100
AcDbEntity
  8
0-E
  6
Continuous
 62
   120
370
     5
100
AcDbLine
 10
317.5688477633162
 20
-843.9498357858877
 30
0.0
 11
317.5688477633162
 21
-987.4918855858884
 31
0.0
  0
LINE
  5
28B
330
1F
100
AcDbEntity
  8
0-E
  6
Continuous
 62
    92
370
    13
100
AcDbLine
 10
317.5688477633162
 20
-1037.491885585887
 30
0.0
 11
317.5688477633162
 21
-1912.783091134715
 31
0.0
  0
LINE
  5
28C
330
1F
100
AcDbEntity
  8
0-E
  6
Continuous
 62
    92
370
    13
100
AcDbLine
 10
-266.0812774414234
 20
-2359.813002592471
 30
0.0
 11
1719.588084229156
 21
-2359.813002592471
 31
0.0
  0
LINE
  5
28D
330
1F
100
AcDbEntity
  8
0-E
  6
Continuous
 62
    92
370
    13
100
AcDbLine
 10
-266.0812774414234
 20
-2575.813002592472
 30
0.0
 11
1719.588084229156
 21
-2575.813002592472
 31
0.0
  0
MTEXT
  5
28E
330
1F
100
AcDbEntity
  8
0-E
  6
Continuous
 62
     7
370
     0
100
AcDbMText
 10
6.753403393866506
 20
-537.8715200244994
 30
0.0
 40
91.44000000000005
 41
1440.000000000001
 46
0.0
 71
     7
 72
     1
  1
{\fＭＳ ゴシック|b0|i0|c128|p49;竪枠下端形状図（S＝1/3）}
 73
     1
 44
1.0
  0
LINE
  5
28F
330
1F
100
AcDbEntity
  8
0-E
  6
Continuous
 62
     7
370
     9
100
AcDbLine
 10
444.2481272365791
 20
-3037.202984114665
 30
0.0
 11
555.2481272365873
 21
-3037.202984114665
 31
0.0
  0
LINE
  5
290
330
1F
100
AcDbEntity
  8
0-E
  6
Continuous
 62
     7
370
     9
100
AcDbLine
 10
564.2481272365859
 20
-3046.202984114664
 30
0.0
 11
555.2481272365873
 21
-3037.202984114665
 31
0.0
  0
LINE
  5
291
330
1F
100
AcDbEntity
  8
0-E
  6
Continuous
 62
     7
370
     9
100
AcDbLine
 10
564.2481272365859
 20
-3046.202984114664
 30
0.0
 11
573.2481272365845
 21
-3037.202984114665
 31
0.0
  0
LINE
  5
292
330
1F
100
AcDbEntity
  8
0-E
  6
Continuous
 62
     7
370
     9
100
AcDbLine
 10
771.2481272365848
 20
-3046.202984114664
 30
0.0
 11
771.2481272365848
 21
-3061.202984114664
 31
0.0
  0
LINE
  5
293
330
1F
100
AcDbEntity
  8
0-E
  6
Continuous
 62
     7
370
     9
100
AcDbLine
 10
765.2481272365766
 20
-3067.202984114662
 30
0.0
 11
747.2481272365793
 21
-3067.202984114662
 31
0.0
  0
LINE
  5
294
330
1F
100
AcDbEntity
  8
0-E
  6
Continuous
 62
     7
370
     9
100
AcDbLine
 10
738.2481272365807
 20
-3076.20298411466
 30
0.0
 11
738.2481272365807
 21
-3136.202984114664
 31
0.0
  0
LINE
  5
295
330
1F
100
AcDbEntity
  8
0-E
  6
Continuous
 62
     7
370
     9
100
AcDbLine
 10
753.2481272365807
 20
-3151.202984114664
 30
0.0
 11
945.2481272365804
 21
-3151.202984114671
 31
0.0
  0
LINE
  5
296
330
1F
100
AcDbEntity
  8
0-E
  6
Continuous
 62
     7
370
     9
100
AcDbLine
 10
954.2481272365791
 20
-3160.20298411467
 30
0.0
 11
945.2481272365804
 21
-3151.202984114671
 31
0.0
  0
LINE
  5
297
330
1F
100
AcDbEntity
  8
0-E
  6
Continuous
 62
     7
370
     9
100
AcDbLine
 10
954.2481272365791
 20
-3160.20298411467
 30
0.0
 11
963.2481272365811
 21
-3151.202984114671
 31
0.0
  0
LINE
  5
298
330
1F
100
AcDbEntity
  8
0-E
  6
Continuous
 62
     7
370
     9
100
AcDbLine
 10
963.2481272365811
 20
-3151.202984114671
 30
0.0
 11
1155.24812723655
 21
-3151.202984114664
 31
0.0
  0
LINE
  5
299
330
1F
100
AcDbEntity
  8
0-E
  6
Continuous
 62
     7
370
     9
100
AcDbLine
 10
1170.248127236553
 20
-3076.20298411466
 30
0.0
 11
1170.248127236553
 21
-3136.202984114664
 31
0.0
  0
LINE
  5
29A
330
1F
100
AcDbEntity
  8
0-E
  6
Continuous
 62
     7
370
     9
100
AcDbLine
 10
1143.248127236578
 20
-3067.202984114662
 30
0.0
 11
1161.248127236554
 21
-3067.202984114662
 31
0.0
  0
LINE
  5
29B
330
1F
100
AcDbEntity
  8
0-E
  6
Continuous
 62
     7
370
     9
100
AcDbLine
 10
1137.24812723658
 20
-3046.202984114657
 30
0.0
 11
1137.24812723658
 21
-3061.202984114657
 31
0.0
  0
LINE
  5
29C
330
1F
100
AcDbEntity
  8
0-E
  6
Continuous
 62
     7
370
     9
100
AcDbLine
 10
1206.248127236554
 20
-3097.202984114669
 30
0.0
 11
1206.248127236551
 21
-3178.202984114663
 31
0.0
  0
LINE
  5
29D
330
1F
100
AcDbEntity
  8
0-E
  6
Continuous
 62
     7
370
     9
100
AcDbLine
 10
705.2481272365804
 20
-3090.430906176025
 30
0.0
 11
705.2481272365804
 21
-3148.202984114667
 31
0.0
  0
LINE
  5
29E
330
1F
100
AcDbEntity
  8
0-E
  6
Continuous
 62
     7
370
     9
100
AcDbLine
 10
659.8841662059073
 20
-3114.066945145353
 30
0.0
 11
689.8841662058966
 21
-3084.066945145353
 31
0.0
  0
LINE
  5
29F
330
1F
100
AcDbEntity
  8
0-E
  6
Continuous
 62
     7
370
     9
100
AcDbLine
 10
657.2481272365861
 20
-3178.202984114663
 30
0.0
 11
657.2481272365861
 21
-3120.430906176031
 31
0.0
  0
LINE
  5
2A0
330
1F
100
AcDbEntity
  8
0-E
  6
Continuous
 62
     7
370
     9
100
AcDbLine
 10
624.248127236582
 20
-3178.202984114663
 30
0.0
 11
657.2481272365861
 21
-3178.202984114663
 31
0.0
  0
LINE
  5
2A1
330
1F
100
AcDbEntity
  8
0-E
  6
Continuous
 62
     7
370
     9
100
AcDbLine
 10
624.248127236582
 20
-3178.202984114663
 30
0.0
 11
624.248127236582
 21
-3100.202984114672
 31
0.0
  0
LINE
  5
2A2
330
1F
100
AcDbEntity
  8
0-E
  6
Continuous
 62
     7
370
     9
100
AcDbLine
 10
507.2481272365861
 20
-3097.202984114669
 30
0.0
 11
621.2481272365848
 21
-3097.202984114669
 31
0.0
  0
LINE
  5
2A3
330
1F
100
AcDbEntity
  8
0-E
  6
Continuous
 62
     7
370
     9
100
AcDbLine
 10
504.2481272365859
 20
-3178.202984114663
 30
0.0
 11
504.2481272365859
 21
-3100.202984114672
 31
0.0
  0
LINE
  5
2A4
330
1F
100
AcDbEntity
  8
0-E
  6
Continuous
 62
     7
370
     9
100
AcDbLine
 10
471.2481272365818
 20
-3178.202984114663
 30
0.0
 11
504.2481272365859
 21
-3178.202984114663
 31
0.0
  0
LINE
  5
2A5
330
1F
100
AcDbEntity
  8
0-E
  6
Continuous
 62
     7
370
     9
100
AcDbLine
 10
471.2481272365818
 20
-3178.202984114663
 30
0.0
 11
471.2481272365818
 21
-3116.702984114674
 31
0.0
  0
LINE
  5
2A6
330
1F
100
AcDbEntity
  8
0-E
  6
Continuous
 62
     7
370
     9
100
AcDbLine
 10
471.2481272365818
 20
-3116.702984114674
 30
0.0
 11
439.8547289543684
 21
-3085.309585832465
 31
0.0
  0
LINE
  5
2A7
330
1F
100
AcDbEntity
  8
0-E
  6
Continuous
 62
     7
370
     9
100
AcDbLine
 10
414.2481272365859
 20
-3178.202984114663
 30
0.0
 11
414.2481272365791
 21
-3095.916187550265
 31
0.0
  0
LINE
  5
2A8
330
1F
100
AcDbEntity
  8
0-E
  6
Continuous
 62
     7
370
     9
100
AcDbLine
 10
384.2481272365816
 20
-3178.202984114663
 30
0.0
 11
414.2481272365859
 21
-3178.202984114663
 31
0.0
  0
LINE
  5
2A9
330
1F
100
AcDbEntity
  8
0-E
  6
Continuous
 62
     7
370
     9
100
AcDbLine
 10
384.2481272365816
 20
-3178.202984114663
 30
0.0
 11
384.2481272365791
 21
-3097.202984114665
 31
0.0
  0
LINE
  5
2AA
330
1F
100
AcDbEntity
  8
0-E
  6
Continuous
 62
     7
370
     9
100
AcDbLine
 10
735.2481272365834
 20
-3178.202984114663
 30
0.0
 11
1206.248127236551
 21
-3178.202984114663
 31
0.0
  0
LINE
  5
2AB
330
1F
100
AcDbEntity
  8
0-E
  6
Continuous
 62
     7
370
     9
100
AcDbLine
 10
762.2481272365793
 20
-3037.202984114662
 30
0.0
 11
573.2481272365845
 21
-3037.202984114662
 31
0.0
  0
ARC
  5
2AC
330
1F
100
AcDbEntity
  8
0-E
  6
Continuous
 62
     7
370
     9
100
AcDbCircle
 10
762.2481272365793
 20
-3046.20298411466
 30
0.0
 40
9.000000000002899
100
AcDbArc
 50
359.9999999999784
 51
90.00000000000004
  0
ARC
  5
2AD
330
1F
100
AcDbEntity
  8
0-E
  6
Continuous
 62
     7
370
     9
100
AcDbCircle
 10
765.2481272365766
 20
-3061.20298411466
 30
0.0
 40
6.000000000001368
100
AcDbArc
 50
270.0
 51
359.9999999999674
  0
ARC
  5
2AE
330
1F
100
AcDbEntity
  8
0-E
  6
Continuous
 62
     7
370
     9
100
AcDbCircle
 10
747.2481272365793
 20
-3076.20298411466
 30
0.0
 40
8.999999999998636
100
AcDbArc
 50
90.0
 51
180.0
  0
ARC
  5
2AF
330
1F
100
AcDbEntity
  8
0-E
  6
Continuous
 62
     7
370
     9
100
AcDbCircle
 10
753.2481272365807
 20
-3136.202984114664
 30
0.0
 40
15.0
100
AcDbArc
 50
180.0
 51
270.0
  0
ARC
  5
2B0
330
1F
100
AcDbEntity
  8
0-E
  6
Continuous
 62
     7
370
     9
100
AcDbCircle
 10
1155.24812723655
 20
-3136.202984114664
 30
0.0
 40
15.0
100
AcDbArc
 50
270.0
 51
0.0
  0
ARC
  5
2B1
330
1F
100
AcDbEntity
  8
0-E
  6
Continuous
 62
     7
370
     9
100
AcDbCircle
 10
1161.248127236554
 20
-3076.20298411466
 30
0.0
 40
9.000000000000343
100
AcDbArc
 50
0.0
 51
90.0
  0
ARC
  5
2B2
330
1F
100
AcDbEntity
  8
0-E
  6
Continuous
 62
     7
370
     9
100
AcDbCircle
 10
1143.248127236578
 20
-3061.20298411466
 30
0.0
 40
5.99999999999966
100
AcDbArc
 50
179.9999999999674
 51
270.0
  0
ARC
  5
2B3
330
1F
100
AcDbEntity
  8
0-E
  6
Continuous
 62
     7
370
     9
100
AcDbCircle
 10
1146.248127236582
 20
-3046.202984114657
 30
0.0
 40
8.999999999998636
100
AcDbArc
 50
89.99999999996201
 51
180.0
  0
ARC
  5
2B4
330
1F
100
AcDbEntity
  8
0-E
  6
Continuous
 62
     7
370
     9
100
AcDbCircle
 10
1146.248127236551
 20
-3097.202984114665
 30
0.0
 40
60.0
100
AcDbArc
 50
359.9999999999968
 51
89.9999999999682
  0
ARC
  5
2B5
330
1F
100
AcDbEntity
  8
0-E
  6
Continuous
 62
     7
370
     9
100
AcDbCircle
 10
735.2481272365834
 20
-3148.202984114667
 30
0.0
 40
30.0
100
AcDbArc
 50
180.0
 51
270.0
  0
ARC
  5
2B6
330
1F
100
AcDbEntity
  8
0-E
  6
Continuous
 62
     7
370
     9
100
AcDbCircle
 10
696.2481272365818
 20
-3090.430906176022
 30
0.0
 40
9.000000000000343
100
AcDbArc
 50
359.9999999999784
 51
135.0000000000384
  0
ARC
  5
2B7
330
1F
100
AcDbEntity
  8
0-E
  6
Continuous
 62
     7
370
     9
100
AcDbCircle
 10
666.2481272365886
 20
-3120.430906176029
 30
0.0
 40
8.999999999998023
100
AcDbArc
 50
135.0000000000057
 51
180.0000000000034
  0
ARC
  5
2B8
330
1F
100
AcDbEntity
  8
0-E
  6
Continuous
 62
     7
370
     9
100
AcDbCircle
 10
621.2481272365848
 20
-3100.202984114672
 30
0.0
 40
2.99999999999983
100
AcDbArc
 50
0.0
 51
90.0
  0
ARC
  5
2B9
330
1F
100
AcDbEntity
  8
0-E
  6
Continuous
 62
     7
370
     9
100
AcDbCircle
 10
507.2481272365861
 20
-3100.202984114672
 30
0.0
 40
3.000000000000682
100
AcDbArc
 50
90.0
 51
180.0
  0
ARC
  5
2BA
330
1F
100
AcDbEntity
  8
0-E
  6
Continuous
 62
     7
370
     9
100
AcDbCircle
 10
429.2481272365791
 20
-3095.916187550259
 30
0.0
 40
14.99999999999289
100
AcDbArc
 50
45.0
 51
180.0000000000261
  0
ARC
  5
2BB
330
1F
100
AcDbEntity
  8
0-E
  6
Continuous
 62
     7
370
     9
100
AcDbCircle
 10
444.2481272365791
 20
-3097.202984114665
 30
0.0
 40
60.0
100
AcDbArc
 50
90.0
 51
180.0
  0
LINE
  5
2BC
330
1F
100
AcDbEntity
  8
0-E
  6
Continuous
 62
   120
370
     5
100
AcDbLine
 10
384.2481272365816
 20
-2841.704787364456
 30
0.0
 11
1206.248127236551
 21
-2841.704787364456
 31
0.0
  0
LWPOLYLINE
  5
2BD
330
1F
100
AcDbEntity
  8
0-E
  6
Continuous
 62
     7
370
     9
100
AcDbPolyline
 90
        4
 70
     1
 43
3.0
 10
385.7481272365816
 20
-2841.704787364456
 42
0.4142135623731
 10
384.2481272365816
 20
-2840.204787364456
 42
0.4142135623731
 10
382.7481272365816
 20
-2841.704787364456
 42
0.4142135623731
 10
384.2481272365816
 20
-2843.204787364456
 42
0.4142135623731
  0
LWPOLYLINE
  5
2BE
330
1F
100
AcDbEntity
  8
0-E
  6
Continuous
 62
     7
370
     9
100
AcDbPolyline
 90
        4
 70
     1
 43
3.0
 10
1207.748127236551
 20
-2841.704787364456
 42
0.4142135623731
 10
1206.248127236551
 20
-2840.204787364456
 42
0.4142135623731
 10
1204.748127236551
 20
-2841.704787364456
 42
0.4142135623731
 10
1206.248127236551
 20
-2843.204787364456
 42
0.4142135623731
  0
LINE
  5
2BF
330
1F
100
AcDbEntity
  8
0-E
  6
Continuous
 62
   120
370
     5
100
AcDbLine
 10
384.2481272365816
 20
-2841.704787364456
 30
0.0
 11
384.2481272365816
 21
-2974.028001106376
 31
0.0
  0
LINE
  5
2C0
330
1F
100
AcDbEntity
  8
0-E
  6
Continuous
 62
   120
370
     5
100
AcDbLine
 10
1206.248127236551
 20
-2841.704787364456
 30
0.0
 11
1206.248127236551
 21
-2974.028001106376
 31
0.0
  0
MTEXT
  5
2C1
330
1F
100
AcDbEntity
  8
0-E
  6
Continuous
 62
     7
370
   211
100
AcDbMText
 10
675.2481272365668
 20
-2840.984787364453
 30
0.0
 40
91.43999999999967
 41
239.9999999999991
 46
0.0
 71
     7
 72
     1
  1
{\fＭＳ ゴシック|b0|i0|c128|p49;27.4}
 73
     1
 44
1.0
  0
LINE
  5
2C2
330
1F
100
AcDbEntity
  8
0-E
  6
Continuous
 62
   120
370
     5
100
AcDbLine
 10
196.5992264834509
 20
-3037.202984114665
 30
0.0
 11
196.5992264834509
 21
-3178.202984114663
 31
0.0
  0
LWPOLYLINE
  5
2C3
330
1F
100
AcDbEntity
  8
0-E
  6
Continuous
 62
     7
370
     9
100
AcDbPolyline
 90
        4
 70
     1
 43
3.0
 10
198.0992264834509
 20
-3037.202984114665
 42
0.4142135623731
 10
196.5992264834509
 20
-3035.702984114665
 42
0.4142135623731
 10
195.0992264834509
 20
-3037.202984114665
 42
0.4142135623731
 10
196.5992264834509
 20
-3038.702984114665
 42
0.4142135623731
  0
LWPOLYLINE
  5
2C4
330
1F
100
AcDbEntity
  8
0-E
  6
Continuous
 62
     7
370
     9
100
AcDbPolyline
 90
        4
 70
     1
 43
3.0
 10
198.0992264834509
 20
-3178.202984114663
 42
0.4142135623731
 10
196.5992264834509
 20
-3176.702984114663
 42
0.4142135623731
 10
195.0992264834509
 20
-3178.202984114663
 42
0.4142135623731
 10
196.5992264834509
 20
-3179.702984114663
 42
0.4142135623731
  0
LINE
  5
2C5
330
1F
100
AcDbEntity
  8
0-E
  6
Continuous
 62
   120
370
     5
100
AcDbLine
 10
196.5992264834509
 20
-3037.202984114665
 30
0.0
 11
324.3595707859942
 21
-3037.202984114665
 31
0.0
  0
LINE
  5
2C6
330
1F
100
AcDbEntity
  8
0-E
  6
Continuous
 62
   120
370
     5
100
AcDbLine
 10
196.5992264834509
 20
-3178.202984114663
 30
0.0
 11
324.3595707859942
 21
-3178.202984114663
 31
0.0
  0
MTEXT
  5
2C7
330
1F
100
AcDbEntity
  8
0-E
  6
Continuous
 62
     7
370
   211
100
AcDbMText
 10
181.5992264834517
 20
-3161.449551623837
 30
0.0
 40
91.44000000000129
 41
60.00000000000085
 46
0.0
 71
     7
 72
     1
  1
{\fＭＳ ゴシック|b0|i0|c128|p49;5}
 11
6.123031769111886E-17
 21
1.0
 31
0.0
 73
     1
 44
1.0
  0
MTEXT
  5
2C8
330
1F
100
AcDbEntity
  8
0-E
  6
Continuous
 62
     7
370
     0
100
AcDbMText
 10
130.0330121153883
 20
-2545.854625554724
 30
0.0
 40
91.43999999999997
 41
1200.0
 46
0.0
 71
     7
 72
     1
  1
{\fＭＳ ゴシック|b0|i0|c128|p49;下枠詳細図（S＝1/1）}
 73
     1
 44
1.0
  0
LINE
  5
2C9
330
1F
100
AcDbEntity
  8
0-E
  6
Continuous
 62
    92
370
    13
100
AcDbLine
 10
-266.0812774414234
 20
-351.829897062243
 30
0.0
 11
-266.0812774414234
 21
-3450.927341891148
 31
0.0
  0
LINE
  5
2CA
330
1F
100
AcDbEntity
  8
0-E
  6
Continuous
 62
    92
370
    13
100
AcDbLine
 10
-266.0812774414234
 20
-3450.927341891148
 30
0.0
 11
4359.588084229161
 21
-3450.927341891148
 31
0.0
  0
LINE
  5
2CB
330
1F
100
AcDbEntity
  8
0-E
  6
Continuous
 62
    92
370
    13
100
AcDbLine
 10
4359.588084229161
 20
-351.829897062243
 30
0.0
 11
4359.588084229161
 21
-3450.927341891148
 31
0.0
  0
LWPOLYLINE
  5
2CC
330
1F
100
AcDbEntity
  8
0-E
  6
Continuous
 62
     7
370
     9
100
AcDbPolyline
 90
        4
 70
     1
 43
3.0
 10
1089.068847763317
 20
-843.9498357858877
 42
0.4142135623731
 10
1087.568847763317
 20
-842.4498357858877
 42
0.4142135623731
 10
1086.068847763317
 20
-843.9498357858877
 42
0.4142135623731
 10
1087.568847763317
 20
-845.4498357858877
 42
0.4142135623731
  0
LINE
  5
2CD
330
1F
100
AcDbEntity
  8
0-E
  6
JWW_HOJO
 62
   120
370
     5
100
AcDbLine
 10
282.5685013475572
 20
-987.4918855858884
 30
0.0
 11
1135.521036969275
 21
-987.4918855858884
 31
0.0
  0
LINE
  5
2CE
330
1F
100
AcDbEntity
  8
0-E
  6
JWW_HOJO
 62
   120
370
     5
100
AcDbLine
 10
282.5685013475572
 20
-1037.491885585887
 30
0.0
 11
1135.521036969275
 21
-1037.491885585887
 31
0.0
  0
LINE
  5
2CF
330
1F
100
AcDbEntity
  8
0-E
  6
Continuous
 62
   120
370
     5
100
AcDbLine
 10
317.5688477633162
 20
-843.9498357858877
 30
0.0
 11
1087.568847763317
 21
-843.9498357858877
 31
0.0
  0
LINE
  5
2D0
330
1F
100
AcDbEntity
  8
0-E
  6
Continuous
 62
   120
370
     5
100
AcDbLine
 10
1087.568847763317
 20
-843.9498357858877
 30
0.0
 11
1087.568847763317
 21
-987.4918855858884
 31
0.0
  0
LINE
  5
2D1
330
1F
100
AcDbEntity
  8
0-E
  6
Continuous
 62
    92
370
    13
100
AcDbLine
 10
1087.568847763317
 20
-1037.491885585887
 30
0.0
 11
1087.568847763317
 21
-1912.783091134715
 31
0.0
  0
LINE
  5
2D2
330
1F
100
AcDbEntity
  8
0-E
  6
Continuous
 62
    92
370
    13
100
AcDbLine
 10
317.5688477633162
 20
-1912.783091134715
 30
0.0
 11
1087.568847763317
 21
-1912.783091134715
 31
0.0
  0
MTEXT
  5
2D3
330
1F
100
AcDbEntity
  8
0-E
  6
Continuous
 62
     7
370
   211
100
AcDbMText
 10
650.5139718084216
 20
-843.2298357858872
 30
0.0
 40
91.43999999999967
 41
119.9999999999996
 46
0.0
 71
     7
 72
     1
  1
{\fＭＳ ゴシック|b0|i0|c128|p49;77}
 73
     1
 44
1.0
  0
LINE
  5
2D4
330
1F
100
AcDbEntity
  8
0-E
  6
Continuous
 62
     7
370
     9
100
AcDbLine
 10
2977.06141159448
 20
-2583.485558115153
 30
0.0
 11
2977.06141159448
 21
-2590.985558115153
 31
0.0
  0
LINE
  5
2D5
330
1F
100
AcDbEntity
  8
0-E
  6
Continuous
 62
     7
370
     9
100
AcDbLine
 10
2859.311411594481
 20
-2540.871835684214
 30
0.0
 11
2911.811411594485
 21
-2540.871835684214
 31
0.0
  0
LINE
  5
2D6
330
1F
100
AcDbEntity
  8
0-E
  6
Continuous
 62
     7
370
     9
100
AcDbLine
 10
2961.311411594485
 20
-2582.123254392902
 30
0.0
 11
2961.311411594485
 21
-2599.371835684208
 31
0.0
  0
LINE
  5
2D7
330
1F
100
AcDbEntity
  8
0-E
  6
Continuous
 62
     7
370
     9
100
AcDbLine
 10
2964.311411594485
 20
-2602.371835684209
 30
0.0
 11
2972.561411594479
 21
-2602.371835684209
 31
0.0
  0
LINE
  5
2D8
330
1F
100
AcDbEntity
  8
0-E
  6
Continuous
 62
     7
370
     9
100
AcDbLine
 10
2972.561411594479
 20
-2602.371835684209
 30
0.0
 11
2972.561411594479
 21
-2612.871835684209
 31
0.0
  0
LINE
  5
2D9
330
1F
100
AcDbEntity
  8
0-E
  6
Continuous
 62
     7
370
     9
100
AcDbLine
 10
2961.311411594485
 20
-2599.371835684208
 30
0.0
 11
2961.311411594485
 21
-2602.371835684209
 31
0.0
  0
LINE
  5
2DA
330
1F
100
AcDbEntity
  8
0-E
  6
Continuous
 62
     7
370
     9
100
AcDbLine
 10
2961.311411594485
 20
-2602.371835684209
 30
0.0
 11
2964.311411594485
 21
-2602.371835684209
 31
0.0
  0
LINE
  5
2DB
330
1F
100
AcDbEntity
  8
0-E
  6
Continuous
 62
     7
370
     9
100
AcDbLine
 10
2930.561411594479
 20
-2552.871835684214
 30
0.0
 11
2930.561411594479
 21
-2560.371835684213
 31
0.0
  0
LINE
  5
2DC
330
1F
100
AcDbEntity
  8
0-E
  6
Continuous
 62
     7
370
     9
100
AcDbLine
 10
2930.561411594479
 20
-2552.871835684214
 30
0.0
 11
2923.061411594481
 21
-2545.371835684214
 31
0.0
  0
LINE
  5
2DD
330
1F
100
AcDbEntity
  8
0-E
  6
Continuous
 62
     7
370
     9
100
AcDbLine
 10
2848.061411594481
 20
-2545.371835684214
 30
0.0
 11
2840.561411594481
 21
-2552.871835684214
 31
0.0
  0
LINE
  5
2DE
330
1F
100
AcDbEntity
  8
0-E
  6
Continuous
 62
     7
370
     9
100
AcDbLine
 10
2840.561411594482
 20
-2560.371835684213
 30
0.0
 11
2840.561411594481
 21
-2552.871835684214
 31
0.0
  0
LINE
  5
2DF
330
1F
100
AcDbEntity
  8
0-E
  6
Continuous
 62
     7
370
     9
100
AcDbLine
 10
2806.811411594475
 20
-2602.371835684209
 30
0.0
 11
2809.811411594476
 21
-2602.371835684209
 31
0.0
  0
LINE
  5
2E0
330
1F
100
AcDbEntity
  8
0-E
  6
Continuous
 62
     7
370
     9
100
AcDbLine
 10
2809.811411594476
 20
-2602.371835684209
 30
0.0
 11
2809.811411594476
 21
-2599.371835684208
 31
0.0
  0
LINE
  5
2E1
330
1F
100
AcDbEntity
  8
0-E
  6
Continuous
 62
     7
370
     9
100
AcDbLine
 10
2798.56141159448
 20
-2612.871835684209
 30
0.0
 11
2798.56141159448
 21
-2602.371835684209
 31
0.0
  0
LINE
  5
2E2
330
1F
100
AcDbEntity
  8
0-E
  6
Continuous
 62
     7
370
     9
100
AcDbLine
 10
2798.56141159448
 20
-2602.371835684209
 30
0.0
 11
2806.811411594475
 21
-2602.371835684209
 31
0.0
  0
LINE
  5
2E3
330
1F
100
AcDbEntity
  8
0-E
  6
Continuous
 62
     7
370
     9
100
AcDbLine
 10
2809.811411594476
 20
-2599.371835684208
 30
0.0
 11
2809.811411594476
 21
-2582.123254392902
 31
0.0
  0
ARC
  5
2E4
330
1F
100
AcDbEntity
  8
0-E
  6
Continuous
 62
     7
370
     9
100
AcDbCircle
 10
2960.561411594481
 20
-2612.871835684209
 30
0.0
 40
12.00000000000012
100
AcDbArc
 50
270.0
 51
0.0
  0
ARC
  5
2E5
330
1F
100
AcDbEntity
  8
0-E
  6
Continuous
 62
     7
370
     9
100
AcDbCircle
 10
2810.561411594482
 20
-2612.871835684209
 30
0.0
 40
12.00000000000017
100
AcDbArc
 50
180.0
 51
270.0
  0
LINE
  5
2E6
330
1F
100
AcDbEntity
  8
0-E
  6
Continuous
 62
     7
370
     9
100
AcDbLine
 10
2840.561411594482
 20
-2537.565704795932
 30
0.0
 11
2930.561411594479
 21
-2537.565704795931
 31
0.0
  0
LINE
  5
2E7
330
1F
100
AcDbEntity
  8
0-E
  6
Continuous
 62
     7
370
     9
100
AcDbLine
 10
2859.311411594481
 20
-2540.871835684214
 30
0.0
 11
2840.561411594482
 21
-2537.565704795932
 31
0.0
  0
LINE
  5
2E8
330
1F
100
AcDbEntity
  8
0-E
  6
Continuous
 62
     7
370
     9
100
AcDbLine
 10
2911.811411594485
 20
-2540.871835684214
 30
0.0
 11
2930.561411594479
 21
-2537.565704795931
 31
0.0
  0
LINE
  5
2E9
330
1F
100
AcDbEntity
  8
0-E
  6
Continuous
 62
     7
370
     9
100
AcDbLine
 10
2859.311411594481
 20
-2540.871835684214
 30
0.0
 11
2859.311411594481
 21
-2545.371835684214
 31
0.0
  0
LINE
  5
2EA
330
1F
100
AcDbEntity
  8
0-E
  6
Continuous
 62
     7
370
     9
100
AcDbLine
 10
2911.811411594485
 20
-2540.871835684214
 30
0.0
 11
2911.811411594485
 21
-2545.371835684214
 31
0.0
  0
LINE
  5
2EB
330
1F
100
AcDbEntity
  8
0-E
  6
Continuous
 62
     7
370
     9
100
AcDbLine
 10
2848.061411594481
 20
-2545.371835684214
 30
0.0
 11
2923.061411594481
 21
-2545.371835684214
 31
0.0
  0
LINE
  5
2EC
330
1F
100
AcDbEntity
  8
0-E
  6
Continuous
 62
     7
370
     9
100
AcDbLine
 10
2930.561411594479
 20
-2552.871835684214
 30
0.0
 11
2840.561411594481
 21
-2552.871835684207
 31
0.0
  0
LINE
  5
2ED
330
1F
100
AcDbEntity
  8
0-E
  6
Continuous
 62
     7
370
     9
100
AcDbLine
 10
2807.878784752224
 20
-2581.817156372135
 30
0.0
 11
2809.811411594476
 21
-2582.123254392902
 31
0.0
  0
LINE
  5
2EE
330
1F
100
AcDbEntity
  8
0-E
  6
Continuous
 62
     7
370
     9
100
AcDbLine
 10
2809.811411594476
 20
-2602.371835684209
 30
0.0
 11
2961.311411594485
 21
-2602.371835684209
 31
0.0
  0
LINE
  5
2EF
330
1F
100
AcDbEntity
  8
0-E
  6
Continuous
 62
     7
370
     9
100
AcDbLine
 10
2810.561411594482
 20
-2624.87183568421
 30
0.0
 11
2960.561411594481
 21
-2624.87183568421
 31
0.0
  0
LINE
  5
2F0
330
1F
100
AcDbEntity
  8
0-E
  6
Continuous
 62
     7
370
     9
100
AcDbLine
 10
2809.811411594476
 20
-2582.280653810519
 30
0.0
 11
2961.311411594485
 21
-2582.280653810519
 31
0.0
  0
LINE
  5
2F1
330
1F
100
AcDbEntity
  8
0-E
  6
Continuous
 62
     7
370
     9
100
AcDbLine
 10
2840.561411594509
 20
-2476.985558115155
 30
0.0
 11
2840.561411594482
 21
-2537.565704795932
 31
0.0
  0
LINE
  5
2F2
330
1F
100
AcDbEntity
  8
0-E
  6
Continuous
 62
     7
370
     9
100
AcDbLine
 10
2930.561411594479
 20
-2537.565704795931
 30
0.0
 11
2930.561411594509
 21
-2476.985558115155
 31
0.0
  0
LINE
  5
2F3
330
1F
100
AcDbEntity
  8
0-E
  6
Continuous
 62
     7
370
     9
100
AcDbLine
 10
2961.311411594485
 20
-2582.123254392902
 30
0.0
 11
2984.996937148637
 21
-2578.371835684214
 31
0.0
  0
LINE
  5
2F4
330
1F
100
AcDbEntity
  8
0-E
  6
Continuous
 62
     7
370
     9
100
AcDbLine
 10
2984.996937148637
 20
-2578.371835684214
 30
0.0
 11
2998.061411594479
 21
-2578.371835684214
 31
0.0
  0
LINE
  5
2F5
330
1F
100
AcDbEntity
  8
0-E
  6
Continuous
 62
     7
370
     9
100
AcDbLine
 10
2998.061411594481
 20
-2567.871835684214
 30
0.0
 11
2998.061411594479
 21
-2578.371835684214
 31
0.0
  0
ARC
  5
2F6
330
1F
100
AcDbEntity
  8
0-E
  6
Continuous
 62
     7
370
     9
100
AcDbCircle
 10
2990.561411594479
 20
-2567.871835684214
 30
0.0
 40
7.500000000001705
100
AcDbArc
 50
0.0
 51
90.0
  0
LINE
  5
2F7
330
1F
100
AcDbEntity
  8
0-E
  6
Continuous
 62
     7
370
     9
100
AcDbLine
 10
2930.561411594479
 20
-2560.371835684213
 30
0.0
 11
2990.561411594479
 21
-2560.371835684213
 31
0.0
  0
LINE
  5
2F8
330
1F
100
AcDbEntity
  8
0-E
  6
Continuous
 62
     7
370
     9
100
AcDbLine
 10
2780.561411594482
 20
-2560.371835684213
 30
0.0
 11
2930.561411594479
 21
-2560.371835684213
 31
0.0
  0
LINE
  5
2F9
330
1F
100
AcDbEntity
  8
0-E
  6
Continuous
 62
     7
370
     9
100
AcDbLine
 10
2786.125886040322
 20
-2578.371835684214
 30
0.0
 11
2807.878784752224
 21
-2581.817156372135
 31
0.0
  0
LINE
  5
2FA
330
1F
100
AcDbEntity
  8
0-E
  6
Continuous
 62
     7
370
     9
100
AcDbLine
 10
2773.061411594482
 20
-2578.371835684214
 30
0.0
 11
2786.125886040322
 21
-2578.371835684214
 31
0.0
  0
LINE
  5
2FB
330
1F
100
AcDbEntity
  8
0-E
  6
Continuous
 62
     7
370
     9
100
AcDbLine
 10
2773.061411594482
 20
-2578.371835684214
 30
0.0
 11
2773.061411594482
 21
-2567.871835684214
 31
0.0
  0
ARC
  5
2FC
330
1F
100
AcDbEntity
  8
0-E
  6
Continuous
 62
     7
370
     9
100
AcDbCircle
 10
2780.561411594482
 20
-2567.871835684214
 30
0.0
 40
7.5
100
AcDbArc
 50
90.0
 51
180.0
  0
LINE
  5
2FD
330
1F
100
AcDbEntity
  8
0-E
  6
Continuous
 62
    92
370
    13
100
AcDbLine
 10
1719.588084229156
 20
-567.829897062244
 30
0.0
 11
4359.588084229161
 21
-567.829897062244
 31
0.0
  0
MTEXT
  5
2FE
330
1F
100
AcDbEntity
  8
0-E
  6
Continuous
 62
     7
370
     9
100
AcDbMText
 10
2019.588084229159
 20
-532.0003508310572
 30
0.0
 40
91.44000000000001
 41
2100.0
 46
0.0
 71
     7
 72
     1
  1
{\fＭＳ ゴシック|b0|i0|c128|p49;床直付レール取り付け位置（Ｓ＝1/2）}
 73
     1
 44
1.0
  0
LINE
  5
2FF
330
1F
100
AcDbEntity
  8
0-4_枠
  6
Continuous
 62
    92
370
    13
100
AcDbLine
 10
-2165.081701551574
 20
-381.8298970622426
 30
0.0
 11
-2165.081701551574
 21
-1881.830386786969
 31
0.0
  0
LINE
  5
300
330
1F
100
AcDbEntity
  8
0-4_枠
  6
Continuous
 62
    92
370
    13
100
AcDbLine
 10
-2165.081701551574
 20
-2001.830386786969
 30
0.0
 11
-2165.081701551574
 21
-3309.83067629156
 31
0.0
  0
LINE
  5
301
330
1F
100
AcDbEntity
  8
0-4_枠
  6
Continuous
 62
    92
370
    13
100
AcDbLine
 10
-1703.081701551573
 20
-3309.83067629156
 30
0.0
 11
-1703.081701551573
 21
-2001.830386786969
 31
0.0
  0
LINE
  5
302
330
1F
100
AcDbEntity
  8
0-4_枠
  6
Continuous
 62
    92
370
    13
100
AcDbLine
 10
-1703.081701551573
 20
-1881.830386786969
 30
0.0
 11
-1703.081701551573
 21
-537.8298970622418
 31
0.0
  0
LINE
  5
303
330
1F
100
AcDbEntity
  8
1-E
  6
Continuous
 62
    40
370
    15
100
AcDbLine
 10
4082.08808422916
 20
-2649.485558115155
 30
0.0
 11
1997.088084229156
 21
-2649.485558115155
 31
0.0
  0
LINE
  5
304
330
1F
100
AcDbEntity
  8
1-E
  6
Continuous
 62
    40
370
    15
100
AcDbLine
 10
1997.088084229156
 20
-2829.485502441199
 30
0.0
 11
4082.08808422916
 21
-2829.485502441199
 31
0.0
  0
LINE
  5
305
330
1F
100
AcDbEntity
  8
1-E
  6
Continuous
 62
     7
370
     9
100
AcDbLine
 10
1997.088084229156
 20
-2769.485211699402
 30
0.0
 11
4082.08808422916
 21
-2769.485211699402
 31
0.0
  0
LINE
  5
306
330
1F
100
AcDbEntity
  8
1-E
  6
Continuous
 62
     7
370
     9
100
AcDbLine
 10
1997.088084229156
 20
-2739.485298303339
 30
0.0
 11
4082.08808422916
 21
-2739.485298303339
 31
0.0
  0
LINE
  5
307
330
1F
100
AcDbEntity
  8
1-E
  6
Continuous
 62
     7
370
     9
100
AcDbLine
 10
1997.088084229156
 20
-2799.48558904514
 30
0.0
 11
4082.08808422916
 21
-2799.48558904514
 31
0.0
  0
LINE
  5
308
330
1F
100
AcDbEntity
  8
1-E
  6
Continuous
 62
     7
370
     9
100
AcDbLine
 10
1997.088084229156
 20
-2709.48538490728
 30
0.0
 11
4082.08808422916
 21
-2709.48538490728
 31
0.0
  0
LINE
  5
309
330
1F
100
AcDbEntity
  8
1-E
  6
Continuous
 62
     7
370
     9
100
AcDbLine
 10
1997.088084229156
 20
-2679.485007561547
 30
0.0
 11
4082.08808422916
 21
-2679.485007561547
 31
0.0
  0
LINE
  5
30A
330
1F
100
AcDbEntity
  8
1-E
  6
Continuous
 62
     7
370
     9
100
AcDbLine
 10
2630.56141159448
 20
-2578.985558115156
 30
0.0
 11
2686.061411594483
 21
-2578.985558115156
 31
0.0
  0
LINE
  5
30B
330
1F
100
AcDbEntity
  8
1-E
  6
Continuous
 62
     7
370
     9
100
AcDbLine
 10
2690.561411594482
 20
-2583.485558115156
 30
0.0
 11
2686.061411594483
 21
-2578.985558115156
 31
0.0
  0
LINE
  5
30C
330
1F
100
AcDbEntity
  8
1-E
  6
Continuous
 62
     7
370
     9
100
AcDbLine
 10
2690.561411594482
 20
-2583.485558115156
 30
0.0
 11
2695.061411594483
 21
-2578.985558115156
 31
0.0
  0
ARC
  5
30D
330
1F
100
AcDbEntity
  8
1-E
  6
Continuous
 62
     7
370
     9
100
AcDbCircle
 10
2789.561411594481
 20
-2583.485558115154
 30
0.0
 40
4.500000000001449
100
AcDbArc
 50
359.9999999999784
 51
90.00000000000004
  0
LINE
  5
30E
330
1F
100
AcDbEntity
  8
1-E
  6
Continuous
 62
     7
370
     9
100
AcDbLine
 10
2794.061411594482
 20
-2583.485558115156
 30
0.0
 11
2794.061411594482
 21
-2590.985558115156
 31
0.0
  0
ARC
  5
30F
330
1F
100
AcDbEntity
  8
1-E
  6
Continuous
 62
     7
370
     9
100
AcDbCircle
 10
2791.061411594479
 20
-2590.985558115154
 30
0.0
 40
3.000000000000683
100
AcDbArc
 50
270.0
 51
359.9999999999674
  0
LINE
  5
310
330
1F
100
AcDbEntity
  8
1-E
  6
Continuous
 62
     7
370
     9
100
AcDbLine
 10
2791.061411594479
 20
-2593.985558115155
 30
0.0
 11
2782.061411594481
 21
-2593.985558115155
 31
0.0
  0
ARC
  5
311
330
1F
100
AcDbEntity
  8
1-E
  6
Continuous
 62
     7
370
     9
100
AcDbCircle
 10
2782.061411594481
 20
-2598.485558115154
 30
0.0
 40
4.499999999999318
100
AcDbArc
 50
90.0
 51
180.0
  0
LINE
  5
312
330
1F
100
AcDbEntity
  8
1-E
  6
Continuous
 62
     7
370
     9
100
AcDbLine
 10
2777.56141159448
 20
-2598.485558115154
 30
0.0
 11
2777.56141159448
 21
-2628.485558115156
 31
0.0
  0
ARC
  5
313
330
1F
100
AcDbEntity
  8
1-E
  6
Continuous
 62
     7
370
     9
100
AcDbCircle
 10
2785.06141159448
 20
-2628.485558115156
 30
0.0
 40
7.5
100
AcDbArc
 50
180.0
 51
270.0
  0
LINE
  5
314
330
1F
100
AcDbEntity
  8
1-E
  6
Continuous
 62
     7
370
     9
100
AcDbLine
 10
2785.06141159448
 20
-2635.985558115156
 30
0.0
 11
2881.061411594479
 21
-2635.985558115159
 31
0.0
  0
LINE
  5
315
330
1F
100
AcDbEntity
  8
1-E
  6
Continuous
 62
     7
370
     9
100
AcDbLine
 10
2885.56141159448
 20
-2640.485558115158
 30
0.0
 11
2881.061411594479
 21
-2635.985558115159
 31
0.0
  0
LINE
  5
316
330
1F
100
AcDbEntity
  8
1-E
  6
Continuous
 62
     7
370
     9
100
AcDbLine
 10
2885.56141159448
 20
-2640.485558115158
 30
0.0
 11
2890.06141159448
 21
-2635.985558115159
 31
0.0
  0
LINE
  5
317
330
1F
100
AcDbEntity
  8
1-E
  6
Continuous
 62
     7
370
     9
100
AcDbLine
 10
2890.06141159448
 20
-2635.985558115159
 30
0.0
 11
2986.061411594465
 21
-2635.985558115156
 31
0.0
  0
ARC
  5
318
330
1F
100
AcDbEntity
  8
1-E
  6
Continuous
 62
     7
370
     9
100
AcDbCircle
 10
2986.061411594465
 20
-2628.485558115156
 30
0.0
 40
7.5
100
AcDbArc
 50
270.0
 51
0.0
  0
LINE
  5
319
330
1F
100
AcDbEntity
  8
1-E
  6
Continuous
 62
     7
370
     9
100
AcDbLine
 10
2993.561411594467
 20
-2598.485558115154
 30
0.0
 11
2993.561411594467
 21
-2628.485558115156
 31
0.0
  0
ARC
  5
31A
330
1F
100
AcDbEntity
  8
1-E
  6
Continuous
 62
     7
370
     9
100
AcDbCircle
 10
2989.061411594466
 20
-2598.485558115154
 30
0.0
 40
4.500000000000171
100
AcDbArc
 50
0.0
 51
90.0
  0
LINE
  5
31B
330
1F
100
AcDbEntity
  8
1-E
  6
Continuous
 62
     7
370
     9
100
AcDbLine
 10
2980.06141159448
 20
-2593.985558115155
 30
0.0
 11
2989.061411594466
 21
-2593.985558115155
 31
0.0
  0
ARC
  5
31C
330
1F
100
AcDbEntity
  8
1-E
  6
Continuous
 62
     7
370
     9
100
AcDbCircle
 10
2980.06141159448
 20
-2590.985558115154
 30
0.0
 40
2.99999999999983
100
AcDbArc
 50
179.9999999999674
 51
270.0
  0
LINE
  5
31D
330
1F
100
AcDbEntity
  8
1-E
  6
Continuous
 62
     7
370
     9
100
AcDbLine
 10
2977.061411594481
 20
-2583.485558115152
 30
0.0
 11
2977.061411594481
 21
-2590.985558115152
 31
0.0
  0
ARC
  5
31E
330
1F
100
AcDbEntity
  8
1-E
  6
Continuous
 62
     7
370
     9
100
AcDbCircle
 10
2981.56141159448
 20
-2583.485558115152
 30
0.0
 40
4.499999999999318
100
AcDbArc
 50
89.99999999996201
 51
180.0
  0
ARC
  5
31F
330
1F
100
AcDbEntity
  8
1-E
  6
Continuous
 62
     7
370
     9
100
AcDbCircle
 10
2981.561411594465
 20
-2608.985558115156
 30
0.0
 40
30.0
100
AcDbArc
 50
359.9999999999968
 51
89.9999999999682
  0
LINE
  5
320
330
1F
100
AcDbEntity
  8
1-E
  6
Continuous
 62
     7
370
     9
100
AcDbLine
 10
3011.561411594468
 20
-2608.985558115158
 30
0.0
 11
3011.561411594466
 21
-2649.485558115155
 31
0.0
  0
ARC
  5
321
330
1F
100
AcDbEntity
  8
1-E
  6
Continuous
 62
     7
370
     9
100
AcDbCircle
 10
2776.061411594481
 20
-2634.485558115157
 30
0.0
 40
15.0
100
AcDbArc
 50
180.0
 51
270.0
  0
LINE
  5
322
330
1F
100
AcDbEntity
  8
1-E
  6
Continuous
 62
     7
370
     9
100
AcDbLine
 10
2761.061411594481
 20
-2605.599519145836
 30
0.0
 11
2761.061411594481
 21
-2634.485558115157
 31
0.0
  0
ARC
  5
323
330
1F
100
AcDbEntity
  8
1-E
  6
Continuous
 62
     7
370
     9
100
AcDbCircle
 10
2756.56141159448
 20
-2605.599519145835
 30
0.0
 40
4.500000000000171
100
AcDbArc
 50
359.9999999999784
 51
135.0000000000384
  0
LINE
  5
324
330
1F
100
AcDbEntity
  8
1-E
  6
Continuous
 62
     7
370
     9
100
AcDbLine
 10
2738.379431079145
 20
-2617.4175386305
 30
0.0
 11
2753.379431079139
 21
-2602.4175386305
 31
0.0
  0
ARC
  5
325
330
1F
100
AcDbEntity
  8
1-E
  6
Continuous
 62
     7
370
     9
100
AcDbCircle
 10
2741.561411594484
 20
-2620.599519145838
 30
0.0
 40
4.499999999999011
100
AcDbArc
 50
135.0000000000057
 51
180.0000000000034
  0
LINE
  5
326
330
1F
100
AcDbEntity
  8
1-E
  6
Continuous
 62
     7
370
     9
100
AcDbLine
 10
2737.061411594482
 20
-2649.485558115155
 30
0.0
 11
2737.061411594482
 21
-2620.599519145839
 31
0.0
  0
LINE
  5
327
330
1F
100
AcDbEntity
  8
1-E
  6
Continuous
 62
     7
370
     9
100
AcDbLine
 10
2720.56141159448
 20
-2649.485558115155
 30
0.0
 11
2737.061411594482
 21
-2649.485558115155
 31
0.0
  0
LINE
  5
328
330
1F
100
AcDbEntity
  8
1-E
  6
Continuous
 62
     7
370
     9
100
AcDbLine
 10
2720.56141159448
 20
-2649.485558115155
 30
0.0
 11
2720.56141159448
 21
-2610.485558115159
 31
0.0
  0
ARC
  5
329
330
1F
100
AcDbEntity
  8
1-E
  6
Continuous
 62
     7
370
     9
100
AcDbCircle
 10
2719.061411594482
 20
-2610.485558115159
 30
0.0
 40
1.499999999999915
100
AcDbArc
 50
0.0
 51
90.0
  0
LINE
  5
32A
330
1F
100
AcDbEntity
  8
1-E
  6
Continuous
 62
     7
370
     9
100
AcDbLine
 10
2662.061411594482
 20
-2608.985558115158
 30
0.0
 11
2719.061411594482
 21
-2608.985558115158
 31
0.0
  0
ARC
  5
32B
330
1F
100
AcDbEntity
  8
1-E
  6
Continuous
 62
     7
370
     9
100
AcDbCircle
 10
2662.061411594482
 20
-2610.485558115159
 30
0.0
 40
1.500000000000341
100
AcDbArc
 50
90.0
 51
180.0
  0
LINE
  5
32C
330
1F
100
AcDbEntity
  8
1-E
  6
Continuous
 62
     7
370
     9
100
AcDbLine
 10
2660.561411594482
 20
-2649.485558115155
 30
0.0
 11
2660.561411594482
 21
-2610.485558115159
 31
0.0
  0
LINE
  5
32D
330
1F
100
AcDbEntity
  8
1-E
  6
Continuous
 62
     7
370
     9
100
AcDbLine
 10
2644.06141159448
 20
-2649.485558115155
 30
0.0
 11
2660.561411594482
 21
-2649.485558115155
 31
0.0
  0
LINE
  5
32E
330
1F
100
AcDbEntity
  8
1-E
  6
Continuous
 62
     7
370
     9
100
AcDbLine
 10
2644.06141159448
 20
-2649.485558115155
 30
0.0
 11
2644.06141159448
 21
-2618.73555811516
 31
0.0
  0
LINE
  5
32F
330
1F
100
AcDbEntity
  8
1-E
  6
Continuous
 62
     7
370
     9
100
AcDbLine
 10
2644.06141159448
 20
-2618.73555811516
 30
0.0
 11
2628.364712453374
 21
-2603.038858974056
 31
0.0
  0
ARC
  5
330
330
1F
100
AcDbEntity
  8
1-E
  6
Continuous
 62
     7
370
     9
100
AcDbCircle
 10
2623.06141159448
 20
-2608.342159832953
 30
0.0
 40
7.499999999996444
100
AcDbArc
 50
45.0
 51
180.0000000000261
  0
LINE
  5
331
330
1F
100
AcDbEntity
  8
1-E
  6
Continuous
 62
     7
370
     9
100
AcDbLine
 10
2615.561411594482
 20
-2649.485558115155
 30
0.0
 11
2615.561411594479
 21
-2608.342159832956
 31
0.0
  0
LINE
  5
332
330
1F
100
AcDbEntity
  8
1-E
  6
Continuous
 62
     7
370
     9
100
AcDbLine
 10
2600.561411594482
 20
-2649.485558115155
 30
0.0
 11
2615.561411594482
 21
-2649.485558115155
 31
0.0
  0
LINE
  5
333
330
1F
100
AcDbEntity
  8
1-E
  6
Continuous
 62
     7
370
     9
100
AcDbLine
 10
2600.561411594482
 20
-2649.485558115155
 30
0.0
 11
2600.561411594479
 21
-2608.985558115156
 31
0.0
  0
ARC
  5
334
330
1F
100
AcDbEntity
  8
1-E
  6
Continuous
 62
     7
370
     9
100
AcDbCircle
 10
2630.56141159448
 20
-2608.985558115156
 30
0.0
 40
30.0
100
AcDbArc
 50
90.0
 51
180.0
  0
LINE
  5
335
330
1F
100
AcDbEntity
  8
1-E
  6
Continuous
 62
     7
370
     9
100
AcDbLine
 10
2776.061411594481
 20
-2649.485558115155
 30
0.0
 11
3011.561411594466
 21
-2649.485558115155
 31
0.0
  0
LINE
  5
336
330
1F
100
AcDbEntity
  8
1-E
  6
Continuous
 62
     7
370
     9
100
AcDbLine
 10
2789.561411594481
 20
-2578.985558115155
 30
0.0
 11
2695.061411594483
 21
-2578.985558115155
 31
0.0
  0
LINE
  5
337
330
1F
100
AcDbEntity
  8
1-E
  6
Continuous
 62
    92
370
    13
100
AcDbLine
 10
2308.060038303466
 20
-829.9825769691565
 30
0.0
 11
2308.060038303466
 21
-2649.485558115155
 31
0.0
  0
LINE
  5
338
330
1F
100
AcDbEntity
  8
1-E
  6
Continuous
 62
    92
370
    13
100
AcDbLine
 10
3463.060038303468
 20
-829.9825769691565
 30
0.0
 11
3463.060038303468
 21
-2649.485558115155
 31
0.0
  0
LINE
  5
339
330
1F
100
AcDbEntity
  8
1-E
  6
Continuous
 62
   120
370
     5
100
AcDbLine
 10
2308.060038303466
 20
-1109.658634952511
 30
0.0
 11
3463.060038303468
 21
-1109.658634952511
 31
0.0
  0
LWPOLYLINE
  5
33A
330
1F
100
AcDbEntity
  8
1-E
  6
Continuous
 62
     7
370
     9
100
AcDbPolyline
 90
        4
 70
     1
 43
3.0
 10
2309.560038303466
 20
-1109.658634952511
 42
0.4142135623731
 10
2308.060038303466
 20
-1108.158634952511
 42
0.4142135623731
 10
2306.560038303467
 20
-1109.658634952511
 42
0.4142135623731
 10
2308.060038303466
 20
-1111.158634952511
 42
0.4142135623731
  0
LWPOLYLINE
  5
33B
330
1F
100
AcDbEntity
  8
1-E
  6
Continuous
 62
     7
370
     9
100
AcDbPolyline
 90
        4
 70
     1
 43
3.0
 10
3464.560038303468
 20
-1109.658634952511
 42
0.4142135623731
 10
3463.060038303468
 20
-1108.158634952511
 42
0.4142135623731
 10
3461.560038303468
 20
-1109.658634952511
 42
0.4142135623731
 10
3463.060038303468
 20
-1111.158634952511
 42
0.4142135623731
  0
LINE
  5
33C
330
1F
100
AcDbEntity
  8
1-E
  6
JWW_CENTER1
 62
   120
370
     5
100
AcDbLine
 10
2885.56141159448
 20
-2969.717948411941
 30
0.0
 11
2885.56141159448
 21
-829.9825769691565
 31
0.0
  0
LINE
  5
33D
330
1F
100
AcDbEntity
  8
1-E
  6
Continuous
 62
     7
370
     9
100
AcDbLine
 10
3663.546701986131
 20
-1656.145834299497
 30
0.0
 11
4159.1014205465
 21
-1656.145834299497
 31
0.0
  0
LINE
  5
33E
330
1F
100
AcDbEntity
  8
1-E
  6
Continuous
 62
     7
370
     9
100
AcDbLine
 10
4159.1014205465
 20
-1656.145834299497
 30
0.0
 11
4159.1014205465
 21
-1850.425809189641
 31
0.0
  0
LINE
  5
33F
330
1F
100
AcDbEntity
  8
1-E
  6
Continuous
 62
     7
370
     9
100
AcDbLine
 10
4159.1014205465
 20
-1850.425809189641
 30
0.0
 11
3663.546701986131
 21
-1850.425809189641
 31
0.0
  0
LINE
  5
340
330
1F
100
AcDbEntity
  8
1-E
  6
Continuous
 62
     7
370
     9
100
AcDbLine
 10
3663.546701986131
 20
-1850.425809189641
 30
0.0
 11
3663.546701986131
 21
-1656.145834299497
 31
0.0
  0
LINE
  5
341
330
1F
100
AcDbEntity
  8
1-E
  6
Continuous
 62
   120
370
     5
100
AcDbLine
 10
2600.561411594482
 20
-2383.985558115152
 30
0.0
 11
3011.561411594466
 21
-2383.985558115152
 31
0.0
  0
LWPOLYLINE
  5
342
330
1F
100
AcDbEntity
  8
1-E
  6
Continuous
 62
     7
370
     9
100
AcDbPolyline
 90
        4
 70
     1
 43
3.0
 10
2602.061411594482
 20
-2383.985558115152
 42
0.4142135623731
 10
2600.561411594482
 20
-2382.485558115152
 42
0.4142135623731
 10
2599.061411594482
 20
-2383.985558115152
 42
0.4142135623731
 10
2600.561411594482
 20
-2385.485558115152
 42
0.4142135623731
  0
LWPOLYLINE
  5
343
330
1F
100
AcDbEntity
  8
1-E
  6
Continuous
 62
     7
370
     9
100
AcDbPolyline
 90
        4
 70
     1
 43
3.0
 10
3013.061411594466
 20
-2383.985558115152
 42
0.4142135623731
 10
3011.561411594466
 20
-2382.485558115152
 42
0.4142135623731
 10
3010.061411594466
 20
-2383.985558115152
 42
0.4142135623731
 10
3011.561411594466
 20
-2385.485558115152
 42
0.4142135623731
  0
LINE
  5
344
330
1F
100
AcDbEntity
  8
1-E
  6
Continuous
 62
   120
370
     5
100
AcDbLine
 10
2600.561411594482
 20
-2383.985558115152
 30
0.0
 11
2600.561411594482
 21
-2533.985558115152
 31
0.0
  0
LINE
  5
345
330
1F
100
AcDbEntity
  8
1-E
  6
Continuous
 62
   120
370
     5
100
AcDbLine
 10
3011.561411594466
 20
-2383.985558115152
 30
0.0
 11
3011.561411594466
 21
-2533.985558115152
 31
0.0
  0
LINE
  5
346
330
1F
100
AcDbEntity
  8
1-E
  6
Continuous
 62
   120
370
     5
100
AcDbLine
 10
3011.561411594466
 20
-2383.985558115152
 30
0.0
 11
3463.060038303468
 21
-2383.985558115152
 31
0.0
  0
LWPOLYLINE
  5
347
330
1F
100
AcDbEntity
  8
1-E
  6
Continuous
 62
     7
370
     9
100
AcDbPolyline
 90
        4
 70
     1
 43
3.0
 10
3464.560038303468
 20
-2383.985558115152
 42
0.4142135623731
 10
3463.060038303468
 20
-2382.485558115152
 42
0.4142135623731
 10
3461.560038303468
 20
-2383.985558115152
 42
0.4142135623731
 10
3463.060038303468
 20
-2385.485558115152
 42
0.4142135623731
  0
LINE
  5
348
330
1F
100
AcDbEntity
  8
1-E
  6
Continuous
 62
   120
370
     5
100
AcDbLine
 10
3463.060038303468
 20
-2383.985558115152
 30
0.0
 11
3463.060038303468
 21
-2533.985558115152
 31
0.0
  0
MTEXT
  5
349
330
1F
100
AcDbEntity
  8
1-E
  6
Continuous
 62
     7
370
     9
100
AcDbMText
 10
3671.324061266316
 20
-1626.255296530089
 30
0.0
 40
91.44
 41
480.0
 46
0.0
 71
     7
 72
     1
  1
{\fＭＳ ゴシック|b0|i0|c128|p49;竪枠前面}
 73
     1
 44
1.0
  0
MTEXT
  5
34A
330
1F
100
AcDbEntity
  8
1-E
  6
Continuous
 62
     7
370
     9
100
AcDbMText
 10
3731.324061266316
 20
-1827.565821744569
 30
0.0
 40
91.44
 41
360.0
 46
0.0
 71
     7
 72
     1
  1
{\fＭＳ ゴシック|b0|i0|c128|p49;室内側}
 73
     1
 44
1.0
  0
MTEXT
  5
34B
330
1F
100
AcDbEntity
  8
1-E
  6
Continuous
 62
     7
370
   211
100
AcDbMText
 10
2825.560038303466
 20
-1108.938634952511
 30
0.0
 40
91.44
 41
120.0
 46
0.0
 71
     7
 72
     1
  1
{\fＭＳ ゴシック|b0|i0|c128|p49;77}
 73
     1
 44
1.0
  0
MTEXT
  5
34C
330
1F
100
AcDbEntity
  8
1-E
  6
Continuous
 62
     7
370
   211
100
AcDbMText
 10
2686.061411594474
 20
-2383.265558115153
 30
0.0
 40
91.44
 41
240.0
 46
0.0
 71
     7
 72
     1
  1
{\fＭＳ ゴシック|b0|i0|c128|p49;27.4}
 73
     1
 44
1.0
  0
MTEXT
  5
34D
330
1F
100
AcDbEntity
  8
1-E
  6
Continuous
 62
     7
370
   211
100
AcDbMText
 10
3177.310724948968
 20
-2383.265558115153
 30
0.0
 40
91.44
 41
120.0
 46
0.0
 71
     7
 72
     1
  1
{\fＭＳ ゴシック|b0|i0|c128|p49;30}
 73
     1
 44
1.0
  0
MTEXT
  5
34E
330
1F
100
AcDbEntity
  8
0-B_寸法
  6
Continuous
 62
     7
370
   211
100
AcDbMText
 10
-1186.270992761634
 20
2287.665146596496
 30
0.0
 40
91.44
 41
120.0
 46
0.0
 71
     7
 72
     1
  1
{\fＭＳ ゴシック|b0|i0|c128|p49;20}
 11
6.123031769111886E-17
 21
1.0
 31
0.0
 73
     1
 44
1.0
  0
MTEXT
  5
34F
330
1F
100
AcDbEntity
  8
0-B_寸法
  6
Continuous
 62
     7
370
     0
100
AcDbMText
 10
-1997.832256125565
 20
-1244.100226289375
 30
0.0
 40
91.43999999999937
 41
119.9999999999992
 46
0.0
 71
     7
 72
     1
  1
{\fＭＳ ゴシック|b0|i0|c128|p49;20}
 11
0.9999999999914964
 21
4.124000448329335E-6
 31
0.0
 73
     1
 44
1.0
  0
MTEXT
  5
350
330
1F
100
AcDbEntity
  8
F-A_文字
  6
Continuous
 62
     7
370
     0
100
AcDbMText
 10
4938.667793092893
 20
-3938.071010139966
 30
0.0
 40
78.86699999999999
 41
517.5
 46
0.0
 71
     7
 72
     1
  1
{\fＭＳ ゴシック|b0|i0|c128|p49;2024.04.01}
 73
     1
 44
1.0
  0
LINE
  5
351
330
1F
100
AcDbEntity
  8
0-0_補助線
  6
Continuous
 62
   120
370
     5
100
AcDbLine
 10
-1982.081407668727
 20
2324.359196304034
 30
0.0
 11
-1982.081407668727
 21
2402.688459527219
 31
0.0
  0
LINE
  5
352
330
1F
100
AcDbEntity
  8
0-0_補助線
  6
Continuous
 62
   120
370
     5
100
AcDbLine
 10
-1997.081407668727
 20
2324.359196304034
 30
0.0
 11
-1997.081407668727
 21
2402.688459527219
 31
0.0
  0
LWPOLYLINE
  5
353
330
1F
100
AcDbEntity
  8
0-B_寸法
  6
Continuous
 62
     7
370
     9
100
AcDbPolyline
 90
        4
 70
     1
 43
3.0
 10
-1169.770992761632
 20
2421.945146596495
 42
0.4142135623731
 10
-1171.270992761632
 20
2423.445146596495
 42
0.4142135623731
 10
-1172.770992761632
 20
2421.945146596495
 42
0.4142135623731
 10
-1171.270992761632
 20
2420.445146596495
 42
0.4142135623731
  0
LINE
  5
354
330
1F
100
AcDbEntity
  8
0-0_補助線
  6
JWW_HOJO
 62
     7
370
     9
100
AcDbLine
 10
-1528.331407668727
 20
2439.945146596496
 30
0.0
 11
-1528.331407668727
 21
2280.944503252956
 31
0.0
  0
LINE
  5
355
330
1F
100
AcDbEntity
  8
0-0_補助線
  6
JWW_HOJO
 62
     7
370
     9
100
AcDbLine
 10
-1468.331407668727
 20
2439.945146596496
 30
0.0
 11
-1468.331407668727
 21
2280.944503252956
 31
0.0
  0
LINE
  5
356
330
1F
100
AcDbEntity
  8
0-6_扉
  6
Continuous
 62
   200
370
    20
100
AcDbLine
 10
-1997.081407668727
 20
2421.945146596495
 30
0.0
 11
-1528.331407668727
 21
2421.945146596495
 31
0.0
  0
LINE
  5
357
330
1F
100
AcDbEntity
  8
0-6_扉
  6
Continuous
 62
   200
370
    20
100
AcDbLine
 10
-1468.331407668727
 20
2421.945146596495
 30
0.0
 11
-999.5814076687259
 21
2421.945146596495
 31
0.0
  0
LINE
  5
358
330
1F
100
AcDbEntity
  8
0-0_補助線
  6
JWW_HOJO
 62
     7
370
     9
100
AcDbLine
 10
-524.8314076687254
 20
2439.945146596496
 30
0.0
 11
-524.8314076687254
 21
2280.944503252956
 31
0.0
  0
LINE
  5
359
330
1F
100
AcDbEntity
  8
0-0_補助線
  6
JWW_HOJO
 62
     7
370
     9
100
AcDbLine
 10
-464.8314076687254
 20
2439.945146596496
 30
0.0
 11
-464.8314076687254
 21
2280.944503252956
 31
0.0
  0
LINE
  5
35A
330
1F
100
AcDbEntity
  8
0-0_補助線
  6
JWW_HOJO
 62
     7
370
     9
100
AcDbLine
 10
484.6685923312774
 20
2439.945146596496
 30
0.0
 11
484.6685923312774
 21
2280.944503252956
 31
0.0
  0
LINE
  5
35B
330
1F
100
AcDbEntity
  8
0-0_補助線
  6
JWW_HOJO
 62
     7
370
     9
100
AcDbLine
 10
544.6685923312773
 20
2439.945146596496
 30
0.0
 11
544.6685923312773
 21
2280.944503252956
 31
0.0
  0
LINE
  5
35C
330
1F
100
AcDbEntity
  8
0-0_補助線
  6
JWW_HOJO
 62
     7
370
     9
100
AcDbLine
 10
1488.168592331277
 20
2439.945146596496
 30
0.0
 11
1488.168592331277
 21
2280.944503252956
 31
0.0
  0
LINE
  5
35D
330
1F
100
AcDbEntity
  8
0-0_補助線
  6
JWW_HOJO
 62
     7
370
     9
100
AcDbLine
 10
1548.168592331277
 20
2439.945146596496
 30
0.0
 11
1548.168592331277
 21
2280.944503252956
 31
0.0
  0
LINE
  5
35E
330
1F
100
AcDbEntity
  8
0-6_扉
  6
Continuous
 62
   200
370
    20
100
AcDbLine
 10
-993.5814076687254
 20
2421.945146596495
 30
0.0
 11
-524.8314076687254
 21
2421.945146596495
 31
0.0
  0
LINE
  5
35F
330
1F
100
AcDbEntity
  8
0-6_扉
  6
Continuous
 62
   200
370
    20
100
AcDbLine
 10
-464.8314076687254
 20
2421.945146596495
 30
0.0
 11
3.918592331274624
 21
2421.945146596495
 31
0.0
  0
LINE
  5
360
330
1F
100
AcDbEntity
  8
0-6_扉
  6
Continuous
 62
   200
370
    20
100
AcDbLine
 10
15.91859233127906
 20
2421.945146596495
 30
0.0
 11
484.6685923312774
 21
2421.945146596495
 31
0.0
  0
LINE
  5
361
330
1F
100
AcDbEntity
  8
0-6_扉
  6
Continuous
 62
   200
370
    20
100
AcDbLine
 10
544.6685923312773
 20
2421.945146596495
 30
0.0
 11
1013.418592331275
 21
2421.945146596495
 31
0.0
  0
LINE
  5
362
330
1F
100
AcDbEntity
  8
0-6_扉
  6
Continuous
 62
   200
370
    20
100
AcDbLine
 10
1019.418592331276
 20
2421.945146596495
 30
0.0
 11
1488.168592331277
 21
2421.945146596495
 31
0.0
  0
LINE
  5
363
330
1F
100
AcDbEntity
  8
0-6_扉
  6
Continuous
 62
   200
370
    20
100
AcDbLine
 10
1548.168592331277
 20
2421.945146596495
 30
0.0
 11
2016.918592331279
 21
2421.945146596495
 31
0.0
  0
CIRCLE
  5
364
330
1F
100
AcDbEntity
  8
0-7_金物
  6
Continuous
 62
     7
370
     9
100
AcDbCircle
 10
-996.5814076687252
 20
2451.945146596472
 30
0.0
 40
21.00000000000001
  0
CIRCLE
  5
365
330
1F
100
AcDbEntity
  8
0-7_金物
  6
Continuous
 62
     7
370
     9
100
AcDbCircle
 10
-996.5814076687252
 20
2451.945146596472
 30
0.0
 40
30.0
  0
CIRCLE
  5
366
330
1F
100
AcDbEntity
  8
0-7_金物
  6
Continuous
 62
     7
370
     9
100
AcDbCircle
 10
1016.418592331275
 20
2451.945146596472
 30
0.0
 40
21.00000000000001
  0
CIRCLE
  5
367
330
1F
100
AcDbEntity
  8
0-7_金物
  6
Continuous
 62
     7
370
     9
100
AcDbCircle
 10
1016.418592331275
 20
2451.945146596472
 30
0.0
 40
30.0
  0
LWPOLYLINE
  5
368
330
1F
100
AcDbEntity
  8
0-B_寸法
  6
Continuous
 62
     7
370
     9
100
AcDbPolyline
 90
        4
 70
     1
 43
3.0
 10
-1169.770992761632
 20
2301.945146596495
 42
0.4142135623731
 10
-1171.270992761632
 20
2303.445146596495
 42
0.4142135623731
 10
-1172.770992761632
 20
2301.945146596495
 42
0.4142135623731
 10
-1171.270992761632
 20
2300.445146596495
 42
0.4142135623731
  0
LINE
  5
369
330
1F
100
AcDbEntity
  8
0-6_扉
  6
Continuous
 62
   200
370
    20
100
AcDbLine
 10
-1997.081407668727
 20
2301.945146596495
 30
0.0
 11
-1528.331407668727
 21
2301.945146596495
 31
0.0
  0
LINE
  5
36A
330
1F
100
AcDbEntity
  8
0-6_扉
  6
Continuous
 62
   200
370
    20
100
AcDbLine
 10
-1468.331407668727
 20
2301.945146596495
 30
0.0
 11
-999.5814076687259
 21
2301.945146596495
 31
0.0
  0
LINE
  5
36B
330
1F
100
AcDbEntity
  8
0-6_扉
  6
Continuous
 62
   200
370
    20
100
AcDbLine
 10
-993.5814076687254
 20
2301.945146596495
 30
0.0
 11
-524.8314076687254
 21
2301.945146596495
 31
0.0
  0
LINE
  5
36C
330
1F
100
AcDbEntity
  8
0-6_扉
  6
Continuous
 62
   200
370
    20
100
AcDbLine
 10
-464.8314076687254
 20
2301.945146596495
 30
0.0
 11
3.918592331274624
 21
2301.945146596495
 31
0.0
  0
LINE
  5
36D
330
1F
100
AcDbEntity
  8
0-6_扉
  6
Continuous
 62
   200
370
    20
100
AcDbLine
 10
15.91859233127906
 20
2301.945146596495
 30
0.0
 11
484.6685923312774
 21
2301.945146596495
 31
0.0
  0
LINE
  5
36E
330
1F
100
AcDbEntity
  8
0-6_扉
  6
Continuous
 62
   200
370
    20
100
AcDbLine
 10
544.6685923312773
 20
2301.945146596495
 30
0.0
 11
1013.418592331275
 21
2301.945146596495
 31
0.0
  0
LINE
  5
36F
330
1F
100
AcDbEntity
  8
0-6_扉
  6
Continuous
 62
   200
370
    20
100
AcDbLine
 10
1019.418592331276
 20
2301.945146596495
 30
0.0
 11
1488.168592331277
 21
2301.945146596495
 31
0.0
  0
LINE
  5
370
330
1F
100
AcDbEntity
  8
0-6_扉
  6
Continuous
 62
   200
370
    20
100
AcDbLine
 10
1548.168592331277
 20
2301.945146596495
 30
0.0
 11
2016.918592331279
 21
2301.945146596495
 31
0.0
  0
LINE
  5
371
330
1F
100
AcDbEntity
  8
0-6_扉
  6
Continuous
 62
   200
370
    20
100
AcDbLine
 10
-1997.081407668727
 20
2421.945146596495
 30
0.0
 11
-1997.081407668727
 21
2301.945146596495
 31
0.0
  0
LINE
  5
372
330
1F
100
AcDbEntity
  8
0-6_扉
  6
Continuous
 62
   200
370
    20
100
AcDbLine
 10
2016.918592331279
 20
2421.945146596495
 30
0.0
 11
2016.918592331279
 21
2301.945146596495
 31
0.0
  0
LINE
  5
373
330
1F
100
AcDbEntity
  8
0-B_寸法
  6
Continuous
 62
   120
370
     5
100
AcDbLine
 10
-1171.270992761632
 20
2421.945146596495
 30
0.0
 11
-1171.270992761632
 21
2301.945146596495
 31
0.0
  0
LINE
  5
374
330
1F
100
AcDbEntity
  8
0-6_扉
  6
Continuous
 62
   200
370
    20
100
AcDbLine
 10
3.918592331274624
 20
2421.945146596495
 30
0.0
 11
3.918592331274624
 21
2301.945146596495
 31
0.0
  0
LINE
  5
375
330
1F
100
AcDbEntity
  8
0-6_扉
  6
Continuous
 62
   200
370
    20
100
AcDbLine
 10
15.91859233127565
 20
2421.945146596495
 30
0.0
 11
15.91859233127565
 21
2301.945146596495
 31
0.0
  0
LINE
  5
376
330
1F
100
AcDbEntity
  8
0-6_扉
  6
Continuous
 62
   200
370
    20
100
AcDbLine
 10
-999.5814076687259
 20
2421.945146596495
 30
0.0
 11
-999.5814076687259
 21
2301.945146596495
 31
0.0
  0
LINE
  5
377
330
1F
100
AcDbEntity
  8
0-6_扉
  6
Continuous
 62
   200
370
    20
100
AcDbLine
 10
-993.5814076687254
 20
2421.945146596495
 30
0.0
 11
-993.5814076687254
 21
2301.945146596495
 31
0.0
  0
LINE
  5
378
330
1F
100
AcDbEntity
  8
0-6_扉
  6
Continuous
 62
   200
370
    20
100
AcDbLine
 10
1019.418592331276
 20
2421.945146596495
 30
0.0
 11
1019.418592331276
 21
2301.945146596495
 31
0.0
  0
LINE
  5
379
330
1F
100
AcDbEntity
  8
0-6_扉
  6
Continuous
 62
   200
370
    20
100
AcDbLine
 10
1013.418592331275
 20
2421.945146596495
 30
0.0
 11
1013.418592331275
 21
2301.945146596495
 31
0.0
  0
LWPOLYLINE
  5
37A
330
1F
100
AcDbEntity
  8
0-B_寸法
  6
Continuous
 62
     7
370
     9
100
AcDbPolyline
 90
        4
 70
     1
 43
3.0
 10
-1872.581152235166
 20
-1244.819842757449
 42
0.4142135623731
 10
-1874.081152235166
 20
-1243.319842757449
 42
0.4142135623731
 10
-1875.581152235165
 20
-1244.819842757449
 42
0.4142135623731
 10
-1874.081152235166
 20
-1246.319842757449
 42
0.4142135623731
  0
LINE
  5
37B
330
1F
100
AcDbEntity
  8
0-B_寸法
  6
Continuous
 62
   120
370
     5
100
AcDbLine
 10
-1874.081152235166
 20
-1160.582914178476
 30
0.0
 11
-1874.081152235166
 21
-1244.819842757449
 31
0.0
  0
LINE
  5
37C
330
1F
100
AcDbEntity
  8
0-6_扉
  6
Continuous
 62
   200
370
    20
100
AcDbLine
 10
-1874.081152235166
 20
-642.8298055095082
 30
0.0
 11
-1874.081152235166
 21
-1881.830386786969
 31
0.0
  0
LINE
  5
37D
330
1F
100
AcDbEntity
  8
0-6_扉
  6
Continuous
 62
   200
370
    20
100
AcDbLine
 10
-1874.081152235168
 20
-2001.830386786969
 30
0.0
 11
-1874.081152235168
 21
-2836.432628161206
 31
0.0
  0
LINE
  5
37E
330
1F
100
AcDbEntity
  8
0-6_扉
  6
Continuous
 62
   200
370
    20
100
AcDbLine
 10
-1874.081152235168
 20
-3004.432628161207
 30
0.0
 11
-1874.081152235168
 21
-3240.83067629156
 31
0.0
  0
LWPOLYLINE
  5
37F
330
1F
100
AcDbEntity
  8
0-B_寸法
  6
Continuous
 62
     7
370
     9
100
AcDbPolyline
 90
        4
 70
     1
 43
3.0
 10
-1992.581152235168
 20
-1244.819842757449
 42
0.4142135623731
 10
-1994.081152235168
 20
-1243.319842757449
 42
0.4142135623731
 10
-1995.581152235168
 20
-1244.819842757449
 42
0.4142135623731
 10
-1994.081152235168
 20
-1246.319842757449
 42
0.4142135623731
  0
LINE
  5
380
330
1F
100
AcDbEntity
  8
0-B_寸法
  6
Continuous
 62
   120
370
     5
100
AcDbLine
 10
-1994.081152235168
 20
-1160.582914178476
 30
0.0
 11
-1994.081152235168
 21
-1244.819842757449
 31
0.0
  0
LINE
  5
381
330
1F
100
AcDbEntity
  8
0-6_扉
  6
Continuous
 62
   200
370
    20
100
AcDbLine
 10
-1994.081152235168
 20
-642.8298055095082
 30
0.0
 11
-1994.081152235168
 21
-1881.830386786969
 31
0.0
  0
LINE
  5
382
330
1F
100
AcDbEntity
  8
0-6_扉
  6
Continuous
 62
   200
370
    20
100
AcDbLine
 10
-1994.081152235168
 20
-2001.830386786969
 30
0.0
 11
-1994.081152235168
 21
-2836.432628161206
 31
0.0
  0
LINE
  5
383
330
1F
100
AcDbEntity
  8
0-6_扉
  6
Continuous
 62
   200
370
    20
100
AcDbLine
 10
-1994.081152235168
 20
-3004.432628161207
 30
0.0
 11
-1994.081152235168
 21
-3240.83067629156
 31
0.0
  0
LINE
  5
384
330
1F
100
AcDbEntity
  8
0-6_扉
  6
Continuous
 62
   200
370
    20
100
AcDbLine
 10
-1874.081152235168
 20
-3240.83067629156
 30
0.0
 11
-1994.081152235168
 21
-3240.83067629156
 31
0.0
  0
LINE
  5
385
330
1F
100
AcDbEntity
  8
0-6_扉
  6
Continuous
 62
   200
370
    20
100
AcDbLine
 10
-1994.081152235168
 20
-642.8298055095082
 30
0.0
 11
-1874.081152235166
 21
-642.8298055095082
 31
0.0
  0
LINE
  5
386
330
1F
100
AcDbEntity
  8
0-B_寸法
  6
Continuous
 62
   120
370
     5
100
AcDbLine
 10
-1994.081152235168
 20
-1244.819842757449
 30
0.0
 11
-1874.081152235166
 21
-1244.819842757449
 31
0.0
  0
LINE
  5
387
330
1F
100
AcDbEntity
  8
1-E
  6
JWW_DASHED2
 62
     7
370
     9
100
AcDbLine
 10
3035.56141159448
 20
-829.9825769691565
 30
0.0
 11
3035.56141159448
 21
-2476.985558115155
 31
0.0
  0
LINE
  5
388
330
1F
100
AcDbEntity
  8
1-E
  6
JWW_DASHED2
 62
     7
370
     9
100
AcDbLine
 10
2735.56141159448
 20
-829.9825769691565
 30
0.0
 11
2735.56141159448
 21
-2476.985558115155
 31
0.0
  0
LINE
  5
389
330
1F
100
AcDbEntity
  8
1-E
  6
JWW_DASHED2
 62
     7
370
     9
100
AcDbLine
 10
3035.56141159448
 20
-2476.985558115155
 30
0.0
 11
2735.56141159448
 21
-2476.985558115155
 31
0.0
  0
ENDSEC
  0
SECTION
  2
OBJECTS
  0
DICTIONARY
  5
C
330
0
100
AcDbDictionary
281
     1
  3
ACAD_GROUP
350
D
  3
ACAD_LAYOUT
350
1A
  3
ACAD_MATERIAL
350
3B
  3
ACAD_MLEADERSTYLE
350
38B
  3
ACAD_MLINESTYLE
350
17
  3
ACAD_PLOTSETTINGS
350
19
  3
ACAD_PLOTSTYLENAME
350
E
  3
ACAD_TABLESTYLE
350
38A
  3
ACAD_VISUALSTYLE
350
2A
  0
DICTIONARY
  5
D
102
{ACAD_REACTORS
330
C
102
}
330
C
100
AcDbDictionary
281
     1
  0
DICTIONARY
  5
1A
102
{ACAD_REACTORS
330
C
102
}
330
C
100
AcDbDictionary
281
     1
  3
Layout1
350
1E
  3
Layout2
350
26
  3
Model
350
22
  0
DICTIONARY
  5
3B
102
{ACAD_REACTORS
330
C
102
}
330
C
100
AcDbDictionary
281
     1
  3
ByBlock
350
3D
  3
ByLayer
350
3C
  3
Global
350
3E
  0
DICTIONARY
  5
38B
102
{ACAD_REACTORS
330
C
102
}
330
C
100
AcDbDictionary
281
     1
  0
DICTIONARY
  5
17
102
{ACAD_REACTORS
330
C
102
}
330
C
100
AcDbDictionary
281
     1
  3
Standard
350
18
  0
DICTIONARY
  5
19
102
{ACAD_REACTORS
330
C
102
}
330
C
100
AcDbDictionary
281
     1
  0
ACDBDICTIONARYWDFLT
  5
E
102
{ACAD_REACTORS
330
C
102
}
330
C
100
AcDbDictionary
281
     1
  3
Normal
350
F
100
AcDbDictionaryWithDefault
340
F
  0
DICTIONARY
  5
38A
102
{ACAD_REACTORS
330
C
102
}
330
C
100
AcDbDictionary
281
     1
  0
DICTIONARY
  5
2A
102
{ACAD_REACTORS
330
C
102
}
330
C
100
AcDbDictionary
281
     1
  3
2dWireframe
350
2F
  3
3D Hidden
350
31
  3
3dWireframe
350
30
  3
Basic
350
32
  3
Brighten
350
36
  3
ColorChange
350
3A
  3
Conceptual
350
34
  3
Dim
350
35
  3
Facepattern
350
39
  3
Flat
350
2B
  3
FlatWithEdges
350
2C
  3
Gouraud
350
2D
  3
GouraudWithEdges
350
2E
  3
Linepattern
350
38
  3
Realistic
350
33
  3
Thicken
350
37
  0
LAYOUT
  5
1E
102
{ACAD_REACTORS
330
1A
102
}
330
1A
100
AcDbPlotSettings
  1

  2
none_device
  4

  6

 40
0.0
 41
0.0
 42
0.0
 43
0.0
 44
0.0
 45
0.0
 46
0.0
 47
0.0
 48
0.0
 49
0.0
140
0.0
141
0.0
142
1.0
143
1.0
 70
   688
 72
     0
 73
     0
 74
     5
  7

 75
    16
 76
     0
 77
     5
 78
   300
147
1.0
148
0.0
149
0.0
100
AcDbLayout
  1
Layout1
 70
     1
 71
     1
 10
0.0
 20
0.0
 11
420.0
 21
297.0
 12
0.0
 22
0.0
 32
0.0
 14
1.000000000000000E+20
 24
1.000000000000000E+20
 34
1.000000000000000E+20
 15
-1.000000000000000E+20
 25
-1.000000000000000E+20
 35
-1.000000000000000E+20
146
0.0
 13
0.0
 23
0.0
 33
0.0
 16
1.0
 26
0.0
 36
0.0
 17
0.0
 27
1.0
 37
0.0
 76
     0
330
1B
  0
LAYOUT
  5
26
102
{ACAD_REACTORS
330
1A
102
}
330
1A
100
AcDbPlotSettings
  1

  2
none_device
  4

  6

 40
0.0
 41
0.0
 42
0.0
 43
0.0
 44
0.0
 45
0.0
 46
0.0
 47
0.0
 48
0.0
 49
0.0
140
0.0
141
0.0
142
1.0
143
1.0
 70
   688
 72
     0
 73
     0
 74
     5
  7

 75
    16
 76
     0
 77
     5
 78
   300
147
1.0
148
0.0
149
0.0
100
AcDbLayout
  1
Layout2
 70
     1
 71
     2
 10
0.0
 20
0.0
 11
0.0
 21
0.0
 12
0.0
 22
0.0
 32
0.0
 14
0.0
 24
0.0
 34
0.0
 15
0.0
 25
0.0
 35
0.0
146
0.0
 13
0.0
 23
0.0
 33
0.0
 16
1.0
 26
0.0
 36
0.0
 17
0.0
 27
1.0
 37
0.0
 76
     0
330
23
  0
LAYOUT
  5
22
102
{ACAD_REACTORS
330
1A
102
}
330
1A
100
AcDbPlotSettings
  1

  2
none_device
  4

  6

 40
0.0
 41
0.0
 42
0.0
 43
0.0
 44
0.0
 45
0.0
 46
0.0
 47
0.0
 48
0.0
 49
0.0
140
0.0
141
0.0
142
1.0
143
1.0
 70
  1712
 72
     0
 73
     0
 74
     0
  7

 75
     0
 76
     0
 77
     5
 78
   300
147
1.0
148
0.0
149
0.0
100
AcDbLayout
  1
Model
 70
     1
 71
     0
 10
-6300.0
 20
-4455.0
 11
6300.0
 21
4455.0
 12
0.0
 22
0.0
 32
0.0
 14
-6300.0
 24
-4455.0
 34
0.0
 15
6300.0
 25
4455.0
 35
0.0
146
0.0
 13
0.0
 23
0.0
 33
0.0
 16
1.0
 26
0.0
 36
0.0
 17
0.0
 27
1.0
 37
0.0
 76
     0
330
1F
331
29
  0
MATERIAL
  5
3D
102
{ACAD_REACTORS
330
3B
102
}
330
3B
100
AcDbMaterial
  1
ByBlock
 72
     1
 94
      127
  0
MATERIAL
  5
3C
102
{ACAD_REACTORS
330
3B
102
}
330
3B
100
AcDbMaterial
  1
ByLayer
 72
     1
 94
      127
  0
MATERIAL
  5
3E
102
{ACAD_REACTORS
330
3B
102
}
330
3B
100
AcDbMaterial
  1
Global
 72
     1
 94
      127
  0
MLINESTYLE
  5
18
102
{ACAD_REACTORS
330
17
102
}
330
17
100
AcDbMlineStyle
  2
Standard
 70
     0
  3

 62
   256
 51
90.0
 52
90.0
 71
     2
 49
0.5
 62
   256
  6
BYLAYER
 49
-0.5
 62
   256
  6
BYLAYER
  0
ACDBPLACEHOLDER
  5
F
102
{ACAD_REACTORS
330
E
102
}
330
E
  0
VISUALSTYLE
  5
2F
102
{ACAD_REACTORS
330
2A
102
}
330
2A
100
AcDbVisualStyle
  2
2dWireframe
 70
     4
177
     2
291
     0
 71
     0
176
     1
 72
     2
176
     1
 73
     0
176
     1
 90
        0
176
     1
 40
-0.6
176
     1
 41
-30.0
176
     1
 62
     5
 63
     7
421
 16777215
176
     1
 74
     1
176
     1
 91
        4
176
     1
 64
     7
176
     1
 65
   257
176
     1
 75
     1
176
     1
175
     1
176
     1
 42
1.0
176
     1
 92
        0
176
     1
 66
   257
176
     1
 43
1.0
176
     1
 76
     1
176
     1
 77
     6
176
     1
 78
     2
176
     1
 67
     7
176
     1
 79
     5
176
     1
170
     0
176
     1
171
     0
176
     1
290
     0
176
     1
 93
        1
176
     1
 44
0.0
176
     1
173
     0
176
     1
  0
VISUALSTYLE
  5
31
102
{ACAD_REACTORS
330
2A
102
}
330
2A
100
AcDbVisualStyle
  2
3D Hidden
 70
     6
177
     2
291
     0
 71
     1
176
     1
 72
     2
176
     1
 73
     2
176
     1
 90
        0
176
     1
 40
-0.6
176
     1
 41
-30.0
176
     1
 62
     5
 63
     7
421
 16777215
176
     1
 74
     2
176
     1
 91
        2
176
     1
 64
     7
176
     1
 65
   257
176
     1
 75
     2
176
     1
175
     1
176
     1
 42
40.0
176
     1
 92
        0
176
     1
 66
   257
176
     1
 43
1.0
176
     1
 76
     1
176
     1
 77
     6
176
     1
 78
     2
176
     1
 67
     7
176
     1
 79
     3
176
     1
170
     0
176
     1
171
     0
176
     1
290
     0
176
     1
 93
        1
176
     1
 44
0.0
176
     1
173
     0
176
     1
  0
VISUALSTYLE
  5
30
102
{ACAD_REACTORS
330
2A
102
}
330
2A
100
AcDbVisualStyle
  2
3dWireframe
 70
     5
177
     2
291
     0
 71
     0
176
     1
 72
     2
176
     1
 73
     0
176
     1
 90
        0
176
     1
 40
-0.6
176
     1
 41
-30.0
176
     1
 62
     5
 63
     7
421
 16777215
176
     1
 74
     1
176
     1
 91
        4
176
     1
 64
     7
176
     1
 65
   257
176
     1
 75
     1
176
     1
175
     1
176
     1
 42
1.0
176
     1
 92
        0
176
     1
 66
   257
176
     1
 43
1.0
176
     1
 76
     1
176
     1
 77
     6
176
     1
 78
     2
176
     1
 67
     7
176
     1
 79
     5
176
     1
170
     0
176
     1
171
     0
176
     1
290
     0
176
     1
 93
        1
176
     1
 44
0.0
176
     1
173
     0
176
     1
  0
VISUALSTYLE
  5
32
102
{ACAD_REACTORS
330
2A
102
}
330
2A
100
AcDbVisualStyle
  2
Basic
 70
     7
177
     2
291
     1
 71
     1
176
     1
 72
     0
176
     1
 73
     1
176
     1
 90
        0
176
     1
 40
-0.6
176
     1
 41
-30.0
176
     1
 62
     5
 63
     7
421
 16777215
176
     1
 74
     0
176
     1
 91
        4
176
     1
 64
     7
176
     1
 65
   257
176
     1
 75
     1
176
     1
175
     1
176
     1
 42
1.0
176
     1
 92
        8
176
     1
 66
     7
176
     1
 43
1.0
176
     1
 76
     1
176
     1
 77
     6
176
     1
 78
     2
176
     1
 67
     7
176
     1
 79
     5
176
     1
170
     0
176
     1
171
     0
176
     1
290
     0
176
     1
 93
        1
176
     1
 44
0.0
176
     1
173
     0
176
     1
  0
VISUALSTYLE
  5
36
102
{ACAD_REACTORS
330
2A
102
}
330
2A
100
AcDbVisualStyle
  2
Brighten
 70
    12
177
     2
291
     1
 71
     2
176
     1
 72
     2
176
     1
 73
     0
176
     1
 90
        0
176
     1
 40
-0.6
176
     1
 41
-30.0
176
     1
 62
     5
 63
     7
421
 16777215
176
     1
 74
     1
176
     1
 91
        4
176
     1
 64
     7
176
     1
 65
   257
176
     1
 75
     1
176
     1
175
     1
176
     1
 42
1.0
176
     1
 92
        8
176
     1
 66
     7
176
     1
 43
1.0
176
     1
 76
     1
176
     1
 77
     6
176
     1
 78
     2
176
     1
 67
     7
176
     1
 79
     5
176
     1
170
     0
176
     1
171
     0
176
     1
290
     0
176
     1
 93
        1
176
     1
 44
50.0
176
     1
173
     0
176
     1
  0
VISUALSTYLE
  5
3A
102
{ACAD_REACTORS
330
2A
102
}
330
2A
100
AcDbVisualStyle
  2
ColorChange
 70
    16
177
     2
291
     1
 71
     2
176
     1
 72
     2
176
     1
 73
     3
176
     1
 90
        0
176
     1
 40
-0.6
176
     1
 41
-30.0
176
     1
 62
     5
 63
     8
421
  8421504
176
     1
 74
     1
176
     1
 91
        4
176
     1
 64
     7
176
     1
 65
   257
176
     1
 75
     1
176
     1
175
     1
176
     1
 42
1.0
176
     1
 92
        8
176
     1
 66
     8
424
  8421504
176
     1
 43
1.0
176
     1
 76
     1
176
     1
 77
     6
176
     1
 78
     2
176
     1
 67
     7
176
     1
 79
     5
176
     1
170
     0
176
     1
171
     0
176
     1
290
     0
176
     1
 93
        1
176
     1
 44
0.0
176
     1
173
     0
176
     1
  0
VISUALSTYLE
  5
34
102
{ACAD_REACTORS
330
2A
102
}
330
2A
100
AcDbVisualStyle
  2
Conceptual
 70
     9
177
     2
291
     0
 71
     3
176
     1
 72
     2
176
     1
 73
     0
176
     1
 90
        0
176
     1
 40
-0.6
176
     1
 41
-30.0
176
     1
 62
     5
 63
     7
421
 16777215
176
     1
 74
     2
176
     1
 91
        2
176
     1
 64
     7
176
     1
 65
   257
176
     1
 75
     1
176
     1
175
     1
176
     1
 42
40.0
176
     1
 92
        8
176
     1
 66
     7
176
     1
 43
1.0
176
     1
 76
     1
176
     1
 77
     6
176
     1
 78
     2
176
     1
 67
     7
176
     1
 79
     3
176
     1
170
     0
176
     1
171
     0
176
     1
290
     0
176
     1
 93
        1
176
     1
 44
0.0
176
     1
173
     0
176
     1
  0
VISUALSTYLE
  5
35
102
{ACAD_REACTORS
330
2A
102
}
330
2A
100
AcDbVisualStyle
  2
Dim
 70
    11
177
     2
291
     1
 71
     2
176
     1
 72
     2
176
     1
 73
     0
176
     1
 90
        0
176
     1
 40
-0.6
176
     1
 41
-30.0
176
     1
 62
     5
 63
     7
421
 16777215
176
     1
 74
     1
176
     1
 91
        4
176
     1
 64
     7
176
     1
 65
   257
176
     1
 75
     1
176
     1
175
     1
176
     1
 42
1.0
176
     1
 92
        8
176
     1
 66
     7
176
     1
 43
1.0
176
     1
 76
     1
176
     1
 77
     6
176
     1
 78
     2
176
     1
 67
     7
176
     1
 79
     5
176
     1
170
     0
176
     1
171
     0
176
     1
290
     0
176
     1
 93
        1
176
     1
 44
-50.0
176
     1
173
     0
176
     1
  0
VISUALSTYLE
  5
39
102
{ACAD_REACTORS
330
2A
102
}
330
2A
100
AcDbVisualStyle
  2
Facepattern
 70
    15
177
     2
291
     1
 71
     2
176
     1
 72
     2
176
     1
 73
     0
176
     1
 90
        0
176
     1
 40
-0.6
176
     1
 41
-30.0
176
     1
 62
     5
 63
     7
421
 16777215
176
     1
 74
     1
176
     1
 91
        4
176
     1
 64
     7
176
     1
 65
   257
176
     1
 75
     1
176
     1
175
     1
176
     1
 42
1.0
176
     1
 92
        8
176
     1
 66
     7
176
     1
 43
1.0
176
     1
 76
     1
176
     1
 77
     6
176
     1
 78
     2
176
     1
 67
     7
176
     1
 79
     5
176
     1
170
     0
176
     1
171
     0
176
     1
290
     0
176
     1
 93
        1
176
     1
 44
0.0
176
     1
173
     0
176
     1
  0
VISUALSTYLE
  5
2B
102
{ACAD_REACTORS
330
2A
102
}
330
2A
100
AcDbVisualStyle
  2
Flat
 70
     0
177
     2
291
     1
 71
     2
176
     1
 72
     1
176
     1
 73
     1
176
     1
 90
        2
176
     1
 40
-0.6
176
     1
 41
30.0
176
     1
 62
     5
 63
     7
421
 16777215
176
     1
 74
     0
176
     1
 91
        4
176
     1
 64
     7
176
     1
 65
   257
176
     1
 75
     1
176
     1
175
     1
176
     1
 42
1.0
176
     1
 92
        8
176
     1
 66
     7
176
     1
 43
1.0
176
     1
 76
     1
176
     1
 77
     6
176
     1
 78
     2
176
     1
 67
     7
176
     1
 79
     5
176
     1
170
     0
176
     1
171
     0
176
     1
290
     0
176
     1
 93
       13
176
     1
 44
0.0
176
     1
173
     0
176
     1
  0
VISUALSTYLE
  5
2C
102
{ACAD_REACTORS
330
2A
102
}
330
2A
100
AcDbVisualStyle
  2
FlatWithEdges
 70
     1
177
     2
291
     1
 71
     2
176
     1
 72
     1
176
     1
 73
     1
176
     1
 90
        2
176
     1
 40
-0.6
176
     1
 41
30.0
176
     1
 62
     5
 63
     7
421
 16777215
176
     1
 74
     1
176
     1
 91
        4
176
     1
 64
     7
176
     1
 65
   257
176
     1
 75
     1
176
     1
175
     1
176
     1
 42
1.0
176
     1
 92
        0
176
     1
 66
   257
176
     1
 43
1.0
176
     1
 76
     1
176
     1
 77
     6
176
     1
 78
     2
176
     1
 67
     7
176
     1
 79
     5
176
     1
170
     0
176
     1
171
     0
176
     1
290
     0
176
     1
 93
       13
176
     1
 44
0.0
176
     1
173
     0
176
     1
  0
VISUALSTYLE
  5
2D
102
{ACAD_REACTORS
330
2A
102
}
330
2A
100
AcDbVisualStyle
  2
Gouraud
 70
     2
177
     2
291
     1
 71
     2
176
     1
 72
     2
176
     1
 73
     1
176
     1
 90
        2
176
     1
 40
-0.6
176
     1
 41
30.0
176
     1
 62
     5
 63
     7
421
 16777215
176
     1
 74
     0
176
     1
 91
        4
176
     1
 64
     7
176
     1
 65
   257
176
     1
 75
     1
176
     1
175
     1
176
     1
 42
1.0
176
     1
 92
        0
176
     1
 66
     7
176
     1
 43
1.0
176
     1
 76
     1
176
     1
 77
     6
176
     1
 78
     2
176
     1
 67
     7
176
     1
 79
     5
176
     1
170
     0
176
     1
171
     0
176
     1
290
     0
176
     1
 93
       13
176
     1
 44
0.0
176
     1
173
     0
176
     1
  0
VISUALSTYLE
  5
2E
102
{ACAD_REACTORS
330
2A
102
}
330
2A
100
AcDbVisualStyle
  2
GouraudWithEdges
 70
     3
177
     2
291
     1
 71
     2
176
     1
 72
     2
176
     1
 73
     1
176
     1
 90
        2
176
     1
 40
-0.6
176
     1
 41
30.0
176
     1
 62
     5
 63
     7
421
 16777215
176
     1
 74
     1
176
     1
 91
        4
176
     1
 64
     7
176
     1
 65
   257
176
     1
 75
     1
176
     1
175
     1
176
     1
 42
1.0
176
     1
 92
        0
176
     1
 66
   257
176
     1
 43
1.0
176
     1
 76
     1
176
     1
 77
     6
176
     1
 78
     2
176
     1
 67
     7
176
     1
 79
     5
176
     1
170
     0
176
     1
171
     0
176
     1
290
     0
176
     1
 93
       13
176
     1
 44
0.0
176
     1
173
     0
176
     1
  0
VISUALSTYLE
  5
38
102
{ACAD_REACTORS
330
2A
102
}
330
2A
100
AcDbVisualStyle
  2
Linepattern
 70
    14
177
     2
291
     1
 71
     2
176
     1
 72
     2
176
     1
 73
     0
176
     1
 90
        0
176
     1
 40
-0.6
176
     1
 41
-30.0
176
     1
 62
     5
 63
     7
421
 16777215
176
     1
 74
     1
176
     1
 91
        4
176
     1
 64
     7
176
     1
 65
   257
176
     1
 75
     7
176
     1
175
     7
176
     1
 42
1.0
176
     1
 92
        8
176
     1
 66
     7
176
     1
 43
1.0
176
     1
 76
     1
176
     1
 77
     6
176
     1
 78
     2
176
     1
 67
     7
176
     1
 79
     5
176
     1
170
     0
176
     1
171
     0
176
     1
290
     0
176
     1
 93
        1
176
     1
 44
0.0
176
     1
173
     0
176
     1
  0
VISUALSTYLE
  5
33
102
{ACAD_REACTORS
330
2A
102
}
330
2A
100
AcDbVisualStyle
  2
Realistic
 70
     8
177
     2
291
     0
 71
     2
176
     1
 72
     2
176
     1
 73
     0
176
     1
 90
        0
176
     1
 40
-0.6
176
     1
 41
-30.0
176
     1
 62
     5
 63
     7
421
 16777215
176
     1
 74
     1
176
     1
 91
        0
176
     1
 64
     7
176
     1
 65
   257
176
     1
 75
     1
176
     1
175
     1
176
     1
 42
1.0
176
     1
 92
        8
176
     1
 66
     8
424
  7895160
176
     1
 43
1.0
176
     1
 76
     1
176
     1
 77
     6
176
     1
 78
     2
176
     1
 67
     7
176
     1
 79
     5
176
     1
170
     0
176
     1
171
     0
176
     1
290
     0
176
     1
 93
       13
176
     1
 44
0.0
176
     1
173
     0
176
     1
  0
VISUALSTYLE
  5
37
102
{ACAD_REACTORS
330
2A
102
}
330
2A
100
AcDbVisualStyle
  2
Thicken
 70
    13
177
     2
291
     1
 71
     2
176
     1
 72
     2
176
     1
 73
     0
176
     1
 90
        0
176
     1
 40
-0.6
176
     1
 41
-30.0
176
     1
 62
     5
 63
     7
421
 16777215
176
     1
 74
     1
176
     1
 91
        4
176
     1
 64
     7
176
     1
 65
   257
176
     1
 75
     1
176
     1
175
     1
176
     1
 42
1.0
176
     1
 92
       12
176
     1
 66
     7
176
     1
 43
1.0
176
     1
 76
     1
176
     1
 77
     6
176
     1
 78
     2
176
     1
 67
     7
176
     1
 79
     5
176
     1
170
     0
176
     1
171
     0
176
     1
290
     0
176
     1
 93
        1
176
     1
 44
0.0
176
     1
173
     0
176
     1
  0
ENDSEC
  0
EOF
