  0
SECTION
  2
HEADER
  9
$ACADVER
  1
AC1024
  9
$ACADMAINTVER
 70
     6
  9
$DWGCODEPAGE
  3
ANSI_932
  9
$INSBASE
 10
0.0
 20
0.0
 30
0.0
  9
$EXTMIN
 10
-6300.0
 20
-4455.0
 30
0.0
  9
$EXTMAX
 10
6300.0
 20
4455.0
 30
0.0
  9
$LIMMIN
 10
-6300.0
 20
-4455.0
  9
$LIMMAX
 10
6300.0
 20
4455.0
  9
$ORTHOMODE
 70
     0
  9
$REGENMODE
 70
     1
  9
$FILLMODE
 70
     1
  9
$QTEXTMODE
 70
     0
  9
$MIRRTEXT
 70
     1
  9
$LTSCALE
 40
30.0
  9
$ATTMODE
 70
     1
  9
$TEXTSIZE
 40
2.5
  9
$TRACEWID
 40
1.0
  9
$TEXTSTYLE
  7
Standard
  9
$CLAYER
  8
0
  9
$CELTYPE
  6
ByLayer
  9
$CECOLOR
 62
   256
  9
$CELTSCALE
 40
1.0
  9
$DISPSILH
 70
     0
  9
$DIMSCALE
 40
1.0
  9
$DIMASZ
 40
2.5
  9
$DIMEXO
 40
0.625
  9
$DIMDLI
 40
3.75
  9
$DIMRND
 40
0.0
  9
$DIMDLE
 40
0.0
  9
$DIMEXE
 40
1.25
  9
$DIMTP
 40
0.0
  9
$DIMTM
 40
0.0
  9
$DIMTXT
 40
2.5
  9
$DIMCEN
 40
2.5
  9
$DIMTSZ
 40
0.0
  9
$DIMTOL
 70
     0
  9
$DIMLIM
 70
     0
  9
$DIMTIH
 70
     0
  9
$DIMTOH
 70
     0
  9
$DIMSE1
 70
     0
  9
$DIMSE2
 70
     0
  9
$DIMTAD
 70
     1
  9
$DIMZIN
 70
     8
  9
$DIMBLK
  1

  9
$DIMASO
 70
     1
  9
$DIMSHO
 70
     1
  9
$DIMPOST
  1

  9
$DIMAPOST
  1

  9
$DIMALT
 70
     0
  9
$DIMALTD
 70
     3
  9
$DIMALTF
 40
0.03937007874016
  9
$DIMLFAC
 40
1.0
  9
$DIMTOFL
 70
     1
  9
$DIMTVP
 40
0.0
  9
$DIMTIX
 70
     0
  9
$DIMSOXD
 70
     0
  9
$DIMSAH
 70
     0
  9
$DIMBLK1
  1

  9
$DIMBLK2
  1

  9
$DIMSTYLE
  2
ISO-25
  9
$DIMCLRD
 70
     0
  9
$DIMCLRE
 70
     0
  9
$DIMCLRT
 70
     0
  9
$DIMTFAC
 40
1.0
  9
$DIMGAP
 40
0.625
  9
$DIMJUST
 70
     0
  9
$DIMSD1
 70
     0
  9
$DIMSD2
 70
     0
  9
$DIMTOLJ
 70
     0
  9
$DIMTZIN
 70
     8
  9
$DIMALTZ
 70
     0
  9
$DIMALTTZ
 70
     0
  9
$DIMUPT
 70
     0
  9
$DIMDEC
 70
     2
  9
$DIMTDEC
 70
     2
  9
$DIMALTU
 70
     2
  9
$DIMALTTD
 70
     3
  9
$DIMTXSTY
  7
Standard
  9
$DIMAUNIT
 70
     0
  9
$DIMADEC
 70
     0
  9
$DIMALTRND
 40
0.0
  9
$DIMAZIN
 70
     0
  9
$DIMDSEP
 70
    44
  9
$DIMATFIT
 70
     3
  9
$DIMFRAC
 70
     0
  9
$DIMLDRBLK
  1

  9
$DIMLUNIT
 70
     2
  9
$DIMLWD
 70
    -2
  9
$DIMLWE
 70
    -2
  9
$DIMTMOVE
 70
     0
  9
$DIMFXL
 40
1.0
  9
$DIMFXLON
 70
     0
  9
$DIMJOGANG
 40
0.7853981633974483
  9
$DIMTFILL
 70
     0
  9
$DIMTFILLCLR
 70
     0
  9
$DIMARCSYM
 70
     0
  9
$DIMLTYPE
  6

  9
$DIMLTEX1
  6

  9
$DIMLTEX2
  6

  9
$DIMTXTDIRECTION
 70
     0
  9
$LUNITS
 70
     2
  9
$LUPREC
 70
     4
  9
$SKETCHINC
 40
1.0
  9
$FILLETRAD
 40
10.0
  9
$AUNITS
 70
     0
  9
$AUPREC
 70
     0
  9
$MENU
  1
.
  9
$ELEVATION
 40
0.0
  9
$PELEVATION
 40
0.0
  9
$THICKNESS
 40
0.0
  9
$LIMCHECK
 70
     0
  9
$CHAMFERA
 40
10.0
  9
$CHAMFERB
 40
10.0
  9
$CHAMFERC
 40
20.0
  9
$CHAMFERD
 40
0.0
  9
$SKPOLY
 70
     0
  9
$TDCREATE
 40
2460327.686752859
  9
$TDUCREATE
 40
2460327.311752859
  9
$TDUPDATE
 40
2460327.68675287
  9
$TDUUPDATE
 40
2460327.31175287
  9
$TDINDWG
 40
0.0000000116
  9
$TDUSRTIMER
 40
0.0000000116
  9
$USRTIMER
 70
     1
  9
$ANGBASE
 50
0.0
  9
$ANGDIR
 70
     0
  9
$PDMODE
 70
     0
  9
$PDSIZE
 40
0.0
  9
$PLINEWID
 40
0.0
  9
$SPLFRAME
 70
     0
  9
$SPLINETYPE
 70
     6
  9
$SPLINESEGS
 70
     8
  9
$HANDSEED
  5
38C
  9
$SURFTAB1
 70
     6
  9
$SURFTAB2
 70
     6
  9
$SURFTYPE
 70
     6
  9
$SURFU
 70
     6
  9
$SURFV
 70
     6
  9
$UCSBASE
  2

  9
$UCSNAME
  2

  9
$UCSORG
 10
0.0
 20
0.0
 30
0.0
  9
$UCSXDIR
 10
1.0
 20
0.0
 30
0.0
  9
$UCSYDIR
 10
0.0
 20
1.0
 30
0.0
  9
$UCSORTHOREF
  2

  9
$UCSORTHOVIEW
 70
     0
  9
$UCSORGTOP
 10
0.0
 20
0.0
 30
0.0
  9
$UCSORGBOTTOM
 10
0.0
 20
0.0
 30
0.0
  9
$UCSORGLEFT
 10
0.0
 20
0.0
 30
0.0
  9
$UCSORGRIGHT
 10
0.0
 20
0.0
 30
0.0
  9
$UCSORGFRONT
 10
0.0
 20
0.0
 30
0.0
  9
$UCSORGBACK
 10
0.0
 20
0.0
 30
0.0
  9
$PUCSBASE
  2

  9
$PUCSNAME
  2

  9
$PUCSORG
 10
0.0
 20
0.0
 30
0.0
  9
$PUCSXDIR
 10
1.0
 20
0.0
 30
0.0
  9
$PUCSYDIR
 10
0.0
 20
1.0
 30
0.0
  9
$PUCSORTHOREF
  2

  9
$PUCSORTHOVIEW
 70
     0
  9
$PUCSORGTOP
 10
0.0
 20
0.0
 30
0.0
  9
$PUCSORGBOTTOM
 10
0.0
 20
0.0
 30
0.0
  9
$PUCSORGLEFT
 10
0.0
 20
0.0
 30
0.0
  9
$PUCSORGRIGHT
 10
0.0
 20
0.0
 30
0.0
  9
$PUCSORGFRONT
 10
0.0
 20
0.0
 30
0.0
  9
$PUCSORGBACK
 10
0.0
 20
0.0
 30
0.0
  9
$USERI1
 70
     0
  9
$USERI2
 70
     0
  9
$USERI3
 70
     0
  9
$USERI4
 70
     0
  9
$USERI5
 70
     0
  9
$USERR1
 40
0.0
  9
$USERR2
 40
0.0
  9
$USERR3
 40
0.0
  9
$USERR4
 40
0.0
  9
$USERR5
 40
0.0
  9
$WORLDVIEW
 70
     1
  9
$SHADEDGE
 70
     3
  9
$SHADEDIF
 70
    70
  9
$TILEMODE
 70
     1
  9
$MAXACTVP
 70
    64
  9
$PINSBASE
 10
0.0
 20
0.0
 30
0.0
  9
$PLIMCHECK
 70
     0
  9
$PEXTMIN
 10
1.000000000000000E+20
 20
1.000000000000000E+20
 30
1.000000000000000E+20
  9
$PEXTMAX
 10
-1.000000000000000E+20
 20
-1.000000000000000E+20
 30
-1.000000000000000E+20
  9
$PLIMMIN
 10
0.0
 20
0.0
  9
$PLIMMAX
 10
420.0
 20
297.0
  9
$UNITMODE
 70
     0
  9
$VISRETAIN
 70
     1
  9
$PLINEGEN
 70
     0
  9
$PSLTSCALE
 70
     1
  9
$TREEDEPTH
 70
  3020
  9
$CMLSTYLE
  2
Standard
  9
$CMLJUST
 70
     0
  9
$CMLSCALE
 40
20.0
  9
$PROXYGRAPHICS
 70
     1
  9
$MEASUREMENT
 70
     1
  9
$CELWEIGHT
370
    -1
  9
$ENDCAPS
280
     0
  9
$JOINSTYLE
280
     0
  9
$LWDISPLAY
290
     0
  9
$INSUNITS
 70
     4
  9
$HYPERLINKBASE
  1

  9
$STYLESHEET
  1

  9
$XEDIT
290
     1
  9
$CEPSNTYPE
380
     0
  9
$PSTYLEMODE
290
     1
  9
$FINGERPRINTGUID
  2
{653EA037-E49E-4BAA-AA34-2C554556CE0E}
  9
$VERSIONGUID
  2
{FAEB1C32-E019-11D5-929B-00C0DF256EC4}
  9
$EXTNAMES
290
     1
  9
$PSVPSCALE
 40
0.0
  9
$OLESTARTUP
290
     0
  9
$SORTENTS
280
   127
  9
$INDEXCTL
280
     0
  9
$HIDETEXT
280
     1
  9
$XCLIPFRAME
280
     2
  9
$HALOGAP
280
     0
  9
$OBSCOLOR
 70
   257
  9
$OBSLTYPE
280
     0
  9
$INTERSECTIONDISPLAY
280
     0
  9
$INTERSECTIONCOLOR
 70
   257
  9
$DIMASSOC
280
     2
  9
$PROJECTNAME
  1

  9
$CAMERADISPLAY
290
     0
  9
$LENSLENGTH
 40
50.0
  9
$CAMERAHEIGHT
 40
0.0
  9
$STEPSPERSEC
 40
2.0
  9
$STEPSIZE
 40
6.0
  9
$3DDWFPREC
 40
2.0
  9
$PSOLWIDTH
 40
5.0
  9
$PSOLHEIGHT
 40
80.0
  9
$LOFTANG1
 40
1.570796326794897
  9
$LOFTANG2
 40
1.570796326794897
  9
$LOFTMAG1
 40
0.0
  9
$LOFTMAG2
 40
0.0
  9
$LOFTPARAM
 70
     7
  9
$LOFTNORMALS
280
     1
  9
$LATITUDE
 40
37.795
  9
$LONGITUDE
 40
-122.394
  9
$NORTHDIRECTION
 40
0.0
  9
$TIMEZONE
 70
 -8000
  9
$LIGHTGLYPHDISPLAY
280
     1
  9
$TILEMODELIGHTSYNCH
280
     1
  9
$SOLIDHIST
280
     1
  9
$SHOWHIST
280
     1
  9
$DWFFRAME
280
     2
  9
$DGNFRAME
280
     2
  9
$REALWORLDSCALE
290
     1
  9
$INTERFERECOLOR
 62
   256
  9
$CSHADOW
280
     0
  9
$SHADOWPLANELOCATION
 40
0.0
  0
ENDSEC
  0
SECTION
  2
CLASSES
  0
CLASS
  1
ACDBDICTIONARYWDFLT
  2
AcDbDictionaryWithDefault
  3
ObjectDBX Classes
 90
        0
 91
        4
280
     0
281
     0
  0
CLASS
  1
VISUALSTYLE
  2
AcDbVisualStyle
  3
ObjectDBX Classes
 90
     4095
 91
        4
280
     0
281
     0
  0
CLASS
  1
MATERIAL
  2
AcDbMaterial
  3
ObjectDBX Classes
 90
     1153
 91
        4
280
     0
281
     0
  0
ENDSEC
  0
SECTION
  2
TABLES
  0
TABLE
  2
VPORT
  5
8
330
0
100
AcDbSymbolTable
 70
     1
  0
VPORT
  5
29
330
8
100
AcDbSymbolTableRecord
100
AcDbViewportTableRecord
  2
*Active
 70
     0
 10
0.0
 20
0.0
 11
1.0
 21
1.0
 12
0.0
 22
0.0
 13
0.0
 23
0.0
 14
10.0
 24
10.0
 15
10.0
 25
10.0
 16
0.0
 26
0.0
 36
1.0
 17
0.0
 27
0.0
 37
0.0
 40
9801.0
 41
1.414141414141414
 42
50.0
 43
0.0
 44
0.0
 50
0.0
 51
0.0
 71
     0
 72
 10000
 73
     1
 74
     3
 75
     0
 76
     0
 77
     0
 78
     0
281
     0
 65
     1
110
0.0
120
0.0
130
0.0
111
1.0
121
0.0
131
0.0
112
0.0
122
1.0
132
0.0
 79
     0
146
0.0
 60
     3
 61
     5
292
     1
282
     1
141
0.0
142
0.0
 63
   250
  0
ENDTAB
  0
TABLE
  2
LTYPE
  5
5
330
0
100
AcDbSymbolTable
 70
     5
  0
LTYPE
  5
14
330
5
100
AcDbSymbolTableRecord
100
AcDbLinetypeTableRecord
  2
ByBlock
 70
     0
  3

 72
    65
 73
     0
 40
0.0
  0
LTYPE
  5
15
330
5
100
AcDbSymbolTableRecord
100
AcDbLinetypeTableRecord
  2
ByLayer
 70
     0
  3

 72
    65
 73
     0
 40
0.0
  0
LTYPE
  5
16
330
5
100
AcDbSymbolTableRecord
100
AcDbLinetypeTableRecord
  2
Continuous
 70
     0
  3
Solid line
 72
    65
 73
     0
 40
0.0
  0
LTYPE
  5
3F
330
5
100
AcDbSymbolTableRecord
100
AcDbLinetypeTableRecord
  2
JWW_HOJO
 70
     0
  3
  -   -   -   -   -   -   -   - 
 72
    65
 73
     2
 40
1.693333333333333
 49
-1.27
 74
     0
 49
0.4233333333333333
 74
     0
  0
LTYPE
  5
40
330
5
100
AcDbSymbolTableRecord
100
AcDbLinetypeTableRecord
  2
JWW_DASHED2
 70
     0
  3
--    ----    ----    ----    --
 72
    65
 73
     2
 40
3.386666666666667
 49
1.693333333333333
 74
     0
 49
-1.693333333333333
 74
     0
  0
LTYPE
  5
41
330
5
100
AcDbSymbolTableRecord
100
AcDbLinetypeTableRecord
  2
JWW_CENTER1
 70
     0
  3
-----  --  ----------  --  -----
 72
    65
 73
     4
 40
6.773333333333333
 49
4.233333333333333
 74
     0
 49
-0.8466666666666667
 74
     0
 49
0.8466666666666667
 74
     0
 49
-0.8466666666666667
 74
     0
  0
LTYPE
  5
42
330
5
100
AcDbSymbolTableRecord
100
AcDbLinetypeTableRecord
  2
JWW_DASHED1
 70
     0
  3
-  --  --  --  --  --  --  --  -
 72
    65
 73
     2
 40
1.693333333333333
 49
0.8466666666666667
 74
     0
 49
-0.8466666666666667
 74
     0
  0
ENDTAB
  0
TABLE
  2
LAYER
  5
2
330
0
100
AcDbSymbolTable
 70
    16
  0
LAYER
  5
10
330
2
100
AcDbSymbolTableRecord
100
AcDbLayerTableRecord
  2
0
 70
     0
 62
     7
  6
Continuous
370
    -3
390
F
347
3E
  0
LAYER
  5
43
330
2
100
AcDbSymbolTableRecord
100
AcDbLayerTableRecord
  2
F-0_補助線
 70
     0
 62
     7
  6
Continuous
370
    -3
390
F
347
3E
  0
LAYER
  5
44
330
2
100
AcDbSymbolTableRecord
100
AcDbLayerTableRecord
  2
F-1_枠
 70
     0
 62
     7
  6
Continuous
370
    -3
390
F
347
3E
  0
LAYER
  5
45
330
2
100
AcDbSymbolTableRecord
100
AcDbLayerTableRecord
  2
F-A_文字
 70
     0
 62
     7
  6
Continuous
370
    -3
390
F
347
3E
  0
LAYER
  5
46
330
2
100
AcDbSymbolTableRecord
100
AcDbLayerTableRecord
  2
0-A_文字
 70
     0
 62
     7
  6
Continuous
370
    -3
390
F
347
3E
  0
LAYER
  5
47
330
2
100
AcDbSymbolTableRecord
100
AcDbLayerTableRecord
  2
戸当り
 70
     0
 62
     7
  6
Continuous
370
    -3
390
F
347
3E
  0
LAYER
  5
48
330
2
100
AcDbSymbolTableRecord
100
AcDbLayerTableRecord
  2
0-0_補助線
 70
     0
 62
     7
  6
Continuous
370
    -3
390
F
347
3E
  0
LAYER
  5
49
330
2
100
AcDbSymbolTableRecord
100
AcDbLayerTableRecord
  2
0-B_寸法
 70
     0
 62
     7
  6
Continuous
370
    -3
390
F
347
3E
  0
LAYER
  5
4A
330
2
100
AcDbSymbolTableRecord
100
AcDbLayerTableRecord
  2
0-C_ハッチ
 70
     0
 62
     7
  6
Continuous
370
    -3
390
F
347
3E
  0
LAYER
  5
4B
330
2
100
AcDbSymbolTableRecord
100
AcDbLayerTableRecord
  2
0-4_枠
 70
     0
 62
     7
  6
Continuous
370
    -3
390
F
347
3E
  0
LAYER
  5
4C
330
2
100
AcDbSymbolTableRecord
100
AcDbLayerTableRecord
  2
0-1_通り芯
 70
     0
 62
     7
  6
Continuous
370
    -3
390
F
347
3E
  0
LAYER
  5
4D
330
2
100
AcDbSymbolTableRecord
100
AcDbLayerTableRecord
  2
0-6_扉
 70
     0
 62
     7
  6
Continuous
370
    -3
390
F
347
3E
  0
LAYER
  5
4E
330
2
100
AcDbSymbolTableRecord
100
AcDbLayerTableRecord
  2
0-7_金物
 70
     0
 62
     7
  6
Continuous
370
    -3
390
F
347
3E
  0
LAYER
  5
4F
330
2
100
AcDbSymbolTableRecord
100
AcDbLayerTableRecord
  2
0-3_仕上げ
 70
     0
 62
     7
  6
Continuous
370
    -3
390
F
347
3E
  0
LAYER
  5
50
330
2
100
AcDbSymbolTableRecord
100
AcDbLayerTableRecord
  2
0-E
 70
     0
 62
     7
  6
Continuous
370
    -3
390
F
347
3E
  0
LAYER
  5
51
330
2
100
AcDbSymbolTableRecord
100
AcDbLayerTableRecord
  2
1-E
 70
     0
 62
     7
  6
Continuous
370
    -3
390
F
347
3E
  0
ENDTAB
  0
TABLE
  2
STYLE
  5
3
330
0
100
AcDbSymbolTable
 70
     1
  0
STYLE
  5
11
330
3
100
AcDbSymbolTableRecord
100
AcDbTextStyleTableRecord
  2
Standard
 70
     0
 40
0.0
 41
1.0
 50
0.0
 71
     0
 42
2.5
  3
txt
  4

  0
ENDTAB
  0
TABLE
  2
VIEW
  5
6
330
0
100
AcDbSymbolTable
 70
     0
  0
ENDTAB
  0
TABLE
  2
UCS
  5
7
330
0
100
AcDbSymbolTable
 70
     0
  0
ENDTAB
  0
TABLE
  2
APPID
  5
9
330
0
100
AcDbSymbolTable
 70
     1
  0
APPID
  5
12
330
9
100
AcDbSymbolTableRecord
100
AcDbRegAppTableRecord
  2
ACAD
 70
     0
  0
ENDTAB
  0
TABLE
  2
DIMSTYLE
  5
A
330
0
100
AcDbSymbolTable
 70
     1
100
AcDbDimStyleTable
  0
DIMSTYLE
105
27
330
A
100
AcDbSymbolTableRecord
100
AcDbDimStyleTableRecord
  2
ISO-25
 70
     0
 41
2.5
 42
0.625
 43
3.75
 44
1.25
 73
     0
 74
     0
 77
     1
 78
     8
140
2.5
141
2.5
143
0.03937007874016
147
0.625
171
     3
172
     1
178
     0
271
     2
272
     2
274
     3
278
    44
283
     0
284
     8
340
11
  0
ENDTAB
  0
TABLE
  2
BLOCK_RECORD
  5
1
330
0
100
AcDbSymbolTable
 70
     1
  0
BLOCK_RECORD
  5
1F
330
1
100
AcDbSymbolTableRecord
100
AcDbBlockTableRecord
  2
*Model_Space
340
22
 70
     0
280
     1
281
     0
  0
BLOCK_RECORD
  5
1B
330
1
100
AcDbSymbolTableRecord
100
AcDbBlockTableRecord
  2
*Paper_Space
340
1E
 70
     0
280
     1
281
     0
  0
BLOCK_RECORD
  5
23
330
1
100
AcDbSymbolTableRecord
100
AcDbBlockTableRecord
  2
*Paper_Space0
340
26
 70
     0
280
     1
281
     0
  0
ENDTAB
  0
ENDSEC
  0
SECTION
  2
BLOCKS
  0
BLOCK
  5
20
330
1F
100
AcDbEntity
  8
0
100
AcDbBlockBegin
  2
*Model_Space
 70
     0
 10
0.0
 20
0.0
 30
0.0
  3
*Model_Space
  1

  0
ENDBLK
  5
21
330
1F
100
AcDbEntity
  8
0
100
AcDbBlockEnd
  0
BLOCK
  5
1C
330
1B
100
AcDbEntity
 67
     1
  8
0
100
AcDbBlockBegin
  2
*Paper_Space
 70
     0
 10
0.0
 20
0.0
 30
0.0
  3
*Paper_Space
  1

  0
ENDBLK
  5
1D
330
1B
100
AcDbEntity
 67
     1
  8
0
100
AcDbBlockEnd
  0
BLOCK
  5
24
330
23
100
AcDbEntity
  8
0
100
AcDbBlockBegin
  2
*Paper_Space0
 70
     0
 10
0.0
 20
0.0
 30
0.0
  3
*Paper_Space0
  1

  0
ENDBLK
  5
25
330
23
100
AcDbEntity
  8
0
100
AcDbBlockEnd
  0
ENDSEC
  0
SECTION
  2
ENTITIES
  0
LINE
  5
52
330
1F
100
AcDbEntity
  8
F-0_補助線
  6
JWW_HOJO
 62
   120
370
     5
100
AcDbLine
 10
-6140.081333436769
 20
-4455.0
 30
0.0
 11
-6140.081333436769
 21
4424.999604096284
 31
0.0
  0
LINE
  5
53
330
1F
100
AcDbEntity
  8
F-0_補助線
  6
JWW_HOJO
 62
   120
370
     5
100
AcDbLine
 10
-6140.081333436769
 20
4424.999604096284
 30
0.0
 11
6159.917676803936
 21
4424.999604096284
 31
0.0
  0
LINE
  5
54
330
1F
100
AcDbEntity
  8
F-0_補助線
  6
JWW_HOJO
 62
   120
370
     5
100
AcDbLine
 10
6159.917676803936
 20
4424.999604096284
 30
0.0
 11
6159.917676803936
 21
-4455.0
 31
0.0
  0
LINE
  5
55
330
1F
100
AcDbEntity
  8
F-0_補助線
  6
JWW_HOJO
 62
   120
370
     5
100
AcDbLine
 10
6159.917676803936
 20
-4455.0
 30
0.0
 11
-6140.081333436769
 21
-4455.0
 31
0.0
  0
LINE
  5
56
330
1F
100
AcDbEntity
  8
F-0_補助線
  6
JWW_HOJO
 62
     7
370
     9
100
AcDbLine
 10
1009.918254163524
 20
-3795.000003092998
 30
0.0
 11
1009.918254163524
 21
-4195.000008247994
 31
0.0
  0
LINE
  5
57
330
1F
100
AcDbEntity
  8
F-0_補助線
  6
JWW_HOJO
 62
     7
370
     9
100
AcDbLine
 10
509.9185840832865
 20
-3795.000003092998
 30
0.0
 11
509.9185840832865
 21
-4195.000008247994
 31
0.0
  0
LINE
  5
58
330
1F
100
AcDbEntity
  8
F-1_枠
  6
Continuous
 62
   200
370
    20
100
AcDbLine
 10
5859.917429364118
 20
4174.999769056166
 30
0.0
 11
5859.917429364118
 21
-4205.000164959882
 31
0.0
  0
LINE
  5
59
330
1F
100
AcDbEntity
  8
F-1_枠
  6
Continuous
 62
   200
370
    20
100
AcDbLine
 10
-5840.081317971782
 20
4174.999769056166
 30
0.0
 11
-5840.081317971782
 21
-4205.000164959882
 31
0.0
  0
LINE
  5
5A
330
1F
100
AcDbEntity
  8
F-1_枠
  6
Continuous
 62
   200
370
    20
100
AcDbLine
 10
5859.917429364118
 20
-4205.000002577498
 30
0.0
 11
-5840.081085996952
 21
-4205.000002577498
 31
0.0
  0
LINE
  5
5B
330
1F
100
AcDbEntity
  8
F-1_枠
  6
Continuous
 62
   200
370
    20
100
AcDbLine
 10
-5830.081323642278
 20
4174.999769056166
 30
0.0
 11
-5830.081323642278
 21
-4205.000164959882
 31
0.0
  0
LINE
  5
5C
330
1F
100
AcDbEntity
  8
F-1_枠
  6
Continuous
 62
   200
370
    20
100
AcDbLine
 10
-5835.081309208292
 20
4174.999769056166
 30
0.0
 11
-5835.081309208292
 21
-4205.000164959882
 31
0.0
  0
LINE
  5
5D
330
1F
100
AcDbEntity
  8
F-1_枠
  6
Continuous
 62
   200
370
    20
100
AcDbLine
 10
5854.917165428305
 20
4174.999769056166
 30
0.0
 11
5854.917165428305
 21
-4205.000164959882
 31
0.0
  0
LINE
  5
5E
330
1F
100
AcDbEntity
  8
F-1_枠
  6
Continuous
 62
   200
370
    20
100
AcDbLine
 10
5849.917643811961
 20
4174.999769056166
 30
0.0
 11
5849.917643811961
 21
-4205.000164959882
 31
0.0
  0
LINE
  5
5F
330
1F
100
AcDbEntity
  8
F-1_枠
  6
Continuous
 62
   200
370
    20
100
AcDbLine
 10
5859.917429364118
 20
-4199.999993814004
 30
0.0
 11
-5840.081085996952
 21
-4199.999993814004
 31
0.0
  0
LINE
  5
60
330
1F
100
AcDbEntity
  8
F-1_枠
  6
Continuous
 62
   200
370
    20
100
AcDbLine
 10
5859.917429364118
 20
-4195.000008247994
 30
0.0
 11
-5840.081085996952
 21
-4195.000008247994
 31
0.0
  0
LINE
  5
61
330
1F
100
AcDbEntity
  8
F-1_枠
  6
Continuous
 62
   200
370
    20
100
AcDbLine
 10
4349.91789125178
 20
-3795.000003092998
 30
0.0
 11
4349.91789125178
 21
-4195.000008247994
 31
0.0
  0
LINE
  5
62
330
1F
100
AcDbEntity
  8
F-1_枠
  6
Continuous
 62
   200
370
    20
100
AcDbLine
 10
2849.917396372143
 20
-3795.000003092998
 30
0.0
 11
2849.917396372143
 21
-4195.000008247994
 31
0.0
  0
LINE
  5
63
330
1F
100
AcDbEntity
  8
F-1_枠
  6
Continuous
 62
   200
370
    20
100
AcDbLine
 10
9.918542843317937
 20
-3795.000003092998
 30
0.0
 11
9.918542843317937
 21
-4195.000008247994
 31
0.0
  0
LINE
  5
64
330
1F
100
AcDbEntity
  8
F-1_枠
  6
Continuous
 62
   200
370
    20
100
AcDbLine
 10
9.918542843317937
 20
-3994.999936078046
 30
0.0
 11
5849.917643811961
 21
-3995.005364289155
 31
0.0
  0
LINE
  5
65
330
1F
100
AcDbEntity
  8
F-1_枠
  6
Continuous
 62
   200
370
    20
100
AcDbLine
 10
-5840.081085996952
 20
4174.999769056166
 30
0.0
 11
5859.917429364118
 21
4174.999769056166
 31
0.0
  0
LINE
  5
66
330
1F
100
AcDbEntity
  8
F-1_枠
  6
Continuous
 62
   200
370
    20
100
AcDbLine
 10
-5840.081085996952
 20
4164.999983504013
 30
0.0
 11
5859.917429364118
 21
4164.999983504013
 31
0.0
  0
LINE
  5
67
330
1F
100
AcDbEntity
  8
F-1_枠
  6
Continuous
 62
   200
370
    20
100
AcDbLine
 10
-5840.081085996952
 20
4169.999505120355
 30
0.0
 11
5859.917429364118
 21
4169.999505120355
 31
0.0
  0
LINE
  5
68
330
1F
100
AcDbEntity
  8
F-0_補助線
  6
JWW_HOJO
 62
     7
370
     9
100
AcDbLine
 10
-5830.081323642278
 20
-3994.99993607839
 30
0.0
 11
9.918542843317937
 21
-3994.99993607839
 31
0.0
  0
LINE
  5
69
330
1F
100
AcDbEntity
  8
F-0_補助線
  6
JWW_HOJO
 62
     7
370
     9
100
AcDbLine
 10
-5830.081323642278
 20
-3904.99993607839
 30
0.0
 11
9.918542843317937
 21
-3904.99993607839
 31
0.0
  0
LINE
  5
6A
330
1F
100
AcDbEntity
  8
F-0_補助線
  6
JWW_HOJO
 62
     7
370
     9
100
AcDbLine
 10
-5830.081323642278
 20
-4084.99993607839
 30
0.0
 11
9.918542843317937
 21
-4084.99993607839
 31
0.0
  0
LINE
  5
6B
330
1F
100
AcDbEntity
  8
F-0_補助線
  6
JWW_HOJO
 62
     7
370
     9
100
AcDbLine
 10
9.918408067690052
 20
-4139.999739777983
 30
0.0
 11
5849.917509036333
 21
-4140.005167989091
 31
0.0
  0
LINE
  5
6C
330
1F
100
AcDbEntity
  8
F-0_補助線
  6
JWW_HOJO
 62
     7
370
     9
100
AcDbLine
 10
9.918491721641658
 20
-4049.999739778022
 30
0.0
 11
5849.917592690285
 21
-4050.005167989131
 31
0.0
  0
LINE
  5
6D
330
1F
100
AcDbEntity
  8
F-0_補助線
  6
JWW_HOJO
 62
     7
370
     9
100
AcDbLine
 10
9.918593965362561
 20
-3939.99973721807
 30
0.0
 11
5849.917694934006
 21
-3940.005165429179
 31
0.0
  0
LINE
  5
6E
330
1F
100
AcDbEntity
  8
F-0_補助線
  6
JWW_HOJO
 62
     7
370
     9
100
AcDbLine
 10
9.918677619307346
 20
-3849.999737218109
 30
0.0
 11
5849.917778587951
 21
-3850.005165429218
 31
0.0
  0
LINE
  5
6F
330
1F
100
AcDbEntity
  8
F-0_補助線
  6
JWW_HOJO
 62
     7
370
     9
100
AcDbLine
 10
2939.917396372143
 20
-3795.000003092998
 30
0.0
 11
2939.917396372143
 21
-4195.000008247994
 31
0.0
  0
LINE
  5
70
330
1F
100
AcDbEntity
  8
F-0_補助線
  6
JWW_HOJO
 62
     7
370
     9
100
AcDbLine
 10
99.91854284331794
 20
-3795.000003092998
 30
0.0
 11
99.91854284331794
 21
-4195.000008247994
 31
0.0
  0
LINE
  5
71
330
1F
100
AcDbEntity
  8
F-0_補助線
  6
JWW_HOJO
 62
     7
370
     9
100
AcDbLine
 10
4439.91789125178
 20
-3795.000003092998
 30
0.0
 11
4439.91789125178
 21
-4195.000008247994
 31
0.0
  0
MTEXT
  5
72
330
1F
100
AcDbEntity
  8
F-A_文字
  6
Continuous
 62
     7
370
     0
100
AcDbMText
 10
4439.91789125178
 20
-3887.143854850754
 30
0.0
 40
45.72
 41
240.0
 46
0.0
 71
     7
 72
     1
  1
{\fＭＳ ゴシック|b0|i0|c128|p49;ＤＡＴＥ}
 73
     1
 44
1.0
  0
MTEXT
  5
73
330
1F
100
AcDbEntity
  8
F-A_文字
  6
Continuous
 62
     7
370
     0
100
AcDbMText
 10
4439.91789125178
 20
-4087.143857410839
 30
0.0
 40
45.72
 41
180.0
 46
0.0
 71
     7
 72
     1
  1
{\fＭＳ ゴシック|b0|i0|c128|p49;ＮＯ．}
 73
     1
 44
1.0
  0
MTEXT
  5
74
330
1F
100
AcDbEntity
  8
F-A_文字
  6
Continuous
 62
     7
370
     0
100
AcDbMText
 10
2939.917396372143
 20
-3887.142460617774
 30
0.0
 40
45.72
 41
300.0
 46
0.0
 71
     7
 72
     1
  1
{\fＭＳ ゴシック|b0|i0|c128|p49;ＳＣＡＬＥ}
 73
     1
 44
1.0
  0
MTEXT
  5
75
330
1F
100
AcDbEntity
  8
F-A_文字
  6
Continuous
 62
     7
370
     0
100
AcDbMText
 10
2939.917396372143
 20
-4087.14246317786
 30
0.0
 40
45.72
 41
240.0
 46
0.0
 71
     7
 72
     1
  1
{\fＭＳ ゴシック|b0|i0|c128|p49;ＦＩＬＥ}
 73
     1
 44
1.0
  0
MTEXT
  5
76
330
1F
100
AcDbEntity
  8
F-A_文字
  6
Continuous
 62
     7
370
     0
100
AcDbMText
 10
99.91854284331794
 20
-3887.139820871936
 30
0.0
 40
45.72
 41
180.0
 46
0.0
 71
     7
 72
     1
  1
{\fＭＳ ゴシック|b0|i0|c128|p49;図面名}
 73
     1
 44
1.0
  0
MTEXT
  5
77
330
1F
100
AcDbEntity
  8
F-A_文字
  6
Continuous
 62
     7
370
     0
100
AcDbMText
 10
1604.917396372136
 20
-4164.281754523929
 30
0.0
 40
101.44125
 41
1065.0
 46
0.0
 71
     7
 72
     1
  1
{\fＭＳ ゴシック|b0|i0|c128|p49;ウッドワン・・・}
 73
     1
 44
1.0
  0
MTEXT
  5
78
330
1F
100
AcDbEntity
  8
F-A_文字
  6
Continuous
 62
     7
370
     0
100
AcDbMText
 10
1394.917396372136
 20
-4096.140669266149
 30
0.0
 40
45.72
 41
120.0
 46
0.0
 71
     7
 72
     1
  1
{\fＭＳ ゴシック|b0|i0|c128|p49;株式}
 73
     1
 44
1.0
  0
MTEXT
  5
79
330
1F
100
AcDbEntity
  8
F-A_文字
  6
Continuous
 62
     7
370
     0
100
AcDbMText
 10
1394.917396372136
 20
-4168.140669266187
 30
0.0
 40
45.72
 41
120.0
 46
0.0
 71
     7
 72
     1
  1
{\fＭＳ ゴシック|b0|i0|c128|p49;会社}
 73
     1
 44
1.0
  0
LINE
  5
7A
330
1F
100
AcDbEntity
  8
F-1_枠
  6
Continuous
 62
   200
370
    20
100
AcDbLine
 10
5859.917429364118
 20
-3795.000003092998
 30
0.0
 11
-5840.081085996952
 21
-3795.000003092998
 31
0.0
  0
LINE
  5
7B
330
1F
100
AcDbEntity
  8
F-1_枠
  6
Continuous
 62
   200
370
    20
100
AcDbLine
 10
5859.917429364118
 20
-3790.000017526987
 30
0.0
 11
-5840.081085996952
 21
-3790.000017526987
 31
0.0
  0
LINE
  5
7C
330
1F
100
AcDbEntity
  8
F-0_補助線
  6
JWW_HOJO
 62
     7
370
     9
100
AcDbLine
 10
-5087.628710189612
 20
-3795.000003092999
 30
0.0
 11
-5087.628710189612
 21
-4205.000164959882
 31
0.0
  0
LINE
  5
7D
330
1F
100
AcDbEntity
  8
F-0_補助線
  6
JWW_HOJO
 62
     7
370
     9
100
AcDbLine
 10
-50.08145715668206
 20
-3795.000003092998
 30
0.0
 11
-50.08145715668206
 21
-4195.000008247994
 31
0.0
  0
MTEXT
  5
7E
330
1F
100
AcDbEntity
  8
F-0_補助線
  6
Continuous
 62
     7
370
     0
100
AcDbMText
 10
509.9185840832865
 20
-3946.496666872503
 30
0.0
 40
78.58125
 41
412.5
 46
0.0
 71
     7
 72
     1
  1
{\fＭＳ ゴシック|b0|i0|c128|p49;DOORETUS}
 73
     1
 44
1.0
  0
MTEXT
  5
7F
330
1F
100
AcDbEntity
  8
F-0_補助線
  6
Continuous
 62
     7
370
     0
100
AcDbMText
 10
1110.209427605312
 20
-3946.734791872504
 30
0.0
 40
78.105
 41
615.0
 46
0.0
 71
     7
 72
     1
  1
{\fＭＳ ゴシック|b0|i0|c128|p49;建具納まり図}
 73
     1
 44
1.0
  0
MTEXT
  5
80
330
1F
100
AcDbEntity
  8
F-A_文字
  6
Continuous
 62
     7
370
     9
100
AcDbMText
 10
5096.16770014406
 20
-4147.857012699985
 30
0.0
 40
74.295
 41
97.5
 46
0.0
 71
     7
 72
     1
  1
{\fＭＳ ゴシック|b0|i0|c128|p49;02}
 73
     1
 44
1.0
  0
MTEXT
  5
81
330
1F
100
AcDbEntity
  8
0-A_文字
  6
Continuous
 62
     7
370
     9
100
AcDbMText
 10
4278.667643811961
 20
3554.775383504013
 30
0.0
 40
63.55080000000001
 41
1042.5
 46
0.0
 71
     7
 72
     1
  1
{\fＭＳ ゴシック|b0|i0|c128|p49;上吊軸固定/フリーオープン}
 73
     1
 44
1.0
  0
LINE
  5
82
330
1F
100
AcDbEntity
  8
0-A_文字
  6
Continuous
 62
    92
370
    13
100
AcDbLine
 10
-5659.999495325865
 20
3730.000181455871
 30
0.0
 11
-5659.999495325865
 21
4000.000181455871
 31
0.0
  0
ELLIPSE
  5
83
330
1F
100
AcDbEntity
  8
戸当り
  6
Continuous
 62
    92
370
    13
100
AcDbEllipse
 10
4855.430917458078
 20
2876.053590301512
 30
0.0
 11
11.36181697857171
 21
42.40287823032828
 31
0.0
210
0.0
220
0.0
230
0.9999999999999999
 40
0.6
 41
1.570796326794897
 42
4.71238898038469
  0
LINE
  5
84
330
1F
100
AcDbEntity
  8
戸当り
  6
Continuous
 62
    92
370
    13
100
AcDbLine
 10
4880.872644396272
 20
2869.236500114369
 30
0.0
 11
4829.989190519878
 21
2882.870680488653
 31
0.0
  0
LINE
  5
85
330
1F
100
AcDbEntity
  8
戸当り
  6
Continuous
 62
    92
370
    13
100
AcDbLine
 10
4884.133764364564
 20
2881.40716552561
 30
0.0
 11
4833.25031048817
 21
2895.041345899897
 31
0.0
  0
ELLIPSE
  5
86
330
1F
100
AcDbEntity
  8
戸当り
  6
Continuous
 62
    92
370
    13
100
AcDbEllipse
 10
4879.604310755758
 20
2966.269922279797
 30
0.0
 11
21.86569797210526
 21
81.6038957748525
 31
0.0
210
0.0
220
0.0
230
1.0
 40
0.5
 41
4.340591432030095
 42
8.225779182329084
  0
ELLIPSE
  5
87
330
1F
100
AcDbEntity
  8
戸当り
  6
Continuous
 62
    92
370
    13
100
AcDbEllipse
 10
4878.978687882654
 20
2963.935065931005
 30
0.0
 11
26.49533313827761
 21
98.88192943551533
 31
0.0
210
0.0
220
0.0
230
0.9999999999999999
 40
0.4
 41
3.840308517104466
 42
4.432552034522944
  0
ELLIPSE
  5
88
330
1F
100
AcDbEntity
  8
戸当り
  6
Continuous
 62
    92
370
    13
100
AcDbEllipse
 10
4878.978687882654
 20
2963.935065931005
 30
0.0
 11
26.49533313827761
 21
98.88192943551533
 31
0.0
210
0.0
220
0.0
230
0.9999999999999999
 40
0.4
 41
1.850633272656679
 42
2.442876790075129
  0
ELLIPSE
  5
89
330
1F
100
AcDbEntity
  8
戸当り
  6
Continuous
 62
    92
370
    13
100
AcDbEllipse
 10
4740.316707711373
 20
2838.284846937211
 30
0.0
 11
-7.622927487939132
 21
43.23177007461331
 31
0.0
210
0.0
220
0.0
230
1.0
 40
0.6000000000000001
 41
1.570796326794897
 42
4.71238898038469
  0
LINE
  5
8A
330
1F
100
AcDbEntity
  8
戸当り
  6
Continuous
 62
    92
370
    13
100
AcDbLine
 10
4766.255769756144
 20
2842.858603429975
 30
0.0
 11
4714.377645666606
 21
2833.711090444448
 31
0.0
  0
LINE
  5
8B
330
1F
100
AcDbEntity
  8
戸当り
  6
Continuous
 62
    92
370
    13
100
AcDbLine
 10
4764.067802717541
 20
2855.267181117928
 30
0.0
 11
4712.189678628002
 21
2846.119668132401
 31
0.0
  0
ELLIPSE
  5
8C
330
1F
100
AcDbEntity
  8
戸当り
  6
Continuous
 62
    92
370
    13
100
AcDbEllipse
 10
4724.098172894875
 20
2930.264728582854
 30
0.0
 11
-14.67024424252691
 21
83.19908946199426
 31
0.0
210
0.0
220
0.0
230
1.0
 40
0.5
 41
4.340591432030095
 42
8.225779182329084
  0
ELLIPSE
  5
8D
330
1F
100
AcDbEntity
  8
戸当り
  6
Continuous
 62
    92
370
    13
100
AcDbEllipse
 10
4724.517918944779
 20
2927.884230441198
 30
0.0
 11
-17.7763823922528
 21
100.8148742797557
 31
0.0
210
0.0
220
0.0
230
1.0
 40
0.4000000000000001
 41
3.840308517104466
 42
4.432552034522944
  0
ELLIPSE
  5
8E
330
1F
100
AcDbEntity
  8
戸当り
  6
Continuous
 62
    92
370
    13
100
AcDbEllipse
 10
4724.517918944779
 20
2927.884230441198
 30
0.0
 11
-17.7763823922528
 21
100.8148742797557
 31
0.0
210
0.0
220
0.0
230
1.0
 40
0.4000000000000001
 41
1.850633272656679
 42
2.442876790075129
  0
LINE
  5
8F
330
1F
100
AcDbEntity
  8
0-A_文字
  6
Continuous
 62
    92
370
    13
100
AcDbLine
 10
5369.917643811961
 20
3684.999983504013
 30
0.0
 11
5369.917643811961
 21
2718.999983504014
 31
0.0
  0
LINE
  5
90
330
1F
100
AcDbEntity
  8
0-A_文字
  6
Continuous
 62
    92
370
    13
100
AcDbLine
 10
5369.917643811961
 20
2718.999983504014
 30
0.0
 11
4229.917643811961
 21
2718.999983504014
 31
0.0
  0
LINE
  5
91
330
1F
100
AcDbEntity
  8
0-A_文字
  6
Continuous
 62
    92
370
    13
100
AcDbLine
 10
4229.917643811961
 20
3684.999983504013
 30
0.0
 11
4229.917643811961
 21
2718.999983504014
 31
0.0
  0
LINE
  5
92
330
1F
100
AcDbEntity
  8
0-0_補助線
  6
JWW_HOJO
 62
   120
370
     5
100
AcDbLine
 10
5339.917643811961
 20
3684.999983504013
 30
0.0
 11
5339.917643811961
 21
2718.999983504014
 31
0.0
  0
LINE
  5
93
330
1F
100
AcDbEntity
  8
0-0_補助線
  6
JWW_HOJO
 62
   120
370
     5
100
AcDbLine
 10
4259.917643811961
 20
3684.999983504013
 30
0.0
 11
4259.917643811961
 21
2718.999983504014
 31
0.0
  0
LINE
  5
94
330
1F
100
AcDbEntity
  8
0-0_補助線
  6
JWW_HOJO
 62
   120
370
     5
100
AcDbLine
 10
4799.917643811961
 20
3684.999983504013
 30
0.0
 11
4799.917643811961
 21
2718.999983504014
 31
0.0
  0
CIRCLE
  5
95
330
1F
100
AcDbEntity
  8
0-0_補助線
  6
JWW_HOJO
 62
   120
370
     5
100
AcDbCircle
 10
5159.917643811961
 20
3385.50401118275
 30
0.0
 40
240.0
  0
CIRCLE
  5
96
330
1F
100
AcDbEntity
  8
0-0_補助線
  6
JWW_HOJO
 62
   120
370
     5
100
AcDbCircle
 10
4799.917643811961
 20
3385.50401118275
 30
0.0
 40
240.0
  0
CIRCLE
  5
97
330
1F
100
AcDbEntity
  8
0-0_補助線
  6
JWW_HOJO
 62
   120
370
     5
100
AcDbCircle
 10
4444.047372024825
 20
3385.50401118275
 30
0.0
 40
240.0
  0
LINE
  5
98
330
1F
100
AcDbEntity
  8
戸当り
  6
Continuous
 62
    40
370
    15
100
AcDbLine
 10
4502.034214636565
 20
3153.681812873373
 30
0.0
 11
4564.150785461171
 21
3385.50401118275
 31
0.0
  0
LINE
  5
99
330
1F
100
AcDbEntity
  8
戸当り
  6
Continuous
 62
    40
370
    15
100
AcDbLine
 10
4502.034214636565
 20
3153.681812873373
 30
0.0
 11
4439.917643811961
 21
3385.50401118275
 31
0.0
  0
LINE
  5
9A
330
1F
100
AcDbEntity
  8
戸当り
  6
Continuous
 62
    40
370
    15
100
AcDbLine
 10
5035.684502162751
 20
3385.50401118275
 30
0.0
 11
5097.801072987355
 21
3153.681812873373
 31
0.0
  0
LINE
  5
9B
330
1F
100
AcDbEntity
  8
戸当り
  6
Continuous
 62
    40
370
    15
100
AcDbLine
 10
5159.917643811961
 20
3385.50401118275
 30
0.0
 11
5097.801072987355
 21
3153.681812873373
 31
0.0
  0
LINE
  5
9C
330
1F
100
AcDbEntity
  8
戸当り
  6
JWW_DASHED2
 62
     7
370
     9
100
AcDbLine
 10
5159.917643811961
 20
3385.50401118275
 30
0.0
 11
4439.917643811961
 21
3385.50401118275
 31
0.0
  0
LINE
  5
9D
330
1F
100
AcDbEntity
  8
戸当り
  6
Continuous
 62
    40
370
    15
100
AcDbLine
 10
5159.917643811961
 20
3439.504011182749
 30
0.0
 11
5159.917643811961
 21
3385.50401118275
 31
0.0
  0
LINE
  5
9E
330
1F
100
AcDbEntity
  8
戸当り
  6
Continuous
 62
    40
370
    15
100
AcDbLine
 10
5159.917643811961
 20
3439.504011182749
 30
0.0
 11
5339.917643811961
 21
3439.504011182749
 31
0.0
  0
LINE
  5
9F
330
1F
100
AcDbEntity
  8
戸当り
  6
Continuous
 62
    40
370
    15
100
AcDbLine
 10
5159.917643811961
 20
3385.50401118275
 30
0.0
 11
5339.917643811961
 21
3385.50401118275
 31
0.0
  0
LINE
  5
A0
330
1F
100
AcDbEntity
  8
戸当り
  6
Continuous
 62
    40
370
    15
100
AcDbLine
 10
4439.917643811961
 20
3439.504011182749
 30
0.0
 11
4439.917643811961
 21
3385.50401118275
 31
0.0
  0
LINE
  5
A1
330
1F
100
AcDbEntity
  8
戸当り
  6
Continuous
 62
    40
370
    15
100
AcDbLine
 10
4439.917643811961
 20
3439.504011182749
 30
0.0
 11
4259.917643811961
 21
3439.504011182749
 31
0.0
  0
LINE
  5
A2
330
1F
100
AcDbEntity
  8
戸当り
  6
Continuous
 62
    40
370
    15
100
AcDbLine
 10
4439.917643811961
 20
3385.50401118275
 30
0.0
 11
4259.917643811961
 21
3385.50401118275
 31
0.0
  0
LINE
  5
A3
330
1F
100
AcDbEntity
  8
0-A_文字
  6
Continuous
 62
    92
370
    13
100
AcDbLine
 10
5369.917643811961
 20
3540.999983504012
 30
0.0
 11
4229.917643811961
 21
3540.999983504012
 31
0.0
  0
LINE
  5
A4
330
1F
100
AcDbEntity
  8
0-A_文字
  6
Continuous
 62
    92
370
    13
100
AcDbLine
 10
5369.917643811961
 20
3684.999983504013
 30
0.0
 11
4229.917643811961
 21
3684.999983504013
 31
0.0
  0
MTEXT
  5
A5
330
1F
100
AcDbEntity
  8
F-A_文字
  6
Continuous
 62
     7
370
     0
100
AcDbMText
 10
3689.917643811962
 20
-3946.903115907308
 30
0.0
 40
76.19999999999999
 41
150.0
 46
0.0
 71
     7
 72
     1
  1
{\fＭＳ ゴシック|b0|i0|c128|p49;1/5}
 73
     1
 44
1.0
  0
MTEXT
  5
A6
330
1F
100
AcDbEntity
  8
0-A_文字
  6
Continuous
 62
    92
370
    13
100
AcDbMText
 10
-5592.499495325865
 20
3758.994391982187
 30
0.0
 40
147.9884210526316
 41
3690.0
 46
0.0
 71
     7
 72
     1
  1
{\fＭＳ ゴシック|b0|i0|c128|p49;クローゼットドア　調整枠　間口４．５尺}
 73
     1
 44
1.0
  0
LINE
  5
A7
330
1F
100
AcDbEntity
  8
0-A_文字
  6
Continuous
 62
    92
370
    13
100
AcDbLine
 10
-5659.999495325865
 20
3730.000181455871
 30
0.0
 11
-1828.571428571428
 21
3730.000181455871
 31
0.0
  0
LINE
  5
A8
330
1F
100
AcDbEntity
  8
0-A_文字
  6
Continuous
 62
    92
370
    13
100
AcDbLine
 10
-5659.999495325865
 20
4000.000181455871
 30
0.0
 11
-1828.571428571428
 21
4000.000181455871
 31
0.0
  0
LINE
  5
A9
330
1F
100
AcDbEntity
  8
0-A_文字
  6
Continuous
 62
    92
370
    13
100
AcDbLine
 10
-1828.571428571428
 20
3730.000181455871
 30
0.0
 11
-1828.571428571428
 21
4000.000181455871
 31
0.0
  0
MTEXT
  5
AA
330
1F
100
AcDbEntity
  8
F-A_文字
  6
Continuous
 62
     7
370
     0
100
AcDbMText
 10
-5080.081323642278
 20
-4045.064631200342
 30
0.0
 40
79.87060975609751
 41
4297.5
 46
0.0
 71
     7
 72
     1
  1
{\fＭＳ ゴシック|b0|i0|c128|p49;ドレタス　クローゼットドア  調整枠　３方枠＋床直付けレール　枠外H2,038　枠外W1,189}
 73
     1
 44
1.0
  0
MTEXT
  5
AB
330
1F
100
AcDbEntity
  8
0-A_文字
  6
Continuous
 62
     7
370
     9
100
AcDbMText
 10
-2762.08125920483
 20
3310.35519257956
 30
0.0
 40
100.5840000000001
 41
660.0000000000009
 46
0.0
 71
     7
 72
     1
  1
{\fＭＳ ゴシック|b0|i0|c128|p49;■横断面図}
 73
     1
 44
1.0
  0
MTEXT
  5
AC
330
1F
100
AcDbEntity
  8
0-B_寸法
  6
Continuous
 62
     7
370
   211
100
AcDbMText
 10
-320.0814571566863
 20
1087.664295403167
 30
0.0
 40
91.44
 41
660.0
 46
0.0
 71
     7
 72
     1
  1
{\fＭＳ ゴシック|b0|i0|c128|p49;枠外＝1,189}
 73
     1
 44
1.0
  0
LINE
  5
AD
330
1F
100
AcDbEntity
  8
0-B_寸法
  6
Continuous
 62
   120
370
     5
100
AcDbLine
 10
-1552.880129734935
 20
2592.94622048498
 30
0.0
 11
-1552.880129734935
 21
2130.94622048498
 31
0.0
  0
LINE
  5
AE
330
1F
100
AcDbEntity
  8
0-B_寸法
  6
Continuous
 62
   120
370
     5
100
AcDbLine
 10
-1552.880129734935
 20
2130.94622048498
 30
0.0
 11
-1671.655698516608
 21
2130.94622048498
 31
0.0
  0
LWPOLYLINE
  5
AF
330
1F
100
AcDbEntity
  8
0-B_寸法
  6
Continuous
 62
     7
370
     9
100
AcDbPolyline
 90
        4
 70
     1
 43
3.0
 10
-1551.380129734935
 20
2130.94622048498
 42
0.4142135623731
 10
-1552.880129734935
 20
2132.44622048498
 42
0.4142135623731
 10
-1554.380129734935
 20
2130.94622048498
 42
0.4142135623731
 10
-1552.880129734935
 20
2129.44622048498
 42
0.4142135623731
  0
LINE
  5
B0
330
1F
100
AcDbEntity
  8
0-B_寸法
  6
Continuous
 62
   120
370
     5
100
AcDbLine
 10
-1552.880129734935
 20
2592.94622048498
 30
0.0
 11
-1671.655698516608
 21
2592.94622048498
 31
0.0
  0
LWPOLYLINE
  5
B1
330
1F
100
AcDbEntity
  8
0-B_寸法
  6
Continuous
 62
     7
370
     9
100
AcDbPolyline
 90
        4
 70
     1
 43
3.0
 10
-1551.380129734935
 20
2592.94622048498
 42
0.4142135623731
 10
-1552.880129734935
 20
2594.44622048498
 42
0.4142135623731
 10
-1554.380129734935
 20
2592.94622048498
 42
0.4142135623731
 10
-1552.880129734935
 20
2591.44622048498
 42
0.4142135623731
  0
LINE
  5
B2
330
1F
100
AcDbEntity
  8
0-C_ハッチ
  6
Continuous
 62
   120
370
     5
100
AcDbLine
 10
2001.918542843322
 20
2536.493705726263
 30
0.0
 11
2058.371057602026
 21
2592.946220484966
 31
0.0
  0
LINE
  5
B3
330
1F
100
AcDbEntity
  8
0-C_ハッチ
  6
Continuous
 62
   120
370
     5
100
AcDbLine
 10
2011.390990946617
 20
2486.569184209856
 30
0.0
 11
2117.768027221728
 21
2592.946220484968
 31
0.0
  0
LINE
  5
B4
330
1F
100
AcDbEntity
  8
0-C_ハッチ
  6
Continuous
 62
   120
370
     5
100
AcDbLine
 10
2027.037853280996
 20
2442.819076924588
 30
0.0
 11
2177.164996841387
 21
2592.94622048498
 31
0.0
  0
LINE
  5
B5
330
1F
100
AcDbEntity
  8
0-C_ハッチ
  6
Continuous
 62
   120
370
     5
100
AcDbLine
 10
2036.364197151276
 20
2392.74845117522
 30
0.0
 11
2181.918542843317
 21
2538.302796867262
 31
0.0
  0
LINE
  5
B6
330
1F
100
AcDbEntity
  8
0-C_ハッチ
  6
Continuous
 62
   120
370
     5
100
AcDbLine
 10
2036.601884221502
 20
2333.589168625744
 30
0.0
 11
2181.918542843317
 21
2478.90582724756
 31
0.0
  0
LINE
  5
B7
330
1F
100
AcDbEntity
  8
0-C_ハッチ
  6
Continuous
 62
   120
370
     5
100
AcDbLine
 10
2019.331203474037
 20
2256.921518258632
 30
0.0
 11
2181.918542843321
 21
2419.508857627917
 31
0.0
  0
LINE
  5
B8
330
1F
100
AcDbEntity
  8
0-C_ハッチ
  6
Continuous
 62
   120
370
     5
100
AcDbLine
 10
2001.918542843324
 20
2180.111888008218
 30
0.0
 11
2181.918542843321
 21
2360.111888008215
 31
0.0
  0
LINE
  5
B9
330
1F
100
AcDbEntity
  8
0-C_ハッチ
  6
Continuous
 62
   120
370
     5
100
AcDbLine
 10
2072.149844939731
 20
2190.946220484977
 30
0.0
 11
2181.918542843321
 21
2300.714918388568
 31
0.0
  0
LINE
  5
BA
330
1F
100
AcDbEntity
  8
0-C_ハッチ
  6
Continuous
 62
   120
370
     5
100
AcDbLine
 10
2012.149844939731
 20
2130.946220484977
 30
0.0
 11
2061.918542843317
 21
2180.714918388564
 31
0.0
  0
LINE
  5
BB
330
1F
100
AcDbEntity
  8
0-C_ハッチ
  6
Continuous
 62
   120
370
     5
100
AcDbLine
 10
2115.918542843298
 20
2175.317948768897
 30
0.0
 11
2181.918542843314
 21
2241.317948768912
 31
0.0
  0
LINE
  5
BC
330
1F
100
AcDbEntity
  8
0-C_ハッチ
  6
Continuous
 62
   120
370
     5
100
AcDbLine
 10
2172.94378417907
 20
2172.946220484966
 30
0.0
 11
2181.918542843329
 21
2181.920979149227
 31
0.0
  0
LINE
  5
BD
330
1F
100
AcDbEntity
  8
0-C_ハッチ
  6
Continuous
 62
   120
370
     5
100
AcDbLine
 10
2130.943784179084
 20
2130.946220484981
 30
0.0
 11
2151.918542843317
 21
2151.920979149215
 31
0.0
  0
LINE
  5
BE
330
1F
100
AcDbEntity
  8
0-4_枠
  6
Continuous
 62
    92
370
    13
100
AcDbLine
 10
2181.918542843314
 20
2592.94622048498
 30
0.0
 11
2001.918542843314
 21
2592.94622048498
 31
0.0
  0
LINE
  5
BF
330
1F
100
AcDbEntity
  8
0-4_枠
  6
Continuous
 62
    92
370
    13
100
AcDbLine
 10
2001.918542843314
 20
2505.94514659615
 30
0.0
 11
2001.918542843314
 21
2592.94622048498
 31
0.0
  0
LINE
  5
C0
330
1F
100
AcDbEntity
  8
0-4_枠
  6
Continuous
 62
    92
370
    13
100
AcDbLine
 10
2181.918542843314
 20
2172.94622048498
 30
0.0
 11
2181.918542843314
 21
2592.94622048498
 31
0.0
  0
LINE
  5
C1
330
1F
100
AcDbEntity
  8
0-4_枠
  6
Continuous
 62
    92
370
    13
100
AcDbLine
 10
2001.918542843314
 20
2130.94622048498
 30
0.0
 11
2001.918542843314
 21
2217.945146596151
 31
0.0
  0
LINE
  5
C2
330
1F
100
AcDbEntity
  8
0-4_枠
  6
Continuous
 62
    92
370
    13
100
AcDbLine
 10
2046.506499876191
 20
2130.94622048498
 30
0.0
 11
2001.918542843314
 21
2130.94622048498
 31
0.0
  0
LINE
  5
C3
330
1F
100
AcDbEntity
  8
0-4_枠
  6
Continuous
 62
    92
370
    13
100
AcDbLine
 10
2061.918542843314
 20
2130.94622048498
 30
0.0
 11
2046.506499876191
 21
2130.94622048498
 31
0.0
  0
LINE
  5
C4
330
1F
100
AcDbEntity
  8
0-4_枠
  6
Continuous
 62
    92
370
    13
100
AcDbLine
 10
2061.918542843314
 20
2130.94622048498
 30
0.0
 11
2061.918542843314
 21
2190.94622048498
 31
0.0
  0
LINE
  5
C5
330
1F
100
AcDbEntity
  8
0-4_枠
  6
Continuous
 62
    92
370
    13
100
AcDbLine
 10
2151.918542843314
 20
2130.94622048498
 30
0.0
 11
2115.918542843314
 21
2130.94622048498
 31
0.0
  0
LINE
  5
C6
330
1F
100
AcDbEntity
  8
0-4_枠
  6
Continuous
 62
    92
370
    13
100
AcDbLine
 10
2115.918542843314
 20
2130.94622048498
 30
0.0
 11
2115.918542843314
 21
2190.94622048498
 31
0.0
  0
LINE
  5
C7
330
1F
100
AcDbEntity
  8
0-4_枠
  6
Continuous
 62
    92
370
    13
100
AcDbLine
 10
2151.918542843314
 20
2130.94622048498
 30
0.0
 11
2151.918542843314
 21
2172.94622048498
 31
0.0
  0
LINE
  5
C8
330
1F
100
AcDbEntity
  8
0-4_枠
  6
Continuous
 62
    92
370
    13
100
AcDbLine
 10
2181.918542843314
 20
2172.94622048498
 30
0.0
 11
2151.918542843314
 21
2172.94622048498
 31
0.0
  0
LINE
  5
C9
330
1F
100
AcDbEntity
  8
0-4_枠
  6
Continuous
 62
    92
370
    13
100
AcDbLine
 10
2115.918542843314
 20
2190.94622048498
 30
0.0
 11
2061.918542843314
 21
2190.94622048498
 31
0.0
  0
ARC
  5
CA
330
1F
100
AcDbEntity
  8
0-4_枠
  6
Continuous
 62
    92
370
    13
100
AcDbCircle
 10
1731.918542843312
 20
2361.945146596151
 30
0.0
 40
306.0000000000022
100
AcDbArc
 50
331.9275130641473
 51
28.07248693585271
  0
LINE
  5
CB
330
1F
100
AcDbEntity
  8
0-C_ハッチ
  6
Continuous
 62
   120
370
     5
100
AcDbLine
 10
-2002.621222725849
 20
2130.94622048498
 30
0.0
 11
-1982.081457156692
 21
2151.485986054136
 31
0.0
  0
LINE
  5
CC
330
1F
100
AcDbEntity
  8
0-C_ハッチ
  6
Continuous
 62
   120
370
     5
100
AcDbLine
 10
-2042.081457156687
 20
2150.882955673789
 30
0.0
 11
-1982.081457156688
 21
2210.882955673787
 31
0.0
  0
LINE
  5
CD
330
1F
100
AcDbEntity
  8
0-C_ハッチ
  6
Continuous
 62
   120
370
     5
100
AcDbLine
 10
-2121.415161965198
 20
2130.94622048498
 30
0.0
 11
-2096.081457156688
 21
2156.279925293492
 31
0.0
  0
LINE
  5
CE
330
1F
100
AcDbEntity
  8
0-C_ハッチ
  6
Continuous
 62
   120
370
     5
100
AcDbLine
 10
-2061.415161965198
 20
2190.94622048498
 30
0.0
 11
-1998.396447750562
 21
2253.964934699616
 31
0.0
  0
LINE
  5
CF
330
1F
100
AcDbEntity
  8
0-C_ハッチ
  6
Continuous
 62
   120
370
     5
100
AcDbLine
 10
-2138.812131584846
 20
2172.94622048498
 30
0.0
 11
-2011.748061293052
 21
2300.010290776772
 31
0.0
  0
LINE
  5
D0
330
1F
100
AcDbEntity
  8
0-4_枠
  6
Continuous
 62
    92
370
    13
100
AcDbLine
 10
-2162.081457156687
 20
2592.94622048498
 30
0.0
 11
-1982.081457156687
 21
2592.94622048498
 31
0.0
  0
LINE
  5
D1
330
1F
100
AcDbEntity
  8
0-4_枠
  6
Continuous
 62
    92
370
    13
100
AcDbLine
 10
-1982.081457156687
 20
2505.94514659615
 30
0.0
 11
-1982.081457156687
 21
2592.94622048498
 31
0.0
  0
LINE
  5
D2
330
1F
100
AcDbEntity
  8
0-C_ハッチ
  6
Continuous
 62
   120
370
     5
100
AcDbLine
 10
-2162.081457156685
 20
2506.058712631188
 30
0.0
 11
-2075.193949302893
 21
2592.94622048498
 31
0.0
  0
LINE
  5
D3
330
1F
100
AcDbEntity
  8
0-C_ハッチ
  6
Continuous
 62
   120
370
     5
100
AcDbLine
 10
-2162.081457156696
 20
2446.661743011474
 30
0.0
 11
-2015.796979683191
 21
2592.94622048498
 31
0.0
  0
LINE
  5
D4
330
1F
100
AcDbEntity
  8
0-C_ハッチ
  6
Continuous
 62
   120
370
     5
100
AcDbLine
 10
-2162.081457156702
 20
2565.455682250818
 30
0.0
 11
-2134.59091892254
 21
2592.94622048498
 31
0.0
  0
LINE
  5
D5
330
1F
100
AcDbEntity
  8
0-4_枠
  6
Continuous
 62
    92
370
    13
100
AcDbLine
 10
-2162.081457156687
 20
2172.94622048498
 30
0.0
 11
-2162.081457156687
 21
2592.94622048498
 31
0.0
  0
LINE
  5
D6
330
1F
100
AcDbEntity
  8
0-4_枠
  6
Continuous
 62
    92
370
    13
100
AcDbLine
 10
-1982.081457156687
 20
2130.94622048498
 30
0.0
 11
-1982.081457156687
 21
2217.945146596151
 31
0.0
  0
LINE
  5
D7
330
1F
100
AcDbEntity
  8
0-4_枠
  6
Continuous
 62
    92
370
    13
100
AcDbLine
 10
-2026.669414189564
 20
2130.94622048498
 30
0.0
 11
-1982.081457156687
 21
2130.94622048498
 31
0.0
  0
LINE
  5
D8
330
1F
100
AcDbEntity
  8
0-4_枠
  6
Continuous
 62
    92
370
    13
100
AcDbLine
 10
-2042.081457156687
 20
2130.94622048498
 30
0.0
 11
-2026.669414189564
 21
2130.94622048498
 31
0.0
  0
LINE
  5
D9
330
1F
100
AcDbEntity
  8
0-4_枠
  6
Continuous
 62
    92
370
    13
100
AcDbLine
 10
-2042.081457156687
 20
2130.94622048498
 30
0.0
 11
-2042.081457156687
 21
2190.94622048498
 31
0.0
  0
LINE
  5
DA
330
1F
100
AcDbEntity
  8
0-4_枠
  6
Continuous
 62
    92
370
    13
100
AcDbLine
 10
-2132.081457156687
 20
2130.94622048498
 30
0.0
 11
-2096.081457156688
 21
2130.94622048498
 31
0.0
  0
LINE
  5
DB
330
1F
100
AcDbEntity
  8
0-4_枠
  6
Continuous
 62
    92
370
    13
100
AcDbLine
 10
-2096.081457156688
 20
2130.94622048498
 30
0.0
 11
-2096.081457156688
 21
2190.94622048498
 31
0.0
  0
LINE
  5
DC
330
1F
100
AcDbEntity
  8
0-4_枠
  6
Continuous
 62
    92
370
    13
100
AcDbLine
 10
-2132.081457156687
 20
2130.94622048498
 30
0.0
 11
-2132.081457156687
 21
2172.94622048498
 31
0.0
  0
LINE
  5
DD
330
1F
100
AcDbEntity
  8
0-4_枠
  6
Continuous
 62
    92
370
    13
100
AcDbLine
 10
-2162.081457156687
 20
2172.94622048498
 30
0.0
 11
-2132.081457156687
 21
2172.94622048498
 31
0.0
  0
LINE
  5
DE
330
1F
100
AcDbEntity
  8
0-4_枠
  6
Continuous
 62
    92
370
    13
100
AcDbLine
 10
-2096.081457156688
 20
2190.94622048498
 30
0.0
 11
-2042.081457156687
 21
2190.94622048498
 31
0.0
  0
ARC
  5
DF
330
1F
100
AcDbEntity
  8
0-4_枠
  6
Continuous
 62
    92
370
    13
100
AcDbCircle
 10
-1712.081457156685
 20
2361.945146596151
 30
0.0
 40
306.0000000000022
100
AcDbArc
 50
151.9275130641473
 51
208.0724869358527
  0
LINE
  5
E0
330
1F
100
AcDbEntity
  8
0-C_ハッチ
  6
Continuous
 62
   120
370
     5
100
AcDbLine
 10
-2162.081457156682
 20
2209.073864532847
 30
0.0
 11
-2017.956436377859
 21
2353.198885311667
 31
0.0
  0
LINE
  5
E1
330
1F
100
AcDbEntity
  8
0-C_ハッチ
  6
Continuous
 62
   120
370
     5
100
AcDbLine
 10
-2162.081457156685
 20
2268.470834152488
 30
0.0
 11
-2012.983440397439
 21
2417.568850911734
 31
0.0
  0
LINE
  5
E2
330
1F
100
AcDbEntity
  8
0-C_ハッチ
  6
Continuous
 62
   120
370
     5
100
AcDbLine
 10
-2162.081457156691
 20
2327.86780377213
 30
0.0
 11
-1982.081457156698
 21
2507.867803772122
 31
0.0
  0
LINE
  5
E3
330
1F
100
AcDbEntity
  8
0-C_ハッチ
  6
Continuous
 62
   120
370
     5
100
AcDbLine
 10
-2162.081457156682
 20
2387.264773391841
 30
0.0
 11
-1982.081457156685
 21
2567.264773391837
 31
0.0
  0
LINE
  5
E4
330
1F
100
AcDbEntity
  8
0-0_補助線
  6
JWW_HOJO
 62
   120
370
     5
100
AcDbLine
 10
2781.91834489146
 20
2961.945146596151
 30
0.0
 11
-2762.081259204829
 21
2961.945146596151
 31
0.0
  0
LINE
  5
E5
330
1F
100
AcDbEntity
  8
0-0_補助線
  6
JWW_HOJO
 62
   120
370
     5
100
AcDbLine
 10
2781.91834489146
 20
1986.944295403167
 30
0.0
 11
-2762.081259204829
 21
1986.944295403167
 31
0.0
  0
LINE
  5
E6
330
1F
100
AcDbEntity
  8
0-B_寸法
  6
Continuous
 62
   120
370
     5
100
AcDbLine
 10
2181.918542843314
 20
1266.944295403167
 30
0.0
 11
2181.918542843314
 21
1806.944295403167
 31
0.0
  0
LINE
  5
E7
330
1F
100
AcDbEntity
  8
0-B_寸法
  6
Continuous
 62
   120
370
     5
100
AcDbLine
 10
-2162.081457156687
 20
1266.944295403167
 30
0.0
 11
-2162.081457156687
 21
1806.944295403167
 31
0.0
  0
MTEXT
  5
E8
330
1F
100
AcDbEntity
  8
0-B_寸法
  6
Continuous
 62
     7
370
   211
100
AcDbMText
 10
2031.918542843314
 20
1267.664295403167
 30
0.0
 40
91.43999999999967
 41
119.9999999999996
 46
0.0
 71
     7
 72
     1
  1
{\fＭＳ ゴシック|b0|i0|c128|p49;30}
 73
     1
 44
1.0
  0
MTEXT
  5
E9
330
1F
100
AcDbEntity
  8
0-B_寸法
  6
Continuous
 62
     7
370
   211
100
AcDbMText
 10
-320.0814571566863
 20
1267.664295403168
 30
0.0
 40
91.44
 41
660.0
 46
0.0
 71
     7
 72
     1
  1
{\fＭＳ ゴシック|b0|i0|c128|p49;枠内＝1,129}
 73
     1
 44
1.0
  0
MTEXT
  5
EA
330
1F
100
AcDbEntity
  8
0-B_寸法
  6
Continuous
 62
     7
370
   211
100
AcDbMText
 10
-2132.081457156688
 20
1267.664295403168
 30
0.0
 40
91.4400000000013
 41
120.0000000000017
 46
0.0
 71
     7
 72
     1
  1
{\fＭＳ ゴシック|b0|i0|c128|p49;30}
 73
     1
 44
1.0
  0
MTEXT
  5
EB
330
1F
100
AcDbEntity
  8
0-B_寸法
  6
Continuous
 62
     7
370
   211
100
AcDbMText
 10
566.4185428433157
 20
1447.664295403168
 30
0.0
 40
91.44000000000001
 41
900.0
 46
0.0
 71
     7
 72
     1
  1
{\fＭＳ ゴシック|b0|i0|c128|p49;折戸：ＤＷ＝566}
 73
     1
 44
1.0
  0
MTEXT
  5
EC
330
1F
100
AcDbEntity
  8
0-B_寸法
  6
Continuous
 62
     7
370
   211
100
AcDbMText
 10
39.91854284331538
 20
1447.664295403165
 30
0.0
 40
91.4399999999948
 41
59.99999999999659
 46
0.0
 71
     7
 72
     1
  1
{\fＭＳ ゴシック|b0|i0|c128|p49;2}
 73
     1
 44
1.0
  0
MTEXT
  5
ED
330
1F
100
AcDbEntity
  8
0-B_寸法
  6
Continuous
 62
     7
370
   211
100
AcDbMText
 10
-1446.581457156688
 20
1447.664295403168
 30
0.0
 40
91.44000000000001
 41
900.0
 46
0.0
 71
     7
 72
     1
  1
{\fＭＳ ゴシック|b0|i0|c128|p49;折戸：ＤＷ＝566}
 73
     1
 44
1.0
  0
MTEXT
  5
EE
330
1F
100
AcDbEntity
  8
0-B_寸法
  6
Continuous
 62
     7
370
   211
100
AcDbMText
 10
1188.168542843316
 20
1627.664295403167
 30
0.0
 40
91.43999999999983
 41
659.9999999999987
 46
0.0
 71
     7
 72
     1
  1
{\fＭＳ ゴシック|b0|i0|c128|p49;ＤＷ＝282.5}
 73
     1
 44
1.0
  0
MTEXT
  5
EF
330
1F
100
AcDbEntity
  8
0-B_寸法
  6
Continuous
 62
     7
370
   211
100
AcDbMText
 10
184.6685428433133
 20
1627.664295403168
 30
0.0
 40
91.44000000000013
 41
660.0000000000009
 46
0.0
 71
     7
 72
     1
  1
{\fＭＳ ゴシック|b0|i0|c128|p49;ＤＷ＝282.5}
 73
     1
 44
1.0
  0
MTEXT
  5
F0
330
1F
100
AcDbEntity
  8
0-B_寸法
  6
Continuous
 62
     7
370
   211
100
AcDbMText
 10
-824.8314571566877
 20
1627.664295403167
 30
0.0
 40
91.43999999999966
 41
659.9999999999975
 46
0.0
 71
     7
 72
     1
  1
{\fＭＳ ゴシック|b0|i0|c128|p49;ＤＷ＝282.5}
 73
     1
 44
1.0
  0
MTEXT
  5
F1
330
1F
100
AcDbEntity
  8
0-B_寸法
  6
Continuous
 62
     7
370
   211
100
AcDbMText
 10
-1828.331457156689
 20
1627.664295403168
 30
0.0
 40
91.44000000000013
 41
660.0000000000009
 46
0.0
 71
     7
 72
     1
  1
{\fＭＳ ゴシック|b0|i0|c128|p49;ＤＷ＝282.5}
 73
     1
 44
1.0
  0
LWPOLYLINE
  5
F2
330
1F
100
AcDbEntity
  8
0-B_寸法
  6
Continuous
 62
     7
370
     9
100
AcDbPolyline
 90
        4
 70
     1
 43
3.0
 10
2018.418542843317
 20
1446.944295403167
 42
0.4142135623731
 10
2016.918542843317
 20
1448.444295403167
 42
0.4142135623731
 10
2015.418542843317
 20
1446.944295403167
 42
0.4142135623731
 10
2016.918542843317
 20
1445.444295403167
 42
0.4142135623731
  0
LINE
  5
F3
330
1F
100
AcDbEntity
  8
0-B_寸法
  6
Continuous
 62
   120
370
     5
100
AcDbLine
 10
15.91854284331248
 20
1446.944295403167
 30
0.0
 11
2016.918542843317
 21
1446.944295403167
 31
0.0
  0
LWPOLYLINE
  5
F4
330
1F
100
AcDbEntity
  8
0-B_寸法
  6
Continuous
 62
     7
370
     9
100
AcDbPolyline
 90
        4
 70
     1
 43
3.0
 10
17.41854284331248
 20
1446.944295403167
 42
0.4142135623731
 10
15.91854284331248
 20
1448.444295403167
 42
0.4142135623731
 10
14.41854284331248
 20
1446.944295403167
 42
0.4142135623731
 10
15.91854284331248
 20
1445.444295403167
 42
0.4142135623731
  0
LINE
  5
F5
330
1F
100
AcDbEntity
  8
0-B_寸法
  6
Continuous
 62
   120
370
     5
100
AcDbLine
 10
3.918542843313162
 20
1446.944295403167
 30
0.0
 11
15.91854284331248
 21
1446.944295403167
 31
0.0
  0
LWPOLYLINE
  5
F6
330
1F
100
AcDbEntity
  8
0-B_寸法
  6
Continuous
 62
     7
370
     9
100
AcDbPolyline
 90
        4
 70
     1
 43
3.0
 10
5.418542843313162
 20
1446.944295403167
 42
0.4142135623731
 10
3.918542843313162
 20
1448.444295403167
 42
0.4142135623731
 10
2.418542843313162
 20
1446.944295403167
 42
0.4142135623731
 10
3.918542843313162
 20
1445.444295403167
 42
0.4142135623731
  0
LWPOLYLINE
  5
F7
330
1F
100
AcDbEntity
  8
0-B_寸法
  6
Continuous
 62
     7
370
     9
100
AcDbPolyline
 90
        4
 70
     1
 43
3.0
 10
-1995.581457156687
 20
1446.944295403167
 42
0.4142135623731
 10
-1997.081457156687
 20
1448.444295403167
 42
0.4142135623731
 10
-1998.581457156686
 20
1446.944295403167
 42
0.4142135623731
 10
-1997.081457156687
 20
1445.444295403167
 42
0.4142135623731
  0
LINE
  5
F8
330
1F
100
AcDbEntity
  8
0-B_寸法
  6
Continuous
 62
   120
370
     5
100
AcDbLine
 10
-1997.081457156687
 20
1446.944295403167
 30
0.0
 11
3.918542843313162
 21
1446.944295403167
 31
0.0
  0
LINE
  5
F9
330
1F
100
AcDbEntity
  8
0-B_寸法
  6
Continuous
 62
   120
370
     5
100
AcDbLine
 10
2016.918542843317
 20
1446.944295403167
 30
0.0
 11
2016.918542843317
 21
1806.944295403167
 31
0.0
  0
LINE
  5
FA
330
1F
100
AcDbEntity
  8
0-B_寸法
  6
Continuous
 62
   120
370
     5
100
AcDbLine
 10
1019.418542843314
 20
1626.944295403167
 30
0.0
 11
1019.418542843314
 21
1806.944295403167
 31
0.0
  0
LWPOLYLINE
  5
FB
330
1F
100
AcDbEntity
  8
0-B_寸法
  6
Continuous
 62
     7
370
     9
100
AcDbPolyline
 90
        4
 70
     1
 43
3.0
 10
2018.418542843317
 20
1626.944295403167
 42
0.4142135623731
 10
2016.918542843317
 20
1628.444295403167
 42
0.4142135623731
 10
2015.418542843317
 20
1626.944295403167
 42
0.4142135623731
 10
2016.918542843317
 20
1625.444295403167
 42
0.4142135623731
  0
LWPOLYLINE
  5
FC
330
1F
100
AcDbEntity
  8
0-B_寸法
  6
Continuous
 62
     7
370
     9
100
AcDbPolyline
 90
        4
 70
     1
 43
3.0
 10
1020.918542843314
 20
1626.944295403167
 42
0.4142135623731
 10
1019.418542843314
 20
1628.444295403167
 42
0.4142135623731
 10
1017.918542843314
 20
1626.944295403167
 42
0.4142135623731
 10
1019.418542843314
 20
1625.444295403167
 42
0.4142135623731
  0
LINE
  5
FD
330
1F
100
AcDbEntity
  8
0-B_寸法
  6
Continuous
 62
   120
370
     5
100
AcDbLine
 10
1019.418542843314
 20
1626.944295403167
 30
0.0
 11
2016.918542843317
 21
1626.944295403167
 31
0.0
  0
LINE
  5
FE
330
1F
100
AcDbEntity
  8
0-B_寸法
  6
Continuous
 62
   120
370
     5
100
AcDbLine
 10
1013.418542843314
 20
1626.944295403167
 30
0.0
 11
1013.418542843314
 21
1806.944295403167
 31
0.0
  0
LINE
  5
FF
330
1F
100
AcDbEntity
  8
0-B_寸法
  6
Continuous
 62
   120
370
     5
100
AcDbLine
 10
15.91854284331248
 20
1446.944295403167
 30
0.0
 11
15.91854284331248
 21
1806.944295403167
 31
0.0
  0
LWPOLYLINE
  5
100
330
1F
100
AcDbEntity
  8
0-B_寸法
  6
Continuous
 62
     7
370
     9
100
AcDbPolyline
 90
        4
 70
     1
 43
3.0
 10
1014.918542843314
 20
1626.944295403167
 42
0.4142135623731
 10
1013.418542843314
 20
1628.444295403167
 42
0.4142135623731
 10
1011.918542843314
 20
1626.944295403167
 42
0.4142135623731
 10
1013.418542843314
 20
1625.444295403167
 42
0.4142135623731
  0
LWPOLYLINE
  5
101
330
1F
100
AcDbEntity
  8
0-B_寸法
  6
Continuous
 62
     7
370
     9
100
AcDbPolyline
 90
        4
 70
     1
 43
3.0
 10
17.41854284331248
 20
1626.944295403167
 42
0.4142135623731
 10
15.91854284331248
 20
1628.444295403167
 42
0.4142135623731
 10
14.41854284331248
 20
1626.944295403167
 42
0.4142135623731
 10
15.91854284331248
 20
1625.444295403167
 42
0.4142135623731
  0
LINE
  5
102
330
1F
100
AcDbEntity
  8
0-B_寸法
  6
Continuous
 62
   120
370
     5
100
AcDbLine
 10
15.91854284331248
 20
1626.944295403167
 30
0.0
 11
1013.418542843314
 21
1626.944295403167
 31
0.0
  0
LINE
  5
103
330
1F
100
AcDbEntity
  8
0-B_寸法
  6
Continuous
 62
   120
370
     5
100
AcDbLine
 10
3.918542843313162
 20
1446.944295403167
 30
0.0
 11
3.918542843313162
 21
1806.944295403167
 31
0.0
  0
LINE
  5
104
330
1F
100
AcDbEntity
  8
0-B_寸法
  6
Continuous
 62
   120
370
     5
100
AcDbLine
 10
-993.5814571566868
 20
1626.944295403167
 30
0.0
 11
-993.5814571566868
 21
1806.944295403167
 31
0.0
  0
LWPOLYLINE
  5
105
330
1F
100
AcDbEntity
  8
0-B_寸法
  6
Continuous
 62
     7
370
     9
100
AcDbPolyline
 90
        4
 70
     1
 43
3.0
 10
5.418542843313162
 20
1626.944295403167
 42
0.4142135623731
 10
3.918542843313162
 20
1628.444295403167
 42
0.4142135623731
 10
2.418542843313162
 20
1626.944295403167
 42
0.4142135623731
 10
3.918542843313162
 20
1625.444295403167
 42
0.4142135623731
  0
LWPOLYLINE
  5
106
330
1F
100
AcDbEntity
  8
0-B_寸法
  6
Continuous
 62
     7
370
     9
100
AcDbPolyline
 90
        4
 70
     1
 43
3.0
 10
-992.081457156687
 20
1626.944295403167
 42
0.4142135623731
 10
-993.5814571566868
 20
1628.444295403167
 42
0.4142135623731
 10
-995.0814571566867
 20
1626.944295403167
 42
0.4142135623731
 10
-993.5814571566868
 20
1625.444295403167
 42
0.4142135623731
  0
LINE
  5
107
330
1F
100
AcDbEntity
  8
0-B_寸法
  6
Continuous
 62
   120
370
     5
100
AcDbLine
 10
-993.5814571566868
 20
1626.944295403167
 30
0.0
 11
3.918542843313162
 21
1626.944295403167
 31
0.0
  0
LINE
  5
108
330
1F
100
AcDbEntity
  8
0-B_寸法
  6
Continuous
 62
   120
370
     5
100
AcDbLine
 10
-999.5814571566865
 20
1626.944295403167
 30
0.0
 11
-999.5814571566865
 21
1806.944295403167
 31
0.0
  0
LINE
  5
109
330
1F
100
AcDbEntity
  8
0-B_寸法
  6
Continuous
 62
   120
370
     5
100
AcDbLine
 10
-1997.081457156687
 20
1446.944295403167
 30
0.0
 11
-1997.081457156687
 21
1806.944295403167
 31
0.0
  0
LWPOLYLINE
  5
10A
330
1F
100
AcDbEntity
  8
0-B_寸法
  6
Continuous
 62
     7
370
     9
100
AcDbPolyline
 90
        4
 70
     1
 43
3.0
 10
-998.0814571566866
 20
1626.944295403167
 42
0.4142135623731
 10
-999.5814571566865
 20
1628.444295403167
 42
0.4142135623731
 10
-1001.081457156686
 20
1626.944295403167
 42
0.4142135623731
 10
-999.5814571566865
 20
1625.444295403167
 42
0.4142135623731
  0
LWPOLYLINE
  5
10B
330
1F
100
AcDbEntity
  8
0-B_寸法
  6
Continuous
 62
     7
370
     9
100
AcDbPolyline
 90
        4
 70
     1
 43
3.0
 10
-1995.581457156687
 20
1626.944295403167
 42
0.4142135623731
 10
-1997.081457156687
 20
1628.444295403167
 42
0.4142135623731
 10
-1998.581457156686
 20
1626.944295403167
 42
0.4142135623731
 10
-1997.081457156687
 20
1625.444295403167
 42
0.4142135623731
  0
LINE
  5
10C
330
1F
100
AcDbEntity
  8
0-B_寸法
  6
Continuous
 62
   120
370
     5
100
AcDbLine
 10
-1997.081457156687
 20
1626.944295403167
 30
0.0
 11
-999.5814571566865
 21
1626.944295403167
 31
0.0
  0
LINE
  5
10D
330
1F
100
AcDbEntity
  8
0-0_補助線
  6
JWW_HOJO
 62
     7
370
     9
100
AcDbLine
 10
1016.418542843314
 20
906.944295403167
 30
0.0
 11
1016.418542843314
 21
3321.945146596151
 31
0.0
  0
LINE
  5
10E
330
1F
100
AcDbEntity
  8
0-0_補助線
  6
JWW_HOJO
 62
     7
370
     9
100
AcDbLine
 10
-996.5814571566875
 20
906.944295403167
 30
0.0
 11
-996.5814571566875
 21
3321.945146596151
 31
0.0
  0
LINE
  5
10F
330
1F
100
AcDbEntity
  8
0-B_寸法
  6
Continuous
 62
   120
370
     5
100
AcDbLine
 10
2181.918542843314
 20
1086.944295403167
 30
0.0
 11
2181.918542843314
 21
1266.944295403167
 31
0.0
  0
LINE
  5
110
330
1F
100
AcDbEntity
  8
0-B_寸法
  6
Continuous
 62
   120
370
     5
100
AcDbLine
 10
-2162.081457156687
 20
1086.944295403167
 30
0.0
 11
-2162.081457156687
 21
1266.944295403167
 31
0.0
  0
LWPOLYLINE
  5
111
330
1F
100
AcDbEntity
  8
0-B_寸法
  6
Continuous
 62
     7
370
     9
100
AcDbPolyline
 90
        4
 70
     1
 43
3.0
 10
2183.418542843314
 20
1086.944295403167
 42
0.4142135623731
 10
2181.918542843314
 20
1088.444295403167
 42
0.4142135623731
 10
2180.418542843314
 20
1086.944295403167
 42
0.4142135623731
 10
2181.918542843314
 20
1085.444295403167
 42
0.4142135623731
  0
LWPOLYLINE
  5
112
330
1F
100
AcDbEntity
  8
0-B_寸法
  6
Continuous
 62
     7
370
     9
100
AcDbPolyline
 90
        4
 70
     1
 43
3.0
 10
-2160.581457156687
 20
1086.944295403167
 42
0.4142135623731
 10
-2162.081457156687
 20
1088.444295403167
 42
0.4142135623731
 10
-2163.581457156687
 20
1086.944295403167
 42
0.4142135623731
 10
-2162.081457156687
 20
1085.444295403167
 42
0.4142135623731
  0
LINE
  5
113
330
1F
100
AcDbEntity
  8
0-B_寸法
  6
Continuous
 62
   120
370
     5
100
AcDbLine
 10
-2162.081457156687
 20
1086.944295403167
 30
0.0
 11
2181.918542843314
 21
1086.944295403167
 31
0.0
  0
MTEXT
  5
114
330
1F
100
AcDbEntity
  8
0-B_寸法
  6
Continuous
 62
     7
370
   211
100
AcDbMText
 10
-2249.081457156688
 20
1706.234295403169
 30
0.0
 40
68.5800000000026
 41
45.00000000000171
 46
0.0
 71
     7
 72
     1
  1
{\fＭＳ ゴシック|b0|i0|c128|p49;6}
 73
     1
 44
1.0
  0
LWPOLYLINE
  5
115
330
1F
100
AcDbEntity
  8
0-B_寸法
  6
Continuous
 62
     7
370
     9
100
AcDbPolyline
 90
        4
 70
     1
 43
3.0
 10
2183.418542843314
 20
1266.944295403167
 42
0.4142135623731
 10
2181.918542843314
 20
1268.444295403167
 42
0.4142135623731
 10
2180.418542843314
 20
1266.944295403167
 42
0.4142135623731
 10
2181.918542843314
 20
1265.444295403167
 42
0.4142135623731
  0
LINE
  5
116
330
1F
100
AcDbEntity
  8
0-B_寸法
  6
Continuous
 62
   120
370
     5
100
AcDbLine
 10
2001.918542843314
 20
1266.944295403167
 30
0.0
 11
2181.918542843314
 21
1266.944295403167
 31
0.0
  0
LINE
  5
117
330
1F
100
AcDbEntity
  8
0-B_寸法
  6
Continuous
 62
   120
370
     5
100
AcDbLine
 10
2001.918542843314
 20
1266.944295403167
 30
0.0
 11
2001.918542843314
 21
1626.944295403167
 31
0.0
  0
LWPOLYLINE
  5
118
330
1F
100
AcDbEntity
  8
0-B_寸法
  6
Continuous
 62
     7
370
     9
100
AcDbPolyline
 90
        4
 70
     1
 43
3.0
 10
2003.418542843314
 20
1266.944295403167
 42
0.4142135623731
 10
2001.918542843314
 20
1268.444295403167
 42
0.4142135623731
 10
2000.418542843314
 20
1266.944295403167
 42
0.4142135623731
 10
2001.918542843314
 20
1265.444295403167
 42
0.4142135623731
  0
LINE
  5
119
330
1F
100
AcDbEntity
  8
0-B_寸法
  6
Continuous
 62
   120
370
     5
100
AcDbLine
 10
-1982.081457156687
 20
1266.944295403167
 30
0.0
 11
2001.918542843314
 21
1266.944295403167
 31
0.0
  0
MTEXT
  5
11A
330
1F
100
AcDbEntity
  8
0-B_寸法
  6
Continuous
 62
     7
370
   211
100
AcDbMText
 10
-2030.831457156688
 20
1799.091795403168
 30
0.0
 40
74.29500000000066
 41
97.50000000000085
 46
0.0
 71
     7
 72
     1
  1
{\fＭＳ ゴシック|b0|i0|c128|p49;10}
 73
     1
 44
1.0
  0
LINE
  5
11B
330
1F
100
AcDbEntity
  8
0-B_寸法
  6
Continuous
 62
   120
370
     5
100
AcDbLine
 10
-1982.081457156687
 20
1266.944295403167
 30
0.0
 11
-1982.081457156687
 21
1626.944295403167
 31
0.0
  0
LWPOLYLINE
  5
11C
330
1F
100
AcDbEntity
  8
0-B_寸法
  6
Continuous
 62
     7
370
     9
100
AcDbPolyline
 90
        4
 70
     1
 43
3.0
 10
-1980.581457156687
 20
1266.944295403167
 42
0.4142135623731
 10
-1982.081457156687
 20
1268.444295403167
 42
0.4142135623731
 10
-1983.581457156686
 20
1266.944295403167
 42
0.4142135623731
 10
-1982.081457156687
 20
1265.444295403167
 42
0.4142135623731
  0
LWPOLYLINE
  5
11D
330
1F
100
AcDbEntity
  8
0-B_寸法
  6
Continuous
 62
     7
370
     9
100
AcDbPolyline
 90
        4
 70
     1
 43
3.0
 10
-2160.581457156687
 20
1266.944295403167
 42
0.4142135623731
 10
-2162.081457156687
 20
1268.444295403167
 42
0.4142135623731
 10
-2163.581457156687
 20
1266.944295403167
 42
0.4142135623731
 10
-2162.081457156687
 20
1265.444295403167
 42
0.4142135623731
  0
LINE
  5
11E
330
1F
100
AcDbEntity
  8
0-B_寸法
  6
Continuous
 62
   120
370
     5
100
AcDbLine
 10
-2162.081457156687
 20
1266.944295403167
 30
0.0
 11
-1982.081457156687
 21
1266.944295403167
 31
0.0
  0
LINE
  5
11F
330
1F
100
AcDbEntity
  8
0-0_補助線
  6
JWW_HOJO
 62
   120
370
     5
100
AcDbLine
 10
2781.91834489146
 20
1806.944295403167
 30
0.0
 11
-2762.081259204829
 21
1806.944295403167
 31
0.0
  0
LINE
  5
120
330
1F
100
AcDbEntity
  8
0-0_補助線
  6
JWW_HOJO
 62
   120
370
     5
100
AcDbLine
 10
2781.91834489146
 20
1626.944295403167
 30
0.0
 11
-2762.081259204829
 21
1626.944295403167
 31
0.0
  0
LINE
  5
121
330
1F
100
AcDbEntity
  8
0-0_補助線
  6
JWW_HOJO
 62
     7
370
     9
100
AcDbLine
 10
2001.918542843314
 20
906.944295403167
 30
0.0
 11
2001.918542843314
 21
3321.945146596151
 31
0.0
  0
LINE
  5
122
330
1F
100
AcDbEntity
  8
0-0_補助線
  6
JWW_HOJO
 62
     7
370
     9
100
AcDbLine
 10
-1982.081457156687
 20
906.944295403167
 30
0.0
 11
-1982.081457156687
 21
3321.945146596151
 31
0.0
  0
LINE
  5
123
330
1F
100
AcDbEntity
  8
0-0_補助線
  6
JWW_HOJO
 62
   120
370
     5
100
AcDbLine
 10
2781.91834489146
 20
1086.944295403167
 30
0.0
 11
-2762.081259204829
 21
1086.944295403167
 31
0.0
  0
LINE
  5
124
330
1F
100
AcDbEntity
  8
0-0_補助線
  6
JWW_HOJO
 62
   120
370
     5
100
AcDbLine
 10
2781.91834489146
 20
1266.944295403167
 30
0.0
 11
-2762.081259204829
 21
1266.944295403167
 31
0.0
  0
LINE
  5
125
330
1F
100
AcDbEntity
  8
0-0_補助線
  6
JWW_HOJO
 62
   120
370
     5
100
AcDbLine
 10
2781.91834489146
 20
1446.944295403167
 30
0.0
 11
-2762.081259204829
 21
1446.944295403167
 31
0.0
  0
LINE
  5
126
330
1F
100
AcDbEntity
  8
0-0_補助線
  6
JWW_HOJO
 62
   120
370
     5
100
AcDbLine
 10
2781.91834489146
 20
1086.944295403167
 30
0.0
 11
2781.91834489146
 21
3141.945146596151
 31
0.0
  0
LINE
  5
127
330
1F
100
AcDbEntity
  8
0-0_補助線
  6
JWW_HOJO
 62
   120
370
     5
100
AcDbLine
 10
-2762.081259204829
 20
1086.944295403167
 30
0.0
 11
-2762.081259204829
 21
3141.945146596151
 31
0.0
  0
MTEXT
  5
128
330
1F
100
AcDbEntity
  8
0-B_寸法
  6
Continuous
 62
     7
370
   211
100
AcDbMText
 10
-2091.581457156688
 20
1796.234295403169
 30
0.0
 40
68.5800000000026
 41
45.00000000000171
 46
0.0
 71
     7
 72
     1
  1
{\fＭＳ ゴシック|b0|i0|c128|p49;9}
 73
     1
 44
1.0
  0
LINE
  5
129
330
1F
100
AcDbEntity
  8
0-0_補助線
  6
JWW_HOJO
 62
     7
370
     9
100
AcDbLine
 10
9.918542843313674
 20
906.944295403167
 30
0.0
 11
9.918542843313674
 21
3321.945146596151
 31
0.0
  0
MTEXT
  5
12A
330
1F
100
AcDbEntity
  8
0-B_寸法
  6
Continuous
 62
     7
370
   211
100
AcDbMText
 10
-2252.081457156688
 20
1856.234295403169
 30
0.0
 40
68.5800000000026
 41
45.00000000000171
 46
0.0
 71
     7
 72
     1
  1
{\fＭＳ ゴシック|b0|i0|c128|p49;5}
 73
     1
 44
1.0
  0
MTEXT
  5
12B
330
1F
100
AcDbEntity
  8
0-B_寸法
  6
Continuous
 62
     7
370
   211
100
AcDbMText
 10
-1567.880129734934
 20
2287.665146596146
 30
0.0
 40
91.44
 41
120.0
 46
0.0
 71
     7
 72
     1
  1
{\fＭＳ ゴシック|b0|i0|c128|p49;77}
 11
6.123031769111886E-17
 21
1.0
 31
0.0
 73
     1
 44
1.0
  0
MTEXT
  5
12C
330
1F
100
AcDbEntity
  8
0-B_寸法
  6
Continuous
 62
     7
370
   211
100
AcDbMText
 10
-484.1830428641603
 20
2962.665146596151
 30
0.0
 40
91.43999999999978
 41
1019.999999999997
 46
0.0
 71
     7
 72
     1
  1
{\fＭＳ ゴシック|b0|i0|c128|p49;有効開口寸法＝885}
 73
     1
 44
1.0
  0
MTEXT
  5
12D
330
1F
100
AcDbEntity
  8
0-B_寸法
  6
Continuous
 62
     7
370
   211
100
AcDbMText
 10
-380.0814571566846
 20
3142.665146596151
 30
0.0
 40
91.43999999999971
 41
779.9999999999975
 46
0.0
 71
     7
 72
     1
  1
{\fＭＳ ゴシック|b0|i0|c128|p49;ＲＯＷ＝1,199}
 73
     1
 44
1.0
  0
LINE
  5
12E
330
1F
100
AcDbEntity
  8
0-B_寸法
  6
Continuous
 62
   120
370
     5
100
AcDbLine
 10
-1250.081457156685
 20
2961.945146596151
 30
0.0
 11
1269.918542843314
 21
2961.945146596151
 31
0.0
  0
LINE
  5
12F
330
1F
100
AcDbEntity
  8
0-B_寸法
  6
Continuous
 62
   120
370
     5
100
AcDbLine
 10
-1250.081457156685
 20
2961.945146596151
 30
0.0
 11
-1250.081457156685
 21
2781.945146596151
 31
0.0
  0
LWPOLYLINE
  5
130
330
1F
100
AcDbEntity
  8
0-B_寸法
  6
Continuous
 62
     7
370
     9
100
AcDbPolyline
 90
        4
 70
     1
 43
3.0
 10
-1248.581457156685
 20
2961.945146596151
 42
0.4142135623731
 10
-1250.081457156685
 20
2963.445146596151
 42
0.4142135623731
 10
-1251.581457156685
 20
2961.945146596151
 42
0.4142135623731
 10
-1250.081457156685
 20
2960.445146596152
 42
0.4142135623731
  0
LINE
  5
131
330
1F
100
AcDbEntity
  8
0-1_通り芯
  6
JWW_CENTER1
 62
   120
370
     5
100
AcDbLine
 10
-1250.081457156685
 20
2781.945146596151
 30
0.0
 11
-1250.081457156685
 21
2549.528317855176
 31
0.0
  0
LINE
  5
132
330
1F
100
AcDbEntity
  8
0-6_扉
  6
JWW_DASHED2
 62
    40
370
    15
100
AcDbLine
 10
-1683.049854462928
 20
2559.076554351525
 30
0.0
 11
-1648.688689983478
 21
2106.945146596151
 31
0.0
  0
LINE
  5
133
330
1F
100
AcDbEntity
  8
0-6_扉
  6
JWW_DASHED2
 62
    40
370
    15
100
AcDbLine
 10
-1375.719155240541
 20
2559.076554351529
 30
0.0
 11
-1410.080319719981
 21
2106.945146596151
 31
0.0
  0
LINE
  5
134
330
1F
100
AcDbEntity
  8
0-6_扉
  6
JWW_DASHED2
 62
    40
370
    15
100
AcDbLine
 10
-1250.081457156689
 20
2549.528317855176
 30
0.0
 11
-1283.7169730324
 21
2106.945146596151
 31
0.0
  0
LINE
  5
135
330
1F
100
AcDbEntity
  8
0-6_扉
  6
JWW_DASHED2
 62
    40
370
    15
100
AcDbLine
 10
-1808.68755254678
 20
2549.52831785517
 30
0.0
 11
-1775.052036671062
 21
2106.945146596151
 31
0.0
  0
ARC
  5
136
330
1F
100
AcDbEntity
  8
0-6_扉
  6
JWW_DASHED2
 62
    40
370
    15
100
AcDbCircle
 10
-1268.029699740094
 20
2550.892351640368
 30
0.0
 40
18.0
100
AcDbArc
 50
355.653979278361
 51
85.65397927836094
  0
LINE
  5
137
330
1F
100
AcDbEntity
  8
0-6_扉
  6
JWW_DASHED2
 62
    40
370
    15
100
AcDbLine
 10
-1266.665665954902
 20
2568.840594223775
 30
0.0
 11
-1356.40687887194
 21
2575.660763149742
 31
0.0
  0
ARC
  5
138
330
1F
100
AcDbEntity
  8
0-6_扉
  6
JWW_DASHED2
 62
    40
370
    15
100
AcDbCircle
 10
-1357.770912657132
 20
2557.712520566335
 30
0.0
 40
18.0
100
AcDbArc
 50
85.65397927836092
 51
175.653979278361
  0
ARC
  5
139
330
1F
100
AcDbEntity
  8
0-6_扉
  6
JWW_DASHED2
 62
    40
370
    15
100
AcDbCircle
 10
-1790.739309963375
 20
2550.892351640362
 30
0.0
 40
18.0
100
AcDbArc
 50
94.3460207216403
 51
184.3460207216401
  0
LINE
  5
13A
330
1F
100
AcDbEntity
  8
0-6_扉
  6
JWW_DASHED2
 62
    40
370
    15
100
AcDbLine
 10
-1792.103343748568
 20
2568.840594223771
 30
0.0
 11
-1702.36213083153
 21
2575.66076314974
 31
0.0
  0
ARC
  5
13B
330
1F
100
AcDbEntity
  8
0-6_扉
  6
JWW_DASHED2
 62
    40
370
    15
100
AcDbCircle
 10
-1700.998097046333
 20
2557.712520566331
 30
0.0
 40
18.0
100
AcDbArc
 50
4.346020721640005
 51
94.34602072164022
  0
LINE
  5
13C
330
1F
100
AcDbEntity
  8
0-B_寸法
  6
Continuous
 62
   120
370
     5
100
AcDbLine
 10
1269.918542843314
 20
2961.945146596151
 30
0.0
 11
1269.918542843314
 21
2781.945146596151
 31
0.0
  0
LWPOLYLINE
  5
13D
330
1F
100
AcDbEntity
  8
0-B_寸法
  6
Continuous
 62
     7
370
     9
100
AcDbPolyline
 90
        4
 70
     1
 43
3.0
 10
1271.418542843314
 20
2961.945146596151
 42
0.4142135623731
 10
1269.918542843314
 20
2963.445146596151
 42
0.4142135623731
 10
1268.418542843314
 20
2961.945146596151
 42
0.4142135623731
 10
1269.918542843314
 20
2960.445146596152
 42
0.4142135623731
  0
LINE
  5
13E
330
1F
100
AcDbEntity
  8
0-1_通り芯
  6
JWW_CENTER1
 62
   120
370
     5
100
AcDbLine
 10
1269.918542843314
 20
2781.945146596151
 30
0.0
 11
1269.918542843314
 21
2549.528317855176
 31
0.0
  0
LINE
  5
13F
330
1F
100
AcDbEntity
  8
0-6_扉
  6
JWW_DASHED2
 62
    40
370
    15
100
AcDbLine
 10
1702.886940149555
 20
2559.076554351525
 30
0.0
 11
1668.525775670106
 21
2106.945146596151
 31
0.0
  0
LINE
  5
140
330
1F
100
AcDbEntity
  8
0-6_扉
  6
JWW_DASHED2
 62
    40
370
    15
100
AcDbLine
 10
1395.556240927167
 20
2559.076554351529
 30
0.0
 11
1429.917405406608
 21
2106.945146596151
 31
0.0
  0
LINE
  5
141
330
1F
100
AcDbEntity
  8
0-6_扉
  6
JWW_DASHED2
 62
    40
370
    15
100
AcDbLine
 10
1269.918542843315
 20
2549.528317855176
 30
0.0
 11
1303.554058719026
 21
2106.945146596151
 31
0.0
  0
LINE
  5
142
330
1F
100
AcDbEntity
  8
0-6_扉
  6
JWW_DASHED2
 62
    40
370
    15
100
AcDbLine
 10
1828.524638233408
 20
2549.52831785517
 30
0.0
 11
1794.88912235769
 21
2106.945146596151
 31
0.0
  0
ARC
  5
143
330
1F
100
AcDbEntity
  8
0-6_扉
  6
JWW_DASHED2
 62
    40
370
    15
100
AcDbCircle
 10
1287.866785426721
 20
2550.892351640368
 30
0.0
 40
18.0
100
AcDbArc
 50
94.34602072163908
 51
184.3460207216391
  0
LINE
  5
144
330
1F
100
AcDbEntity
  8
0-6_扉
  6
JWW_DASHED2
 62
    40
370
    15
100
AcDbLine
 10
1286.502751641528
 20
2568.840594223775
 30
0.0
 11
1376.243964558566
 21
2575.660763149742
 31
0.0
  0
ARC
  5
145
330
1F
100
AcDbEntity
  8
0-6_扉
  6
JWW_DASHED2
 62
    40
370
    15
100
AcDbCircle
 10
1377.607998343761
 20
2557.712520566335
 30
0.0
 40
18.0
100
AcDbArc
 50
4.346020721638975
 51
94.34602072163908
  0
ARC
  5
146
330
1F
100
AcDbEntity
  8
0-6_扉
  6
JWW_DASHED2
 62
    40
370
    15
100
AcDbCircle
 10
1810.576395650001
 20
2550.892351640362
 30
0.0
 40
18.0
100
AcDbArc
 50
355.6539792783599
 51
85.6539792783597
  0
LINE
  5
147
330
1F
100
AcDbEntity
  8
0-6_扉
  6
JWW_DASHED2
 62
    40
370
    15
100
AcDbLine
 10
1811.940429435196
 20
2568.840594223771
 30
0.0
 11
1722.199216518156
 21
2575.66076314974
 31
0.0
  0
ARC
  5
148
330
1F
100
AcDbEntity
  8
0-6_扉
  6
JWW_DASHED2
 62
    40
370
    15
100
AcDbCircle
 10
1720.835182732962
 20
2557.712520566331
 30
0.0
 40
18.0
100
AcDbArc
 50
85.6539792783598
 51
175.65397927836
  0
LINE
  5
149
330
1F
100
AcDbEntity
  8
0-B_寸法
  6
Continuous
 62
   120
370
     5
100
AcDbLine
 10
2211.918542843314
 20
3141.945146596151
 30
0.0
 11
2211.918542843314
 21
2781.945146596151
 31
0.0
  0
LINE
  5
14A
330
1F
100
AcDbEntity
  8
0-B_寸法
  6
Continuous
 62
   120
370
     5
100
AcDbLine
 10
-2192.081457156688
 20
3141.945146596151
 30
0.0
 11
-2192.081457156688
 21
2781.945146596151
 31
0.0
  0
LWPOLYLINE
  5
14B
330
1F
100
AcDbEntity
  8
0-B_寸法
  6
Continuous
 62
     7
370
     9
100
AcDbPolyline
 90
        4
 70
     1
 43
3.0
 10
2213.418542843314
 20
3141.945146596151
 42
0.4142135623731
 10
2211.918542843314
 20
3143.445146596151
 42
0.4142135623731
 10
2210.418542843314
 20
3141.945146596151
 42
0.4142135623731
 10
2211.918542843314
 20
3140.445146596152
 42
0.4142135623731
  0
LWPOLYLINE
  5
14C
330
1F
100
AcDbEntity
  8
0-B_寸法
  6
Continuous
 62
     7
370
     9
100
AcDbPolyline
 90
        4
 70
     1
 43
3.0
 10
-2190.581457156688
 20
3141.945146596151
 42
0.4142135623731
 10
-2192.081457156688
 20
3143.445146596151
 42
0.4142135623731
 10
-2193.581457156688
 20
3141.945146596151
 42
0.4142135623731
 10
-2192.081457156688
 20
3140.445146596152
 42
0.4142135623731
  0
LINE
  5
14D
330
1F
100
AcDbEntity
  8
0-B_寸法
  6
Continuous
 62
   120
370
     5
100
AcDbLine
 10
-2192.081457156688
 20
3141.945146596151
 30
0.0
 11
2211.918542843314
 21
3141.945146596151
 31
0.0
  0
LINE
  5
14E
330
1F
100
AcDbEntity
  8
0-7_金物
  6
Continuous
 62
     7
370
     9
100
AcDbLine
 10
-2192.081457156688
 20
2271.945220828099
 30
0.0
 11
-2192.081457156688
 21
2451.945072364203
 31
0.0
  0
LINE
  5
14F
330
1F
100
AcDbEntity
  8
0-7_金物
  6
Continuous
 62
     7
370
     9
100
AcDbLine
 10
-2168.081526439838
 20
2307.945488063106
 30
0.0
 11
-2162.081457156688
 21
2307.945488063106
 31
0.0
  0
LINE
  5
150
330
1F
100
AcDbEntity
  8
0-7_金物
  6
Continuous
 62
     7
370
     9
100
AcDbLine
 10
-2168.081526439838
 20
2415.945547448665
 30
0.0
 11
-2162.081457156688
 21
2415.945547448665
 31
0.0
  0
LINE
  5
151
330
1F
100
AcDbEntity
  8
0-7_金物
  6
Continuous
 62
     7
370
     9
100
AcDbLine
 10
-2168.081526439838
 20
2301.945319804028
 30
0.0
 11
-2168.081526439838
 21
2421.944973388274
 31
0.0
  0
LINE
  5
152
330
1F
100
AcDbEntity
  8
0-7_金物
  6
Continuous
 62
     7
370
     9
100
AcDbLine
 10
-2180.081120638529
 20
2421.944973388274
 30
0.0
 11
-2168.081526439838
 21
2421.944973388274
 31
0.0
  0
LINE
  5
153
330
1F
100
AcDbEntity
  8
0-7_金物
  6
Continuous
 62
     7
370
     9
100
AcDbLine
 10
-2180.081120638529
 20
2301.945319804028
 30
0.0
 11
-2168.081526439838
 21
2301.945319804028
 31
0.0
  0
LINE
  5
154
330
1F
100
AcDbEntity
  8
0-7_金物
  6
Continuous
 62
     7
370
     9
100
AcDbLine
 10
-2192.081457156688
 20
2271.945220828099
 30
0.0
 11
-2180.081120638529
 21
2271.945220828099
 31
0.0
  0
LINE
  5
155
330
1F
100
AcDbEntity
  8
0-7_金物
  6
Continuous
 62
     7
370
     9
100
AcDbLine
 10
-2192.081457156688
 20
2451.945072364203
 30
0.0
 11
-2180.081120638529
 21
2451.945072364203
 31
0.0
  0
LINE
  5
156
330
1F
100
AcDbEntity
  8
0-7_金物
  6
Continuous
 62
     7
370
     9
100
AcDbLine
 10
-2180.081120638529
 20
2271.945220828099
 30
0.0
 11
-2180.081120638529
 21
2451.945072364203
 31
0.0
  0
LINE
  5
157
330
1F
100
AcDbEntity
  8
0-7_金物
  6
Continuous
 62
     7
370
     9
100
AcDbLine
 10
2211.918542843314
 20
2271.945220828099
 30
0.0
 11
2211.918542843314
 21
2451.945072364203
 31
0.0
  0
LINE
  5
158
330
1F
100
AcDbEntity
  8
0-7_金物
  6
Continuous
 62
     7
370
     9
100
AcDbLine
 10
2187.918612126464
 20
2307.945488063106
 30
0.0
 11
2181.918542843314
 21
2307.945488063106
 31
0.0
  0
LINE
  5
159
330
1F
100
AcDbEntity
  8
0-7_金物
  6
Continuous
 62
     7
370
     9
100
AcDbLine
 10
2187.918612126464
 20
2415.945547448665
 30
0.0
 11
2181.918542843314
 21
2415.945547448665
 31
0.0
  0
LINE
  5
15A
330
1F
100
AcDbEntity
  8
0-7_金物
  6
Continuous
 62
     7
370
     9
100
AcDbLine
 10
2187.918612126464
 20
2301.945319804028
 30
0.0
 11
2187.918612126464
 21
2421.944973388274
 31
0.0
  0
LINE
  5
15B
330
1F
100
AcDbEntity
  8
0-7_金物
  6
Continuous
 62
     7
370
     9
100
AcDbLine
 10
2199.918206325155
 20
2421.944973388274
 30
0.0
 11
2187.918612126464
 21
2421.944973388274
 31
0.0
  0
LINE
  5
15C
330
1F
100
AcDbEntity
  8
0-7_金物
  6
Continuous
 62
     7
370
     9
100
AcDbLine
 10
2199.918206325155
 20
2301.945319804028
 30
0.0
 11
2187.918612126464
 21
2301.945319804028
 31
0.0
  0
LINE
  5
15D
330
1F
100
AcDbEntity
  8
0-7_金物
  6
Continuous
 62
     7
370
     9
100
AcDbLine
 10
2211.918542843314
 20
2271.945220828099
 30
0.0
 11
2199.918206325155
 21
2271.945220828099
 31
0.0
  0
LINE
  5
15E
330
1F
100
AcDbEntity
  8
0-7_金物
  6
Continuous
 62
     7
370
     9
100
AcDbLine
 10
2211.918542843314
 20
2451.945072364203
 30
0.0
 11
2199.918206325155
 21
2451.945072364203
 31
0.0
  0
LINE
  5
15F
330
1F
100
AcDbEntity
  8
0-7_金物
  6
Continuous
 62
     7
370
     9
100
AcDbLine
 10
2199.918206325155
 20
2271.945220828099
 30
0.0
 11
2199.918206325155
 21
2451.945072364203
 31
0.0
  0
LINE
  5
160
330
1F
100
AcDbEntity
  8
0-0_補助線
  6
Continuous
 62
   120
370
     5
100
AcDbLine
 10
-2018.081457156686
 20
2324.35919630369
 30
0.0
 11
-2018.081457156686
 21
2405.688459526875
 31
0.0
  0
LWPOLYLINE
  5
161
330
1F
100
AcDbEntity
  8
0-0_補助線
  6
Continuous
 62
     7
370
     9
100
AcDbPolyline
 90
        4
 70
     1
 43
3.0
 10
-2016.581457156686
 20
2324.35919630369
 42
0.4142135623731
 10
-2018.081457156686
 20
2325.85919630369
 42
0.4142135623731
 10
-2019.581457156686
 20
2324.35919630369
 42
0.4142135623731
 10
-2018.081457156686
 20
2322.85919630369
 42
0.4142135623731
  0
LINE
  5
162
330
1F
100
AcDbEntity
  8
0-0_補助線
  6
Continuous
 62
   120
370
     5
100
AcDbLine
 10
-1997.081457156687
 20
2324.35919630369
 30
0.0
 11
-2018.081457156686
 21
2324.35919630369
 31
0.0
  0
LWPOLYLINE
  5
163
330
1F
100
AcDbEntity
  8
0-0_補助線
  6
Continuous
 62
     7
370
     9
100
AcDbPolyline
 90
        4
 70
     1
 43
3.0
 10
-1995.581457156687
 20
2324.35919630369
 42
0.4142135623731
 10
-1997.081457156687
 20
2325.85919630369
 42
0.4142135623731
 10
-1998.581457156686
 20
2324.35919630369
 42
0.4142135623731
 10
-1997.081457156687
 20
2322.85919630369
 42
0.4142135623731
  0
LWPOLYLINE
  5
164
330
1F
100
AcDbEntity
  8
0-0_補助線
  6
Continuous
 62
     7
370
     9
100
AcDbPolyline
 90
        4
 70
     1
 43
3.0
 10
-1980.581457156687
 20
2324.35919630369
 42
0.4142135623731
 10
-1982.081457156687
 20
2325.85919630369
 42
0.4142135623731
 10
-1983.581457156686
 20
2324.35919630369
 42
0.4142135623731
 10
-1982.081457156687
 20
2322.85919630369
 42
0.4142135623731
  0
LINE
  5
165
330
1F
100
AcDbEntity
  8
0-0_補助線
  6
Continuous
 62
   120
370
     5
100
AcDbLine
 10
-1982.081457156687
 20
2324.35919630369
 30
0.0
 11
-1997.081457156687
 21
2324.35919630369
 31
0.0
  0
LINE
  5
166
330
1F
100
AcDbEntity
  8
0-1_通り芯
  6
JWW_CENTER1
 62
   120
370
     5
100
AcDbLine
 10
2781.91834489146
 20
2361.945146596151
 30
0.0
 11
-2762.081259204829
 21
2361.945146596151
 31
0.0
  0
LINE
  5
167
330
1F
100
AcDbEntity
  8
0-0_補助線
  6
JWW_HOJO
 62
   120
370
     5
100
AcDbLine
 10
2781.91834489146
 20
3141.945146596151
 30
0.0
 11
-2762.081259204829
 21
3141.945146596151
 31
0.0
  0
LINE
  5
168
330
1F
100
AcDbEntity
  8
0-0_補助線
  6
JWW_HOJO
 62
   120
370
     5
100
AcDbLine
 10
2781.91834489146
 20
2781.945146596151
 30
0.0
 11
-2762.081259204829
 21
2781.945146596151
 31
0.0
  0
LINE
  5
169
330
1F
100
AcDbEntity
  8
0-B_寸法
  6
Continuous
 62
   120
370
     5
100
AcDbLine
 10
-1982.081457156687
 20
1806.944295403167
 30
0.0
 11
-1982.081457156687
 21
1986.944295403168
 31
0.0
  0
LWPOLYLINE
  5
16A
330
1F
100
AcDbEntity
  8
0-B_寸法
  6
Continuous
 62
     7
370
     9
100
AcDbPolyline
 90
        4
 70
     1
 43
3.0
 10
-1980.581457156687
 20
1806.944295403167
 42
0.4142135623731
 10
-1982.081457156687
 20
1808.444295403167
 42
0.4142135623731
 10
-1983.581457156686
 20
1806.944295403167
 42
0.4142135623731
 10
-1982.081457156687
 20
1805.444295403167
 42
0.4142135623731
  0
LINE
  5
16B
330
1F
100
AcDbEntity
  8
0-B_寸法
  6
Continuous
 62
   120
370
     5
100
AcDbLine
 10
-2162.081457156687
 20
1806.944295403167
 30
0.0
 11
-2162.081457156687
 21
1986.944295403168
 31
0.0
  0
LINE
  5
16C
330
1F
100
AcDbEntity
  8
0-B_寸法
  6
Continuous
 62
   120
370
     5
100
AcDbLine
 10
-2042.081457156687
 20
1806.944295403167
 30
0.0
 11
-2042.081457156687
 21
1986.944295403168
 31
0.0
  0
LINE
  5
16D
330
1F
100
AcDbEntity
  8
0-B_寸法
  6
Continuous
 62
   120
370
     5
100
AcDbLine
 10
-2096.081457156689
 20
1806.944295403167
 30
0.0
 11
-2096.081457156689
 21
1986.944295403168
 31
0.0
  0
LINE
  5
16E
330
1F
100
AcDbEntity
  8
0-B_寸法
  6
Continuous
 62
   120
370
     5
100
AcDbLine
 10
-2132.081457156687
 20
1806.944295403167
 30
0.0
 11
-2132.081457156687
 21
1986.944295403168
 31
0.0
  0
LINE
  5
16F
330
1F
100
AcDbEntity
  8
0-B_寸法
  6
Continuous
 62
   120
370
     5
100
AcDbLine
 10
-2267.53027898535
 20
1866.944295403167
 30
0.0
 11
-2207.081457156687
 21
1866.944295403167
 31
0.0
  0
MTEXT
  5
170
330
1F
100
AcDbEntity
  8
0-0_補助線
  6
Continuous
 62
     7
370
   211
100
AcDbMText
 10
-1971.695002244339
 20
2325.07919630369
 30
0.0
 40
91.44000000000129
 41
180.0000000000026
 46
0.0
 71
     7
 72
     1
  1
{\fＭＳ ゴシック|b0|i0|c128|p49;2.5}
 73
     1
 44
1.0
  0
LINE
  5
171
330
1F
100
AcDbEntity
  8
0-B_寸法
  6
Continuous
 62
   120
370
     5
100
AcDbLine
 10
-2147.081457156687
 20
1806.944295403167
 30
0.0
 11
-2207.081457156687
 21
1866.944295403167
 31
0.0
  0
LINE
  5
172
330
1F
100
AcDbEntity
  8
0-B_寸法
  6
Continuous
 62
   120
370
     5
100
AcDbLine
 10
-2259.327997011861
 20
1716.944295403167
 30
0.0
 11
-2204.081457156687
 21
1716.944295403167
 31
0.0
  0
MTEXT
  5
173
330
1F
100
AcDbEntity
  8
0-0_補助線
  6
Continuous
 62
     7
370
   211
100
AcDbMText
 10
-2175.486678848035
 20
2325.07919630369
 30
0.0
 40
91.44000000000129
 41
180.0000000000026
 46
0.0
 71
     7
 72
     1
  1
{\fＭＳ ゴシック|b0|i0|c128|p49;3.5}
 73
     1
 44
1.0
  0
LWPOLYLINE
  5
174
330
1F
100
AcDbEntity
  8
0-B_寸法
  6
Continuous
 62
     7
370
     9
100
AcDbPolyline
 90
        4
 70
     1
 43
3.0
 10
-2040.581457156687
 20
1806.944295403167
 42
0.4142135623731
 10
-2042.081457156687
 20
1808.444295403167
 42
0.4142135623731
 10
-2043.581457156686
 20
1806.944295403167
 42
0.4142135623731
 10
-2042.081457156687
 20
1805.444295403167
 42
0.4142135623731
  0
LWPOLYLINE
  5
175
330
1F
100
AcDbEntity
  8
0-B_寸法
  6
Continuous
 62
     7
370
     9
100
AcDbPolyline
 90
        4
 70
     1
 43
3.0
 10
-2094.581457156689
 20
1806.944295403167
 42
0.4142135623731
 10
-2096.081457156689
 20
1808.444295403167
 42
0.4142135623731
 10
-2097.581457156689
 20
1806.944295403167
 42
0.4142135623731
 10
-2096.081457156689
 20
1805.444295403167
 42
0.4142135623731
  0
LWPOLYLINE
  5
176
330
1F
100
AcDbEntity
  8
0-B_寸法
  6
Continuous
 62
     7
370
     9
100
AcDbPolyline
 90
        4
 70
     1
 43
3.0
 10
-2130.581457156687
 20
1806.944295403167
 42
0.4142135623731
 10
-2132.081457156687
 20
1808.444295403167
 42
0.4142135623731
 10
-2133.581457156687
 20
1806.944295403167
 42
0.4142135623731
 10
-2132.081457156687
 20
1805.444295403167
 42
0.4142135623731
  0
LWPOLYLINE
  5
177
330
1F
100
AcDbEntity
  8
0-B_寸法
  6
Continuous
 62
     7
370
     9
100
AcDbPolyline
 90
        4
 70
     1
 43
3.0
 10
-2160.581457156687
 20
1806.944295403167
 42
0.4142135623731
 10
-2162.081457156687
 20
1808.444295403167
 42
0.4142135623731
 10
-2163.581457156687
 20
1806.944295403167
 42
0.4142135623731
 10
-2162.081457156687
 20
1805.444295403167
 42
0.4142135623731
  0
LINE
  5
178
330
1F
100
AcDbEntity
  8
0-B_寸法
  6
Continuous
 62
   120
370
     5
100
AcDbLine
 10
-2162.081457156687
 20
1806.944295403167
 30
0.0
 11
-1982.081457156687
 21
1806.944295403167
 31
0.0
  0
LINE
  5
179
330
1F
100
AcDbEntity
  8
0-B_寸法
  6
Continuous
 62
   120
370
     5
100
AcDbLine
 10
-2114.081457156687
 20
1806.944295403167
 30
0.0
 11
-2204.081457156687
 21
1716.944295403167
 31
0.0
  0
LINE
  5
17A
330
1F
100
AcDbEntity
  8
0-A_文字
  6
JWW_HOJO
 62
   120
370
     5
100
AcDbLine
 10
9.918542843315379
 20
947.63597015083
 30
0.0
 11
2419.442352367125
 21
947.63597015083
 31
0.0
  0
LINE
  5
17B
330
1F
100
AcDbEntity
  8
0-A_文字
  6
JWW_HOJO
 62
   120
370
     5
100
AcDbLine
 10
9.918542843315379
 20
827.63597015083
 30
0.0
 11
2419.442352367125
 21
827.63597015083
 31
0.0
  0
LINE
  5
17C
330
1F
100
AcDbEntity
  8
0-A_文字
  6
JWW_HOJO
 62
   120
370
     5
100
AcDbLine
 10
9.918542843315379
 20
707.6359701508304
 30
0.0
 11
2419.442352367125
 21
707.6359701508304
 31
0.0
  0
MTEXT
  5
17D
330
1F
100
AcDbEntity
  8
0-A_文字
  6
Continuous
 62
     7
370
     9
100
AcDbMText
 10
9.918542843315379
 20
942.3811974235571
 30
0.0
 40
79.49045454545453
 41
2295.0
 46
0.0
 71
     7
 72
     1
  1
{\fＭＳ ゴシック|b0|i0|c128|p49;※有効開口寸法にはハンドルの突出は含まない。}
 73
     1
 44
1.0
  0
MTEXT
  5
17E
330
1F
100
AcDbEntity
  8
0-A_文字
  6
Continuous
 62
     7
370
     9
100
AcDbMText
 10
9.918542843315379
 20
822.4293034841631
 30
0.0
 40
79.58666666666664
 41
2820.0
 46
0.0
 71
     7
 72
     1
  1
{\fＭＳ ゴシック|b0|i0|c128|p49;※有効開口寸法は扉の厚さや調整によって若干異なります。}
 73
     1
 44
1.0
  0
MTEXT
  5
17F
330
1F
100
AcDbEntity
  8
0-A_文字
  6
Continuous
 62
     7
370
     0
100
AcDbMText
 10
9.918542843314526
 20
696.9259701508312
 30
0.0
 40
68.58000000000004
 41
1350.0
 46
0.0
 71
     7
 72
     1
  1
{\fＭＳ ゴシック|b0|i0|c128|p49;※扉厚（　）内はルーバーの場合}
 73
     1
 44
1.0
  0
MTEXT
  5
180
330
1F
100
AcDbEntity
  8
0-A_文字
  6
Continuous
 62
     7
370
   211
100
AcDbMText
 10
-1022.045484219458
 20
2227.664295403167
 30
0.0
 40
91.44
 41
240.0
 46
0.0
 71
     7
 72
     1
  1
{\fＭＳ ゴシック|b0|i0|c128|p49;(24)}
 11
6.123031769111886E-17
 21
1.0
 31
0.0
 73
     1
 44
1.0
  0
LINE
  5
181
330
1F
100
AcDbEntity
  8
0-3_仕上げ
  6
Continuous
 62
    40
370
    15
100
AcDbLine
 10
-2132.081457156687
 20
2172.94622048498
 30
0.0
 11
-2132.081457156687
 21
2097.94622048498
 31
0.0
  0
LINE
  5
182
330
1F
100
AcDbEntity
  8
0-C_ハッチ
  6
JWW_DASHED1
 62
   120
370
     5
100
AcDbLine
 10
-2695.644484323407
 20
2097.946220484991
 30
0.0
 11
-2620.644484323413
 21
2172.946220484986
 31
0.0
  0
LINE
  5
183
330
1F
100
AcDbEntity
  8
0-C_ハッチ
  6
JWW_DASHED1
 62
   120
370
     5
100
AcDbLine
 10
-2653.218077452211
 20
2097.946220484986
 30
0.0
 11
-2578.218077452217
 21
2172.946220484982
 31
0.0
  0
LINE
  5
184
330
1F
100
AcDbEntity
  8
0-C_ハッチ
  6
JWW_DASHED1
 62
   120
370
     5
100
AcDbLine
 10
-2610.791670581013
 20
2097.946220484983
 30
0.0
 11
-2535.79167058102
 21
2172.946220484979
 31
0.0
  0
LINE
  5
185
330
1F
100
AcDbEntity
  8
0-C_ハッチ
  6
JWW_DASHED1
 62
   120
370
     5
100
AcDbLine
 10
-2568.365263709803
 20
2097.946220484996
 30
0.0
 11
-2493.365263709807
 21
2172.946220484991
 31
0.0
  0
LINE
  5
186
330
1F
100
AcDbEntity
  8
0-C_ハッチ
  6
JWW_DASHED1
 62
   120
370
     5
100
AcDbLine
 10
-2525.938856838607
 20
2097.946220484991
 30
0.0
 11
-2450.938856838595
 21
2172.946220485003
 31
0.0
  0
LINE
  5
187
330
1F
100
AcDbEntity
  8
0-C_ハッチ
  6
JWW_DASHED1
 62
   120
370
     5
100
AcDbLine
 10
-2483.512449967411
 20
2097.946220484988
 30
0.0
 11
-2408.5124499674
 21
2172.946220485
 31
0.0
  0
LINE
  5
188
330
1F
100
AcDbEntity
  8
0-C_ハッチ
  6
JWW_DASHED1
 62
   120
370
     5
100
AcDbLine
 10
-2441.086043096197
 20
2097.946220485
 30
0.0
 11
-2366.086043096203
 21
2172.946220484995
 31
0.0
  0
LINE
  5
189
330
1F
100
AcDbEntity
  8
0-C_ハッチ
  6
JWW_DASHED1
 62
   120
370
     5
100
AcDbLine
 10
-2398.659636225002
 20
2097.946220484996
 30
0.0
 11
-2323.659636225007
 21
2172.946220484992
 31
0.0
  0
LINE
  5
18A
330
1F
100
AcDbEntity
  8
0-C_ハッチ
  6
JWW_DASHED1
 62
   120
370
     5
100
AcDbLine
 10
-2356.233229353865
 20
2097.946220484988
 30
0.0
 11
-2281.233229353868
 21
2172.946220484984
 31
0.0
  0
LINE
  5
18B
330
1F
100
AcDbEntity
  8
0-C_ハッチ
  6
JWW_DASHED1
 62
   120
370
     5
100
AcDbLine
 10
-2313.806822482668
 20
2097.946220484984
 30
0.0
 11
-2238.806822482671
 21
2172.94622048498
 31
0.0
  0
LINE
  5
18C
330
1F
100
AcDbEntity
  8
0-C_ハッチ
  6
JWW_DASHED1
 62
   120
370
     5
100
AcDbLine
 10
-2271.380415611468
 20
2097.946220484984
 30
0.0
 11
-2196.380415611475
 21
2172.946220484979
 31
0.0
  0
LINE
  5
18D
330
1F
100
AcDbEntity
  8
0-C_ハッチ
  6
JWW_DASHED1
 62
   120
370
     5
100
AcDbLine
 10
-2228.95400874026
 20
2097.946220484992
 30
0.0
 11
-2153.954008740247
 21
2172.946220485005
 31
0.0
  0
LINE
  5
18E
330
1F
100
AcDbEntity
  8
0-C_ハッチ
  6
JWW_DASHED1
 62
   120
370
     5
100
AcDbLine
 10
-2186.527601869063
 20
2097.946220484989
 30
0.0
 11
-2132.081457156687
 21
2152.392365197366
 31
0.0
  0
LINE
  5
18F
330
1F
100
AcDbEntity
  8
0-C_ハッチ
  6
JWW_DASHED1
 62
   120
370
     5
100
AcDbLine
 10
-2144.101194997867
 20
2097.946220484986
 30
0.0
 11
-2132.081457156678
 21
2109.965958326175
 31
0.0
  0
LINE
  5
190
330
1F
100
AcDbEntity
  8
0-3_仕上げ
  6
Continuous
 62
    40
370
    15
100
AcDbLine
 10
-2762.081259204829
 20
2172.94622048498
 30
0.0
 11
-2132.08145715667
 21
2172.94622048498
 31
0.0
  0
LINE
  5
191
330
1F
100
AcDbEntity
  8
0-3_仕上げ
  6
Continuous
 62
    40
370
    15
100
AcDbLine
 10
-2762.081259204829
 20
2097.94622048498
 30
0.0
 11
-2132.08145715667
 21
2097.94622048498
 31
0.0
  0
LINE
  5
192
330
1F
100
AcDbEntity
  8
0-C_ハッチ
  6
JWW_DASHED1
 62
   120
370
     5
100
AcDbLine
 10
-2762.081259204829
 20
2116.362259345914
 30
0.0
 11
-2705.497298065745
 21
2172.946220484998
 31
0.0
  0
LINE
  5
193
330
1F
100
AcDbEntity
  8
0-C_ハッチ
  6
JWW_DASHED1
 62
   120
370
     5
100
AcDbLine
 10
-2738.070891194562
 20
2097.94622048498
 30
0.0
 11
-2663.070891194548
 21
2172.946220484993
 31
0.0
  0
LINE
  5
194
330
1F
100
AcDbEntity
  8
0-3_仕上げ
  6
Continuous
 62
    40
370
    15
100
AcDbLine
 10
2151.918542843314
 20
2097.94622048498
 30
0.0
 11
2151.918542843314
 21
2172.94622048498
 31
0.0
  0
LINE
  5
195
330
1F
100
AcDbEntity
  8
0-C_ハッチ
  6
JWW_DASHED1
 62
   120
370
     5
100
AcDbLine
 10
2151.9185428433
 20
2146.362259345914
 30
0.0
 11
2178.502503982384
 21
2172.946220484997
 31
0.0
  0
LINE
  5
196
330
1F
100
AcDbEntity
  8
0-C_ハッチ
  6
JWW_DASHED1
 62
   120
370
     5
100
AcDbLine
 10
2151.918542843295
 20
2103.93585247471
 30
0.0
 11
2220.92891085358
 21
2172.946220484993
 31
0.0
  0
LINE
  5
197
330
1F
100
AcDbEntity
  8
0-C_ハッチ
  6
JWW_DASHED1
 62
   120
370
     5
100
AcDbLine
 10
2188.355317724722
 20
2097.94622048499
 30
0.0
 11
2263.355317724717
 21
2172.946220484986
 31
0.0
  0
LINE
  5
198
330
1F
100
AcDbEntity
  8
0-C_ハッチ
  6
JWW_DASHED1
 62
   120
370
     5
100
AcDbLine
 10
2230.781724595919
 20
2097.946220484986
 30
0.0
 11
2305.781724595914
 21
2172.946220484981
 31
0.0
  0
LINE
  5
199
330
1F
100
AcDbEntity
  8
0-C_ハッチ
  6
JWW_DASHED1
 62
   120
370
     5
100
AcDbLine
 10
2273.208131467115
 20
2097.946220484983
 30
0.0
 11
2348.20813146711
 21
2172.946220484979
 31
0.0
  0
LINE
  5
19A
330
1F
100
AcDbEntity
  8
0-C_ハッチ
  6
JWW_DASHED1
 62
   120
370
     5
100
AcDbLine
 10
2315.634538338326
 20
2097.946220484995
 30
0.0
 11
2390.634538338322
 21
2172.946220484991
 31
0.0
  0
LINE
  5
19B
330
1F
100
AcDbEntity
  8
0-C_ハッチ
  6
JWW_DASHED1
 62
   120
370
     5
100
AcDbLine
 10
2358.060945209523
 20
2097.946220484991
 30
0.0
 11
2433.060945209534
 21
2172.946220485002
 31
0.0
  0
LINE
  5
19C
330
1F
100
AcDbEntity
  8
0-C_ハッチ
  6
JWW_DASHED1
 62
   120
370
     5
100
AcDbLine
 10
2400.48735208072
 20
2097.946220484987
 30
0.0
 11
2475.487352080731
 21
2172.946220485
 31
0.0
  0
LINE
  5
19D
330
1F
100
AcDbEntity
  8
0-C_ハッチ
  6
JWW_DASHED1
 62
   120
370
     5
100
AcDbLine
 10
2442.913758951932
 20
2097.946220485
 30
0.0
 11
2517.913758951926
 21
2172.946220484995
 31
0.0
  0
LINE
  5
19E
330
1F
100
AcDbEntity
  8
0-C_ハッチ
  6
JWW_DASHED1
 62
   120
370
     5
100
AcDbLine
 10
2485.340165823127
 20
2097.946220484997
 30
0.0
 11
2560.340165823123
 21
2172.946220484991
 31
0.0
  0
LINE
  5
19F
330
1F
100
AcDbEntity
  8
0-C_ハッチ
  6
JWW_DASHED1
 62
   120
370
     5
100
AcDbLine
 10
2527.766572694265
 20
2097.946220484987
 30
0.0
 11
2602.766572694261
 21
2172.946220484983
 31
0.0
  0
LINE
  5
1A0
330
1F
100
AcDbEntity
  8
0-C_ハッチ
  6
JWW_DASHED1
 62
   120
370
     5
100
AcDbLine
 10
2570.192979565462
 20
2097.946220484984
 30
0.0
 11
2645.192979565457
 21
2172.946220484979
 31
0.0
  0
LINE
  5
1A1
330
1F
100
AcDbEntity
  8
0-C_ハッチ
  6
JWW_DASHED1
 62
   120
370
     5
100
AcDbLine
 10
2612.619386436662
 20
2097.946220484984
 30
0.0
 11
2687.619386436655
 21
2172.946220484977
 31
0.0
  0
LINE
  5
1A2
330
1F
100
AcDbEntity
  8
0-C_ハッチ
  6
JWW_DASHED1
 62
   120
370
     5
100
AcDbLine
 10
2655.04579330787
 20
2097.946220484993
 30
0.0
 11
2730.045793307881
 21
2172.946220485005
 31
0.0
  0
LINE
  5
1A3
330
1F
100
AcDbEntity
  8
0-3_仕上げ
  6
Continuous
 62
    40
370
    15
100
AcDbLine
 10
2151.918542843314
 20
2172.94622048498
 30
0.0
 11
2781.91834489146
 21
2172.94622048498
 31
0.0
  0
LINE
  5
1A4
330
1F
100
AcDbEntity
  8
0-3_仕上げ
  6
Continuous
 62
    40
370
    15
100
AcDbLine
 10
2151.918542843314
 20
2097.94622048498
 30
0.0
 11
2781.91834489146
 21
2097.94622048498
 31
0.0
  0
LINE
  5
1A5
330
1F
100
AcDbEntity
  8
0-C_ハッチ
  6
JWW_DASHED1
 62
   120
370
     5
100
AcDbLine
 10
2697.472200179066
 20
2097.94622048499
 30
0.0
 11
2772.472200179058
 21
2172.94622048498
 31
0.0
  0
LINE
  5
1A6
330
1F
100
AcDbEntity
  8
0-C_ハッチ
  6
JWW_DASHED1
 62
   120
370
     5
100
AcDbLine
 10
2739.898607050263
 20
2097.946220484986
 30
0.0
 11
2781.91834489146
 21
2139.965958326183
 31
0.0
  0
MTEXT
  5
1A7
330
1F
100
AcDbEntity
  8
0-A_文字
  6
Continuous
 62
     7
370
     9
100
AcDbMText
 10
-2762.081303656963
 20
198.8083809715717
 30
0.0
 40
91.44
 41
600.0
 46
0.0
 71
     7
 72
     1
  1
{\fＭＳ ゴシック|b0|i0|c128|p49;■縦断面図}
 73
     1
 44
1.0
  0
MTEXT
  5
1A8
330
1F
100
AcDbEntity
  8
0-A_文字
  6
Continuous
 62
     7
370
     9
100
AcDbMText
 10
-2762.081303656961
 20
50.28811580412766
 30
0.0
 40
91.44000000000023
 41
1440.000000000003
 46
0.0
 71
     7
 72
     1
  1
{\fＭＳ ゴシック|b0|i0|c128|p49;　[３方枠＋床直付レール]}
 73
     1
 44
1.0
  0
MTEXT
  5
1A9
330
1F
100
AcDbEntity
  8
0-A_文字
  6
Continuous
 62
     7
370
   211
100
AcDbMText
 10
-2085.881201723132
 20
-2985.712628161209
 30
0.0
 40
91.43999999999966
 41
239.9999999999991
 46
0.0
 71
     7
 72
     1
  1
{\fＭＳ ゴシック|b0|i0|c128|p49;27.4}
 73
     1
 44
1.0
  0
LINE
  5
1AA
330
1F
100
AcDbEntity
  8
0-B_寸法
  6
Continuous
 62
   120
370
     5
100
AcDbLine
 10
-1448.081349444503
 20
-381.8298970622422
 30
0.0
 11
-686.0812380026973
 21
-381.8298970622422
 31
0.0
  0
LWPOLYLINE
  5
1AB
330
1F
100
AcDbEntity
  8
0-B_寸法
  6
Continuous
 62
     7
370
     9
100
AcDbPolyline
 90
        4
 70
     1
 43
3.0
 10
-684.5812380026973
 20
-381.8298970622422
 42
0.4142135623731
 10
-686.0812380026973
 20
-380.3298970622422
 42
0.4142135623731
 10
-687.5812380026974
 20
-381.8298970622422
 42
0.4142135623731
 10
-686.0812380026973
 20
-383.3298970622422
 42
0.4142135623731
  0
LINE
  5
1AC
330
1F
100
AcDbEntity
  8
0-B_寸法
  6
Continuous
 62
   120
370
     5
100
AcDbLine
 10
-1106.081238002693
 20
-597.8289023541577
 30
0.0
 11
-896.0812380026931
 21
-597.8289023541577
 31
0.0
  0
LWPOLYLINE
  5
1AD
330
1F
100
AcDbEntity
  8
0-B_寸法
  6
Continuous
 62
     7
370
     9
100
AcDbPolyline
 90
        4
 70
     1
 43
3.0
 10
-894.5812380026931
 20
-597.8289023541577
 42
0.4142135623731
 10
-896.0812380026931
 20
-596.3289023541577
 42
0.4142135623731
 10
-897.5812380026931
 20
-597.8289023541577
 42
0.4142135623731
 10
-896.0812380026931
 20
-599.3289023541577
 42
0.4142135623731
  0
LWPOLYLINE
  5
1AE
330
1F
100
AcDbEntity
  8
0-B_寸法
  6
Continuous
 62
     7
370
     9
100
AcDbPolyline
 90
        4
 70
     1
 43
3.0
 10
-894.5812380026931
 20
-381.8298970622422
 42
0.4142135623731
 10
-896.0812380026931
 20
-380.3298970622422
 42
0.4142135623731
 10
-897.5812380026931
 20
-381.8298970622422
 42
0.4142135623731
 10
-896.0812380026931
 20
-383.3298970622422
 42
0.4142135623731
  0
LWPOLYLINE
  5
1AF
330
1F
100
AcDbEntity
  8
0-B_寸法
  6
Continuous
 62
     7
370
     9
100
AcDbPolyline
 90
        4
 70
     1
 43
3.0
 10
-1104.581238002693
 20
-597.8292735138907
 42
0.4142135623731
 10
-1106.081238002693
 20
-596.3292735138907
 42
0.4142135623731
 10
-1107.581238002693
 20
-597.8292735138907
 42
0.4142135623731
 10
-1106.081238002693
 20
-599.3292735138908
 42
0.4142135623731
  0
LWPOLYLINE
  5
1B0
330
1F
100
AcDbEntity
  8
0-B_寸法
  6
Continuous
 62
     7
370
     9
100
AcDbPolyline
 90
        4
 70
     1
 43
3.0
 10
-1104.581238002693
 20
-642.8294219777845
 42
0.4142135623731
 10
-1106.081238002693
 20
-641.3294219777845
 42
0.4142135623731
 10
-1107.581238002693
 20
-642.8294219777845
 42
0.4142135623731
 10
-1106.081238002693
 20
-644.3294219777846
 42
0.4142135623731
  0
LINE
  5
1B1
330
1F
100
AcDbEntity
  8
0-B_寸法
  6
Continuous
 62
   120
370
     5
100
AcDbLine
 10
-1316.081361468329
 20
-642.8294219777845
 30
0.0
 11
-1106.081238002693
 21
-642.8294219777845
 31
0.0
  0
LWPOLYLINE
  5
1B2
330
1F
100
AcDbEntity
  8
0-B_寸法
  6
Continuous
 62
     7
370
     9
100
AcDbPolyline
 90
        4
 70
     1
 43
3.0
 10
-684.5812380026973
 20
-3309.830305131826
 42
0.4142135623731
 10
-686.0812380026973
 20
-3308.330305131826
 42
0.4142135623731
 10
-687.5812380026974
 20
-3309.830305131826
 42
0.4142135623731
 10
-686.0812380026973
 20
-3311.330305131826
 42
0.4142135623731
  0
LINE
  5
1B3
330
1F
100
AcDbEntity
  8
0-B_寸法
  6
Continuous
 62
   120
370
     5
100
AcDbLine
 10
-1316.081361468329
 20
-3309.830305131826
 30
0.0
 11
-686.0812380026973
 21
-3309.830305131826
 31
0.0
  0
LWPOLYLINE
  5
1B4
330
1F
100
AcDbEntity
  8
0-B_寸法
  6
Continuous
 62
     7
370
     9
100
AcDbPolyline
 90
        4
 70
     1
 43
3.0
 10
-894.5812380026931
 20
-3309.830305131826
 42
0.4142135623731
 10
-896.0812380026931
 20
-3308.330305131826
 42
0.4142135623731
 10
-897.5812380026931
 20
-3309.830305131826
 42
0.4142135623731
 10
-896.0812380026931
 20
-3311.330305131826
 42
0.4142135623731
  0
LINE
  5
1B5
330
1F
100
AcDbEntity
  8
0-3_仕上げ
  6
Continuous
 62
     7
370
     9
100
AcDbLine
 10
-2552.080579320381
 20
-3357.830537725259
 30
0.0
 11
-1316.080579320366
 21
-3357.830537725259
 31
0.0
  0
LINE
  5
1B6
330
1F
100
AcDbEntity
  8
0-3_仕上げ
  6
Continuous
 62
     7
370
     9
100
AcDbLine
 10
-2552.080579320381
 20
-3345.830572366835
 30
0.0
 11
-1316.080579320366
 21
-3345.830572366835
 31
0.0
  0
LINE
  5
1B7
330
1F
100
AcDbEntity
  8
0-3_仕上げ
  6
Continuous
 62
     7
370
     9
100
AcDbLine
 10
-2552.080579320381
 20
-3369.830688663554
 30
0.0
 11
-1316.080579320366
 21
-3369.830688663554
 31
0.0
  0
LINE
  5
1B8
330
1F
100
AcDbEntity
  8
0-3_仕上げ
  6
Continuous
 62
    40
370
    15
100
AcDbLine
 10
-2552.080579320381
 20
-3381.830654021977
 30
0.0
 11
-1316.080579320366
 21
-3381.830654021977
 31
0.0
  0
LINE
  5
1B9
330
1F
100
AcDbEntity
  8
0-3_仕上げ
  6
Continuous
 62
     7
370
     9
100
AcDbLine
 10
-2552.080579320381
 20
-3333.83060700841
 30
0.0
 11
-1316.080579320366
 21
-3333.83060700841
 31
0.0
  0
LINE
  5
1BA
330
1F
100
AcDbEntity
  8
0-3_仕上げ
  6
Continuous
 62
     7
370
     9
100
AcDbLine
 10
-2552.080579320381
 20
-3321.830456070116
 30
0.0
 11
-1316.080579320366
 21
-3321.830456070116
 31
0.0
  0
LINE
  5
1BB
330
1F
100
AcDbEntity
  8
0-3_仕上げ
  6
Continuous
 62
    40
370
    15
100
AcDbLine
 10
-1316.080579320366
 20
-3309.83067629156
 30
0.0
 11
-2552.080579320381
 21
-3309.83067629156
 31
0.0
  0
LWPOLYLINE
  5
1BC
330
1F
100
AcDbEntity
  8
0-B_寸法
  6
Continuous
 62
     7
370
     9
100
AcDbPolyline
 90
        4
 70
     1
 43
3.0
 10
-894.5812380026931
 20
-3279.83067629156
 42
0.4142135623731
 10
-896.0812380026931
 20
-3278.33067629156
 42
0.4142135623731
 10
-897.5812380026931
 20
-3279.83067629156
 42
0.4142135623731
 10
-896.0812380026931
 20
-3281.33067629156
 42
0.4142135623731
  0
LINE
  5
1BD
330
1F
100
AcDbEntity
  8
0-B_寸法
  6
Continuous
 62
   120
370
     5
100
AcDbLine
 10
-1316.081361468329
 20
-3279.83067629156
 30
0.0
 11
-896.0812380026931
 21
-3279.83067629156
 31
0.0
  0
LWPOLYLINE
  5
1BE
330
1F
100
AcDbEntity
  8
0-B_寸法
  6
Continuous
 62
     7
370
     9
100
AcDbPolyline
 90
        4
 70
     1
 43
3.0
 10
-1104.581238002693
 20
-3279.83067629156
 42
0.4142135623731
 10
-1106.081238002693
 20
-3278.33067629156
 42
0.4142135623731
 10
-1107.581238002693
 20
-3279.83067629156
 42
0.4142135623731
 10
-1106.081238002693
 20
-3281.33067629156
 42
0.4142135623731
  0
LWPOLYLINE
  5
1BF
330
1F
100
AcDbEntity
  8
0-B_寸法
  6
Continuous
 62
     7
370
     9
100
AcDbPolyline
 90
        4
 70
     1
 43
3.0
 10
-1104.581238002693
 20
-3240.830676291561
 42
0.4142135623731
 10
-1106.081238002693
 20
-3239.330676291561
 42
0.4142135623731
 10
-1107.581238002693
 20
-3240.830676291561
 42
0.4142135623731
 10
-1106.081238002693
 20
-3242.33067629156
 42
0.4142135623731
  0
LINE
  5
1C0
330
1F
100
AcDbEntity
  8
0-B_寸法
  6
Continuous
 62
   120
370
     5
100
AcDbLine
 10
-1316.081361468329
 20
-3240.830676291561
 30
0.0
 11
-1106.081238002693
 21
-3240.830676291561
 31
0.0
  0
MTEXT
  5
1C1
330
1F
100
AcDbEntity
  8
0-B_寸法
  6
Continuous
 62
     7
370
   211
100
AcDbMText
 10
-701.0812380026923
 20
-360.5465974683114
 30
0.0
 40
91.43999999999805
 41
59.99999999999872
 46
0.0
 71
     7
 72
     1
  1
{\fＭＳ ゴシック|b0|i0|c128|p49;5}
 11
6.123031769111886E-17
 21
1.0
 31
0.0
 73
     1
 44
1.0
  0
LINE
  5
1C2
330
1F
100
AcDbEntity
  8
0-B_寸法
  6
Continuous
 62
   120
370
     5
100
AcDbLine
 10
-1316.081361468329
 20
-3381.830282862244
 30
0.0
 11
-686.0804397283522
 21
-3381.830282862244
 31
0.0
  0
LWPOLYLINE
  5
1C3
330
1F
100
AcDbEntity
  8
0-B_寸法
  6
Continuous
 62
     7
370
     9
100
AcDbPolyline
 90
        4
 70
     1
 43
3.0
 10
-684.5804397283522
 20
-3381.830282862244
 42
0.4142135623731
 10
-686.0804397283522
 20
-3380.330282862244
 42
0.4142135623731
 10
-687.5804397283522
 20
-3381.830282862244
 42
0.4142135623731
 10
-686.0804397283522
 20
-3383.330282862244
 42
0.4142135623731
  0
LINE
  5
1C4
330
1F
100
AcDbEntity
  8
0-B_寸法
  6
Continuous
 62
   120
370
     5
100
AcDbLine
 10
-1106.081238002693
 20
-3279.83067629156
 30
0.0
 11
-1106.081238002693
 21
-597.8292735138907
 31
0.0
  0
LINE
  5
1C5
330
1F
100
AcDbEntity
  8
0-B_寸法
  6
Continuous
 62
   120
370
     5
100
AcDbLine
 10
-896.0812380026931
 20
-3309.830305131826
 30
0.0
 11
-896.0812380026931
 21
-381.8298970622422
 31
0.0
  0
LINE
  5
1C6
330
1F
100
AcDbEntity
  8
0-B_寸法
  6
Continuous
 62
   120
370
     5
100
AcDbLine
 10
-2897.08120172313
 20
-3381.830282862244
 30
0.0
 11
-2552.081361468347
 21
-3381.830282862244
 31
0.0
  0
LWPOLYLINE
  5
1C7
330
1F
100
AcDbEntity
  8
0-B_寸法
  6
Continuous
 62
     7
370
     9
100
AcDbPolyline
 90
        4
 70
     1
 43
3.0
 10
-2895.58120172313
 20
-3381.830282862244
 42
0.4142135623731
 10
-2897.08120172313
 20
-3380.330282862244
 42
0.4142135623731
 10
-2898.58120172313
 20
-3381.830282862244
 42
0.4142135623731
 10
-2897.08120172313
 20
-3383.330282862244
 42
0.4142135623731
  0
LINE
  5
1C8
330
1F
100
AcDbEntity
  8
0-0_補助線
  6
JWW_HOJO
 62
   120
370
     5
100
AcDbLine
 10
-2897.080403448823
 20
-3381.830282835853
 30
0.0
 11
-686.0804397283522
 21
-3381.830282835853
 31
0.0
  0
LINE
  5
1C9
330
1F
100
AcDbEntity
  8
0-1_通り芯
  6
JWW_CENTER1
 62
   120
370
     5
100
AcDbLine
 10
-1934.081201723129
 20
-3465.660624903498
 30
0.0
 11
-1934.081201723129
 21
-99.82988221585487
 31
0.0
  0
LINE
  5
1CA
330
1F
100
AcDbEntity
  8
0-B_寸法
  6
Continuous
 62
   120
370
     5
100
AcDbLine
 10
-2897.08120172313
 20
-351.8298970622422
 30
0.0
 11
-2225.081155946763
 21
-351.8298970622422
 31
0.0
  0
LINE
  5
1CB
330
1F
100
AcDbEntity
  8
0-B_寸法
  6
Continuous
 62
   120
370
     5
100
AcDbLine
 10
-686.0812380026973
 20
-351.8298970622422
 30
0.0
 11
-1316.081238002693
 21
-351.8298970622422
 31
0.0
  0
LWPOLYLINE
  5
1CC
330
1F
100
AcDbEntity
  8
0-B_寸法
  6
Continuous
 62
     7
370
     9
100
AcDbPolyline
 90
        4
 70
     1
 43
3.0
 10
-684.5812380026973
 20
-351.8298970622422
 42
0.4142135623731
 10
-686.0812380026973
 20
-350.3298970622422
 42
0.4142135623731
 10
-687.5812380026974
 20
-351.8298970622422
 42
0.4142135623731
 10
-686.0812380026973
 20
-353.3298970622422
 42
0.4142135623731
  0
LWPOLYLINE
  5
1CD
330
1F
100
AcDbEntity
  8
0-B_寸法
  6
Continuous
 62
     7
370
     9
100
AcDbPolyline
 90
        4
 70
     1
 43
3.0
 10
-2895.58120172313
 20
-351.8298970622422
 42
0.4142135623731
 10
-2897.08120172313
 20
-350.3298970622422
 42
0.4142135623731
 10
-2898.58120172313
 20
-351.8298970622422
 42
0.4142135623731
 10
-2897.08120172313
 20
-353.3298970622422
 42
0.4142135623731
  0
LINE
  5
1CE
330
1F
100
AcDbEntity
  8
0-B_寸法
  6
Continuous
 62
   120
370
     5
100
AcDbLine
 10
-686.0812380026973
 20
-3381.830282862244
 30
0.0
 11
-686.0812380026973
 21
-351.8298970622422
 31
0.0
  0
LINE
  5
1CF
330
1F
100
AcDbEntity
  8
0-B_寸法
  6
Continuous
 62
   120
370
     5
100
AcDbLine
 10
-2897.08120172313
 20
-351.8298970622422
 30
0.0
 11
-2897.08120172313
 21
-3381.830282862244
 31
0.0
  0
MTEXT
  5
1D0
330
1F
100
AcDbEntity
  8
0-B_寸法
  6
Continuous
 62
     7
370
   211
100
AcDbMText
 10
-1316.081303668136
 20
-388.5564480620022
 30
0.0
 40
91.43999999999805
 41
59.99999999999872
 46
0.0
 71
     7
 72
     1
  1
{\fＭＳ ゴシック|b0|i0|c128|p49;8}
 11
6.123031769111886E-17
 21
1.0
 31
0.0
 73
     1
 44
1.0
  0
MTEXT
  5
1D1
330
1F
100
AcDbEntity
  8
0-B_寸法
  6
Continuous
 62
     7
370
   211
100
AcDbMText
 10
-1316.081303668136
 20
-474.1098424193561
 30
0.0
 40
91.43999999999805
 41
59.99999999999872
 46
0.0
 71
     7
 72
     1
  1
{\fＭＳ ゴシック|b0|i0|c128|p49;9}
 11
6.123031769111886E-17
 21
1.0
 31
0.0
 73
     1
 44
1.0
  0
MTEXT
  5
1D2
330
1F
100
AcDbEntity
  8
0-B_寸法
  6
Continuous
 62
     7
370
     0
100
AcDbMText
 10
-911.0805451711926
 20
-560.3593997081995
 30
0.0
 40
91.43999999999966
 41
119.9999999999996
 46
0.0
 71
     7
 72
     1
  1
{\fＭＳ ゴシック|b0|i0|c128|p49;36}
 11
6.123031769111886E-17
 21
1.0
 31
0.0
 73
     1
 44
1.0
  0
LINE
  5
1D3
330
1F
100
AcDbEntity
  8
0-B_寸法
  6
Continuous
 62
   120
370
     5
100
AcDbLine
 10
-1316.081303668135
 20
-381.8298424193583
 30
0.0
 11
-1316.081303668135
 21
-597.8296593138898
 31
0.0
  0
LWPOLYLINE
  5
1D4
330
1F
100
AcDbEntity
  8
0-B_寸法
  6
Continuous
 62
     7
370
     9
100
AcDbPolyline
 90
        4
 70
     1
 43
3.0
 10
-1314.581303668135
 20
-381.8298424193583
 42
0.4142135623731
 10
-1316.081303668135
 20
-380.3298424193583
 42
0.4142135623731
 10
-1317.581303668135
 20
-381.8298424193583
 42
0.4142135623731
 10
-1316.081303668135
 20
-383.3298424193583
 42
0.4142135623731
  0
LWPOLYLINE
  5
1D5
330
1F
100
AcDbEntity
  8
0-B_寸法
  6
Continuous
 62
     7
370
     9
100
AcDbPolyline
 90
        4
 70
     1
 43
3.0
 10
-1314.581303668135
 20
-483.8298424193576
 42
0.4142135623731
 10
-1316.081303668135
 20
-482.3298424193576
 42
0.4142135623731
 10
-1317.581303668135
 20
-483.8298424193576
 42
0.4142135623731
 10
-1316.081303668135
 20
-485.3298424193576
 42
0.4142135623731
  0
LWPOLYLINE
  5
1D6
330
1F
100
AcDbEntity
  8
0-B_寸法
  6
Continuous
 62
     7
370
     9
100
AcDbPolyline
 90
        4
 70
     1
 43
3.0
 10
-1314.581303668135
 20
-537.8298424193579
 42
0.4142135623731
 10
-1316.081303668135
 20
-536.3298424193579
 42
0.4142135623731
 10
-1317.581303668135
 20
-537.8298424193579
 42
0.4142135623731
 10
-1316.081303668135
 20
-539.329842419358
 42
0.4142135623731
  0
LWPOLYLINE
  5
1D7
330
1F
100
AcDbEntity
  8
0-B_寸法
  6
Continuous
 62
     7
370
     9
100
AcDbPolyline
 90
        4
 70
     1
 43
3.0
 10
-1314.581303668135
 20
-597.8296593138898
 42
0.4142135623731
 10
-1316.081303668135
 20
-596.3296593138898
 42
0.4142135623731
 10
-1317.581303668135
 20
-597.8296593138898
 42
0.4142135623731
 10
-1316.081303668135
 20
-599.3296593138899
 42
0.4142135623731
  0
LWPOLYLINE
  5
1D8
330
1F
100
AcDbEntity
  8
0-B_寸法
  6
Continuous
 62
     7
370
     9
100
AcDbPolyline
 90
        4
 70
     1
 43
3.0
 10
-1314.581303668135
 20
-429.8298424193572
 42
0.4142135623731
 10
-1316.081303668135
 20
-428.3298424193572
 42
0.4142135623731
 10
-1317.581303668135
 20
-429.8298424193572
 42
0.4142135623731
 10
-1316.081303668135
 20
-431.3298424193572
 42
0.4142135623731
  0
LINE
  5
1D9
330
1F
100
AcDbEntity
  8
0-B_寸法
  6
Continuous
 62
   120
370
     5
100
AcDbLine
 10
-1427.575604259966
 20
-537.8298424193579
 30
0.0
 11
-1448.081349444503
 21
-537.8298424193579
 31
0.0
  0
LINE
  5
1DA
330
1F
100
AcDbEntity
  8
0-B_寸法
  6
Continuous
 62
   120
370
     5
100
AcDbLine
 10
-1316.081303668135
 20
-537.8298424193579
 30
0.0
 11
-1328.61359379014
 21
-537.8298424193579
 31
0.0
  0
LINE
  5
1DB
330
1F
100
AcDbEntity
  8
0-B_寸法
  6
Continuous
 62
   120
370
     5
100
AcDbLine
 10
-1316.081303668135
 20
-483.8298424193576
 30
0.0
 11
-1448.081349444503
 21
-483.8298424193576
 31
0.0
  0
LINE
  5
1DC
330
1F
100
AcDbEntity
  8
0-B_寸法
  6
Continuous
 62
   120
370
     5
100
AcDbLine
 10
-1427.575604259966
 20
-429.8298424193572
 30
0.0
 11
-1448.081349444503
 21
-429.8298424193572
 31
0.0
  0
LINE
  5
1DD
330
1F
100
AcDbEntity
  8
0-B_寸法
  6
Continuous
 62
   120
370
     5
100
AcDbLine
 10
-1316.081303668135
 20
-429.8298424193572
 30
0.0
 11
-1328.61359379014
 21
-429.8298424193572
 31
0.0
  0
MTEXT
  5
1DE
330
1F
100
AcDbEntity
  8
0-B_寸法
  6
Continuous
 62
     7
370
   211
100
AcDbMText
 10
-1316.081303668136
 20
-582.1098424193568
 30
0.0
 40
91.43999999999805
 41
59.99999999999872
 46
0.0
 71
     7
 72
     1
  1
{\fＭＳ ゴシック|b0|i0|c128|p49;9}
 11
6.123031769111886E-17
 21
1.0
 31
0.0
 73
     1
 44
1.0
  0
LINE
  5
1DF
330
1F
100
AcDbEntity
  8
0-4_枠
  6
Continuous
 62
    92
370
    13
100
AcDbLine
 10
-2165.081751039535
 20
-597.8297139567737
 30
0.0
 11
-2018.082427313834
 21
-597.8297139567737
 31
0.0
  0
LINE
  5
1E0
330
1F
100
AcDbEntity
  8
0-4_枠
  6
Continuous
 62
    92
370
    13
100
AcDbLine
 10
-2018.082427313834
 20
-597.8297139567737
 30
0.0
 11
-2018.082427313834
 21
-477.8292561931019
 31
0.0
  0
LINE
  5
1E1
330
1F
100
AcDbEntity
  8
0-4_枠
  6
Continuous
 62
    92
370
    13
100
AcDbLine
 10
-2018.082427313834
 20
-477.8292561931019
 30
0.0
 11
-1850.082174470931
 21
-477.8292561931019
 31
0.0
  0
LINE
  5
1E2
330
1F
100
AcDbEntity
  8
0-4_枠
  6
Continuous
 62
    92
370
    13
100
AcDbLine
 10
-1850.082174470931
 20
-477.8292561931019
 30
0.0
 11
-1850.082174470931
 21
-597.8297139567737
 31
0.0
  0
LINE
  5
1E3
330
1F
100
AcDbEntity
  8
0-7_金物
  6
Continuous
 62
     7
370
     9
100
AcDbLine
 10
-2000.261563470869
 20
-584.6174642009137
 30
0.0
 11
-2000.261563470869
 21
-518.6174642009141
 31
0.0
  0
LINE
  5
1E4
330
1F
100
AcDbEntity
  8
0-7_金物
  6
Continuous
 62
     7
370
     9
100
AcDbLine
 10
-2000.261563470869
 20
-518.6174642009141
 30
0.0
 11
-1964.08239763072
 21
-518.6174642009141
 31
0.0
  0
LINE
  5
1E5
330
1F
100
AcDbEntity
  8
0-7_金物
  6
Continuous
 62
     7
370
     9
100
AcDbLine
 10
-1964.08239763072
 20
-597.8297139567737
 30
0.0
 11
-1964.08239763072
 21
-501.8292561931023
 31
0.0
  0
LINE
  5
1E6
330
1F
100
AcDbEntity
  8
0-7_金物
  6
Continuous
 62
     7
370
     9
100
AcDbLine
 10
-1964.08239763072
 20
-501.8292561931023
 30
0.0
 11
-1904.08070962718
 21
-501.8292561931023
 31
0.0
  0
LINE
  5
1E7
330
1F
100
AcDbEntity
  8
0-7_金物
  6
Continuous
 62
     7
370
     9
100
AcDbLine
 10
-1904.08070962718
 20
-501.8292561931023
 30
0.0
 11
-1904.08070962718
 21
-597.8297139567737
 31
0.0
  0
LINE
  5
1E8
330
1F
100
AcDbEntity
  8
0-7_金物
  6
Continuous
 62
     7
370
     9
100
AcDbLine
 10
-1868.262315919906
 20
-518.6174642009141
 30
0.0
 11
-1868.262315919906
 21
-584.6174642009137
 31
0.0
  0
LINE
  5
1E9
330
1F
100
AcDbEntity
  8
0-7_金物
  6
Continuous
 62
     7
370
     9
100
AcDbLine
 10
-1904.08070962718
 20
-518.6174642009141
 30
0.0
 11
-1868.262315919906
 21
-518.6174642009141
 31
0.0
  0
LINE
  5
1EA
330
1F
100
AcDbEntity
  8
0-7_金物
  6
Continuous
 62
     7
370
     9
100
AcDbLine
 10
-1850.082174470931
 20
-597.8297139567737
 30
0.0
 11
-1832.082403352766
 21
-597.8297139567737
 31
0.0
  0
LINE
  5
1EB
330
1F
100
AcDbEntity
  8
0-7_金物
  6
Continuous
 62
     7
370
     9
100
AcDbLine
 10
-1869.086290529281
 20
-603.8298055095074
 30
0.0
 11
-1869.086290529281
 21
-597.8297139567737
 31
0.0
  0
LINE
  5
1EC
330
1F
100
AcDbEntity
  8
0-7_金物
  6
Continuous
 62
     7
370
     9
100
AcDbLine
 10
-1862.082506349593
 20
-597.8297139567737
 30
0.0
 11
-1869.086290529281
 21
-597.8297139567737
 31
0.0
  0
LINE
  5
1ED
330
1F
100
AcDbEntity
  8
0-7_金物
  6
Continuous
 62
     7
370
     9
100
AcDbLine
 10
-2018.082427313834
 20
-597.8297139567737
 30
0.0
 11
-2036.080705335646
 21
-597.8297139567737
 31
0.0
  0
LINE
  5
1EE
330
1F
100
AcDbEntity
  8
0-7_金物
  6
Continuous
 62
     7
370
     9
100
AcDbLine
 10
-1998.295903375654
 20
-603.8298055095074
 30
0.0
 11
-1998.295903375654
 21
-597.8297139567737
 31
0.0
  0
LINE
  5
1EF
330
1F
100
AcDbEntity
  8
0-7_金物
  6
Continuous
 62
     7
370
     9
100
AcDbLine
 10
-1998.295903375654
 20
-597.8297139567737
 30
0.0
 11
-2006.082833936721
 21
-597.8297139567737
 31
0.0
  0
LINE
  5
1F0
330
1F
100
AcDbEntity
  8
0-7_金物
  6
Continuous
 62
     7
370
     9
100
AcDbLine
 10
-1832.082403352766
 20
-597.8297139567737
 30
0.0
 11
-1832.082403352766
 21
-603.8298055095074
 31
0.0
  0
LINE
  5
1F1
330
1F
100
AcDbEntity
  8
0-7_金物
  6
Continuous
 62
     7
370
     9
100
AcDbLine
 10
-1998.295903375654
 20
-603.8298055095074
 30
0.0
 11
-2036.080705335646
 21
-603.8298055095074
 31
0.0
  0
LINE
  5
1F2
330
1F
100
AcDbEntity
  8
0-7_金物
  6
Continuous
 62
     7
370
     9
100
AcDbLine
 10
-2036.080705335646
 20
-597.8297139567737
 30
0.0
 11
-2036.080705335646
 21
-603.8298055095074
 31
0.0
  0
LINE
  5
1F3
330
1F
100
AcDbEntity
  8
0-7_金物
  6
Continuous
 62
     7
370
     9
100
AcDbLine
 10
-1922.081957033186
 20
-642.8298055095079
 30
0.0
 11
-1946.082637956648
 21
-642.8298055095079
 31
0.0
  0
LINE
  5
1F4
330
1F
100
AcDbEntity
  8
0-7_金物
  6
Continuous
 62
     7
370
     9
100
AcDbLine
 10
-1922.081957033186
 20
-597.8297139567737
 30
0.0
 11
-1922.081957033186
 21
-642.8298055095079
 31
0.0
  0
LINE
  5
1F5
330
1F
100
AcDbEntity
  8
0-7_金物
  6
Continuous
 62
     7
370
     9
100
AcDbLine
 10
-1946.082637956648
 20
-642.8298055095079
 30
0.0
 11
-1946.082637956648
 21
-597.8297139567737
 31
0.0
  0
LINE
  5
1F6
330
1F
100
AcDbEntity
  8
0-7_金物
  6
Continuous
 62
     7
370
     9
100
AcDbLine
 10
-1964.08239763072
 20
-584.6174642009137
 30
0.0
 11
-2000.261563470869
 21
-584.6174642009137
 31
0.0
  0
LINE
  5
1F7
330
1F
100
AcDbEntity
  8
0-7_金物
  6
Continuous
 62
     7
370
     9
100
AcDbLine
 10
-1868.262315919906
 20
-584.6174642009137
 30
0.0
 11
-1904.08070962718
 21
-584.6174642009137
 31
0.0
  0
LINE
  5
1F8
330
1F
100
AcDbEntity
  8
0-7_金物
  6
Continuous
 62
     7
370
     9
100
AcDbLine
 10
-1904.08070962718
 20
-597.8297139567737
 30
0.0
 11
-1964.08239763072
 21
-597.8297139567737
 31
0.0
  0
LINE
  5
1F9
330
1F
100
AcDbEntity
  8
0-7_金物
  6
Continuous
 62
     7
370
     9
100
AcDbLine
 10
-1869.086290529281
 20
-603.8298055095074
 30
0.0
 11
-1832.082403352766
 21
-603.8298055095074
 31
0.0
  0
LINE
  5
1FA
330
1F
100
AcDbEntity
  8
0-4_枠
  6
Continuous
 62
    92
370
    13
100
AcDbLine
 10
-2165.081751039535
 20
-381.8298970622422
 30
0.0
 11
-1745.081751039535
 21
-381.8298970622422
 31
0.0
  0
LINE
  5
1FB
330
1F
100
AcDbEntity
  8
0-4_枠
  6
Continuous
 62
    92
370
    13
100
AcDbLine
 10
-1703.081751039533
 20
-597.8297139567737
 30
0.0
 11
-1850.082174470931
 21
-597.8297139567737
 31
0.0
  0
MTEXT
  5
1FC
330
1F
100
AcDbEntity
  8
0-B_寸法
  6
Continuous
 62
     7
370
   211
100
AcDbMText
 10
-1316.081303668136
 20
-749.7727640668
 30
0.0
 40
91.44000000000129
 41
120.0000000000017
 46
0.0
 71
     7
 72
     1
  1
{\fＭＳ ゴシック|b0|i0|c128|p49;10}
 11
6.123031769111886E-17
 21
1.0
 31
0.0
 73
     1
 44
1.0
  0
LINE
  5
1FD
330
1F
100
AcDbEntity
  8
0-B_寸法
  6
Continuous
 62
   120
370
     5
100
AcDbLine
 10
-1703.081751039533
 20
-893.3122363663788
 30
0.0
 11
-2165.081751039535
 21
-893.3122363663788
 31
0.0
  0
LWPOLYLINE
  5
1FE
330
1F
100
AcDbEntity
  8
0-B_寸法
  6
Continuous
 62
     7
370
     9
100
AcDbPolyline
 90
        4
 70
     1
 43
3.0
 10
-2163.581751039535
 20
-893.3122363663788
 42
0.4142135623731
 10
-2165.081751039535
 20
-891.8122363663787
 42
0.4142135623731
 10
-2166.581751039535
 20
-893.3122363663788
 42
0.4142135623731
 10
-2165.081751039535
 20
-894.8122363663788
 42
0.4142135623731
  0
LINE
  5
1FF
330
1F
100
AcDbEntity
  8
0-B_寸法
  6
Continuous
 62
   120
370
     5
100
AcDbLine
 10
-2165.081751039535
 20
-893.3122363663788
 30
0.0
 11
-2165.081751039535
 21
-739.6012889444836
 31
0.0
  0
LWPOLYLINE
  5
200
330
1F
100
AcDbEntity
  8
0-B_寸法
  6
Continuous
 62
     7
370
     9
100
AcDbPolyline
 90
        4
 70
     1
 43
3.0
 10
-1701.581751039533
 20
-893.3122363663788
 42
0.4142135623731
 10
-1703.081751039533
 20
-891.8122363663787
 42
0.4142135623731
 10
-1704.581751039533
 20
-893.3122363663788
 42
0.4142135623731
 10
-1703.081751039533
 20
-894.8122363663788
 42
0.4142135623731
  0
LINE
  5
201
330
1F
100
AcDbEntity
  8
0-B_寸法
  6
Continuous
 62
   120
370
     5
100
AcDbLine
 10
-1703.081751039533
 20
-893.3122363663788
 30
0.0
 11
-1703.081751039533
 21
-739.6012889444836
 31
0.0
  0
LINE
  5
202
330
1F
100
AcDbEntity
  8
0-7_金物
  6
Continuous
 62
     7
370
     9
100
AcDbLine
 10
-1862.082506349593
 20
-597.8297139567737
 30
0.0
 11
-1862.082506349593
 21
-489.8296224040391
 31
0.0
  0
LINE
  5
203
330
1F
100
AcDbEntity
  8
0-7_金物
  6
Continuous
 62
     7
370
     9
100
AcDbLine
 10
-1850.082174471593
 20
-597.8297139567737
 30
0.0
 11
-1850.082174471593
 21
-477.829256194039
 31
0.0
  0
LINE
  5
204
330
1F
100
AcDbEntity
  8
0-7_金物
  6
Continuous
 62
     7
370
     9
100
AcDbLine
 10
-2006.082833936721
 20
-597.8297139567737
 30
0.0
 11
-2006.082833936721
 21
-489.8296224040391
 31
0.0
  0
LINE
  5
205
330
1F
100
AcDbEntity
  8
0-7_金物
  6
Continuous
 62
     7
370
     9
100
AcDbLine
 10
-2018.083165814721
 20
-597.8297139567737
 30
0.0
 11
-2018.083165814721
 21
-477.829256194039
 31
0.0
  0
LINE
  5
206
330
1F
100
AcDbEntity
  8
0-7_金物
  6
Continuous
 62
     7
370
     9
100
AcDbLine
 10
-1862.082506349593
 20
-489.8296224040391
 30
0.0
 11
-2006.082833936721
 21
-489.8296224040391
 31
0.0
  0
LINE
  5
207
330
1F
100
AcDbEntity
  8
0-7_金物
  6
Continuous
 62
     7
370
     9
100
AcDbLine
 10
-1850.082174471593
 20
-477.829256194039
 30
0.0
 11
-2018.083165814721
 21
-477.829256194039
 31
0.0
  0
LINE
  5
208
330
1F
100
AcDbEntity
  8
0-7_金物
  6
Continuous
 62
     7
370
     9
100
AcDbLine
 10
-1844.0814477711
 20
-345.6843136821295
 30
0.0
 11
-2024.081310441997
 21
-345.6843136821295
 31
0.0
  0
LINE
  5
209
330
1F
100
AcDbEntity
  8
0-7_金物
  6
Continuous
 62
     7
370
     9
100
AcDbLine
 10
-2024.081310441997
 20
-333.6839760814202
 30
0.0
 11
-2024.081310441997
 21
-345.6843136821295
 31
0.0
  0
LINE
  5
20A
330
1F
100
AcDbEntity
  8
0-7_金物
  6
Continuous
 62
     7
370
     9
100
AcDbLine
 10
-1844.0814477711
 20
-333.6839760814202
 30
0.0
 11
-1844.0814477711
 21
-345.6843136821295
 31
0.0
  0
LINE
  5
20B
330
1F
100
AcDbEntity
  8
0-7_金物
  6
Continuous
 62
     7
370
     9
100
AcDbLine
 10
-1844.0814477711
 20
-333.6839760814202
 30
0.0
 11
-2024.081310441997
 21
-333.6839760814202
 31
0.0
  0
LINE
  5
20C
330
1F
100
AcDbEntity
  8
0-7_金物
  6
Continuous
 62
     7
370
     9
100
AcDbLine
 10
-1874.081550767927
 20
-345.6843136821295
 30
0.0
 11
-1874.081550767927
 21
-357.68390741687
 31
0.0
  0
LINE
  5
20D
330
1F
100
AcDbEntity
  8
0-7_金物
  6
Continuous
 62
     7
370
     9
100
AcDbLine
 10
-1994.081207445173
 20
-345.6843136821295
 30
0.0
 11
-1994.081207445173
 21
-357.68390741687
 31
0.0
  0
LINE
  5
20E
330
1F
100
AcDbEntity
  8
0-7_金物
  6
Continuous
 62
     7
370
     9
100
AcDbLine
 10
-1874.081550767927
 20
-357.68390741687
 30
0.0
 11
-1994.081207445173
 21
-357.68390741687
 31
0.0
  0
LINE
  5
20F
330
1F
100
AcDbEntity
  8
0-7_金物
  6
Continuous
 62
     7
370
     9
100
AcDbLine
 10
-1880.081716707258
 20
-357.68390741687
 30
0.0
 11
-1880.081716707258
 21
-381.8298970622473
 31
0.0
  0
LINE
  5
210
330
1F
100
AcDbEntity
  8
0-7_金物
  6
Continuous
 62
     7
370
     9
100
AcDbLine
 10
-1988.081785371809
 20
-381.8298970622473
 30
0.0
 11
-1988.081785371809
 21
-357.68390741687
 31
0.0
  0
LINE
  5
211
330
1F
100
AcDbEntity
  8
0-4_枠
  6
Continuous
 62
    92
370
    13
100
AcDbLine
 10
-1745.081751039535
 20
-381.8298970622422
 30
0.0
 11
-1745.081751039535
 21
-429.8298970622412
 31
0.0
  0
LINE
  5
212
330
1F
100
AcDbEntity
  8
0-4_枠
  6
Continuous
 62
    92
370
    13
100
AcDbLine
 10
-1703.081751039533
 20
-429.8298970622412
 30
0.0
 11
-1745.081751039535
 21
-429.8298970622412
 31
0.0
  0
LINE
  5
213
330
1F
100
AcDbEntity
  8
0-4_枠
  6
Continuous
 62
    92
370
    13
100
AcDbLine
 10
-1703.081751039533
 20
-429.8298970622412
 30
0.0
 11
-1703.081751039533
 21
-483.8298970622424
 31
0.0
  0
LINE
  5
214
330
1F
100
AcDbEntity
  8
0-4_枠
  6
Continuous
 62
    92
370
    13
100
AcDbLine
 10
-1703.081751039533
 20
-483.8298970622424
 30
0.0
 11
-1763.081751039533
 21
-483.8298970622424
 31
0.0
  0
LINE
  5
215
330
1F
100
AcDbEntity
  8
0-4_枠
  6
Continuous
 62
    92
370
    13
100
AcDbLine
 10
-1763.081751039533
 20
-483.8298970622424
 30
0.0
 11
-1763.081751039533
 21
-537.8298970622418
 31
0.0
  0
LINE
  5
216
330
1F
100
AcDbEntity
  8
0-4_枠
  6
Continuous
 62
    92
370
    13
100
AcDbLine
 10
-1703.081751039533
 20
-537.8298970622418
 30
0.0
 11
-1763.081751039533
 21
-537.8298970622418
 31
0.0
  0
LINE
  5
217
330
1F
100
AcDbEntity
  8
0-C_ハッチ
  6
Continuous
 62
   120
370
     5
100
AcDbLine
 10
-1706.181944834011
 20
-597.8297139567806
 30
0.0
 11
-1703.081751039526
 21
-594.7295201622973
 31
0.0
  0
LINE
  5
218
330
1F
100
AcDbEntity
  8
0-C_ハッチ
  6
Continuous
 62
   120
370
     5
100
AcDbLine
 10
-1765.578914453639
 20
-597.8297139567619
 30
0.0
 11
-1705.579097559111
 21
-537.8298970622334
 31
0.0
  0
LINE
  5
219
330
1F
100
AcDbEntity
  8
0-C_ハッチ
  6
Continuous
 62
   120
370
     5
100
AcDbLine
 10
-1824.975884073358
 20
-597.8297139567798
 30
0.0
 11
-1763.081751039542
 21
-535.9355809229626
 31
0.0
  0
LINE
  5
21A
330
1F
100
AcDbEntity
  8
0-C_ハッチ
  6
Continuous
 62
   120
370
     5
100
AcDbLine
 10
-1710.976067178821
 20
-483.8298970622424
 30
0.0
 11
-1703.081751039533
 21
-475.9355809229537
 31
0.0
  0
LINE
  5
21B
330
1F
100
AcDbEntity
  8
0-C_ハッチ
  6
Continuous
 62
   120
370
     5
100
AcDbLine
 10
-1850.08217447093
 20
-563.5390347347029
 30
0.0
 11
-1716.373036798469
 21
-429.8298970622437
 31
0.0
  0
LINE
  5
21C
330
1F
100
AcDbEntity
  8
0-C_ハッチ
  6
Continuous
 62
   120
370
     5
100
AcDbLine
 10
-1850.082174470931
 20
-504.1420651150024
 30
0.0
 11
-1745.081751039532
 21
-399.1416416836043
 31
0.0
  0
LINE
  5
21D
330
1F
100
AcDbEntity
  8
0-C_ハッチ
  6
Continuous
 62
   120
370
     5
100
AcDbLine
 10
-1883.166335168686
 20
-477.8292561931113
 30
0.0
 11
-1787.166976037824
 21
-381.829897062249
 31
0.0
  0
LINE
  5
21E
330
1F
100
AcDbEntity
  8
0-C_ハッチ
  6
Continuous
 62
   120
370
     5
100
AcDbLine
 10
-2062.563762551994
 20
-597.8297139567703
 30
0.0
 11
-2018.083165814727
 21
-553.3491172195036
 31
0.0
  0
LINE
  5
21F
330
1F
100
AcDbEntity
  8
0-C_ハッチ
  6
Continuous
 62
   120
370
     5
100
AcDbLine
 10
-1942.563304788318
 20
-477.8292561930951
 30
0.0
 11
-1846.563945657471
 21
-381.8298970622473
 31
0.0
  0
LINE
  5
220
330
1F
100
AcDbEntity
  8
0-C_ハッチ
  6
Continuous
 62
   120
370
     5
100
AcDbLine
 10
-2121.960732171703
 20
-597.8297139567771
 30
0.0
 11
-2018.083165814714
 21
-493.9521475997881
 31
0.0
  0
LINE
  5
221
330
1F
100
AcDbEntity
  8
0-C_ハッチ
  6
Continuous
 62
   120
370
     5
100
AcDbLine
 10
-2001.960274408035
 20
-477.8292561931104
 30
0.0
 11
-1905.960915277166
 21
-381.8298970622405
 31
0.0
  0
LINE
  5
222
330
1F
100
AcDbEntity
  8
0-C_ハッチ
  6
Continuous
 62
   120
370
     5
100
AcDbLine
 10
-2165.081751039538
 20
-581.5537632049657
 30
0.0
 11
-1965.357884896816
 21
-381.8298970622439
 31
0.0
  0
LINE
  5
223
330
1F
100
AcDbEntity
  8
0-C_ハッチ
  6
Continuous
 62
   120
370
     5
100
AcDbLine
 10
-2165.081751039525
 20
-522.156793585252
 30
0.0
 11
-2024.754854516518
 21
-381.8298970622439
 31
0.0
  0
LINE
  5
224
330
1F
100
AcDbEntity
  8
0-C_ハッチ
  6
Continuous
 62
   120
370
     5
100
AcDbLine
 10
-2165.081751039539
 20
-462.7598239656179
 30
0.0
 11
-2084.15182413616
 21
-381.8298970622396
 31
0.0
  0
LINE
  5
225
330
1F
100
AcDbEntity
  8
0-C_ハッチ
  6
Continuous
 62
   120
370
     5
100
AcDbLine
 10
-2165.081751039536
 20
-403.362854345913
 30
0.0
 11
-2143.548793755864
 21
-381.8298970622405
 31
0.0
  0
LINE
  5
226
330
1F
100
AcDbEntity
  8
0-B_寸法
  6
Continuous
 62
   120
370
     5
100
AcDbLine
 10
-1448.081349444503
 20
-597.8292735138907
 30
0.0
 11
-1106.081238002693
 21
-597.8292735138907
 31
0.0
  0
LINE
  5
227
330
1F
100
AcDbEntity
  8
0-0_補助線
  6
JWW_HOJO
 62
   120
370
     5
100
AcDbLine
 10
-2163.767519061916
 20
-1881.830386786968
 30
0.0
 11
-1704.395983017154
 21
-1881.830386786968
 31
0.0
  0
LINE
  5
228
330
1F
100
AcDbEntity
  8
0-0_補助線
  6
JWW_HOJO
 62
   120
370
     5
100
AcDbLine
 10
-2163.767519061916
 20
-2001.830386786968
 30
0.0
 11
-1704.395983017154
 21
-2001.830386786968
 31
0.0
  0
LINE
  5
229
330
1F
100
AcDbEntity
  8
0-4_枠
  6
Continuous
 62
     7
370
     9
100
AcDbLine
 10
-2036.08120172313
 20
-3281.63067629156
 30
0.0
 11
-2013.881201723128
 21
-3281.63067629156
 31
0.0
  0
LINE
  5
22A
330
1F
100
AcDbEntity
  8
0-4_枠
  6
Continuous
 62
     7
370
     9
100
AcDbLine
 10
-2012.081201723128
 20
-3283.43067629156
 30
0.0
 11
-2013.881201723128
 21
-3281.63067629156
 31
0.0
  0
LINE
  5
22B
330
1F
100
AcDbEntity
  8
0-4_枠
  6
Continuous
 62
     7
370
     9
100
AcDbLine
 10
-2012.081201723128
 20
-3283.43067629156
 30
0.0
 11
-2010.281201723128
 21
-3281.63067629156
 31
0.0
  0
ARC
  5
22C
330
1F
100
AcDbEntity
  8
0-4_枠
  6
Continuous
 62
     7
370
     9
100
AcDbCircle
 10
-1972.48120172313
 20
-3283.430676291558
 30
0.0
 40
1.800000000000579
100
AcDbArc
 50
359.9999999999784
 51
90.00000000000004
  0
LINE
  5
22D
330
1F
100
AcDbEntity
  8
0-4_枠
  6
Continuous
 62
     7
370
     9
100
AcDbLine
 10
-1970.681201723128
 20
-3283.43067629156
 30
0.0
 11
-1970.681201723128
 21
-3286.43067629156
 31
0.0
  0
ARC
  5
22E
330
1F
100
AcDbEntity
  8
0-4_枠
  6
Continuous
 62
     7
370
     9
100
AcDbCircle
 10
-1971.881201723131
 20
-3286.43067629156
 30
0.0
 40
1.200000000000273
100
AcDbArc
 50
270.0
 51
359.9999999999674
  0
LINE
  5
22F
330
1F
100
AcDbEntity
  8
0-4_枠
  6
Continuous
 62
     7
370
     9
100
AcDbLine
 10
-1971.881201723131
 20
-3287.63067629156
 30
0.0
 11
-1975.481201723129
 21
-3287.63067629156
 31
0.0
  0
ARC
  5
230
330
1F
100
AcDbEntity
  8
0-4_枠
  6
Continuous
 62
     7
370
     9
100
AcDbCircle
 10
-1975.481201723129
 20
-3289.430676291559
 30
0.0
 40
1.799999999999727
100
AcDbArc
 50
90.0
 51
180.0
  0
LINE
  5
231
330
1F
100
AcDbEntity
  8
0-4_枠
  6
Continuous
 62
     7
370
     9
100
AcDbLine
 10
-1977.281201723129
 20
-3289.430676291559
 30
0.0
 11
-1977.281201723129
 21
-3301.43067629156
 31
0.0
  0
ARC
  5
232
330
1F
100
AcDbEntity
  8
0-4_枠
  6
Continuous
 62
     7
370
     9
100
AcDbCircle
 10
-1974.28120172313
 20
-3301.43067629156
 30
0.0
 40
3.0
100
AcDbArc
 50
180.0
 51
270.0
  0
LINE
  5
233
330
1F
100
AcDbEntity
  8
0-4_枠
  6
Continuous
 62
     7
370
     9
100
AcDbLine
 10
-1974.28120172313
 20
-3304.43067629156
 30
0.0
 11
-1935.881201723129
 21
-3304.430676291562
 31
0.0
  0
LINE
  5
234
330
1F
100
AcDbEntity
  8
0-4_枠
  6
Continuous
 62
     7
370
     9
100
AcDbLine
 10
-1934.081201723129
 20
-3306.230676291561
 30
0.0
 11
-1935.881201723129
 21
-3304.430676291562
 31
0.0
  0
LINE
  5
235
330
1F
100
AcDbEntity
  8
0-4_枠
  6
Continuous
 62
     7
370
     9
100
AcDbLine
 10
-1934.081201723129
 20
-3306.230676291561
 30
0.0
 11
-1932.281201723129
 21
-3304.430676291562
 31
0.0
  0
LINE
  5
236
330
1F
100
AcDbEntity
  8
0-4_枠
  6
Continuous
 62
     7
370
     9
100
AcDbLine
 10
-1932.281201723129
 20
-3304.430676291562
 30
0.0
 11
-1893.881201723135
 21
-3304.43067629156
 31
0.0
  0
ARC
  5
237
330
1F
100
AcDbEntity
  8
0-4_枠
  6
Continuous
 62
     7
370
     9
100
AcDbCircle
 10
-1893.881201723135
 20
-3301.43067629156
 30
0.0
 40
3.0
100
AcDbArc
 50
270.0
 51
0.0
  0
LINE
  5
238
330
1F
100
AcDbEntity
  8
0-4_枠
  6
Continuous
 62
     7
370
     9
100
AcDbLine
 10
-1890.881201723134
 20
-3289.430676291559
 30
0.0
 11
-1890.881201723134
 21
-3301.43067629156
 31
0.0
  0
ARC
  5
239
330
1F
100
AcDbEntity
  8
0-4_枠
  6
Continuous
 62
     7
370
     9
100
AcDbCircle
 10
-1892.681201723134
 20
-3289.430676291559
 30
0.0
 40
1.800000000000069
100
AcDbArc
 50
0.0
 51
90.0
  0
LINE
  5
23A
330
1F
100
AcDbEntity
  8
0-4_枠
  6
Continuous
 62
     7
370
     9
100
AcDbLine
 10
-1896.281201723129
 20
-3287.63067629156
 30
0.0
 11
-1892.681201723134
 21
-3287.63067629156
 31
0.0
  0
ARC
  5
23B
330
1F
100
AcDbEntity
  8
0-4_枠
  6
Continuous
 62
     7
370
     9
100
AcDbCircle
 10
-1896.281201723129
 20
-3286.43067629156
 30
0.0
 40
1.199999999999932
100
AcDbArc
 50
179.9999999999674
 51
270.0
  0
LINE
  5
23C
330
1F
100
AcDbEntity
  8
0-4_枠
  6
Continuous
 62
     7
370
     9
100
AcDbLine
 10
-1897.48120172313
 20
-3283.430676291558
 30
0.0
 11
-1897.48120172313
 21
-3286.430676291558
 31
0.0
  0
ARC
  5
23D
330
1F
100
AcDbEntity
  8
0-4_枠
  6
Continuous
 62
     7
370
     9
100
AcDbCircle
 10
-1895.68120172313
 20
-3283.430676291558
 30
0.0
 40
1.799999999999727
100
AcDbArc
 50
89.99999999996201
 51
180.0
  0
ARC
  5
23E
330
1F
100
AcDbEntity
  8
0-4_枠
  6
Continuous
 62
     7
370
     9
100
AcDbCircle
 10
-1895.681201723135
 20
-3293.63067629156
 30
0.0
 40
12.0
100
AcDbArc
 50
359.9999999999968
 51
89.9999999999682
  0
LINE
  5
23F
330
1F
100
AcDbEntity
  8
0-4_枠
  6
Continuous
 62
     7
370
     9
100
AcDbLine
 10
-1883.681201723134
 20
-3293.630676291561
 30
0.0
 11
-1883.681201723135
 21
-3309.83067629156
 31
0.0
  0
ARC
  5
240
330
1F
100
AcDbEntity
  8
0-4_枠
  6
Continuous
 62
     7
370
     9
100
AcDbCircle
 10
-1977.881201723128
 20
-3303.83067629156
 30
0.0
 40
6.0
100
AcDbArc
 50
180.0
 51
270.0
  0
LINE
  5
241
330
1F
100
AcDbEntity
  8
0-4_枠
  6
Continuous
 62
     7
370
     9
100
AcDbLine
 10
-1983.881201723129
 20
-3292.276260703833
 30
0.0
 11
-1983.881201723129
 21
-3303.83067629156
 31
0.0
  0
ARC
  5
242
330
1F
100
AcDbEntity
  8
0-4_枠
  6
Continuous
 62
     7
370
     9
100
AcDbCircle
 10
-1985.68120172313
 20
-3292.276260703831
 30
0.0
 40
1.800000000000069
100
AcDbArc
 50
359.9999999999784
 51
135.0000000000384
  0
LINE
  5
243
330
1F
100
AcDbEntity
  8
0-4_枠
  6
Continuous
 62
     7
370
     9
100
AcDbLine
 10
-1992.953993929263
 20
-3297.003468497698
 30
0.0
 11
-1986.953993929266
 21
-3291.003468497697
 31
0.0
  0
ARC
  5
244
330
1F
100
AcDbEntity
  8
0-4_枠
  6
Continuous
 62
     7
370
     9
100
AcDbCircle
 10
-1991.681201723128
 20
-3298.276260703832
 30
0.0
 40
1.799999999999605
100
AcDbArc
 50
135.0000000000057
 51
180.0000000000034
  0
LINE
  5
245
330
1F
100
AcDbEntity
  8
0-4_枠
  6
Continuous
 62
     7
370
     9
100
AcDbLine
 10
-1993.481201723127
 20
-3309.83067629156
 30
0.0
 11
-1993.481201723127
 21
-3298.276260703834
 31
0.0
  0
LINE
  5
246
330
1F
100
AcDbEntity
  8
0-4_枠
  6
Continuous
 62
     7
370
     9
100
AcDbLine
 10
-2000.081201723128
 20
-3309.83067629156
 30
0.0
 11
-1993.481201723127
 21
-3309.83067629156
 31
0.0
  0
LINE
  5
247
330
1F
100
AcDbEntity
  8
0-4_枠
  6
Continuous
 62
     7
370
     9
100
AcDbLine
 10
-2000.081201723128
 20
-3309.83067629156
 30
0.0
 11
-2000.081201723128
 21
-3294.23067629156
 31
0.0
  0
ARC
  5
248
330
1F
100
AcDbEntity
  8
0-4_枠
  6
Continuous
 62
     7
370
     9
100
AcDbCircle
 10
-2000.681201723128
 20
-3294.23067629156
 30
0.0
 40
0.599999999999966
100
AcDbArc
 50
0.0
 51
90.0
  0
LINE
  5
249
330
1F
100
AcDbEntity
  8
0-4_枠
  6
Continuous
 62
     7
370
     9
100
AcDbLine
 10
-2023.481201723127
 20
-3293.630676291561
 30
0.0
 11
-2000.681201723128
 21
-3293.630676291561
 31
0.0
  0
ARC
  5
24A
330
1F
100
AcDbEntity
  8
0-4_枠
  6
Continuous
 62
     7
370
     9
100
AcDbCircle
 10
-2023.481201723127
 20
-3294.23067629156
 30
0.0
 40
0.6000000000001362
100
AcDbArc
 50
90.0
 51
180.0
  0
LINE
  5
24B
330
1F
100
AcDbEntity
  8
0-4_枠
  6
Continuous
 62
     7
370
     9
100
AcDbLine
 10
-2024.081201723129
 20
-3309.83067629156
 30
0.0
 11
-2024.081201723129
 21
-3294.23067629156
 31
0.0
  0
LINE
  5
24C
330
1F
100
AcDbEntity
  8
0-4_枠
  6
Continuous
 62
     7
370
     9
100
AcDbLine
 10
-2030.68120172313
 20
-3309.83067629156
 30
0.0
 11
-2024.081201723129
 21
-3309.83067629156
 31
0.0
  0
LINE
  5
24D
330
1F
100
AcDbEntity
  8
0-4_枠
  6
Continuous
 62
     7
370
     9
100
AcDbLine
 10
-2030.68120172313
 20
-3309.83067629156
 30
0.0
 11
-2030.68120172313
 21
-3297.530676291561
 31
0.0
  0
LINE
  5
24E
330
1F
100
AcDbEntity
  8
0-4_枠
  6
Continuous
 62
     7
370
     9
100
AcDbLine
 10
-2030.68120172313
 20
-3297.530676291561
 30
0.0
 11
-2036.959881379571
 21
-3291.25199663512
 31
0.0
  0
ARC
  5
24F
330
1F
100
AcDbEntity
  8
0-4_枠
  6
Continuous
 62
     7
370
     9
100
AcDbCircle
 10
-2039.081201723129
 20
-3293.373316978679
 30
0.0
 40
2.999999999998578
100
AcDbArc
 50
45.0
 51
180.0000000000261
  0
LINE
  5
250
330
1F
100
AcDbEntity
  8
0-4_枠
  6
Continuous
 62
     7
370
     9
100
AcDbLine
 10
-2042.081201723128
 20
-3309.83067629156
 30
0.0
 11
-2042.08120172313
 21
-3293.373316978681
 31
0.0
  0
LINE
  5
251
330
1F
100
AcDbEntity
  8
0-4_枠
  6
Continuous
 62
     7
370
     9
100
AcDbLine
 10
-2048.08120172313
 20
-3309.83067629156
 30
0.0
 11
-2042.081201723128
 21
-3309.83067629156
 31
0.0
  0
LINE
  5
252
330
1F
100
AcDbEntity
  8
0-4_枠
  6
Continuous
 62
     7
370
     9
100
AcDbLine
 10
-2048.08120172313
 20
-3309.83067629156
 30
0.0
 11
-2048.08120172313
 21
-3293.63067629156
 31
0.0
  0
ARC
  5
253
330
1F
100
AcDbEntity
  8
0-4_枠
  6
Continuous
 62
     7
370
     9
100
AcDbCircle
 10
-2036.08120172313
 20
-3293.63067629156
 30
0.0
 40
12.0
100
AcDbArc
 50
90.0
 51
180.0
  0
LINE
  5
254
330
1F
100
AcDbEntity
  8
0-4_枠
  6
Continuous
 62
     7
370
     9
100
AcDbLine
 10
-1977.881201723128
 20
-3309.83067629156
 30
0.0
 11
-1883.681201723135
 21
-3309.83067629156
 31
0.0
  0
LINE
  5
255
330
1F
100
AcDbEntity
  8
0-4_枠
  6
Continuous
 62
     7
370
     9
100
AcDbLine
 10
-1972.48120172313
 20
-3281.630676291559
 30
0.0
 11
-2010.281201723128
 21
-3281.630676291559
 31
0.0
  0
LINE
  5
256
330
1F
100
AcDbEntity
  8
0-A_文字
  6
Continuous
 62
   120
370
     5
100
AcDbLine
 10
-1883.681201723135
 20
-2986.432628161207
 30
0.0
 11
-2048.08120172313
 21
-2986.432628161207
 31
0.0
  0
LWPOLYLINE
  5
257
330
1F
100
AcDbEntity
  8
0-A_文字
  6
Continuous
 62
     7
370
     9
100
AcDbPolyline
 90
        4
 70
     1
 43
3.0
 10
-1882.181201723135
 20
-2986.432628161207
 42
0.4142135623731
 10
-1883.681201723135
 20
-2984.932628161207
 42
0.4142135623731
 10
-1885.181201723135
 20
-2986.432628161207
 42
0.4142135623731
 10
-1883.681201723135
 20
-2987.932628161207
 42
0.4142135623731
  0
LWPOLYLINE
  5
258
330
1F
100
AcDbEntity
  8
0-A_文字
  6
Continuous
 62
     7
370
     9
100
AcDbPolyline
 90
        4
 70
     1
 43
3.0
 10
-2046.58120172313
 20
-2986.432628161207
 42
0.4142135623731
 10
-2048.08120172313
 20
-2984.932628161207
 42
0.4142135623731
 10
-2049.58120172313
 20
-2986.432628161207
 42
0.4142135623731
 10
-2048.08120172313
 20
-2987.932628161207
 42
0.4142135623731
  0
LINE
  5
259
330
1F
100
AcDbEntity
  8
0-A_文字
  6
Continuous
 62
   120
370
     5
100
AcDbLine
 10
-1883.681201723135
 20
-2986.432628161207
 30
0.0
 11
-1883.681201723135
 21
-3094.550639719224
 31
0.0
  0
LINE
  5
25A
330
1F
100
AcDbEntity
  8
0-A_文字
  6
Continuous
 62
   120
370
     5
100
AcDbLine
 10
-2048.08120172313
 20
-2986.432628161207
 30
0.0
 11
-2048.08120172313
 21
-3094.550639719224
 31
0.0
  0
LINE
  5
25B
330
1F
100
AcDbEntity
  8
0-7_金物
  6
Continuous
 62
     7
370
     9
100
AcDbLine
 10
-1943.081632268421
 20
-3241.084075692163
 30
0.0
 11
-1943.081632268421
 21
-3304.430676291562
 31
0.0
  0
LINE
  5
25C
330
1F
100
AcDbEntity
  8
0-7_金物
  6
Continuous
 62
     7
370
     9
100
AcDbLine
 10
-1925.081869810649
 20
-3241.084075692163
 30
0.0
 11
-1925.081869810649
 21
-3304.430676291562
 31
0.0
  0
LINE
  5
25D
330
1F
100
AcDbEntity
  8
0-7_金物
  6
Continuous
 62
     7
370
     9
100
AcDbLine
 10
-1943.081632268421
 20
-3304.430676291562
 30
0.0
 11
-1925.081869810649
 21
-3304.430676291562
 31
0.0
  0
MTEXT
  5
25E
330
1F
100
AcDbEntity
  8
0-B_寸法
  6
Continuous
 62
     7
370
     0
100
AcDbMText
 10
-1120.509020582997
 20
-854.3901914782932
 30
0.0
 40
91.44000000000021
 41
180.0000000000004
 46
0.0
 71
     7
 72
     1
  1
{\fＭＳ ゴシック|b0|i0|c128|p49;7.5}
 11
6.123031769111886E-17
 21
1.0
 31
0.0
 73
     1
 44
1.0
  0
LINE
  5
25F
330
1F
100
AcDbEntity
  8
0-0_補助線
  6
JWW_HOJO
 62
   120
370
     5
100
AcDbLine
 10
-686.0804397283522
 20
-3381.830282862244
 30
0.0
 11
-686.0811357391422
 21
2.000074025400522
 31
0.0
  0
LINE
  5
260
330
1F
100
AcDbEntity
  8
0-0_補助線
  6
JWW_HOJO
 62
   120
370
     5
100
AcDbLine
 10
-2762.080563194037
 20
-3381.830282835853
 30
0.0
 11
-2762.081259204829
 21
2.000074025400522
 31
0.0
  0
LINE
  5
261
330
1F
100
AcDbEntity
  8
0-0_補助線
  6
JWW_HOJO
 62
   120
370
     5
100
AcDbLine
 10
-896.0804397283522
 20
-3381.830282835853
 30
0.0
 11
-896.0811357391422
 21
2.000074025400522
 31
0.0
  0
LINE
  5
262
330
1F
100
AcDbEntity
  8
0-0_補助線
  6
JWW_HOJO
 62
   120
370
     5
100
AcDbLine
 10
-1106.080439728356
 20
-3381.830282835853
 30
0.0
 11
-1106.081135739146
 21
2.000074025400522
 31
0.0
  0
LINE
  5
263
330
1F
100
AcDbEntity
  8
0-0_補助線
  6
JWW_HOJO
 62
   120
370
     5
100
AcDbLine
 10
-2552.080563194017
 20
-3381.830282835853
 30
0.0
 11
-2552.081259204808
 21
2.000074025400522
 31
0.0
  0
LINE
  5
264
330
1F
100
AcDbEntity
  8
0-0_補助線
  6
JWW_HOJO
 62
   120
370
     5
100
AcDbLine
 10
-1316.080563194002
 20
-3381.830282835853
 30
0.0
 11
-1316.081259204791
 21
2.000074025400522
 31
0.0
  0
MTEXT
  5
265
330
1F
100
AcDbEntity
  8
0-B_寸法
  6
Continuous
 62
     7
370
     0
100
AcDbMText
 10
-1994.082300355942
 20
-892.592236366378
 30
0.0
 40
91.4400000000013
 41
120.0000000000017
 46
0.0
 71
     7
 72
     1
  1
{\fＭＳ ゴシック|b0|i0|c128|p49;77}
 73
     1
 44
1.0
  0
LINE
  5
266
330
1F
100
AcDbEntity
  8
0-0_補助線
  6
JWW_HOJO
 62
   120
370
     5
100
AcDbLine
 10
-2762.081303668173
 20
2.000074025400522
 30
0.0
 11
-686.0811802024858
 21
2.000074025400522
 31
0.0
  0
MTEXT
  5
267
330
1F
100
AcDbEntity
  8
0-B_寸法
  6
Continuous
 62
     7
370
     0
100
AcDbMText
 10
-1120.547733250105
 20
-3240.455445880879
 30
0.0
 40
91.44000000000129
 41
180.0000000000026
 46
0.0
 71
     7
 72
     1
  1
{\fＭＳ ゴシック|b0|i0|c128|p49;6.5}
 11
6.123031769111886E-17
 21
1.0
 31
0.0
 73
     1
 44
1.0
  0
MTEXT
  5
268
330
1F
100
AcDbEntity
  8
0-B_寸法
  6
Continuous
 62
     7
370
   211
100
AcDbMText
 10
-908.7069342942718
 20
-3287.030957072354
 30
0.0
 40
91.44000000000129
 41
60.00000000000085
 46
0.0
 71
     7
 72
     1
  1
{\fＭＳ ゴシック|b0|i0|c128|p49;5}
 11
6.123031769111886E-17
 21
1.0
 31
0.0
 73
     1
 44
1.0
  0
MTEXT
  5
269
330
1F
100
AcDbEntity
  8
0-B_寸法
  6
Continuous
 62
     7
370
   211
100
AcDbMText
 10
-695.6293377916982
 20
-3530.256766697101
 30
0.0
 40
91.44000000000129
 41
120.0000000000017
 46
0.0
 71
     7
 72
     1
  1
{\fＭＳ ゴシック|b0|i0|c128|p49;12}
 11
6.123031769111886E-17
 21
1.0
 31
0.0
 73
     1
 44
1.0
  0
MTEXT
  5
26A
330
1F
100
AcDbEntity
  8
0-B_寸法
  6
Continuous
 62
     7
370
   211
100
AcDbMText
 10
-2912.081201723131
 20
-2346.110386786967
 30
0.0
 40
91.43999999999978
 41
779.9999999999983
 46
0.0
 71
     7
 72
     1
  1
{\fＭＳ ゴシック|b0|i0|c128|p49;ＲＯＨ＝2,055}
 11
6.123031769111886E-17
 21
1.0
 31
0.0
 73
     1
 44
1.0
  0
MTEXT
  5
26B
330
1F
100
AcDbEntity
  8
0-B_寸法
  6
Continuous
 62
     7
370
     0
100
AcDbMText
 10
-1121.080545171192
 20
-2286.110386786967
 30
0.0
 40
91.44000000000011
 41
660.0000000000009
 46
0.0
 71
     7
 72
     1
  1
{\fＭＳ ゴシック|b0|i0|c128|p49;ＤＨ＝1,983}
 11
6.123031769111886E-17
 21
1.0
 31
0.0
 73
     1
 44
1.0
  0
MTEXT
  5
26C
330
1F
100
AcDbEntity
  8
0-B_寸法
  6
Continuous
 62
     7
370
     0
100
AcDbMText
 10
-911.0805451711926
 20
-2286.110386786969
 30
0.0
 40
91.44000000000014
 41
660.0000000000009
 46
0.0
 71
     7
 72
     1
  1
{\fＭＳ ゴシック|b0|i0|c128|p49;枠内＝1,997}
 11
6.123031769111886E-17
 21
1.0
 31
0.0
 73
     1
 44
1.0
  0
MTEXT
  5
26D
330
1F
100
AcDbEntity
  8
0-B_寸法
  6
Continuous
 62
     7
370
     0
100
AcDbMText
 10
-701.0820298101235
 20
-2286.110386786969
 30
0.0
 40
91.44000000000014
 41
660.0000000000009
 46
0.0
 71
     7
 72
     1
  1
{\fＭＳ ゴシック|b0|i0|c128|p49;枠外＝2,038}
 11
6.123031769111886E-17
 21
1.0
 31
0.0
 73
     1
 44
1.0
  0
MTEXT
  5
26E
330
1F
100
AcDbEntity
  8
0-A_文字
  6
Continuous
 62
     7
370
   211
100
AcDbMText
 10
-2054.081251211094
 20
-1408.326251980908
 30
0.0
 40
91.43999999999967
 41
239.9999999999991
 46
0.0
 71
     7
 72
     1
  1
{\fＭＳ ゴシック|b0|i0|c128|p49;(24)}
 73
     1
 44
1.0
  0
MTEXT
  5
26F
330
1F
100
AcDbEntity
  8
0-A_文字
  6
Continuous
 62
     7
370
     0
100
AcDbMText
 10
-1882.582883471182
 20
-3678.738882693202
 30
0.0
 40
68.57999999999997
 41
1349.999999999999
 46
0.0
 71
     7
 72
     1
  1
{\fＭＳ ゴシック|b0|i0|c128|p49;※扉厚（　）内はルーバーの場合}
 73
     1
 44
1.0
  0
LINE
  5
270
330
1F
100
AcDbEntity
  8
0-A_文字
  6
JWW_HOJO
 62
   120
370
     5
100
AcDbLine
 10
-1882.582883471182
 20
-3668.028882693203
 30
0.0
 11
526.9409260526289
 21
-3668.028882693203
 31
0.0
  0
LINE
  5
271
330
1F
100
AcDbEntity
  8
0-3_仕上げ
  6
Continuous
 62
   120
370
     5
100
AcDbLine
 10
-2165.081751039547
 20
-153.6839760814206
 30
0.0
 11
-1745.081751039546
 21
-153.6839760814206
 31
0.0
  0
LINE
  5
272
330
1F
100
AcDbEntity
  8
0-3_仕上げ
  6
Continuous
 62
   120
370
     5
100
AcDbLine
 10
-2165.081751039547
 20
-333.6839760814202
 30
0.0
 11
-2165.081751039547
 21
-153.6839760814206
 31
0.0
  0
LINE
  5
273
330
1F
100
AcDbEntity
  8
0-3_仕上げ
  6
Continuous
 62
   120
370
     5
100
AcDbLine
 10
-1745.081751039546
 20
-153.6839760814206
 30
0.0
 11
-1745.081751039546
 21
-333.6839760814202
 31
0.0
  0
LINE
  5
274
330
1F
100
AcDbEntity
  8
0-3_仕上げ
  6
Continuous
 62
   120
370
     5
100
AcDbLine
 10
-1745.081751039546
 20
-333.6839760814202
 30
0.0
 11
-2165.081751039547
 21
-333.6839760814202
 31
0.0
  0
LINE
  5
275
330
1F
100
AcDbEntity
  8
0-3_仕上げ
  6
Continuous
 62
   120
370
     5
100
AcDbLine
 10
-2165.081751039547
 20
-333.6839760814202
 30
0.0
 11
-1745.081751039546
 21
-153.6839760814206
 31
0.0
  0
LINE
  5
276
330
1F
100
AcDbEntity
  8
0-3_仕上げ
  6
Continuous
 62
    40
370
    15
100
AcDbLine
 10
-1670.081751039535
 20
-429.8298970622412
 30
0.0
 11
-1745.081751039535
 21
-429.8298970622412
 31
0.0
  0
LINE
  5
277
330
1F
100
AcDbEntity
  8
0-C_ハッチ
  6
JWW_DASHED1
 62
   120
370
     5
100
AcDbLine
 10
-1696.010703292538
 20
-429.8298970622425
 30
0.0
 11
-1670.081751039532
 21
-403.9009448092375
 31
0.0
  0
LINE
  5
278
330
1F
100
AcDbEntity
  8
0-C_ハッチ
  6
JWW_DASHED1
 62
   120
370
     5
100
AcDbLine
 10
-1738.437110163736
 20
-429.8298970622416
 30
0.0
 11
-1670.081751039536
 21
-361.4745379380413
 31
0.0
  0
LINE
  5
279
330
1F
100
AcDbEntity
  8
0-C_ハッチ
  6
JWW_DASHED1
 62
   120
370
     5
100
AcDbLine
 10
-1745.081751039536
 20
-394.0481310668409
 30
0.0
 11
-1670.081751039539
 21
-319.0481310668443
 31
0.0
  0
LINE
  5
27A
330
1F
100
AcDbEntity
  8
0-C_ハッチ
  6
JWW_DASHED1
 62
   120
370
     5
100
AcDbLine
 10
-1745.081751039539
 20
-351.6217241956443
 30
0.0
 11
-1670.081751039528
 21
-276.6217241956323
 31
0.0
  0
LINE
  5
27B
330
1F
100
AcDbEntity
  8
0-C_ハッチ
  6
JWW_DASHED1
 62
   120
370
     5
100
AcDbLine
 10
-1745.081751039543
 20
-309.1953173244464
 30
0.0
 11
-1670.081751039531
 21
-234.1953173244353
 31
0.0
  0
LINE
  5
27C
330
1F
100
AcDbEntity
  8
0-C_ハッチ
  6
JWW_DASHED1
 62
   120
370
     5
100
AcDbLine
 10
-1745.081751039522
 20
-266.7689104532818
 30
0.0
 11
-1670.081751039528
 21
-191.7689104532886
 31
0.0
  0
LINE
  5
27D
330
1F
100
AcDbEntity
  8
0-C_ハッチ
  6
JWW_DASHED1
 62
   120
370
     5
100
AcDbLine
 10
-1745.081751039528
 20
-224.3425035820864
 30
0.0
 11
-1670.081751039532
 21
-149.342503582092
 31
0.0
  0
LINE
  5
27E
330
1F
100
AcDbEntity
  8
0-C_ハッチ
  6
JWW_DASHED1
 62
   120
370
     5
100
AcDbLine
 10
-1745.081751039524
 20
-181.9160967108851
 30
0.0
 11
-1670.081751039529
 21
-106.9160967108886
 31
0.0
  0
LINE
  5
27F
330
1F
100
AcDbEntity
  8
0-C_ハッチ
  6
JWW_DASHED1
 62
   120
370
     5
100
AcDbLine
 10
-1745.081751039528
 20
-139.4896898396856
 30
0.0
 11
-1670.081751039532
 21
-64.48968983969195
 31
0.0
  0
LINE
  5
280
330
1F
100
AcDbEntity
  8
0-3_仕上げ
  6
Continuous
 62
    40
370
    15
100
AcDbLine
 10
-1745.081751039535
 20
-429.8298970622412
 30
0.0
 11
-1745.081751039535
 21
2.000074025400522
 31
0.0
  0
LINE
  5
281
330
1F
100
AcDbEntity
  8
0-3_仕上げ
  6
Continuous
 62
    40
370
    15
100
AcDbLine
 10
-1670.081751039535
 20
-429.8298970622412
 30
0.0
 11
-1670.081751039535
 21
2.000074025400522
 31
0.0
  0
LINE
  5
282
330
1F
100
AcDbEntity
  8
0-C_ハッチ
  6
JWW_DASHED1
 62
   120
370
     5
100
AcDbLine
 10
-1745.081751039531
 20
-97.06328296848895
 30
0.0
 11
-1670.081751039535
 21
-22.06328296849364
 31
0.0
  0
LINE
  5
283
330
1F
100
AcDbEntity
  8
0-C_ハッチ
  6
JWW_DASHED1
 62
   120
370
     5
100
AcDbLine
 10
-1745.081751039535
 20
-54.63687609729234
 30
0.0
 11
-1688.444800916837
 21
2.000074025400522
 31
0.0
  0
LINE
  5
284
330
1F
100
AcDbEntity
  8
0-E
  6
Continuous
 62
    92
370
    13
100
AcDbLine
 10
1719.588034741195
 20
-3177.981209359647
 30
0.0
 11
1719.588034741195
 21
-351.8298970622422
 31
0.0
  0
LINE
  5
285
330
1F
100
AcDbEntity
  8
0-E
  6
Continuous
 62
    92
370
    13
100
AcDbLine
 10
1719.588034741195
 20
-351.8298970622422
 30
0.0
 11
4359.588034741199
 21
-351.8298970622422
 31
0.0
  0
LINE
  5
286
330
1F
100
AcDbEntity
  8
0-E
  6
Continuous
 62
    92
370
    13
100
AcDbLine
 10
-266.0813269293857
 20
-351.8298970622422
 30
0.0
 11
1719.588034741195
 21
-351.8298970622422
 31
0.0
  0
LINE
  5
287
330
1F
100
AcDbEntity
  8
0-E
  6
Continuous
 62
    92
370
    13
100
AcDbLine
 10
-266.0813269293857
 20
-567.8298970622432
 30
0.0
 11
1719.588034741195
 21
-567.8298970622432
 31
0.0
  0
LINE
  5
288
330
1F
100
AcDbEntity
  8
0-E
  6
Continuous
 62
    92
370
    13
100
AcDbLine
 10
1719.588034741195
 20
-3450.927341891147
 30
0.0
 11
1719.588034741195
 21
-351.8298970622422
 31
0.0
  0
LWPOLYLINE
  5
289
330
1F
100
AcDbEntity
  8
0-E
  6
Continuous
 62
     7
370
     9
100
AcDbPolyline
 90
        4
 70
     1
 43
3.0
 10
319.0687982753547
 20
-843.9498357858868
 42
0.4142135623731
 10
317.5687982753547
 20
-842.4498357858868
 42
0.4142135623731
 10
316.0687982753547
 20
-843.9498357858868
 42
0.4142135623731
 10
317.5687982753547
 20
-845.4498357858868
 42
0.4142135623731
  0
LINE
  5
28A
330
1F
100
AcDbEntity
  8
0-E
  6
Continuous
 62
   120
370
     5
100
AcDbLine
 10
317.5687982753547
 20
-843.9498357858868
 30
0.0
 11
317.5687982753547
 21
-987.4918855858875
 31
0.0
  0
LINE
  5
28B
330
1F
100
AcDbEntity
  8
0-E
  6
Continuous
 62
    92
370
    13
100
AcDbLine
 10
317.5687982753547
 20
-1037.491885585886
 30
0.0
 11
317.5687982753547
 21
-1912.783091134714
 31
0.0
  0
LINE
  5
28C
330
1F
100
AcDbEntity
  8
0-E
  6
Continuous
 62
    92
370
    13
100
AcDbLine
 10
-266.0813269293857
 20
-2359.81300259247
 30
0.0
 11
1719.588034741195
 21
-2359.81300259247
 31
0.0
  0
LINE
  5
28D
330
1F
100
AcDbEntity
  8
0-E
  6
Continuous
 62
    92
370
    13
100
AcDbLine
 10
-266.0813269293857
 20
-2575.813002592471
 30
0.0
 11
1719.588034741195
 21
-2575.813002592471
 31
0.0
  0
MTEXT
  5
28E
330
1F
100
AcDbEntity
  8
0-E
  6
Continuous
 62
     7
370
     0
100
AcDbMText
 10
6.753353905904191
 20
-537.8715200244986
 30
0.0
 40
91.44000000000005
 41
1440.000000000001
 46
0.0
 71
     7
 72
     1
  1
{\fＭＳ ゴシック|b0|i0|c128|p49;竪枠下端形状図（S＝1/3）}
 73
     1
 44
1.0
  0
LINE
  5
28F
330
1F
100
AcDbEntity
  8
0-E
  6
Continuous
 62
     7
370
     9
100
AcDbLine
 10
444.2480777486176
 20
-3037.202984114665
 30
0.0
 11
555.2480777486257
 21
-3037.202984114665
 31
0.0
  0
LINE
  5
290
330
1F
100
AcDbEntity
  8
0-E
  6
Continuous
 62
     7
370
     9
100
AcDbLine
 10
564.2480777486244
 20
-3046.202984114663
 30
0.0
 11
555.2480777486257
 21
-3037.202984114665
 31
0.0
  0
LINE
  5
291
330
1F
100
AcDbEntity
  8
0-E
  6
Continuous
 62
     7
370
     9
100
AcDbLine
 10
564.2480777486244
 20
-3046.202984114663
 30
0.0
 11
573.248077748623
 21
-3037.202984114665
 31
0.0
  0
LINE
  5
292
330
1F
100
AcDbEntity
  8
0-E
  6
Continuous
 62
     7
370
     9
100
AcDbLine
 10
771.2480777486237
 20
-3046.202984114663
 30
0.0
 11
771.2480777486237
 21
-3061.202984114663
 31
0.0
  0
LINE
  5
293
330
1F
100
AcDbEntity
  8
0-E
  6
Continuous
 62
     7
370
     9
100
AcDbLine
 10
765.2480777486155
 20
-3067.202984114661
 30
0.0
 11
747.2480777486182
 21
-3067.202984114661
 31
0.0
  0
LINE
  5
294
330
1F
100
AcDbEntity
  8
0-E
  6
Continuous
 62
     7
370
     9
100
AcDbLine
 10
738.2480777486196
 20
-3076.20298411466
 30
0.0
 11
738.2480777486196
 21
-3136.202984114663
 31
0.0
  0
LINE
  5
295
330
1F
100
AcDbEntity
  8
0-E
  6
Continuous
 62
     7
370
     9
100
AcDbLine
 10
753.2480777486196
 20
-3151.202984114663
 30
0.0
 11
945.2480777486189
 21
-3151.20298411467
 31
0.0
  0
LINE
  5
296
330
1F
100
AcDbEntity
  8
0-E
  6
Continuous
 62
     7
370
     9
100
AcDbLine
 10
954.2480777486176
 20
-3160.202984114669
 30
0.0
 11
945.2480777486189
 21
-3151.20298411467
 31
0.0
  0
LINE
  5
297
330
1F
100
AcDbEntity
  8
0-E
  6
Continuous
 62
     7
370
     9
100
AcDbLine
 10
954.2480777486176
 20
-3160.202984114669
 30
0.0
 11
963.2480777486196
 21
-3151.20298411467
 31
0.0
  0
LINE
  5
298
330
1F
100
AcDbEntity
  8
0-E
  6
Continuous
 62
     7
370
     9
100
AcDbLine
 10
963.2480777486196
 20
-3151.20298411467
 30
0.0
 11
1155.248077748588
 21
-3151.202984114663
 31
0.0
  0
LINE
  5
299
330
1F
100
AcDbEntity
  8
0-E
  6
Continuous
 62
     7
370
     9
100
AcDbLine
 10
1170.248077748592
 20
-3076.20298411466
 30
0.0
 11
1170.248077748592
 21
-3136.202984114663
 31
0.0
  0
LINE
  5
29A
330
1F
100
AcDbEntity
  8
0-E
  6
Continuous
 62
     7
370
     9
100
AcDbLine
 10
1143.248077748616
 20
-3067.202984114661
 30
0.0
 11
1161.248077748593
 21
-3067.202984114661
 31
0.0
  0
LINE
  5
29B
330
1F
100
AcDbEntity
  8
0-E
  6
Continuous
 62
     7
370
     9
100
AcDbLine
 10
1137.248077748618
 20
-3046.202984114656
 30
0.0
 11
1137.248077748618
 21
-3061.202984114656
 31
0.0
  0
LINE
  5
29C
330
1F
100
AcDbEntity
  8
0-E
  6
Continuous
 62
     7
370
     9
100
AcDbLine
 10
1206.248077748593
 20
-3097.202984114668
 30
0.0
 11
1206.24807774859
 21
-3178.202984114662
 31
0.0
  0
LINE
  5
29D
330
1F
100
AcDbEntity
  8
0-E
  6
Continuous
 62
     7
370
     9
100
AcDbLine
 10
705.2480777486189
 20
-3090.430906176025
 30
0.0
 11
705.2480777486189
 21
-3148.202984114666
 31
0.0
  0
LINE
  5
29E
330
1F
100
AcDbEntity
  8
0-E
  6
Continuous
 62
     7
370
     9
100
AcDbLine
 10
659.8841167179457
 20
-3114.066945145352
 30
0.0
 11
689.8841167179355
 21
-3084.066945145352
 31
0.0
  0
LINE
  5
29F
330
1F
100
AcDbEntity
  8
0-E
  6
Continuous
 62
     7
370
     9
100
AcDbLine
 10
657.2480777486251
 20
-3178.202984114662
 30
0.0
 11
657.2480777486251
 21
-3120.43090617603
 31
0.0
  0
LINE
  5
2A0
330
1F
100
AcDbEntity
  8
0-E
  6
Continuous
 62
     7
370
     9
100
AcDbLine
 10
624.248077748621
 20
-3178.202984114662
 30
0.0
 11
657.2480777486251
 21
-3178.202984114662
 31
0.0
  0
LINE
  5
2A1
330
1F
100
AcDbEntity
  8
0-E
  6
Continuous
 62
     7
370
     9
100
AcDbLine
 10
624.248077748621
 20
-3178.202984114662
 30
0.0
 11
624.248077748621
 21
-3100.202984114671
 31
0.0
  0
LINE
  5
2A2
330
1F
100
AcDbEntity
  8
0-E
  6
Continuous
 62
     7
370
     9
100
AcDbLine
 10
507.2480777486251
 20
-3097.202984114668
 30
0.0
 11
621.2480777486237
 21
-3097.202984114668
 31
0.0
  0
LINE
  5
2A3
330
1F
100
AcDbEntity
  8
0-E
  6
Continuous
 62
     7
370
     9
100
AcDbLine
 10
504.2480777486244
 20
-3178.202984114662
 30
0.0
 11
504.2480777486244
 21
-3100.202984114671
 31
0.0
  0
LINE
  5
2A4
330
1F
100
AcDbEntity
  8
0-E
  6
Continuous
 62
     7
370
     9
100
AcDbLine
 10
471.2480777486203
 20
-3178.202984114662
 30
0.0
 11
504.2480777486244
 21
-3178.202984114662
 31
0.0
  0
LINE
  5
2A5
330
1F
100
AcDbEntity
  8
0-E
  6
Continuous
 62
     7
370
     9
100
AcDbLine
 10
471.2480777486203
 20
-3178.202984114662
 30
0.0
 11
471.2480777486203
 21
-3116.702984114673
 31
0.0
  0
LINE
  5
2A6
330
1F
100
AcDbEntity
  8
0-E
  6
Continuous
 62
     7
370
     9
100
AcDbLine
 10
471.2480777486203
 20
-3116.702984114673
 30
0.0
 11
439.8546794664074
 21
-3085.309585832465
 31
0.0
  0
LINE
  5
2A7
330
1F
100
AcDbEntity
  8
0-E
  6
Continuous
 62
     7
370
     9
100
AcDbLine
 10
414.2480777486244
 20
-3178.202984114662
 30
0.0
 11
414.2480777486176
 21
-3095.916187550265
 31
0.0
  0
LINE
  5
2A8
330
1F
100
AcDbEntity
  8
0-E
  6
Continuous
 62
     7
370
     9
100
AcDbLine
 10
384.248077748621
 20
-3178.202984114662
 30
0.0
 11
414.2480777486244
 21
-3178.202984114662
 31
0.0
  0
LINE
  5
2A9
330
1F
100
AcDbEntity
  8
0-E
  6
Continuous
 62
     7
370
     9
100
AcDbLine
 10
384.248077748621
 20
-3178.202984114662
 30
0.0
 11
384.2480777486176
 21
-3097.202984114665
 31
0.0
  0
LINE
  5
2AA
330
1F
100
AcDbEntity
  8
0-E
  6
Continuous
 62
     7
370
     9
100
AcDbLine
 10
735.2480777486223
 20
-3178.202984114662
 30
0.0
 11
1206.24807774859
 21
-3178.202984114662
 31
0.0
  0
LINE
  5
2AB
330
1F
100
AcDbEntity
  8
0-E
  6
Continuous
 62
     7
370
     9
100
AcDbLine
 10
762.2480777486182
 20
-3037.202984114661
 30
0.0
 11
573.248077748623
 21
-3037.202984114661
 31
0.0
  0
ARC
  5
2AC
330
1F
100
AcDbEntity
  8
0-E
  6
Continuous
 62
     7
370
     9
100
AcDbCircle
 10
762.2480777486182
 20
-3046.20298411466
 30
0.0
 40
9.000000000002899
100
AcDbArc
 50
359.9999999999784
 51
90.00000000000004
  0
ARC
  5
2AD
330
1F
100
AcDbEntity
  8
0-E
  6
Continuous
 62
     7
370
     9
100
AcDbCircle
 10
765.2480777486155
 20
-3061.20298411466
 30
0.0
 40
6.000000000001368
100
AcDbArc
 50
270.0
 51
359.9999999999674
  0
ARC
  5
2AE
330
1F
100
AcDbEntity
  8
0-E
  6
Continuous
 62
     7
370
     9
100
AcDbCircle
 10
747.2480777486182
 20
-3076.20298411466
 30
0.0
 40
8.999999999998636
100
AcDbArc
 50
90.0
 51
180.0
  0
ARC
  5
2AF
330
1F
100
AcDbEntity
  8
0-E
  6
Continuous
 62
     7
370
     9
100
AcDbCircle
 10
753.2480777486196
 20
-3136.202984114663
 30
0.0
 40
15.0
100
AcDbArc
 50
180.0
 51
270.0
  0
ARC
  5
2B0
330
1F
100
AcDbEntity
  8
0-E
  6
Continuous
 62
     7
370
     9
100
AcDbCircle
 10
1155.248077748588
 20
-3136.202984114663
 30
0.0
 40
15.0
100
AcDbArc
 50
270.0
 51
0.0
  0
ARC
  5
2B1
330
1F
100
AcDbEntity
  8
0-E
  6
Continuous
 62
     7
370
     9
100
AcDbCircle
 10
1161.248077748593
 20
-3076.20298411466
 30
0.0
 40
9.000000000000343
100
AcDbArc
 50
0.0
 51
90.0
  0
ARC
  5
2B2
330
1F
100
AcDbEntity
  8
0-E
  6
Continuous
 62
     7
370
     9
100
AcDbCircle
 10
1143.248077748616
 20
-3061.20298411466
 30
0.0
 40
5.99999999999966
100
AcDbArc
 50
179.9999999999674
 51
270.0
  0
ARC
  5
2B3
330
1F
100
AcDbEntity
  8
0-E
  6
Continuous
 62
     7
370
     9
100
AcDbCircle
 10
1146.24807774862
 20
-3046.202984114656
 30
0.0
 40
8.999999999998636
100
AcDbArc
 50
89.99999999996201
 51
180.0
  0
ARC
  5
2B4
330
1F
100
AcDbEntity
  8
0-E
  6
Continuous
 62
     7
370
     9
100
AcDbCircle
 10
1146.24807774859
 20
-3097.202984114665
 30
0.0
 40
60.0
100
AcDbArc
 50
359.9999999999968
 51
89.9999999999682
  0
ARC
  5
2B5
330
1F
100
AcDbEntity
  8
0-E
  6
Continuous
 62
     7
370
     9
100
AcDbCircle
 10
735.2480777486223
 20
-3148.202984114666
 30
0.0
 40
30.0
100
AcDbArc
 50
180.0
 51
270.0
  0
ARC
  5
2B6
330
1F
100
AcDbEntity
  8
0-E
  6
Continuous
 62
     7
370
     9
100
AcDbCircle
 10
696.2480777486203
 20
-3090.430906176021
 30
0.0
 40
9.000000000000343
100
AcDbArc
 50
359.9999999999784
 51
135.0000000000384
  0
ARC
  5
2B7
330
1F
100
AcDbEntity
  8
0-E
  6
Continuous
 62
     7
370
     9
100
AcDbCircle
 10
666.2480777486271
 20
-3120.430906176028
 30
0.0
 40
8.999999999998023
100
AcDbArc
 50
135.0000000000057
 51
180.0000000000034
  0
ARC
  5
2B8
330
1F
100
AcDbEntity
  8
0-E
  6
Continuous
 62
     7
370
     9
100
AcDbCircle
 10
621.2480777486237
 20
-3100.202984114671
 30
0.0
 40
2.99999999999983
100
AcDbArc
 50
0.0
 51
90.0
  0
ARC
  5
2B9
330
1F
100
AcDbEntity
  8
0-E
  6
Continuous
 62
     7
370
     9
100
AcDbCircle
 10
507.2480777486251
 20
-3100.202984114671
 30
0.0
 40
3.000000000000682
100
AcDbArc
 50
90.0
 51
180.0
  0
ARC
  5
2BA
330
1F
100
AcDbEntity
  8
0-E
  6
Continuous
 62
     7
370
     9
100
AcDbCircle
 10
429.2480777486176
 20
-3095.916187550258
 30
0.0
 40
14.99999999999289
100
AcDbArc
 50
45.0
 51
180.0000000000261
  0
ARC
  5
2BB
330
1F
100
AcDbEntity
  8
0-E
  6
Continuous
 62
     7
370
     9
100
AcDbCircle
 10
444.2480777486176
 20
-3097.202984114665
 30
0.0
 40
60.0
100
AcDbArc
 50
90.0
 51
180.0
  0
LINE
  5
2BC
330
1F
100
AcDbEntity
  8
0-E
  6
Continuous
 62
   120
370
     5
100
AcDbLine
 10
384.248077748621
 20
-2841.704787364455
 30
0.0
 11
1206.24807774859
 21
-2841.704787364455
 31
0.0
  0
LWPOLYLINE
  5
2BD
330
1F
100
AcDbEntity
  8
0-E
  6
Continuous
 62
     7
370
     9
100
AcDbPolyline
 90
        4
 70
     1
 43
3.0
 10
385.748077748621
 20
-2841.704787364455
 42
0.4142135623731
 10
384.248077748621
 20
-2840.204787364455
 42
0.4142135623731
 10
382.748077748621
 20
-2841.704787364455
 42
0.4142135623731
 10
384.248077748621
 20
-2843.204787364455
 42
0.4142135623731
  0
LWPOLYLINE
  5
2BE
330
1F
100
AcDbEntity
  8
0-E
  6
Continuous
 62
     7
370
     9
100
AcDbPolyline
 90
        4
 70
     1
 43
3.0
 10
1207.74807774859
 20
-2841.704787364455
 42
0.4142135623731
 10
1206.24807774859
 20
-2840.204787364455
 42
0.4142135623731
 10
1204.74807774859
 20
-2841.704787364455
 42
0.4142135623731
 10
1206.24807774859
 20
-2843.204787364455
 42
0.4142135623731
  0
LINE
  5
2BF
330
1F
100
AcDbEntity
  8
0-E
  6
Continuous
 62
   120
370
     5
100
AcDbLine
 10
384.248077748621
 20
-2841.704787364455
 30
0.0
 11
384.248077748621
 21
-2974.028001106375
 31
0.0
  0
LINE
  5
2C0
330
1F
100
AcDbEntity
  8
0-E
  6
Continuous
 62
   120
370
     5
100
AcDbLine
 10
1206.24807774859
 20
-2841.704787364455
 30
0.0
 11
1206.24807774859
 21
-2974.028001106375
 31
0.0
  0
MTEXT
  5
2C1
330
1F
100
AcDbEntity
  8
0-E
  6
Continuous
 62
     7
370
   211
100
AcDbMText
 10
675.248077748604
 20
-2840.984787364451
 30
0.0
 40
91.44000000000048
 41
240.0000000000013
 46
0.0
 71
     7
 72
     1
  1
{\fＭＳ ゴシック|b0|i0|c128|p49;27.4}
 73
     1
 44
1.0
  0
LINE
  5
2C2
330
1F
100
AcDbEntity
  8
0-E
  6
Continuous
 62
   120
370
     5
100
AcDbLine
 10
196.5991769954894
 20
-3037.202984114665
 30
0.0
 11
196.5991769954894
 21
-3178.202984114662
 31
0.0
  0
LWPOLYLINE
  5
2C3
330
1F
100
AcDbEntity
  8
0-E
  6
Continuous
 62
     7
370
     9
100
AcDbPolyline
 90
        4
 70
     1
 43
3.0
 10
198.0991769954894
 20
-3037.202984114665
 42
0.4142135623731
 10
196.5991769954894
 20
-3035.702984114665
 42
0.4142135623731
 10
195.0991769954894
 20
-3037.202984114665
 42
0.4142135623731
 10
196.5991769954894
 20
-3038.702984114665
 42
0.4142135623731
  0
LWPOLYLINE
  5
2C4
330
1F
100
AcDbEntity
  8
0-E
  6
Continuous
 62
     7
370
     9
100
AcDbPolyline
 90
        4
 70
     1
 43
3.0
 10
198.0991769954894
 20
-3178.202984114662
 42
0.4142135623731
 10
196.5991769954894
 20
-3176.702984114662
 42
0.4142135623731
 10
195.0991769954894
 20
-3178.202984114662
 42
0.4142135623731
 10
196.5991769954894
 20
-3179.702984114662
 42
0.4142135623731
  0
LINE
  5
2C5
330
1F
100
AcDbEntity
  8
0-E
  6
Continuous
 62
   120
370
     5
100
AcDbLine
 10
196.5991769954894
 20
-3037.202984114665
 30
0.0
 11
324.3595212980327
 21
-3037.202984114665
 31
0.0
  0
LINE
  5
2C6
330
1F
100
AcDbEntity
  8
0-E
  6
Continuous
 62
   120
370
     5
100
AcDbLine
 10
196.5991769954894
 20
-3178.202984114662
 30
0.0
 11
324.3595212980327
 21
-3178.202984114662
 31
0.0
  0
MTEXT
  5
2C7
330
1F
100
AcDbEntity
  8
0-E
  6
Continuous
 62
     7
370
   211
100
AcDbMText
 10
181.5991769954903
 20
-3161.449551623836
 30
0.0
 40
91.44000000000129
 41
60.00000000000085
 46
0.0
 71
     7
 72
     1
  1
{\fＭＳ ゴシック|b0|i0|c128|p49;5}
 11
6.123031769111886E-17
 21
1.0
 31
0.0
 73
     1
 44
1.0
  0
MTEXT
  5
2C8
330
1F
100
AcDbEntity
  8
0-E
  6
Continuous
 62
     7
370
     0
100
AcDbMText
 10
130.0329626274259
 20
-2545.854625554723
 30
0.0
 40
91.44000000000008
 41
1200.000000000001
 46
0.0
 71
     7
 72
     1
  1
{\fＭＳ ゴシック|b0|i0|c128|p49;下枠詳細図（S＝1/1）}
 73
     1
 44
1.0
  0
LINE
  5
2C9
330
1F
100
AcDbEntity
  8
0-E
  6
Continuous
 62
    92
370
    13
100
AcDbLine
 10
-266.0813269293857
 20
-351.8298970622422
 30
0.0
 11
-266.0813269293857
 21
-3450.927341891147
 31
0.0
  0
LINE
  5
2CA
330
1F
100
AcDbEntity
  8
0-E
  6
Continuous
 62
    92
370
    13
100
AcDbLine
 10
-266.0813269293857
 20
-3450.927341891147
 30
0.0
 11
4359.588034741199
 21
-3450.927341891147
 31
0.0
  0
LINE
  5
2CB
330
1F
100
AcDbEntity
  8
0-E
  6
Continuous
 62
    92
370
    13
100
AcDbLine
 10
4359.588034741199
 20
-351.8298970622422
 30
0.0
 11
4359.588034741199
 21
-3450.927341891147
 31
0.0
  0
LWPOLYLINE
  5
2CC
330
1F
100
AcDbEntity
  8
0-E
  6
Continuous
 62
     7
370
     9
100
AcDbPolyline
 90
        4
 70
     1
 43
3.0
 10
1089.068798275355
 20
-843.9498357858868
 42
0.4142135623731
 10
1087.568798275355
 20
-842.4498357858868
 42
0.4142135623731
 10
1086.068798275355
 20
-843.9498357858868
 42
0.4142135623731
 10
1087.568798275355
 20
-845.4498357858868
 42
0.4142135623731
  0
LINE
  5
2CD
330
1F
100
AcDbEntity
  8
0-E
  6
JWW_HOJO
 62
   120
370
     5
100
AcDbLine
 10
282.5684518595958
 20
-987.4918855858875
 30
0.0
 11
1135.520987481314
 21
-987.4918855858875
 31
0.0
  0
LINE
  5
2CE
330
1F
100
AcDbEntity
  8
0-E
  6
JWW_HOJO
 62
   120
370
     5
100
AcDbLine
 10
282.5684518595958
 20
-1037.491885585886
 30
0.0
 11
1135.520987481314
 21
-1037.491885585886
 31
0.0
  0
LINE
  5
2CF
330
1F
100
AcDbEntity
  8
0-E
  6
Continuous
 62
   120
370
     5
100
AcDbLine
 10
317.5687982753547
 20
-843.9498357858868
 30
0.0
 11
1087.568798275355
 21
-843.9498357858868
 31
0.0
  0
LINE
  5
2D0
330
1F
100
AcDbEntity
  8
0-E
  6
Continuous
 62
   120
370
     5
100
AcDbLine
 10
1087.568798275355
 20
-843.9498357858868
 30
0.0
 11
1087.568798275355
 21
-987.4918855858875
 31
0.0
  0
LINE
  5
2D1
330
1F
100
AcDbEntity
  8
0-E
  6
Continuous
 62
    92
370
    13
100
AcDbLine
 10
1087.568798275355
 20
-1037.491885585886
 30
0.0
 11
1087.568798275355
 21
-1912.783091134714
 31
0.0
  0
LINE
  5
2D2
330
1F
100
AcDbEntity
  8
0-E
  6
Continuous
 62
    92
370
    13
100
AcDbLine
 10
317.5687982753547
 20
-1912.783091134714
 30
0.0
 11
1087.568798275355
 21
-1912.783091134714
 31
0.0
  0
MTEXT
  5
2D3
330
1F
100
AcDbEntity
  8
0-E
  6
Continuous
 62
     7
370
   211
100
AcDbMText
 10
650.5139223204588
 20
-843.2298357858855
 30
0.0
 40
91.4400000000013
 41
120.0000000000017
 46
0.0
 71
     7
 72
     1
  1
{\fＭＳ ゴシック|b0|i0|c128|p49;77}
 73
     1
 44
1.0
  0
LINE
  5
2D4
330
1F
100
AcDbEntity
  8
0-E
  6
Continuous
 62
     7
370
     9
100
AcDbLine
 10
2977.061362106519
 20
-2583.485558115152
 30
0.0
 11
2977.061362106519
 21
-2590.985558115152
 31
0.0
  0
LINE
  5
2D5
330
1F
100
AcDbEntity
  8
0-E
  6
Continuous
 62
     7
370
     9
100
AcDbLine
 10
2859.311362106519
 20
-2540.871835684213
 30
0.0
 11
2911.811362106524
 21
-2540.871835684213
 31
0.0
  0
LINE
  5
2D6
330
1F
100
AcDbEntity
  8
0-E
  6
Continuous
 62
     7
370
     9
100
AcDbLine
 10
2961.311362106524
 20
-2582.123254392901
 30
0.0
 11
2961.311362106524
 21
-2599.371835684207
 31
0.0
  0
LINE
  5
2D7
330
1F
100
AcDbEntity
  8
0-E
  6
Continuous
 62
     7
370
     9
100
AcDbLine
 10
2964.311362106524
 20
-2602.371835684208
 30
0.0
 11
2972.561362106517
 21
-2602.371835684208
 31
0.0
  0
LINE
  5
2D8
330
1F
100
AcDbEntity
  8
0-E
  6
Continuous
 62
     7
370
     9
100
AcDbLine
 10
2972.561362106517
 20
-2602.371835684208
 30
0.0
 11
2972.561362106517
 21
-2612.871835684208
 31
0.0
  0
LINE
  5
2D9
330
1F
100
AcDbEntity
  8
0-E
  6
Continuous
 62
     7
370
     9
100
AcDbLine
 10
2961.311362106524
 20
-2599.371835684207
 30
0.0
 11
2961.311362106524
 21
-2602.371835684208
 31
0.0
  0
LINE
  5
2DA
330
1F
100
AcDbEntity
  8
0-E
  6
Continuous
 62
     7
370
     9
100
AcDbLine
 10
2961.311362106524
 20
-2602.371835684208
 30
0.0
 11
2964.311362106524
 21
-2602.371835684208
 31
0.0
  0
LINE
  5
2DB
330
1F
100
AcDbEntity
  8
0-E
  6
Continuous
 62
     7
370
     9
100
AcDbLine
 10
2930.561362106518
 20
-2552.871835684213
 30
0.0
 11
2930.561362106518
 21
-2560.371835684212
 31
0.0
  0
LINE
  5
2DC
330
1F
100
AcDbEntity
  8
0-E
  6
Continuous
 62
     7
370
     9
100
AcDbLine
 10
2930.561362106518
 20
-2552.871835684213
 30
0.0
 11
2923.061362106519
 21
-2545.371835684213
 31
0.0
  0
LINE
  5
2DD
330
1F
100
AcDbEntity
  8
0-E
  6
Continuous
 62
     7
370
     9
100
AcDbLine
 10
2848.061362106519
 20
-2545.371835684213
 30
0.0
 11
2840.561362106519
 21
-2552.871835684213
 31
0.0
  0
LINE
  5
2DE
330
1F
100
AcDbEntity
  8
0-E
  6
Continuous
 62
     7
370
     9
100
AcDbLine
 10
2840.56136210652
 20
-2560.371835684212
 30
0.0
 11
2840.561362106519
 21
-2552.871835684213
 31
0.0
  0
LINE
  5
2DF
330
1F
100
AcDbEntity
  8
0-E
  6
Continuous
 62
     7
370
     9
100
AcDbLine
 10
2806.811362106514
 20
-2602.371835684208
 30
0.0
 11
2809.811362106514
 21
-2602.371835684208
 31
0.0
  0
LINE
  5
2E0
330
1F
100
AcDbEntity
  8
0-E
  6
Continuous
 62
     7
370
     9
100
AcDbLine
 10
2809.811362106514
 20
-2602.371835684208
 30
0.0
 11
2809.811362106514
 21
-2599.371835684207
 31
0.0
  0
LINE
  5
2E1
330
1F
100
AcDbEntity
  8
0-E
  6
Continuous
 62
     7
370
     9
100
AcDbLine
 10
2798.561362106519
 20
-2612.871835684208
 30
0.0
 11
2798.561362106519
 21
-2602.371835684208
 31
0.0
  0
LINE
  5
2E2
330
1F
100
AcDbEntity
  8
0-E
  6
Continuous
 62
     7
370
     9
100
AcDbLine
 10
2798.561362106519
 20
-2602.371835684208
 30
0.0
 11
2806.811362106514
 21
-2602.371835684208
 31
0.0
  0
LINE
  5
2E3
330
1F
100
AcDbEntity
  8
0-E
  6
Continuous
 62
     7
370
     9
100
AcDbLine
 10
2809.811362106514
 20
-2599.371835684207
 30
0.0
 11
2809.811362106514
 21
-2582.123254392901
 31
0.0
  0
ARC
  5
2E4
330
1F
100
AcDbEntity
  8
0-E
  6
Continuous
 62
     7
370
     9
100
AcDbCircle
 10
2960.561362106519
 20
-2612.871835684208
 30
0.0
 40
12.00000000000012
100
AcDbArc
 50
270.0
 51
0.0
  0
ARC
  5
2E5
330
1F
100
AcDbEntity
  8
0-E
  6
Continuous
 62
     7
370
     9
100
AcDbCircle
 10
2810.56136210652
 20
-2612.871835684208
 30
0.0
 40
12.00000000000017
100
AcDbArc
 50
180.0
 51
270.0
  0
LINE
  5
2E6
330
1F
100
AcDbEntity
  8
0-E
  6
Continuous
 62
     7
370
     9
100
AcDbLine
 10
2840.56136210652
 20
-2537.565704795931
 30
0.0
 11
2930.561362106518
 21
-2537.56570479593
 31
0.0
  0
LINE
  5
2E7
330
1F
100
AcDbEntity
  8
0-E
  6
Continuous
 62
     7
370
     9
100
AcDbLine
 10
2859.311362106519
 20
-2540.871835684213
 30
0.0
 11
2840.56136210652
 21
-2537.565704795931
 31
0.0
  0
LINE
  5
2E8
330
1F
100
AcDbEntity
  8
0-E
  6
Continuous
 62
     7
370
     9
100
AcDbLine
 10
2911.811362106524
 20
-2540.871835684213
 30
0.0
 11
2930.561362106518
 21
-2537.56570479593
 31
0.0
  0
LINE
  5
2E9
330
1F
100
AcDbEntity
  8
0-E
  6
Continuous
 62
     7
370
     9
100
AcDbLine
 10
2859.311362106519
 20
-2540.871835684213
 30
0.0
 11
2859.311362106519
 21
-2545.371835684213
 31
0.0
  0
LINE
  5
2EA
330
1F
100
AcDbEntity
  8
0-E
  6
Continuous
 62
     7
370
     9
100
AcDbLine
 10
2911.811362106524
 20
-2540.871835684213
 30
0.0
 11
2911.811362106524
 21
-2545.371835684213
 31
0.0
  0
LINE
  5
2EB
330
1F
100
AcDbEntity
  8
0-E
  6
Continuous
 62
     7
370
     9
100
AcDbLine
 10
2848.061362106519
 20
-2545.371835684213
 30
0.0
 11
2923.061362106519
 21
-2545.371835684213
 31
0.0
  0
LINE
  5
2EC
330
1F
100
AcDbEntity
  8
0-E
  6
Continuous
 62
     7
370
     9
100
AcDbLine
 10
2930.561362106518
 20
-2552.871835684213
 30
0.0
 11
2840.561362106519
 21
-2552.871835684206
 31
0.0
  0
LINE
  5
2ED
330
1F
100
AcDbEntity
  8
0-E
  6
Continuous
 62
     7
370
     9
100
AcDbLine
 10
2807.878735264263
 20
-2581.817156372134
 30
0.0
 11
2809.811362106514
 21
-2582.123254392901
 31
0.0
  0
LINE
  5
2EE
330
1F
100
AcDbEntity
  8
0-E
  6
Continuous
 62
     7
370
     9
100
AcDbLine
 10
2809.811362106514
 20
-2602.371835684208
 30
0.0
 11
2961.311362106524
 21
-2602.371835684208
 31
0.0
  0
LINE
  5
2EF
330
1F
100
AcDbEntity
  8
0-E
  6
Continuous
 62
     7
370
     9
100
AcDbLine
 10
2810.56136210652
 20
-2624.871835684209
 30
0.0
 11
2960.561362106519
 21
-2624.871835684209
 31
0.0
  0
LINE
  5
2F0
330
1F
100
AcDbEntity
  8
0-E
  6
Continuous
 62
     7
370
     9
100
AcDbLine
 10
2809.811362106514
 20
-2582.280653810518
 30
0.0
 11
2961.311362106524
 21
-2582.280653810518
 31
0.0
  0
LINE
  5
2F1
330
1F
100
AcDbEntity
  8
0-E
  6
Continuous
 62
     7
370
     9
100
AcDbLine
 10
2840.561362106548
 20
-2476.985558115154
 30
0.0
 11
2840.56136210652
 21
-2537.565704795931
 31
0.0
  0
LINE
  5
2F2
330
1F
100
AcDbEntity
  8
0-E
  6
Continuous
 62
     7
370
     9
100
AcDbLine
 10
2930.561362106518
 20
-2537.56570479593
 30
0.0
 11
2930.561362106547
 21
-2476.985558115154
 31
0.0
  0
LINE
  5
2F3
330
1F
100
AcDbEntity
  8
0-E
  6
Continuous
 62
     7
370
     9
100
AcDbLine
 10
2961.311362106524
 20
-2582.123254392901
 30
0.0
 11
2984.996887660675
 21
-2578.371835684213
 31
0.0
  0
LINE
  5
2F4
330
1F
100
AcDbEntity
  8
0-E
  6
Continuous
 62
     7
370
     9
100
AcDbLine
 10
2984.996887660675
 20
-2578.371835684213
 30
0.0
 11
2998.061362106517
 21
-2578.371835684213
 31
0.0
  0
LINE
  5
2F5
330
1F
100
AcDbEntity
  8
0-E
  6
Continuous
 62
     7
370
     9
100
AcDbLine
 10
2998.061362106519
 20
-2567.871835684213
 30
0.0
 11
2998.061362106517
 21
-2578.371835684213
 31
0.0
  0
ARC
  5
2F6
330
1F
100
AcDbEntity
  8
0-E
  6
Continuous
 62
     7
370
     9
100
AcDbCircle
 10
2990.561362106517
 20
-2567.871835684213
 30
0.0
 40
7.500000000001705
100
AcDbArc
 50
0.0
 51
90.0
  0
LINE
  5
2F7
330
1F
100
AcDbEntity
  8
0-E
  6
Continuous
 62
     7
370
     9
100
AcDbLine
 10
2930.561362106518
 20
-2560.371835684212
 30
0.0
 11
2990.561362106517
 21
-2560.371835684212
 31
0.0
  0
LINE
  5
2F8
330
1F
100
AcDbEntity
  8
0-E
  6
Continuous
 62
     7
370
     9
100
AcDbLine
 10
2780.561362106521
 20
-2560.371835684212
 30
0.0
 11
2930.561362106518
 21
-2560.371835684212
 31
0.0
  0
LINE
  5
2F9
330
1F
100
AcDbEntity
  8
0-E
  6
Continuous
 62
     7
370
     9
100
AcDbLine
 10
2786.12583655236
 20
-2578.371835684213
 30
0.0
 11
2807.878735264263
 21
-2581.817156372134
 31
0.0
  0
LINE
  5
2FA
330
1F
100
AcDbEntity
  8
0-E
  6
Continuous
 62
     7
370
     9
100
AcDbLine
 10
2773.061362106521
 20
-2578.371835684213
 30
0.0
 11
2786.12583655236
 21
-2578.371835684213
 31
0.0
  0
LINE
  5
2FB
330
1F
100
AcDbEntity
  8
0-E
  6
Continuous
 62
     7
370
     9
100
AcDbLine
 10
2773.061362106521
 20
-2578.371835684213
 30
0.0
 11
2773.06136210652
 21
-2567.871835684213
 31
0.0
  0
ARC
  5
2FC
330
1F
100
AcDbEntity
  8
0-E
  6
Continuous
 62
     7
370
     9
100
AcDbCircle
 10
2780.561362106521
 20
-2567.871835684213
 30
0.0
 40
7.5
100
AcDbArc
 50
90.0
 51
180.0
  0
LINE
  5
2FD
330
1F
100
AcDbEntity
  8
0-E
  6
Continuous
 62
    92
370
    13
100
AcDbLine
 10
1719.588034741195
 20
-567.8298970622432
 30
0.0
 11
4359.588034741199
 21
-567.8298970622432
 31
0.0
  0
MTEXT
  5
2FE
330
1F
100
AcDbEntity
  8
0-E
  6
Continuous
 62
     7
370
     9
100
AcDbMText
 10
2019.588034741198
 20
-538.9599243598486
 30
0.0
 40
91.44000000000001
 41
2100.0
 46
0.0
 71
     7
 72
     1
  1
{\fＭＳ ゴシック|b0|i0|c128|p49;床直付レール取り付け位置（Ｓ＝1/2）}
 73
     1
 44
1.0
  0
LINE
  5
2FF
330
1F
100
AcDbEntity
  8
0-4_枠
  6
Continuous
 62
    92
370
    13
100
AcDbLine
 10
-2165.081751039535
 20
-381.8298970622422
 30
0.0
 11
-2165.081751039535
 21
-1881.830386786968
 31
0.0
  0
LINE
  5
300
330
1F
100
AcDbEntity
  8
0-4_枠
  6
Continuous
 62
    92
370
    13
100
AcDbLine
 10
-2165.081751039535
 20
-2001.830386786968
 30
0.0
 11
-2165.081751039535
 21
-3309.83067629156
 31
0.0
  0
LINE
  5
301
330
1F
100
AcDbEntity
  8
0-4_枠
  6
Continuous
 62
    92
370
    13
100
AcDbLine
 10
-1703.081751039533
 20
-3309.83067629156
 30
0.0
 11
-1703.081751039533
 21
-2001.830386786968
 31
0.0
  0
LINE
  5
302
330
1F
100
AcDbEntity
  8
0-4_枠
  6
Continuous
 62
    92
370
    13
100
AcDbLine
 10
-1703.081751039533
 20
-1881.830386786968
 30
0.0
 11
-1703.081751039533
 21
-537.8298970622418
 31
0.0
  0
LINE
  5
303
330
1F
100
AcDbEntity
  8
1-E
  6
Continuous
 62
    40
370
    15
100
AcDbLine
 10
4082.088034741198
 20
-2649.485558115154
 30
0.0
 11
1997.088034741195
 21
-2649.485558115154
 31
0.0
  0
LINE
  5
304
330
1F
100
AcDbEntity
  8
1-E
  6
Continuous
 62
    40
370
    15
100
AcDbLine
 10
1997.088034741195
 20
-2829.485502441199
 30
0.0
 11
4082.088034741198
 21
-2829.485502441199
 31
0.0
  0
LINE
  5
305
330
1F
100
AcDbEntity
  8
1-E
  6
Continuous
 62
     7
370
     9
100
AcDbLine
 10
1997.088034741195
 20
-2769.485211699401
 30
0.0
 11
4082.088034741198
 21
-2769.485211699401
 31
0.0
  0
LINE
  5
306
330
1F
100
AcDbEntity
  8
1-E
  6
Continuous
 62
     7
370
     9
100
AcDbLine
 10
1997.088034741195
 20
-2739.485298303338
 30
0.0
 11
4082.088034741198
 21
-2739.485298303338
 31
0.0
  0
LINE
  5
307
330
1F
100
AcDbEntity
  8
1-E
  6
Continuous
 62
     7
370
     9
100
AcDbLine
 10
1997.088034741195
 20
-2799.485589045139
 30
0.0
 11
4082.088034741198
 21
-2799.485589045139
 31
0.0
  0
LINE
  5
308
330
1F
100
AcDbEntity
  8
1-E
  6
Continuous
 62
     7
370
     9
100
AcDbLine
 10
1997.088034741195
 20
-2709.485384907279
 30
0.0
 11
4082.088034741198
 21
-2709.485384907279
 31
0.0
  0
LINE
  5
309
330
1F
100
AcDbEntity
  8
1-E
  6
Continuous
 62
     7
370
     9
100
AcDbLine
 10
1997.088034741195
 20
-2679.485007561546
 30
0.0
 11
4082.088034741198
 21
-2679.485007561546
 31
0.0
  0
LINE
  5
30A
330
1F
100
AcDbEntity
  8
1-E
  6
Continuous
 62
     7
370
     9
100
AcDbLine
 10
2630.561362106519
 20
-2578.985558115156
 30
0.0
 11
2686.061362106521
 21
-2578.985558115156
 31
0.0
  0
LINE
  5
30B
330
1F
100
AcDbEntity
  8
1-E
  6
Continuous
 62
     7
370
     9
100
AcDbLine
 10
2690.56136210652
 20
-2583.485558115155
 30
0.0
 11
2686.061362106521
 21
-2578.985558115156
 31
0.0
  0
LINE
  5
30C
330
1F
100
AcDbEntity
  8
1-E
  6
Continuous
 62
     7
370
     9
100
AcDbLine
 10
2690.56136210652
 20
-2583.485558115155
 30
0.0
 11
2695.061362106522
 21
-2578.985558115156
 31
0.0
  0
ARC
  5
30D
330
1F
100
AcDbEntity
  8
1-E
  6
Continuous
 62
     7
370
     9
100
AcDbCircle
 10
2789.561362106519
 20
-2583.485558115153
 30
0.0
 40
4.500000000001449
100
AcDbArc
 50
359.9999999999784
 51
90.00000000000004
  0
LINE
  5
30E
330
1F
100
AcDbEntity
  8
1-E
  6
Continuous
 62
     7
370
     9
100
AcDbLine
 10
2794.06136210652
 20
-2583.485558115155
 30
0.0
 11
2794.06136210652
 21
-2590.985558115155
 31
0.0
  0
ARC
  5
30F
330
1F
100
AcDbEntity
  8
1-E
  6
Continuous
 62
     7
370
     9
100
AcDbCircle
 10
2791.061362106518
 20
-2590.985558115153
 30
0.0
 40
3.000000000000683
100
AcDbArc
 50
270.0
 51
359.9999999999674
  0
LINE
  5
310
330
1F
100
AcDbEntity
  8
1-E
  6
Continuous
 62
     7
370
     9
100
AcDbLine
 10
2791.061362106518
 20
-2593.985558115154
 30
0.0
 11
2782.061362106519
 21
-2593.985558115154
 31
0.0
  0
ARC
  5
311
330
1F
100
AcDbEntity
  8
1-E
  6
Continuous
 62
     7
370
     9
100
AcDbCircle
 10
2782.061362106519
 20
-2598.485558115153
 30
0.0
 40
4.499999999999318
100
AcDbArc
 50
90.0
 51
180.0
  0
LINE
  5
312
330
1F
100
AcDbEntity
  8
1-E
  6
Continuous
 62
     7
370
     9
100
AcDbLine
 10
2777.561362106518
 20
-2598.485558115153
 30
0.0
 11
2777.561362106518
 21
-2628.485558115155
 31
0.0
  0
ARC
  5
313
330
1F
100
AcDbEntity
  8
1-E
  6
Continuous
 62
     7
370
     9
100
AcDbCircle
 10
2785.061362106518
 20
-2628.485558115155
 30
0.0
 40
7.5
100
AcDbArc
 50
180.0
 51
270.0
  0
LINE
  5
314
330
1F
100
AcDbEntity
  8
1-E
  6
Continuous
 62
     7
370
     9
100
AcDbLine
 10
2785.061362106518
 20
-2635.985558115155
 30
0.0
 11
2881.061362106518
 21
-2635.985558115158
 31
0.0
  0
LINE
  5
315
330
1F
100
AcDbEntity
  8
1-E
  6
Continuous
 62
     7
370
     9
100
AcDbLine
 10
2885.561362106519
 20
-2640.485558115157
 30
0.0
 11
2881.061362106518
 21
-2635.985558115158
 31
0.0
  0
LINE
  5
316
330
1F
100
AcDbEntity
  8
1-E
  6
Continuous
 62
     7
370
     9
100
AcDbLine
 10
2885.561362106519
 20
-2640.485558115157
 30
0.0
 11
2890.061362106518
 21
-2635.985558115158
 31
0.0
  0
LINE
  5
317
330
1F
100
AcDbEntity
  8
1-E
  6
Continuous
 62
     7
370
     9
100
AcDbLine
 10
2890.061362106518
 20
-2635.985558115158
 30
0.0
 11
2986.061362106504
 21
-2635.985558115155
 31
0.0
  0
ARC
  5
318
330
1F
100
AcDbEntity
  8
1-E
  6
Continuous
 62
     7
370
     9
100
AcDbCircle
 10
2986.061362106504
 20
-2628.485558115155
 30
0.0
 40
7.5
100
AcDbArc
 50
270.0
 51
0.0
  0
LINE
  5
319
330
1F
100
AcDbEntity
  8
1-E
  6
Continuous
 62
     7
370
     9
100
AcDbLine
 10
2993.561362106506
 20
-2598.485558115153
 30
0.0
 11
2993.561362106506
 21
-2628.485558115155
 31
0.0
  0
ARC
  5
31A
330
1F
100
AcDbEntity
  8
1-E
  6
Continuous
 62
     7
370
     9
100
AcDbCircle
 10
2989.061362106505
 20
-2598.485558115153
 30
0.0
 40
4.500000000000171
100
AcDbArc
 50
0.0
 51
90.0
  0
LINE
  5
31B
330
1F
100
AcDbEntity
  8
1-E
  6
Continuous
 62
     7
370
     9
100
AcDbLine
 10
2980.061362106518
 20
-2593.985558115154
 30
0.0
 11
2989.061362106505
 21
-2593.985558115154
 31
0.0
  0
ARC
  5
31C
330
1F
100
AcDbEntity
  8
1-E
  6
Continuous
 62
     7
370
     9
100
AcDbCircle
 10
2980.061362106518
 20
-2590.985558115153
 30
0.0
 40
2.99999999999983
100
AcDbArc
 50
179.9999999999674
 51
270.0
  0
LINE
  5
31D
330
1F
100
AcDbEntity
  8
1-E
  6
Continuous
 62
     7
370
     9
100
AcDbLine
 10
2977.061362106519
 20
-2583.485558115151
 30
0.0
 11
2977.061362106519
 21
-2590.985558115151
 31
0.0
  0
ARC
  5
31E
330
1F
100
AcDbEntity
  8
1-E
  6
Continuous
 62
     7
370
     9
100
AcDbCircle
 10
2981.561362106519
 20
-2583.485558115151
 30
0.0
 40
4.499999999999318
100
AcDbArc
 50
89.99999999996201
 51
180.0
  0
ARC
  5
31F
330
1F
100
AcDbEntity
  8
1-E
  6
Continuous
 62
     7
370
     9
100
AcDbCircle
 10
2981.561362106503
 20
-2608.985558115156
 30
0.0
 40
30.0
100
AcDbArc
 50
359.9999999999968
 51
89.9999999999682
  0
LINE
  5
320
330
1F
100
AcDbEntity
  8
1-E
  6
Continuous
 62
     7
370
     9
100
AcDbLine
 10
3011.561362106506
 20
-2608.985558115157
 30
0.0
 11
3011.561362106504
 21
-2649.485558115154
 31
0.0
  0
ARC
  5
321
330
1F
100
AcDbEntity
  8
1-E
  6
Continuous
 62
     7
370
     9
100
AcDbCircle
 10
2776.061362106519
 20
-2634.485558115156
 30
0.0
 40
15.0
100
AcDbArc
 50
180.0
 51
270.0
  0
LINE
  5
322
330
1F
100
AcDbEntity
  8
1-E
  6
Continuous
 62
     7
370
     9
100
AcDbLine
 10
2761.061362106519
 20
-2605.599519145836
 30
0.0
 11
2761.061362106519
 21
-2634.485558115156
 31
0.0
  0
ARC
  5
323
330
1F
100
AcDbEntity
  8
1-E
  6
Continuous
 62
     7
370
     9
100
AcDbCircle
 10
2756.561362106519
 20
-2605.599519145834
 30
0.0
 40
4.500000000000171
100
AcDbArc
 50
359.9999999999784
 51
135.0000000000384
  0
LINE
  5
324
330
1F
100
AcDbEntity
  8
1-E
  6
Continuous
 62
     7
370
     9
100
AcDbLine
 10
2738.379381591183
 20
-2617.417538630499
 30
0.0
 11
2753.379381591178
 21
-2602.417538630499
 31
0.0
  0
ARC
  5
325
330
1F
100
AcDbEntity
  8
1-E
  6
Continuous
 62
     7
370
     9
100
AcDbCircle
 10
2741.561362106522
 20
-2620.599519145837
 30
0.0
 40
4.499999999999011
100
AcDbArc
 50
135.0000000000057
 51
180.0000000000034
  0
LINE
  5
326
330
1F
100
AcDbEntity
  8
1-E
  6
Continuous
 62
     7
370
     9
100
AcDbLine
 10
2737.061362106521
 20
-2649.485558115154
 30
0.0
 11
2737.061362106521
 21
-2620.599519145838
 31
0.0
  0
LINE
  5
327
330
1F
100
AcDbEntity
  8
1-E
  6
Continuous
 62
     7
370
     9
100
AcDbLine
 10
2720.561362106519
 20
-2649.485558115154
 30
0.0
 11
2737.061362106521
 21
-2649.485558115154
 31
0.0
  0
LINE
  5
328
330
1F
100
AcDbEntity
  8
1-E
  6
Continuous
 62
     7
370
     9
100
AcDbLine
 10
2720.561362106519
 20
-2649.485558115154
 30
0.0
 11
2720.561362106519
 21
-2610.485558115158
 31
0.0
  0
ARC
  5
329
330
1F
100
AcDbEntity
  8
1-E
  6
Continuous
 62
     7
370
     9
100
AcDbCircle
 10
2719.06136210652
 20
-2610.485558115158
 30
0.0
 40
1.499999999999915
100
AcDbArc
 50
0.0
 51
90.0
  0
LINE
  5
32A
330
1F
100
AcDbEntity
  8
1-E
  6
Continuous
 62
     7
370
     9
100
AcDbLine
 10
2662.061362106521
 20
-2608.985558115157
 30
0.0
 11
2719.06136210652
 21
-2608.985558115157
 31
0.0
  0
ARC
  5
32B
330
1F
100
AcDbEntity
  8
1-E
  6
Continuous
 62
     7
370
     9
100
AcDbCircle
 10
2662.061362106521
 20
-2610.485558115158
 30
0.0
 40
1.500000000000341
100
AcDbArc
 50
90.0
 51
180.0
  0
LINE
  5
32C
330
1F
100
AcDbEntity
  8
1-E
  6
Continuous
 62
     7
370
     9
100
AcDbLine
 10
2660.56136210652
 20
-2649.485558115154
 30
0.0
 11
2660.56136210652
 21
-2610.485558115158
 31
0.0
  0
LINE
  5
32D
330
1F
100
AcDbEntity
  8
1-E
  6
Continuous
 62
     7
370
     9
100
AcDbLine
 10
2644.061362106519
 20
-2649.485558115154
 30
0.0
 11
2660.56136210652
 21
-2649.485558115154
 31
0.0
  0
LINE
  5
32E
330
1F
100
AcDbEntity
  8
1-E
  6
Continuous
 62
     7
370
     9
100
AcDbLine
 10
2644.061362106519
 20
-2649.485558115154
 30
0.0
 11
2644.061362106519
 21
-2618.735558115159
 31
0.0
  0
LINE
  5
32F
330
1F
100
AcDbEntity
  8
1-E
  6
Continuous
 62
     7
370
     9
100
AcDbLine
 10
2644.061362106519
 20
-2618.735558115159
 30
0.0
 11
2628.364662965412
 21
-2603.038858974056
 31
0.0
  0
ARC
  5
330
330
1F
100
AcDbEntity
  8
1-E
  6
Continuous
 62
     7
370
     9
100
AcDbCircle
 10
2623.061362106519
 20
-2608.342159832952
 30
0.0
 40
7.499999999996444
100
AcDbArc
 50
45.0
 51
180.0000000000261
  0
LINE
  5
331
330
1F
100
AcDbEntity
  8
1-E
  6
Continuous
 62
     7
370
     9
100
AcDbLine
 10
2615.56136210652
 20
-2649.485558115154
 30
0.0
 11
2615.561362106517
 21
-2608.342159832956
 31
0.0
  0
LINE
  5
332
330
1F
100
AcDbEntity
  8
1-E
  6
Continuous
 62
     7
370
     9
100
AcDbLine
 10
2600.56136210652
 20
-2649.485558115154
 30
0.0
 11
2615.56136210652
 21
-2649.485558115154
 31
0.0
  0
LINE
  5
333
330
1F
100
AcDbEntity
  8
1-E
  6
Continuous
 62
     7
370
     9
100
AcDbLine
 10
2600.56136210652
 20
-2649.485558115154
 30
0.0
 11
2600.561362106517
 21
-2608.985558115156
 31
0.0
  0
ARC
  5
334
330
1F
100
AcDbEntity
  8
1-E
  6
Continuous
 62
     7
370
     9
100
AcDbCircle
 10
2630.561362106519
 20
-2608.985558115156
 30
0.0
 40
30.0
100
AcDbArc
 50
90.0
 51
180.0
  0
LINE
  5
335
330
1F
100
AcDbEntity
  8
1-E
  6
Continuous
 62
     7
370
     9
100
AcDbLine
 10
2776.061362106519
 20
-2649.485558115154
 30
0.0
 11
3011.561362106504
 21
-2649.485558115154
 31
0.0
  0
LINE
  5
336
330
1F
100
AcDbEntity
  8
1-E
  6
Continuous
 62
     7
370
     9
100
AcDbLine
 10
2789.561362106519
 20
-2578.985558115154
 30
0.0
 11
2695.061362106522
 21
-2578.985558115154
 31
0.0
  0
LINE
  5
337
330
1F
100
AcDbEntity
  8
1-E
  6
Continuous
 62
    92
370
    13
100
AcDbLine
 10
2308.059988815505
 20
-829.9825769691557
 30
0.0
 11
2308.059988815505
 21
-2649.485558115154
 31
0.0
  0
LINE
  5
338
330
1F
100
AcDbEntity
  8
1-E
  6
Continuous
 62
    92
370
    13
100
AcDbLine
 10
3463.059988815506
 20
-829.9825769691557
 30
0.0
 11
3463.059988815506
 21
-2649.485558115154
 31
0.0
  0
LINE
  5
339
330
1F
100
AcDbEntity
  8
1-E
  6
Continuous
 62
   120
370
     5
100
AcDbLine
 10
2308.059988815505
 20
-1109.658634952511
 30
0.0
 11
3463.059988815506
 21
-1109.658634952511
 31
0.0
  0
LWPOLYLINE
  5
33A
330
1F
100
AcDbEntity
  8
1-E
  6
Continuous
 62
     7
370
     9
100
AcDbPolyline
 90
        4
 70
     1
 43
3.0
 10
2309.559988815505
 20
-1109.658634952511
 42
0.4142135623731
 10
2308.059988815505
 20
-1108.158634952511
 42
0.4142135623731
 10
2306.559988815505
 20
-1109.658634952511
 42
0.4142135623731
 10
2308.059988815505
 20
-1111.158634952511
 42
0.4142135623731
  0
LWPOLYLINE
  5
33B
330
1F
100
AcDbEntity
  8
1-E
  6
Continuous
 62
     7
370
     9
100
AcDbPolyline
 90
        4
 70
     1
 43
3.0
 10
3464.559988815506
 20
-1109.658634952511
 42
0.4142135623731
 10
3463.059988815506
 20
-1108.158634952511
 42
0.4142135623731
 10
3461.559988815506
 20
-1109.658634952511
 42
0.4142135623731
 10
3463.059988815506
 20
-1111.158634952511
 42
0.4142135623731
  0
LINE
  5
33C
330
1F
100
AcDbEntity
  8
1-E
  6
JWW_CENTER1
 62
   120
370
     5
100
AcDbLine
 10
2885.561362106519
 20
-2969.71794841194
 30
0.0
 11
2885.561362106519
 21
-829.9825769691557
 31
0.0
  0
LINE
  5
33D
330
1F
100
AcDbEntity
  8
1-E
  6
Continuous
 62
     7
370
     9
100
AcDbLine
 10
3663.54665249817
 20
-1656.145834299496
 30
0.0
 11
4159.101371058538
 21
-1656.145834299496
 31
0.0
  0
LINE
  5
33E
330
1F
100
AcDbEntity
  8
1-E
  6
Continuous
 62
     7
370
     9
100
AcDbLine
 10
4159.101371058538
 20
-1656.145834299496
 30
0.0
 11
4159.101371058538
 21
-1850.42580918964
 31
0.0
  0
LINE
  5
33F
330
1F
100
AcDbEntity
  8
1-E
  6
Continuous
 62
     7
370
     9
100
AcDbLine
 10
4159.101371058538
 20
-1850.42580918964
 30
0.0
 11
3663.54665249817
 21
-1850.42580918964
 31
0.0
  0
LINE
  5
340
330
1F
100
AcDbEntity
  8
1-E
  6
Continuous
 62
     7
370
     9
100
AcDbLine
 10
3663.54665249817
 20
-1850.42580918964
 30
0.0
 11
3663.54665249817
 21
-1656.145834299496
 31
0.0
  0
LINE
  5
341
330
1F
100
AcDbEntity
  8
1-E
  6
Continuous
 62
   120
370
     5
100
AcDbLine
 10
2600.56136210652
 20
-2383.985558115151
 30
0.0
 11
3011.561362106504
 21
-2383.985558115151
 31
0.0
  0
LWPOLYLINE
  5
342
330
1F
100
AcDbEntity
  8
1-E
  6
Continuous
 62
     7
370
     9
100
AcDbPolyline
 90
        4
 70
     1
 43
3.0
 10
2602.06136210652
 20
-2383.985558115151
 42
0.4142135623731
 10
2600.56136210652
 20
-2382.485558115151
 42
0.4142135623731
 10
2599.061362106521
 20
-2383.985558115151
 42
0.4142135623731
 10
2600.56136210652
 20
-2385.485558115151
 42
0.4142135623731
  0
LWPOLYLINE
  5
343
330
1F
100
AcDbEntity
  8
1-E
  6
Continuous
 62
     7
370
     9
100
AcDbPolyline
 90
        4
 70
     1
 43
3.0
 10
3013.061362106504
 20
-2383.985558115151
 42
0.4142135623731
 10
3011.561362106504
 20
-2382.485558115151
 42
0.4142135623731
 10
3010.061362106504
 20
-2383.985558115151
 42
0.4142135623731
 10
3011.561362106504
 20
-2385.485558115151
 42
0.4142135623731
  0
LINE
  5
344
330
1F
100
AcDbEntity
  8
1-E
  6
Continuous
 62
   120
370
     5
100
AcDbLine
 10
2600.56136210652
 20
-2383.985558115151
 30
0.0
 11
2600.56136210652
 21
-2533.985558115151
 31
0.0
  0
LINE
  5
345
330
1F
100
AcDbEntity
  8
1-E
  6
Continuous
 62
   120
370
     5
100
AcDbLine
 10
3011.561362106504
 20
-2383.985558115151
 30
0.0
 11
3011.561362106504
 21
-2533.985558115151
 31
0.0
  0
LINE
  5
346
330
1F
100
AcDbEntity
  8
1-E
  6
Continuous
 62
   120
370
     5
100
AcDbLine
 10
3011.561362106504
 20
-2383.985558115151
 30
0.0
 11
3463.059988815506
 21
-2383.985558115151
 31
0.0
  0
LWPOLYLINE
  5
347
330
1F
100
AcDbEntity
  8
1-E
  6
Continuous
 62
     7
370
     9
100
AcDbPolyline
 90
        4
 70
     1
 43
3.0
 10
3464.559988815506
 20
-2383.985558115151
 42
0.4142135623731
 10
3463.059988815506
 20
-2382.485558115151
 42
0.4142135623731
 10
3461.559988815506
 20
-2383.985558115151
 42
0.4142135623731
 10
3463.059988815506
 20
-2385.485558115151
 42
0.4142135623731
  0
LINE
  5
348
330
1F
100
AcDbEntity
  8
1-E
  6
Continuous
 62
   120
370
     5
100
AcDbLine
 10
3463.059988815506
 20
-2383.985558115151
 30
0.0
 11
3463.059988815506
 21
-2533.985558115151
 31
0.0
  0
MTEXT
  5
349
330
1F
100
AcDbEntity
  8
1-E
  6
Continuous
 62
     7
370
     9
100
AcDbMText
 10
3671.324011778353
 20
-1626.255296530088
 30
0.0
 40
91.44
 41
480.0
 46
0.0
 71
     7
 72
     1
  1
{\fＭＳ ゴシック|b0|i0|c128|p49;竪枠前面}
 73
     1
 44
1.0
  0
MTEXT
  5
34A
330
1F
100
AcDbEntity
  8
1-E
  6
Continuous
 62
     7
370
     9
100
AcDbMText
 10
3731.324011778353
 20
-1827.565821744568
 30
0.0
 40
91.44
 41
360.0
 46
0.0
 71
     7
 72
     1
  1
{\fＭＳ ゴシック|b0|i0|c128|p49;室内側}
 73
     1
 44
1.0
  0
MTEXT
  5
34B
330
1F
100
AcDbEntity
  8
1-E
  6
Continuous
 62
     7
370
   211
100
AcDbMText
 10
2825.559988815505
 20
-1108.93863495251
 30
0.0
 40
91.44
 41
120.0
 46
0.0
 71
     7
 72
     1
  1
{\fＭＳ ゴシック|b0|i0|c128|p49;77}
 73
     1
 44
1.0
  0
MTEXT
  5
34C
330
1F
100
AcDbEntity
  8
1-E
  6
Continuous
 62
     7
370
   211
100
AcDbMText
 10
2686.061362106513
 20
-2383.265558115152
 30
0.0
 40
91.44
 41
240.0
 46
0.0
 71
     7
 72
     1
  1
{\fＭＳ ゴシック|b0|i0|c128|p49;27.4}
 73
     1
 44
1.0
  0
MTEXT
  5
34D
330
1F
100
AcDbEntity
  8
1-E
  6
Continuous
 62
     7
370
   211
100
AcDbMText
 10
3177.310675461006
 20
-2383.265558115152
 30
0.0
 40
91.44
 41
120.0
 46
0.0
 71
     7
 72
     1
  1
{\fＭＳ ゴシック|b0|i0|c128|p49;30}
 73
     1
 44
1.0
  0
MTEXT
  5
34E
330
1F
100
AcDbEntity
  8
0-B_寸法
  6
Continuous
 62
     7
370
   211
100
AcDbMText
 10
-1186.271042249592
 20
2287.66514659615
 30
0.0
 40
91.44
 41
120.0
 46
0.0
 71
     7
 72
     1
  1
{\fＭＳ ゴシック|b0|i0|c128|p49;20}
 11
6.123031769111886E-17
 21
1.0
 31
0.0
 73
     1
 44
1.0
  0
MTEXT
  5
34F
330
1F
100
AcDbEntity
  8
0-B_寸法
  6
Continuous
 62
     7
370
     0
100
AcDbMText
 10
-1997.832305613524
 20
-1244.100226289377
 30
0.0
 40
91.43999999999808
 41
119.9999999999975
 46
0.0
 71
     7
 72
     1
  1
{\fＭＳ ゴシック|b0|i0|c128|p49;20}
 11
0.9999999999914964
 21
4.124000483235921E-6
 31
0.0
 73
     1
 44
1.0
  0
MTEXT
  5
350
330
1F
100
AcDbEntity
  8
F-A_文字
  6
Continuous
 62
     7
370
     0
100
AcDbMText
 10
4938.667793092893
 20
-3938.071010139966
 30
0.0
 40
78.86699999999999
 41
517.5
 46
0.0
 71
     7
 72
     1
  1
{\fＭＳ ゴシック|b0|i0|c128|p49;2024.04.01}
 73
     1
 44
1.0
  0
CIRCLE
  5
351
330
1F
100
AcDbEntity
  8
0-7_金物
  6
Continuous
 62
     7
370
     9
100
AcDbCircle
 10
1016.418542843314
 20
2451.945146596128
 30
0.0
 40
30.0
  0
CIRCLE
  5
352
330
1F
100
AcDbEntity
  8
0-7_金物
  6
Continuous
 62
     7
370
     9
100
AcDbCircle
 10
1016.418542843314
 20
2451.945146596128
 30
0.0
 40
21.00000000000001
  0
CIRCLE
  5
353
330
1F
100
AcDbEntity
  8
0-7_金物
  6
Continuous
 62
     7
370
     9
100
AcDbCircle
 10
-996.5814571566875
 20
2451.945146596128
 30
0.0
 40
30.0
  0
CIRCLE
  5
354
330
1F
100
AcDbEntity
  8
0-7_金物
  6
Continuous
 62
     7
370
     9
100
AcDbCircle
 10
-996.5814571566875
 20
2451.945146596128
 30
0.0
 40
21.00000000000001
  0
LINE
  5
355
330
1F
100
AcDbEntity
  8
0-6_扉
  6
Continuous
 62
   200
370
    20
100
AcDbLine
 10
1548.168542843316
 20
2421.945146596151
 30
0.0
 11
2016.918542843317
 21
2421.945146596151
 31
0.0
  0
LINE
  5
356
330
1F
100
AcDbEntity
  8
0-6_扉
  6
Continuous
 62
   200
370
    20
100
AcDbLine
 10
1019.418542843314
 20
2421.945146596151
 30
0.0
 11
1488.168542843316
 21
2421.945146596151
 31
0.0
  0
LINE
  5
357
330
1F
100
AcDbEntity
  8
0-6_扉
  6
Continuous
 62
   200
370
    20
100
AcDbLine
 10
544.6685428433163
 20
2421.945146596151
 30
0.0
 11
1013.418542843314
 21
2421.945146596151
 31
0.0
  0
LINE
  5
358
330
1F
100
AcDbEntity
  8
0-6_扉
  6
Continuous
 62
   200
370
    20
100
AcDbLine
 10
15.9185428433193
 20
2421.945146596151
 30
0.0
 11
484.6685428433163
 21
2421.945146596151
 31
0.0
  0
LINE
  5
359
330
1F
100
AcDbEntity
  8
0-6_扉
  6
Continuous
 62
   200
370
    20
100
AcDbLine
 10
-464.8314571566868
 20
2421.945146596151
 30
0.0
 11
3.918542843313162
 21
2421.945146596151
 31
0.0
  0
LINE
  5
35A
330
1F
100
AcDbEntity
  8
0-6_扉
  6
Continuous
 62
   200
370
    20
100
AcDbLine
 10
-993.5814571566868
 20
2421.945146596151
 30
0.0
 11
-524.8314571566868
 21
2421.945146596151
 31
0.0
  0
LINE
  5
35B
330
1F
100
AcDbEntity
  8
0-0_補助線
  6
JWW_HOJO
 62
     7
370
     9
100
AcDbLine
 10
1548.168542843316
 20
2439.94514659615
 30
0.0
 11
1548.168542843316
 21
2280.944503252612
 31
0.0
  0
LINE
  5
35C
330
1F
100
AcDbEntity
  8
0-0_補助線
  6
JWW_HOJO
 62
     7
370
     9
100
AcDbLine
 10
1488.168542843316
 20
2439.94514659615
 30
0.0
 11
1488.168542843316
 21
2280.944503252612
 31
0.0
  0
LINE
  5
35D
330
1F
100
AcDbEntity
  8
0-0_補助線
  6
JWW_HOJO
 62
     7
370
     9
100
AcDbLine
 10
544.6685428433163
 20
2439.94514659615
 30
0.0
 11
544.6685428433163
 21
2280.944503252612
 31
0.0
  0
LINE
  5
35E
330
1F
100
AcDbEntity
  8
0-0_補助線
  6
JWW_HOJO
 62
     7
370
     9
100
AcDbLine
 10
484.6685428433163
 20
2439.94514659615
 30
0.0
 11
484.6685428433163
 21
2280.944503252612
 31
0.0
  0
LINE
  5
35F
330
1F
100
AcDbEntity
  8
0-0_補助線
  6
JWW_HOJO
 62
     7
370
     9
100
AcDbLine
 10
-464.8314571566868
 20
2439.94514659615
 30
0.0
 11
-464.8314571566868
 21
2280.944503252612
 31
0.0
  0
LINE
  5
360
330
1F
100
AcDbEntity
  8
0-0_補助線
  6
JWW_HOJO
 62
     7
370
     9
100
AcDbLine
 10
-524.8314571566868
 20
2439.94514659615
 30
0.0
 11
-524.8314571566868
 21
2280.944503252612
 31
0.0
  0
LINE
  5
361
330
1F
100
AcDbEntity
  8
0-6_扉
  6
Continuous
 62
   200
370
    20
100
AcDbLine
 10
-1468.331457156687
 20
2421.945146596151
 30
0.0
 11
-999.5814571566865
 21
2421.945146596151
 31
0.0
  0
LINE
  5
362
330
1F
100
AcDbEntity
  8
0-6_扉
  6
Continuous
 62
   200
370
    20
100
AcDbLine
 10
-1997.081457156687
 20
2421.945146596151
 30
0.0
 11
-1528.331457156687
 21
2421.945146596151
 31
0.0
  0
LINE
  5
363
330
1F
100
AcDbEntity
  8
0-0_補助線
  6
JWW_HOJO
 62
     7
370
     9
100
AcDbLine
 10
-1468.331457156687
 20
2439.94514659615
 30
0.0
 11
-1468.331457156687
 21
2280.944503252612
 31
0.0
  0
LINE
  5
364
330
1F
100
AcDbEntity
  8
0-0_補助線
  6
JWW_HOJO
 62
     7
370
     9
100
AcDbLine
 10
-1528.331457156687
 20
2439.94514659615
 30
0.0
 11
-1528.331457156687
 21
2280.944503252612
 31
0.0
  0
LWPOLYLINE
  5
365
330
1F
100
AcDbEntity
  8
0-B_寸法
  6
Continuous
 62
     7
370
     9
100
AcDbPolyline
 90
        4
 70
     1
 43
3.0
 10
-1169.771042249593
 20
2421.945146596151
 42
0.4142135623731
 10
-1171.271042249593
 20
2423.445146596151
 42
0.4142135623731
 10
-1172.771042249593
 20
2421.945146596151
 42
0.4142135623731
 10
-1171.271042249593
 20
2420.445146596152
 42
0.4142135623731
  0
LINE
  5
366
330
1F
100
AcDbEntity
  8
0-0_補助線
  6
Continuous
 62
   120
370
     5
100
AcDbLine
 10
-1997.081457156687
 20
2324.35919630369
 30
0.0
 11
-1997.081457156687
 21
2402.688459526875
 31
0.0
  0
LINE
  5
367
330
1F
100
AcDbEntity
  8
0-0_補助線
  6
Continuous
 62
   120
370
     5
100
AcDbLine
 10
-1982.081457156687
 20
2324.35919630369
 30
0.0
 11
-1982.081457156687
 21
2402.688459526875
 31
0.0
  0
LINE
  5
368
330
1F
100
AcDbEntity
  8
0-6_扉
  6
Continuous
 62
   200
370
    20
100
AcDbLine
 10
1548.168542843316
 20
2301.945146596151
 30
0.0
 11
2016.918542843317
 21
2301.945146596151
 31
0.0
  0
LINE
  5
369
330
1F
100
AcDbEntity
  8
0-6_扉
  6
Continuous
 62
   200
370
    20
100
AcDbLine
 10
1019.418542843314
 20
2301.945146596151
 30
0.0
 11
1488.168542843316
 21
2301.945146596151
 31
0.0
  0
LINE
  5
36A
330
1F
100
AcDbEntity
  8
0-6_扉
  6
Continuous
 62
   200
370
    20
100
AcDbLine
 10
544.6685428433163
 20
2301.945146596151
 30
0.0
 11
1013.418542843314
 21
2301.945146596151
 31
0.0
  0
LINE
  5
36B
330
1F
100
AcDbEntity
  8
0-6_扉
  6
Continuous
 62
   200
370
    20
100
AcDbLine
 10
15.9185428433193
 20
2301.945146596151
 30
0.0
 11
484.6685428433163
 21
2301.945146596151
 31
0.0
  0
LINE
  5
36C
330
1F
100
AcDbEntity
  8
0-6_扉
  6
Continuous
 62
   200
370
    20
100
AcDbLine
 10
-464.8314571566868
 20
2301.945146596151
 30
0.0
 11
3.918542843313162
 21
2301.945146596151
 31
0.0
  0
LINE
  5
36D
330
1F
100
AcDbEntity
  8
0-6_扉
  6
Continuous
 62
   200
370
    20
100
AcDbLine
 10
-993.5814571566868
 20
2301.945146596151
 30
0.0
 11
-524.8314571566868
 21
2301.945146596151
 31
0.0
  0
LINE
  5
36E
330
1F
100
AcDbEntity
  8
0-6_扉
  6
Continuous
 62
   200
370
    20
100
AcDbLine
 10
-1468.331457156687
 20
2301.945146596151
 30
0.0
 11
-999.5814571566865
 21
2301.945146596151
 31
0.0
  0
LINE
  5
36F
330
1F
100
AcDbEntity
  8
0-6_扉
  6
Continuous
 62
   200
370
    20
100
AcDbLine
 10
-1997.081457156687
 20
2301.945146596151
 30
0.0
 11
-1528.331457156687
 21
2301.945146596151
 31
0.0
  0
LWPOLYLINE
  5
370
330
1F
100
AcDbEntity
  8
0-B_寸法
  6
Continuous
 62
     7
370
     9
100
AcDbPolyline
 90
        4
 70
     1
 43
3.0
 10
-1169.771042249593
 20
2301.945146596151
 42
0.4142135623731
 10
-1171.271042249593
 20
2303.445146596151
 42
0.4142135623731
 10
-1172.771042249593
 20
2301.945146596151
 42
0.4142135623731
 10
-1171.271042249593
 20
2300.445146596152
 42
0.4142135623731
  0
LINE
  5
371
330
1F
100
AcDbEntity
  8
0-6_扉
  6
Continuous
 62
   200
370
    20
100
AcDbLine
 10
1013.418542843314
 20
2421.945146596151
 30
0.0
 11
1013.418542843314
 21
2301.945146596151
 31
0.0
  0
LINE
  5
372
330
1F
100
AcDbEntity
  8
0-6_扉
  6
Continuous
 62
   200
370
    20
100
AcDbLine
 10
1019.418542843314
 20
2421.945146596151
 30
0.0
 11
1019.418542843314
 21
2301.945146596151
 31
0.0
  0
LINE
  5
373
330
1F
100
AcDbEntity
  8
0-6_扉
  6
Continuous
 62
   200
370
    20
100
AcDbLine
 10
-993.5814571566868
 20
2421.945146596151
 30
0.0
 11
-993.5814571566868
 21
2301.945146596151
 31
0.0
  0
LINE
  5
374
330
1F
100
AcDbEntity
  8
0-6_扉
  6
Continuous
 62
   200
370
    20
100
AcDbLine
 10
-999.5814571566865
 20
2421.945146596151
 30
0.0
 11
-999.5814571566865
 21
2301.945146596151
 31
0.0
  0
LINE
  5
375
330
1F
100
AcDbEntity
  8
0-6_扉
  6
Continuous
 62
   200
370
    20
100
AcDbLine
 10
15.91854284331248
 20
2421.945146596151
 30
0.0
 11
15.91854284331248
 21
2301.945146596151
 31
0.0
  0
LINE
  5
376
330
1F
100
AcDbEntity
  8
0-6_扉
  6
Continuous
 62
   200
370
    20
100
AcDbLine
 10
3.918542843313162
 20
2421.945146596151
 30
0.0
 11
3.918542843313162
 21
2301.945146596151
 31
0.0
  0
LINE
  5
377
330
1F
100
AcDbEntity
  8
0-B_寸法
  6
Continuous
 62
   120
370
     5
100
AcDbLine
 10
-1171.271042249593
 20
2421.945146596151
 30
0.0
 11
-1171.271042249593
 21
2301.945146596151
 31
0.0
  0
LINE
  5
378
330
1F
100
AcDbEntity
  8
0-6_扉
  6
Continuous
 62
   200
370
    20
100
AcDbLine
 10
2016.918542843317
 20
2421.945146596151
 30
0.0
 11
2016.918542843317
 21
2301.945146596151
 31
0.0
  0
LINE
  5
379
330
1F
100
AcDbEntity
  8
0-6_扉
  6
Continuous
 62
   200
370
    20
100
AcDbLine
 10
-1997.081457156687
 20
2421.945146596151
 30
0.0
 11
-1997.081457156687
 21
2301.945146596151
 31
0.0
  0
LWPOLYLINE
  5
37A
330
1F
100
AcDbEntity
  8
0-B_寸法
  6
Continuous
 62
     7
370
     9
100
AcDbPolyline
 90
        4
 70
     1
 43
3.0
 10
-1872.581201723126
 20
-1244.819842757449
 42
0.4142135623731
 10
-1874.081201723126
 20
-1243.319842757449
 42
0.4142135623731
 10
-1875.581201723126
 20
-1244.819842757449
 42
0.4142135623731
 10
-1874.081201723126
 20
-1246.319842757449
 42
0.4142135623731
  0
LINE
  5
37B
330
1F
100
AcDbEntity
  8
0-B_寸法
  6
Continuous
 62
   120
370
     5
100
AcDbLine
 10
-1874.081201723126
 20
-1160.582914178477
 30
0.0
 11
-1874.081201723126
 21
-1244.819842757449
 31
0.0
  0
LINE
  5
37C
330
1F
100
AcDbEntity
  8
0-6_扉
  6
Continuous
 62
   200
370
    20
100
AcDbLine
 10
-1874.081201723126
 20
-642.8298055095079
 30
0.0
 11
-1874.081201723126
 21
-1881.830386786968
 31
0.0
  0
LINE
  5
37D
330
1F
100
AcDbEntity
  8
0-6_扉
  6
Continuous
 62
   200
370
    20
100
AcDbLine
 10
-1874.081201723129
 20
-3004.432628161206
 30
0.0
 11
-1874.081201723129
 21
-3240.830676291561
 31
0.0
  0
LWPOLYLINE
  5
37E
330
1F
100
AcDbEntity
  8
0-B_寸法
  6
Continuous
 62
     7
370
     9
100
AcDbPolyline
 90
        4
 70
     1
 43
3.0
 10
-1992.581201723129
 20
-1244.819842757449
 42
0.4142135623731
 10
-1994.081201723129
 20
-1243.319842757449
 42
0.4142135623731
 10
-1995.581201723129
 20
-1244.819842757449
 42
0.4142135623731
 10
-1994.081201723129
 20
-1246.319842757449
 42
0.4142135623731
  0
LINE
  5
37F
330
1F
100
AcDbEntity
  8
0-B_寸法
  6
Continuous
 62
   120
370
     5
100
AcDbLine
 10
-1994.081201723129
 20
-1160.582914178477
 30
0.0
 11
-1994.081201723129
 21
-1244.819842757449
 31
0.0
  0
LINE
  5
380
330
1F
100
AcDbEntity
  8
0-6_扉
  6
Continuous
 62
   200
370
    20
100
AcDbLine
 10
-1994.081201723129
 20
-642.8298055095079
 30
0.0
 11
-1994.081201723129
 21
-1881.830386786968
 31
0.0
  0
LINE
  5
381
330
1F
100
AcDbEntity
  8
0-6_扉
  6
Continuous
 62
   200
370
    20
100
AcDbLine
 10
-1994.081201723129
 20
-3004.432628161206
 30
0.0
 11
-1994.081201723129
 21
-3240.830676291561
 31
0.0
  0
LINE
  5
382
330
1F
100
AcDbEntity
  8
0-6_扉
  6
Continuous
 62
   200
370
    20
100
AcDbLine
 10
-1994.081201723129
 20
-642.8298055095079
 30
0.0
 11
-1874.081201723126
 21
-642.8298055095079
 31
0.0
  0
LINE
  5
383
330
1F
100
AcDbEntity
  8
0-B_寸法
  6
Continuous
 62
   120
370
     5
100
AcDbLine
 10
-1994.081201723129
 20
-1244.819842757449
 30
0.0
 11
-1874.081201723126
 21
-1244.819842757449
 31
0.0
  0
LINE
  5
384
330
1F
100
AcDbEntity
  8
0-6_扉
  6
Continuous
 62
   200
370
    20
100
AcDbLine
 10
-1994.081201723129
 20
-2001.830386786968
 30
0.0
 11
-1994.081201723129
 21
-3240.830676291561
 31
0.0
  0
LINE
  5
385
330
1F
100
AcDbEntity
  8
0-6_扉
  6
Continuous
 62
   200
370
    20
100
AcDbLine
 10
-1874.081201723129
 20
-2001.830386786968
 30
0.0
 11
-1874.081201723129
 21
-3240.830676291561
 31
0.0
  0
LINE
  5
386
330
1F
100
AcDbEntity
  8
0-6_扉
  6
Continuous
 62
   200
370
    20
100
AcDbLine
 10
-1874.081201723129
 20
-3240.830676291561
 30
0.0
 11
-1994.081201723129
 21
-3240.830676291561
 31
0.0
  0
LINE
  5
387
330
1F
100
AcDbEntity
  8
1-E
  6
JWW_DASHED2
 62
     7
370
     9
100
AcDbLine
 10
3035.561362106519
 20
-829.9825769691557
 30
0.0
 11
3035.561362106519
 21
-2476.985558115154
 31
0.0
  0
LINE
  5
388
330
1F
100
AcDbEntity
  8
1-E
  6
JWW_DASHED2
 62
     7
370
     9
100
AcDbLine
 10
3035.561362106519
 20
-2476.985558115154
 30
0.0
 11
2735.561362106519
 21
-2476.985558115154
 31
0.0
  0
LINE
  5
389
330
1F
100
AcDbEntity
  8
1-E
  6
JWW_DASHED2
 62
     7
370
     9
100
AcDbLine
 10
2735.561362106519
 20
-829.9825769691557
 30
0.0
 11
2735.561362106519
 21
-2476.985558115154
 31
0.0
  0
ENDSEC
  0
SECTION
  2
OBJECTS
  0
DICTIONARY
  5
C
330
0
100
AcDbDictionary
281
     1
  3
ACAD_GROUP
350
D
  3
ACAD_LAYOUT
350
1A
  3
ACAD_MATERIAL
350
3B
  3
ACAD_MLEADERSTYLE
350
38B
  3
ACAD_MLINESTYLE
350
17
  3
ACAD_PLOTSETTINGS
350
19
  3
ACAD_PLOTSTYLENAME
350
E
  3
ACAD_TABLESTYLE
350
38A
  3
ACAD_VISUALSTYLE
350
2A
  0
DICTIONARY
  5
D
102
{ACAD_REACTORS
330
C
102
}
330
C
100
AcDbDictionary
281
     1
  0
DICTIONARY
  5
1A
102
{ACAD_REACTORS
330
C
102
}
330
C
100
AcDbDictionary
281
     1
  3
Layout1
350
1E
  3
Layout2
350
26
  3
Model
350
22
  0
DICTIONARY
  5
3B
102
{ACAD_REACTORS
330
C
102
}
330
C
100
AcDbDictionary
281
     1
  3
ByBlock
350
3D
  3
ByLayer
350
3C
  3
Global
350
3E
  0
DICTIONARY
  5
38B
102
{ACAD_REACTORS
330
C
102
}
330
C
100
AcDbDictionary
281
     1
  0
DICTIONARY
  5
17
102
{ACAD_REACTORS
330
C
102
}
330
C
100
AcDbDictionary
281
     1
  3
Standard
350
18
  0
DICTIONARY
  5
19
102
{ACAD_REACTORS
330
C
102
}
330
C
100
AcDbDictionary
281
     1
  0
ACDBDICTIONARYWDFLT
  5
E
102
{ACAD_REACTORS
330
C
102
}
330
C
100
AcDbDictionary
281
     1
  3
Normal
350
F
100
AcDbDictionaryWithDefault
340
F
  0
DICTIONARY
  5
38A
102
{ACAD_REACTORS
330
C
102
}
330
C
100
AcDbDictionary
281
     1
  0
DICTIONARY
  5
2A
102
{ACAD_REACTORS
330
C
102
}
330
C
100
AcDbDictionary
281
     1
  3
2dWireframe
350
2F
  3
3D Hidden
350
31
  3
3dWireframe
350
30
  3
Basic
350
32
  3
Brighten
350
36
  3
ColorChange
350
3A
  3
Conceptual
350
34
  3
Dim
350
35
  3
Facepattern
350
39
  3
Flat
350
2B
  3
FlatWithEdges
350
2C
  3
Gouraud
350
2D
  3
GouraudWithEdges
350
2E
  3
Linepattern
350
38
  3
Realistic
350
33
  3
Thicken
350
37
  0
LAYOUT
  5
1E
102
{ACAD_REACTORS
330
1A
102
}
330
1A
100
AcDbPlotSettings
  1

  2
none_device
  4

  6

 40
0.0
 41
0.0
 42
0.0
 43
0.0
 44
0.0
 45
0.0
 46
0.0
 47
0.0
 48
0.0
 49
0.0
140
0.0
141
0.0
142
1.0
143
1.0
 70
   688
 72
     0
 73
     0
 74
     5
  7

 75
    16
 76
     0
 77
     5
 78
   300
147
1.0
148
0.0
149
0.0
100
AcDbLayout
  1
Layout1
 70
     1
 71
     1
 10
0.0
 20
0.0
 11
420.0
 21
297.0
 12
0.0
 22
0.0
 32
0.0
 14
1.000000000000000E+20
 24
1.000000000000000E+20
 34
1.000000000000000E+20
 15
-1.000000000000000E+20
 25
-1.000000000000000E+20
 35
-1.000000000000000E+20
146
0.0
 13
0.0
 23
0.0
 33
0.0
 16
1.0
 26
0.0
 36
0.0
 17
0.0
 27
1.0
 37
0.0
 76
     0
330
1B
  0
LAYOUT
  5
26
102
{ACAD_REACTORS
330
1A
102
}
330
1A
100
AcDbPlotSettings
  1

  2
none_device
  4

  6

 40
0.0
 41
0.0
 42
0.0
 43
0.0
 44
0.0
 45
0.0
 46
0.0
 47
0.0
 48
0.0
 49
0.0
140
0.0
141
0.0
142
1.0
143
1.0
 70
   688
 72
     0
 73
     0
 74
     5
  7

 75
    16
 76
     0
 77
     5
 78
   300
147
1.0
148
0.0
149
0.0
100
AcDbLayout
  1
Layout2
 70
     1
 71
     2
 10
0.0
 20
0.0
 11
0.0
 21
0.0
 12
0.0
 22
0.0
 32
0.0
 14
0.0
 24
0.0
 34
0.0
 15
0.0
 25
0.0
 35
0.0
146
0.0
 13
0.0
 23
0.0
 33
0.0
 16
1.0
 26
0.0
 36
0.0
 17
0.0
 27
1.0
 37
0.0
 76
     0
330
23
  0
LAYOUT
  5
22
102
{ACAD_REACTORS
330
1A
102
}
330
1A
100
AcDbPlotSettings
  1

  2
none_device
  4

  6

 40
0.0
 41
0.0
 42
0.0
 43
0.0
 44
0.0
 45
0.0
 46
0.0
 47
0.0
 48
0.0
 49
0.0
140
0.0
141
0.0
142
1.0
143
1.0
 70
  1712
 72
     0
 73
     0
 74
     0
  7

 75
     0
 76
     0
 77
     5
 78
   300
147
1.0
148
0.0
149
0.0
100
AcDbLayout
  1
Model
 70
     1
 71
     0
 10
-6300.0
 20
-4455.0
 11
6300.0
 21
4455.0
 12
0.0
 22
0.0
 32
0.0
 14
-6300.0
 24
-4455.0
 34
0.0
 15
6300.0
 25
4455.0
 35
0.0
146
0.0
 13
0.0
 23
0.0
 33
0.0
 16
1.0
 26
0.0
 36
0.0
 17
0.0
 27
1.0
 37
0.0
 76
     0
330
1F
331
29
  0
MATERIAL
  5
3D
102
{ACAD_REACTORS
330
3B
102
}
330
3B
100
AcDbMaterial
  1
ByBlock
 72
     1
 94
      127
  0
MATERIAL
  5
3C
102
{ACAD_REACTORS
330
3B
102
}
330
3B
100
AcDbMaterial
  1
ByLayer
 72
     1
 94
      127
  0
MATERIAL
  5
3E
102
{ACAD_REACTORS
330
3B
102
}
330
3B
100
AcDbMaterial
  1
Global
 72
     1
 94
      127
  0
MLINESTYLE
  5
18
102
{ACAD_REACTORS
330
17
102
}
330
17
100
AcDbMlineStyle
  2
Standard
 70
     0
  3

 62
   256
 51
90.0
 52
90.0
 71
     2
 49
0.5
 62
   256
  6
BYLAYER
 49
-0.5
 62
   256
  6
BYLAYER
  0
ACDBPLACEHOLDER
  5
F
102
{ACAD_REACTORS
330
E
102
}
330
E
  0
VISUALSTYLE
  5
2F
102
{ACAD_REACTORS
330
2A
102
}
330
2A
100
AcDbVisualStyle
  2
2dWireframe
 70
     4
177
     2
291
     0
 71
     0
176
     1
 72
     2
176
     1
 73
     0
176
     1
 90
        0
176
     1
 40
-0.6
176
     1
 41
-30.0
176
     1
 62
     5
 63
     7
421
 16777215
176
     1
 74
     1
176
     1
 91
        4
176
     1
 64
     7
176
     1
 65
   257
176
     1
 75
     1
176
     1
175
     1
176
     1
 42
1.0
176
     1
 92
        0
176
     1
 66
   257
176
     1
 43
1.0
176
     1
 76
     1
176
     1
 77
     6
176
     1
 78
     2
176
     1
 67
     7
176
     1
 79
     5
176
     1
170
     0
176
     1
171
     0
176
     1
290
     0
176
     1
 93
        1
176
     1
 44
0.0
176
     1
173
     0
176
     1
  0
VISUALSTYLE
  5
31
102
{ACAD_REACTORS
330
2A
102
}
330
2A
100
AcDbVisualStyle
  2
3D Hidden
 70
     6
177
     2
291
     0
 71
     1
176
     1
 72
     2
176
     1
 73
     2
176
     1
 90
        0
176
     1
 40
-0.6
176
     1
 41
-30.0
176
     1
 62
     5
 63
     7
421
 16777215
176
     1
 74
     2
176
     1
 91
        2
176
     1
 64
     7
176
     1
 65
   257
176
     1
 75
     2
176
     1
175
     1
176
     1
 42
40.0
176
     1
 92
        0
176
     1
 66
   257
176
     1
 43
1.0
176
     1
 76
     1
176
     1
 77
     6
176
     1
 78
     2
176
     1
 67
     7
176
     1
 79
     3
176
     1
170
     0
176
     1
171
     0
176
     1
290
     0
176
     1
 93
        1
176
     1
 44
0.0
176
     1
173
     0
176
     1
  0
VISUALSTYLE
  5
30
102
{ACAD_REACTORS
330
2A
102
}
330
2A
100
AcDbVisualStyle
  2
3dWireframe
 70
     5
177
     2
291
     0
 71
     0
176
     1
 72
     2
176
     1
 73
     0
176
     1
 90
        0
176
     1
 40
-0.6
176
     1
 41
-30.0
176
     1
 62
     5
 63
     7
421
 16777215
176
     1
 74
     1
176
     1
 91
        4
176
     1
 64
     7
176
     1
 65
   257
176
     1
 75
     1
176
     1
175
     1
176
     1
 42
1.0
176
     1
 92
        0
176
     1
 66
   257
176
     1
 43
1.0
176
     1
 76
     1
176
     1
 77
     6
176
     1
 78
     2
176
     1
 67
     7
176
     1
 79
     5
176
     1
170
     0
176
     1
171
     0
176
     1
290
     0
176
     1
 93
        1
176
     1
 44
0.0
176
     1
173
     0
176
     1
  0
VISUALSTYLE
  5
32
102
{ACAD_REACTORS
330
2A
102
}
330
2A
100
AcDbVisualStyle
  2
Basic
 70
     7
177
     2
291
     1
 71
     1
176
     1
 72
     0
176
     1
 73
     1
176
     1
 90
        0
176
     1
 40
-0.6
176
     1
 41
-30.0
176
     1
 62
     5
 63
     7
421
 16777215
176
     1
 74
     0
176
     1
 91
        4
176
     1
 64
     7
176
     1
 65
   257
176
     1
 75
     1
176
     1
175
     1
176
     1
 42
1.0
176
     1
 92
        8
176
     1
 66
     7
176
     1
 43
1.0
176
     1
 76
     1
176
     1
 77
     6
176
     1
 78
     2
176
     1
 67
     7
176
     1
 79
     5
176
     1
170
     0
176
     1
171
     0
176
     1
290
     0
176
     1
 93
        1
176
     1
 44
0.0
176
     1
173
     0
176
     1
  0
VISUALSTYLE
  5
36
102
{ACAD_REACTORS
330
2A
102
}
330
2A
100
AcDbVisualStyle
  2
Brighten
 70
    12
177
     2
291
     1
 71
     2
176
     1
 72
     2
176
     1
 73
     0
176
     1
 90
        0
176
     1
 40
-0.6
176
     1
 41
-30.0
176
     1
 62
     5
 63
     7
421
 16777215
176
     1
 74
     1
176
     1
 91
        4
176
     1
 64
     7
176
     1
 65
   257
176
     1
 75
     1
176
     1
175
     1
176
     1
 42
1.0
176
     1
 92
        8
176
     1
 66
     7
176
     1
 43
1.0
176
     1
 76
     1
176
     1
 77
     6
176
     1
 78
     2
176
     1
 67
     7
176
     1
 79
     5
176
     1
170
     0
176
     1
171
     0
176
     1
290
     0
176
     1
 93
        1
176
     1
 44
50.0
176
     1
173
     0
176
     1
  0
VISUALSTYLE
  5
3A
102
{ACAD_REACTORS
330
2A
102
}
330
2A
100
AcDbVisualStyle
  2
ColorChange
 70
    16
177
     2
291
     1
 71
     2
176
     1
 72
     2
176
     1
 73
     3
176
     1
 90
        0
176
     1
 40
-0.6
176
     1
 41
-30.0
176
     1
 62
     5
 63
     8
421
  8421504
176
     1
 74
     1
176
     1
 91
        4
176
     1
 64
     7
176
     1
 65
   257
176
     1
 75
     1
176
     1
175
     1
176
     1
 42
1.0
176
     1
 92
        8
176
     1
 66
     8
424
  8421504
176
     1
 43
1.0
176
     1
 76
     1
176
     1
 77
     6
176
     1
 78
     2
176
     1
 67
     7
176
     1
 79
     5
176
     1
170
     0
176
     1
171
     0
176
     1
290
     0
176
     1
 93
        1
176
     1
 44
0.0
176
     1
173
     0
176
     1
  0
VISUALSTYLE
  5
34
102
{ACAD_REACTORS
330
2A
102
}
330
2A
100
AcDbVisualStyle
  2
Conceptual
 70
     9
177
     2
291
     0
 71
     3
176
     1
 72
     2
176
     1
 73
     0
176
     1
 90
        0
176
     1
 40
-0.6
176
     1
 41
-30.0
176
     1
 62
     5
 63
     7
421
 16777215
176
     1
 74
     2
176
     1
 91
        2
176
     1
 64
     7
176
     1
 65
   257
176
     1
 75
     1
176
     1
175
     1
176
     1
 42
40.0
176
     1
 92
        8
176
     1
 66
     7
176
     1
 43
1.0
176
     1
 76
     1
176
     1
 77
     6
176
     1
 78
     2
176
     1
 67
     7
176
     1
 79
     3
176
     1
170
     0
176
     1
171
     0
176
     1
290
     0
176
     1
 93
        1
176
     1
 44
0.0
176
     1
173
     0
176
     1
  0
VISUALSTYLE
  5
35
102
{ACAD_REACTORS
330
2A
102
}
330
2A
100
AcDbVisualStyle
  2
Dim
 70
    11
177
     2
291
     1
 71
     2
176
     1
 72
     2
176
     1
 73
     0
176
     1
 90
        0
176
     1
 40
-0.6
176
     1
 41
-30.0
176
     1
 62
     5
 63
     7
421
 16777215
176
     1
 74
     1
176
     1
 91
        4
176
     1
 64
     7
176
     1
 65
   257
176
     1
 75
     1
176
     1
175
     1
176
     1
 42
1.0
176
     1
 92
        8
176
     1
 66
     7
176
     1
 43
1.0
176
     1
 76
     1
176
     1
 77
     6
176
     1
 78
     2
176
     1
 67
     7
176
     1
 79
     5
176
     1
170
     0
176
     1
171
     0
176
     1
290
     0
176
     1
 93
        1
176
     1
 44
-50.0
176
     1
173
     0
176
     1
  0
VISUALSTYLE
  5
39
102
{ACAD_REACTORS
330
2A
102
}
330
2A
100
AcDbVisualStyle
  2
Facepattern
 70
    15
177
     2
291
     1
 71
     2
176
     1
 72
     2
176
     1
 73
     0
176
     1
 90
        0
176
     1
 40
-0.6
176
     1
 41
-30.0
176
     1
 62
     5
 63
     7
421
 16777215
176
     1
 74
     1
176
     1
 91
        4
176
     1
 64
     7
176
     1
 65
   257
176
     1
 75
     1
176
     1
175
     1
176
     1
 42
1.0
176
     1
 92
        8
176
     1
 66
     7
176
     1
 43
1.0
176
     1
 76
     1
176
     1
 77
     6
176
     1
 78
     2
176
     1
 67
     7
176
     1
 79
     5
176
     1
170
     0
176
     1
171
     0
176
     1
290
     0
176
     1
 93
        1
176
     1
 44
0.0
176
     1
173
     0
176
     1
  0
VISUALSTYLE
  5
2B
102
{ACAD_REACTORS
330
2A
102
}
330
2A
100
AcDbVisualStyle
  2
Flat
 70
     0
177
     2
291
     1
 71
     2
176
     1
 72
     1
176
     1
 73
     1
176
     1
 90
        2
176
     1
 40
-0.6
176
     1
 41
30.0
176
     1
 62
     5
 63
     7
421
 16777215
176
     1
 74
     0
176
     1
 91
        4
176
     1
 64
     7
176
     1
 65
   257
176
     1
 75
     1
176
     1
175
     1
176
     1
 42
1.0
176
     1
 92
        8
176
     1
 66
     7
176
     1
 43
1.0
176
     1
 76
     1
176
     1
 77
     6
176
     1
 78
     2
176
     1
 67
     7
176
     1
 79
     5
176
     1
170
     0
176
     1
171
     0
176
     1
290
     0
176
     1
 93
       13
176
     1
 44
0.0
176
     1
173
     0
176
     1
  0
VISUALSTYLE
  5
2C
102
{ACAD_REACTORS
330
2A
102
}
330
2A
100
AcDbVisualStyle
  2
FlatWithEdges
 70
     1
177
     2
291
     1
 71
     2
176
     1
 72
     1
176
     1
 73
     1
176
     1
 90
        2
176
     1
 40
-0.6
176
     1
 41
30.0
176
     1
 62
     5
 63
     7
421
 16777215
176
     1
 74
     1
176
     1
 91
        4
176
     1
 64
     7
176
     1
 65
   257
176
     1
 75
     1
176
     1
175
     1
176
     1
 42
1.0
176
     1
 92
        0
176
     1
 66
   257
176
     1
 43
1.0
176
     1
 76
     1
176
     1
 77
     6
176
     1
 78
     2
176
     1
 67
     7
176
     1
 79
     5
176
     1
170
     0
176
     1
171
     0
176
     1
290
     0
176
     1
 93
       13
176
     1
 44
0.0
176
     1
173
     0
176
     1
  0
VISUALSTYLE
  5
2D
102
{ACAD_REACTORS
330
2A
102
}
330
2A
100
AcDbVisualStyle
  2
Gouraud
 70
     2
177
     2
291
     1
 71
     2
176
     1
 72
     2
176
     1
 73
     1
176
     1
 90
        2
176
     1
 40
-0.6
176
     1
 41
30.0
176
     1
 62
     5
 63
     7
421
 16777215
176
     1
 74
     0
176
     1
 91
        4
176
     1
 64
     7
176
     1
 65
   257
176
     1
 75
     1
176
     1
175
     1
176
     1
 42
1.0
176
     1
 92
        0
176
     1
 66
     7
176
     1
 43
1.0
176
     1
 76
     1
176
     1
 77
     6
176
     1
 78
     2
176
     1
 67
     7
176
     1
 79
     5
176
     1
170
     0
176
     1
171
     0
176
     1
290
     0
176
     1
 93
       13
176
     1
 44
0.0
176
     1
173
     0
176
     1
  0
VISUALSTYLE
  5
2E
102
{ACAD_REACTORS
330
2A
102
}
330
2A
100
AcDbVisualStyle
  2
GouraudWithEdges
 70
     3
177
     2
291
     1
 71
     2
176
     1
 72
     2
176
     1
 73
     1
176
     1
 90
        2
176
     1
 40
-0.6
176
     1
 41
30.0
176
     1
 62
     5
 63
     7
421
 16777215
176
     1
 74
     1
176
     1
 91
        4
176
     1
 64
     7
176
     1
 65
   257
176
     1
 75
     1
176
     1
175
     1
176
     1
 42
1.0
176
     1
 92
        0
176
     1
 66
   257
176
     1
 43
1.0
176
     1
 76
     1
176
     1
 77
     6
176
     1
 78
     2
176
     1
 67
     7
176
     1
 79
     5
176
     1
170
     0
176
     1
171
     0
176
     1
290
     0
176
     1
 93
       13
176
     1
 44
0.0
176
     1
173
     0
176
     1
  0
VISUALSTYLE
  5
38
102
{ACAD_REACTORS
330
2A
102
}
330
2A
100
AcDbVisualStyle
  2
Linepattern
 70
    14
177
     2
291
     1
 71
     2
176
     1
 72
     2
176
     1
 73
     0
176
     1
 90
        0
176
     1
 40
-0.6
176
     1
 41
-30.0
176
     1
 62
     5
 63
     7
421
 16777215
176
     1
 74
     1
176
     1
 91
        4
176
     1
 64
     7
176
     1
 65
   257
176
     1
 75
     7
176
     1
175
     7
176
     1
 42
1.0
176
     1
 92
        8
176
     1
 66
     7
176
     1
 43
1.0
176
     1
 76
     1
176
     1
 77
     6
176
     1
 78
     2
176
     1
 67
     7
176
     1
 79
     5
176
     1
170
     0
176
     1
171
     0
176
     1
290
     0
176
     1
 93
        1
176
     1
 44
0.0
176
     1
173
     0
176
     1
  0
VISUALSTYLE
  5
33
102
{ACAD_REACTORS
330
2A
102
}
330
2A
100
AcDbVisualStyle
  2
Realistic
 70
     8
177
     2
291
     0
 71
     2
176
     1
 72
     2
176
     1
 73
     0
176
     1
 90
        0
176
     1
 40
-0.6
176
     1
 41
-30.0
176
     1
 62
     5
 63
     7
421
 16777215
176
     1
 74
     1
176
     1
 91
        0
176
     1
 64
     7
176
     1
 65
   257
176
     1
 75
     1
176
     1
175
     1
176
     1
 42
1.0
176
     1
 92
        8
176
     1
 66
     8
424
  7895160
176
     1
 43
1.0
176
     1
 76
     1
176
     1
 77
     6
176
     1
 78
     2
176
     1
 67
     7
176
     1
 79
     5
176
     1
170
     0
176
     1
171
     0
176
     1
290
     0
176
     1
 93
       13
176
     1
 44
0.0
176
     1
173
     0
176
     1
  0
VISUALSTYLE
  5
37
102
{ACAD_REACTORS
330
2A
102
}
330
2A
100
AcDbVisualStyle
  2
Thicken
 70
    13
177
     2
291
     1
 71
     2
176
     1
 72
     2
176
     1
 73
     0
176
     1
 90
        0
176
     1
 40
-0.6
176
     1
 41
-30.0
176
     1
 62
     5
 63
     7
421
 16777215
176
     1
 74
     1
176
     1
 91
        4
176
     1
 64
     7
176
     1
 65
   257
176
     1
 75
     1
176
     1
175
     1
176
     1
 42
1.0
176
     1
 92
       12
176
     1
 66
     7
176
     1
 43
1.0
176
     1
 76
     1
176
     1
 77
     6
176
     1
 78
     2
176
     1
 67
     7
176
     1
 79
     5
176
     1
170
     0
176
     1
171
     0
176
     1
290
     0
176
     1
 93
        1
176
     1
 44
0.0
176
     1
173
     0
176
     1
  0
ENDSEC
  0
EOF
