  0
SECTION
  2
HEADER
  9
$ACADVER
  1
AC1024
  9
$ACADMAINTVER
 70
     6
  9
$DWGCODEPAGE
  3
ANSI_932
  9
$INSBASE
 10
0.0
 20
0.0
 30
0.0
  9
$EXTMIN
 10
-6300.0
 20
-4455.0
 30
0.0
  9
$EXTMAX
 10
6300.0
 20
4455.0
 30
0.0
  9
$LIMMIN
 10
-6300.0
 20
-4455.0
  9
$LIMMAX
 10
6300.0
 20
4455.0
  9
$ORTHOMODE
 70
     0
  9
$REGENMODE
 70
     1
  9
$FILLMODE
 70
     1
  9
$QTEXTMODE
 70
     0
  9
$MIRRTEXT
 70
     1
  9
$LTSCALE
 40
30.0
  9
$ATTMODE
 70
     1
  9
$TEXTSIZE
 40
2.5
  9
$TRACEWID
 40
1.0
  9
$TEXTSTYLE
  7
Standard
  9
$CLAYER
  8
0
  9
$CELTYPE
  6
ByLayer
  9
$CECOLOR
 62
   256
  9
$CELTSCALE
 40
1.0
  9
$DISPSILH
 70
     0
  9
$DIMSCALE
 40
1.0
  9
$DIMASZ
 40
2.5
  9
$DIMEXO
 40
0.625
  9
$DIMDLI
 40
3.75
  9
$DIMRND
 40
0.0
  9
$DIMDLE
 40
0.0
  9
$DIMEXE
 40
1.25
  9
$DIMTP
 40
0.0
  9
$DIMTM
 40
0.0
  9
$DIMTXT
 40
2.5
  9
$DIMCEN
 40
2.5
  9
$DIMTSZ
 40
0.0
  9
$DIMTOL
 70
     0
  9
$DIMLIM
 70
     0
  9
$DIMTIH
 70
     0
  9
$DIMTOH
 70
     0
  9
$DIMSE1
 70
     0
  9
$DIMSE2
 70
     0
  9
$DIMTAD
 70
     1
  9
$DIMZIN
 70
     8
  9
$DIMBLK
  1

  9
$DIMASO
 70
     1
  9
$DIMSHO
 70
     1
  9
$DIMPOST
  1

  9
$DIMAPOST
  1

  9
$DIMALT
 70
     0
  9
$DIMALTD
 70
     3
  9
$DIMALTF
 40
0.03937007874016
  9
$DIMLFAC
 40
1.0
  9
$DIMTOFL
 70
     1
  9
$DIMTVP
 40
0.0
  9
$DIMTIX
 70
     0
  9
$DIMSOXD
 70
     0
  9
$DIMSAH
 70
     0
  9
$DIMBLK1
  1

  9
$DIMBLK2
  1

  9
$DIMSTYLE
  2
ISO-25
  9
$DIMCLRD
 70
     0
  9
$DIMCLRE
 70
     0
  9
$DIMCLRT
 70
     0
  9
$DIMTFAC
 40
1.0
  9
$DIMGAP
 40
0.625
  9
$DIMJUST
 70
     0
  9
$DIMSD1
 70
     0
  9
$DIMSD2
 70
     0
  9
$DIMTOLJ
 70
     0
  9
$DIMTZIN
 70
     8
  9
$DIMALTZ
 70
     0
  9
$DIMALTTZ
 70
     0
  9
$DIMUPT
 70
     0
  9
$DIMDEC
 70
     2
  9
$DIMTDEC
 70
     2
  9
$DIMALTU
 70
     2
  9
$DIMALTTD
 70
     3
  9
$DIMTXSTY
  7
Standard
  9
$DIMAUNIT
 70
     0
  9
$DIMADEC
 70
     0
  9
$DIMALTRND
 40
0.0
  9
$DIMAZIN
 70
     0
  9
$DIMDSEP
 70
    44
  9
$DIMATFIT
 70
     3
  9
$DIMFRAC
 70
     0
  9
$DIMLDRBLK
  1

  9
$DIMLUNIT
 70
     2
  9
$DIMLWD
 70
    -2
  9
$DIMLWE
 70
    -2
  9
$DIMTMOVE
 70
     0
  9
$DIMFXL
 40
1.0
  9
$DIMFXLON
 70
     0
  9
$DIMJOGANG
 40
0.7853981633974483
  9
$DIMTFILL
 70
     0
  9
$DIMTFILLCLR
 70
     0
  9
$DIMARCSYM
 70
     0
  9
$DIMLTYPE
  6

  9
$DIMLTEX1
  6

  9
$DIMLTEX2
  6

  9
$DIMTXTDIRECTION
 70
     0
  9
$LUNITS
 70
     2
  9
$LUPREC
 70
     4
  9
$SKETCHINC
 40
1.0
  9
$FILLETRAD
 40
10.0
  9
$AUNITS
 70
     0
  9
$AUPREC
 70
     0
  9
$MENU
  1
.
  9
$ELEVATION
 40
0.0
  9
$PELEVATION
 40
0.0
  9
$THICKNESS
 40
0.0
  9
$LIMCHECK
 70
     0
  9
$CHAMFERA
 40
10.0
  9
$CHAMFERB
 40
10.0
  9
$CHAMFERC
 40
20.0
  9
$CHAMFERD
 40
0.0
  9
$SKPOLY
 70
     0
  9
$TDCREATE
 40
2460327.686744688
  9
$TDUCREATE
 40
2460327.311744688
  9
$TDUPDATE
 40
2460327.686744699
  9
$TDUUPDATE
 40
2460327.311744699
  9
$TDINDWG
 40
0.0000000116
  9
$TDUSRTIMER
 40
0.0000000116
  9
$USRTIMER
 70
     1
  9
$ANGBASE
 50
0.0
  9
$ANGDIR
 70
     0
  9
$PDMODE
 70
     0
  9
$PDSIZE
 40
0.0
  9
$PLINEWID
 40
0.0
  9
$SPLFRAME
 70
     0
  9
$SPLINETYPE
 70
     6
  9
$SPLINESEGS
 70
     8
  9
$HANDSEED
  5
34E
  9
$SURFTAB1
 70
     6
  9
$SURFTAB2
 70
     6
  9
$SURFTYPE
 70
     6
  9
$SURFU
 70
     6
  9
$SURFV
 70
     6
  9
$UCSBASE
  2

  9
$UCSNAME
  2

  9
$UCSORG
 10
0.0
 20
0.0
 30
0.0
  9
$UCSXDIR
 10
1.0
 20
0.0
 30
0.0
  9
$UCSYDIR
 10
0.0
 20
1.0
 30
0.0
  9
$UCSORTHOREF
  2

  9
$UCSORTHOVIEW
 70
     0
  9
$UCSORGTOP
 10
0.0
 20
0.0
 30
0.0
  9
$UCSORGBOTTOM
 10
0.0
 20
0.0
 30
0.0
  9
$UCSORGLEFT
 10
0.0
 20
0.0
 30
0.0
  9
$UCSORGRIGHT
 10
0.0
 20
0.0
 30
0.0
  9
$UCSORGFRONT
 10
0.0
 20
0.0
 30
0.0
  9
$UCSORGBACK
 10
0.0
 20
0.0
 30
0.0
  9
$PUCSBASE
  2

  9
$PUCSNAME
  2

  9
$PUCSORG
 10
0.0
 20
0.0
 30
0.0
  9
$PUCSXDIR
 10
1.0
 20
0.0
 30
0.0
  9
$PUCSYDIR
 10
0.0
 20
1.0
 30
0.0
  9
$PUCSORTHOREF
  2

  9
$PUCSORTHOVIEW
 70
     0
  9
$PUCSORGTOP
 10
0.0
 20
0.0
 30
0.0
  9
$PUCSORGBOTTOM
 10
0.0
 20
0.0
 30
0.0
  9
$PUCSORGLEFT
 10
0.0
 20
0.0
 30
0.0
  9
$PUCSORGRIGHT
 10
0.0
 20
0.0
 30
0.0
  9
$PUCSORGFRONT
 10
0.0
 20
0.0
 30
0.0
  9
$PUCSORGBACK
 10
0.0
 20
0.0
 30
0.0
  9
$USERI1
 70
     0
  9
$USERI2
 70
     0
  9
$USERI3
 70
     0
  9
$USERI4
 70
     0
  9
$USERI5
 70
     0
  9
$USERR1
 40
0.0
  9
$USERR2
 40
0.0
  9
$USERR3
 40
0.0
  9
$USERR4
 40
0.0
  9
$USERR5
 40
0.0
  9
$WORLDVIEW
 70
     1
  9
$SHADEDGE
 70
     3
  9
$SHADEDIF
 70
    70
  9
$TILEMODE
 70
     1
  9
$MAXACTVP
 70
    64
  9
$PINSBASE
 10
0.0
 20
0.0
 30
0.0
  9
$PLIMCHECK
 70
     0
  9
$PEXTMIN
 10
1.000000000000000E+20
 20
1.000000000000000E+20
 30
1.000000000000000E+20
  9
$PEXTMAX
 10
-1.000000000000000E+20
 20
-1.000000000000000E+20
 30
-1.000000000000000E+20
  9
$PLIMMIN
 10
0.0
 20
0.0
  9
$PLIMMAX
 10
420.0
 20
297.0
  9
$UNITMODE
 70
     0
  9
$VISRETAIN
 70
     1
  9
$PLINEGEN
 70
     0
  9
$PSLTSCALE
 70
     1
  9
$TREEDEPTH
 70
  3020
  9
$CMLSTYLE
  2
Standard
  9
$CMLJUST
 70
     0
  9
$CMLSCALE
 40
20.0
  9
$PROXYGRAPHICS
 70
     1
  9
$MEASUREMENT
 70
     1
  9
$CELWEIGHT
370
    -1
  9
$ENDCAPS
280
     0
  9
$JOINSTYLE
280
     0
  9
$LWDISPLAY
290
     0
  9
$INSUNITS
 70
     4
  9
$HYPERLINKBASE
  1

  9
$STYLESHEET
  1

  9
$XEDIT
290
     1
  9
$CEPSNTYPE
380
     0
  9
$PSTYLEMODE
290
     1
  9
$FINGERPRINTGUID
  2
{E9C26368-F02E-4A25-8AD5-DEC5542E02B7}
  9
$VERSIONGUID
  2
{FAEB1C32-E019-11D5-929B-00C0DF256EC4}
  9
$EXTNAMES
290
     1
  9
$PSVPSCALE
 40
0.0
  9
$OLESTARTUP
290
     0
  9
$SORTENTS
280
   127
  9
$INDEXCTL
280
     0
  9
$HIDETEXT
280
     1
  9
$XCLIPFRAME
280
     2
  9
$HALOGAP
280
     0
  9
$OBSCOLOR
 70
   257
  9
$OBSLTYPE
280
     0
  9
$INTERSECTIONDISPLAY
280
     0
  9
$INTERSECTIONCOLOR
 70
   257
  9
$DIMASSOC
280
     2
  9
$PROJECTNAME
  1

  9
$CAMERADISPLAY
290
     0
  9
$LENSLENGTH
 40
50.0
  9
$CAMERAHEIGHT
 40
0.0
  9
$STEPSPERSEC
 40
2.0
  9
$STEPSIZE
 40
6.0
  9
$3DDWFPREC
 40
2.0
  9
$PSOLWIDTH
 40
5.0
  9
$PSOLHEIGHT
 40
80.0
  9
$LOFTANG1
 40
1.570796326794897
  9
$LOFTANG2
 40
1.570796326794897
  9
$LOFTMAG1
 40
0.0
  9
$LOFTMAG2
 40
0.0
  9
$LOFTPARAM
 70
     7
  9
$LOFTNORMALS
280
     1
  9
$LATITUDE
 40
37.795
  9
$LONGITUDE
 40
-122.394
  9
$NORTHDIRECTION
 40
0.0
  9
$TIMEZONE
 70
 -8000
  9
$LIGHTGLYPHDISPLAY
280
     1
  9
$TILEMODELIGHTSYNCH
280
     1
  9
$SOLIDHIST
280
     1
  9
$SHOWHIST
280
     1
  9
$DWFFRAME
280
     2
  9
$DGNFRAME
280
     2
  9
$REALWORLDSCALE
290
     1
  9
$INTERFERECOLOR
 62
   256
  9
$CSHADOW
280
     0
  9
$SHADOWPLANELOCATION
 40
0.0
  0
ENDSEC
  0
SECTION
  2
CLASSES
  0
CLASS
  1
ACDBDICTIONARYWDFLT
  2
AcDbDictionaryWithDefault
  3
ObjectDBX Classes
 90
        0
 91
        4
280
     0
281
     0
  0
CLASS
  1
VISUALSTYLE
  2
AcDbVisualStyle
  3
ObjectDBX Classes
 90
     4095
 91
        4
280
     0
281
     0
  0
CLASS
  1
MATERIAL
  2
AcDbMaterial
  3
ObjectDBX Classes
 90
     1153
 91
        4
280
     0
281
     0
  0
ENDSEC
  0
SECTION
  2
TABLES
  0
TABLE
  2
VPORT
  5
8
330
0
100
AcDbSymbolTable
 70
     1
  0
VPORT
  5
29
330
8
100
AcDbSymbolTableRecord
100
AcDbViewportTableRecord
  2
*Active
 70
     0
 10
0.0
 20
0.0
 11
1.0
 21
1.0
 12
0.0
 22
0.0
 13
0.0
 23
0.0
 14
10.0
 24
10.0
 15
10.0
 25
10.0
 16
0.0
 26
0.0
 36
1.0
 17
0.0
 27
0.0
 37
0.0
 40
9801.0
 41
1.414141414141414
 42
50.0
 43
0.0
 44
0.0
 50
0.0
 51
0.0
 71
     0
 72
 10000
 73
     1
 74
     3
 75
     0
 76
     0
 77
     0
 78
     0
281
     0
 65
     1
110
0.0
120
0.0
130
0.0
111
1.0
121
0.0
131
0.0
112
0.0
122
1.0
132
0.0
 79
     0
146
0.0
 60
     3
 61
     5
292
     1
282
     1
141
0.0
142
0.0
 63
   250
  0
ENDTAB
  0
TABLE
  2
LTYPE
  5
5
330
0
100
AcDbSymbolTable
 70
     5
  0
LTYPE
  5
14
330
5
100
AcDbSymbolTableRecord
100
AcDbLinetypeTableRecord
  2
ByBlock
 70
     0
  3

 72
    65
 73
     0
 40
0.0
  0
LTYPE
  5
15
330
5
100
AcDbSymbolTableRecord
100
AcDbLinetypeTableRecord
  2
ByLayer
 70
     0
  3

 72
    65
 73
     0
 40
0.0
  0
LTYPE
  5
16
330
5
100
AcDbSymbolTableRecord
100
AcDbLinetypeTableRecord
  2
Continuous
 70
     0
  3
Solid line
 72
    65
 73
     0
 40
0.0
  0
LTYPE
  5
3F
330
5
100
AcDbSymbolTableRecord
100
AcDbLinetypeTableRecord
  2
JWW_HOJO
 70
     0
  3
  -   -   -   -   -   -   -   - 
 72
    65
 73
     2
 40
1.693333333333333
 49
-1.27
 74
     0
 49
0.4233333333333333
 74
     0
  0
LTYPE
  5
40
330
5
100
AcDbSymbolTableRecord
100
AcDbLinetypeTableRecord
  2
JWW_DASHED2
 70
     0
  3
--    ----    ----    ----    --
 72
    65
 73
     2
 40
3.386666666666667
 49
1.693333333333333
 74
     0
 49
-1.693333333333333
 74
     0
  0
LTYPE
  5
41
330
5
100
AcDbSymbolTableRecord
100
AcDbLinetypeTableRecord
  2
JWW_CENTER1
 70
     0
  3
-----  --  ----------  --  -----
 72
    65
 73
     4
 40
6.773333333333333
 49
4.233333333333333
 74
     0
 49
-0.8466666666666667
 74
     0
 49
0.8466666666666667
 74
     0
 49
-0.8466666666666667
 74
     0
  0
LTYPE
  5
42
330
5
100
AcDbSymbolTableRecord
100
AcDbLinetypeTableRecord
  2
JWW_DASHED1
 70
     0
  3
-  --  --  --  --  --  --  --  -
 72
    65
 73
     2
 40
1.693333333333333
 49
0.8466666666666667
 74
     0
 49
-0.8466666666666667
 74
     0
  0
ENDTAB
  0
TABLE
  2
LAYER
  5
2
330
0
100
AcDbSymbolTable
 70
    15
  0
LAYER
  5
10
330
2
100
AcDbSymbolTableRecord
100
AcDbLayerTableRecord
  2
0
 70
     0
 62
     7
  6
Continuous
370
    -3
390
F
347
3E
  0
LAYER
  5
43
330
2
100
AcDbSymbolTableRecord
100
AcDbLayerTableRecord
  2
F-0_補助線
 70
     0
 62
     7
  6
Continuous
370
    -3
390
F
347
3E
  0
LAYER
  5
44
330
2
100
AcDbSymbolTableRecord
100
AcDbLayerTableRecord
  2
F-1_枠
 70
     0
 62
     7
  6
Continuous
370
    -3
390
F
347
3E
  0
LAYER
  5
45
330
2
100
AcDbSymbolTableRecord
100
AcDbLayerTableRecord
  2
F-A_文字
 70
     0
 62
     7
  6
Continuous
370
    -3
390
F
347
3E
  0
LAYER
  5
46
330
2
100
AcDbSymbolTableRecord
100
AcDbLayerTableRecord
  2
0-B_寸法
 70
     0
 62
     7
  6
Continuous
370
    -3
390
F
347
3E
  0
LAYER
  5
47
330
2
100
AcDbSymbolTableRecord
100
AcDbLayerTableRecord
  2
0-A_文字
 70
     0
 62
     7
  6
Continuous
370
    -3
390
F
347
3E
  0
LAYER
  5
48
330
2
100
AcDbSymbolTableRecord
100
AcDbLayerTableRecord
  2
0-0_補助線
 70
     0
 62
     7
  6
Continuous
370
    -3
390
F
347
3E
  0
LAYER
  5
49
330
2
100
AcDbSymbolTableRecord
100
AcDbLayerTableRecord
  2
0-1_通り芯
 70
     0
 62
     7
  6
Continuous
370
    -3
390
F
347
3E
  0
LAYER
  5
4A
330
2
100
AcDbSymbolTableRecord
100
AcDbLayerTableRecord
  2
0-C_ハッチ
 70
     0
 62
     7
  6
Continuous
370
    -3
390
F
347
3E
  0
LAYER
  5
4B
330
2
100
AcDbSymbolTableRecord
100
AcDbLayerTableRecord
  2
0-4_枠
 70
     0
 62
     7
  6
Continuous
370
    -3
390
F
347
3E
  0
LAYER
  5
4C
330
2
100
AcDbSymbolTableRecord
100
AcDbLayerTableRecord
  2
0-7_金物
 70
     0
 62
     7
  6
Continuous
370
    -3
390
F
347
3E
  0
LAYER
  5
4D
330
2
100
AcDbSymbolTableRecord
100
AcDbLayerTableRecord
  2
0-6_扉
 70
     0
 62
     7
  6
Continuous
370
    -3
390
F
347
3E
  0
LAYER
  5
4E
330
2
100
AcDbSymbolTableRecord
100
AcDbLayerTableRecord
  2
0-3_仕上げ
 70
     0
 62
     7
  6
Continuous
370
    -3
390
F
347
3E
  0
LAYER
  5
4F
330
2
100
AcDbSymbolTableRecord
100
AcDbLayerTableRecord
  2
0-E
 70
     0
 62
     7
  6
Continuous
370
    -3
390
F
347
3E
  0
LAYER
  5
50
330
2
100
AcDbSymbolTableRecord
100
AcDbLayerTableRecord
  2
1-E
 70
     0
 62
     7
  6
Continuous
370
    -3
390
F
347
3E
  0
ENDTAB
  0
TABLE
  2
STYLE
  5
3
330
0
100
AcDbSymbolTable
 70
     1
  0
STYLE
  5
11
330
3
100
AcDbSymbolTableRecord
100
AcDbTextStyleTableRecord
  2
Standard
 70
     0
 40
0.0
 41
1.0
 50
0.0
 71
     0
 42
2.5
  3
txt
  4

  0
ENDTAB
  0
TABLE
  2
VIEW
  5
6
330
0
100
AcDbSymbolTable
 70
     0
  0
ENDTAB
  0
TABLE
  2
UCS
  5
7
330
0
100
AcDbSymbolTable
 70
     0
  0
ENDTAB
  0
TABLE
  2
APPID
  5
9
330
0
100
AcDbSymbolTable
 70
     1
  0
APPID
  5
12
330
9
100
AcDbSymbolTableRecord
100
AcDbRegAppTableRecord
  2
ACAD
 70
     0
  0
ENDTAB
  0
TABLE
  2
DIMSTYLE
  5
A
330
0
100
AcDbSymbolTable
 70
     1
100
AcDbDimStyleTable
  0
DIMSTYLE
105
27
330
A
100
AcDbSymbolTableRecord
100
AcDbDimStyleTableRecord
  2
ISO-25
 70
     0
 41
2.5
 42
0.625
 43
3.75
 44
1.25
 73
     0
 74
     0
 77
     1
 78
     8
140
2.5
141
2.5
143
0.03937007874016
147
0.625
171
     3
172
     1
178
     0
271
     2
272
     2
274
     3
278
    44
283
     0
284
     8
340
11
  0
ENDTAB
  0
TABLE
  2
BLOCK_RECORD
  5
1
330
0
100
AcDbSymbolTable
 70
     1
  0
BLOCK_RECORD
  5
1F
330
1
100
AcDbSymbolTableRecord
100
AcDbBlockTableRecord
  2
*Model_Space
340
22
 70
     0
280
     1
281
     0
  0
BLOCK_RECORD
  5
1B
330
1
100
AcDbSymbolTableRecord
100
AcDbBlockTableRecord
  2
*Paper_Space
340
1E
 70
     0
280
     1
281
     0
  0
BLOCK_RECORD
  5
23
330
1
100
AcDbSymbolTableRecord
100
AcDbBlockTableRecord
  2
*Paper_Space0
340
26
 70
     0
280
     1
281
     0
  0
ENDTAB
  0
ENDSEC
  0
SECTION
  2
BLOCKS
  0
BLOCK
  5
20
330
1F
100
AcDbEntity
  8
0
100
AcDbBlockBegin
  2
*Model_Space
 70
     0
 10
0.0
 20
0.0
 30
0.0
  3
*Model_Space
  1

  0
ENDBLK
  5
21
330
1F
100
AcDbEntity
  8
0
100
AcDbBlockEnd
  0
BLOCK
  5
1C
330
1B
100
AcDbEntity
 67
     1
  8
0
100
AcDbBlockBegin
  2
*Paper_Space
 70
     0
 10
0.0
 20
0.0
 30
0.0
  3
*Paper_Space
  1

  0
ENDBLK
  5
1D
330
1B
100
AcDbEntity
 67
     1
  8
0
100
AcDbBlockEnd
  0
BLOCK
  5
24
330
23
100
AcDbEntity
  8
0
100
AcDbBlockBegin
  2
*Paper_Space0
 70
     0
 10
0.0
 20
0.0
 30
0.0
  3
*Paper_Space0
  1

  0
ENDBLK
  5
25
330
23
100
AcDbEntity
  8
0
100
AcDbBlockEnd
  0
ENDSEC
  0
SECTION
  2
ENTITIES
  0
LINE
  5
51
330
1F
100
AcDbEntity
  8
F-0_補助線
  6
JWW_HOJO
 62
   120
370
     5
100
AcDbLine
 10
-6140.081333436769
 20
-4455.0
 30
0.0
 11
-6140.081333436769
 21
4424.999604096284
 31
0.0
  0
LINE
  5
52
330
1F
100
AcDbEntity
  8
F-0_補助線
  6
JWW_HOJO
 62
   120
370
     5
100
AcDbLine
 10
-6140.081333436769
 20
4424.999604096284
 30
0.0
 11
6159.917676803936
 21
4424.999604096284
 31
0.0
  0
LINE
  5
53
330
1F
100
AcDbEntity
  8
F-0_補助線
  6
JWW_HOJO
 62
   120
370
     5
100
AcDbLine
 10
6159.917676803936
 20
4424.999604096284
 30
0.0
 11
6159.917676803936
 21
-4455.0
 31
0.0
  0
LINE
  5
54
330
1F
100
AcDbEntity
  8
F-0_補助線
  6
JWW_HOJO
 62
   120
370
     5
100
AcDbLine
 10
6159.917676803936
 20
-4455.0
 30
0.0
 11
-6140.081333436769
 21
-4455.0
 31
0.0
  0
LINE
  5
55
330
1F
100
AcDbEntity
  8
F-0_補助線
  6
JWW_HOJO
 62
     7
370
     9
100
AcDbLine
 10
1009.918254163524
 20
-3795.000003092998
 30
0.0
 11
1009.918254163524
 21
-4195.000008247994
 31
0.0
  0
LINE
  5
56
330
1F
100
AcDbEntity
  8
F-0_補助線
  6
JWW_HOJO
 62
     7
370
     9
100
AcDbLine
 10
509.9185840832865
 20
-3795.000003092998
 30
0.0
 11
509.9185840832865
 21
-4195.000008247994
 31
0.0
  0
LINE
  5
57
330
1F
100
AcDbEntity
  8
F-1_枠
  6
Continuous
 62
   200
370
    20
100
AcDbLine
 10
5859.917429364118
 20
4174.999769056166
 30
0.0
 11
5859.917429364118
 21
-4205.000164959882
 31
0.0
  0
LINE
  5
58
330
1F
100
AcDbEntity
  8
F-1_枠
  6
Continuous
 62
   200
370
    20
100
AcDbLine
 10
-5840.081317971782
 20
4174.999769056166
 30
0.0
 11
-5840.081317971782
 21
-4205.000164959882
 31
0.0
  0
LINE
  5
59
330
1F
100
AcDbEntity
  8
F-1_枠
  6
Continuous
 62
   200
370
    20
100
AcDbLine
 10
5859.917429364118
 20
-4205.000002577498
 30
0.0
 11
-5840.081085996952
 21
-4205.000002577498
 31
0.0
  0
LINE
  5
5A
330
1F
100
AcDbEntity
  8
F-1_枠
  6
Continuous
 62
   200
370
    20
100
AcDbLine
 10
-5830.081323642278
 20
4174.999769056166
 30
0.0
 11
-5830.081323642278
 21
-4205.000164959882
 31
0.0
  0
LINE
  5
5B
330
1F
100
AcDbEntity
  8
F-1_枠
  6
Continuous
 62
   200
370
    20
100
AcDbLine
 10
-5835.081309208292
 20
4174.999769056166
 30
0.0
 11
-5835.081309208292
 21
-4205.000164959882
 31
0.0
  0
LINE
  5
5C
330
1F
100
AcDbEntity
  8
F-1_枠
  6
Continuous
 62
   200
370
    20
100
AcDbLine
 10
5854.917165428305
 20
4174.999769056166
 30
0.0
 11
5854.917165428305
 21
-4205.000164959882
 31
0.0
  0
LINE
  5
5D
330
1F
100
AcDbEntity
  8
F-1_枠
  6
Continuous
 62
   200
370
    20
100
AcDbLine
 10
5849.917643811961
 20
4174.999769056166
 30
0.0
 11
5849.917643811961
 21
-4205.000164959882
 31
0.0
  0
LINE
  5
5E
330
1F
100
AcDbEntity
  8
F-1_枠
  6
Continuous
 62
   200
370
    20
100
AcDbLine
 10
5859.917429364118
 20
-4199.999993814004
 30
0.0
 11
-5840.081085996952
 21
-4199.999993814004
 31
0.0
  0
LINE
  5
5F
330
1F
100
AcDbEntity
  8
F-1_枠
  6
Continuous
 62
   200
370
    20
100
AcDbLine
 10
5859.917429364118
 20
-4195.000008247994
 30
0.0
 11
-5840.081085996952
 21
-4195.000008247994
 31
0.0
  0
LINE
  5
60
330
1F
100
AcDbEntity
  8
F-1_枠
  6
Continuous
 62
   200
370
    20
100
AcDbLine
 10
4349.91789125178
 20
-3795.000003092998
 30
0.0
 11
4349.91789125178
 21
-4195.000008247994
 31
0.0
  0
LINE
  5
61
330
1F
100
AcDbEntity
  8
F-1_枠
  6
Continuous
 62
   200
370
    20
100
AcDbLine
 10
2849.917396372143
 20
-3795.000003092998
 30
0.0
 11
2849.917396372143
 21
-4195.000008247994
 31
0.0
  0
LINE
  5
62
330
1F
100
AcDbEntity
  8
F-1_枠
  6
Continuous
 62
   200
370
    20
100
AcDbLine
 10
9.918542843317937
 20
-3795.000003092998
 30
0.0
 11
9.918542843317937
 21
-4195.000008247994
 31
0.0
  0
LINE
  5
63
330
1F
100
AcDbEntity
  8
F-1_枠
  6
Continuous
 62
   200
370
    20
100
AcDbLine
 10
9.918542843317937
 20
-3994.999936078046
 30
0.0
 11
5849.917643811961
 21
-3995.005364289155
 31
0.0
  0
LINE
  5
64
330
1F
100
AcDbEntity
  8
F-1_枠
  6
Continuous
 62
   200
370
    20
100
AcDbLine
 10
-5840.081085996952
 20
4174.999769056166
 30
0.0
 11
5859.917429364118
 21
4174.999769056166
 31
0.0
  0
LINE
  5
65
330
1F
100
AcDbEntity
  8
F-1_枠
  6
Continuous
 62
   200
370
    20
100
AcDbLine
 10
-5840.081085996952
 20
4164.999983504013
 30
0.0
 11
5859.917429364118
 21
4164.999983504013
 31
0.0
  0
LINE
  5
66
330
1F
100
AcDbEntity
  8
F-1_枠
  6
Continuous
 62
   200
370
    20
100
AcDbLine
 10
-5840.081085996952
 20
4169.999505120355
 30
0.0
 11
5859.917429364118
 21
4169.999505120355
 31
0.0
  0
LINE
  5
67
330
1F
100
AcDbEntity
  8
F-0_補助線
  6
JWW_HOJO
 62
     7
370
     9
100
AcDbLine
 10
-5830.081323642278
 20
-3994.99993607839
 30
0.0
 11
9.918542843317937
 21
-3994.99993607839
 31
0.0
  0
LINE
  5
68
330
1F
100
AcDbEntity
  8
F-0_補助線
  6
JWW_HOJO
 62
     7
370
     9
100
AcDbLine
 10
-5830.081323642278
 20
-3904.99993607839
 30
0.0
 11
9.918542843317937
 21
-3904.99993607839
 31
0.0
  0
LINE
  5
69
330
1F
100
AcDbEntity
  8
F-0_補助線
  6
JWW_HOJO
 62
     7
370
     9
100
AcDbLine
 10
-5830.081323642278
 20
-4084.99993607839
 30
0.0
 11
9.918542843317937
 21
-4084.99993607839
 31
0.0
  0
LINE
  5
6A
330
1F
100
AcDbEntity
  8
F-0_補助線
  6
JWW_HOJO
 62
     7
370
     9
100
AcDbLine
 10
9.918408067690052
 20
-4139.999739777983
 30
0.0
 11
5849.917509036333
 21
-4140.005167989091
 31
0.0
  0
LINE
  5
6B
330
1F
100
AcDbEntity
  8
F-0_補助線
  6
JWW_HOJO
 62
     7
370
     9
100
AcDbLine
 10
9.918491721641658
 20
-4049.999739778022
 30
0.0
 11
5849.917592690285
 21
-4050.005167989131
 31
0.0
  0
LINE
  5
6C
330
1F
100
AcDbEntity
  8
F-0_補助線
  6
JWW_HOJO
 62
     7
370
     9
100
AcDbLine
 10
9.918593965362561
 20
-3939.99973721807
 30
0.0
 11
5849.917694934006
 21
-3940.005165429179
 31
0.0
  0
LINE
  5
6D
330
1F
100
AcDbEntity
  8
F-0_補助線
  6
JWW_HOJO
 62
     7
370
     9
100
AcDbLine
 10
9.918677619307346
 20
-3849.999737218109
 30
0.0
 11
5849.917778587951
 21
-3850.005165429218
 31
0.0
  0
LINE
  5
6E
330
1F
100
AcDbEntity
  8
F-0_補助線
  6
JWW_HOJO
 62
     7
370
     9
100
AcDbLine
 10
2939.917396372143
 20
-3795.000003092998
 30
0.0
 11
2939.917396372143
 21
-4195.000008247994
 31
0.0
  0
LINE
  5
6F
330
1F
100
AcDbEntity
  8
F-0_補助線
  6
JWW_HOJO
 62
     7
370
     9
100
AcDbLine
 10
99.91854284331794
 20
-3795.000003092998
 30
0.0
 11
99.91854284331794
 21
-4195.000008247994
 31
0.0
  0
LINE
  5
70
330
1F
100
AcDbEntity
  8
F-0_補助線
  6
JWW_HOJO
 62
     7
370
     9
100
AcDbLine
 10
4439.91789125178
 20
-3795.000003092998
 30
0.0
 11
4439.91789125178
 21
-4195.000008247994
 31
0.0
  0
LINE
  5
71
330
1F
100
AcDbEntity
  8
F-1_枠
  6
Continuous
 62
   200
370
    20
100
AcDbLine
 10
5859.917429364118
 20
-3795.000003092998
 30
0.0
 11
-5840.081085996952
 21
-3795.000003092998
 31
0.0
  0
LINE
  5
72
330
1F
100
AcDbEntity
  8
F-1_枠
  6
Continuous
 62
   200
370
    20
100
AcDbLine
 10
5859.917429364118
 20
-3790.000017526987
 30
0.0
 11
-5840.081085996952
 21
-3790.000017526987
 31
0.0
  0
LINE
  5
73
330
1F
100
AcDbEntity
  8
F-0_補助線
  6
JWW_HOJO
 62
     7
370
     9
100
AcDbLine
 10
-5087.628710189612
 20
-3795.000003092999
 30
0.0
 11
-5087.628710189612
 21
-4205.000164959882
 31
0.0
  0
LINE
  5
74
330
1F
100
AcDbEntity
  8
F-0_補助線
  6
JWW_HOJO
 62
     7
370
     9
100
AcDbLine
 10
-50.08145715668206
 20
-3795.000003092998
 30
0.0
 11
-50.08145715668206
 21
-4195.000008247994
 31
0.0
  0
MTEXT
  5
75
330
1F
100
AcDbEntity
  8
F-0_補助線
  6
Continuous
 62
     7
370
     0
100
AcDbMText
 10
509.9185840832865
 20
-3946.496666872503
 30
0.0
 40
78.58125
 41
412.5
 46
0.0
 71
     7
 72
     1
  1
{\fＭＳ ゴシック|b0|i0|c128|p49;DOORETUS}
 73
     1
 44
1.0
  0
MTEXT
  5
76
330
1F
100
AcDbEntity
  8
F-0_補助線
  6
Continuous
 62
     7
370
     0
100
AcDbMText
 10
1110.209427605312
 20
-3946.734791872504
 30
0.0
 40
78.105
 41
615.0
 46
0.0
 71
     7
 72
     1
  1
{\fＭＳ ゴシック|b0|i0|c128|p49;建具納まり図}
 73
     1
 44
1.0
  0
MTEXT
  5
77
330
1F
100
AcDbEntity
  8
F-A_文字
  6
Continuous
 62
     7
370
     0
100
AcDbMText
 10
99.91854284331794
 20
-3887.139820871936
 30
0.0
 40
45.72
 41
180.0
 46
0.0
 71
     7
 72
     1
  1
{\fＭＳ ゴシック|b0|i0|c128|p49;図面名}
 73
     1
 44
1.0
  0
MTEXT
  5
78
330
1F
100
AcDbEntity
  8
F-A_文字
  6
Continuous
 62
     7
370
     0
100
AcDbMText
 10
2939.917396372143
 20
-3887.142460617774
 30
0.0
 40
45.72
 41
300.0
 46
0.0
 71
     7
 72
     1
  1
{\fＭＳ ゴシック|b0|i0|c128|p49;ＳＣＡＬＥ}
 73
     1
 44
1.0
  0
MTEXT
  5
79
330
1F
100
AcDbEntity
  8
F-A_文字
  6
Continuous
 62
     7
370
     0
100
AcDbMText
 10
4439.91789125178
 20
-3887.143854850754
 30
0.0
 40
45.72
 41
240.0
 46
0.0
 71
     7
 72
     1
  1
{\fＭＳ ゴシック|b0|i0|c128|p49;ＤＡＴＥ}
 73
     1
 44
1.0
  0
MTEXT
  5
7A
330
1F
100
AcDbEntity
  8
F-A_文字
  6
Continuous
 62
     7
370
     0
100
AcDbMText
 10
2939.917396372143
 20
-4087.14246317786
 30
0.0
 40
45.72
 41
240.0
 46
0.0
 71
     7
 72
     1
  1
{\fＭＳ ゴシック|b0|i0|c128|p49;ＦＩＬＥ}
 73
     1
 44
1.0
  0
MTEXT
  5
7B
330
1F
100
AcDbEntity
  8
F-A_文字
  6
Continuous
 62
     7
370
     0
100
AcDbMText
 10
4439.91789125178
 20
-4087.143857410839
 30
0.0
 40
45.72
 41
180.0
 46
0.0
 71
     7
 72
     1
  1
{\fＭＳ ゴシック|b0|i0|c128|p49;ＮＯ．}
 73
     1
 44
1.0
  0
MTEXT
  5
7C
330
1F
100
AcDbEntity
  8
F-A_文字
  6
Continuous
 62
     7
370
     0
100
AcDbMText
 10
1394.917396372136
 20
-4096.140669266149
 30
0.0
 40
45.72
 41
120.0
 46
0.0
 71
     7
 72
     1
  1
{\fＭＳ ゴシック|b0|i0|c128|p49;株式}
 73
     1
 44
1.0
  0
MTEXT
  5
7D
330
1F
100
AcDbEntity
  8
F-A_文字
  6
Continuous
 62
     7
370
     9
100
AcDbMText
 10
5096.16770014406
 20
-4147.857012699985
 30
0.0
 40
74.295
 41
97.5
 46
0.0
 71
     7
 72
     1
  1
{\fＭＳ ゴシック|b0|i0|c128|p49;01}
 73
     1
 44
1.0
  0
MTEXT
  5
7E
330
1F
100
AcDbEntity
  8
F-A_文字
  6
Continuous
 62
     7
370
     0
100
AcDbMText
 10
1604.917396372136
 20
-4164.281754523929
 30
0.0
 40
101.44125
 41
1065.0
 46
0.0
 71
     7
 72
     1
  1
{\fＭＳ ゴシック|b0|i0|c128|p49;ウッドワン・・・}
 73
     1
 44
1.0
  0
MTEXT
  5
7F
330
1F
100
AcDbEntity
  8
F-A_文字
  6
Continuous
 62
     7
370
     0
100
AcDbMText
 10
1394.917396372136
 20
-4168.140669266187
 30
0.0
 40
45.72
 41
120.0
 46
0.0
 71
     7
 72
     1
  1
{\fＭＳ ゴシック|b0|i0|c128|p49;会社}
 73
     1
 44
1.0
  0
MTEXT
  5
80
330
1F
100
AcDbEntity
  8
0-B_寸法
  6
Continuous
 62
     7
370
     9
100
AcDbMText
 10
4278.667643811961
 20
3554.775383504359
 30
0.0
 40
63.55080000000001
 41
1042.5
 46
0.0
 71
     7
 72
     1
  1
{\fＭＳ ゴシック|b0|i0|c128|p49;上吊軸固定/フリーオープン}
 73
     1
 44
1.0
  0
LINE
  5
81
330
1F
100
AcDbEntity
  8
0-A_文字
  6
Continuous
 62
    92
370
    13
100
AcDbLine
 10
-5659.999495325865
 20
3730.000181456216
 30
0.0
 11
-5659.999495325865
 21
4000.000181456216
 31
0.0
  0
LINE
  5
82
330
1F
100
AcDbEntity
  8
0-B_寸法
  6
Continuous
 62
    40
370
    15
100
AcDbLine
 10
5159.917643811961
 20
3385.504011183094
 30
0.0
 11
5066.742787575054
 21
3037.770713719029
 31
0.0
  0
LINE
  5
83
330
1F
100
AcDbEntity
  8
0-B_寸法
  6
Continuous
 62
    40
370
    15
100
AcDbLine
 10
4973.567931338146
 20
3385.504011183094
 30
0.0
 11
5066.742787575054
 21
3037.770713719029
 31
0.0
  0
LINE
  5
84
330
1F
100
AcDbEntity
  8
0-B_寸法
  6
JWW_DASHED2
 62
     7
370
     9
100
AcDbLine
 10
5159.917643811961
 20
3385.504011183094
 30
0.0
 11
4439.917643811961
 21
3385.504011183094
 31
0.0
  0
LINE
  5
85
330
1F
100
AcDbEntity
  8
0-B_寸法
  6
Continuous
 62
    40
370
    15
100
AcDbLine
 10
5159.917643811961
 20
3439.504011183092
 30
0.0
 11
5159.917643811961
 21
3385.504011183094
 31
0.0
  0
LINE
  5
86
330
1F
100
AcDbEntity
  8
0-B_寸法
  6
Continuous
 62
    40
370
    15
100
AcDbLine
 10
5159.917643811961
 20
3439.504011183092
 30
0.0
 11
5339.917643811961
 21
3439.504011183092
 31
0.0
  0
LINE
  5
87
330
1F
100
AcDbEntity
  8
0-B_寸法
  6
Continuous
 62
    40
370
    15
100
AcDbLine
 10
5159.917643811961
 20
3385.504011183094
 30
0.0
 11
5339.917643811961
 21
3385.504011183094
 31
0.0
  0
LINE
  5
88
330
1F
100
AcDbEntity
  8
0-B_寸法
  6
Continuous
 62
    40
370
    15
100
AcDbLine
 10
4439.917643811961
 20
3439.504011183092
 30
0.0
 11
4439.917643811961
 21
3385.504011183094
 31
0.0
  0
LINE
  5
89
330
1F
100
AcDbEntity
  8
0-B_寸法
  6
Continuous
 62
    40
370
    15
100
AcDbLine
 10
4439.917643811961
 20
3439.504011183092
 30
0.0
 11
4259.917643811961
 21
3439.504011183092
 31
0.0
  0
LINE
  5
8A
330
1F
100
AcDbEntity
  8
0-B_寸法
  6
Continuous
 62
    40
370
    15
100
AcDbLine
 10
4439.917643811961
 20
3385.504011183094
 30
0.0
 11
4259.917643811961
 21
3385.504011183094
 31
0.0
  0
ELLIPSE
  5
8B
330
1F
100
AcDbEntity
  8
0-B_寸法
  6
Continuous
 62
    92
370
    13
100
AcDbEllipse
 10
4855.430917458078
 20
2876.053590301857
 30
0.0
 11
11.36181697857171
 21
42.40287823032828
 31
0.0
210
0.0
220
0.0
230
0.9999999999999999
 40
0.6
 41
1.570796326794897
 42
4.71238898038469
  0
LINE
  5
8C
330
1F
100
AcDbEntity
  8
0-B_寸法
  6
Continuous
 62
    92
370
    13
100
AcDbLine
 10
4880.872644396272
 20
2869.236500114713
 30
0.0
 11
4829.989190519882
 21
2882.870680488999
 31
0.0
  0
LINE
  5
8D
330
1F
100
AcDbEntity
  8
0-B_寸法
  6
Continuous
 62
    92
370
    13
100
AcDbLine
 10
4884.13376436456
 20
2881.407165525956
 30
0.0
 11
4833.25031048817
 21
2895.041345900241
 31
0.0
  0
ELLIPSE
  5
8E
330
1F
100
AcDbEntity
  8
0-B_寸法
  6
Continuous
 62
    92
370
    13
100
AcDbEllipse
 10
4879.604310755758
 20
2966.26992228014
 30
0.0
 11
21.86569797210526
 21
81.6038957748525
 31
0.0
210
0.0
220
0.0
230
1.0
 40
0.5
 41
4.340591432030095
 42
8.225779182329084
  0
ELLIPSE
  5
8F
330
1F
100
AcDbEntity
  8
0-B_寸法
  6
Continuous
 62
    92
370
    13
100
AcDbEllipse
 10
4878.978687882654
 20
2963.935065931349
 30
0.0
 11
26.49533313827761
 21
98.88192943551533
 31
0.0
210
0.0
220
0.0
230
0.9999999999999999
 40
0.4
 41
3.840308517104466
 42
4.432552034522944
  0
ELLIPSE
  5
90
330
1F
100
AcDbEntity
  8
0-B_寸法
  6
Continuous
 62
    92
370
    13
100
AcDbEllipse
 10
4878.978687882654
 20
2963.935065931349
 30
0.0
 11
26.49533313827761
 21
98.88192943551533
 31
0.0
210
0.0
220
0.0
230
0.9999999999999999
 40
0.4
 41
1.850633272656679
 42
2.442876790075129
  0
ELLIPSE
  5
91
330
1F
100
AcDbEntity
  8
0-B_寸法
  6
Continuous
 62
    92
370
    13
100
AcDbEllipse
 10
4740.316707711377
 20
2838.284846937555
 30
0.0
 11
-7.622927487939132
 21
43.23177007461331
 31
0.0
210
0.0
220
0.0
230
1.0
 40
0.6000000000000001
 41
1.570796326794897
 42
4.71238898038469
  0
LINE
  5
92
330
1F
100
AcDbEntity
  8
0-B_寸法
  6
Continuous
 62
    92
370
    13
100
AcDbLine
 10
4766.255769756144
 20
2842.858603430318
 30
0.0
 11
4714.377645666609
 21
2833.711090444791
 31
0.0
  0
LINE
  5
93
330
1F
100
AcDbEntity
  8
0-B_寸法
  6
Continuous
 62
    92
370
    13
100
AcDbLine
 10
4764.067802717541
 20
2855.267181118273
 30
0.0
 11
4712.189678628006
 21
2846.119668132745
 31
0.0
  0
ELLIPSE
  5
94
330
1F
100
AcDbEntity
  8
0-B_寸法
  6
Continuous
 62
    92
370
    13
100
AcDbEllipse
 10
4724.098172894875
 20
2930.264728583198
 30
0.0
 11
-14.67024424252691
 21
83.19908946199426
 31
0.0
210
0.0
220
0.0
230
1.0
 40
0.5
 41
4.340591432030095
 42
8.225779182329084
  0
ELLIPSE
  5
95
330
1F
100
AcDbEntity
  8
0-B_寸法
  6
Continuous
 62
    92
370
    13
100
AcDbEllipse
 10
4724.517918944775
 20
2927.884230441542
 30
0.0
 11
-17.7763823922528
 21
100.8148742797557
 31
0.0
210
0.0
220
0.0
230
1.0
 40
0.4000000000000001
 41
3.840308517104466
 42
4.432552034522944
  0
ELLIPSE
  5
96
330
1F
100
AcDbEntity
  8
0-B_寸法
  6
Continuous
 62
    92
370
    13
100
AcDbEllipse
 10
4724.517918944775
 20
2927.884230441542
 30
0.0
 11
-17.7763823922528
 21
100.8148742797557
 31
0.0
210
0.0
220
0.0
230
1.0
 40
0.4000000000000001
 41
1.850633272656679
 42
2.442876790075129
  0
LINE
  5
97
330
1F
100
AcDbEntity
  8
0-B_寸法
  6
Continuous
 62
    92
370
    13
100
AcDbLine
 10
5369.917643811961
 20
3684.999983504357
 30
0.0
 11
5369.917643811961
 21
2718.999983504357
 31
0.0
  0
LINE
  5
98
330
1F
100
AcDbEntity
  8
0-B_寸法
  6
Continuous
 62
    92
370
    13
100
AcDbLine
 10
5369.917643811961
 20
2718.999983504357
 30
0.0
 11
4229.917643811961
 21
2718.999983504357
 31
0.0
  0
LINE
  5
99
330
1F
100
AcDbEntity
  8
0-B_寸法
  6
Continuous
 62
    92
370
    13
100
AcDbLine
 10
4229.917643811961
 20
3684.999983504357
 30
0.0
 11
4229.917643811961
 21
2718.999983504357
 31
0.0
  0
LINE
  5
9A
330
1F
100
AcDbEntity
  8
0-B_寸法
  6
JWW_HOJO
 62
   120
370
     5
100
AcDbLine
 10
5339.917643811961
 20
3684.999983504357
 30
0.0
 11
5339.917643811961
 21
2718.999983504357
 31
0.0
  0
LINE
  5
9B
330
1F
100
AcDbEntity
  8
0-B_寸法
  6
JWW_HOJO
 62
   120
370
     5
100
AcDbLine
 10
4259.917643811961
 20
3684.999983504357
 30
0.0
 11
4259.917643811961
 21
2718.999983504357
 31
0.0
  0
LINE
  5
9C
330
1F
100
AcDbEntity
  8
0-B_寸法
  6
JWW_HOJO
 62
   120
370
     5
100
AcDbLine
 10
4799.917643811961
 20
3684.999983504357
 30
0.0
 11
4799.917643811961
 21
2718.999983504357
 31
0.0
  0
LINE
  5
9D
330
1F
100
AcDbEntity
  8
0-B_寸法
  6
Continuous
 62
    92
370
    13
100
AcDbLine
 10
5369.917643811961
 20
3540.999983504358
 30
0.0
 11
4229.917643811961
 21
3540.999983504358
 31
0.0
  0
LINE
  5
9E
330
1F
100
AcDbEntity
  8
0-B_寸法
  6
Continuous
 62
    92
370
    13
100
AcDbLine
 10
5369.917643811961
 20
3684.999983504357
 30
0.0
 11
4229.917643811961
 21
3684.999983504357
 31
0.0
  0
MTEXT
  5
9F
330
1F
100
AcDbEntity
  8
F-A_文字
  6
Continuous
 62
     7
370
     0
100
AcDbMText
 10
3689.917643811962
 20
-3946.903115907308
 30
0.0
 40
76.19999999999999
 41
150.0
 46
0.0
 71
     7
 72
     1
  1
{\fＭＳ ゴシック|b0|i0|c128|p49;1/5}
 73
     1
 44
1.0
  0
MTEXT
  5
A0
330
1F
100
AcDbEntity
  8
0-A_文字
  6
Continuous
 62
    92
370
    13
100
AcDbMText
 10
-5592.499495325865
 20
3758.959004985627
 30
0.0
 40
147.9176470588235
 41
3300.0
 46
0.0
 71
     7
 72
     1
  1
{\fＭＳ ゴシック|b0|i0|c128|p49;クローゼットドア　調整枠　間口３尺}
 73
     1
 44
1.0
  0
LINE
  5
A1
330
1F
100
AcDbEntity
  8
0-A_文字
  6
Continuous
 62
    92
370
    13
100
AcDbLine
 10
-5659.999495325865
 20
3730.000181456216
 30
0.0
 11
-2228.571428571428
 21
3730.000181456216
 31
0.0
  0
LINE
  5
A2
330
1F
100
AcDbEntity
  8
0-A_文字
  6
Continuous
 62
    92
370
    13
100
AcDbLine
 10
-5659.999495325865
 20
4000.000181456216
 30
0.0
 11
-2228.571428571428
 21
4000.000181456216
 31
0.0
  0
LINE
  5
A3
330
1F
100
AcDbEntity
  8
0-A_文字
  6
Continuous
 62
    92
370
    13
100
AcDbLine
 10
-2228.571428571428
 20
3730.000181456216
 30
0.0
 11
-2228.571428571428
 21
4000.000181456216
 31
0.0
  0
MTEXT
  5
A4
330
1F
100
AcDbEntity
  8
F-A_文字
  6
Continuous
 62
     7
370
     0
100
AcDbMText
 10
-5080.081323642278
 20
-4045.06820530916
 30
0.0
 40
79.8634615384615
 41
4087.5
 46
0.0
 71
     7
 72
     1
  1
{\fＭＳ ゴシック|b0|i0|c128|p49;ドレタス　クローゼットドア  調整枠　３方枠＋床直付けレール枠外H2,038　枠外W724}
 73
     1
 44
1.0
  0
MTEXT
  5
A5
330
1F
100
AcDbEntity
  8
0-0_補助線
  6
Continuous
 62
     7
370
   211
100
AcDbMText
 10
-2176.886509220941
 20
2325.079196304033
 30
0.0
 40
91.43999999999912
 41
179.9999999999983
 46
0.0
 71
     7
 72
     1
  1
{\fＭＳ ゴシック|b0|i0|c128|p49;3.5}
 73
     1
 44
1.0
  0
MTEXT
  5
A6
330
1F
100
AcDbEntity
  8
0-0_補助線
  6
Continuous
 62
     7
370
   211
100
AcDbMText
 10
-1973.094832617243
 20
2325.079196304033
 30
0.0
 40
91.43999999999912
 41
179.9999999999983
 46
0.0
 71
     7
 72
     1
  1
{\fＭＳ ゴシック|b0|i0|c128|p49;2.5}
 73
     1
 44
1.0
  0
LINE
  5
A7
330
1F
100
AcDbEntity
  8
0-B_寸法
  6
Continuous
 62
   120
370
     5
100
AcDbLine
 10
-1983.481287529594
 20
1806.945146596494
 30
0.0
 11
-1983.481287529594
 21
1986.945146596494
 31
0.0
  0
LWPOLYLINE
  5
A8
330
1F
100
AcDbEntity
  8
0-B_寸法
  6
Continuous
 62
     7
370
     9
100
AcDbPolyline
 90
        4
 70
     1
 43
3.0
 10
-1981.981287529594
 20
1806.945146596494
 42
0.4142135623731
 10
-1983.481287529594
 20
1808.445146596494
 42
0.4142135623731
 10
-1984.981287529593
 20
1806.945146596494
 42
0.4142135623731
 10
-1983.481287529594
 20
1805.445146596494
 42
0.4142135623731
  0
LINE
  5
A9
330
1F
100
AcDbEntity
  8
0-B_寸法
  6
Continuous
 62
   120
370
     5
100
AcDbLine
 10
-2163.481287529593
 20
1806.945146596494
 30
0.0
 11
-2163.481287529593
 21
1986.945146596494
 31
0.0
  0
LINE
  5
AA
330
1F
100
AcDbEntity
  8
0-B_寸法
  6
Continuous
 62
   120
370
     5
100
AcDbLine
 10
-2043.481287529594
 20
1806.945146596494
 30
0.0
 11
-2043.481287529594
 21
1986.945146596494
 31
0.0
  0
LINE
  5
AB
330
1F
100
AcDbEntity
  8
0-B_寸法
  6
Continuous
 62
   120
370
     5
100
AcDbLine
 10
-2097.481287529597
 20
1806.945146596494
 30
0.0
 11
-2097.481287529597
 21
1986.945146596494
 31
0.0
  0
LINE
  5
AC
330
1F
100
AcDbEntity
  8
0-B_寸法
  6
Continuous
 62
   120
370
     5
100
AcDbLine
 10
-2133.481287529593
 20
1806.945146596494
 30
0.0
 11
-2133.481287529593
 21
1986.945146596494
 31
0.0
  0
LINE
  5
AD
330
1F
100
AcDbEntity
  8
0-B_寸法
  6
Continuous
 62
   120
370
     5
100
AcDbLine
 10
-2268.930109358257
 20
1866.945146596494
 30
0.0
 11
-2208.481287529593
 21
1866.945146596494
 31
0.0
  0
LINE
  5
AE
330
1F
100
AcDbEntity
  8
0-B_寸法
  6
Continuous
 62
   120
370
     5
100
AcDbLine
 10
-2148.481287529593
 20
1806.945146596494
 30
0.0
 11
-2208.481287529593
 21
1866.945146596494
 31
0.0
  0
LINE
  5
AF
330
1F
100
AcDbEntity
  8
0-B_寸法
  6
Continuous
 62
   120
370
     5
100
AcDbLine
 10
-2260.727827384769
 20
1716.945146596494
 30
0.0
 11
-2205.481287529594
 21
1716.945146596494
 31
0.0
  0
LWPOLYLINE
  5
B0
330
1F
100
AcDbEntity
  8
0-B_寸法
  6
Continuous
 62
     7
370
     9
100
AcDbPolyline
 90
        4
 70
     1
 43
3.0
 10
-2041.981287529594
 20
1806.945146596494
 42
0.4142135623731
 10
-2043.481287529594
 20
1808.445146596494
 42
0.4142135623731
 10
-2044.981287529593
 20
1806.945146596494
 42
0.4142135623731
 10
-2043.481287529594
 20
1805.445146596494
 42
0.4142135623731
  0
LWPOLYLINE
  5
B1
330
1F
100
AcDbEntity
  8
0-B_寸法
  6
Continuous
 62
     7
370
     9
100
AcDbPolyline
 90
        4
 70
     1
 43
3.0
 10
-2095.981287529597
 20
1806.945146596494
 42
0.4142135623731
 10
-2097.481287529597
 20
1808.445146596494
 42
0.4142135623731
 10
-2098.981287529597
 20
1806.945146596494
 42
0.4142135623731
 10
-2097.481287529597
 20
1805.445146596494
 42
0.4142135623731
  0
LWPOLYLINE
  5
B2
330
1F
100
AcDbEntity
  8
0-B_寸法
  6
Continuous
 62
     7
370
     9
100
AcDbPolyline
 90
        4
 70
     1
 43
3.0
 10
-2131.981287529594
 20
1806.945146596494
 42
0.4142135623731
 10
-2133.481287529593
 20
1808.445146596494
 42
0.4142135623731
 10
-2134.981287529593
 20
1806.945146596494
 42
0.4142135623731
 10
-2133.481287529593
 20
1805.445146596494
 42
0.4142135623731
  0
LWPOLYLINE
  5
B3
330
1F
100
AcDbEntity
  8
0-B_寸法
  6
Continuous
 62
     7
370
     9
100
AcDbPolyline
 90
        4
 70
     1
 43
3.0
 10
-2161.981287529594
 20
1806.945146596494
 42
0.4142135623731
 10
-2163.481287529593
 20
1808.445146596494
 42
0.4142135623731
 10
-2164.981287529593
 20
1806.945146596494
 42
0.4142135623731
 10
-2163.481287529593
 20
1805.445146596494
 42
0.4142135623731
  0
LINE
  5
B4
330
1F
100
AcDbEntity
  8
0-B_寸法
  6
Continuous
 62
   120
370
     5
100
AcDbLine
 10
-2163.481287529593
 20
1806.945146596494
 30
0.0
 11
-1983.481287529594
 21
1806.945146596494
 31
0.0
  0
LINE
  5
B5
330
1F
100
AcDbEntity
  8
0-B_寸法
  6
Continuous
 62
   120
370
     5
100
AcDbLine
 10
-2115.481287529594
 20
1806.945146596494
 30
0.0
 11
-2205.481287529594
 21
1716.945146596494
 31
0.0
  0
MTEXT
  5
B6
330
1F
100
AcDbEntity
  8
0-B_寸法
  6
Continuous
 62
     7
370
   211
100
AcDbMText
 10
-321.4812875295925
 20
3142.665146596495
 30
0.0
 40
91.43999999999966
 41
659.9999999999975
 46
0.0
 71
     7
 72
     1
  1
{\fＭＳ ゴシック|b0|i0|c128|p49;ＲＯＷ＝734}
 73
     1
 44
1.0
  0
MTEXT
  5
B7
330
1F
100
AcDbEntity
  8
0-B_寸法
  6
Continuous
 62
     7
370
   211
100
AcDbMText
 10
-485.5828732370691
 20
2962.665146596495
 30
0.0
 40
91.44000000000015
 41
1020.000000000002
 46
0.0
 71
     7
 72
     1
  1
{\fＭＳ ゴシック|b0|i0|c128|p49;有効開口寸法＝542}
 73
     1
 44
1.0
  0
MTEXT
  5
B8
330
1F
100
AcDbEntity
  8
0-B_寸法
  6
Continuous
 62
     7
370
   211
100
AcDbMText
 10
-1569.279960107841
 20
2287.66514659649
 30
0.0
 40
91.44
 41
120.0
 46
0.0
 71
     7
 72
     1
  1
{\fＭＳ ゴシック|b0|i0|c128|p49;77}
 11
6.123031769111886E-17
 21
1.0
 31
0.0
 73
     1
 44
1.0
  0
MTEXT
  5
B9
330
1F
100
AcDbEntity
  8
0-B_寸法
  6
Continuous
 62
     7
370
   211
100
AcDbMText
 10
-2253.481287529594
 20
1856.235146596496
 30
0.0
 40
68.5800000000026
 41
45.00000000000171
 46
0.0
 71
     7
 72
     1
  1
{\fＭＳ ゴシック|b0|i0|c128|p49;5}
 73
     1
 44
1.0
  0
LINE
  5
BA
330
1F
100
AcDbEntity
  8
0-0_補助線
  6
JWW_HOJO
 62
   120
370
     5
100
AcDbLine
 10
2780.518514518553
 20
2781.945146596495
 30
0.0
 11
-2763.481089577737
 21
2781.945146596495
 31
0.0
  0
LINE
  5
BB
330
1F
100
AcDbEntity
  8
0-0_補助線
  6
JWW_HOJO
 62
   120
370
     5
100
AcDbLine
 10
2780.518514518553
 20
3141.945146596495
 30
0.0
 11
-2763.481089577737
 21
3141.945146596495
 31
0.0
  0
LINE
  5
BC
330
1F
100
AcDbEntity
  8
0-0_補助線
  6
JWW_HOJO
 62
   120
370
     5
100
AcDbLine
 10
2780.518514518553
 20
2961.945146596495
 30
0.0
 11
-2763.481089577737
 21
2961.945146596495
 31
0.0
  0
LINE
  5
BD
330
1F
100
AcDbEntity
  8
0-1_通り芯
  6
JWW_CENTER1
 62
   120
370
     5
100
AcDbLine
 10
2780.518514518553
 20
2361.945146596495
 30
0.0
 11
-2763.481089577737
 21
2361.945146596495
 31
0.0
  0
LINE
  5
BE
330
1F
100
AcDbEntity
  8
0-C_ハッチ
  6
Continuous
 62
   120
370
     5
100
AcDbLine
 10
-2163.481287529591
 20
2387.264773392185
 30
0.0
 11
-1983.481287529594
 21
2567.264773392182
 31
0.0
  0
LINE
  5
BF
330
1F
100
AcDbEntity
  8
0-C_ハッチ
  6
Continuous
 62
   120
370
     5
100
AcDbLine
 10
-2163.481287529598
 20
2327.867803772476
 30
0.0
 11
-1983.481287529607
 21
2507.867803772466
 31
0.0
  0
LINE
  5
C0
330
1F
100
AcDbEntity
  8
0-C_ハッチ
  6
Continuous
 62
   120
370
     5
100
AcDbLine
 10
-2163.481287529593
 20
2268.470834152833
 30
0.0
 11
-2014.383270770349
 21
2417.56885091208
 31
0.0
  0
LINE
  5
C1
330
1F
100
AcDbEntity
  8
0-C_ハッチ
  6
Continuous
 62
   120
370
     5
100
AcDbLine
 10
-2163.481287529587
 20
2209.07386453319
 30
0.0
 11
-2019.356266750769
 21
2353.198885312012
 31
0.0
  0
ARC
  5
C2
330
1F
100
AcDbEntity
  8
0-4_枠
  6
Continuous
 62
    92
370
    13
100
AcDbCircle
 10
-1713.481287529594
 20
2361.945146596495
 30
0.0
 40
306.0000000000022
100
AcDbArc
 50
151.9275130641473
 51
208.0724869358527
  0
LINE
  5
C3
330
1F
100
AcDbEntity
  8
0-0_補助線
  6
Continuous
 62
   120
370
     5
100
AcDbLine
 10
-1983.481287529594
 20
2324.359196304034
 30
0.0
 11
-1998.481287529594
 21
2324.359196304034
 31
0.0
  0
LWPOLYLINE
  5
C4
330
1F
100
AcDbEntity
  8
0-0_補助線
  6
Continuous
 62
     7
370
     9
100
AcDbPolyline
 90
        4
 70
     1
 43
3.0
 10
-1981.981287529594
 20
2324.359196304034
 42
0.4142135623731
 10
-1983.481287529594
 20
2325.859196304033
 42
0.4142135623731
 10
-1984.981287529593
 20
2324.359196304034
 42
0.4142135623731
 10
-1983.481287529594
 20
2322.859196304034
 42
0.4142135623731
  0
LWPOLYLINE
  5
C5
330
1F
100
AcDbEntity
  8
0-0_補助線
  6
Continuous
 62
     7
370
     9
100
AcDbPolyline
 90
        4
 70
     1
 43
3.0
 10
-1996.981287529594
 20
2324.359196304034
 42
0.4142135623731
 10
-1998.481287529594
 20
2325.859196304033
 42
0.4142135623731
 10
-1999.981287529593
 20
2324.359196304034
 42
0.4142135623731
 10
-1998.481287529594
 20
2322.859196304034
 42
0.4142135623731
  0
LINE
  5
C6
330
1F
100
AcDbEntity
  8
0-0_補助線
  6
Continuous
 62
   120
370
     5
100
AcDbLine
 10
-1998.481287529594
 20
2324.359196304034
 30
0.0
 11
-2019.481287529595
 21
2324.359196304034
 31
0.0
  0
LWPOLYLINE
  5
C7
330
1F
100
AcDbEntity
  8
0-0_補助線
  6
Continuous
 62
     7
370
     9
100
AcDbPolyline
 90
        4
 70
     1
 43
3.0
 10
-2017.981287529595
 20
2324.359196304034
 42
0.4142135623731
 10
-2019.481287529595
 20
2325.859196304033
 42
0.4142135623731
 10
-2020.981287529595
 20
2324.359196304034
 42
0.4142135623731
 10
-2019.481287529595
 20
2322.859196304034
 42
0.4142135623731
  0
LINE
  5
C8
330
1F
100
AcDbEntity
  8
0-0_補助線
  6
Continuous
 62
   120
370
     5
100
AcDbLine
 10
-2019.481287529595
 20
2324.359196304034
 30
0.0
 11
-2019.481287529595
 21
2405.688459527219
 31
0.0
  0
MTEXT
  5
C9
330
1F
100
AcDbEntity
  8
0-B_寸法
  6
Continuous
 62
     7
370
   211
100
AcDbMText
 10
-2092.981287529595
 20
1796.235146596496
 30
0.0
 40
68.5800000000026
 41
45.00000000000171
 46
0.0
 71
     7
 72
     1
  1
{\fＭＳ ゴシック|b0|i0|c128|p49;9}
 73
     1
 44
1.0
  0
LINE
  5
CA
330
1F
100
AcDbEntity
  8
0-7_金物
  6
Continuous
 62
     7
370
     9
100
AcDbLine
 10
2198.518375952247
 20
2271.945220828442
 30
0.0
 11
2198.518375952247
 21
2451.945072364549
 31
0.0
  0
LINE
  5
CB
330
1F
100
AcDbEntity
  8
0-7_金物
  6
Continuous
 62
     7
370
     9
100
AcDbLine
 10
2210.518712470406
 20
2451.945072364549
 30
0.0
 11
2198.518375952247
 21
2451.945072364549
 31
0.0
  0
LINE
  5
CC
330
1F
100
AcDbEntity
  8
0-7_金物
  6
Continuous
 62
     7
370
     9
100
AcDbLine
 10
2210.518712470406
 20
2271.945220828442
 30
0.0
 11
2198.518375952247
 21
2271.945220828442
 31
0.0
  0
LINE
  5
CD
330
1F
100
AcDbEntity
  8
0-7_金物
  6
Continuous
 62
     7
370
     9
100
AcDbLine
 10
2198.518375952247
 20
2301.945319804372
 30
0.0
 11
2186.518781753556
 21
2301.945319804372
 31
0.0
  0
LINE
  5
CE
330
1F
100
AcDbEntity
  8
0-7_金物
  6
Continuous
 62
     7
370
     9
100
AcDbLine
 10
2198.518375952247
 20
2421.944973388619
 30
0.0
 11
2186.518781753556
 21
2421.944973388619
 31
0.0
  0
LINE
  5
CF
330
1F
100
AcDbEntity
  8
0-7_金物
  6
Continuous
 62
     7
370
     9
100
AcDbLine
 10
2186.518781753556
 20
2301.945319804372
 30
0.0
 11
2186.518781753556
 21
2421.944973388619
 31
0.0
  0
LINE
  5
D0
330
1F
100
AcDbEntity
  8
0-7_金物
  6
Continuous
 62
     7
370
     9
100
AcDbLine
 10
2186.518781753556
 20
2415.945547449009
 30
0.0
 11
2180.518712470406
 21
2415.945547449009
 31
0.0
  0
LINE
  5
D1
330
1F
100
AcDbEntity
  8
0-7_金物
  6
Continuous
 62
     7
370
     9
100
AcDbLine
 10
2186.518781753556
 20
2307.94548806345
 30
0.0
 11
2180.518712470406
 21
2307.94548806345
 31
0.0
  0
LINE
  5
D2
330
1F
100
AcDbEntity
  8
0-7_金物
  6
Continuous
 62
     7
370
     9
100
AcDbLine
 10
2210.518712470406
 20
2271.945220828442
 30
0.0
 11
2210.518712470406
 21
2451.945072364549
 31
0.0
  0
LINE
  5
D3
330
1F
100
AcDbEntity
  8
0-7_金物
  6
Continuous
 62
     7
370
     9
100
AcDbLine
 10
-2181.480951011437
 20
2271.945220828442
 30
0.0
 11
-2181.480951011437
 21
2451.945072364549
 31
0.0
  0
LINE
  5
D4
330
1F
100
AcDbEntity
  8
0-7_金物
  6
Continuous
 62
     7
370
     9
100
AcDbLine
 10
-2193.481287529593
 20
2451.945072364549
 30
0.0
 11
-2181.480951011437
 21
2451.945072364549
 31
0.0
  0
LINE
  5
D5
330
1F
100
AcDbEntity
  8
0-7_金物
  6
Continuous
 62
     7
370
     9
100
AcDbLine
 10
-2193.481287529593
 20
2271.945220828442
 30
0.0
 11
-2181.480951011437
 21
2271.945220828442
 31
0.0
  0
LINE
  5
D6
330
1F
100
AcDbEntity
  8
0-7_金物
  6
Continuous
 62
     7
370
     9
100
AcDbLine
 10
-2181.480951011437
 20
2301.945319804372
 30
0.0
 11
-2169.481356812743
 21
2301.945319804372
 31
0.0
  0
LINE
  5
D7
330
1F
100
AcDbEntity
  8
0-7_金物
  6
Continuous
 62
     7
370
     9
100
AcDbLine
 10
-2181.480951011437
 20
2421.944973388619
 30
0.0
 11
-2169.481356812743
 21
2421.944973388619
 31
0.0
  0
LINE
  5
D8
330
1F
100
AcDbEntity
  8
0-7_金物
  6
Continuous
 62
     7
370
     9
100
AcDbLine
 10
-2169.481356812743
 20
2301.945319804372
 30
0.0
 11
-2169.481356812743
 21
2421.944973388619
 31
0.0
  0
LINE
  5
D9
330
1F
100
AcDbEntity
  8
0-7_金物
  6
Continuous
 62
     7
370
     9
100
AcDbLine
 10
-2169.481356812743
 20
2415.945547449009
 30
0.0
 11
-2163.481287529593
 21
2415.945547449009
 31
0.0
  0
LINE
  5
DA
330
1F
100
AcDbEntity
  8
0-7_金物
  6
Continuous
 62
     7
370
     9
100
AcDbLine
 10
-2169.481356812743
 20
2307.94548806345
 30
0.0
 11
-2163.481287529593
 21
2307.94548806345
 31
0.0
  0
LINE
  5
DB
330
1F
100
AcDbEntity
  8
0-7_金物
  6
Continuous
 62
     7
370
     9
100
AcDbLine
 10
-2193.481287529593
 20
2271.945220828442
 30
0.0
 11
-2193.481287529593
 21
2451.945072364549
 31
0.0
  0
MTEXT
  5
DC
330
1F
100
AcDbEntity
  8
0-B_寸法
  6
Continuous
 62
     7
370
   211
100
AcDbMText
 10
-2032.231287529596
 20
1799.092646596493
 30
0.0
 40
74.2949999999974
 41
97.49999999999659
 46
0.0
 71
     7
 72
     1
  1
{\fＭＳ ゴシック|b0|i0|c128|p49;10}
 73
     1
 44
1.0
  0
MTEXT
  5
DD
330
1F
100
AcDbEntity
  8
0-B_寸法
  6
Continuous
 62
     7
370
   211
100
AcDbMText
 10
-2250.481287529595
 20
1706.235146596496
 30
0.0
 40
68.5800000000026
 41
45.00000000000171
 46
0.0
 71
     7
 72
     1
  1
{\fＭＳ ゴシック|b0|i0|c128|p49;6}
 73
     1
 44
1.0
  0
LWPOLYLINE
  5
DE
330
1F
100
AcDbEntity
  8
0-B_寸法
  6
Continuous
 62
     7
370
     9
100
AcDbPolyline
 90
        4
 70
     1
 43
3.0
 10
-1981.981287529594
 20
2961.945146596495
 42
0.4142135623731
 10
-1983.481287529594
 20
2963.445146596495
 42
0.4142135623731
 10
-1984.981287529593
 20
2961.945146596495
 42
0.4142135623731
 10
-1983.481287529594
 20
2960.445146596495
 42
0.4142135623731
  0
LINE
  5
DF
330
1F
100
AcDbEntity
  8
0-B_寸法
  6
Continuous
 62
   120
370
     5
100
AcDbLine
 10
-1983.481287529594
 20
2961.945146596495
 30
0.0
 11
-1983.481287529594
 21
2781.945146596495
 31
0.0
  0
LINE
  5
E0
330
1F
100
AcDbEntity
  8
0-B_寸法
  6
Continuous
 62
   120
370
     5
100
AcDbLine
 10
-2193.481287529593
 20
3141.945146596495
 30
0.0
 11
2210.518712470406
 21
3141.945146596495
 31
0.0
  0
LWPOLYLINE
  5
E1
330
1F
100
AcDbEntity
  8
0-B_寸法
  6
Continuous
 62
     7
370
     9
100
AcDbPolyline
 90
        4
 70
     1
 43
3.0
 10
-2191.981287529594
 20
3141.945146596495
 42
0.4142135623731
 10
-2193.481287529593
 20
3143.445146596495
 42
0.4142135623731
 10
-2194.981287529593
 20
3141.945146596495
 42
0.4142135623731
 10
-2193.481287529593
 20
3140.445146596495
 42
0.4142135623731
  0
LWPOLYLINE
  5
E2
330
1F
100
AcDbEntity
  8
0-B_寸法
  6
Continuous
 62
     7
370
     9
100
AcDbPolyline
 90
        4
 70
     1
 43
3.0
 10
2212.018712470406
 20
3141.945146596495
 42
0.4142135623731
 10
2210.518712470406
 20
3143.445146596495
 42
0.4142135623731
 10
2209.018712470407
 20
3141.945146596495
 42
0.4142135623731
 10
2210.518712470406
 20
3140.445146596495
 42
0.4142135623731
  0
LINE
  5
E3
330
1F
100
AcDbEntity
  8
0-B_寸法
  6
Continuous
 62
   120
370
     5
100
AcDbLine
 10
-2193.481287529593
 20
3141.945146596495
 30
0.0
 11
-2193.481287529593
 21
2781.945146596495
 31
0.0
  0
LINE
  5
E4
330
1F
100
AcDbEntity
  8
0-B_寸法
  6
Continuous
 62
   120
370
     5
100
AcDbLine
 10
2210.518712470406
 20
3141.945146596495
 30
0.0
 11
2210.518712470406
 21
2781.945146596495
 31
0.0
  0
MTEXT
  5
E5
330
1F
100
AcDbEntity
  8
0-B_寸法
  6
Continuous
 62
     7
370
   211
100
AcDbMText
 10
-1266.481287529594
 20
1627.665146596494
 30
0.0
 40
91.43999999999986
 41
539.9999999999991
 46
0.0
 71
     7
 72
     1
  1
{\fＭＳ ゴシック|b0|i0|c128|p49;ＤＷ＝334}
 73
     1
 44
1.0
  0
ARC
  5
E6
330
1F
100
AcDbEntity
  8
0-6_扉
  6
JWW_DASHED2
 62
    40
370
    15
100
AcDbCircle
 10
1719.435352360055
 20
2557.712520566674
 30
0.0
 40
18.0
100
AcDbArc
 50
85.6539792783598
 51
175.65397927836
  0
LINE
  5
E7
330
1F
100
AcDbEntity
  8
0-6_扉
  6
JWW_DASHED2
 62
    40
370
    15
100
AcDbLine
 10
1810.540599062289
 20
2568.840594224116
 30
0.0
 11
1720.799386145249
 21
2575.660763150083
 31
0.0
  0
ARC
  5
E8
330
1F
100
AcDbEntity
  8
0-6_扉
  6
JWW_DASHED2
 62
    40
370
    15
100
AcDbCircle
 10
1809.176565277094
 20
2550.892351640706
 30
0.0
 40
18.0
100
AcDbArc
 50
355.6539792783599
 51
85.6539792783597
  0
ARC
  5
E9
330
1F
100
AcDbEntity
  8
0-6_扉
  6
JWW_DASHED2
 62
    40
370
    15
100
AcDbCircle
 10
1376.208167970854
 20
2557.712520566678
 30
0.0
 40
18.0
100
AcDbArc
 50
4.346020721638975
 51
94.34602072163908
  0
LINE
  5
EA
330
1F
100
AcDbEntity
  8
0-6_扉
  6
JWW_DASHED2
 62
    40
370
    15
100
AcDbLine
 10
1285.102921268621
 20
2568.840594224119
 30
0.0
 11
1374.844134185659
 21
2575.660763150086
 31
0.0
  0
ARC
  5
EB
330
1F
100
AcDbEntity
  8
0-6_扉
  6
JWW_DASHED2
 62
    40
370
    15
100
AcDbCircle
 10
1286.466955053814
 20
2550.892351640711
 30
0.0
 40
18.0
100
AcDbArc
 50
94.34602072163908
 51
184.3460207216391
  0
LINE
  5
EC
330
1F
100
AcDbEntity
  8
0-6_扉
  6
JWW_DASHED2
 62
    40
370
    15
100
AcDbLine
 10
1827.124807860502
 20
2549.528317855514
 30
0.0
 11
1793.489291984783
 21
2106.945146596497
 31
0.0
  0
LINE
  5
ED
330
1F
100
AcDbEntity
  8
0-6_扉
  6
JWW_DASHED2
 62
    40
370
    15
100
AcDbLine
 10
1268.518712470408
 20
2549.52831785552
 30
0.0
 11
1302.154228346119
 21
2106.945146596497
 31
0.0
  0
LINE
  5
EE
330
1F
100
AcDbEntity
  8
0-6_扉
  6
JWW_DASHED2
 62
    40
370
    15
100
AcDbLine
 10
1394.156410554261
 20
2559.076554351872
 30
0.0
 11
1428.517575033701
 21
2106.945146596497
 31
0.0
  0
LINE
  5
EF
330
1F
100
AcDbEntity
  8
0-6_扉
  6
JWW_DASHED2
 62
    40
370
    15
100
AcDbLine
 10
1701.487109776648
 20
2559.07655435187
 30
0.0
 11
1667.125945297199
 21
2106.945146596497
 31
0.0
  0
LINE
  5
F0
330
1F
100
AcDbEntity
  8
0-1_通り芯
  6
JWW_CENTER1
 62
   120
370
     5
100
AcDbLine
 10
1268.518712470407
 20
2781.945146596495
 30
0.0
 11
1268.518712470407
 21
2549.52831785552
 31
0.0
  0
LINE
  5
F1
330
1F
100
AcDbEntity
  8
0-B_寸法
  6
Continuous
 62
   120
370
     5
100
AcDbLine
 10
-1983.481287529594
 20
2961.945146596495
 30
0.0
 11
1268.518712470407
 21
2961.945146596495
 31
0.0
  0
LWPOLYLINE
  5
F2
330
1F
100
AcDbEntity
  8
0-B_寸法
  6
Continuous
 62
     7
370
     9
100
AcDbPolyline
 90
        4
 70
     1
 43
3.0
 10
1270.018712470407
 20
2961.945146596495
 42
0.4142135623731
 10
1268.518712470407
 20
2963.445146596495
 42
0.4142135623731
 10
1267.018712470407
 20
2961.945146596495
 42
0.4142135623731
 10
1268.518712470407
 20
2960.445146596495
 42
0.4142135623731
  0
LINE
  5
F3
330
1F
100
AcDbEntity
  8
0-B_寸法
  6
Continuous
 62
   120
370
     5
100
AcDbLine
 10
1268.518712470407
 20
2961.945146596495
 30
0.0
 11
1268.518712470407
 21
2781.945146596495
 31
0.0
  0
MTEXT
  5
F4
330
1F
100
AcDbEntity
  8
0-B_寸法
  6
Continuous
 62
     7
370
   211
100
AcDbMText
 10
743.5187124704083
 20
1627.665146596494
 30
0.0
 40
91.43999999999986
 41
539.9999999999991
 46
0.0
 71
     7
 72
     1
  1
{\fＭＳ ゴシック|b0|i0|c128|p49;ＤＷ＝334}
 73
     1
 44
1.0
  0
LINE
  5
F5
330
1F
100
AcDbEntity
  8
0-0_補助線
  6
JWW_HOJO
 62
     7
370
     9
100
AcDbLine
 10
8.518712470406626
 20
906.9451465964938
 30
0.0
 11
8.518712470406626
 21
3321.945146596495
 31
0.0
  0
MTEXT
  5
F6
330
1F
100
AcDbEntity
  8
0-B_寸法
  6
Continuous
 62
     7
370
   211
100
AcDbMText
 10
-441.4812875295917
 20
1447.665146596494
 30
0.0
 40
91.44000000000001
 41
900.0
 46
0.0
 71
     7
 72
     1
  1
{\fＭＳ ゴシック|b0|i0|c128|p49;折戸：ＤＷ＝669}
 73
     1
 44
1.0
  0
MTEXT
  5
F7
330
1F
100
AcDbEntity
  8
0-B_寸法
  6
Continuous
 62
     7
370
   211
100
AcDbMText
 10
-2133.481287529594
 20
1267.665146596495
 30
0.0
 40
91.4400000000013
 41
120.0000000000017
 46
0.0
 71
     7
 72
     1
  1
{\fＭＳ ゴシック|b0|i0|c128|p49;30}
 73
     1
 44
1.0
  0
LINE
  5
F8
330
1F
100
AcDbEntity
  8
0-0_補助線
  6
JWW_HOJO
 62
   120
370
     5
100
AcDbLine
 10
-2763.481089577737
 20
1086.945146596494
 30
0.0
 11
-2763.481089577737
 21
3141.945146596495
 31
0.0
  0
LINE
  5
F9
330
1F
100
AcDbEntity
  8
0-0_補助線
  6
JWW_HOJO
 62
   120
370
     5
100
AcDbLine
 10
2780.518514518553
 20
1086.945146596494
 30
0.0
 11
2780.518514518553
 21
3141.945146596495
 31
0.0
  0
LINE
  5
FA
330
1F
100
AcDbEntity
  8
0-0_補助線
  6
JWW_HOJO
 62
   120
370
     5
100
AcDbLine
 10
2780.518514518553
 20
1446.945146596494
 30
0.0
 11
-2763.481089577737
 21
1446.945146596494
 31
0.0
  0
LINE
  5
FB
330
1F
100
AcDbEntity
  8
0-0_補助線
  6
JWW_HOJO
 62
   120
370
     5
100
AcDbLine
 10
2780.518514518553
 20
1266.945146596494
 30
0.0
 11
-2763.481089577737
 21
1266.945146596494
 31
0.0
  0
LINE
  5
FC
330
1F
100
AcDbEntity
  8
0-0_補助線
  6
JWW_HOJO
 62
   120
370
     5
100
AcDbLine
 10
2780.518514518553
 20
1086.945146596494
 30
0.0
 11
-2763.481089577737
 21
1086.945146596494
 31
0.0
  0
LINE
  5
FD
330
1F
100
AcDbEntity
  8
0-0_補助線
  6
JWW_HOJO
 62
     7
370
     9
100
AcDbLine
 10
-1983.481287529594
 20
906.9451465964938
 30
0.0
 11
-1983.481287529594
 21
3321.945146596495
 31
0.0
  0
LINE
  5
FE
330
1F
100
AcDbEntity
  8
0-0_補助線
  6
JWW_HOJO
 62
     7
370
     9
100
AcDbLine
 10
2000.518712470406
 20
906.9451465964938
 30
0.0
 11
2000.518712470406
 21
3321.945146596495
 31
0.0
  0
LINE
  5
FF
330
1F
100
AcDbEntity
  8
0-0_補助線
  6
JWW_HOJO
 62
   120
370
     5
100
AcDbLine
 10
2780.518514518553
 20
1626.945146596494
 30
0.0
 11
-2763.481089577737
 21
1626.945146596494
 31
0.0
  0
LINE
  5
100
330
1F
100
AcDbEntity
  8
0-0_補助線
  6
JWW_HOJO
 62
   120
370
     5
100
AcDbLine
 10
2780.518514518553
 20
1806.945146596494
 30
0.0
 11
-2763.481089577737
 21
1806.945146596494
 31
0.0
  0
LINE
  5
101
330
1F
100
AcDbEntity
  8
0-B_寸法
  6
Continuous
 62
   120
370
     5
100
AcDbLine
 10
-1998.481287529594
 20
1626.945146596494
 30
0.0
 11
5.518712470405944
 21
1626.945146596494
 31
0.0
  0
LWPOLYLINE
  5
102
330
1F
100
AcDbEntity
  8
0-B_寸法
  6
Continuous
 62
     7
370
     9
100
AcDbPolyline
 90
        4
 70
     1
 43
3.0
 10
-1996.981287529594
 20
1626.945146596494
 42
0.4142135623731
 10
-1998.481287529594
 20
1628.445146596494
 42
0.4142135623731
 10
-1999.981287529593
 20
1626.945146596494
 42
0.4142135623731
 10
-1998.481287529594
 20
1625.445146596494
 42
0.4142135623731
  0
LWPOLYLINE
  5
103
330
1F
100
AcDbEntity
  8
0-B_寸法
  6
Continuous
 62
     7
370
     9
100
AcDbPolyline
 90
        4
 70
     1
 43
3.0
 10
7.018712470405944
 20
1626.945146596494
 42
0.4142135623731
 10
5.518712470405944
 20
1628.445146596494
 42
0.4142135623731
 10
4.018712470405944
 20
1626.945146596494
 42
0.4142135623731
 10
5.518712470405944
 20
1625.445146596494
 42
0.4142135623731
  0
LINE
  5
104
330
1F
100
AcDbEntity
  8
0-B_寸法
  6
Continuous
 62
   120
370
     5
100
AcDbLine
 10
-1998.481287529594
 20
1626.945146596494
 30
0.0
 11
-1998.481287529594
 21
1806.945146596494
 31
0.0
  0
LINE
  5
105
330
1F
100
AcDbEntity
  8
0-B_寸法
  6
Continuous
 62
   120
370
     5
100
AcDbLine
 10
5.518712470405944
 20
1626.945146596494
 30
0.0
 11
5.518712470405944
 21
1806.945146596494
 31
0.0
  0
LINE
  5
106
330
1F
100
AcDbEntity
  8
0-B_寸法
  6
Continuous
 62
   120
370
     5
100
AcDbLine
 10
11.51871247040646
 20
1626.945146596494
 30
0.0
 11
2015.51871247041
 21
1626.945146596494
 31
0.0
  0
LWPOLYLINE
  5
107
330
1F
100
AcDbEntity
  8
0-B_寸法
  6
Continuous
 62
     7
370
     9
100
AcDbPolyline
 90
        4
 70
     1
 43
3.0
 10
13.01871247040646
 20
1626.945146596494
 42
0.4142135623731
 10
11.51871247040646
 20
1628.445146596494
 42
0.4142135623731
 10
10.01871247040646
 20
1626.945146596494
 42
0.4142135623731
 10
11.51871247040646
 20
1625.445146596494
 42
0.4142135623731
  0
LWPOLYLINE
  5
108
330
1F
100
AcDbEntity
  8
0-B_寸法
  6
Continuous
 62
     7
370
     9
100
AcDbPolyline
 90
        4
 70
     1
 43
3.0
 10
2017.01871247041
 20
1626.945146596494
 42
0.4142135623731
 10
2015.51871247041
 20
1628.445146596494
 42
0.4142135623731
 10
2014.01871247041
 20
1626.945146596494
 42
0.4142135623731
 10
2015.51871247041
 20
1625.445146596494
 42
0.4142135623731
  0
LINE
  5
109
330
1F
100
AcDbEntity
  8
0-B_寸法
  6
Continuous
 62
   120
370
     5
100
AcDbLine
 10
11.51871247040646
 20
1626.945146596494
 30
0.0
 11
11.51871247040646
 21
1806.945146596494
 31
0.0
  0
LINE
  5
10A
330
1F
100
AcDbEntity
  8
0-B_寸法
  6
Continuous
 62
   120
370
     5
100
AcDbLine
 10
2015.51871247041
 20
1626.945146596494
 30
0.0
 11
2015.51871247041
 21
1806.945146596494
 31
0.0
  0
LINE
  5
10B
330
1F
100
AcDbEntity
  8
0-B_寸法
  6
Continuous
 62
   120
370
     5
100
AcDbLine
 10
-1998.481287529594
 20
1446.945146596494
 30
0.0
 11
2015.51871247041
 21
1446.945146596494
 31
0.0
  0
LWPOLYLINE
  5
10C
330
1F
100
AcDbEntity
  8
0-B_寸法
  6
Continuous
 62
     7
370
     9
100
AcDbPolyline
 90
        4
 70
     1
 43
3.0
 10
-1996.981287529594
 20
1446.945146596494
 42
0.4142135623731
 10
-1998.481287529594
 20
1448.445146596494
 42
0.4142135623731
 10
-1999.981287529593
 20
1446.945146596494
 42
0.4142135623731
 10
-1998.481287529594
 20
1445.445146596494
 42
0.4142135623731
  0
LWPOLYLINE
  5
10D
330
1F
100
AcDbEntity
  8
0-B_寸法
  6
Continuous
 62
     7
370
     9
100
AcDbPolyline
 90
        4
 70
     1
 43
3.0
 10
2017.01871247041
 20
1446.945146596494
 42
0.4142135623731
 10
2015.51871247041
 20
1448.445146596494
 42
0.4142135623731
 10
2014.01871247041
 20
1446.945146596494
 42
0.4142135623731
 10
2015.51871247041
 20
1445.445146596494
 42
0.4142135623731
  0
LINE
  5
10E
330
1F
100
AcDbEntity
  8
0-B_寸法
  6
Continuous
 62
   120
370
     5
100
AcDbLine
 10
-1998.481287529594
 20
1446.945146596494
 30
0.0
 11
-1998.481287529594
 21
1626.945146596494
 31
0.0
  0
LINE
  5
10F
330
1F
100
AcDbEntity
  8
0-B_寸法
  6
Continuous
 62
   120
370
     5
100
AcDbLine
 10
2015.51871247041
 20
1446.945146596494
 30
0.0
 11
2015.51871247041
 21
1626.945146596494
 31
0.0
  0
LINE
  5
110
330
1F
100
AcDbEntity
  8
0-B_寸法
  6
Continuous
 62
   120
370
     5
100
AcDbLine
 10
-2163.481287529593
 20
1266.945146596494
 30
0.0
 11
-1983.481287529594
 21
1266.945146596494
 31
0.0
  0
LWPOLYLINE
  5
111
330
1F
100
AcDbEntity
  8
0-B_寸法
  6
Continuous
 62
     7
370
     9
100
AcDbPolyline
 90
        4
 70
     1
 43
3.0
 10
-2161.981287529594
 20
1266.945146596494
 42
0.4142135623731
 10
-2163.481287529593
 20
1268.445146596494
 42
0.4142135623731
 10
-2164.981287529593
 20
1266.945146596494
 42
0.4142135623731
 10
-2163.481287529593
 20
1265.445146596494
 42
0.4142135623731
  0
LWPOLYLINE
  5
112
330
1F
100
AcDbEntity
  8
0-B_寸法
  6
Continuous
 62
     7
370
     9
100
AcDbPolyline
 90
        4
 70
     1
 43
3.0
 10
-1981.981287529594
 20
1266.945146596494
 42
0.4142135623731
 10
-1983.481287529594
 20
1268.445146596494
 42
0.4142135623731
 10
-1984.981287529593
 20
1266.945146596494
 42
0.4142135623731
 10
-1983.481287529594
 20
1265.445146596494
 42
0.4142135623731
  0
LINE
  5
113
330
1F
100
AcDbEntity
  8
0-B_寸法
  6
Continuous
 62
   120
370
     5
100
AcDbLine
 10
-1983.481287529594
 20
1266.945146596494
 30
0.0
 11
-1983.481287529594
 21
1626.945146596494
 31
0.0
  0
MTEXT
  5
114
330
1F
100
AcDbEntity
  8
0-B_寸法
  6
Continuous
 62
     7
370
   211
100
AcDbMText
 10
-261.4812875295934
 20
1267.665146596494
 30
0.0
 40
91.43999999999986
 41
539.9999999999991
 46
0.0
 71
     7
 72
     1
  1
{\fＭＳ ゴシック|b0|i0|c128|p49;枠内＝664}
 73
     1
 44
1.0
  0
LINE
  5
115
330
1F
100
AcDbEntity
  8
0-B_寸法
  6
Continuous
 62
   120
370
     5
100
AcDbLine
 10
-1983.481287529594
 20
1266.945146596494
 30
0.0
 11
2000.518712470406
 21
1266.945146596494
 31
0.0
  0
LWPOLYLINE
  5
116
330
1F
100
AcDbEntity
  8
0-B_寸法
  6
Continuous
 62
     7
370
     9
100
AcDbPolyline
 90
        4
 70
     1
 43
3.0
 10
2002.018712470406
 20
1266.945146596494
 42
0.4142135623731
 10
2000.518712470406
 20
1268.445146596494
 42
0.4142135623731
 10
1999.018712470406
 20
1266.945146596494
 42
0.4142135623731
 10
2000.518712470406
 20
1265.445146596494
 42
0.4142135623731
  0
LINE
  5
117
330
1F
100
AcDbEntity
  8
0-B_寸法
  6
Continuous
 62
   120
370
     5
100
AcDbLine
 10
2000.518712470406
 20
1266.945146596494
 30
0.0
 11
2000.518712470406
 21
1626.945146596494
 31
0.0
  0
LINE
  5
118
330
1F
100
AcDbEntity
  8
0-B_寸法
  6
Continuous
 62
   120
370
     5
100
AcDbLine
 10
2000.518712470406
 20
1266.945146596494
 30
0.0
 11
2180.518712470406
 21
1266.945146596494
 31
0.0
  0
LWPOLYLINE
  5
119
330
1F
100
AcDbEntity
  8
0-B_寸法
  6
Continuous
 62
     7
370
     9
100
AcDbPolyline
 90
        4
 70
     1
 43
3.0
 10
2182.018712470406
 20
1266.945146596494
 42
0.4142135623731
 10
2180.518712470406
 20
1268.445146596494
 42
0.4142135623731
 10
2179.018712470407
 20
1266.945146596494
 42
0.4142135623731
 10
2180.518712470406
 20
1265.445146596494
 42
0.4142135623731
  0
MTEXT
  5
11A
330
1F
100
AcDbEntity
  8
0-B_寸法
  6
Continuous
 62
     7
370
   211
100
AcDbMText
 10
2030.518712470407
 20
1267.665146596494
 30
0.0
 40
91.43999999999967
 41
119.9999999999996
 46
0.0
 71
     7
 72
     1
  1
{\fＭＳ ゴシック|b0|i0|c128|p49;30}
 73
     1
 44
1.0
  0
LINE
  5
11B
330
1F
100
AcDbEntity
  8
0-B_寸法
  6
Continuous
 62
   120
370
     5
100
AcDbLine
 10
-2163.481287529593
 20
1086.945146596494
 30
0.0
 11
2180.518712470406
 21
1086.945146596494
 31
0.0
  0
LWPOLYLINE
  5
11C
330
1F
100
AcDbEntity
  8
0-B_寸法
  6
Continuous
 62
     7
370
     9
100
AcDbPolyline
 90
        4
 70
     1
 43
3.0
 10
-2161.981287529594
 20
1086.945146596494
 42
0.4142135623731
 10
-2163.481287529593
 20
1088.445146596494
 42
0.4142135623731
 10
-2164.981287529593
 20
1086.945146596494
 42
0.4142135623731
 10
-2163.481287529593
 20
1085.445146596494
 42
0.4142135623731
  0
LWPOLYLINE
  5
11D
330
1F
100
AcDbEntity
  8
0-B_寸法
  6
Continuous
 62
     7
370
     9
100
AcDbPolyline
 90
        4
 70
     1
 43
3.0
 10
2182.018712470406
 20
1086.945146596494
 42
0.4142135623731
 10
2180.518712470406
 20
1088.445146596494
 42
0.4142135623731
 10
2179.018712470407
 20
1086.945146596494
 42
0.4142135623731
 10
2180.518712470406
 20
1085.445146596494
 42
0.4142135623731
  0
LINE
  5
11E
330
1F
100
AcDbEntity
  8
0-B_寸法
  6
Continuous
 62
   120
370
     5
100
AcDbLine
 10
-2163.481287529593
 20
1086.945146596494
 30
0.0
 11
-2163.481287529593
 21
1266.945146596494
 31
0.0
  0
LINE
  5
11F
330
1F
100
AcDbEntity
  8
0-B_寸法
  6
Continuous
 62
   120
370
     5
100
AcDbLine
 10
2180.518712470406
 20
1086.945146596494
 30
0.0
 11
2180.518712470406
 21
1266.945146596494
 31
0.0
  0
MTEXT
  5
120
330
1F
100
AcDbEntity
  8
0-B_寸法
  6
Continuous
 62
     7
370
   211
100
AcDbMText
 10
-261.4812875295934
 20
1087.665146596494
 30
0.0
 40
91.43999999999986
 41
539.9999999999991
 46
0.0
 71
     7
 72
     1
  1
{\fＭＳ ゴシック|b0|i0|c128|p49;枠外＝724}
 73
     1
 44
1.0
  0
LINE
  5
121
330
1F
100
AcDbEntity
  8
0-4_枠
  6
Continuous
 62
    92
370
    13
100
AcDbLine
 10
-2097.481287529597
 20
2190.946220485325
 30
0.0
 11
-2043.481287529594
 21
2190.946220485325
 31
0.0
  0
LINE
  5
122
330
1F
100
AcDbEntity
  8
0-4_枠
  6
Continuous
 62
    92
370
    13
100
AcDbLine
 10
-2163.481287529593
 20
2172.946220485325
 30
0.0
 11
-2133.481287529593
 21
2172.946220485325
 31
0.0
  0
LINE
  5
123
330
1F
100
AcDbEntity
  8
0-4_枠
  6
Continuous
 62
    92
370
    13
100
AcDbLine
 10
-2133.481287529593
 20
2130.946220485324
 30
0.0
 11
-2133.481287529593
 21
2172.946220485325
 31
0.0
  0
LINE
  5
124
330
1F
100
AcDbEntity
  8
0-4_枠
  6
Continuous
 62
    92
370
    13
100
AcDbLine
 10
-2097.481287529597
 20
2130.946220485324
 30
0.0
 11
-2097.481287529597
 21
2190.946220485325
 31
0.0
  0
LINE
  5
125
330
1F
100
AcDbEntity
  8
0-4_枠
  6
Continuous
 62
    92
370
    13
100
AcDbLine
 10
-2133.481287529593
 20
2130.946220485324
 30
0.0
 11
-2097.481287529597
 21
2130.946220485324
 31
0.0
  0
LINE
  5
126
330
1F
100
AcDbEntity
  8
0-4_枠
  6
Continuous
 62
    92
370
    13
100
AcDbLine
 10
-2043.481287529594
 20
2130.946220485324
 30
0.0
 11
-2043.481287529594
 21
2190.946220485325
 31
0.0
  0
LINE
  5
127
330
1F
100
AcDbEntity
  8
0-4_枠
  6
Continuous
 62
    92
370
    13
100
AcDbLine
 10
-2043.481287529594
 20
2130.946220485324
 30
0.0
 11
-2028.069244562473
 21
2130.946220485324
 31
0.0
  0
LINE
  5
128
330
1F
100
AcDbEntity
  8
0-4_枠
  6
Continuous
 62
    92
370
    13
100
AcDbLine
 10
-2028.069244562473
 20
2130.946220485324
 30
0.0
 11
-1983.481287529594
 21
2130.946220485324
 31
0.0
  0
LINE
  5
129
330
1F
100
AcDbEntity
  8
0-4_枠
  6
Continuous
 62
    92
370
    13
100
AcDbLine
 10
-1983.481287529594
 20
2130.946220485324
 30
0.0
 11
-1983.481287529594
 21
2217.945146596495
 31
0.0
  0
LINE
  5
12A
330
1F
100
AcDbEntity
  8
0-4_枠
  6
Continuous
 62
    92
370
    13
100
AcDbLine
 10
-2163.481287529593
 20
2172.946220485325
 30
0.0
 11
-2163.481287529593
 21
2592.946220485323
 31
0.0
  0
LINE
  5
12B
330
1F
100
AcDbEntity
  8
0-C_ハッチ
  6
Continuous
 62
   120
370
     5
100
AcDbLine
 10
-2163.481287529607
 20
2565.455682251163
 30
0.0
 11
-2135.990749295449
 21
2592.946220485323
 31
0.0
  0
LINE
  5
12C
330
1F
100
AcDbEntity
  8
0-C_ハッチ
  6
Continuous
 62
   120
370
     5
100
AcDbLine
 10
-2163.481287529605
 20
2446.661743011819
 30
0.0
 11
-2017.1968100561
 21
2592.946220485323
 31
0.0
  0
LINE
  5
12D
330
1F
100
AcDbEntity
  8
0-C_ハッチ
  6
Continuous
 62
   120
370
     5
100
AcDbLine
 10
-2163.481287529593
 20
2506.058712631534
 30
0.0
 11
-2076.593779675802
 21
2592.946220485323
 31
0.0
  0
LINE
  5
12E
330
1F
100
AcDbEntity
  8
0-4_枠
  6
Continuous
 62
    92
370
    13
100
AcDbLine
 10
-1983.481287529594
 20
2505.945146596495
 30
0.0
 11
-1983.481287529594
 21
2592.946220485323
 31
0.0
  0
LINE
  5
12F
330
1F
100
AcDbEntity
  8
0-4_枠
  6
Continuous
 62
    92
370
    13
100
AcDbLine
 10
-2163.481287529593
 20
2592.946220485323
 30
0.0
 11
-1983.481287529594
 21
2592.946220485323
 31
0.0
  0
LINE
  5
130
330
1F
100
AcDbEntity
  8
0-C_ハッチ
  6
Continuous
 62
   120
370
     5
100
AcDbLine
 10
-2140.211961957754
 20
2172.946220485325
 30
0.0
 11
-2013.147891665962
 21
2300.010290777117
 31
0.0
  0
LINE
  5
131
330
1F
100
AcDbEntity
  8
0-C_ハッチ
  6
Continuous
 62
   120
370
     5
100
AcDbLine
 10
-2062.814992338107
 20
2190.946220485325
 30
0.0
 11
-1999.796278123471
 21
2253.964934699961
 31
0.0
  0
LINE
  5
132
330
1F
100
AcDbEntity
  8
0-C_ハッチ
  6
Continuous
 62
   120
370
     5
100
AcDbLine
 10
-2122.814992338107
 20
2130.946220485324
 30
0.0
 11
-2097.481287529597
 21
2156.279925293836
 31
0.0
  0
LINE
  5
133
330
1F
100
AcDbEntity
  8
0-C_ハッチ
  6
Continuous
 62
   120
370
     5
100
AcDbLine
 10
-2043.481287529594
 20
2150.882955674134
 30
0.0
 11
-1983.481287529598
 21
2210.882955674133
 31
0.0
  0
LINE
  5
134
330
1F
100
AcDbEntity
  8
0-C_ハッチ
  6
Continuous
 62
   120
370
     5
100
AcDbLine
 10
-2004.021053098758
 20
2130.946220485324
 30
0.0
 11
-1983.4812875296
 21
2151.485986054481
 31
0.0
  0
LWPOLYLINE
  5
135
330
1F
100
AcDbEntity
  8
0-B_寸法
  6
Continuous
 62
     7
370
     9
100
AcDbPolyline
 90
        4
 70
     1
 43
3.0
 10
-1552.779960107842
 20
2592.946220485323
 42
0.4142135623731
 10
-1554.279960107842
 20
2594.446220485323
 42
0.4142135623731
 10
-1555.779960107842
 20
2592.946220485323
 42
0.4142135623731
 10
-1554.279960107842
 20
2591.446220485323
 42
0.4142135623731
  0
LINE
  5
136
330
1F
100
AcDbEntity
  8
0-B_寸法
  6
Continuous
 62
   120
370
     5
100
AcDbLine
 10
-1554.279960107842
 20
2592.946220485323
 30
0.0
 11
-1673.055528889514
 21
2592.946220485323
 31
0.0
  0
LWPOLYLINE
  5
137
330
1F
100
AcDbEntity
  8
0-B_寸法
  6
Continuous
 62
     7
370
     9
100
AcDbPolyline
 90
        4
 70
     1
 43
3.0
 10
-1552.779960107842
 20
2130.946220485324
 42
0.4142135623731
 10
-1554.279960107842
 20
2132.446220485324
 42
0.4142135623731
 10
-1555.779960107842
 20
2130.946220485324
 42
0.4142135623731
 10
-1554.279960107842
 20
2129.446220485324
 42
0.4142135623731
  0
LINE
  5
138
330
1F
100
AcDbEntity
  8
0-B_寸法
  6
Continuous
 62
   120
370
     5
100
AcDbLine
 10
-1554.279960107842
 20
2130.946220485324
 30
0.0
 11
-1673.055528889514
 21
2130.946220485324
 31
0.0
  0
LINE
  5
139
330
1F
100
AcDbEntity
  8
0-B_寸法
  6
Continuous
 62
   120
370
     5
100
AcDbLine
 10
-1554.279960107842
 20
2592.946220485323
 30
0.0
 11
-1554.279960107842
 21
2130.946220485324
 31
0.0
  0
ARC
  5
13A
330
1F
100
AcDbEntity
  8
0-4_枠
  6
Continuous
 62
    92
370
    13
100
AcDbCircle
 10
1730.518712470405
 20
2361.945146596495
 30
0.0
 40
306.0000000000022
100
AcDbArc
 50
331.9275130641473
 51
28.07248693585271
  0
LINE
  5
13B
330
1F
100
AcDbEntity
  8
0-4_枠
  6
Continuous
 62
    92
370
    13
100
AcDbLine
 10
2114.518712470408
 20
2190.946220485325
 30
0.0
 11
2060.518712470406
 21
2190.946220485325
 31
0.0
  0
LINE
  5
13C
330
1F
100
AcDbEntity
  8
0-4_枠
  6
Continuous
 62
    92
370
    13
100
AcDbLine
 10
2180.518712470406
 20
2172.946220485325
 30
0.0
 11
2150.518712470406
 21
2172.946220485325
 31
0.0
  0
LINE
  5
13D
330
1F
100
AcDbEntity
  8
0-4_枠
  6
Continuous
 62
    92
370
    13
100
AcDbLine
 10
2150.518712470406
 20
2130.946220485324
 30
0.0
 11
2150.518712470406
 21
2172.946220485325
 31
0.0
  0
LINE
  5
13E
330
1F
100
AcDbEntity
  8
0-4_枠
  6
Continuous
 62
    92
370
    13
100
AcDbLine
 10
2114.518712470408
 20
2130.946220485324
 30
0.0
 11
2114.518712470408
 21
2190.946220485325
 31
0.0
  0
LINE
  5
13F
330
1F
100
AcDbEntity
  8
0-4_枠
  6
Continuous
 62
    92
370
    13
100
AcDbLine
 10
2150.518712470406
 20
2130.946220485324
 30
0.0
 11
2114.518712470408
 21
2130.946220485324
 31
0.0
  0
LINE
  5
140
330
1F
100
AcDbEntity
  8
0-4_枠
  6
Continuous
 62
    92
370
    13
100
AcDbLine
 10
2060.518712470406
 20
2130.946220485324
 30
0.0
 11
2060.518712470406
 21
2190.946220485325
 31
0.0
  0
LINE
  5
141
330
1F
100
AcDbEntity
  8
0-4_枠
  6
Continuous
 62
    92
370
    13
100
AcDbLine
 10
2060.518712470406
 20
2130.946220485324
 30
0.0
 11
2045.106669503285
 21
2130.946220485324
 31
0.0
  0
LINE
  5
142
330
1F
100
AcDbEntity
  8
0-4_枠
  6
Continuous
 62
    92
370
    13
100
AcDbLine
 10
2045.106669503285
 20
2130.946220485324
 30
0.0
 11
2000.518712470406
 21
2130.946220485324
 31
0.0
  0
LINE
  5
143
330
1F
100
AcDbEntity
  8
0-4_枠
  6
Continuous
 62
    92
370
    13
100
AcDbLine
 10
2000.518712470406
 20
2130.946220485324
 30
0.0
 11
2000.518712470406
 21
2217.945146596495
 31
0.0
  0
LINE
  5
144
330
1F
100
AcDbEntity
  8
0-4_枠
  6
Continuous
 62
    92
370
    13
100
AcDbLine
 10
2180.518712470406
 20
2172.946220485325
 30
0.0
 11
2180.518712470406
 21
2592.946220485323
 31
0.0
  0
LINE
  5
145
330
1F
100
AcDbEntity
  8
0-4_枠
  6
Continuous
 62
    92
370
    13
100
AcDbLine
 10
2000.518712470406
 20
2505.945146596495
 30
0.0
 11
2000.518712470406
 21
2592.946220485323
 31
0.0
  0
LINE
  5
146
330
1F
100
AcDbEntity
  8
0-4_枠
  6
Continuous
 62
    92
370
    13
100
AcDbLine
 10
2180.518712470406
 20
2592.946220485323
 30
0.0
 11
2000.518712470406
 21
2592.946220485323
 31
0.0
  0
LINE
  5
147
330
1F
100
AcDbEntity
  8
0-C_ハッチ
  6
Continuous
 62
   120
370
     5
100
AcDbLine
 10
2129.543953806176
 20
2130.946220485325
 30
0.0
 11
2150.51871247041
 21
2151.920979149558
 31
0.0
  0
LINE
  5
148
330
1F
100
AcDbEntity
  8
0-C_ハッチ
  6
Continuous
 62
   120
370
     5
100
AcDbLine
 10
2171.543953806162
 20
2172.946220485312
 30
0.0
 11
2180.518712470423
 21
2181.92097914957
 31
0.0
  0
LINE
  5
149
330
1F
100
AcDbEntity
  8
0-C_ハッチ
  6
Continuous
 62
   120
370
     5
100
AcDbLine
 10
2114.518712470391
 20
2175.317948769243
 30
0.0
 11
2180.518712470406
 21
2241.317948769258
 31
0.0
  0
LINE
  5
14A
330
1F
100
AcDbEntity
  8
0-C_ハッチ
  6
Continuous
 62
   120
370
     5
100
AcDbLine
 10
2010.750014566823
 20
2130.946220485323
 30
0.0
 11
2060.518712470411
 21
2180.714918388909
 31
0.0
  0
LINE
  5
14B
330
1F
100
AcDbEntity
  8
0-C_ハッチ
  6
Continuous
 62
   120
370
     5
100
AcDbLine
 10
2070.750014566824
 20
2190.946220485323
 30
0.0
 11
2180.518712470413
 21
2300.714918388912
 31
0.0
  0
LINE
  5
14C
330
1F
100
AcDbEntity
  8
0-C_ハッチ
  6
Continuous
 62
   120
370
     5
100
AcDbLine
 10
2000.518712470416
 20
2180.111888008561
 30
0.0
 11
2180.518712470414
 21
2360.111888008559
 31
0.0
  0
LINE
  5
14D
330
1F
100
AcDbEntity
  8
0-C_ハッチ
  6
Continuous
 62
   120
370
     5
100
AcDbLine
 10
2017.931373101129
 20
2256.921518258976
 30
0.0
 11
2180.518712470414
 21
2419.508857628262
 31
0.0
  0
LINE
  5
14E
330
1F
100
AcDbEntity
  8
0-C_ハッチ
  6
Continuous
 62
   120
370
     5
100
AcDbLine
 10
2035.202053848594
 20
2333.589168626087
 30
0.0
 11
2180.518712470411
 21
2478.905827247906
 31
0.0
  0
LINE
  5
14F
330
1F
100
AcDbEntity
  8
0-C_ハッチ
  6
Continuous
 62
   120
370
     5
100
AcDbLine
 10
2034.964366778369
 20
2392.748451175563
 30
0.0
 11
2180.518712470411
 21
2538.302796867607
 31
0.0
  0
LINE
  5
150
330
1F
100
AcDbEntity
  8
0-C_ハッチ
  6
Continuous
 62
   120
370
     5
100
AcDbLine
 10
2025.638022908089
 20
2442.819076924931
 30
0.0
 11
2175.76516646848
 21
2592.946220485323
 31
0.0
  0
LINE
  5
151
330
1F
100
AcDbEntity
  8
0-C_ハッチ
  6
Continuous
 62
   120
370
     5
100
AcDbLine
 10
2009.99116057371
 20
2486.5691842102
 30
0.0
 11
2116.368196848821
 21
2592.946220485312
 31
0.0
  0
LINE
  5
152
330
1F
100
AcDbEntity
  8
0-C_ハッチ
  6
Continuous
 62
   120
370
     5
100
AcDbLine
 10
2000.518712470416
 20
2536.493705726607
 30
0.0
 11
2056.971227229118
 21
2592.946220485312
 31
0.0
  0
LINE
  5
153
330
1F
100
AcDbEntity
  8
0-B_寸法
  6
Continuous
 62
   120
370
     5
100
AcDbLine
 10
-2163.481287529593
 20
1266.945146596494
 30
0.0
 11
-2163.481287529593
 21
1806.945146596494
 31
0.0
  0
LINE
  5
154
330
1F
100
AcDbEntity
  8
0-B_寸法
  6
Continuous
 62
   120
370
     5
100
AcDbLine
 10
2180.518712470406
 20
1266.945146596494
 30
0.0
 11
2180.518712470406
 21
1806.945146596494
 31
0.0
  0
MTEXT
  5
155
330
1F
100
AcDbEntity
  8
0-A_文字
  6
Continuous
 62
     7
370
     9
100
AcDbMText
 10
-2728.614672439278
 20
3310.355192579907
 30
0.0
 40
100.5840000000001
 41
660.0000000000009
 46
0.0
 71
     7
 72
     1
  1
{\fＭＳ ゴシック|b0|i0|c128|p49;■横断面図}
 73
     1
 44
1.0
  0
LINE
  5
156
330
1F
100
AcDbEntity
  8
0-A_文字
  6
JWW_HOJO
 62
   120
370
     5
100
AcDbLine
 10
8.518712470407479
 20
947.6368213441567
 30
0.0
 11
2418.042521994217
 21
947.6368213441567
 31
0.0
  0
LINE
  5
157
330
1F
100
AcDbEntity
  8
0-A_文字
  6
JWW_HOJO
 62
   120
370
     5
100
AcDbLine
 10
8.518712470407479
 20
827.6368213441567
 30
0.0
 11
2418.042521994217
 21
827.6368213441567
 31
0.0
  0
LINE
  5
158
330
1F
100
AcDbEntity
  8
0-A_文字
  6
JWW_HOJO
 62
   120
370
     5
100
AcDbLine
 10
8.518712470407479
 20
707.6368213441572
 30
0.0
 11
2418.042521994217
 21
707.6368213441572
 31
0.0
  0
MTEXT
  5
159
330
1F
100
AcDbEntity
  8
0-A_文字
  6
Continuous
 62
     7
370
     9
100
AcDbMText
 10
8.518712470408332
 20
942.3820486168838
 30
0.0
 40
79.49045454545451
 41
2294.999999999999
 46
0.0
 71
     7
 72
     1
  1
{\fＭＳ ゴシック|b0|i0|c128|p49;※有効開口寸法にはハンドルの突出は含まない。}
 73
     1
 44
1.0
  0
MTEXT
  5
15A
330
1F
100
AcDbEntity
  8
0-A_文字
  6
Continuous
 62
     7
370
     9
100
AcDbMText
 10
8.518712470408332
 20
822.4301546774899
 30
0.0
 40
79.58666666666664
 41
2820.0
 46
0.0
 71
     7
 72
     1
  1
{\fＭＳ ゴシック|b0|i0|c128|p49;※有効開口寸法は扉の厚さや調整によって若干異なります。}
 73
     1
 44
1.0
  0
MTEXT
  5
15B
330
1F
100
AcDbEntity
  8
0-A_文字
  6
Continuous
 62
     7
370
     0
100
AcDbMText
 10
8.518712470407479
 20
696.926821344158
 30
0.0
 40
68.58000000000004
 41
1350.0
 46
0.0
 71
     7
 72
     1
  1
{\fＭＳ ゴシック|b0|i0|c128|p49;※扉厚（　）内はルーバーの場合}
 73
     1
 44
1.0
  0
MTEXT
  5
15C
330
1F
100
AcDbEntity
  8
0-A_文字
  6
Continuous
 62
     7
370
   211
100
AcDbMText
 10
-1023.445314592364
 20
2227.665146596493
 30
0.0
 40
91.44
 41
240.0
 46
0.0
 71
     7
 72
     1
  1
{\fＭＳ ゴシック|b0|i0|c128|p49;(24)}
 11
6.123031769111886E-17
 21
1.0
 31
0.0
 73
     1
 44
1.0
  0
LINE
  5
15D
330
1F
100
AcDbEntity
  8
0-C_ハッチ
  6
JWW_DASHED1
 62
   120
370
     5
100
AcDbLine
 10
-2145.50102537079
 20
2097.94622048533
 30
0.0
 11
-2133.481287529605
 21
2109.96595832652
 31
0.0
  0
LINE
  5
15E
330
1F
100
AcDbEntity
  8
0-C_ハッチ
  6
JWW_DASHED1
 62
   120
370
     5
100
AcDbLine
 10
-2187.927432241988
 20
2097.946220485333
 30
0.0
 11
-2133.481287529612
 21
2152.392365197711
 31
0.0
  0
LINE
  5
15F
330
1F
100
AcDbEntity
  8
0-C_ハッチ
  6
JWW_DASHED1
 62
   120
370
     5
100
AcDbLine
 10
-2230.353839113183
 20
2097.946220485337
 30
0.0
 11
-2155.353839113174
 21
2172.946220485348
 31
0.0
  0
LINE
  5
160
330
1F
100
AcDbEntity
  8
0-C_ハッチ
  6
JWW_DASHED1
 62
   120
370
     5
100
AcDbLine
 10
-2272.780245984395
 20
2097.946220485329
 30
0.0
 11
-2197.780245984402
 21
2172.946220485323
 31
0.0
  0
LINE
  5
161
330
1F
100
AcDbEntity
  8
0-C_ハッチ
  6
JWW_DASHED1
 62
   120
370
     5
100
AcDbLine
 10
-2315.206652855595
 20
2097.946220485329
 30
0.0
 11
-2240.206652855597
 21
2172.946220485323
 31
0.0
  0
LINE
  5
162
330
1F
100
AcDbEntity
  8
0-C_ハッチ
  6
JWW_DASHED1
 62
   120
370
     5
100
AcDbLine
 10
-2357.633059726788
 20
2097.946220485332
 30
0.0
 11
-2282.633059726795
 21
2172.946220485328
 31
0.0
  0
LINE
  5
163
330
1F
100
AcDbEntity
  8
0-C_ハッチ
  6
JWW_DASHED1
 62
   120
370
     5
100
AcDbLine
 10
-2400.059466597927
 20
2097.946220485341
 30
0.0
 11
-2325.059466597933
 21
2172.946220485336
 31
0.0
  0
LINE
  5
164
330
1F
100
AcDbEntity
  8
0-C_ハッチ
  6
JWW_DASHED1
 62
   120
370
     5
100
AcDbLine
 10
-2442.485873469122
 20
2097.946220485344
 30
0.0
 11
-2367.485873469127
 21
2172.946220485339
 31
0.0
  0
LINE
  5
165
330
1F
100
AcDbEntity
  8
0-C_ハッチ
  6
JWW_DASHED1
 62
   120
370
     5
100
AcDbLine
 10
-2484.912280340336
 20
2097.946220485332
 30
0.0
 11
-2409.912280340327
 21
2172.946220485344
 31
0.0
  0
LINE
  5
166
330
1F
100
AcDbEntity
  8
0-C_ハッチ
  6
JWW_DASHED1
 62
   120
370
     5
100
AcDbLine
 10
-2527.338687211533
 20
2097.946220485336
 30
0.0
 11
-2452.33868721152
 21
2172.946220485347
 31
0.0
  0
LINE
  5
167
330
1F
100
AcDbEntity
  8
0-C_ハッチ
  6
JWW_DASHED1
 62
   120
370
     5
100
AcDbLine
 10
-2569.765094082727
 20
2097.946220485341
 30
0.0
 11
-2494.765094082733
 21
2172.946220485336
 31
0.0
  0
LINE
  5
168
330
1F
100
AcDbEntity
  8
0-C_ハッチ
  6
JWW_DASHED1
 62
   120
370
     5
100
AcDbLine
 10
-2612.19150095394
 20
2097.946220485328
 30
0.0
 11
-2537.191500953947
 21
2172.946220485323
 31
0.0
  0
LINE
  5
169
330
1F
100
AcDbEntity
  8
0-C_ハッチ
  6
JWW_DASHED1
 62
   120
370
     5
100
AcDbLine
 10
-2654.617907825136
 20
2097.946220485331
 30
0.0
 11
-2579.61790782514
 21
2172.946220485328
 31
0.0
  0
LINE
  5
16A
330
1F
100
AcDbEntity
  8
0-C_ハッチ
  6
JWW_DASHED1
 62
   120
370
     5
100
AcDbLine
 10
-2697.044314696333
 20
2097.946220485336
 30
0.0
 11
-2622.044314696336
 21
2172.94622048533
 31
0.0
  0
LINE
  5
16B
330
1F
100
AcDbEntity
  8
0-3_仕上げ
  6
Continuous
 62
    40
370
    15
100
AcDbLine
 10
-2133.481287529612
 20
2172.946220485325
 30
0.0
 11
-2133.481287529612
 21
2097.946220485324
 31
0.0
  0
LINE
  5
16C
330
1F
100
AcDbEntity
  8
0-3_仕上げ
  6
Continuous
 62
    40
370
    15
100
AcDbLine
 10
-2763.481089577737
 20
2172.946220485325
 30
0.0
 11
-2133.481287529593
 21
2172.946220485325
 31
0.0
  0
LINE
  5
16D
330
1F
100
AcDbEntity
  8
0-3_仕上げ
  6
Continuous
 62
    40
370
    15
100
AcDbLine
 10
-2763.481089577737
 20
2097.946220485324
 30
0.0
 11
-2133.481287529593
 21
2097.946220485324
 31
0.0
  0
LINE
  5
16E
330
1F
100
AcDbEntity
  8
0-C_ハッチ
  6
JWW_DASHED1
 62
   120
370
     5
100
AcDbLine
 10
-2763.481089577737
 20
2116.362259346277
 30
0.0
 11
-2706.897128438672
 21
2172.946220485343
 31
0.0
  0
LINE
  5
16F
330
1F
100
AcDbEntity
  8
0-C_ハッチ
  6
JWW_DASHED1
 62
   120
370
     5
100
AcDbLine
 10
-2739.470721567487
 20
2097.946220485324
 30
0.0
 11
-2664.470721567474
 21
2172.946220485339
 31
0.0
  0
LINE
  5
170
330
1F
100
AcDbEntity
  8
0-C_ハッチ
  6
JWW_DASHED1
 62
   120
370
     5
100
AcDbLine
 10
2653.645962934963
 20
2097.946220485337
 30
0.0
 11
2728.645962934974
 21
2172.946220485349
 31
0.0
  0
LINE
  5
171
330
1F
100
AcDbEntity
  8
0-C_ハッチ
  6
JWW_DASHED1
 62
   120
370
     5
100
AcDbLine
 10
2611.219556063754
 20
2097.946220485329
 30
0.0
 11
2686.219556063748
 21
2172.946220485323
 31
0.0
  0
LINE
  5
172
330
1F
100
AcDbEntity
  8
0-C_ハッチ
  6
JWW_DASHED1
 62
   120
370
     5
100
AcDbLine
 10
2568.793149192555
 20
2097.946220485329
 30
0.0
 11
2643.79314919255
 21
2172.946220485325
 31
0.0
  0
LINE
  5
173
330
1F
100
AcDbEntity
  8
0-C_ハッチ
  6
JWW_DASHED1
 62
   120
370
     5
100
AcDbLine
 10
2526.366742321358
 20
2097.946220485333
 30
0.0
 11
2601.366742321353
 21
2172.946220485328
 31
0.0
  0
LINE
  5
174
330
1F
100
AcDbEntity
  8
0-C_ハッチ
  6
JWW_DASHED1
 62
   120
370
     5
100
AcDbLine
 10
2483.940335450221
 20
2097.946220485341
 30
0.0
 11
2558.940335450216
 21
2172.946220485337
 31
0.0
  0
LINE
  5
175
330
1F
100
AcDbEntity
  8
0-C_ハッチ
  6
JWW_DASHED1
 62
   120
370
     5
100
AcDbLine
 10
2441.513928579025
 20
2097.946220485346
 30
0.0
 11
2516.51392857902
 21
2172.946220485341
 31
0.0
  0
LINE
  5
176
330
1F
100
AcDbEntity
  8
0-C_ハッチ
  6
JWW_DASHED1
 62
   120
370
     5
100
AcDbLine
 10
2399.087521707812
 20
2097.946220485333
 30
0.0
 11
2474.087521707823
 21
2172.946220485344
 31
0.0
  0
LINE
  5
177
330
1F
100
AcDbEntity
  8
0-C_ハッチ
  6
JWW_DASHED1
 62
   120
370
     5
100
AcDbLine
 10
2356.661114836616
 20
2097.946220485336
 30
0.0
 11
2431.661114836628
 21
2172.946220485348
 31
0.0
  0
LINE
  5
178
330
1F
100
AcDbEntity
  8
0-C_ハッチ
  6
JWW_DASHED1
 62
   120
370
     5
100
AcDbLine
 10
2314.23470796542
 20
2097.946220485341
 30
0.0
 11
2389.234707965415
 21
2172.946220485335
 31
0.0
  0
LINE
  5
179
330
1F
100
AcDbEntity
  8
0-C_ハッチ
  6
JWW_DASHED1
 62
   120
370
     5
100
AcDbLine
 10
2271.808301094207
 20
2097.946220485328
 30
0.0
 11
2346.808301094202
 21
2172.946220485323
 31
0.0
  0
LINE
  5
17A
330
1F
100
AcDbEntity
  8
0-C_ハッチ
  6
JWW_DASHED1
 62
   120
370
     5
100
AcDbLine
 10
2229.381894223011
 20
2097.946220485332
 30
0.0
 11
2304.381894223006
 21
2172.946220485328
 31
0.0
  0
LINE
  5
17B
330
1F
100
AcDbEntity
  8
0-C_ハッチ
  6
JWW_DASHED1
 62
   120
370
     5
100
AcDbLine
 10
2186.955487351815
 20
2097.946220485335
 30
0.0
 11
2261.95548735181
 21
2172.94622048533
 31
0.0
  0
LINE
  5
17C
330
1F
100
AcDbEntity
  8
0-C_ハッチ
  6
JWW_DASHED1
 62
   120
370
     5
100
AcDbLine
 10
2150.518712470389
 20
2103.935852475056
 30
0.0
 11
2219.529080480672
 21
2172.946220485339
 31
0.0
  0
LINE
  5
17D
330
1F
100
AcDbEntity
  8
0-C_ハッチ
  6
JWW_DASHED1
 62
   120
370
     5
100
AcDbLine
 10
2150.518712470393
 20
2146.362259346259
 30
0.0
 11
2177.102673609476
 21
2172.946220485342
 31
0.0
  0
LINE
  5
17E
330
1F
100
AcDbEntity
  8
0-3_仕上げ
  6
Continuous
 62
    40
370
    15
100
AcDbLine
 10
2150.518712470406
 20
2097.946220485325
 30
0.0
 11
2150.518712470406
 21
2172.946220485325
 31
0.0
  0
LINE
  5
17F
330
1F
100
AcDbEntity
  8
0-3_仕上げ
  6
Continuous
 62
    40
370
    15
100
AcDbLine
 10
2150.518712470406
 20
2097.946220485325
 30
0.0
 11
2780.518514518553
 21
2097.946220485325
 31
0.0
  0
LINE
  5
180
330
1F
100
AcDbEntity
  8
0-C_ハッチ
  6
JWW_DASHED1
 62
   120
370
     5
100
AcDbLine
 10
2738.498776677356
 20
2097.94622048533
 30
0.0
 11
2780.518514518553
 21
2139.965958326531
 31
0.0
  0
LINE
  5
181
330
1F
100
AcDbEntity
  8
0-C_ハッチ
  6
JWW_DASHED1
 62
   120
370
     5
100
AcDbLine
 10
2696.07236980616
 20
2097.946220485334
 30
0.0
 11
2771.07236980615
 21
2172.946220485325
 31
0.0
  0
LINE
  5
182
330
1F
100
AcDbEntity
  8
0-3_仕上げ
  6
Continuous
 62
    40
370
    15
100
AcDbLine
 10
2150.518712470406
 20
2172.946220485325
 30
0.0
 11
2780.518514518553
 21
2172.946220485325
 31
0.0
  0
LINE
  5
183
330
1F
100
AcDbEntity
  8
0-3_仕上げ
  6
Continuous
 62
    40
370
    15
100
AcDbLine
 10
-1671.481536949099
 20
-429.8298970615522
 30
0.0
 11
-1671.481536949099
 21
2.000074026089464
 31
0.0
  0
LINE
  5
184
330
1F
100
AcDbEntity
  8
0-B_寸法
  6
Continuous
 62
   120
370
     5
100
AcDbLine
 10
-1449.481135354068
 20
-381.8298970615537
 30
0.0
 11
-687.4810239122615
 21
-381.8298970615537
 31
0.0
  0
LWPOLYLINE
  5
185
330
1F
100
AcDbEntity
  8
0-B_寸法
  6
Continuous
 62
     7
370
     9
100
AcDbPolyline
 90
        4
 70
     1
 43
3.0
 10
-685.9810239122615
 20
-381.8298970615537
 42
0.4142135623731
 10
-687.4810239122615
 20
-380.3298970615537
 42
0.4142135623731
 10
-688.9810239122615
 20
-381.8298970615537
 42
0.4142135623731
 10
-687.4810239122615
 20
-383.3298970615537
 42
0.4142135623731
  0
LINE
  5
186
330
1F
100
AcDbEntity
  8
0-B_寸法
  6
Continuous
 62
   120
370
     5
100
AcDbLine
 10
-1107.481023912259
 20
-597.8289023534683
 30
0.0
 11
-897.4810239122589
 21
-597.8289023534683
 31
0.0
  0
LWPOLYLINE
  5
187
330
1F
100
AcDbEntity
  8
0-B_寸法
  6
Continuous
 62
     7
370
     9
100
AcDbPolyline
 90
        4
 70
     1
 43
3.0
 10
-895.9810239122589
 20
-597.8289023534683
 42
0.4142135623731
 10
-897.4810239122589
 20
-596.3289023534683
 42
0.4142135623731
 10
-898.981023912259
 20
-597.8289023534683
 42
0.4142135623731
 10
-897.4810239122589
 20
-599.3289023534683
 42
0.4142135623731
  0
LWPOLYLINE
  5
188
330
1F
100
AcDbEntity
  8
0-B_寸法
  6
Continuous
 62
     7
370
     9
100
AcDbPolyline
 90
        4
 70
     1
 43
3.0
 10
-895.9810239122589
 20
-381.8298970615537
 42
0.4142135623731
 10
-897.4810239122589
 20
-380.3298970615537
 42
0.4142135623731
 10
-898.981023912259
 20
-381.8298970615537
 42
0.4142135623731
 10
-897.4810239122589
 20
-383.3298970615537
 42
0.4142135623731
  0
LWPOLYLINE
  5
189
330
1F
100
AcDbEntity
  8
0-B_寸法
  6
Continuous
 62
     7
370
     9
100
AcDbPolyline
 90
        4
 70
     1
 43
3.0
 10
-1105.981023912259
 20
-597.8292735132018
 42
0.4142135623731
 10
-1107.481023912259
 20
-596.3292735132018
 42
0.4142135623731
 10
-1108.981023912259
 20
-597.8292735132018
 42
0.4142135623731
 10
-1107.481023912259
 20
-599.3292735132019
 42
0.4142135623731
  0
LWPOLYLINE
  5
18A
330
1F
100
AcDbEntity
  8
0-B_寸法
  6
Continuous
 62
     7
370
     9
100
AcDbPolyline
 90
        4
 70
     1
 43
3.0
 10
-1105.981023912259
 20
-642.8294219770955
 42
0.4142135623731
 10
-1107.481023912259
 20
-641.3294219770955
 42
0.4142135623731
 10
-1108.981023912259
 20
-642.8294219770955
 42
0.4142135623731
 10
-1107.481023912259
 20
-644.3294219770956
 42
0.4142135623731
  0
LINE
  5
18B
330
1F
100
AcDbEntity
  8
0-B_寸法
  6
Continuous
 62
   120
370
     5
100
AcDbLine
 10
-1317.481147377893
 20
-642.8294219770955
 30
0.0
 11
-1107.481023912259
 21
-642.8294219770955
 31
0.0
  0
LWPOLYLINE
  5
18C
330
1F
100
AcDbEntity
  8
0-B_寸法
  6
Continuous
 62
     7
370
     9
100
AcDbPolyline
 90
        4
 70
     1
 43
3.0
 10
-685.9810239122615
 20
-3309.830305131138
 42
0.4142135623731
 10
-687.4810239122615
 20
-3308.330305131138
 42
0.4142135623731
 10
-688.9810239122615
 20
-3309.830305131138
 42
0.4142135623731
 10
-687.4810239122615
 20
-3311.330305131138
 42
0.4142135623731
  0
LINE
  5
18D
330
1F
100
AcDbEntity
  8
0-B_寸法
  6
Continuous
 62
   120
370
     5
100
AcDbLine
 10
-1317.481147377893
 20
-3309.830305131138
 30
0.0
 11
-687.4810239122615
 21
-3309.830305131138
 31
0.0
  0
LWPOLYLINE
  5
18E
330
1F
100
AcDbEntity
  8
0-B_寸法
  6
Continuous
 62
     7
370
     9
100
AcDbPolyline
 90
        4
 70
     1
 43
3.0
 10
-895.9810239122589
 20
-3309.830305131138
 42
0.4142135623731
 10
-897.4810239122589
 20
-3308.330305131138
 42
0.4142135623731
 10
-898.981023912259
 20
-3309.830305131138
 42
0.4142135623731
 10
-897.4810239122589
 20
-3311.330305131138
 42
0.4142135623731
  0
LINE
  5
18F
330
1F
100
AcDbEntity
  8
0-3_仕上げ
  6
Continuous
 62
     7
370
     9
100
AcDbLine
 10
-2553.480365229945
 20
-3357.83053772457
 30
0.0
 11
-1317.48036522993
 21
-3357.83053772457
 31
0.0
  0
LINE
  5
190
330
1F
100
AcDbEntity
  8
0-3_仕上げ
  6
Continuous
 62
     7
370
     9
100
AcDbLine
 10
-2553.480365229945
 20
-3345.830572366145
 30
0.0
 11
-1317.48036522993
 21
-3345.830572366145
 31
0.0
  0
LINE
  5
191
330
1F
100
AcDbEntity
  8
0-3_仕上げ
  6
Continuous
 62
     7
370
     9
100
AcDbLine
 10
-2553.480365229945
 20
-3369.830688662865
 30
0.0
 11
-1317.48036522993
 21
-3369.830688662865
 31
0.0
  0
LINE
  5
192
330
1F
100
AcDbEntity
  8
0-3_仕上げ
  6
Continuous
 62
    40
370
    15
100
AcDbLine
 10
-2553.480365229945
 20
-3381.830654021288
 30
0.0
 11
-1317.48036522993
 21
-3381.830654021288
 31
0.0
  0
LINE
  5
193
330
1F
100
AcDbEntity
  8
0-3_仕上げ
  6
Continuous
 62
     7
370
     9
100
AcDbLine
 10
-2553.480365229945
 20
-3333.830607007721
 30
0.0
 11
-1317.48036522993
 21
-3333.830607007721
 31
0.0
  0
LINE
  5
194
330
1F
100
AcDbEntity
  8
0-3_仕上げ
  6
Continuous
 62
     7
370
     9
100
AcDbLine
 10
-2553.480365229945
 20
-3321.830456069428
 30
0.0
 11
-1317.48036522993
 21
-3321.830456069428
 31
0.0
  0
LINE
  5
195
330
1F
100
AcDbEntity
  8
0-3_仕上げ
  6
Continuous
 62
    40
370
    15
100
AcDbLine
 10
-1317.48036522993
 20
-3309.830676290871
 30
0.0
 11
-2553.480365229945
 21
-3309.830676290871
 31
0.0
  0
LWPOLYLINE
  5
196
330
1F
100
AcDbEntity
  8
0-B_寸法
  6
Continuous
 62
     7
370
     9
100
AcDbPolyline
 90
        4
 70
     1
 43
3.0
 10
-895.9810239122589
 20
-3279.830676290871
 42
0.4142135623731
 10
-897.4810239122589
 20
-3278.330676290871
 42
0.4142135623731
 10
-898.981023912259
 20
-3279.830676290871
 42
0.4142135623731
 10
-897.4810239122589
 20
-3281.33067629087
 42
0.4142135623731
  0
LINE
  5
197
330
1F
100
AcDbEntity
  8
0-B_寸法
  6
Continuous
 62
   120
370
     5
100
AcDbLine
 10
-1317.481147377893
 20
-3279.830676290871
 30
0.0
 11
-897.4810239122589
 21
-3279.830676290871
 31
0.0
  0
LWPOLYLINE
  5
198
330
1F
100
AcDbEntity
  8
0-B_寸法
  6
Continuous
 62
     7
370
     9
100
AcDbPolyline
 90
        4
 70
     1
 43
3.0
 10
-1105.981023912259
 20
-3279.830676290871
 42
0.4142135623731
 10
-1107.481023912259
 20
-3278.330676290871
 42
0.4142135623731
 10
-1108.981023912259
 20
-3279.830676290871
 42
0.4142135623731
 10
-1107.481023912259
 20
-3281.33067629087
 42
0.4142135623731
  0
LWPOLYLINE
  5
199
330
1F
100
AcDbEntity
  8
0-B_寸法
  6
Continuous
 62
     7
370
     9
100
AcDbPolyline
 90
        4
 70
     1
 43
3.0
 10
-1105.981023912259
 20
-3240.830676290871
 42
0.4142135623731
 10
-1107.481023912259
 20
-3239.330676290871
 42
0.4142135623731
 10
-1108.981023912259
 20
-3240.830676290871
 42
0.4142135623731
 10
-1107.481023912259
 20
-3242.330676290871
 42
0.4142135623731
  0
LINE
  5
19A
330
1F
100
AcDbEntity
  8
0-B_寸法
  6
Continuous
 62
   120
370
     5
100
AcDbLine
 10
-1317.481147377893
 20
-3240.830676290871
 30
0.0
 11
-1107.481023912259
 21
-3240.830676290871
 31
0.0
  0
MTEXT
  5
19B
330
1F
100
AcDbEntity
  8
0-A_文字
  6
Continuous
 62
     7
370
     9
100
AcDbMText
 10
-2763.481089566528
 20
198.8083809722606
 30
0.0
 40
91.44
 41
600.0
 46
0.0
 71
     7
 72
     1
  1
{\fＭＳ ゴシック|b0|i0|c128|p49;■縦断面図}
 73
     1
 44
1.0
  0
MTEXT
  5
19C
330
1F
100
AcDbEntity
  8
0-A_文字
  6
Continuous
 62
     7
370
     9
100
AcDbMText
 10
-2763.481089566523
 20
50.28811580481646
 30
0.0
 40
91.43999999999994
 41
1439.999999999999
 46
0.0
 71
     7
 72
     1
  1
{\fＭＳ ゴシック|b0|i0|c128|p49;　[３方枠＋床直付レール]}
 73
     1
 44
1.0
  0
LINE
  5
19D
330
1F
100
AcDbEntity
  8
0-B_寸法
  6
Continuous
 62
   120
370
     5
100
AcDbLine
 10
-1317.481147377893
 20
-3381.830282861554
 30
0.0
 11
-687.480225637918
 21
-3381.830282861554
 31
0.0
  0
LWPOLYLINE
  5
19E
330
1F
100
AcDbEntity
  8
0-B_寸法
  6
Continuous
 62
     7
370
     9
100
AcDbPolyline
 90
        4
 70
     1
 43
3.0
 10
-685.980225637918
 20
-3381.830282861554
 42
0.4142135623731
 10
-687.480225637918
 20
-3380.330282861554
 42
0.4142135623731
 10
-688.9802256379181
 20
-3381.830282861554
 42
0.4142135623731
 10
-687.480225637918
 20
-3383.330282861554
 42
0.4142135623731
  0
LINE
  5
19F
330
1F
100
AcDbEntity
  8
0-B_寸法
  6
Continuous
 62
   120
370
     5
100
AcDbLine
 10
-1107.481023912259
 20
-3279.830676290871
 30
0.0
 11
-1107.481023912259
 21
-597.8292735132018
 31
0.0
  0
LINE
  5
1A0
330
1F
100
AcDbEntity
  8
0-B_寸法
  6
Continuous
 62
   120
370
     5
100
AcDbLine
 10
-897.4810239122589
 20
-3309.830305131138
 30
0.0
 11
-897.4810239122589
 21
-381.8298970615537
 31
0.0
  0
LINE
  5
1A1
330
1F
100
AcDbEntity
  8
0-B_寸法
  6
Continuous
 62
   120
370
     5
100
AcDbLine
 10
-2898.480987632694
 20
-3381.830282861554
 30
0.0
 11
-2553.48114737791
 21
-3381.830282861554
 31
0.0
  0
LWPOLYLINE
  5
1A2
330
1F
100
AcDbEntity
  8
0-B_寸法
  6
Continuous
 62
     7
370
     9
100
AcDbPolyline
 90
        4
 70
     1
 43
3.0
 10
-2896.980987632694
 20
-3381.830282861554
 42
0.4142135623731
 10
-2898.480987632694
 20
-3380.330282861554
 42
0.4142135623731
 10
-2899.980987632694
 20
-3381.830282861554
 42
0.4142135623731
 10
-2898.480987632694
 20
-3383.330282861554
 42
0.4142135623731
  0
LINE
  5
1A3
330
1F
100
AcDbEntity
  8
0-0_補助線
  6
JWW_HOJO
 62
   120
370
     5
100
AcDbLine
 10
-2898.480189358388
 20
-3381.830282835163
 30
0.0
 11
-687.480225637918
 21
-3381.830282835163
 31
0.0
  0
LINE
  5
1A4
330
1F
100
AcDbEntity
  8
0-1_通り芯
  6
JWW_CENTER1
 62
   120
370
     5
100
AcDbLine
 10
-1935.480987632694
 20
-3465.660624902809
 30
0.0
 11
-1935.480987632694
 21
-99.82988221516635
 31
0.0
  0
LINE
  5
1A5
330
1F
100
AcDbEntity
  8
0-B_寸法
  6
Continuous
 62
   120
370
     5
100
AcDbLine
 10
-2898.480987632694
 20
-351.8298970615537
 30
0.0
 11
-2226.480941856325
 21
-351.8298970615537
 31
0.0
  0
LINE
  5
1A6
330
1F
100
AcDbEntity
  8
0-B_寸法
  6
Continuous
 62
   120
370
     5
100
AcDbLine
 10
-687.4810239122615
 20
-351.8298970615537
 30
0.0
 11
-1317.481023912259
 21
-351.8298970615537
 31
0.0
  0
LWPOLYLINE
  5
1A7
330
1F
100
AcDbEntity
  8
0-B_寸法
  6
Continuous
 62
     7
370
     9
100
AcDbPolyline
 90
        4
 70
     1
 43
3.0
 10
-685.9810239122615
 20
-351.8298970615537
 42
0.4142135623731
 10
-687.4810239122615
 20
-350.3298970615537
 42
0.4142135623731
 10
-688.9810239122615
 20
-351.8298970615537
 42
0.4142135623731
 10
-687.4810239122615
 20
-353.3298970615537
 42
0.4142135623731
  0
LWPOLYLINE
  5
1A8
330
1F
100
AcDbEntity
  8
0-B_寸法
  6
Continuous
 62
     7
370
     9
100
AcDbPolyline
 90
        4
 70
     1
 43
3.0
 10
-2896.980987632694
 20
-351.8298970615537
 42
0.4142135623731
 10
-2898.480987632694
 20
-350.3298970615537
 42
0.4142135623731
 10
-2899.980987632694
 20
-351.8298970615537
 42
0.4142135623731
 10
-2898.480987632694
 20
-353.3298970615537
 42
0.4142135623731
  0
LINE
  5
1A9
330
1F
100
AcDbEntity
  8
0-B_寸法
  6
Continuous
 62
   120
370
     5
100
AcDbLine
 10
-687.4810239122615
 20
-3381.830282861554
 30
0.0
 11
-687.4810239122615
 21
-351.8298970615537
 31
0.0
  0
LINE
  5
1AA
330
1F
100
AcDbEntity
  8
0-B_寸法
  6
Continuous
 62
   120
370
     5
100
AcDbLine
 10
-2898.480987632694
 20
-351.8298970615537
 30
0.0
 11
-2898.480987632694
 21
-3381.830282861554
 31
0.0
  0
MTEXT
  5
1AB
330
1F
100
AcDbEntity
  8
0-A_文字
  6
Continuous
 62
     7
370
   211
100
AcDbMText
 10
-2087.280987632697
 20
-2985.712628160513
 30
0.0
 40
91.44000000000129
 41
240.0000000000034
 46
0.0
 71
     7
 72
     1
  1
{\fＭＳ ゴシック|b0|i0|c128|p49;27.4}
 73
     1
 44
1.0
  0
LINE
  5
1AC
330
1F
100
AcDbEntity
  8
0-B_寸法
  6
Continuous
 62
   120
370
     5
100
AcDbLine
 10
-1317.481089577699
 20
-381.8298424186697
 30
0.0
 11
-1317.481089577699
 21
-597.8296593132009
 31
0.0
  0
LWPOLYLINE
  5
1AD
330
1F
100
AcDbEntity
  8
0-B_寸法
  6
Continuous
 62
     7
370
     9
100
AcDbPolyline
 90
        4
 70
     1
 43
3.0
 10
-1315.981089577699
 20
-381.8298424186697
 42
0.4142135623731
 10
-1317.481089577699
 20
-380.3298424186697
 42
0.4142135623731
 10
-1318.981089577698
 20
-381.8298424186697
 42
0.4142135623731
 10
-1317.481089577699
 20
-383.3298424186698
 42
0.4142135623731
  0
LWPOLYLINE
  5
1AE
330
1F
100
AcDbEntity
  8
0-B_寸法
  6
Continuous
 62
     7
370
     9
100
AcDbPolyline
 90
        4
 70
     1
 43
3.0
 10
-1315.981089577699
 20
-483.829842418669
 42
0.4142135623731
 10
-1317.481089577699
 20
-482.329842418669
 42
0.4142135623731
 10
-1318.981089577698
 20
-483.829842418669
 42
0.4142135623731
 10
-1317.481089577699
 20
-485.3298424186691
 42
0.4142135623731
  0
LWPOLYLINE
  5
1AF
330
1F
100
AcDbEntity
  8
0-B_寸法
  6
Continuous
 62
     7
370
     9
100
AcDbPolyline
 90
        4
 70
     1
 43
3.0
 10
-1315.981089577699
 20
-537.8298424186689
 42
0.4142135623731
 10
-1317.481089577699
 20
-536.3298424186689
 42
0.4142135623731
 10
-1318.981089577698
 20
-537.8298424186689
 42
0.4142135623731
 10
-1317.481089577699
 20
-539.329842418669
 42
0.4142135623731
  0
LWPOLYLINE
  5
1B0
330
1F
100
AcDbEntity
  8
0-B_寸法
  6
Continuous
 62
     7
370
     9
100
AcDbPolyline
 90
        4
 70
     1
 43
3.0
 10
-1315.981089577699
 20
-597.8296593132009
 42
0.4142135623731
 10
-1317.481089577699
 20
-596.3296593132009
 42
0.4142135623731
 10
-1318.981089577698
 20
-597.8296593132009
 42
0.4142135623731
 10
-1317.481089577699
 20
-599.329659313201
 42
0.4142135623731
  0
LWPOLYLINE
  5
1B1
330
1F
100
AcDbEntity
  8
0-B_寸法
  6
Continuous
 62
     7
370
     9
100
AcDbPolyline
 90
        4
 70
     1
 43
3.0
 10
-1315.981089577699
 20
-429.8298424186683
 42
0.4142135623731
 10
-1317.481089577699
 20
-428.3298424186683
 42
0.4142135623731
 10
-1318.981089577698
 20
-429.8298424186683
 42
0.4142135623731
 10
-1317.481089577699
 20
-431.3298424186683
 42
0.4142135623731
  0
LINE
  5
1B2
330
1F
100
AcDbEntity
  8
0-B_寸法
  6
Continuous
 62
   120
370
     5
100
AcDbLine
 10
-1428.97539016953
 20
-537.8298424186689
 30
0.0
 11
-1449.481135354068
 21
-537.8298424186689
 31
0.0
  0
LINE
  5
1B3
330
1F
100
AcDbEntity
  8
0-B_寸法
  6
Continuous
 62
   120
370
     5
100
AcDbLine
 10
-1317.481089577699
 20
-537.8298424186689
 30
0.0
 11
-1330.013379699705
 21
-537.8298424186689
 31
0.0
  0
LINE
  5
1B4
330
1F
100
AcDbEntity
  8
0-B_寸法
  6
Continuous
 62
   120
370
     5
100
AcDbLine
 10
-1317.481089577699
 20
-483.829842418669
 30
0.0
 11
-1449.481135354068
 21
-483.829842418669
 31
0.0
  0
LINE
  5
1B5
330
1F
100
AcDbEntity
  8
0-B_寸法
  6
Continuous
 62
   120
370
     5
100
AcDbLine
 10
-1428.97539016953
 20
-429.8298424186683
 30
0.0
 11
-1449.481135354068
 21
-429.8298424186683
 31
0.0
  0
LINE
  5
1B6
330
1F
100
AcDbEntity
  8
0-B_寸法
  6
Continuous
 62
   120
370
     5
100
AcDbLine
 10
-1317.481089577699
 20
-429.8298424186683
 30
0.0
 11
-1330.013379699705
 21
-429.8298424186683
 31
0.0
  0
LINE
  5
1B7
330
1F
100
AcDbEntity
  8
0-4_枠
  6
Continuous
 62
    92
370
    13
100
AcDbLine
 10
-2166.481536949099
 20
-597.8297139560848
 30
0.0
 11
-2019.4822132234
 21
-597.8297139560848
 31
0.0
  0
LINE
  5
1B8
330
1F
100
AcDbEntity
  8
0-4_枠
  6
Continuous
 62
    92
370
    13
100
AcDbLine
 10
-2019.4822132234
 20
-597.8297139560848
 30
0.0
 11
-2019.4822132234
 21
-477.829256192413
 31
0.0
  0
LINE
  5
1B9
330
1F
100
AcDbEntity
  8
0-4_枠
  6
Continuous
 62
    92
370
    13
100
AcDbLine
 10
-2019.4822132234
 20
-477.829256192413
 30
0.0
 11
-1851.481960380496
 21
-477.829256192413
 31
0.0
  0
LINE
  5
1BA
330
1F
100
AcDbEntity
  8
0-4_枠
  6
Continuous
 62
    92
370
    13
100
AcDbLine
 10
-1851.481960380496
 20
-477.829256192413
 30
0.0
 11
-1851.481960380496
 21
-597.8297139560848
 31
0.0
  0
LINE
  5
1BB
330
1F
100
AcDbEntity
  8
0-7_金物
  6
Continuous
 62
     7
370
     9
100
AcDbLine
 10
-2001.661349380435
 20
-584.6174642002247
 30
0.0
 11
-2001.661349380435
 21
-518.6174642002255
 31
0.0
  0
LINE
  5
1BC
330
1F
100
AcDbEntity
  8
0-7_金物
  6
Continuous
 62
     7
370
     9
100
AcDbLine
 10
-2001.661349380435
 20
-518.6174642002255
 30
0.0
 11
-1965.482183540286
 21
-518.6174642002255
 31
0.0
  0
LINE
  5
1BD
330
1F
100
AcDbEntity
  8
0-7_金物
  6
Continuous
 62
     7
370
     9
100
AcDbLine
 10
-1965.482183540286
 20
-597.8297139560848
 30
0.0
 11
-1965.482183540286
 21
-501.8292561924137
 31
0.0
  0
LINE
  5
1BE
330
1F
100
AcDbEntity
  8
0-7_金物
  6
Continuous
 62
     7
370
     9
100
AcDbLine
 10
-1965.482183540286
 20
-501.8292561924137
 30
0.0
 11
-1905.480495536746
 21
-501.8292561924137
 31
0.0
  0
LINE
  5
1BF
330
1F
100
AcDbEntity
  8
0-7_金物
  6
Continuous
 62
     7
370
     9
100
AcDbLine
 10
-1905.480495536746
 20
-501.8292561924137
 30
0.0
 11
-1905.480495536746
 21
-597.8297139560848
 31
0.0
  0
LINE
  5
1C0
330
1F
100
AcDbEntity
  8
0-7_金物
  6
Continuous
 62
     7
370
     9
100
AcDbLine
 10
-1869.662101829471
 20
-518.6174642002255
 30
0.0
 11
-1869.662101829471
 21
-584.6174642002247
 31
0.0
  0
LINE
  5
1C1
330
1F
100
AcDbEntity
  8
0-7_金物
  6
Continuous
 62
     7
370
     9
100
AcDbLine
 10
-1905.480495536746
 20
-518.6174642002255
 30
0.0
 11
-1869.662101829471
 21
-518.6174642002255
 31
0.0
  0
LINE
  5
1C2
330
1F
100
AcDbEntity
  8
0-7_金物
  6
Continuous
 62
     7
370
     9
100
AcDbLine
 10
-1851.481960380496
 20
-597.8297139560848
 30
0.0
 11
-1833.482189262331
 21
-597.8297139560848
 31
0.0
  0
LINE
  5
1C3
330
1F
100
AcDbEntity
  8
0-7_金物
  6
Continuous
 62
     7
370
     9
100
AcDbLine
 10
-1870.486076438846
 20
-603.8298055088185
 30
0.0
 11
-1870.486076438846
 21
-597.8297139560848
 31
0.0
  0
LINE
  5
1C4
330
1F
100
AcDbEntity
  8
0-7_金物
  6
Continuous
 62
     7
370
     9
100
AcDbLine
 10
-1863.482292259158
 20
-597.8297139560848
 30
0.0
 11
-1870.486076438846
 21
-597.8297139560848
 31
0.0
  0
LINE
  5
1C5
330
1F
100
AcDbEntity
  8
0-7_金物
  6
Continuous
 62
     7
370
     9
100
AcDbLine
 10
-2019.4822132234
 20
-597.8297139560848
 30
0.0
 11
-2037.480491245211
 21
-597.8297139560848
 31
0.0
  0
LINE
  5
1C6
330
1F
100
AcDbEntity
  8
0-7_金物
  6
Continuous
 62
     7
370
     9
100
AcDbLine
 10
-1999.695689285219
 20
-603.8298055088185
 30
0.0
 11
-1999.695689285219
 21
-597.8297139560848
 31
0.0
  0
LINE
  5
1C7
330
1F
100
AcDbEntity
  8
0-7_金物
  6
Continuous
 62
     7
370
     9
100
AcDbLine
 10
-1999.695689285219
 20
-597.8297139560848
 30
0.0
 11
-2007.482619846287
 21
-597.8297139560848
 31
0.0
  0
LINE
  5
1C8
330
1F
100
AcDbEntity
  8
0-7_金物
  6
Continuous
 62
     7
370
     9
100
AcDbLine
 10
-1833.482189262331
 20
-597.8297139560848
 30
0.0
 11
-1833.482189262331
 21
-603.8298055088185
 31
0.0
  0
LINE
  5
1C9
330
1F
100
AcDbEntity
  8
0-7_金物
  6
Continuous
 62
     7
370
     9
100
AcDbLine
 10
-1999.695689285219
 20
-603.8298055088185
 30
0.0
 11
-2037.480491245211
 21
-603.8298055088185
 31
0.0
  0
LINE
  5
1CA
330
1F
100
AcDbEntity
  8
0-7_金物
  6
Continuous
 62
     7
370
     9
100
AcDbLine
 10
-2037.480491245211
 20
-597.8297139560848
 30
0.0
 11
-2037.480491245211
 21
-603.8298055088185
 31
0.0
  0
LINE
  5
1CB
330
1F
100
AcDbEntity
  8
0-7_金物
  6
Continuous
 62
     7
370
     9
100
AcDbLine
 10
-1923.481742942751
 20
-642.8298055088193
 30
0.0
 11
-1947.482423866213
 21
-642.8298055088193
 31
0.0
  0
LINE
  5
1CC
330
1F
100
AcDbEntity
  8
0-7_金物
  6
Continuous
 62
     7
370
     9
100
AcDbLine
 10
-1923.481742942751
 20
-597.8297139560848
 30
0.0
 11
-1923.481742942751
 21
-642.8298055088193
 31
0.0
  0
LINE
  5
1CD
330
1F
100
AcDbEntity
  8
0-7_金物
  6
Continuous
 62
     7
370
     9
100
AcDbLine
 10
-1947.482423866213
 20
-642.8298055088193
 30
0.0
 11
-1947.482423866213
 21
-597.8297139560848
 31
0.0
  0
LINE
  5
1CE
330
1F
100
AcDbEntity
  8
0-7_金物
  6
Continuous
 62
     7
370
     9
100
AcDbLine
 10
-1965.482183540286
 20
-584.6174642002247
 30
0.0
 11
-2001.661349380435
 21
-584.6174642002247
 31
0.0
  0
LINE
  5
1CF
330
1F
100
AcDbEntity
  8
0-7_金物
  6
Continuous
 62
     7
370
     9
100
AcDbLine
 10
-1869.662101829471
 20
-584.6174642002247
 30
0.0
 11
-1905.480495536746
 21
-584.6174642002247
 31
0.0
  0
LINE
  5
1D0
330
1F
100
AcDbEntity
  8
0-7_金物
  6
Continuous
 62
     7
370
     9
100
AcDbLine
 10
-1905.480495536746
 20
-597.8297139560848
 30
0.0
 11
-1965.482183540286
 21
-597.8297139560848
 31
0.0
  0
LINE
  5
1D1
330
1F
100
AcDbEntity
  8
0-7_金物
  6
Continuous
 62
     7
370
     9
100
AcDbLine
 10
-1870.486076438846
 20
-603.8298055088185
 30
0.0
 11
-1833.482189262331
 21
-603.8298055088185
 31
0.0
  0
LINE
  5
1D2
330
1F
100
AcDbEntity
  8
0-4_枠
  6
Continuous
 62
    92
370
    13
100
AcDbLine
 10
-2166.481536949099
 20
-381.8298970615537
 30
0.0
 11
-1746.481536949099
 21
-381.8298970615537
 31
0.0
  0
LINE
  5
1D3
330
1F
100
AcDbEntity
  8
0-4_枠
  6
Continuous
 62
    92
370
    13
100
AcDbLine
 10
-1704.481536949098
 20
-597.8297139560848
 30
0.0
 11
-1851.481960380496
 21
-597.8297139560848
 31
0.0
  0
LINE
  5
1D4
330
1F
100
AcDbEntity
  8
0-B_寸法
  6
Continuous
 62
   120
370
     5
100
AcDbLine
 10
-1704.481536949098
 20
-893.3122363656902
 30
0.0
 11
-2166.481536949099
 21
-893.3122363656902
 31
0.0
  0
LWPOLYLINE
  5
1D5
330
1F
100
AcDbEntity
  8
0-B_寸法
  6
Continuous
 62
     7
370
     9
100
AcDbPolyline
 90
        4
 70
     1
 43
3.0
 10
-2164.981536949099
 20
-893.3122363656902
 42
0.4142135623731
 10
-2166.481536949099
 20
-891.8122363656902
 42
0.4142135623731
 10
-2167.981536949099
 20
-893.3122363656902
 42
0.4142135623731
 10
-2166.481536949099
 20
-894.8122363656902
 42
0.4142135623731
  0
LINE
  5
1D6
330
1F
100
AcDbEntity
  8
0-B_寸法
  6
Continuous
 62
   120
370
     5
100
AcDbLine
 10
-2166.481536949099
 20
-893.3122363656902
 30
0.0
 11
-2166.481536949099
 21
-739.6012889437942
 31
0.0
  0
LWPOLYLINE
  5
1D7
330
1F
100
AcDbEntity
  8
0-B_寸法
  6
Continuous
 62
     7
370
     9
100
AcDbPolyline
 90
        4
 70
     1
 43
3.0
 10
-1702.981536949098
 20
-893.3122363656902
 42
0.4142135623731
 10
-1704.481536949098
 20
-891.8122363656902
 42
0.4142135623731
 10
-1705.981536949098
 20
-893.3122363656902
 42
0.4142135623731
 10
-1704.481536949098
 20
-894.8122363656902
 42
0.4142135623731
  0
LINE
  5
1D8
330
1F
100
AcDbEntity
  8
0-B_寸法
  6
Continuous
 62
   120
370
     5
100
AcDbLine
 10
-1704.481536949098
 20
-893.3122363656902
 30
0.0
 11
-1704.481536949098
 21
-739.6012889437942
 31
0.0
  0
LINE
  5
1D9
330
1F
100
AcDbEntity
  8
0-7_金物
  6
Continuous
 62
     7
370
     9
100
AcDbLine
 10
-1863.482292259158
 20
-597.8297139560848
 30
0.0
 11
-1863.482292259158
 21
-489.8296224033505
 31
0.0
  0
LINE
  5
1DA
330
1F
100
AcDbEntity
  8
0-7_金物
  6
Continuous
 62
     7
370
     9
100
AcDbLine
 10
-1851.481960381158
 20
-597.8297139560848
 30
0.0
 11
-1851.481960381158
 21
-477.8292561933496
 31
0.0
  0
LINE
  5
1DB
330
1F
100
AcDbEntity
  8
0-7_金物
  6
Continuous
 62
     7
370
     9
100
AcDbLine
 10
-2007.482619846287
 20
-597.8297139560848
 30
0.0
 11
-2007.482619846287
 21
-489.8296224033505
 31
0.0
  0
LINE
  5
1DC
330
1F
100
AcDbEntity
  8
0-7_金物
  6
Continuous
 62
     7
370
     9
100
AcDbLine
 10
-2019.482951724286
 20
-597.8297139560848
 30
0.0
 11
-2019.482951724286
 21
-477.8292561933496
 31
0.0
  0
LINE
  5
1DD
330
1F
100
AcDbEntity
  8
0-7_金物
  6
Continuous
 62
     7
370
     9
100
AcDbLine
 10
-1863.482292259158
 20
-489.8296224033505
 30
0.0
 11
-2007.482619846287
 21
-489.8296224033505
 31
0.0
  0
LINE
  5
1DE
330
1F
100
AcDbEntity
  8
0-7_金物
  6
Continuous
 62
     7
370
     9
100
AcDbLine
 10
-1851.481960381158
 20
-477.8292561933496
 30
0.0
 11
-2019.482951724286
 21
-477.8292561933496
 31
0.0
  0
LINE
  5
1DF
330
1F
100
AcDbEntity
  8
0-7_金物
  6
Continuous
 62
     7
370
     9
100
AcDbLine
 10
-1845.481233680665
 20
-345.684313681441
 30
0.0
 11
-2025.481096351561
 21
-345.684313681441
 31
0.0
  0
LINE
  5
1E0
330
1F
100
AcDbEntity
  8
0-7_金物
  6
Continuous
 62
     7
370
     9
100
AcDbLine
 10
-2025.481096351561
 20
-333.6839760807317
 30
0.0
 11
-2025.481096351561
 21
-345.684313681441
 31
0.0
  0
LINE
  5
1E1
330
1F
100
AcDbEntity
  8
0-7_金物
  6
Continuous
 62
     7
370
     9
100
AcDbLine
 10
-1845.481233680665
 20
-333.6839760807317
 30
0.0
 11
-1845.481233680665
 21
-345.684313681441
 31
0.0
  0
LINE
  5
1E2
330
1F
100
AcDbEntity
  8
0-7_金物
  6
Continuous
 62
     7
370
     9
100
AcDbLine
 10
-1845.481233680665
 20
-333.6839760807317
 30
0.0
 11
-2025.481096351561
 21
-333.6839760807317
 31
0.0
  0
LINE
  5
1E3
330
1F
100
AcDbEntity
  8
0-7_金物
  6
Continuous
 62
     7
370
     9
100
AcDbLine
 10
-1875.481336677492
 20
-345.684313681441
 30
0.0
 11
-1875.481336677492
 21
-357.6839074161811
 31
0.0
  0
LINE
  5
1E4
330
1F
100
AcDbEntity
  8
0-7_金物
  6
Continuous
 62
     7
370
     9
100
AcDbLine
 10
-1995.480993354738
 20
-345.684313681441
 30
0.0
 11
-1995.480993354738
 21
-357.6839074161811
 31
0.0
  0
LINE
  5
1E5
330
1F
100
AcDbEntity
  8
0-7_金物
  6
Continuous
 62
     7
370
     9
100
AcDbLine
 10
-1875.481336677492
 20
-357.6839074161811
 30
0.0
 11
-1995.480993354738
 21
-357.6839074161811
 31
0.0
  0
LINE
  5
1E6
330
1F
100
AcDbEntity
  8
0-7_金物
  6
Continuous
 62
     7
370
     9
100
AcDbLine
 10
-1881.481502616823
 20
-357.6839074161811
 30
0.0
 11
-1881.481502616823
 21
-381.8298970615584
 31
0.0
  0
LINE
  5
1E7
330
1F
100
AcDbEntity
  8
0-7_金物
  6
Continuous
 62
     7
370
     9
100
AcDbLine
 10
-1989.481571281373
 20
-381.8298970615584
 30
0.0
 11
-1989.481571281373
 21
-357.6839074161811
 31
0.0
  0
LINE
  5
1E8
330
1F
100
AcDbEntity
  8
0-4_枠
  6
Continuous
 62
    92
370
    13
100
AcDbLine
 10
-1746.481536949099
 20
-381.8298970615537
 30
0.0
 11
-1746.481536949099
 21
-429.8298970615522
 31
0.0
  0
LINE
  5
1E9
330
1F
100
AcDbEntity
  8
0-4_枠
  6
Continuous
 62
    92
370
    13
100
AcDbLine
 10
-1704.481536949098
 20
-429.8298970615522
 30
0.0
 11
-1746.481536949099
 21
-429.8298970615522
 31
0.0
  0
LINE
  5
1EA
330
1F
100
AcDbEntity
  8
0-4_枠
  6
Continuous
 62
    92
370
    13
100
AcDbLine
 10
-1704.481536949098
 20
-429.8298970615522
 30
0.0
 11
-1704.481536949098
 21
-483.829897061553
 31
0.0
  0
LINE
  5
1EB
330
1F
100
AcDbEntity
  8
0-4_枠
  6
Continuous
 62
    92
370
    13
100
AcDbLine
 10
-1704.481536949098
 20
-483.829897061553
 30
0.0
 11
-1764.481536949098
 21
-483.829897061553
 31
0.0
  0
LINE
  5
1EC
330
1F
100
AcDbEntity
  8
0-4_枠
  6
Continuous
 62
    92
370
    13
100
AcDbLine
 10
-1764.481536949098
 20
-483.829897061553
 30
0.0
 11
-1764.481536949098
 21
-537.8298970615529
 31
0.0
  0
LINE
  5
1ED
330
1F
100
AcDbEntity
  8
0-4_枠
  6
Continuous
 62
    92
370
    13
100
AcDbLine
 10
-1704.481536949098
 20
-537.8298970615529
 30
0.0
 11
-1764.481536949098
 21
-537.8298970615529
 31
0.0
  0
LINE
  5
1EE
330
1F
100
AcDbEntity
  8
0-C_ハッチ
  6
Continuous
 62
   120
370
     5
100
AcDbLine
 10
-1707.581730743576
 20
-597.8297139560916
 30
0.0
 11
-1704.481536949091
 21
-594.7295201616079
 31
0.0
  0
LINE
  5
1EF
330
1F
100
AcDbEntity
  8
0-C_ハッチ
  6
Continuous
 62
   120
370
     5
100
AcDbLine
 10
-1766.978700363204
 20
-597.8297139560733
 30
0.0
 11
-1706.978883468676
 21
-537.8298970615448
 31
0.0
  0
LINE
  5
1F0
330
1F
100
AcDbEntity
  8
0-C_ハッチ
  6
Continuous
 62
   120
370
     5
100
AcDbLine
 10
-1826.375669982923
 20
-597.8297139560904
 30
0.0
 11
-1764.481536949106
 21
-535.9355809222736
 31
0.0
  0
LINE
  5
1F1
330
1F
100
AcDbEntity
  8
0-C_ハッチ
  6
Continuous
 62
   120
370
     5
100
AcDbLine
 10
-1712.375853088386
 20
-483.829897061553
 30
0.0
 11
-1704.481536949098
 21
-475.9355809222648
 31
0.0
  0
LINE
  5
1F2
330
1F
100
AcDbEntity
  8
0-C_ハッチ
  6
Continuous
 62
   120
370
     5
100
AcDbLine
 10
-1851.481960380494
 20
-563.539034734014
 30
0.0
 11
-1717.772822708034
 21
-429.8298970615543
 31
0.0
  0
LINE
  5
1F3
330
1F
100
AcDbEntity
  8
0-C_ハッチ
  6
Continuous
 62
   120
370
     5
100
AcDbLine
 10
-1851.481960380496
 20
-504.1420651143135
 30
0.0
 11
-1746.481536949098
 21
-399.1416416829157
 31
0.0
  0
LINE
  5
1F4
330
1F
100
AcDbEntity
  8
0-C_ハッチ
  6
Continuous
 62
   120
370
     5
100
AcDbLine
 10
-1884.566121078251
 20
-477.8292561924219
 30
0.0
 11
-1788.56676194739
 21
-381.8298970615605
 31
0.0
  0
LINE
  5
1F5
330
1F
100
AcDbEntity
  8
0-C_ハッチ
  6
Continuous
 62
   120
370
     5
100
AcDbLine
 10
-2063.963548461558
 20
-597.8297139560814
 30
0.0
 11
-2019.482951724292
 21
-553.3491172188146
 31
0.0
  0
LINE
  5
1F6
330
1F
100
AcDbEntity
  8
0-C_ハッチ
  6
Continuous
 62
   120
370
     5
100
AcDbLine
 10
-1943.963090697882
 20
-477.8292561924061
 30
0.0
 11
-1847.963731567034
 21
-381.8298970615584
 31
0.0
  0
LINE
  5
1F7
330
1F
100
AcDbEntity
  8
0-C_ハッチ
  6
Continuous
 62
   120
370
     5
100
AcDbLine
 10
-2123.360518081267
 20
-597.8297139560882
 30
0.0
 11
-2019.482951724278
 21
-493.9521475990992
 31
0.0
  0
LINE
  5
1F8
330
1F
100
AcDbEntity
  8
0-C_ハッチ
  6
Continuous
 62
   120
370
     5
100
AcDbLine
 10
-2003.3600603176
 20
-477.8292561924219
 30
0.0
 11
-1907.36070118673
 21
-381.8298970615515
 31
0.0
  0
LINE
  5
1F9
330
1F
100
AcDbEntity
  8
0-C_ハッチ
  6
Continuous
 62
   120
370
     5
100
AcDbLine
 10
-2166.481536949101
 20
-581.5537632042767
 30
0.0
 11
-1966.75767080638
 21
-381.829897061555
 31
0.0
  0
LINE
  5
1FA
330
1F
100
AcDbEntity
  8
0-C_ハッチ
  6
Continuous
 62
   120
370
     5
100
AcDbLine
 10
-2166.48153694909
 20
-522.1567935845634
 30
0.0
 11
-2026.154640426082
 21
-381.829897061555
 31
0.0
  0
LINE
  5
1FB
330
1F
100
AcDbEntity
  8
0-C_ハッチ
  6
Continuous
 62
   120
370
     5
100
AcDbLine
 10
-2166.481536949103
 20
-462.7598239649285
 30
0.0
 11
-2085.551610045725
 21
-381.8298970615502
 31
0.0
  0
LINE
  5
1FC
330
1F
100
AcDbEntity
  8
0-C_ハッチ
  6
Continuous
 62
   120
370
     5
100
AcDbLine
 10
-2166.481536949101
 20
-403.3628543452245
 30
0.0
 11
-2144.948579665427
 21
-381.8298970615515
 31
0.0
  0
LINE
  5
1FD
330
1F
100
AcDbEntity
  8
0-B_寸法
  6
Continuous
 62
   120
370
     5
100
AcDbLine
 10
-1449.481135354068
 20
-597.8292735132018
 30
0.0
 11
-1107.481023912259
 21
-597.8292735132018
 31
0.0
  0
LINE
  5
1FE
330
1F
100
AcDbEntity
  8
0-0_補助線
  6
JWW_HOJO
 62
   120
370
     5
100
AcDbLine
 10
-2165.167304971478
 20
-1881.83038678628
 30
0.0
 11
-1705.795768926718
 21
-1881.83038678628
 31
0.0
  0
LINE
  5
1FF
330
1F
100
AcDbEntity
  8
0-0_補助線
  6
JWW_HOJO
 62
   120
370
     5
100
AcDbLine
 10
-2165.167304971478
 20
-2001.83038678628
 30
0.0
 11
-1705.795768926718
 21
-2001.83038678628
 31
0.0
  0
LINE
  5
200
330
1F
100
AcDbEntity
  8
0-4_枠
  6
Continuous
 62
     7
370
     9
100
AcDbLine
 10
-2037.480987632695
 20
-3281.630676290871
 30
0.0
 11
-2015.280987632693
 21
-3281.630676290871
 31
0.0
  0
LINE
  5
201
330
1F
100
AcDbEntity
  8
0-4_枠
  6
Continuous
 62
     7
370
     9
100
AcDbLine
 10
-2013.480987632693
 20
-3283.430676290871
 30
0.0
 11
-2015.280987632693
 21
-3281.630676290871
 31
0.0
  0
LINE
  5
202
330
1F
100
AcDbEntity
  8
0-4_枠
  6
Continuous
 62
     7
370
     9
100
AcDbLine
 10
-2013.480987632693
 20
-3283.430676290871
 30
0.0
 11
-2011.680987632693
 21
-3281.630676290871
 31
0.0
  0
ARC
  5
203
330
1F
100
AcDbEntity
  8
0-4_枠
  6
Continuous
 62
     7
370
     9
100
AcDbCircle
 10
-1973.880987632694
 20
-3283.430676290871
 30
0.0
 40
1.800000000000579
100
AcDbArc
 50
359.9999999999784
 51
90.00000000000004
  0
LINE
  5
204
330
1F
100
AcDbEntity
  8
0-4_枠
  6
Continuous
 62
     7
370
     9
100
AcDbLine
 10
-1972.080987632694
 20
-3283.430676290871
 30
0.0
 11
-1972.080987632694
 21
-3286.430676290871
 31
0.0
  0
ARC
  5
205
330
1F
100
AcDbEntity
  8
0-4_枠
  6
Continuous
 62
     7
370
     9
100
AcDbCircle
 10
-1973.280987632694
 20
-3286.43067629087
 30
0.0
 40
1.200000000000273
100
AcDbArc
 50
270.0
 51
359.9999999999674
  0
LINE
  5
206
330
1F
100
AcDbEntity
  8
0-4_枠
  6
Continuous
 62
     7
370
     9
100
AcDbLine
 10
-1973.280987632694
 20
-3287.63067629087
 30
0.0
 11
-1976.880987632694
 21
-3287.63067629087
 31
0.0
  0
ARC
  5
207
330
1F
100
AcDbEntity
  8
0-4_枠
  6
Continuous
 62
     7
370
     9
100
AcDbCircle
 10
-1976.880987632694
 20
-3289.43067629087
 30
0.0
 40
1.799999999999727
100
AcDbArc
 50
90.0
 51
180.0
  0
LINE
  5
208
330
1F
100
AcDbEntity
  8
0-4_枠
  6
Continuous
 62
     7
370
     9
100
AcDbLine
 10
-1978.680987632694
 20
-3289.43067629087
 30
0.0
 11
-1978.680987632694
 21
-3301.430676290871
 31
0.0
  0
ARC
  5
209
330
1F
100
AcDbEntity
  8
0-4_枠
  6
Continuous
 62
     7
370
     9
100
AcDbCircle
 10
-1975.680987632695
 20
-3301.430676290871
 30
0.0
 40
3.0
100
AcDbArc
 50
180.0
 51
270.0
  0
LINE
  5
20A
330
1F
100
AcDbEntity
  8
0-4_枠
  6
Continuous
 62
     7
370
     9
100
AcDbLine
 10
-1975.680987632695
 20
-3304.430676290871
 30
0.0
 11
-1937.280987632694
 21
-3304.430676290873
 31
0.0
  0
LINE
  5
20B
330
1F
100
AcDbEntity
  8
0-4_枠
  6
Continuous
 62
     7
370
     9
100
AcDbLine
 10
-1935.480987632694
 20
-3306.230676290872
 30
0.0
 11
-1937.280987632694
 21
-3304.430676290873
 31
0.0
  0
LINE
  5
20C
330
1F
100
AcDbEntity
  8
0-4_枠
  6
Continuous
 62
     7
370
     9
100
AcDbLine
 10
-1935.480987632694
 20
-3306.230676290872
 30
0.0
 11
-1933.680987632694
 21
-3304.430676290873
 31
0.0
  0
LINE
  5
20D
330
1F
100
AcDbEntity
  8
0-4_枠
  6
Continuous
 62
     7
370
     9
100
AcDbLine
 10
-1933.680987632694
 20
-3304.430676290873
 30
0.0
 11
-1895.2809876327
 21
-3304.430676290871
 31
0.0
  0
ARC
  5
20E
330
1F
100
AcDbEntity
  8
0-4_枠
  6
Continuous
 62
     7
370
     9
100
AcDbCircle
 10
-1895.2809876327
 20
-3301.430676290871
 30
0.0
 40
3.0
100
AcDbArc
 50
270.0
 51
0.0
  0
LINE
  5
20F
330
1F
100
AcDbEntity
  8
0-4_枠
  6
Continuous
 62
     7
370
     9
100
AcDbLine
 10
-1892.2809876327
 20
-3289.43067629087
 30
0.0
 11
-1892.2809876327
 21
-3301.430676290871
 31
0.0
  0
ARC
  5
210
330
1F
100
AcDbEntity
  8
0-4_枠
  6
Continuous
 62
     7
370
     9
100
AcDbCircle
 10
-1894.080987632699
 20
-3289.43067629087
 30
0.0
 40
1.800000000000069
100
AcDbArc
 50
0.0
 51
90.0
  0
LINE
  5
211
330
1F
100
AcDbEntity
  8
0-4_枠
  6
Continuous
 62
     7
370
     9
100
AcDbLine
 10
-1897.680987632695
 20
-3287.63067629087
 30
0.0
 11
-1894.080987632699
 21
-3287.63067629087
 31
0.0
  0
ARC
  5
212
330
1F
100
AcDbEntity
  8
0-4_枠
  6
Continuous
 62
     7
370
     9
100
AcDbCircle
 10
-1897.680987632695
 20
-3286.43067629087
 30
0.0
 40
1.199999999999932
100
AcDbArc
 50
179.9999999999674
 51
270.0
  0
LINE
  5
213
330
1F
100
AcDbEntity
  8
0-4_枠
  6
Continuous
 62
     7
370
     9
100
AcDbLine
 10
-1898.880987632695
 20
-3283.43067629087
 30
0.0
 11
-1898.880987632695
 21
-3286.43067629087
 31
0.0
  0
ARC
  5
214
330
1F
100
AcDbEntity
  8
0-4_枠
  6
Continuous
 62
     7
370
     9
100
AcDbCircle
 10
-1897.080987632694
 20
-3283.43067629087
 30
0.0
 40
1.799999999999727
100
AcDbArc
 50
89.99999999996201
 51
180.0
  0
ARC
  5
215
330
1F
100
AcDbEntity
  8
0-4_枠
  6
Continuous
 62
     7
370
     9
100
AcDbCircle
 10
-1897.0809876327
 20
-3293.630676290872
 30
0.0
 40
12.0
100
AcDbArc
 50
359.9999999999968
 51
89.9999999999682
  0
LINE
  5
216
330
1F
100
AcDbEntity
  8
0-4_枠
  6
Continuous
 62
     7
370
     9
100
AcDbLine
 10
-1885.080987632699
 20
-3293.630676290872
 30
0.0
 11
-1885.0809876327
 21
-3309.830676290871
 31
0.0
  0
ARC
  5
217
330
1F
100
AcDbEntity
  8
0-4_枠
  6
Continuous
 62
     7
370
     9
100
AcDbCircle
 10
-1979.280987632693
 20
-3303.830676290871
 30
0.0
 40
6.0
100
AcDbArc
 50
180.0
 51
270.0
  0
LINE
  5
218
330
1F
100
AcDbEntity
  8
0-4_枠
  6
Continuous
 62
     7
370
     9
100
AcDbLine
 10
-1985.280987632694
 20
-3292.276260703144
 30
0.0
 11
-1985.280987632694
 21
-3303.830676290871
 31
0.0
  0
ARC
  5
219
330
1F
100
AcDbEntity
  8
0-4_枠
  6
Continuous
 62
     7
370
     9
100
AcDbCircle
 10
-1987.080987632694
 20
-3292.276260703144
 30
0.0
 40
1.800000000000069
100
AcDbArc
 50
359.9999999999784
 51
135.0000000000384
  0
LINE
  5
21A
330
1F
100
AcDbEntity
  8
0-4_枠
  6
Continuous
 62
     7
370
     9
100
AcDbLine
 10
-1994.353779838829
 20
-3297.003468497009
 30
0.0
 11
-1988.35377983883
 21
-3291.003468497009
 31
0.0
  0
ARC
  5
21B
330
1F
100
AcDbEntity
  8
0-4_枠
  6
Continuous
 62
     7
370
     9
100
AcDbCircle
 10
-1993.080987632693
 20
-3298.276260703145
 30
0.0
 40
1.799999999999605
100
AcDbArc
 50
135.0000000000057
 51
180.0000000000034
  0
LINE
  5
21C
330
1F
100
AcDbEntity
  8
0-4_枠
  6
Continuous
 62
     7
370
     9
100
AcDbLine
 10
-1994.880987632692
 20
-3309.830676290871
 30
0.0
 11
-1994.880987632692
 21
-3298.276260703145
 31
0.0
  0
LINE
  5
21D
330
1F
100
AcDbEntity
  8
0-4_枠
  6
Continuous
 62
     7
370
     9
100
AcDbLine
 10
-2001.480987632694
 20
-3309.830676290871
 30
0.0
 11
-1994.880987632692
 21
-3309.830676290871
 31
0.0
  0
LINE
  5
21E
330
1F
100
AcDbEntity
  8
0-4_枠
  6
Continuous
 62
     7
370
     9
100
AcDbLine
 10
-2001.480987632694
 20
-3309.830676290871
 30
0.0
 11
-2001.480987632694
 21
-3294.230676290872
 31
0.0
  0
ARC
  5
21F
330
1F
100
AcDbEntity
  8
0-4_枠
  6
Continuous
 62
     7
370
     9
100
AcDbCircle
 10
-2002.080987632694
 20
-3294.230676290872
 30
0.0
 40
0.599999999999966
100
AcDbArc
 50
0.0
 51
90.0
  0
LINE
  5
220
330
1F
100
AcDbEntity
  8
0-4_枠
  6
Continuous
 62
     7
370
     9
100
AcDbLine
 10
-2024.880987632692
 20
-3293.630676290872
 30
0.0
 11
-2002.080987632694
 21
-3293.630676290872
 31
0.0
  0
ARC
  5
221
330
1F
100
AcDbEntity
  8
0-4_枠
  6
Continuous
 62
     7
370
     9
100
AcDbCircle
 10
-2024.880987632692
 20
-3294.230676290872
 30
0.0
 40
0.6000000000001362
100
AcDbArc
 50
90.0
 51
180.0
  0
LINE
  5
222
330
1F
100
AcDbEntity
  8
0-4_枠
  6
Continuous
 62
     7
370
     9
100
AcDbLine
 10
-2025.480987632693
 20
-3309.830676290871
 30
0.0
 11
-2025.480987632693
 21
-3294.230676290872
 31
0.0
  0
LINE
  5
223
330
1F
100
AcDbEntity
  8
0-4_枠
  6
Continuous
 62
     7
370
     9
100
AcDbLine
 10
-2032.080987632694
 20
-3309.830676290871
 30
0.0
 11
-2025.480987632693
 21
-3309.830676290871
 31
0.0
  0
LINE
  5
224
330
1F
100
AcDbEntity
  8
0-4_枠
  6
Continuous
 62
     7
370
     9
100
AcDbLine
 10
-2032.080987632694
 20
-3309.830676290871
 30
0.0
 11
-2032.080987632694
 21
-3297.530676290873
 31
0.0
  0
LINE
  5
225
330
1F
100
AcDbEntity
  8
0-4_枠
  6
Continuous
 62
     7
370
     9
100
AcDbLine
 10
-2032.080987632694
 20
-3297.530676290873
 30
0.0
 11
-2038.359667289137
 21
-3291.251996634432
 31
0.0
  0
ARC
  5
226
330
1F
100
AcDbEntity
  8
0-4_枠
  6
Continuous
 62
     7
370
     9
100
AcDbCircle
 10
-2040.480987632694
 20
-3293.37331697799
 30
0.0
 40
2.999999999998578
100
AcDbArc
 50
45.0
 51
180.0000000000261
  0
LINE
  5
227
330
1F
100
AcDbEntity
  8
0-4_枠
  6
Continuous
 62
     7
370
     9
100
AcDbLine
 10
-2043.480987632693
 20
-3309.830676290871
 30
0.0
 11
-2043.480987632694
 21
-3293.373316977992
 31
0.0
  0
LINE
  5
228
330
1F
100
AcDbEntity
  8
0-4_枠
  6
Continuous
 62
     7
370
     9
100
AcDbLine
 10
-2049.480987632693
 20
-3309.830676290871
 30
0.0
 11
-2043.480987632693
 21
-3309.830676290871
 31
0.0
  0
LINE
  5
229
330
1F
100
AcDbEntity
  8
0-4_枠
  6
Continuous
 62
     7
370
     9
100
AcDbLine
 10
-2049.480987632693
 20
-3309.830676290871
 30
0.0
 11
-2049.480987632694
 21
-3293.630676290872
 31
0.0
  0
ARC
  5
22A
330
1F
100
AcDbEntity
  8
0-4_枠
  6
Continuous
 62
     7
370
     9
100
AcDbCircle
 10
-2037.480987632695
 20
-3293.630676290872
 30
0.0
 40
12.0
100
AcDbArc
 50
90.0
 51
180.0
  0
LINE
  5
22B
330
1F
100
AcDbEntity
  8
0-4_枠
  6
Continuous
 62
     7
370
     9
100
AcDbLine
 10
-1979.280987632693
 20
-3309.830676290871
 30
0.0
 11
-1885.0809876327
 21
-3309.830676290871
 31
0.0
  0
LINE
  5
22C
330
1F
100
AcDbEntity
  8
0-4_枠
  6
Continuous
 62
     7
370
     9
100
AcDbLine
 10
-1973.880987632694
 20
-3281.63067629087
 30
0.0
 11
-2011.680987632693
 21
-3281.63067629087
 31
0.0
  0
LINE
  5
22D
330
1F
100
AcDbEntity
  8
0-A_文字
  6
Continuous
 62
   120
370
     5
100
AcDbLine
 10
-1885.0809876327
 20
-2986.432628160517
 30
0.0
 11
-2049.480987632693
 21
-2986.432628160517
 31
0.0
  0
LWPOLYLINE
  5
22E
330
1F
100
AcDbEntity
  8
0-A_文字
  6
Continuous
 62
     7
370
     9
100
AcDbPolyline
 90
        4
 70
     1
 43
3.0
 10
-1883.5809876327
 20
-2986.432628160517
 42
0.4142135623731
 10
-1885.0809876327
 20
-2984.932628160517
 42
0.4142135623731
 10
-1886.5809876327
 20
-2986.432628160517
 42
0.4142135623731
 10
-1885.0809876327
 20
-2987.932628160517
 42
0.4142135623731
  0
LWPOLYLINE
  5
22F
330
1F
100
AcDbEntity
  8
0-A_文字
  6
Continuous
 62
     7
370
     9
100
AcDbPolyline
 90
        4
 70
     1
 43
3.0
 10
-2047.980987632693
 20
-2986.432628160517
 42
0.4142135623731
 10
-2049.480987632693
 20
-2984.932628160517
 42
0.4142135623731
 10
-2050.980987632693
 20
-2986.432628160517
 42
0.4142135623731
 10
-2049.480987632693
 20
-2987.932628160517
 42
0.4142135623731
  0
LINE
  5
230
330
1F
100
AcDbEntity
  8
0-A_文字
  6
Continuous
 62
   120
370
     5
100
AcDbLine
 10
-1885.0809876327
 20
-2986.432628160517
 30
0.0
 11
-1885.0809876327
 21
-3094.550639718535
 31
0.0
  0
LINE
  5
231
330
1F
100
AcDbEntity
  8
0-A_文字
  6
Continuous
 62
   120
370
     5
100
AcDbLine
 10
-2049.480987632693
 20
-2986.432628160517
 30
0.0
 11
-2049.480987632693
 21
-3094.550639718535
 31
0.0
  0
LINE
  5
232
330
1F
100
AcDbEntity
  8
0-7_金物
  6
Continuous
 62
     7
370
     9
100
AcDbLine
 10
-1944.481418177986
 20
-3241.084075691474
 30
0.0
 11
-1944.481418177986
 21
-3304.430676290873
 31
0.0
  0
LINE
  5
233
330
1F
100
AcDbEntity
  8
0-7_金物
  6
Continuous
 62
     7
370
     9
100
AcDbLine
 10
-1926.481655720214
 20
-3241.084075691474
 30
0.0
 11
-1926.481655720214
 21
-3304.430676290873
 31
0.0
  0
LINE
  5
234
330
1F
100
AcDbEntity
  8
0-7_金物
  6
Continuous
 62
     7
370
     9
100
AcDbLine
 10
-1944.481418177986
 20
-3304.430676290873
 30
0.0
 11
-1926.481655720214
 21
-3304.430676290873
 31
0.0
  0
LINE
  5
235
330
1F
100
AcDbEntity
  8
0-0_補助線
  6
JWW_HOJO
 62
   120
370
     5
100
AcDbLine
 10
-687.480225637918
 20
-3381.830282861554
 30
0.0
 11
-687.4809216487063
 21
2.000074026089464
 31
0.0
  0
LINE
  5
236
330
1F
100
AcDbEntity
  8
0-0_補助線
  6
JWW_HOJO
 62
   120
370
     5
100
AcDbLine
 10
-2763.480349103601
 20
-3381.830282835163
 30
0.0
 11
-2763.481045114394
 21
2.000074026089464
 31
0.0
  0
LINE
  5
237
330
1F
100
AcDbEntity
  8
0-0_補助線
  6
JWW_HOJO
 62
   120
370
     5
100
AcDbLine
 10
-897.480225637918
 20
-3381.830282835163
 30
0.0
 11
-897.4809216487063
 21
2.000074026089464
 31
0.0
  0
LINE
  5
238
330
1F
100
AcDbEntity
  8
0-0_補助線
  6
JWW_HOJO
 62
   120
370
     5
100
AcDbLine
 10
-1107.480225637921
 20
-3381.830282835163
 30
0.0
 11
-1107.48092164871
 21
2.000074026089464
 31
0.0
  0
LINE
  5
239
330
1F
100
AcDbEntity
  8
0-0_補助線
  6
JWW_HOJO
 62
   120
370
     5
100
AcDbLine
 10
-2553.480349103581
 20
-3381.830282835163
 30
0.0
 11
-2553.481045114373
 21
2.000074026089464
 31
0.0
  0
LINE
  5
23A
330
1F
100
AcDbEntity
  8
0-0_補助線
  6
JWW_HOJO
 62
   120
370
     5
100
AcDbLine
 10
-1317.480349103566
 20
-3381.830282835163
 30
0.0
 11
-1317.481045114355
 21
2.000074026089464
 31
0.0
  0
LINE
  5
23B
330
1F
100
AcDbEntity
  8
0-0_補助線
  6
JWW_HOJO
 62
   120
370
     5
100
AcDbLine
 10
-2763.481089577737
 20
2.000074026089464
 30
0.0
 11
-687.4809661120516
 21
2.000074026089464
 31
0.0
  0
MTEXT
  5
23C
330
1F
100
AcDbEntity
  8
0-B_寸法
  6
Continuous
 62
     7
370
   211
100
AcDbMText
 10
-702.4810239122598
 20
-360.54659746762
 30
0.0
 40
91.44000000000129
 41
60.00000000000085
 46
0.0
 71
     7
 72
     1
  1
{\fＭＳ ゴシック|b0|i0|c128|p49;5}
 11
6.123031769111886E-17
 21
1.0
 31
0.0
 73
     1
 44
1.0
  0
MTEXT
  5
23D
330
1F
100
AcDbEntity
  8
0-B_寸法
  6
Continuous
 62
     7
370
   211
100
AcDbMText
 10
-1317.481089577698
 20
-388.556448061315
 30
0.0
 40
91.44000000000129
 41
60.00000000000085
 46
0.0
 71
     7
 72
     1
  1
{\fＭＳ ゴシック|b0|i0|c128|p49;8}
 11
6.123031769111886E-17
 21
1.0
 31
0.0
 73
     1
 44
1.0
  0
MTEXT
  5
23E
330
1F
100
AcDbEntity
  8
0-B_寸法
  6
Continuous
 62
     7
370
   211
100
AcDbMText
 10
-1317.481089577698
 20
-474.1098424186689
 30
0.0
 40
91.44000000000129
 41
60.00000000000085
 46
0.0
 71
     7
 72
     1
  1
{\fＭＳ ゴシック|b0|i0|c128|p49;9}
 11
6.123031769111886E-17
 21
1.0
 31
0.0
 73
     1
 44
1.0
  0
MTEXT
  5
23F
330
1F
100
AcDbEntity
  8
0-B_寸法
  6
Continuous
 62
     7
370
     0
100
AcDbMText
 10
-912.4803310807602
 20
-560.3593997075084
 30
0.0
 40
91.43999999999967
 41
119.9999999999996
 46
0.0
 71
     7
 72
     1
  1
{\fＭＳ ゴシック|b0|i0|c128|p49;36}
 11
6.123031769111886E-17
 21
1.0
 31
0.0
 73
     1
 44
1.0
  0
MTEXT
  5
240
330
1F
100
AcDbEntity
  8
0-B_寸法
  6
Continuous
 62
     7
370
   211
100
AcDbMText
 10
-1317.481089577698
 20
-582.1098424186696
 30
0.0
 40
91.44000000000129
 41
60.00000000000085
 46
0.0
 71
     7
 72
     1
  1
{\fＭＳ ゴシック|b0|i0|c128|p49;9}
 11
6.123031769111886E-17
 21
1.0
 31
0.0
 73
     1
 44
1.0
  0
MTEXT
  5
241
330
1F
100
AcDbEntity
  8
0-B_寸法
  6
Continuous
 62
     7
370
   211
100
AcDbMText
 10
-1317.481089577698
 20
-749.7727640661142
 30
0.0
 40
91.44000000000129
 41
120.0000000000017
 46
0.0
 71
     7
 72
     1
  1
{\fＭＳ ゴシック|b0|i0|c128|p49;10}
 11
6.123031769111886E-17
 21
1.0
 31
0.0
 73
     1
 44
1.0
  0
MTEXT
  5
242
330
1F
100
AcDbEntity
  8
0-B_寸法
  6
Continuous
 62
     7
370
     0
100
AcDbMText
 10
-1121.90880649256
 20
-854.390191477606
 30
0.0
 40
91.44000000000023
 41
180.0000000000004
 46
0.0
 71
     7
 72
     1
  1
{\fＭＳ ゴシック|b0|i0|c128|p49;7.5}
 11
6.123031769111886E-17
 21
1.0
 31
0.0
 73
     1
 44
1.0
  0
MTEXT
  5
243
330
1F
100
AcDbEntity
  8
0-B_寸法
  6
Continuous
 62
     7
370
     0
100
AcDbMText
 10
-1995.482086265506
 20
-892.592236365689
 30
0.0
 40
91.4400000000013
 41
120.0000000000017
 46
0.0
 71
     7
 72
     1
  1
{\fＭＳ ゴシック|b0|i0|c128|p49;77}
 73
     1
 44
1.0
  0
MTEXT
  5
244
330
1F
100
AcDbEntity
  8
0-B_寸法
  6
Continuous
 62
     7
370
     0
100
AcDbMText
 10
-1121.947519159668
 20
-3240.455445880191
 30
0.0
 40
91.43999999999913
 41
179.9999999999983
 46
0.0
 71
     7
 72
     1
  1
{\fＭＳ ゴシック|b0|i0|c128|p49;6.5}
 11
6.123031769111886E-17
 21
1.0
 31
0.0
 73
     1
 44
1.0
  0
MTEXT
  5
245
330
1F
100
AcDbEntity
  8
0-B_寸法
  6
Continuous
 62
     7
370
   211
100
AcDbMText
 10
-910.1067202038394
 20
-3287.030957071664
 30
0.0
 40
91.44000000000129
 41
60.00000000000085
 46
0.0
 71
     7
 72
     1
  1
{\fＭＳ ゴシック|b0|i0|c128|p49;5}
 11
6.123031769111886E-17
 21
1.0
 31
0.0
 73
     1
 44
1.0
  0
MTEXT
  5
246
330
1F
100
AcDbEntity
  8
0-B_寸法
  6
Continuous
 62
     7
370
   211
100
AcDbMText
 10
-697.0291237012657
 20
-3530.25676669641
 30
0.0
 40
91.44000000000129
 41
120.0000000000017
 46
0.0
 71
     7
 72
     1
  1
{\fＭＳ ゴシック|b0|i0|c128|p49;12}
 11
6.123031769111886E-17
 21
1.0
 31
0.0
 73
     1
 44
1.0
  0
MTEXT
  5
247
330
1F
100
AcDbEntity
  8
0-B_寸法
  6
Continuous
 62
     7
370
   211
100
AcDbMText
 10
-2913.480987632694
 20
-2346.110386786282
 30
0.0
 40
91.4400000000003
 41
780.0000000000025
 46
0.0
 71
     7
 72
     1
  1
{\fＭＳ ゴシック|b0|i0|c128|p49;ＲＯＨ＝2,055}
 11
6.123031769111886E-17
 21
1.0
 31
0.0
 73
     1
 44
1.0
  0
MTEXT
  5
248
330
1F
100
AcDbEntity
  8
0-B_寸法
  6
Continuous
 62
     7
370
     0
100
AcDbMText
 10
-1122.480331080754
 20
-2286.110386786281
 30
0.0
 40
91.44000000000014
 41
660.0000000000009
 46
0.0
 71
     7
 72
     1
  1
{\fＭＳ ゴシック|b0|i0|c128|p49;ＤＨ＝1,983}
 11
6.123031769111886E-17
 21
1.0
 31
0.0
 73
     1
 44
1.0
  0
MTEXT
  5
249
330
1F
100
AcDbEntity
  8
0-B_寸法
  6
Continuous
 62
     7
370
     0
100
AcDbMText
 10
-912.4803310807602
 20
-2286.110386786279
 30
0.0
 40
91.44000000000011
 41
660.0000000000009
 46
0.0
 71
     7
 72
     1
  1
{\fＭＳ ゴシック|b0|i0|c128|p49;枠内＝1,997}
 11
6.123031769111886E-17
 21
1.0
 31
0.0
 73
     1
 44
1.0
  0
MTEXT
  5
24A
330
1F
100
AcDbEntity
  8
0-B_寸法
  6
Continuous
 62
     7
370
     0
100
AcDbMText
 10
-702.481815719691
 20
-2286.110386786279
 30
0.0
 40
91.44000000000011
 41
660.0000000000009
 46
0.0
 71
     7
 72
     1
  1
{\fＭＳ ゴシック|b0|i0|c128|p49;枠外＝2,038}
 11
6.123031769111886E-17
 21
1.0
 31
0.0
 73
     1
 44
1.0
  0
MTEXT
  5
24B
330
1F
100
AcDbEntity
  8
0-A_文字
  6
Continuous
 62
     7
370
   211
100
AcDbMText
 10
-2056.880867493565
 20
-1408.325400787581
 30
0.0
 40
91.43999999999967
 41
239.9999999999991
 46
0.0
 71
     7
 72
     1
  1
{\fＭＳ ゴシック|b0|i0|c128|p49;(24)}
 73
     1
 44
1.0
  0
MTEXT
  5
24C
330
1F
100
AcDbEntity
  8
0-A_文字
  6
Continuous
 62
     7
370
     0
100
AcDbMText
 10
-1885.382499753653
 20
-3678.738031499875
 30
0.0
 40
68.58000000000003
 41
1350.0
 46
0.0
 71
     7
 72
     1
  1
{\fＭＳ ゴシック|b0|i0|c128|p49;※扉厚（　）内はルーバーの場合}
 73
     1
 44
1.0
  0
LINE
  5
24D
330
1F
100
AcDbEntity
  8
0-A_文字
  6
JWW_HOJO
 62
   120
370
     5
100
AcDbLine
 10
-1885.382499753653
 20
-3668.028031499876
 30
0.0
 11
524.1413097701572
 21
-3668.028031499876
 31
0.0
  0
LINE
  5
24E
330
1F
100
AcDbEntity
  8
0-3_仕上げ
  6
Continuous
 62
   120
370
     5
100
AcDbLine
 10
-2166.481536949111
 20
-153.6839760807317
 30
0.0
 11
-1746.481536949111
 21
-153.6839760807317
 31
0.0
  0
LINE
  5
24F
330
1F
100
AcDbEntity
  8
0-3_仕上げ
  6
Continuous
 62
   120
370
     5
100
AcDbLine
 10
-2166.481536949111
 20
-333.6839760807317
 30
0.0
 11
-2166.481536949111
 21
-153.6839760807317
 31
0.0
  0
LINE
  5
250
330
1F
100
AcDbEntity
  8
0-3_仕上げ
  6
Continuous
 62
   120
370
     5
100
AcDbLine
 10
-1746.481536949111
 20
-153.6839760807317
 30
0.0
 11
-1746.481536949111
 21
-333.6839760807317
 31
0.0
  0
LINE
  5
251
330
1F
100
AcDbEntity
  8
0-3_仕上げ
  6
Continuous
 62
   120
370
     5
100
AcDbLine
 10
-1746.481536949111
 20
-333.6839760807317
 30
0.0
 11
-2166.481536949111
 21
-333.6839760807317
 31
0.0
  0
LINE
  5
252
330
1F
100
AcDbEntity
  8
0-3_仕上げ
  6
Continuous
 62
   120
370
     5
100
AcDbLine
 10
-2166.481536949111
 20
-333.6839760807317
 30
0.0
 11
-1746.481536949111
 21
-153.6839760807317
 31
0.0
  0
LINE
  5
253
330
1F
100
AcDbEntity
  8
0-3_仕上げ
  6
Continuous
 62
    40
370
    15
100
AcDbLine
 10
-1671.481536949099
 20
-429.8298970615522
 30
0.0
 11
-1746.481536949099
 21
-429.8298970615522
 31
0.0
  0
LINE
  5
254
330
1F
100
AcDbEntity
  8
0-C_ハッチ
  6
JWW_DASHED1
 62
   120
370
     5
100
AcDbLine
 10
-1697.410489202104
 20
-429.8298970615535
 30
0.0
 11
-1671.481536949098
 21
-403.9009448085494
 31
0.0
  0
LINE
  5
255
330
1F
100
AcDbEntity
  8
0-C_ハッチ
  6
JWW_DASHED1
 62
   120
370
     5
100
AcDbLine
 10
-1739.836896073301
 20
-429.8298970615531
 30
0.0
 11
-1671.481536949101
 21
-361.4745379373528
 31
0.0
  0
LINE
  5
256
330
1F
100
AcDbEntity
  8
0-C_ハッチ
  6
JWW_DASHED1
 62
   120
370
     5
100
AcDbLine
 10
-1746.481536949101
 20
-394.0481310661519
 30
0.0
 11
-1671.481536949104
 21
-319.0481310661562
 31
0.0
  0
LINE
  5
257
330
1F
100
AcDbEntity
  8
0-C_ハッチ
  6
JWW_DASHED1
 62
   120
370
     5
100
AcDbLine
 10
-1746.481536949104
 20
-351.6217241949553
 30
0.0
 11
-1671.481536949093
 21
-276.6217241949438
 31
0.0
  0
LINE
  5
258
330
1F
100
AcDbEntity
  8
0-C_ハッチ
  6
JWW_DASHED1
 62
   120
370
     5
100
AcDbLine
 10
-1746.481536949108
 20
-309.1953173237579
 30
0.0
 11
-1671.481536949097
 21
-234.1953173237464
 31
0.0
  0
LINE
  5
259
330
1F
100
AcDbEntity
  8
0-C_ハッチ
  6
JWW_DASHED1
 62
   120
370
     5
100
AcDbLine
 10
-1746.481536949087
 20
-266.7689104525928
 30
0.0
 11
-1671.481536949093
 21
-191.7689104525996
 31
0.0
  0
LINE
  5
25A
330
1F
100
AcDbEntity
  8
0-C_ハッチ
  6
JWW_DASHED1
 62
   120
370
     5
100
AcDbLine
 10
-1746.481536949093
 20
-224.3425035813983
 30
0.0
 11
-1671.481536949098
 21
-149.342503581403
 31
0.0
  0
LINE
  5
25B
330
1F
100
AcDbEntity
  8
0-C_ハッチ
  6
JWW_DASHED1
 62
   120
370
     5
100
AcDbLine
 10
-1746.48153694909
 20
-181.9160967101962
 30
0.0
 11
-1671.481536949094
 21
-106.9160967101996
 31
0.0
  0
LINE
  5
25C
330
1F
100
AcDbEntity
  8
0-C_ハッチ
  6
JWW_DASHED1
 62
   120
370
     5
100
AcDbLine
 10
-1746.481536949093
 20
-139.4896898389983
 30
0.0
 11
-1671.481536949098
 21
-64.489689839003
 31
0.0
  0
LINE
  5
25D
330
1F
100
AcDbEntity
  8
0-C_ハッチ
  6
JWW_DASHED1
 62
   120
370
     5
100
AcDbLine
 10
-1746.481536949097
 20
-97.06328296780043
 30
0.0
 11
-1671.481536949099
 21
-22.06328296780512
 31
0.0
  0
LINE
  5
25E
330
1F
100
AcDbEntity
  8
0-C_ハッチ
  6
JWW_DASHED1
 62
   120
370
     5
100
AcDbLine
 10
-1746.481536949099
 20
-54.63687609660511
 30
0.0
 11
-1689.844586826406
 21
2.000074026089464
 31
0.0
  0
LINE
  5
25F
330
1F
100
AcDbEntity
  8
0-3_仕上げ
  6
Continuous
 62
    40
370
    15
100
AcDbLine
 10
-1746.481536949099
 20
-429.8298970615522
 30
0.0
 11
-1746.481536949099
 21
2.000074026089464
 31
0.0
  0
LINE
  5
260
330
1F
100
AcDbEntity
  8
0-E
  6
Continuous
 62
    92
370
    13
100
AcDbLine
 10
1718.188248831631
 20
-3177.981209358959
 30
0.0
 11
1718.188248831631
 21
-351.8298970615537
 31
0.0
  0
LINE
  5
261
330
1F
100
AcDbEntity
  8
0-E
  6
Continuous
 62
    92
370
    13
100
AcDbLine
 10
1718.188248831631
 20
-351.8298970615537
 30
0.0
 11
4358.188248831635
 21
-351.8298970615537
 31
0.0
  0
LINE
  5
262
330
1F
100
AcDbEntity
  8
0-E
  6
Continuous
 62
    92
370
    13
100
AcDbLine
 10
-267.481112838949
 20
-351.8298970615537
 30
0.0
 11
1718.188248831631
 21
-351.8298970615537
 31
0.0
  0
LINE
  5
263
330
1F
100
AcDbEntity
  8
0-E
  6
Continuous
 62
    92
370
    13
100
AcDbLine
 10
-267.481112838949
 20
-567.8298970615542
 30
0.0
 11
1718.188248831631
 21
-567.8298970615542
 31
0.0
  0
LINE
  5
264
330
1F
100
AcDbEntity
  8
0-E
  6
Continuous
 62
    92
370
    13
100
AcDbLine
 10
1718.188248831631
 20
-3450.927341890458
 30
0.0
 11
1718.188248831631
 21
-351.8298970615537
 31
0.0
  0
LWPOLYLINE
  5
265
330
1F
100
AcDbEntity
  8
0-E
  6
Continuous
 62
     7
370
     9
100
AcDbPolyline
 90
        4
 70
     1
 43
3.0
 10
317.6690123657905
 20
-843.9498357851974
 42
0.4142135623731
 10
316.1690123657905
 20
-842.4498357851974
 42
0.4142135623731
 10
314.6690123657905
 20
-843.9498357851974
 42
0.4142135623731
 10
316.1690123657905
 20
-845.4498357851975
 42
0.4142135623731
  0
LINE
  5
266
330
1F
100
AcDbEntity
  8
0-E
  6
Continuous
 62
   120
370
     5
100
AcDbLine
 10
316.1690123657905
 20
-843.9498357851974
 30
0.0
 11
316.1690123657905
 21
-987.4918855851981
 31
0.0
  0
LINE
  5
267
330
1F
100
AcDbEntity
  8
0-E
  6
Continuous
 62
    92
370
    13
100
AcDbLine
 10
316.1690123657905
 20
-1037.491885585197
 30
0.0
 11
316.1690123657905
 21
-1912.783091134025
 31
0.0
  0
LINE
  5
268
330
1F
100
AcDbEntity
  8
0-E
  6
Continuous
 62
    92
370
    13
100
AcDbLine
 10
-267.481112838949
 20
-2359.813002591781
 30
0.0
 11
1718.188248831631
 21
-2359.813002591781
 31
0.0
  0
LINE
  5
269
330
1F
100
AcDbEntity
  8
0-E
  6
Continuous
 62
    92
370
    13
100
AcDbLine
 10
-267.481112838949
 20
-2575.813002591781
 30
0.0
 11
1718.188248831631
 21
-2575.813002591781
 31
0.0
  0
MTEXT
  5
26A
330
1F
100
AcDbEntity
  8
0-E
  6
Continuous
 62
     7
370
     0
100
AcDbMText
 10
5.353567996340018
 20
-537.8715200238097
 30
0.0
 40
91.44000000000008
 41
1440.000000000001
 46
0.0
 71
     7
 72
     1
  1
{\fＭＳ ゴシック|b0|i0|c128|p49;竪枠下端形状図（S＝1/3）}
 73
     1
 44
1.0
  0
LINE
  5
26B
330
1F
100
AcDbEntity
  8
0-E
  6
Continuous
 62
     7
370
     9
100
AcDbLine
 10
442.8482918390534
 20
-3037.202984113976
 30
0.0
 11
553.8482918390616
 21
-3037.202984113976
 31
0.0
  0
LINE
  5
26C
330
1F
100
AcDbEntity
  8
0-E
  6
Continuous
 62
     7
370
     9
100
AcDbLine
 10
562.8482918390603
 20
-3046.202984113974
 30
0.0
 11
553.8482918390616
 21
-3037.202984113976
 31
0.0
  0
LINE
  5
26D
330
1F
100
AcDbEntity
  8
0-E
  6
Continuous
 62
     7
370
     9
100
AcDbLine
 10
562.8482918390603
 20
-3046.202984113974
 30
0.0
 11
571.8482918390589
 21
-3037.202984113976
 31
0.0
  0
LINE
  5
26E
330
1F
100
AcDbEntity
  8
0-E
  6
Continuous
 62
     7
370
     9
100
AcDbLine
 10
769.8482918390596
 20
-3046.202984113974
 30
0.0
 11
769.8482918390596
 21
-3061.202984113974
 31
0.0
  0
LINE
  5
26F
330
1F
100
AcDbEntity
  8
0-E
  6
Continuous
 62
     7
370
     9
100
AcDbLine
 10
763.8482918390514
 20
-3067.202984113972
 30
0.0
 11
745.8482918390541
 21
-3067.202984113972
 31
0.0
  0
LINE
  5
270
330
1F
100
AcDbEntity
  8
0-E
  6
Continuous
 62
     7
370
     9
100
AcDbLine
 10
736.8482918390555
 20
-3076.202984113971
 30
0.0
 11
736.8482918390555
 21
-3136.202984113974
 31
0.0
  0
LINE
  5
271
330
1F
100
AcDbEntity
  8
0-E
  6
Continuous
 62
     7
370
     9
100
AcDbLine
 10
751.8482918390555
 20
-3151.202984113974
 30
0.0
 11
943.8482918390548
 21
-3151.202984113981
 31
0.0
  0
LINE
  5
272
330
1F
100
AcDbEntity
  8
0-E
  6
Continuous
 62
     7
370
     9
100
AcDbLine
 10
952.8482918390534
 20
-3160.20298411398
 30
0.0
 11
943.8482918390548
 21
-3151.202984113981
 31
0.0
  0
LINE
  5
273
330
1F
100
AcDbEntity
  8
0-E
  6
Continuous
 62
     7
370
     9
100
AcDbLine
 10
952.8482918390534
 20
-3160.20298411398
 30
0.0
 11
961.848291839056
 21
-3151.202984113981
 31
0.0
  0
LINE
  5
274
330
1F
100
AcDbEntity
  8
0-E
  6
Continuous
 62
     7
370
     9
100
AcDbLine
 10
961.848291839056
 20
-3151.202984113981
 30
0.0
 11
1153.848291839025
 21
-3151.202984113974
 31
0.0
  0
LINE
  5
275
330
1F
100
AcDbEntity
  8
0-E
  6
Continuous
 62
     7
370
     9
100
AcDbLine
 10
1168.848291839028
 20
-3076.202984113971
 30
0.0
 11
1168.848291839028
 21
-3136.202984113974
 31
0.0
  0
LINE
  5
276
330
1F
100
AcDbEntity
  8
0-E
  6
Continuous
 62
     7
370
     9
100
AcDbLine
 10
1141.848291839052
 20
-3067.202984113972
 30
0.0
 11
1159.848291839029
 21
-3067.202984113972
 31
0.0
  0
LINE
  5
277
330
1F
100
AcDbEntity
  8
0-E
  6
Continuous
 62
     7
370
     9
100
AcDbLine
 10
1135.848291839055
 20
-3046.202984113967
 30
0.0
 11
1135.848291839055
 21
-3061.202984113967
 31
0.0
  0
LINE
  5
278
330
1F
100
AcDbEntity
  8
0-E
  6
Continuous
 62
     7
370
     9
100
AcDbLine
 10
1204.848291839029
 20
-3097.202984113979
 30
0.0
 11
1204.848291839025
 21
-3178.202984113973
 31
0.0
  0
LINE
  5
279
330
1F
100
AcDbEntity
  8
0-E
  6
Continuous
 62
     7
370
     9
100
AcDbLine
 10
703.8482918390548
 20
-3090.430906175336
 30
0.0
 11
703.8482918390548
 21
-3148.202984113977
 31
0.0
  0
LINE
  5
27A
330
1F
100
AcDbEntity
  8
0-E
  6
Continuous
 62
     7
370
     9
100
AcDbLine
 10
658.4843308083816
 20
-3114.066945144664
 30
0.0
 11
688.4843308083714
 21
-3084.066945144664
 31
0.0
  0
LINE
  5
27B
330
1F
100
AcDbEntity
  8
0-E
  6
Continuous
 62
     7
370
     9
100
AcDbLine
 10
655.848291839061
 20
-3178.202984113973
 30
0.0
 11
655.848291839061
 21
-3120.430906175342
 31
0.0
  0
LINE
  5
27C
330
1F
100
AcDbEntity
  8
0-E
  6
Continuous
 62
     7
370
     9
100
AcDbLine
 10
622.8482918390569
 20
-3178.202984113973
 30
0.0
 11
655.848291839061
 21
-3178.202984113973
 31
0.0
  0
LINE
  5
27D
330
1F
100
AcDbEntity
  8
0-E
  6
Continuous
 62
     7
370
     9
100
AcDbLine
 10
622.8482918390569
 20
-3178.202984113973
 30
0.0
 11
622.8482918390569
 21
-3100.202984113983
 31
0.0
  0
LINE
  5
27E
330
1F
100
AcDbEntity
  8
0-E
  6
Continuous
 62
     7
370
     9
100
AcDbLine
 10
505.8482918390609
 20
-3097.202984113979
 30
0.0
 11
619.8482918390596
 21
-3097.202984113979
 31
0.0
  0
LINE
  5
27F
330
1F
100
AcDbEntity
  8
0-E
  6
Continuous
 62
     7
370
     9
100
AcDbLine
 10
502.8482918390603
 20
-3178.202984113973
 30
0.0
 11
502.8482918390603
 21
-3100.202984113983
 31
0.0
  0
LINE
  5
280
330
1F
100
AcDbEntity
  8
0-E
  6
Continuous
 62
     7
370
     9
100
AcDbLine
 10
469.8482918390562
 20
-3178.202984113973
 30
0.0
 11
502.8482918390603
 21
-3178.202984113973
 31
0.0
  0
LINE
  5
281
330
1F
100
AcDbEntity
  8
0-E
  6
Continuous
 62
     7
370
     9
100
AcDbLine
 10
469.8482918390562
 20
-3178.202984113973
 30
0.0
 11
469.8482918390562
 21
-3116.702984113985
 31
0.0
  0
LINE
  5
282
330
1F
100
AcDbEntity
  8
0-E
  6
Continuous
 62
     7
370
     9
100
AcDbLine
 10
469.8482918390562
 20
-3116.702984113985
 30
0.0
 11
438.4548935568432
 21
-3085.309585831776
 31
0.0
  0
LINE
  5
283
330
1F
100
AcDbEntity
  8
0-E
  6
Continuous
 62
     7
370
     9
100
AcDbLine
 10
412.8482918390603
 20
-3178.202984113973
 30
0.0
 11
412.8482918390534
 21
-3095.916187549576
 31
0.0
  0
LINE
  5
284
330
1F
100
AcDbEntity
  8
0-E
  6
Continuous
 62
     7
370
     9
100
AcDbLine
 10
382.8482918390569
 20
-3178.202984113973
 30
0.0
 11
412.8482918390603
 21
-3178.202984113973
 31
0.0
  0
LINE
  5
285
330
1F
100
AcDbEntity
  8
0-E
  6
Continuous
 62
     7
370
     9
100
AcDbLine
 10
382.8482918390569
 20
-3178.202984113973
 30
0.0
 11
382.8482918390534
 21
-3097.202984113976
 31
0.0
  0
LINE
  5
286
330
1F
100
AcDbEntity
  8
0-E
  6
Continuous
 62
     7
370
     9
100
AcDbLine
 10
733.8482918390582
 20
-3178.202984113973
 30
0.0
 11
1204.848291839025
 21
-3178.202984113973
 31
0.0
  0
LINE
  5
287
330
1F
100
AcDbEntity
  8
0-E
  6
Continuous
 62
     7
370
     9
100
AcDbLine
 10
760.8482918390541
 20
-3037.202984113972
 30
0.0
 11
571.8482918390589
 21
-3037.202984113972
 31
0.0
  0
ARC
  5
288
330
1F
100
AcDbEntity
  8
0-E
  6
Continuous
 62
     7
370
     9
100
AcDbCircle
 10
760.8482918390541
 20
-3046.202984113971
 30
0.0
 40
9.000000000002899
100
AcDbArc
 50
359.9999999999784
 51
90.00000000000004
  0
ARC
  5
289
330
1F
100
AcDbEntity
  8
0-E
  6
Continuous
 62
     7
370
     9
100
AcDbCircle
 10
763.8482918390514
 20
-3061.202984113971
 30
0.0
 40
6.000000000001368
100
AcDbArc
 50
270.0
 51
359.9999999999674
  0
ARC
  5
28A
330
1F
100
AcDbEntity
  8
0-E
  6
Continuous
 62
     7
370
     9
100
AcDbCircle
 10
745.8482918390541
 20
-3076.202984113971
 30
0.0
 40
8.999999999998636
100
AcDbArc
 50
90.0
 51
180.0
  0
ARC
  5
28B
330
1F
100
AcDbEntity
  8
0-E
  6
Continuous
 62
     7
370
     9
100
AcDbCircle
 10
751.8482918390555
 20
-3136.202984113974
 30
0.0
 40
15.0
100
AcDbArc
 50
180.0
 51
270.0
  0
ARC
  5
28C
330
1F
100
AcDbEntity
  8
0-E
  6
Continuous
 62
     7
370
     9
100
AcDbCircle
 10
1153.848291839025
 20
-3136.202984113974
 30
0.0
 40
15.0
100
AcDbArc
 50
270.0
 51
0.0
  0
ARC
  5
28D
330
1F
100
AcDbEntity
  8
0-E
  6
Continuous
 62
     7
370
     9
100
AcDbCircle
 10
1159.848291839029
 20
-3076.202984113971
 30
0.0
 40
9.000000000000343
100
AcDbArc
 50
0.0
 51
90.0
  0
ARC
  5
28E
330
1F
100
AcDbEntity
  8
0-E
  6
Continuous
 62
     7
370
     9
100
AcDbCircle
 10
1141.848291839052
 20
-3061.202984113971
 30
0.0
 40
5.99999999999966
100
AcDbArc
 50
179.9999999999674
 51
270.0
  0
ARC
  5
28F
330
1F
100
AcDbEntity
  8
0-E
  6
Continuous
 62
     7
370
     9
100
AcDbCircle
 10
1144.848291839056
 20
-3046.202984113967
 30
0.0
 40
8.999999999998636
100
AcDbArc
 50
89.99999999996201
 51
180.0
  0
ARC
  5
290
330
1F
100
AcDbEntity
  8
0-E
  6
Continuous
 62
     7
370
     9
100
AcDbCircle
 10
1144.848291839026
 20
-3097.202984113976
 30
0.0
 40
60.0
100
AcDbArc
 50
359.9999999999968
 51
89.9999999999682
  0
ARC
  5
291
330
1F
100
AcDbEntity
  8
0-E
  6
Continuous
 62
     7
370
     9
100
AcDbCircle
 10
733.8482918390582
 20
-3148.202984113977
 30
0.0
 40
30.0
100
AcDbArc
 50
180.0
 51
270.0
  0
ARC
  5
292
330
1F
100
AcDbEntity
  8
0-E
  6
Continuous
 62
     7
370
     9
100
AcDbCircle
 10
694.8482918390562
 20
-3090.430906175332
 30
0.0
 40
9.000000000000343
100
AcDbArc
 50
359.9999999999784
 51
135.0000000000384
  0
ARC
  5
293
330
1F
100
AcDbEntity
  8
0-E
  6
Continuous
 62
     7
370
     9
100
AcDbCircle
 10
664.848291839063
 20
-3120.430906175339
 30
0.0
 40
8.999999999998023
100
AcDbArc
 50
135.0000000000057
 51
180.0000000000034
  0
ARC
  5
294
330
1F
100
AcDbEntity
  8
0-E
  6
Continuous
 62
     7
370
     9
100
AcDbCircle
 10
619.8482918390596
 20
-3100.202984113983
 30
0.0
 40
2.99999999999983
100
AcDbArc
 50
0.0
 51
90.0
  0
ARC
  5
295
330
1F
100
AcDbEntity
  8
0-E
  6
Continuous
 62
     7
370
     9
100
AcDbCircle
 10
505.8482918390609
 20
-3100.202984113983
 30
0.0
 40
3.000000000000682
100
AcDbArc
 50
90.0
 51
180.0
  0
ARC
  5
296
330
1F
100
AcDbEntity
  8
0-E
  6
Continuous
 62
     7
370
     9
100
AcDbCircle
 10
427.8482918390534
 20
-3095.916187549569
 30
0.0
 40
14.99999999999289
100
AcDbArc
 50
45.0
 51
180.0000000000261
  0
ARC
  5
297
330
1F
100
AcDbEntity
  8
0-E
  6
Continuous
 62
     7
370
     9
100
AcDbCircle
 10
442.8482918390534
 20
-3097.202984113976
 30
0.0
 40
60.0
100
AcDbArc
 50
90.0
 51
180.0
  0
LINE
  5
298
330
1F
100
AcDbEntity
  8
0-E
  6
Continuous
 62
   120
370
     5
100
AcDbLine
 10
382.8482918390569
 20
-2841.704787363767
 30
0.0
 11
1204.848291839025
 21
-2841.704787363767
 31
0.0
  0
LWPOLYLINE
  5
299
330
1F
100
AcDbEntity
  8
0-E
  6
Continuous
 62
     7
370
     9
100
AcDbPolyline
 90
        4
 70
     1
 43
3.0
 10
384.3482918390569
 20
-2841.704787363767
 42
0.4142135623731
 10
382.8482918390569
 20
-2840.204787363767
 42
0.4142135623731
 10
381.3482918390569
 20
-2841.704787363767
 42
0.4142135623731
 10
382.8482918390569
 20
-2843.204787363767
 42
0.4142135623731
  0
LWPOLYLINE
  5
29A
330
1F
100
AcDbEntity
  8
0-E
  6
Continuous
 62
     7
370
     9
100
AcDbPolyline
 90
        4
 70
     1
 43
3.0
 10
1206.348291839025
 20
-2841.704787363767
 42
0.4142135623731
 10
1204.848291839025
 20
-2840.204787363767
 42
0.4142135623731
 10
1203.348291839025
 20
-2841.704787363767
 42
0.4142135623731
 10
1204.848291839025
 20
-2843.204787363767
 42
0.4142135623731
  0
LINE
  5
29B
330
1F
100
AcDbEntity
  8
0-E
  6
Continuous
 62
   120
370
     5
100
AcDbLine
 10
382.8482918390569
 20
-2841.704787363767
 30
0.0
 11
382.8482918390569
 21
-2974.028001105687
 31
0.0
  0
LINE
  5
29C
330
1F
100
AcDbEntity
  8
0-E
  6
Continuous
 62
   120
370
     5
100
AcDbLine
 10
1204.848291839025
 20
-2841.704787363767
 30
0.0
 11
1204.848291839025
 21
-2974.028001105687
 31
0.0
  0
MTEXT
  5
29D
330
1F
100
AcDbEntity
  8
0-E
  6
Continuous
 62
     7
370
   211
100
AcDbMText
 10
673.8482918390407
 20
-2840.984787363764
 30
0.0
 40
91.43999999999967
 41
239.9999999999991
 46
0.0
 71
     7
 72
     1
  1
{\fＭＳ ゴシック|b0|i0|c128|p49;27.4}
 73
     1
 44
1.0
  0
LINE
  5
29E
330
1F
100
AcDbEntity
  8
0-E
  6
Continuous
 62
   120
370
     5
100
AcDbLine
 10
195.1993910859252
 20
-3037.202984113976
 30
0.0
 11
195.1993910859252
 21
-3178.202984113973
 31
0.0
  0
LWPOLYLINE
  5
29F
330
1F
100
AcDbEntity
  8
0-E
  6
Continuous
 62
     7
370
     9
100
AcDbPolyline
 90
        4
 70
     1
 43
3.0
 10
196.6993910859252
 20
-3037.202984113976
 42
0.4142135623731
 10
195.1993910859252
 20
-3035.702984113976
 42
0.4142135623731
 10
193.6993910859252
 20
-3037.202984113976
 42
0.4142135623731
 10
195.1993910859252
 20
-3038.702984113976
 42
0.4142135623731
  0
LWPOLYLINE
  5
2A0
330
1F
100
AcDbEntity
  8
0-E
  6
Continuous
 62
     7
370
     9
100
AcDbPolyline
 90
        4
 70
     1
 43
3.0
 10
196.6993910859252
 20
-3178.202984113973
 42
0.4142135623731
 10
195.1993910859252
 20
-3176.702984113973
 42
0.4142135623731
 10
193.6993910859252
 20
-3178.202984113973
 42
0.4142135623731
 10
195.1993910859252
 20
-3179.702984113973
 42
0.4142135623731
  0
LINE
  5
2A1
330
1F
100
AcDbEntity
  8
0-E
  6
Continuous
 62
   120
370
     5
100
AcDbLine
 10
195.1993910859252
 20
-3037.202984113976
 30
0.0
 11
322.9597353884685
 21
-3037.202984113976
 31
0.0
  0
LINE
  5
2A2
330
1F
100
AcDbEntity
  8
0-E
  6
Continuous
 62
   120
370
     5
100
AcDbLine
 10
195.1993910859252
 20
-3178.202984113973
 30
0.0
 11
322.9597353884685
 21
-3178.202984113973
 31
0.0
  0
MTEXT
  5
2A3
330
1F
100
AcDbEntity
  8
0-E
  6
Continuous
 62
     7
370
   211
100
AcDbMText
 10
180.1993910859261
 20
-3161.449551623148
 30
0.0
 40
91.44000000000129
 41
60.00000000000085
 46
0.0
 71
     7
 72
     1
  1
{\fＭＳ ゴシック|b0|i0|c128|p49;5}
 11
6.123031769111886E-17
 21
1.0
 31
0.0
 73
     1
 44
1.0
  0
MTEXT
  5
2A4
330
1F
100
AcDbEntity
  8
0-E
  6
Continuous
 62
     7
370
     0
100
AcDbMText
 10
128.6331767178626
 20
-2545.854625554035
 30
0.0
 40
91.44
 41
1200.0
 46
0.0
 71
     7
 72
     1
  1
{\fＭＳ ゴシック|b0|i0|c128|p49;下枠詳細図（S＝1/1）}
 73
     1
 44
1.0
  0
LINE
  5
2A5
330
1F
100
AcDbEntity
  8
0-E
  6
Continuous
 62
    92
370
    13
100
AcDbLine
 10
-267.481112838949
 20
-351.8298970615537
 30
0.0
 11
-267.481112838949
 21
-3450.927341890458
 31
0.0
  0
LINE
  5
2A6
330
1F
100
AcDbEntity
  8
0-E
  6
Continuous
 62
    92
370
    13
100
AcDbLine
 10
-267.481112838949
 20
-3450.927341890458
 30
0.0
 11
4358.188248831635
 21
-3450.927341890458
 31
0.0
  0
LINE
  5
2A7
330
1F
100
AcDbEntity
  8
0-E
  6
Continuous
 62
    92
370
    13
100
AcDbLine
 10
4358.188248831635
 20
-351.8298970615537
 30
0.0
 11
4358.188248831635
 21
-3450.927341890458
 31
0.0
  0
LWPOLYLINE
  5
2A8
330
1F
100
AcDbEntity
  8
0-E
  6
Continuous
 62
     7
370
     9
100
AcDbPolyline
 90
        4
 70
     1
 43
3.0
 10
1087.669012365791
 20
-843.9498357851974
 42
0.4142135623731
 10
1086.169012365791
 20
-842.4498357851974
 42
0.4142135623731
 10
1084.669012365791
 20
-843.9498357851974
 42
0.4142135623731
 10
1086.169012365791
 20
-845.4498357851975
 42
0.4142135623731
  0
LINE
  5
2A9
330
1F
100
AcDbEntity
  8
0-E
  6
JWW_HOJO
 62
   120
370
     5
100
AcDbLine
 10
281.1686659500316
 20
-987.4918855851981
 30
0.0
 11
1134.12120157175
 21
-987.4918855851981
 31
0.0
  0
LINE
  5
2AA
330
1F
100
AcDbEntity
  8
0-E
  6
JWW_HOJO
 62
   120
370
     5
100
AcDbLine
 10
281.1686659500316
 20
-1037.491885585197
 30
0.0
 11
1134.12120157175
 21
-1037.491885585197
 31
0.0
  0
LINE
  5
2AB
330
1F
100
AcDbEntity
  8
0-E
  6
Continuous
 62
   120
370
     5
100
AcDbLine
 10
316.1690123657905
 20
-843.9498357851974
 30
0.0
 11
1086.169012365791
 21
-843.9498357851974
 31
0.0
  0
LINE
  5
2AC
330
1F
100
AcDbEntity
  8
0-E
  6
Continuous
 62
   120
370
     5
100
AcDbLine
 10
1086.169012365791
 20
-843.9498357851974
 30
0.0
 11
1086.169012365791
 21
-987.4918855851981
 31
0.0
  0
LINE
  5
2AD
330
1F
100
AcDbEntity
  8
0-E
  6
Continuous
 62
    92
370
    13
100
AcDbLine
 10
1086.169012365791
 20
-1037.491885585197
 30
0.0
 11
1086.169012365791
 21
-1912.783091134025
 31
0.0
  0
LINE
  5
2AE
330
1F
100
AcDbEntity
  8
0-E
  6
Continuous
 62
    92
370
    13
100
AcDbLine
 10
316.1690123657905
 20
-1912.783091134025
 30
0.0
 11
1086.169012365791
 21
-1912.783091134025
 31
0.0
  0
MTEXT
  5
2AF
330
1F
100
AcDbEntity
  8
0-E
  6
Continuous
 62
     7
370
   211
100
AcDbMText
 10
649.1141364108955
 20
-843.2298357851973
 30
0.0
 40
91.43999999999967
 41
119.9999999999996
 46
0.0
 71
     7
 72
     1
  1
{\fＭＳ ゴシック|b0|i0|c128|p49;77}
 73
     1
 44
1.0
  0
LINE
  5
2B0
330
1F
100
AcDbEntity
  8
0-E
  6
Continuous
 62
     7
370
     9
100
AcDbLine
 10
2975.661576196954
 20
-2583.485558114462
 30
0.0
 11
2975.661576196954
 21
-2590.985558114462
 31
0.0
  0
LINE
  5
2B1
330
1F
100
AcDbEntity
  8
0-E
  6
Continuous
 62
     7
370
     9
100
AcDbLine
 10
2857.911576196956
 20
-2540.871835683524
 30
0.0
 11
2910.41157619696
 21
-2540.871835683524
 31
0.0
  0
LINE
  5
2B2
330
1F
100
AcDbEntity
  8
0-E
  6
Continuous
 62
     7
370
     9
100
AcDbLine
 10
2959.911576196959
 20
-2582.123254392211
 30
0.0
 11
2959.911576196959
 21
-2599.371835683518
 31
0.0
  0
LINE
  5
2B3
330
1F
100
AcDbEntity
  8
0-E
  6
Continuous
 62
     7
370
     9
100
AcDbLine
 10
2962.91157619696
 20
-2602.371835683519
 30
0.0
 11
2971.161576196954
 21
-2602.371835683519
 31
0.0
  0
LINE
  5
2B4
330
1F
100
AcDbEntity
  8
0-E
  6
Continuous
 62
     7
370
     9
100
AcDbLine
 10
2971.161576196954
 20
-2602.371835683519
 30
0.0
 11
2971.161576196954
 21
-2612.87183568352
 31
0.0
  0
LINE
  5
2B5
330
1F
100
AcDbEntity
  8
0-E
  6
Continuous
 62
     7
370
     9
100
AcDbLine
 10
2959.911576196959
 20
-2599.371835683518
 30
0.0
 11
2959.911576196959
 21
-2602.371835683519
 31
0.0
  0
LINE
  5
2B6
330
1F
100
AcDbEntity
  8
0-E
  6
Continuous
 62
     7
370
     9
100
AcDbLine
 10
2959.911576196959
 20
-2602.371835683519
 30
0.0
 11
2962.91157619696
 21
-2602.371835683519
 31
0.0
  0
LINE
  5
2B7
330
1F
100
AcDbEntity
  8
0-E
  6
Continuous
 62
     7
370
     9
100
AcDbLine
 10
2929.161576196953
 20
-2552.871835683524
 30
0.0
 11
2929.161576196953
 21
-2560.371835683523
 31
0.0
  0
LINE
  5
2B8
330
1F
100
AcDbEntity
  8
0-E
  6
Continuous
 62
     7
370
     9
100
AcDbLine
 10
2929.161576196953
 20
-2552.871835683524
 30
0.0
 11
2921.661576196956
 21
-2545.371835683524
 31
0.0
  0
LINE
  5
2B9
330
1F
100
AcDbEntity
  8
0-E
  6
Continuous
 62
     7
370
     9
100
AcDbLine
 10
2846.661576196956
 20
-2545.371835683524
 30
0.0
 11
2839.161576196956
 21
-2552.871835683524
 31
0.0
  0
LINE
  5
2BA
330
1F
100
AcDbEntity
  8
0-E
  6
Continuous
 62
     7
370
     9
100
AcDbLine
 10
2839.161576196957
 20
-2560.371835683523
 30
0.0
 11
2839.161576196956
 21
-2552.871835683524
 31
0.0
  0
LINE
  5
2BB
330
1F
100
AcDbEntity
  8
0-E
  6
Continuous
 62
     7
370
     9
100
AcDbLine
 10
2805.41157619695
 20
-2602.371835683519
 30
0.0
 11
2808.41157619695
 21
-2602.371835683519
 31
0.0
  0
LINE
  5
2BC
330
1F
100
AcDbEntity
  8
0-E
  6
Continuous
 62
     7
370
     9
100
AcDbLine
 10
2808.41157619695
 20
-2602.371835683519
 30
0.0
 11
2808.41157619695
 21
-2599.371835683518
 31
0.0
  0
LINE
  5
2BD
330
1F
100
AcDbEntity
  8
0-E
  6
Continuous
 62
     7
370
     9
100
AcDbLine
 10
2797.161576196955
 20
-2612.87183568352
 30
0.0
 11
2797.161576196955
 21
-2602.371835683519
 31
0.0
  0
LINE
  5
2BE
330
1F
100
AcDbEntity
  8
0-E
  6
Continuous
 62
     7
370
     9
100
AcDbLine
 10
2797.161576196955
 20
-2602.371835683519
 30
0.0
 11
2805.41157619695
 21
-2602.371835683519
 31
0.0
  0
LINE
  5
2BF
330
1F
100
AcDbEntity
  8
0-E
  6
Continuous
 62
     7
370
     9
100
AcDbLine
 10
2808.41157619695
 20
-2599.371835683518
 30
0.0
 11
2808.41157619695
 21
-2582.123254392211
 31
0.0
  0
ARC
  5
2C0
330
1F
100
AcDbEntity
  8
0-E
  6
Continuous
 62
     7
370
     9
100
AcDbCircle
 10
2959.161576196956
 20
-2612.87183568352
 30
0.0
 40
12.00000000000012
100
AcDbArc
 50
270.0
 51
0.0
  0
ARC
  5
2C1
330
1F
100
AcDbEntity
  8
0-E
  6
Continuous
 62
     7
370
     9
100
AcDbCircle
 10
2809.161576196957
 20
-2612.87183568352
 30
0.0
 40
12.00000000000017
100
AcDbArc
 50
180.0
 51
270.0
  0
LINE
  5
2C2
330
1F
100
AcDbEntity
  8
0-E
  6
Continuous
 62
     7
370
     9
100
AcDbLine
 10
2839.161576196957
 20
-2537.565704795242
 30
0.0
 11
2929.161576196953
 21
-2537.565704795241
 31
0.0
  0
LINE
  5
2C3
330
1F
100
AcDbEntity
  8
0-E
  6
Continuous
 62
     7
370
     9
100
AcDbLine
 10
2857.911576196956
 20
-2540.871835683524
 30
0.0
 11
2839.161576196957
 21
-2537.565704795242
 31
0.0
  0
LINE
  5
2C4
330
1F
100
AcDbEntity
  8
0-E
  6
Continuous
 62
     7
370
     9
100
AcDbLine
 10
2910.41157619696
 20
-2540.871835683524
 30
0.0
 11
2929.161576196953
 21
-2537.565704795241
 31
0.0
  0
LINE
  5
2C5
330
1F
100
AcDbEntity
  8
0-E
  6
Continuous
 62
     7
370
     9
100
AcDbLine
 10
2857.911576196956
 20
-2540.871835683524
 30
0.0
 11
2857.911576196956
 21
-2545.371835683524
 31
0.0
  0
LINE
  5
2C6
330
1F
100
AcDbEntity
  8
0-E
  6
Continuous
 62
     7
370
     9
100
AcDbLine
 10
2910.41157619696
 20
-2540.871835683524
 30
0.0
 11
2910.41157619696
 21
-2545.371835683524
 31
0.0
  0
LINE
  5
2C7
330
1F
100
AcDbEntity
  8
0-E
  6
Continuous
 62
     7
370
     9
100
AcDbLine
 10
2846.661576196956
 20
-2545.371835683524
 30
0.0
 11
2921.661576196956
 21
-2545.371835683524
 31
0.0
  0
LINE
  5
2C8
330
1F
100
AcDbEntity
  8
0-E
  6
Continuous
 62
     7
370
     9
100
AcDbLine
 10
2929.161576196953
 20
-2552.871835683524
 30
0.0
 11
2839.161576196956
 21
-2552.871835683517
 31
0.0
  0
LINE
  5
2C9
330
1F
100
AcDbEntity
  8
0-E
  6
Continuous
 62
     7
370
     9
100
AcDbLine
 10
2806.478949354699
 20
-2581.817156371445
 30
0.0
 11
2808.41157619695
 21
-2582.123254392211
 31
0.0
  0
LINE
  5
2CA
330
1F
100
AcDbEntity
  8
0-E
  6
Continuous
 62
     7
370
     9
100
AcDbLine
 10
2808.41157619695
 20
-2602.371835683519
 30
0.0
 11
2959.911576196959
 21
-2602.371835683519
 31
0.0
  0
LINE
  5
2CB
330
1F
100
AcDbEntity
  8
0-E
  6
Continuous
 62
     7
370
     9
100
AcDbLine
 10
2809.161576196957
 20
-2624.87183568352
 30
0.0
 11
2959.161576196956
 21
-2624.87183568352
 31
0.0
  0
LINE
  5
2CC
330
1F
100
AcDbEntity
  8
0-E
  6
Continuous
 62
     7
370
     9
100
AcDbLine
 10
2808.41157619695
 20
-2582.280653809828
 30
0.0
 11
2959.911576196959
 21
-2582.280653809828
 31
0.0
  0
LINE
  5
2CD
330
1F
100
AcDbEntity
  8
0-E
  6
Continuous
 62
     7
370
     9
100
AcDbLine
 10
2839.161576196984
 20
-2476.985558114466
 30
0.0
 11
2839.161576196957
 21
-2537.565704795242
 31
0.0
  0
LINE
  5
2CE
330
1F
100
AcDbEntity
  8
0-E
  6
Continuous
 62
     7
370
     9
100
AcDbLine
 10
2929.161576196953
 20
-2537.565704795241
 30
0.0
 11
2929.161576196983
 21
-2476.985558114466
 31
0.0
  0
LINE
  5
2CF
330
1F
100
AcDbEntity
  8
0-E
  6
Continuous
 62
     7
370
     9
100
AcDbLine
 10
2959.911576196959
 20
-2582.123254392211
 30
0.0
 11
2983.597101751112
 21
-2578.371835683524
 31
0.0
  0
LINE
  5
2D0
330
1F
100
AcDbEntity
  8
0-E
  6
Continuous
 62
     7
370
     9
100
AcDbLine
 10
2983.597101751112
 20
-2578.371835683524
 30
0.0
 11
2996.661576196953
 21
-2578.371835683524
 31
0.0
  0
LINE
  5
2D1
330
1F
100
AcDbEntity
  8
0-E
  6
Continuous
 62
     7
370
     9
100
AcDbLine
 10
2996.661576196956
 20
-2567.871835683524
 30
0.0
 11
2996.661576196953
 21
-2578.371835683524
 31
0.0
  0
ARC
  5
2D2
330
1F
100
AcDbEntity
  8
0-E
  6
Continuous
 62
     7
370
     9
100
AcDbCircle
 10
2989.161576196953
 20
-2567.871835683524
 30
0.0
 40
7.500000000001705
100
AcDbArc
 50
0.0
 51
90.0
  0
LINE
  5
2D3
330
1F
100
AcDbEntity
  8
0-E
  6
Continuous
 62
     7
370
     9
100
AcDbLine
 10
2929.161576196953
 20
-2560.371835683523
 30
0.0
 11
2989.161576196953
 21
-2560.371835683523
 31
0.0
  0
LINE
  5
2D4
330
1F
100
AcDbEntity
  8
0-E
  6
Continuous
 62
     7
370
     9
100
AcDbLine
 10
2779.161576196957
 20
-2560.371835683523
 30
0.0
 11
2929.161576196953
 21
-2560.371835683523
 31
0.0
  0
LINE
  5
2D5
330
1F
100
AcDbEntity
  8
0-E
  6
Continuous
 62
     7
370
     9
100
AcDbLine
 10
2784.726050642797
 20
-2578.371835683524
 30
0.0
 11
2806.478949354699
 21
-2581.817156371445
 31
0.0
  0
LINE
  5
2D6
330
1F
100
AcDbEntity
  8
0-E
  6
Continuous
 62
     7
370
     9
100
AcDbLine
 10
2771.661576196957
 20
-2578.371835683524
 30
0.0
 11
2784.726050642797
 21
-2578.371835683524
 31
0.0
  0
LINE
  5
2D7
330
1F
100
AcDbEntity
  8
0-E
  6
Continuous
 62
     7
370
     9
100
AcDbLine
 10
2771.661576196957
 20
-2578.371835683524
 30
0.0
 11
2771.661576196957
 21
-2567.871835683524
 31
0.0
  0
ARC
  5
2D8
330
1F
100
AcDbEntity
  8
0-E
  6
Continuous
 62
     7
370
     9
100
AcDbCircle
 10
2779.161576196957
 20
-2567.871835683524
 30
0.0
 40
7.5
100
AcDbArc
 50
90.0
 51
180.0
  0
LINE
  5
2D9
330
1F
100
AcDbEntity
  8
0-4_枠
  6
Continuous
 62
    92
370
    13
100
AcDbLine
 10
-2166.481536949099
 20
-381.8298970615537
 30
0.0
 11
-2166.481536949099
 21
-1881.83038678628
 31
0.0
  0
LINE
  5
2DA
330
1F
100
AcDbEntity
  8
0-4_枠
  6
Continuous
 62
    92
370
    13
100
AcDbLine
 10
-2166.481536949099
 20
-2001.83038678628
 30
0.0
 11
-2166.481536949099
 21
-3309.830676290871
 31
0.0
  0
LINE
  5
2DB
330
1F
100
AcDbEntity
  8
0-4_枠
  6
Continuous
 62
    92
370
    13
100
AcDbLine
 10
-1704.481536949098
 20
-3309.830676290871
 30
0.0
 11
-1704.481536949098
 21
-2001.83038678628
 31
0.0
  0
LINE
  5
2DC
330
1F
100
AcDbEntity
  8
0-4_枠
  6
Continuous
 62
    92
370
    13
100
AcDbLine
 10
-1704.481536949098
 20
-1881.83038678628
 30
0.0
 11
-1704.481536949098
 21
-537.8298970615529
 31
0.0
  0
LINE
  5
2DD
330
1F
100
AcDbEntity
  8
0-E
  6
Continuous
 62
    92
370
    13
100
AcDbLine
 10
1718.18824883163
 20
-567.8298970615542
 30
0.0
 11
4358.188248831636
 21
-567.8298970615542
 31
0.0
  0
MTEXT
  5
2DE
330
1F
100
AcDbEntity
  8
0-E
  6
Continuous
 62
     7
370
     9
100
AcDbMText
 10
2018.188248831634
 20
-532.0003508303666
 30
0.0
 40
91.44000000000003
 41
2100.0
 46
0.0
 71
     7
 72
     1
  1
{\fＭＳ ゴシック|b0|i0|c128|p49;床直付レール取り付け位置（Ｓ＝1/2）}
 73
     1
 44
1.0
  0
LINE
  5
2DF
330
1F
100
AcDbEntity
  8
1-E
  6
Continuous
 62
    40
370
    15
100
AcDbLine
 10
4080.688248831634
 20
-2649.485558114466
 30
0.0
 11
1995.688248831631
 21
-2649.485558114466
 31
0.0
  0
LINE
  5
2E0
330
1F
100
AcDbEntity
  8
1-E
  6
Continuous
 62
    40
370
    15
100
AcDbLine
 10
1995.688248831631
 20
-2829.48550244051
 30
0.0
 11
4080.688248831634
 21
-2829.48550244051
 31
0.0
  0
LINE
  5
2E1
330
1F
100
AcDbEntity
  8
1-E
  6
Continuous
 62
     7
370
     9
100
AcDbLine
 10
1995.688248831631
 20
-2769.485211698713
 30
0.0
 11
4080.688248831634
 21
-2769.485211698713
 31
0.0
  0
LINE
  5
2E2
330
1F
100
AcDbEntity
  8
1-E
  6
Continuous
 62
     7
370
     9
100
AcDbLine
 10
1995.688248831631
 20
-2739.48529830265
 30
0.0
 11
4080.688248831634
 21
-2739.48529830265
 31
0.0
  0
LINE
  5
2E3
330
1F
100
AcDbEntity
  8
1-E
  6
Continuous
 62
     7
370
     9
100
AcDbLine
 10
1995.688248831631
 20
-2799.485589044451
 30
0.0
 11
4080.688248831634
 21
-2799.485589044451
 31
0.0
  0
LINE
  5
2E4
330
1F
100
AcDbEntity
  8
1-E
  6
Continuous
 62
     7
370
     9
100
AcDbLine
 10
1995.688248831631
 20
-2709.485384906591
 30
0.0
 11
4080.688248831634
 21
-2709.485384906591
 31
0.0
  0
LINE
  5
2E5
330
1F
100
AcDbEntity
  8
1-E
  6
Continuous
 62
     7
370
     9
100
AcDbLine
 10
1995.688248831631
 20
-2679.485007560858
 30
0.0
 11
4080.688248831634
 21
-2679.485007560858
 31
0.0
  0
LINE
  5
2E6
330
1F
100
AcDbEntity
  8
1-E
  6
Continuous
 62
     7
370
     9
100
AcDbLine
 10
2629.161576196955
 20
-2578.985558114467
 30
0.0
 11
2684.661576196957
 21
-2578.985558114467
 31
0.0
  0
LINE
  5
2E7
330
1F
100
AcDbEntity
  8
1-E
  6
Continuous
 62
     7
370
     9
100
AcDbLine
 10
2689.161576196957
 20
-2583.485558114466
 30
0.0
 11
2684.661576196957
 21
-2578.985558114467
 31
0.0
  0
LINE
  5
2E8
330
1F
100
AcDbEntity
  8
1-E
  6
Continuous
 62
     7
370
     9
100
AcDbLine
 10
2689.161576196957
 20
-2583.485558114466
 30
0.0
 11
2693.661576196957
 21
-2578.985558114467
 31
0.0
  0
ARC
  5
2E9
330
1F
100
AcDbEntity
  8
1-E
  6
Continuous
 62
     7
370
     9
100
AcDbCircle
 10
2788.161576196955
 20
-2583.485558114464
 30
0.0
 40
4.500000000001449
100
AcDbArc
 50
359.9999999999784
 51
90.00000000000004
  0
LINE
  5
2EA
330
1F
100
AcDbEntity
  8
1-E
  6
Continuous
 62
     7
370
     9
100
AcDbLine
 10
2792.661576196956
 20
-2583.485558114466
 30
0.0
 11
2792.661576196956
 21
-2590.985558114466
 31
0.0
  0
ARC
  5
2EB
330
1F
100
AcDbEntity
  8
1-E
  6
Continuous
 62
     7
370
     9
100
AcDbCircle
 10
2789.661576196954
 20
-2590.985558114464
 30
0.0
 40
3.000000000000683
100
AcDbArc
 50
270.0
 51
359.9999999999674
  0
LINE
  5
2EC
330
1F
100
AcDbEntity
  8
1-E
  6
Continuous
 62
     7
370
     9
100
AcDbLine
 10
2789.661576196954
 20
-2593.985558114465
 30
0.0
 11
2780.661576196955
 21
-2593.985558114465
 31
0.0
  0
ARC
  5
2ED
330
1F
100
AcDbEntity
  8
1-E
  6
Continuous
 62
     7
370
     9
100
AcDbCircle
 10
2780.661576196955
 20
-2598.485558114464
 30
0.0
 40
4.499999999999318
100
AcDbArc
 50
90.0
 51
180.0
  0
LINE
  5
2EE
330
1F
100
AcDbEntity
  8
1-E
  6
Continuous
 62
     7
370
     9
100
AcDbLine
 10
2776.161576196954
 20
-2598.485558114464
 30
0.0
 11
2776.161576196954
 21
-2628.485558114466
 31
0.0
  0
ARC
  5
2EF
330
1F
100
AcDbEntity
  8
1-E
  6
Continuous
 62
     7
370
     9
100
AcDbCircle
 10
2783.661576196954
 20
-2628.485558114466
 30
0.0
 40
7.5
100
AcDbArc
 50
180.0
 51
270.0
  0
LINE
  5
2F0
330
1F
100
AcDbEntity
  8
1-E
  6
Continuous
 62
     7
370
     9
100
AcDbLine
 10
2783.661576196954
 20
-2635.985558114466
 30
0.0
 11
2879.661576196954
 21
-2635.98555811447
 31
0.0
  0
LINE
  5
2F1
330
1F
100
AcDbEntity
  8
1-E
  6
Continuous
 62
     7
370
     9
100
AcDbLine
 10
2884.161576196955
 20
-2640.485558114469
 30
0.0
 11
2879.661576196954
 21
-2635.98555811447
 31
0.0
  0
LINE
  5
2F2
330
1F
100
AcDbEntity
  8
1-E
  6
Continuous
 62
     7
370
     9
100
AcDbLine
 10
2884.161576196955
 20
-2640.485558114469
 30
0.0
 11
2888.661576196954
 21
-2635.98555811447
 31
0.0
  0
LINE
  5
2F3
330
1F
100
AcDbEntity
  8
1-E
  6
Continuous
 62
     7
370
     9
100
AcDbLine
 10
2888.661576196954
 20
-2635.98555811447
 30
0.0
 11
2984.66157619694
 21
-2635.985558114466
 31
0.0
  0
ARC
  5
2F4
330
1F
100
AcDbEntity
  8
1-E
  6
Continuous
 62
     7
370
     9
100
AcDbCircle
 10
2984.66157619694
 20
-2628.485558114466
 30
0.0
 40
7.5
100
AcDbArc
 50
270.0
 51
0.0
  0
LINE
  5
2F5
330
1F
100
AcDbEntity
  8
1-E
  6
Continuous
 62
     7
370
     9
100
AcDbLine
 10
2992.161576196941
 20
-2598.485558114464
 30
0.0
 11
2992.161576196941
 21
-2628.485558114466
 31
0.0
  0
ARC
  5
2F6
330
1F
100
AcDbEntity
  8
1-E
  6
Continuous
 62
     7
370
     9
100
AcDbCircle
 10
2987.661576196941
 20
-2598.485558114464
 30
0.0
 40
4.500000000000171
100
AcDbArc
 50
0.0
 51
90.0
  0
LINE
  5
2F7
330
1F
100
AcDbEntity
  8
1-E
  6
Continuous
 62
     7
370
     9
100
AcDbLine
 10
2978.661576196954
 20
-2593.985558114465
 30
0.0
 11
2987.661576196941
 21
-2593.985558114465
 31
0.0
  0
ARC
  5
2F8
330
1F
100
AcDbEntity
  8
1-E
  6
Continuous
 62
     7
370
     9
100
AcDbCircle
 10
2978.661576196954
 20
-2590.985558114464
 30
0.0
 40
2.99999999999983
100
AcDbArc
 50
179.9999999999674
 51
270.0
  0
LINE
  5
2F9
330
1F
100
AcDbEntity
  8
1-E
  6
Continuous
 62
     7
370
     9
100
AcDbLine
 10
2975.661576196955
 20
-2583.485558114463
 30
0.0
 11
2975.661576196955
 21
-2590.985558114463
 31
0.0
  0
ARC
  5
2FA
330
1F
100
AcDbEntity
  8
1-E
  6
Continuous
 62
     7
370
     9
100
AcDbCircle
 10
2980.161576196954
 20
-2583.485558114463
 30
0.0
 40
4.499999999999318
100
AcDbArc
 50
89.99999999996201
 51
180.0
  0
ARC
  5
2FB
330
1F
100
AcDbEntity
  8
1-E
  6
Continuous
 62
     7
370
     9
100
AcDbCircle
 10
2980.161576196939
 20
-2608.985558114467
 30
0.0
 40
30.0
100
AcDbArc
 50
359.9999999999968
 51
89.9999999999682
  0
LINE
  5
2FC
330
1F
100
AcDbEntity
  8
1-E
  6
Continuous
 62
     7
370
     9
100
AcDbLine
 10
3010.161576196942
 20
-2608.985558114468
 30
0.0
 11
3010.16157619694
 21
-2649.485558114466
 31
0.0
  0
ARC
  5
2FD
330
1F
100
AcDbEntity
  8
1-E
  6
Continuous
 62
     7
370
     9
100
AcDbCircle
 10
2774.661576196955
 20
-2634.485558114467
 30
0.0
 40
15.0
100
AcDbArc
 50
180.0
 51
270.0
  0
LINE
  5
2FE
330
1F
100
AcDbEntity
  8
1-E
  6
Continuous
 62
     7
370
     9
100
AcDbLine
 10
2759.661576196955
 20
-2605.599519145147
 30
0.0
 11
2759.661576196955
 21
-2634.485558114467
 31
0.0
  0
ARC
  5
2FF
330
1F
100
AcDbEntity
  8
1-E
  6
Continuous
 62
     7
370
     9
100
AcDbCircle
 10
2755.161576196954
 20
-2605.599519145145
 30
0.0
 40
4.500000000000171
100
AcDbArc
 50
359.9999999999784
 51
135.0000000000384
  0
LINE
  5
300
330
1F
100
AcDbEntity
  8
1-E
  6
Continuous
 62
     7
370
     9
100
AcDbLine
 10
2736.979595681619
 20
-2617.41753862981
 30
0.0
 11
2751.979595681614
 21
-2602.41753862981
 31
0.0
  0
ARC
  5
301
330
1F
100
AcDbEntity
  8
1-E
  6
Continuous
 62
     7
370
     9
100
AcDbCircle
 10
2740.161576196958
 20
-2620.599519145148
 30
0.0
 40
4.499999999999011
100
AcDbArc
 50
135.0000000000057
 51
180.0000000000034
  0
LINE
  5
302
330
1F
100
AcDbEntity
  8
1-E
  6
Continuous
 62
     7
370
     9
100
AcDbLine
 10
2735.661576196957
 20
-2649.485558114466
 30
0.0
 11
2735.661576196957
 21
-2620.599519145149
 31
0.0
  0
LINE
  5
303
330
1F
100
AcDbEntity
  8
1-E
  6
Continuous
 62
     7
370
     9
100
AcDbLine
 10
2719.161576196955
 20
-2649.485558114466
 30
0.0
 11
2735.661576196957
 21
-2649.485558114466
 31
0.0
  0
LINE
  5
304
330
1F
100
AcDbEntity
  8
1-E
  6
Continuous
 62
     7
370
     9
100
AcDbLine
 10
2719.161576196955
 20
-2649.485558114466
 30
0.0
 11
2719.161576196955
 21
-2610.48555811447
 31
0.0
  0
ARC
  5
305
330
1F
100
AcDbEntity
  8
1-E
  6
Continuous
 62
     7
370
     9
100
AcDbCircle
 10
2717.661576196956
 20
-2610.48555811447
 30
0.0
 40
1.499999999999915
100
AcDbArc
 50
0.0
 51
90.0
  0
LINE
  5
306
330
1F
100
AcDbEntity
  8
1-E
  6
Continuous
 62
     7
370
     9
100
AcDbLine
 10
2660.661576196957
 20
-2608.985558114468
 30
0.0
 11
2717.661576196956
 21
-2608.985558114468
 31
0.0
  0
ARC
  5
307
330
1F
100
AcDbEntity
  8
1-E
  6
Continuous
 62
     7
370
     9
100
AcDbCircle
 10
2660.661576196957
 20
-2610.48555811447
 30
0.0
 40
1.500000000000341
100
AcDbArc
 50
90.0
 51
180.0
  0
LINE
  5
308
330
1F
100
AcDbEntity
  8
1-E
  6
Continuous
 62
     7
370
     9
100
AcDbLine
 10
2659.161576196957
 20
-2649.485558114466
 30
0.0
 11
2659.161576196957
 21
-2610.48555811447
 31
0.0
  0
LINE
  5
309
330
1F
100
AcDbEntity
  8
1-E
  6
Continuous
 62
     7
370
     9
100
AcDbLine
 10
2642.661576196954
 20
-2649.485558114466
 30
0.0
 11
2659.161576196957
 21
-2649.485558114466
 31
0.0
  0
LINE
  5
30A
330
1F
100
AcDbEntity
  8
1-E
  6
Continuous
 62
     7
370
     9
100
AcDbLine
 10
2642.661576196954
 20
-2649.485558114466
 30
0.0
 11
2642.661576196954
 21
-2618.735558114471
 31
0.0
  0
LINE
  5
30B
330
1F
100
AcDbEntity
  8
1-E
  6
Continuous
 62
     7
370
     9
100
AcDbLine
 10
2642.661576196954
 20
-2618.735558114471
 30
0.0
 11
2626.964877055848
 21
-2603.038858973367
 31
0.0
  0
ARC
  5
30C
330
1F
100
AcDbEntity
  8
1-E
  6
Continuous
 62
     7
370
     9
100
AcDbCircle
 10
2621.661576196955
 20
-2608.342159832263
 30
0.0
 40
7.499999999996444
100
AcDbArc
 50
45.0
 51
180.0000000000261
  0
LINE
  5
30D
330
1F
100
AcDbEntity
  8
1-E
  6
Continuous
 62
     7
370
     9
100
AcDbLine
 10
2614.161576196957
 20
-2649.485558114466
 30
0.0
 11
2614.161576196953
 21
-2608.342159832267
 31
0.0
  0
LINE
  5
30E
330
1F
100
AcDbEntity
  8
1-E
  6
Continuous
 62
     7
370
     9
100
AcDbLine
 10
2599.161576196957
 20
-2649.485558114466
 30
0.0
 11
2614.161576196957
 21
-2649.485558114466
 31
0.0
  0
LINE
  5
30F
330
1F
100
AcDbEntity
  8
1-E
  6
Continuous
 62
     7
370
     9
100
AcDbLine
 10
2599.161576196957
 20
-2649.485558114466
 30
0.0
 11
2599.161576196953
 21
-2608.985558114467
 31
0.0
  0
ARC
  5
310
330
1F
100
AcDbEntity
  8
1-E
  6
Continuous
 62
     7
370
     9
100
AcDbCircle
 10
2629.161576196955
 20
-2608.985558114467
 30
0.0
 40
30.0
100
AcDbArc
 50
90.0
 51
180.0
  0
LINE
  5
311
330
1F
100
AcDbEntity
  8
1-E
  6
Continuous
 62
     7
370
     9
100
AcDbLine
 10
2774.661576196955
 20
-2649.485558114466
 30
0.0
 11
3010.16157619694
 21
-2649.485558114466
 31
0.0
  0
LINE
  5
312
330
1F
100
AcDbEntity
  8
1-E
  6
Continuous
 62
     7
370
     9
100
AcDbLine
 10
2788.161576196955
 20
-2578.985558114465
 30
0.0
 11
2693.661576196957
 21
-2578.985558114465
 31
0.0
  0
LINE
  5
313
330
1F
100
AcDbEntity
  8
1-E
  6
Continuous
 62
    92
370
    13
100
AcDbLine
 10
2306.660202905941
 20
-829.9825769684672
 30
0.0
 11
2306.660202905941
 21
-2649.485558114466
 31
0.0
  0
LINE
  5
314
330
1F
100
AcDbEntity
  8
1-E
  6
Continuous
 62
    92
370
    13
100
AcDbLine
 10
3461.660202905942
 20
-829.9825769684672
 30
0.0
 11
3461.660202905942
 21
-2649.485558114466
 31
0.0
  0
LINE
  5
315
330
1F
100
AcDbEntity
  8
1-E
  6
Continuous
 62
   120
370
     5
100
AcDbLine
 10
2306.660202905941
 20
-1109.658634951822
 30
0.0
 11
3461.660202905942
 21
-1109.658634951822
 31
0.0
  0
LWPOLYLINE
  5
316
330
1F
100
AcDbEntity
  8
1-E
  6
Continuous
 62
     7
370
     9
100
AcDbPolyline
 90
        4
 70
     1
 43
3.0
 10
2308.160202905941
 20
-1109.658634951822
 42
0.4142135623731
 10
2306.660202905941
 20
-1108.158634951822
 42
0.4142135623731
 10
2305.160202905941
 20
-1109.658634951822
 42
0.4142135623731
 10
2306.660202905941
 20
-1111.158634951822
 42
0.4142135623731
  0
LWPOLYLINE
  5
317
330
1F
100
AcDbEntity
  8
1-E
  6
Continuous
 62
     7
370
     9
100
AcDbPolyline
 90
        4
 70
     1
 43
3.0
 10
3463.160202905942
 20
-1109.658634951822
 42
0.4142135623731
 10
3461.660202905942
 20
-1108.158634951822
 42
0.4142135623731
 10
3460.160202905942
 20
-1109.658634951822
 42
0.4142135623731
 10
3461.660202905942
 20
-1111.158634951822
 42
0.4142135623731
  0
LINE
  5
318
330
1F
100
AcDbEntity
  8
1-E
  6
JWW_CENTER1
 62
   120
370
     5
100
AcDbLine
 10
2884.161576196955
 20
-2969.717948411251
 30
0.0
 11
2884.161576196955
 21
-829.9825769684672
 31
0.0
  0
LINE
  5
319
330
1F
100
AcDbEntity
  8
1-E
  6
Continuous
 62
     7
370
     9
100
AcDbLine
 10
3662.146866588606
 20
-1656.145834298808
 30
0.0
 11
4157.701585148974
 21
-1656.145834298808
 31
0.0
  0
LINE
  5
31A
330
1F
100
AcDbEntity
  8
1-E
  6
Continuous
 62
     7
370
     9
100
AcDbLine
 10
4157.701585148974
 20
-1656.145834298808
 30
0.0
 11
4157.701585148974
 21
-1850.425809188952
 31
0.0
  0
LINE
  5
31B
330
1F
100
AcDbEntity
  8
1-E
  6
Continuous
 62
     7
370
     9
100
AcDbLine
 10
4157.701585148974
 20
-1850.425809188952
 30
0.0
 11
3662.146866588606
 21
-1850.425809188952
 31
0.0
  0
LINE
  5
31C
330
1F
100
AcDbEntity
  8
1-E
  6
Continuous
 62
     7
370
     9
100
AcDbLine
 10
3662.146866588606
 20
-1850.425809188952
 30
0.0
 11
3662.146866588606
 21
-1656.145834298808
 31
0.0
  0
LINE
  5
31D
330
1F
100
AcDbEntity
  8
1-E
  6
Continuous
 62
   120
370
     5
100
AcDbLine
 10
2599.161576196957
 20
-2383.985558114463
 30
0.0
 11
3010.16157619694
 21
-2383.985558114463
 31
0.0
  0
LWPOLYLINE
  5
31E
330
1F
100
AcDbEntity
  8
1-E
  6
Continuous
 62
     7
370
     9
100
AcDbPolyline
 90
        4
 70
     1
 43
3.0
 10
2600.661576196957
 20
-2383.985558114463
 42
0.4142135623731
 10
2599.161576196957
 20
-2382.485558114463
 42
0.4142135623731
 10
2597.661576196957
 20
-2383.985558114463
 42
0.4142135623731
 10
2599.161576196957
 20
-2385.485558114463
 42
0.4142135623731
  0
LWPOLYLINE
  5
31F
330
1F
100
AcDbEntity
  8
1-E
  6
Continuous
 62
     7
370
     9
100
AcDbPolyline
 90
        4
 70
     1
 43
3.0
 10
3011.66157619694
 20
-2383.985558114463
 42
0.4142135623731
 10
3010.16157619694
 20
-2382.485558114463
 42
0.4142135623731
 10
3008.661576196941
 20
-2383.985558114463
 42
0.4142135623731
 10
3010.16157619694
 20
-2385.485558114463
 42
0.4142135623731
  0
LINE
  5
320
330
1F
100
AcDbEntity
  8
1-E
  6
Continuous
 62
   120
370
     5
100
AcDbLine
 10
2599.161576196957
 20
-2383.985558114463
 30
0.0
 11
2599.161576196957
 21
-2533.985558114463
 31
0.0
  0
LINE
  5
321
330
1F
100
AcDbEntity
  8
1-E
  6
Continuous
 62
   120
370
     5
100
AcDbLine
 10
3010.16157619694
 20
-2383.985558114463
 30
0.0
 11
3010.16157619694
 21
-2533.985558114463
 31
0.0
  0
LINE
  5
322
330
1F
100
AcDbEntity
  8
1-E
  6
Continuous
 62
   120
370
     5
100
AcDbLine
 10
3010.16157619694
 20
-2383.985558114463
 30
0.0
 11
3461.660202905942
 21
-2383.985558114463
 31
0.0
  0
LWPOLYLINE
  5
323
330
1F
100
AcDbEntity
  8
1-E
  6
Continuous
 62
     7
370
     9
100
AcDbPolyline
 90
        4
 70
     1
 43
3.0
 10
3463.160202905942
 20
-2383.985558114463
 42
0.4142135623731
 10
3461.660202905942
 20
-2382.485558114463
 42
0.4142135623731
 10
3460.160202905942
 20
-2383.985558114463
 42
0.4142135623731
 10
3461.660202905942
 20
-2385.485558114463
 42
0.4142135623731
  0
LINE
  5
324
330
1F
100
AcDbEntity
  8
1-E
  6
Continuous
 62
   120
370
     5
100
AcDbLine
 10
3461.660202905942
 20
-2383.985558114463
 30
0.0
 11
3461.660202905942
 21
-2533.985558114463
 31
0.0
  0
MTEXT
  5
325
330
1F
100
AcDbEntity
  8
1-E
  6
Continuous
 62
     7
370
     9
100
AcDbMText
 10
3669.92422586879
 20
-1626.255296529399
 30
0.0
 40
91.44
 41
480.0
 46
0.0
 71
     7
 72
     1
  1
{\fＭＳ ゴシック|b0|i0|c128|p49;竪枠前面}
 73
     1
 44
1.0
  0
MTEXT
  5
326
330
1F
100
AcDbEntity
  8
1-E
  6
Continuous
 62
     7
370
     9
100
AcDbMText
 10
3729.92422586879
 20
-1827.56582174388
 30
0.0
 40
91.44
 41
360.0
 46
0.0
 71
     7
 72
     1
  1
{\fＭＳ ゴシック|b0|i0|c128|p49;室内側}
 73
     1
 44
1.0
  0
MTEXT
  5
327
330
1F
100
AcDbEntity
  8
1-E
  6
Continuous
 62
     7
370
   211
100
AcDbMText
 10
2824.160202905941
 20
-1108.938634951822
 30
0.0
 40
91.44
 41
120.0
 46
0.0
 71
     7
 72
     1
  1
{\fＭＳ ゴシック|b0|i0|c128|p49;77}
 73
     1
 44
1.0
  0
MTEXT
  5
328
330
1F
100
AcDbEntity
  8
1-E
  6
Continuous
 62
     7
370
   211
100
AcDbMText
 10
2684.661576196949
 20
-2383.265558114463
 30
0.0
 40
91.44
 41
240.0
 46
0.0
 71
     7
 72
     1
  1
{\fＭＳ ゴシック|b0|i0|c128|p49;27.4}
 73
     1
 44
1.0
  0
MTEXT
  5
329
330
1F
100
AcDbEntity
  8
1-E
  6
Continuous
 62
     7
370
   211
100
AcDbMText
 10
3175.910889551442
 20
-2383.265558114463
 30
0.0
 40
91.44
 41
120.0
 46
0.0
 71
     7
 72
     1
  1
{\fＭＳ ゴシック|b0|i0|c128|p49;30}
 73
     1
 44
1.0
  0
MTEXT
  5
32A
330
1F
100
AcDbEntity
  8
0-B_寸法
  6
Continuous
 62
     7
370
   211
100
AcDbMText
 10
-1187.670872622499
 20
2287.665146596494
 30
0.0
 40
91.44
 41
120.0
 46
0.0
 71
     7
 72
     1
  1
{\fＭＳ ゴシック|b0|i0|c128|p49;20}
 11
6.123031769111886E-17
 21
1.0
 31
0.0
 73
     1
 44
1.0
  0
MTEXT
  5
32B
330
1F
100
AcDbEntity
  8
0-B_寸法
  6
Continuous
 62
     7
370
     0
100
AcDbMText
 10
-1999.232091523091
 20
-1244.100226288687
 30
0.0
 40
91.44000000000263
 41
120.0000000000034
 46
0.0
 71
     7
 72
     1
  1
{\fＭＳ ゴシック|b0|i0|c128|p49;20}
 11
0.9999999999914964
 21
4.124000483235921E-6
 31
0.0
 73
     1
 44
1.0
  0
MTEXT
  5
32C
330
1F
100
AcDbEntity
  8
F-A_文字
  6
Continuous
 62
     7
370
     0
100
AcDbMText
 10
4938.667793092893
 20
-3938.071010139966
 30
0.0
 40
78.86699999999999
 41
517.5
 46
0.0
 71
     7
 72
     1
  1
{\fＭＳ ゴシック|b0|i0|c128|p49;2024.04.01}
 73
     1
 44
1.0
  0
LINE
  5
32D
330
1F
100
AcDbEntity
  8
0-6_扉
  6
Continuous
 62
   200
370
    20
100
AcDbLine
 10
-1998.481287529594
 20
2421.945146596495
 30
0.0
 11
5.518712470405944
 21
2421.945146596495
 31
0.0
  0
LINE
  5
32E
330
1F
100
AcDbEntity
  8
0-6_扉
  6
Continuous
 62
   200
370
    20
100
AcDbLine
 10
11.51871247041072
 20
2421.945146596495
 30
0.0
 11
2015.51871247041
 21
2421.945146596495
 31
0.0
  0
LINE
  5
32F
330
1F
100
AcDbEntity
  8
0-0_補助線
  6
Continuous
 62
   120
370
     5
100
AcDbLine
 10
-1983.481287529594
 20
2324.359196304034
 30
0.0
 11
-1983.481287529594
 21
2402.688459527219
 31
0.0
  0
LINE
  5
330
330
1F
100
AcDbEntity
  8
0-0_補助線
  6
Continuous
 62
   120
370
     5
100
AcDbLine
 10
-1998.481287529594
 20
2324.359196304034
 30
0.0
 11
-1998.481287529594
 21
2402.688459527219
 31
0.0
  0
LWPOLYLINE
  5
331
330
1F
100
AcDbEntity
  8
0-B_寸法
  6
Continuous
 62
     7
370
     9
100
AcDbPolyline
 90
        4
 70
     1
 43
3.0
 10
-1171.1708726225
 20
2421.945146596495
 42
0.4142135623731
 10
-1172.6708726225
 20
2423.445146596495
 42
0.4142135623731
 10
-1174.1708726225
 20
2421.945146596495
 42
0.4142135623731
 10
-1172.6708726225
 20
2420.445146596495
 42
0.4142135623731
  0
CIRCLE
  5
332
330
1F
100
AcDbEntity
  8
0-7_金物
  6
Continuous
 62
     7
370
     9
100
AcDbCircle
 10
8.518712470409184
 20
2451.945146596472
 30
0.0
 40
21.00000000000001
  0
CIRCLE
  5
333
330
1F
100
AcDbEntity
  8
0-7_金物
  6
Continuous
 62
     7
370
     9
100
AcDbCircle
 10
8.518712470409184
 20
2451.945146596472
 30
0.0
 40
30.0
  0
LINE
  5
334
330
1F
100
AcDbEntity
  8
0-6_扉
  6
Continuous
 62
   200
370
    20
100
AcDbLine
 10
-1998.481287529594
 20
2301.945146596495
 30
0.0
 11
5.518712470405944
 21
2301.945146596495
 31
0.0
  0
LINE
  5
335
330
1F
100
AcDbEntity
  8
0-6_扉
  6
Continuous
 62
   200
370
    20
100
AcDbLine
 10
11.51871247041072
 20
2301.945146596495
 30
0.0
 11
2015.51871247041
 21
2301.945146596495
 31
0.0
  0
LWPOLYLINE
  5
336
330
1F
100
AcDbEntity
  8
0-B_寸法
  6
Continuous
 62
     7
370
     9
100
AcDbPolyline
 90
        4
 70
     1
 43
3.0
 10
-1171.1708726225
 20
2301.945146596495
 42
0.4142135623731
 10
-1172.6708726225
 20
2303.445146596495
 42
0.4142135623731
 10
-1174.1708726225
 20
2301.945146596495
 42
0.4142135623731
 10
-1172.6708726225
 20
2300.445146596495
 42
0.4142135623731
  0
LINE
  5
337
330
1F
100
AcDbEntity
  8
0-6_扉
  6
Continuous
 62
   200
370
    20
100
AcDbLine
 10
-1998.481287529594
 20
2421.945146596495
 30
0.0
 11
-1998.481287529594
 21
2301.945146596495
 31
0.0
  0
LINE
  5
338
330
1F
100
AcDbEntity
  8
0-6_扉
  6
Continuous
 62
   200
370
    20
100
AcDbLine
 10
5.518712470405944
 20
2421.945146596495
 30
0.0
 11
5.518712470405944
 21
2301.945146596495
 31
0.0
  0
LINE
  5
339
330
1F
100
AcDbEntity
  8
0-6_扉
  6
Continuous
 62
   200
370
    20
100
AcDbLine
 10
2015.51871247041
 20
2421.945146596495
 30
0.0
 11
2015.51871247041
 21
2301.945146596495
 31
0.0
  0
LINE
  5
33A
330
1F
100
AcDbEntity
  8
0-6_扉
  6
Continuous
 62
   200
370
    20
100
AcDbLine
 10
11.51871247040646
 20
2421.945146596495
 30
0.0
 11
11.51871247040646
 21
2301.945146596495
 31
0.0
  0
LINE
  5
33B
330
1F
100
AcDbEntity
  8
0-B_寸法
  6
Continuous
 62
   120
370
     5
100
AcDbLine
 10
-1172.6708726225
 20
2421.945146596495
 30
0.0
 11
-1172.6708726225
 21
2301.945146596495
 31
0.0
  0
LWPOLYLINE
  5
33C
330
1F
100
AcDbEntity
  8
0-B_寸法
  6
Continuous
 62
     7
370
     9
100
AcDbPolyline
 90
        4
 70
     1
 43
3.0
 10
-1873.980987632694
 20
-1244.819842756759
 42
0.4142135623731
 10
-1875.480987632694
 20
-1243.319842756759
 42
0.4142135623731
 10
-1876.980987632694
 20
-1244.819842756759
 42
0.4142135623731
 10
-1875.480987632694
 20
-1246.319842756759
 42
0.4142135623731
  0
LINE
  5
33D
330
1F
100
AcDbEntity
  8
0-B_寸法
  6
Continuous
 62
   120
370
     5
100
AcDbLine
 10
-1875.480987632694
 20
-1160.582914177788
 30
0.0
 11
-1875.480987632694
 21
-1244.819842756759
 31
0.0
  0
LINE
  5
33E
330
1F
100
AcDbEntity
  8
0-6_扉
  6
Continuous
 62
   200
370
    20
100
AcDbLine
 10
-1875.480987632694
 20
-642.8298055088193
 30
0.0
 11
-1875.480987632694
 21
-1881.83038678628
 31
0.0
  0
LWPOLYLINE
  5
33F
330
1F
100
AcDbEntity
  8
0-B_寸法
  6
Continuous
 62
     7
370
     9
100
AcDbPolyline
 90
        4
 70
     1
 43
3.0
 10
-1993.980987632695
 20
-1244.819842756759
 42
0.4142135623731
 10
-1995.480987632694
 20
-1243.319842756759
 42
0.4142135623731
 10
-1996.980987632694
 20
-1244.819842756759
 42
0.4142135623731
 10
-1995.480987632694
 20
-1246.319842756759
 42
0.4142135623731
  0
LINE
  5
340
330
1F
100
AcDbEntity
  8
0-B_寸法
  6
Continuous
 62
   120
370
     5
100
AcDbLine
 10
-1995.480987632694
 20
-1160.582914177788
 30
0.0
 11
-1995.480987632694
 21
-1244.819842756759
 31
0.0
  0
LINE
  5
341
330
1F
100
AcDbEntity
  8
0-6_扉
  6
Continuous
 62
   200
370
    20
100
AcDbLine
 10
-1995.480987632694
 20
-642.8298055088193
 30
0.0
 11
-1995.480987632694
 21
-1881.83038678628
 31
0.0
  0
LINE
  5
342
330
1F
100
AcDbEntity
  8
0-6_扉
  6
Continuous
 62
   200
370
    20
100
AcDbLine
 10
-1995.480987632694
 20
-3004.432628160518
 30
0.0
 11
-1995.480987632694
 21
-3240.830676290871
 31
0.0
  0
LINE
  5
343
330
1F
100
AcDbEntity
  8
0-6_扉
  6
Continuous
 62
   200
370
    20
100
AcDbLine
 10
-1995.480987632694
 20
-642.8298055088193
 30
0.0
 11
-1875.480987632694
 21
-642.8298055088193
 31
0.0
  0
LINE
  5
344
330
1F
100
AcDbEntity
  8
0-B_寸法
  6
Continuous
 62
   120
370
     5
100
AcDbLine
 10
-1995.480987632694
 20
-1244.819842756759
 30
0.0
 11
-1875.480987632694
 21
-1244.819842756759
 31
0.0
  0
LINE
  5
345
330
1F
100
AcDbEntity
  8
0-6_扉
  6
Continuous
 62
   200
370
    20
100
AcDbLine
 10
-1995.480987632694
 20
-2001.83038678628
 30
0.0
 11
-1995.480987632694
 21
-3240.830676290871
 31
0.0
  0
LINE
  5
346
330
1F
100
AcDbEntity
  8
0-6_扉
  6
Continuous
 62
   200
370
    20
100
AcDbLine
 10
-1875.480987632694
 20
-3004.432628160518
 30
0.0
 11
-1875.480987632694
 21
-3240.830676290871
 31
0.0
  0
LINE
  5
347
330
1F
100
AcDbEntity
  8
0-6_扉
  6
Continuous
 62
   200
370
    20
100
AcDbLine
 10
-1875.480987632694
 20
-2001.83038678628
 30
0.0
 11
-1875.480987632694
 21
-3240.830676290871
 31
0.0
  0
LINE
  5
348
330
1F
100
AcDbEntity
  8
0-6_扉
  6
Continuous
 62
   200
370
    20
100
AcDbLine
 10
-1875.480987632694
 20
-3240.830676290871
 30
0.0
 11
-1995.480987632694
 21
-3240.830676290871
 31
0.0
  0
LINE
  5
349
330
1F
100
AcDbEntity
  8
1-E
  6
JWW_DASHED2
 62
     7
370
     9
100
AcDbLine
 10
3034.161576196955
 20
-829.9825769684672
 30
0.0
 11
3034.161576196955
 21
-2476.985558114466
 31
0.0
  0
LINE
  5
34A
330
1F
100
AcDbEntity
  8
1-E
  6
JWW_DASHED2
 62
     7
370
     9
100
AcDbLine
 10
3034.161576196955
 20
-2476.985558114466
 30
0.0
 11
2734.161576196955
 21
-2476.985558114466
 31
0.0
  0
LINE
  5
34B
330
1F
100
AcDbEntity
  8
1-E
  6
JWW_DASHED2
 62
     7
370
     9
100
AcDbLine
 10
2734.161576196955
 20
-829.9825769684672
 30
0.0
 11
2734.161576196955
 21
-2476.985558114466
 31
0.0
  0
ENDSEC
  0
SECTION
  2
OBJECTS
  0
DICTIONARY
  5
C
330
0
100
AcDbDictionary
281
     1
  3
ACAD_GROUP
350
D
  3
ACAD_LAYOUT
350
1A
  3
ACAD_MATERIAL
350
3B
  3
ACAD_MLEADERSTYLE
350
34D
  3
ACAD_MLINESTYLE
350
17
  3
ACAD_PLOTSETTINGS
350
19
  3
ACAD_PLOTSTYLENAME
350
E
  3
ACAD_TABLESTYLE
350
34C
  3
ACAD_VISUALSTYLE
350
2A
  0
DICTIONARY
  5
D
102
{ACAD_REACTORS
330
C
102
}
330
C
100
AcDbDictionary
281
     1
  0
DICTIONARY
  5
1A
102
{ACAD_REACTORS
330
C
102
}
330
C
100
AcDbDictionary
281
     1
  3
Layout1
350
1E
  3
Layout2
350
26
  3
Model
350
22
  0
DICTIONARY
  5
3B
102
{ACAD_REACTORS
330
C
102
}
330
C
100
AcDbDictionary
281
     1
  3
ByBlock
350
3D
  3
ByLayer
350
3C
  3
Global
350
3E
  0
DICTIONARY
  5
34D
102
{ACAD_REACTORS
330
C
102
}
330
C
100
AcDbDictionary
281
     1
  0
DICTIONARY
  5
17
102
{ACAD_REACTORS
330
C
102
}
330
C
100
AcDbDictionary
281
     1
  3
Standard
350
18
  0
DICTIONARY
  5
19
102
{ACAD_REACTORS
330
C
102
}
330
C
100
AcDbDictionary
281
     1
  0
ACDBDICTIONARYWDFLT
  5
E
102
{ACAD_REACTORS
330
C
102
}
330
C
100
AcDbDictionary
281
     1
  3
Normal
350
F
100
AcDbDictionaryWithDefault
340
F
  0
DICTIONARY
  5
34C
102
{ACAD_REACTORS
330
C
102
}
330
C
100
AcDbDictionary
281
     1
  0
DICTIONARY
  5
2A
102
{ACAD_REACTORS
330
C
102
}
330
C
100
AcDbDictionary
281
     1
  3
2dWireframe
350
2F
  3
3D Hidden
350
31
  3
3dWireframe
350
30
  3
Basic
350
32
  3
Brighten
350
36
  3
ColorChange
350
3A
  3
Conceptual
350
34
  3
Dim
350
35
  3
Facepattern
350
39
  3
Flat
350
2B
  3
FlatWithEdges
350
2C
  3
Gouraud
350
2D
  3
GouraudWithEdges
350
2E
  3
Linepattern
350
38
  3
Realistic
350
33
  3
Thicken
350
37
  0
LAYOUT
  5
1E
102
{ACAD_REACTORS
330
1A
102
}
330
1A
100
AcDbPlotSettings
  1

  2
none_device
  4

  6

 40
0.0
 41
0.0
 42
0.0
 43
0.0
 44
0.0
 45
0.0
 46
0.0
 47
0.0
 48
0.0
 49
0.0
140
0.0
141
0.0
142
1.0
143
1.0
 70
   688
 72
     0
 73
     0
 74
     5
  7

 75
    16
 76
     0
 77
     5
 78
   300
147
1.0
148
0.0
149
0.0
100
AcDbLayout
  1
Layout1
 70
     1
 71
     1
 10
0.0
 20
0.0
 11
420.0
 21
297.0
 12
0.0
 22
0.0
 32
0.0
 14
1.000000000000000E+20
 24
1.000000000000000E+20
 34
1.000000000000000E+20
 15
-1.000000000000000E+20
 25
-1.000000000000000E+20
 35
-1.000000000000000E+20
146
0.0
 13
0.0
 23
0.0
 33
0.0
 16
1.0
 26
0.0
 36
0.0
 17
0.0
 27
1.0
 37
0.0
 76
     0
330
1B
  0
LAYOUT
  5
26
102
{ACAD_REACTORS
330
1A
102
}
330
1A
100
AcDbPlotSettings
  1

  2
none_device
  4

  6

 40
0.0
 41
0.0
 42
0.0
 43
0.0
 44
0.0
 45
0.0
 46
0.0
 47
0.0
 48
0.0
 49
0.0
140
0.0
141
0.0
142
1.0
143
1.0
 70
   688
 72
     0
 73
     0
 74
     5
  7

 75
    16
 76
     0
 77
     5
 78
   300
147
1.0
148
0.0
149
0.0
100
AcDbLayout
  1
Layout2
 70
     1
 71
     2
 10
0.0
 20
0.0
 11
0.0
 21
0.0
 12
0.0
 22
0.0
 32
0.0
 14
0.0
 24
0.0
 34
0.0
 15
0.0
 25
0.0
 35
0.0
146
0.0
 13
0.0
 23
0.0
 33
0.0
 16
1.0
 26
0.0
 36
0.0
 17
0.0
 27
1.0
 37
0.0
 76
     0
330
23
  0
LAYOUT
  5
22
102
{ACAD_REACTORS
330
1A
102
}
330
1A
100
AcDbPlotSettings
  1

  2
none_device
  4

  6

 40
0.0
 41
0.0
 42
0.0
 43
0.0
 44
0.0
 45
0.0
 46
0.0
 47
0.0
 48
0.0
 49
0.0
140
0.0
141
0.0
142
1.0
143
1.0
 70
  1712
 72
     0
 73
     0
 74
     0
  7

 75
     0
 76
     0
 77
     5
 78
   300
147
1.0
148
0.0
149
0.0
100
AcDbLayout
  1
Model
 70
     1
 71
     0
 10
-6300.0
 20
-4455.0
 11
6300.0
 21
4455.0
 12
0.0
 22
0.0
 32
0.0
 14
-6300.0
 24
-4455.0
 34
0.0
 15
6300.0
 25
4455.0
 35
0.0
146
0.0
 13
0.0
 23
0.0
 33
0.0
 16
1.0
 26
0.0
 36
0.0
 17
0.0
 27
1.0
 37
0.0
 76
     0
330
1F
331
29
  0
MATERIAL
  5
3D
102
{ACAD_REACTORS
330
3B
102
}
330
3B
100
AcDbMaterial
  1
ByBlock
 72
     1
 94
      127
  0
MATERIAL
  5
3C
102
{ACAD_REACTORS
330
3B
102
}
330
3B
100
AcDbMaterial
  1
ByLayer
 72
     1
 94
      127
  0
MATERIAL
  5
3E
102
{ACAD_REACTORS
330
3B
102
}
330
3B
100
AcDbMaterial
  1
Global
 72
     1
 94
      127
  0
MLINESTYLE
  5
18
102
{ACAD_REACTORS
330
17
102
}
330
17
100
AcDbMlineStyle
  2
Standard
 70
     0
  3

 62
   256
 51
90.0
 52
90.0
 71
     2
 49
0.5
 62
   256
  6
BYLAYER
 49
-0.5
 62
   256
  6
BYLAYER
  0
ACDBPLACEHOLDER
  5
F
102
{ACAD_REACTORS
330
E
102
}
330
E
  0
VISUALSTYLE
  5
2F
102
{ACAD_REACTORS
330
2A
102
}
330
2A
100
AcDbVisualStyle
  2
2dWireframe
 70
     4
177
     2
291
     0
 71
     0
176
     1
 72
     2
176
     1
 73
     0
176
     1
 90
        0
176
     1
 40
-0.6
176
     1
 41
-30.0
176
     1
 62
     5
 63
     7
421
 16777215
176
     1
 74
     1
176
     1
 91
        4
176
     1
 64
     7
176
     1
 65
   257
176
     1
 75
     1
176
     1
175
     1
176
     1
 42
1.0
176
     1
 92
        0
176
     1
 66
   257
176
     1
 43
1.0
176
     1
 76
     1
176
     1
 77
     6
176
     1
 78
     2
176
     1
 67
     7
176
     1
 79
     5
176
     1
170
     0
176
     1
171
     0
176
     1
290
     0
176
     1
 93
        1
176
     1
 44
0.0
176
     1
173
     0
176
     1
  0
VISUALSTYLE
  5
31
102
{ACAD_REACTORS
330
2A
102
}
330
2A
100
AcDbVisualStyle
  2
3D Hidden
 70
     6
177
     2
291
     0
 71
     1
176
     1
 72
     2
176
     1
 73
     2
176
     1
 90
        0
176
     1
 40
-0.6
176
     1
 41
-30.0
176
     1
 62
     5
 63
     7
421
 16777215
176
     1
 74
     2
176
     1
 91
        2
176
     1
 64
     7
176
     1
 65
   257
176
     1
 75
     2
176
     1
175
     1
176
     1
 42
40.0
176
     1
 92
        0
176
     1
 66
   257
176
     1
 43
1.0
176
     1
 76
     1
176
     1
 77
     6
176
     1
 78
     2
176
     1
 67
     7
176
     1
 79
     3
176
     1
170
     0
176
     1
171
     0
176
     1
290
     0
176
     1
 93
        1
176
     1
 44
0.0
176
     1
173
     0
176
     1
  0
VISUALSTYLE
  5
30
102
{ACAD_REACTORS
330
2A
102
}
330
2A
100
AcDbVisualStyle
  2
3dWireframe
 70
     5
177
     2
291
     0
 71
     0
176
     1
 72
     2
176
     1
 73
     0
176
     1
 90
        0
176
     1
 40
-0.6
176
     1
 41
-30.0
176
     1
 62
     5
 63
     7
421
 16777215
176
     1
 74
     1
176
     1
 91
        4
176
     1
 64
     7
176
     1
 65
   257
176
     1
 75
     1
176
     1
175
     1
176
     1
 42
1.0
176
     1
 92
        0
176
     1
 66
   257
176
     1
 43
1.0
176
     1
 76
     1
176
     1
 77
     6
176
     1
 78
     2
176
     1
 67
     7
176
     1
 79
     5
176
     1
170
     0
176
     1
171
     0
176
     1
290
     0
176
     1
 93
        1
176
     1
 44
0.0
176
     1
173
     0
176
     1
  0
VISUALSTYLE
  5
32
102
{ACAD_REACTORS
330
2A
102
}
330
2A
100
AcDbVisualStyle
  2
Basic
 70
     7
177
     2
291
     1
 71
     1
176
     1
 72
     0
176
     1
 73
     1
176
     1
 90
        0
176
     1
 40
-0.6
176
     1
 41
-30.0
176
     1
 62
     5
 63
     7
421
 16777215
176
     1
 74
     0
176
     1
 91
        4
176
     1
 64
     7
176
     1
 65
   257
176
     1
 75
     1
176
     1
175
     1
176
     1
 42
1.0
176
     1
 92
        8
176
     1
 66
     7
176
     1
 43
1.0
176
     1
 76
     1
176
     1
 77
     6
176
     1
 78
     2
176
     1
 67
     7
176
     1
 79
     5
176
     1
170
     0
176
     1
171
     0
176
     1
290
     0
176
     1
 93
        1
176
     1
 44
0.0
176
     1
173
     0
176
     1
  0
VISUALSTYLE
  5
36
102
{ACAD_REACTORS
330
2A
102
}
330
2A
100
AcDbVisualStyle
  2
Brighten
 70
    12
177
     2
291
     1
 71
     2
176
     1
 72
     2
176
     1
 73
     0
176
     1
 90
        0
176
     1
 40
-0.6
176
     1
 41
-30.0
176
     1
 62
     5
 63
     7
421
 16777215
176
     1
 74
     1
176
     1
 91
        4
176
     1
 64
     7
176
     1
 65
   257
176
     1
 75
     1
176
     1
175
     1
176
     1
 42
1.0
176
     1
 92
        8
176
     1
 66
     7
176
     1
 43
1.0
176
     1
 76
     1
176
     1
 77
     6
176
     1
 78
     2
176
     1
 67
     7
176
     1
 79
     5
176
     1
170
     0
176
     1
171
     0
176
     1
290
     0
176
     1
 93
        1
176
     1
 44
50.0
176
     1
173
     0
176
     1
  0
VISUALSTYLE
  5
3A
102
{ACAD_REACTORS
330
2A
102
}
330
2A
100
AcDbVisualStyle
  2
ColorChange
 70
    16
177
     2
291
     1
 71
     2
176
     1
 72
     2
176
     1
 73
     3
176
     1
 90
        0
176
     1
 40
-0.6
176
     1
 41
-30.0
176
     1
 62
     5
 63
     8
421
  8421504
176
     1
 74
     1
176
     1
 91
        4
176
     1
 64
     7
176
     1
 65
   257
176
     1
 75
     1
176
     1
175
     1
176
     1
 42
1.0
176
     1
 92
        8
176
     1
 66
     8
424
  8421504
176
     1
 43
1.0
176
     1
 76
     1
176
     1
 77
     6
176
     1
 78
     2
176
     1
 67
     7
176
     1
 79
     5
176
     1
170
     0
176
     1
171
     0
176
     1
290
     0
176
     1
 93
        1
176
     1
 44
0.0
176
     1
173
     0
176
     1
  0
VISUALSTYLE
  5
34
102
{ACAD_REACTORS
330
2A
102
}
330
2A
100
AcDbVisualStyle
  2
Conceptual
 70
     9
177
     2
291
     0
 71
     3
176
     1
 72
     2
176
     1
 73
     0
176
     1
 90
        0
176
     1
 40
-0.6
176
     1
 41
-30.0
176
     1
 62
     5
 63
     7
421
 16777215
176
     1
 74
     2
176
     1
 91
        2
176
     1
 64
     7
176
     1
 65
   257
176
     1
 75
     1
176
     1
175
     1
176
     1
 42
40.0
176
     1
 92
        8
176
     1
 66
     7
176
     1
 43
1.0
176
     1
 76
     1
176
     1
 77
     6
176
     1
 78
     2
176
     1
 67
     7
176
     1
 79
     3
176
     1
170
     0
176
     1
171
     0
176
     1
290
     0
176
     1
 93
        1
176
     1
 44
0.0
176
     1
173
     0
176
     1
  0
VISUALSTYLE
  5
35
102
{ACAD_REACTORS
330
2A
102
}
330
2A
100
AcDbVisualStyle
  2
Dim
 70
    11
177
     2
291
     1
 71
     2
176
     1
 72
     2
176
     1
 73
     0
176
     1
 90
        0
176
     1
 40
-0.6
176
     1
 41
-30.0
176
     1
 62
     5
 63
     7
421
 16777215
176
     1
 74
     1
176
     1
 91
        4
176
     1
 64
     7
176
     1
 65
   257
176
     1
 75
     1
176
     1
175
     1
176
     1
 42
1.0
176
     1
 92
        8
176
     1
 66
     7
176
     1
 43
1.0
176
     1
 76
     1
176
     1
 77
     6
176
     1
 78
     2
176
     1
 67
     7
176
     1
 79
     5
176
     1
170
     0
176
     1
171
     0
176
     1
290
     0
176
     1
 93
        1
176
     1
 44
-50.0
176
     1
173
     0
176
     1
  0
VISUALSTYLE
  5
39
102
{ACAD_REACTORS
330
2A
102
}
330
2A
100
AcDbVisualStyle
  2
Facepattern
 70
    15
177
     2
291
     1
 71
     2
176
     1
 72
     2
176
     1
 73
     0
176
     1
 90
        0
176
     1
 40
-0.6
176
     1
 41
-30.0
176
     1
 62
     5
 63
     7
421
 16777215
176
     1
 74
     1
176
     1
 91
        4
176
     1
 64
     7
176
     1
 65
   257
176
     1
 75
     1
176
     1
175
     1
176
     1
 42
1.0
176
     1
 92
        8
176
     1
 66
     7
176
     1
 43
1.0
176
     1
 76
     1
176
     1
 77
     6
176
     1
 78
     2
176
     1
 67
     7
176
     1
 79
     5
176
     1
170
     0
176
     1
171
     0
176
     1
290
     0
176
     1
 93
        1
176
     1
 44
0.0
176
     1
173
     0
176
     1
  0
VISUALSTYLE
  5
2B
102
{ACAD_REACTORS
330
2A
102
}
330
2A
100
AcDbVisualStyle
  2
Flat
 70
     0
177
     2
291
     1
 71
     2
176
     1
 72
     1
176
     1
 73
     1
176
     1
 90
        2
176
     1
 40
-0.6
176
     1
 41
30.0
176
     1
 62
     5
 63
     7
421
 16777215
176
     1
 74
     0
176
     1
 91
        4
176
     1
 64
     7
176
     1
 65
   257
176
     1
 75
     1
176
     1
175
     1
176
     1
 42
1.0
176
     1
 92
        8
176
     1
 66
     7
176
     1
 43
1.0
176
     1
 76
     1
176
     1
 77
     6
176
     1
 78
     2
176
     1
 67
     7
176
     1
 79
     5
176
     1
170
     0
176
     1
171
     0
176
     1
290
     0
176
     1
 93
       13
176
     1
 44
0.0
176
     1
173
     0
176
     1
  0
VISUALSTYLE
  5
2C
102
{ACAD_REACTORS
330
2A
102
}
330
2A
100
AcDbVisualStyle
  2
FlatWithEdges
 70
     1
177
     2
291
     1
 71
     2
176
     1
 72
     1
176
     1
 73
     1
176
     1
 90
        2
176
     1
 40
-0.6
176
     1
 41
30.0
176
     1
 62
     5
 63
     7
421
 16777215
176
     1
 74
     1
176
     1
 91
        4
176
     1
 64
     7
176
     1
 65
   257
176
     1
 75
     1
176
     1
175
     1
176
     1
 42
1.0
176
     1
 92
        0
176
     1
 66
   257
176
     1
 43
1.0
176
     1
 76
     1
176
     1
 77
     6
176
     1
 78
     2
176
     1
 67
     7
176
     1
 79
     5
176
     1
170
     0
176
     1
171
     0
176
     1
290
     0
176
     1
 93
       13
176
     1
 44
0.0
176
     1
173
     0
176
     1
  0
VISUALSTYLE
  5
2D
102
{ACAD_REACTORS
330
2A
102
}
330
2A
100
AcDbVisualStyle
  2
Gouraud
 70
     2
177
     2
291
     1
 71
     2
176
     1
 72
     2
176
     1
 73
     1
176
     1
 90
        2
176
     1
 40
-0.6
176
     1
 41
30.0
176
     1
 62
     5
 63
     7
421
 16777215
176
     1
 74
     0
176
     1
 91
        4
176
     1
 64
     7
176
     1
 65
   257
176
     1
 75
     1
176
     1
175
     1
176
     1
 42
1.0
176
     1
 92
        0
176
     1
 66
     7
176
     1
 43
1.0
176
     1
 76
     1
176
     1
 77
     6
176
     1
 78
     2
176
     1
 67
     7
176
     1
 79
     5
176
     1
170
     0
176
     1
171
     0
176
     1
290
     0
176
     1
 93
       13
176
     1
 44
0.0
176
     1
173
     0
176
     1
  0
VISUALSTYLE
  5
2E
102
{ACAD_REACTORS
330
2A
102
}
330
2A
100
AcDbVisualStyle
  2
GouraudWithEdges
 70
     3
177
     2
291
     1
 71
     2
176
     1
 72
     2
176
     1
 73
     1
176
     1
 90
        2
176
     1
 40
-0.6
176
     1
 41
30.0
176
     1
 62
     5
 63
     7
421
 16777215
176
     1
 74
     1
176
     1
 91
        4
176
     1
 64
     7
176
     1
 65
   257
176
     1
 75
     1
176
     1
175
     1
176
     1
 42
1.0
176
     1
 92
        0
176
     1
 66
   257
176
     1
 43
1.0
176
     1
 76
     1
176
     1
 77
     6
176
     1
 78
     2
176
     1
 67
     7
176
     1
 79
     5
176
     1
170
     0
176
     1
171
     0
176
     1
290
     0
176
     1
 93
       13
176
     1
 44
0.0
176
     1
173
     0
176
     1
  0
VISUALSTYLE
  5
38
102
{ACAD_REACTORS
330
2A
102
}
330
2A
100
AcDbVisualStyle
  2
Linepattern
 70
    14
177
     2
291
     1
 71
     2
176
     1
 72
     2
176
     1
 73
     0
176
     1
 90
        0
176
     1
 40
-0.6
176
     1
 41
-30.0
176
     1
 62
     5
 63
     7
421
 16777215
176
     1
 74
     1
176
     1
 91
        4
176
     1
 64
     7
176
     1
 65
   257
176
     1
 75
     7
176
     1
175
     7
176
     1
 42
1.0
176
     1
 92
        8
176
     1
 66
     7
176
     1
 43
1.0
176
     1
 76
     1
176
     1
 77
     6
176
     1
 78
     2
176
     1
 67
     7
176
     1
 79
     5
176
     1
170
     0
176
     1
171
     0
176
     1
290
     0
176
     1
 93
        1
176
     1
 44
0.0
176
     1
173
     0
176
     1
  0
VISUALSTYLE
  5
33
102
{ACAD_REACTORS
330
2A
102
}
330
2A
100
AcDbVisualStyle
  2
Realistic
 70
     8
177
     2
291
     0
 71
     2
176
     1
 72
     2
176
     1
 73
     0
176
     1
 90
        0
176
     1
 40
-0.6
176
     1
 41
-30.0
176
     1
 62
     5
 63
     7
421
 16777215
176
     1
 74
     1
176
     1
 91
        0
176
     1
 64
     7
176
     1
 65
   257
176
     1
 75
     1
176
     1
175
     1
176
     1
 42
1.0
176
     1
 92
        8
176
     1
 66
     8
424
  7895160
176
     1
 43
1.0
176
     1
 76
     1
176
     1
 77
     6
176
     1
 78
     2
176
     1
 67
     7
176
     1
 79
     5
176
     1
170
     0
176
     1
171
     0
176
     1
290
     0
176
     1
 93
       13
176
     1
 44
0.0
176
     1
173
     0
176
     1
  0
VISUALSTYLE
  5
37
102
{ACAD_REACTORS
330
2A
102
}
330
2A
100
AcDbVisualStyle
  2
Thicken
 70
    13
177
     2
291
     1
 71
     2
176
     1
 72
     2
176
     1
 73
     0
176
     1
 90
        0
176
     1
 40
-0.6
176
     1
 41
-30.0
176
     1
 62
     5
 63
     7
421
 16777215
176
     1
 74
     1
176
     1
 91
        4
176
     1
 64
     7
176
     1
 65
   257
176
     1
 75
     1
176
     1
175
     1
176
     1
 42
1.0
176
     1
 92
       12
176
     1
 66
     7
176
     1
 43
1.0
176
     1
 76
     1
176
     1
 77
     6
176
     1
 78
     2
176
     1
 67
     7
176
     1
 79
     5
176
     1
170
     0
176
     1
171
     0
176
     1
290
     0
176
     1
 93
        1
176
     1
 44
0.0
176
     1
173
     0
176
     1
  0
ENDSEC
  0
EOF
