  0
SECTION
  2
HEADER
  9
$ACADVER
  1
AC1024
  9
$ACADMAINTVER
 70
     6
  9
$DWGCODEPAGE
  3
ANSI_932
  9
$INSBASE
 10
0.0
 20
0.0
 30
0.0
  9
$EXTMIN
 10
-6300.0
 20
-4455.0
 30
0.0
  9
$EXTMAX
 10
6300.0
 20
4455.0
 30
0.0
  9
$LIMMIN
 10
-6300.0
 20
-4455.0
  9
$LIMMAX
 10
6300.0
 20
4455.0
  9
$ORTHOMODE
 70
     0
  9
$REGENMODE
 70
     1
  9
$FILLMODE
 70
     1
  9
$QTEXTMODE
 70
     0
  9
$MIRRTEXT
 70
     1
  9
$LTSCALE
 40
30.0
  9
$ATTMODE
 70
     1
  9
$TEXTSIZE
 40
2.5
  9
$TRACEWID
 40
1.0
  9
$TEXTSTYLE
  7
Standard
  9
$CLAYER
  8
0
  9
$CELTYPE
  6
ByLayer
  9
$CECOLOR
 62
   256
  9
$CELTSCALE
 40
1.0
  9
$DISPSILH
 70
     0
  9
$DIMSCALE
 40
1.0
  9
$DIMASZ
 40
2.5
  9
$DIMEXO
 40
0.625
  9
$DIMDLI
 40
3.75
  9
$DIMRND
 40
0.0
  9
$DIMDLE
 40
0.0
  9
$DIMEXE
 40
1.25
  9
$DIMTP
 40
0.0
  9
$DIMTM
 40
0.0
  9
$DIMTXT
 40
2.5
  9
$DIMCEN
 40
2.5
  9
$DIMTSZ
 40
0.0
  9
$DIMTOL
 70
     0
  9
$DIMLIM
 70
     0
  9
$DIMTIH
 70
     0
  9
$DIMTOH
 70
     0
  9
$DIMSE1
 70
     0
  9
$DIMSE2
 70
     0
  9
$DIMTAD
 70
     1
  9
$DIMZIN
 70
     8
  9
$DIMBLK
  1

  9
$DIMASO
 70
     1
  9
$DIMSHO
 70
     1
  9
$DIMPOST
  1

  9
$DIMAPOST
  1

  9
$DIMALT
 70
     0
  9
$DIMALTD
 70
     3
  9
$DIMALTF
 40
0.03937007874016
  9
$DIMLFAC
 40
1.0
  9
$DIMTOFL
 70
     1
  9
$DIMTVP
 40
0.0
  9
$DIMTIX
 70
     0
  9
$DIMSOXD
 70
     0
  9
$DIMSAH
 70
     0
  9
$DIMBLK1
  1

  9
$DIMBLK2
  1

  9
$DIMSTYLE
  2
ISO-25
  9
$DIMCLRD
 70
     0
  9
$DIMCLRE
 70
     0
  9
$DIMCLRT
 70
     0
  9
$DIMTFAC
 40
1.0
  9
$DIMGAP
 40
0.625
  9
$DIMJUST
 70
     0
  9
$DIMSD1
 70
     0
  9
$DIMSD2
 70
     0
  9
$DIMTOLJ
 70
     0
  9
$DIMTZIN
 70
     8
  9
$DIMALTZ
 70
     0
  9
$DIMALTTZ
 70
     0
  9
$DIMUPT
 70
     0
  9
$DIMDEC
 70
     2
  9
$DIMTDEC
 70
     2
  9
$DIMALTU
 70
     2
  9
$DIMALTTD
 70
     3
  9
$DIMTXSTY
  7
Standard
  9
$DIMAUNIT
 70
     0
  9
$DIMADEC
 70
     0
  9
$DIMALTRND
 40
0.0
  9
$DIMAZIN
 70
     0
  9
$DIMDSEP
 70
    44
  9
$DIMATFIT
 70
     3
  9
$DIMFRAC
 70
     0
  9
$DIMLDRBLK
  1

  9
$DIMLUNIT
 70
     2
  9
$DIMLWD
 70
    -2
  9
$DIMLWE
 70
    -2
  9
$DIMTMOVE
 70
     0
  9
$DIMFXL
 40
1.0
  9
$DIMFXLON
 70
     0
  9
$DIMJOGANG
 40
0.7853981633974483
  9
$DIMTFILL
 70
     0
  9
$DIMTFILLCLR
 70
     0
  9
$DIMARCSYM
 70
     0
  9
$DIMLTYPE
  6

  9
$DIMLTEX1
  6

  9
$DIMLTEX2
  6

  9
$DIMTXTDIRECTION
 70
     0
  9
$LUNITS
 70
     2
  9
$LUPREC
 70
     4
  9
$SKETCHINC
 40
1.0
  9
$FILLETRAD
 40
10.0
  9
$AUNITS
 70
     0
  9
$AUPREC
 70
     0
  9
$MENU
  1
.
  9
$ELEVATION
 40
0.0
  9
$PELEVATION
 40
0.0
  9
$THICKNESS
 40
0.0
  9
$LIMCHECK
 70
     0
  9
$CHAMFERA
 40
10.0
  9
$CHAMFERB
 40
10.0
  9
$CHAMFERC
 40
20.0
  9
$CHAMFERD
 40
0.0
  9
$SKPOLY
 70
     0
  9
$TDCREATE
 40
2460327.690711285
  9
$TDUCREATE
 40
2460327.315711285
  9
$TDUPDATE
 40
2460327.690711296
  9
$TDUUPDATE
 40
2460327.315711296
  9
$TDINDWG
 40
0.0000000116
  9
$TDUSRTIMER
 40
0.0000000116
  9
$USRTIMER
 70
     1
  9
$ANGBASE
 50
0.0
  9
$ANGDIR
 70
     0
  9
$PDMODE
 70
     0
  9
$PDSIZE
 40
0.0
  9
$PLINEWID
 40
0.0
  9
$SPLFRAME
 70
     0
  9
$SPLINETYPE
 70
     6
  9
$SPLINESEGS
 70
     8
  9
$HANDSEED
  5
4AE
  9
$SURFTAB1
 70
     6
  9
$SURFTAB2
 70
     6
  9
$SURFTYPE
 70
     6
  9
$SURFU
 70
     6
  9
$SURFV
 70
     6
  9
$UCSBASE
  2

  9
$UCSNAME
  2

  9
$UCSORG
 10
0.0
 20
0.0
 30
0.0
  9
$UCSXDIR
 10
1.0
 20
0.0
 30
0.0
  9
$UCSYDIR
 10
0.0
 20
1.0
 30
0.0
  9
$UCSORTHOREF
  2

  9
$UCSORTHOVIEW
 70
     0
  9
$UCSORGTOP
 10
0.0
 20
0.0
 30
0.0
  9
$UCSORGBOTTOM
 10
0.0
 20
0.0
 30
0.0
  9
$UCSORGLEFT
 10
0.0
 20
0.0
 30
0.0
  9
$UCSORGRIGHT
 10
0.0
 20
0.0
 30
0.0
  9
$UCSORGFRONT
 10
0.0
 20
0.0
 30
0.0
  9
$UCSORGBACK
 10
0.0
 20
0.0
 30
0.0
  9
$PUCSBASE
  2

  9
$PUCSNAME
  2

  9
$PUCSORG
 10
0.0
 20
0.0
 30
0.0
  9
$PUCSXDIR
 10
1.0
 20
0.0
 30
0.0
  9
$PUCSYDIR
 10
0.0
 20
1.0
 30
0.0
  9
$PUCSORTHOREF
  2

  9
$PUCSORTHOVIEW
 70
     0
  9
$PUCSORGTOP
 10
0.0
 20
0.0
 30
0.0
  9
$PUCSORGBOTTOM
 10
0.0
 20
0.0
 30
0.0
  9
$PUCSORGLEFT
 10
0.0
 20
0.0
 30
0.0
  9
$PUCSORGRIGHT
 10
0.0
 20
0.0
 30
0.0
  9
$PUCSORGFRONT
 10
0.0
 20
0.0
 30
0.0
  9
$PUCSORGBACK
 10
0.0
 20
0.0
 30
0.0
  9
$USERI1
 70
     0
  9
$USERI2
 70
     0
  9
$USERI3
 70
     0
  9
$USERI4
 70
     0
  9
$USERI5
 70
     0
  9
$USERR1
 40
0.0
  9
$USERR2
 40
0.0
  9
$USERR3
 40
0.0
  9
$USERR4
 40
0.0
  9
$USERR5
 40
0.0
  9
$WORLDVIEW
 70
     1
  9
$SHADEDGE
 70
     3
  9
$SHADEDIF
 70
    70
  9
$TILEMODE
 70
     1
  9
$MAXACTVP
 70
    64
  9
$PINSBASE
 10
0.0
 20
0.0
 30
0.0
  9
$PLIMCHECK
 70
     0
  9
$PEXTMIN
 10
1.000000000000000E+20
 20
1.000000000000000E+20
 30
1.000000000000000E+20
  9
$PEXTMAX
 10
-1.000000000000000E+20
 20
-1.000000000000000E+20
 30
-1.000000000000000E+20
  9
$PLIMMIN
 10
0.0
 20
0.0
  9
$PLIMMAX
 10
420.0
 20
297.0
  9
$UNITMODE
 70
     0
  9
$VISRETAIN
 70
     1
  9
$PLINEGEN
 70
     0
  9
$PSLTSCALE
 70
     1
  9
$TREEDEPTH
 70
  3020
  9
$CMLSTYLE
  2
Standard
  9
$CMLJUST
 70
     0
  9
$CMLSCALE
 40
20.0
  9
$PROXYGRAPHICS
 70
     1
  9
$MEASUREMENT
 70
     1
  9
$CELWEIGHT
370
    -1
  9
$ENDCAPS
280
     0
  9
$JOINSTYLE
280
     0
  9
$LWDISPLAY
290
     0
  9
$INSUNITS
 70
     4
  9
$HYPERLINKBASE
  1

  9
$STYLESHEET
  1

  9
$XEDIT
290
     1
  9
$CEPSNTYPE
380
     0
  9
$PSTYLEMODE
290
     1
  9
$FINGERPRINTGUID
  2
{FCA1FFCE-A3DE-426E-B4EE-1B7D767B6677}
  9
$VERSIONGUID
  2
{FAEB1C32-E019-11D5-929B-00C0DF256EC4}
  9
$EXTNAMES
290
     1
  9
$PSVPSCALE
 40
0.0
  9
$OLESTARTUP
290
     0
  9
$SORTENTS
280
   127
  9
$INDEXCTL
280
     0
  9
$HIDETEXT
280
     1
  9
$XCLIPFRAME
280
     2
  9
$HALOGAP
280
     0
  9
$OBSCOLOR
 70
   257
  9
$OBSLTYPE
280
     0
  9
$INTERSECTIONDISPLAY
280
     0
  9
$INTERSECTIONCOLOR
 70
   257
  9
$DIMASSOC
280
     2
  9
$PROJECTNAME
  1

  9
$CAMERADISPLAY
290
     0
  9
$LENSLENGTH
 40
50.0
  9
$CAMERAHEIGHT
 40
0.0
  9
$STEPSPERSEC
 40
2.0
  9
$STEPSIZE
 40
6.0
  9
$3DDWFPREC
 40
2.0
  9
$PSOLWIDTH
 40
5.0
  9
$PSOLHEIGHT
 40
80.0
  9
$LOFTANG1
 40
1.570796326794897
  9
$LOFTANG2
 40
1.570796326794897
  9
$LOFTMAG1
 40
0.0
  9
$LOFTMAG2
 40
0.0
  9
$LOFTPARAM
 70
     7
  9
$LOFTNORMALS
280
     1
  9
$LATITUDE
 40
37.795
  9
$LONGITUDE
 40
-122.394
  9
$NORTHDIRECTION
 40
0.0
  9
$TIMEZONE
 70
 -8000
  9
$LIGHTGLYPHDISPLAY
280
     1
  9
$TILEMODELIGHTSYNCH
280
     1
  9
$SOLIDHIST
280
     1
  9
$SHOWHIST
280
     1
  9
$DWFFRAME
280
     2
  9
$DGNFRAME
280
     2
  9
$REALWORLDSCALE
290
     1
  9
$INTERFERECOLOR
 62
   256
  9
$CSHADOW
280
     0
  9
$SHADOWPLANELOCATION
 40
0.0
  0
ENDSEC
  0
SECTION
  2
CLASSES
  0
CLASS
  1
ACDBDICTIONARYWDFLT
  2
AcDbDictionaryWithDefault
  3
ObjectDBX Classes
 90
        0
 91
        4
280
     0
281
     0
  0
CLASS
  1
VISUALSTYLE
  2
AcDbVisualStyle
  3
ObjectDBX Classes
 90
     4095
 91
        4
280
     0
281
     0
  0
CLASS
  1
MATERIAL
  2
AcDbMaterial
  3
ObjectDBX Classes
 90
     1153
 91
        4
280
     0
281
     0
  0
ENDSEC
  0
SECTION
  2
TABLES
  0
TABLE
  2
VPORT
  5
8
330
0
100
AcDbSymbolTable
 70
     1
  0
VPORT
  5
29
330
8
100
AcDbSymbolTableRecord
100
AcDbViewportTableRecord
  2
*Active
 70
     0
 10
0.0
 20
0.0
 11
1.0
 21
1.0
 12
0.0
 22
0.0
 13
0.0
 23
0.0
 14
10.0
 24
10.0
 15
10.0
 25
10.0
 16
0.0
 26
0.0
 36
1.0
 17
0.0
 27
0.0
 37
0.0
 40
9801.0
 41
1.414141414141414
 42
50.0
 43
0.0
 44
0.0
 50
0.0
 51
0.0
 71
     0
 72
 10000
 73
     1
 74
     3
 75
     0
 76
     0
 77
     0
 78
     0
281
     0
 65
     1
110
0.0
120
0.0
130
0.0
111
1.0
121
0.0
131
0.0
112
0.0
122
1.0
132
0.0
 79
     0
146
0.0
 60
     3
 61
     5
292
     1
282
     1
141
0.0
142
0.0
 63
   250
  0
ENDTAB
  0
TABLE
  2
LTYPE
  5
5
330
0
100
AcDbSymbolTable
 70
     5
  0
LTYPE
  5
14
330
5
100
AcDbSymbolTableRecord
100
AcDbLinetypeTableRecord
  2
ByBlock
 70
     0
  3

 72
    65
 73
     0
 40
0.0
  0
LTYPE
  5
15
330
5
100
AcDbSymbolTableRecord
100
AcDbLinetypeTableRecord
  2
ByLayer
 70
     0
  3

 72
    65
 73
     0
 40
0.0
  0
LTYPE
  5
16
330
5
100
AcDbSymbolTableRecord
100
AcDbLinetypeTableRecord
  2
Continuous
 70
     0
  3
Solid line
 72
    65
 73
     0
 40
0.0
  0
LTYPE
  5
3F
330
5
100
AcDbSymbolTableRecord
100
AcDbLinetypeTableRecord
  2
JWW_HOJO
 70
     0
  3
  -   -   -   -   -   -   -   - 
 72
    65
 73
     2
 40
1.693333333333333
 49
-1.27
 74
     0
 49
0.4233333333333333
 74
     0
  0
LTYPE
  5
40
330
5
100
AcDbSymbolTableRecord
100
AcDbLinetypeTableRecord
  2
JWW_DASHED2
 70
     0
  3
--    ----    ----    ----    --
 72
    65
 73
     2
 40
3.386666666666667
 49
1.693333333333333
 74
     0
 49
-1.693333333333333
 74
     0
  0
LTYPE
  5
41
330
5
100
AcDbSymbolTableRecord
100
AcDbLinetypeTableRecord
  2
JWW_CENTER1
 70
     0
  3
-----  --  ----------  --  -----
 72
    65
 73
     4
 40
6.773333333333333
 49
4.233333333333333
 74
     0
 49
-0.8466666666666667
 74
     0
 49
0.8466666666666667
 74
     0
 49
-0.8466666666666667
 74
     0
  0
LTYPE
  5
42
330
5
100
AcDbSymbolTableRecord
100
AcDbLinetypeTableRecord
  2
JWW_DASHED1
 70
     0
  3
-  --  --  --  --  --  --  --  -
 72
    65
 73
     2
 40
1.693333333333333
 49
0.8466666666666667
 74
     0
 49
-0.8466666666666667
 74
     0
  0
ENDTAB
  0
TABLE
  2
LAYER
  5
2
330
0
100
AcDbSymbolTable
 70
    15
  0
LAYER
  5
10
330
2
100
AcDbSymbolTableRecord
100
AcDbLayerTableRecord
  2
0
 70
     0
 62
     7
  6
Continuous
370
    -3
390
F
347
3E
  0
LAYER
  5
43
330
2
100
AcDbSymbolTableRecord
100
AcDbLayerTableRecord
  2
F-0_補助線
 70
     0
 62
     7
  6
Continuous
370
    -3
390
F
347
3E
  0
LAYER
  5
44
330
2
100
AcDbSymbolTableRecord
100
AcDbLayerTableRecord
  2
F-1_枠
 70
     0
 62
     7
  6
Continuous
370
    -3
390
F
347
3E
  0
LAYER
  5
45
330
2
100
AcDbSymbolTableRecord
100
AcDbLayerTableRecord
  2
F-A_文字
 70
     0
 62
     7
  6
Continuous
370
    -3
390
F
347
3E
  0
LAYER
  5
46
330
2
100
AcDbSymbolTableRecord
100
AcDbLayerTableRecord
  2
0-A_文字
 70
     0
 62
     7
  6
Continuous
370
    -3
390
F
347
3E
  0
LAYER
  5
47
330
2
100
AcDbSymbolTableRecord
100
AcDbLayerTableRecord
  2
戸当り
 70
     0
 62
     7
  6
Continuous
370
    -3
390
F
347
3E
  0
LAYER
  5
48
330
2
100
AcDbSymbolTableRecord
100
AcDbLayerTableRecord
  2
0-0_補助線
 70
     0
 62
     7
  6
Continuous
370
    -3
390
F
347
3E
  0
LAYER
  5
49
330
2
100
AcDbSymbolTableRecord
100
AcDbLayerTableRecord
  2
0-B_寸法
 70
     0
 62
     7
  6
Continuous
370
    -3
390
F
347
3E
  0
LAYER
  5
4A
330
2
100
AcDbSymbolTableRecord
100
AcDbLayerTableRecord
  2
0-3_仕上げ
 70
     0
 62
     7
  6
Continuous
370
    -3
390
F
347
3E
  0
LAYER
  5
4B
330
2
100
AcDbSymbolTableRecord
100
AcDbLayerTableRecord
  2
0-C_ハッチ
 70
     0
 62
     7
  6
Continuous
370
    -3
390
F
347
3E
  0
LAYER
  5
4C
330
2
100
AcDbSymbolTableRecord
100
AcDbLayerTableRecord
  2
0-4_枠
 70
     0
 62
     7
  6
Continuous
370
    -3
390
F
347
3E
  0
LAYER
  5
4D
330
2
100
AcDbSymbolTableRecord
100
AcDbLayerTableRecord
  2
0-1_通り芯
 70
     0
 62
     7
  6
Continuous
370
    -3
390
F
347
3E
  0
LAYER
  5
4E
330
2
100
AcDbSymbolTableRecord
100
AcDbLayerTableRecord
  2
0-6_扉
 70
     0
 62
     7
  6
Continuous
370
    -3
390
F
347
3E
  0
LAYER
  5
4F
330
2
100
AcDbSymbolTableRecord
100
AcDbLayerTableRecord
  2
0-7_金物
 70
     0
 62
     7
  6
Continuous
370
    -3
390
F
347
3E
  0
LAYER
  5
50
330
2
100
AcDbSymbolTableRecord
100
AcDbLayerTableRecord
  2
1-E
 70
     0
 62
     7
  6
Continuous
370
    -3
390
F
347
3E
  0
ENDTAB
  0
TABLE
  2
STYLE
  5
3
330
0
100
AcDbSymbolTable
 70
     1
  0
STYLE
  5
11
330
3
100
AcDbSymbolTableRecord
100
AcDbTextStyleTableRecord
  2
Standard
 70
     0
 40
0.0
 41
1.0
 50
0.0
 71
     0
 42
2.5
  3
txt
  4

  0
ENDTAB
  0
TABLE
  2
VIEW
  5
6
330
0
100
AcDbSymbolTable
 70
     0
  0
ENDTAB
  0
TABLE
  2
UCS
  5
7
330
0
100
AcDbSymbolTable
 70
     0
  0
ENDTAB
  0
TABLE
  2
APPID
  5
9
330
0
100
AcDbSymbolTable
 70
     1
  0
APPID
  5
12
330
9
100
AcDbSymbolTableRecord
100
AcDbRegAppTableRecord
  2
ACAD
 70
     0
  0
ENDTAB
  0
TABLE
  2
DIMSTYLE
  5
A
330
0
100
AcDbSymbolTable
 70
     1
100
AcDbDimStyleTable
  0
DIMSTYLE
105
27
330
A
100
AcDbSymbolTableRecord
100
AcDbDimStyleTableRecord
  2
ISO-25
 70
     0
 41
2.5
 42
0.625
 43
3.75
 44
1.25
 73
     0
 74
     0
 77
     1
 78
     8
140
2.5
141
2.5
143
0.03937007874016
147
0.625
171
     3
172
     1
178
     0
271
     2
272
     2
274
     3
278
    44
283
     0
284
     8
340
11
  0
ENDTAB
  0
TABLE
  2
BLOCK_RECORD
  5
1
330
0
100
AcDbSymbolTable
 70
     2
  0
BLOCK_RECORD
  5
1F
330
1
100
AcDbSymbolTableRecord
100
AcDbBlockTableRecord
  2
*Model_Space
340
22
 70
     0
280
     1
281
     0
  0
BLOCK_RECORD
  5
1B
330
1
100
AcDbSymbolTableRecord
100
AcDbBlockTableRecord
  2
*Paper_Space
340
1E
 70
     0
280
     1
281
     0
  0
BLOCK_RECORD
  5
23
330
1
100
AcDbSymbolTableRecord
100
AcDbBlockTableRecord
  2
*Paper_Space0
340
26
 70
     0
280
     1
281
     0
  0
BLOCK_RECORD
  5
51
330
1
100
AcDbSymbolTableRecord
100
AcDbBlockTableRecord
  2
01@@SfigorgFlag@@4
340
0
102
{BLKREFS
331
3C4
102
}
 70
     0
280
     1
281
     0
  0
ENDTAB
  0
ENDSEC
  0
SECTION
  2
BLOCKS
  0
BLOCK
  5
20
330
1F
100
AcDbEntity
  8
0
100
AcDbBlockBegin
  2
*Model_Space
 70
     0
 10
0.0
 20
0.0
 30
0.0
  3
*Model_Space
  1

  0
ENDBLK
  5
21
330
1F
100
AcDbEntity
  8
0
100
AcDbBlockEnd
  0
BLOCK
  5
1C
330
1B
100
AcDbEntity
 67
     1
  8
0
100
AcDbBlockBegin
  2
*Paper_Space
 70
     0
 10
0.0
 20
0.0
 30
0.0
  3
*Paper_Space
  1

  0
ENDBLK
  5
1D
330
1B
100
AcDbEntity
 67
     1
  8
0
100
AcDbBlockEnd
  0
BLOCK
  5
24
330
23
100
AcDbEntity
  8
0
100
AcDbBlockBegin
  2
*Paper_Space0
 70
     0
 10
0.0
 20
0.0
 30
0.0
  3
*Paper_Space0
  1

  0
ENDBLK
  5
25
330
23
100
AcDbEntity
  8
0
100
AcDbBlockEnd
  0
BLOCK
  5
52
330
51
100
AcDbEntity
  8
0
100
AcDbBlockBegin
  2
01@@SfigorgFlag@@4
 70
     0
 10
0.0
 20
0.0
 30
0.0
  3
01@@SfigorgFlag@@4
  1

  0
LINE
  5
485
330
51
100
AcDbEntity
  8
0-0_補助線
  6
Continuous
 62
     7
370
     9
100
AcDbLine
 10
-4.25
 20
-1.491025641025665
 30
0.0
 11
-3.25
 21
-1.491025641025665
 31
0.0
  0
LINE
  5
486
330
51
100
AcDbEntity
  8
0-0_補助線
  6
Continuous
 62
     7
370
     9
100
AcDbLine
 10
-2.75
 20
-1.491025641025665
 30
0.0
 11
-0.1500000000000909
 21
-1.491025641025665
 31
0.0
  0
LINE
  5
487
330
51
100
AcDbEntity
  8
0-0_補助線
  6
Continuous
 62
     7
370
     9
100
AcDbLine
 10
-0.1500000000000909
 20
-1.491025641025665
 30
0.0
 11
0.0
 21
-1.641025641025642
 31
0.0
  0
LINE
  5
488
330
51
100
AcDbEntity
  8
0-0_補助線
  6
Continuous
 62
     7
370
     9
100
AcDbLine
 10
0.0
 20
-1.641025641025642
 30
0.0
 11
0.1500000000000909
 21
-1.491025641025665
 31
0.0
  0
LINE
  5
489
330
51
100
AcDbEntity
  8
0-0_補助線
  6
Continuous
 62
     7
370
     9
100
AcDbLine
 10
0.1500000000000909
 20
-1.491025641025665
 30
0.0
 11
2.75
 21
-1.491025641025665
 31
0.0
  0
LINE
  5
48A
330
51
100
AcDbEntity
  8
0-0_補助線
  6
Continuous
 62
     7
370
     9
100
AcDbLine
 10
3.25
 20
-1.491025641025665
 30
0.0
 11
4.25
 21
-1.491025641025665
 31
0.0
  0
LINE
  5
48B
330
51
100
AcDbEntity
  8
0-0_補助線
  6
Continuous
 62
     7
370
     9
100
AcDbLine
 10
7.849999999999909
 20
1.408974358974312
 30
0.0
 11
4.849999999999909
 21
1.408974358974312
 31
0.0
  0
LINE
  5
48C
330
51
100
AcDbEntity
  8
0-0_補助線
  6
Continuous
 62
     7
370
     9
100
AcDbLine
 10
-4.849999999999909
 20
1.408974358974312
 30
0.0
 11
-7.849999999999909
 21
1.408974358974312
 31
0.0
  0
LINE
  5
48D
330
51
100
AcDbEntity
  8
0-0_補助線
  6
Continuous
 62
     7
370
     9
100
AcDbLine
 10
-4.849999999999909
 20
2.008974358974335
 30
0.0
 11
-7.849999999999909
 21
1.70897435897438
 31
0.0
  0
ARC
  5
48E
330
51
100
AcDbEntity
  8
0-0_補助線
  6
Continuous
 62
     7
370
     9
100
AcDbCircle
 10
-7.849999999999909
 20
1.558974358974403
 30
0.0
 40
0.15
100
AcDbArc
 50
90.0
 51
270.0
  0
ARC
  5
48F
330
51
100
AcDbEntity
  8
0-0_補助線
  6
Continuous
 62
     7
370
     9
100
AcDbCircle
 10
7.849999999999909
 20
1.558974358974403
 30
0.0
 40
0.15
100
AcDbArc
 50
270.0
 51
89.99999999999997
  0
LINE
  5
490
330
51
100
AcDbEntity
  8
0-0_補助線
  6
Continuous
 62
     7
370
     9
100
AcDbLine
 10
7.849999999999909
 20
1.70897435897438
 30
0.0
 11
4.849999999999909
 21
2.008974358974335
 31
0.0
  0
LINE
  5
491
330
51
100
AcDbEntity
  8
0-0_補助線
  6
Continuous
 62
     7
370
     9
100
AcDbLine
 10
-3.050000000000182
 20
2.008974358974335
 30
0.0
 11
-4.849999999999909
 21
2.008974358974335
 31
0.0
  0
ARC
  5
492
330
51
100
AcDbEntity
  8
0-0_補助線
  6
Continuous
 62
     7
370
     9
100
AcDbCircle
 10
-3.050000000000182
 20
1.70897435897438
 30
0.0
 40
0.3
100
AcDbArc
 50
0.0
 51
90.0
  0
ARC
  5
493
330
51
100
AcDbEntity
  8
0-0_補助線
  6
Continuous
 62
     7
370
     9
100
AcDbCircle
 10
-3.050000000000182
 20
1.70897435897438
 30
0.0
 40
0.3
100
AcDbArc
 50
270.0
 51
0.0
  0
ARC
  5
494
330
51
100
AcDbEntity
  8
0-0_補助線
  6
Continuous
 62
     7
370
     9
100
AcDbCircle
 10
3.050000000000182
 20
1.70897435897438
 30
0.0
 40
0.3
100
AcDbArc
 50
180.0
 51
270.0
  0
LINE
  5
495
330
51
100
AcDbEntity
  8
0-0_補助線
  6
Continuous
 62
     7
370
     9
100
AcDbLine
 10
3.050000000000182
 20
2.008974358974335
 30
0.0
 11
4.849999999999909
 21
2.008974358974335
 31
0.0
  0
ARC
  5
496
330
51
100
AcDbEntity
  8
0-0_補助線
  6
Continuous
 62
     7
370
     9
100
AcDbCircle
 10
3.050000000000182
 20
1.70897435897438
 30
0.0
 40
0.3
100
AcDbArc
 50
90.0
 51
180.0
  0
LINE
  5
497
330
51
100
AcDbEntity
  8
0-0_補助線
  6
Continuous
 62
     7
370
     9
100
AcDbLine
 10
4.849999999999909
 20
-1.341025641025688
 30
0.0
 11
4.849999999999909
 21
1.408974358974312
 31
0.0
  0
ARC
  5
498
330
51
100
AcDbEntity
  8
0-0_補助線
  6
Continuous
 62
     7
370
     9
100
AcDbCircle
 10
4.099999999999909
 20
-1.341025641025688
 30
0.0
 40
0.75
100
AcDbArc
 50
270.0
 51
0.0
  0
LINE
  5
499
330
51
100
AcDbEntity
  8
0-0_補助線
  6
Continuous
 62
     7
370
     9
100
AcDbLine
 10
-4.849999999999909
 20
-1.341025641025688
 30
0.0
 11
-4.849999999999909
 21
1.408974358974312
 31
0.0
  0
LINE
  5
49A
330
51
100
AcDbEntity
  8
0-0_補助線
  6
Continuous
 62
     7
370
     9
100
AcDbLine
 10
-4.099999999999909
 20
-2.091025641025688
 30
0.0
 11
4.099999999999909
 21
-2.091025641025688
 31
0.0
  0
ARC
  5
49B
330
51
100
AcDbEntity
  8
0-0_補助線
  6
Continuous
 62
     7
370
     9
100
AcDbCircle
 10
-4.099999999999909
 20
-1.341025641025688
 30
0.0
 40
0.75
100
AcDbArc
 50
180.0
 51
270.0
  0
LINE
  5
49C
330
51
100
AcDbEntity
  8
0-0_補助線
  6
Continuous
 62
     7
370
     9
100
AcDbLine
 10
-4.0
 20
1.408974358974312
 30
0.0
 11
-3.050000000000182
 21
1.408974358974312
 31
0.0
  0
LINE
  5
49D
330
51
100
AcDbEntity
  8
0-0_補助線
  6
Continuous
 62
     7
370
     9
100
AcDbLine
 10
-4.25
 20
1.158974358974312
 30
0.0
 11
-4.25
 21
-1.491025641025665
 31
0.0
  0
ARC
  5
49E
330
51
100
AcDbEntity
  8
0-0_補助線
  6
Continuous
 62
     7
370
     9
100
AcDbCircle
 10
-4.0
 20
1.158974358974312
 30
0.0
 40
0.25
100
AcDbArc
 50
90.0
 51
180.0
  0
LINE
  5
49F
330
51
100
AcDbEntity
  8
0-0_補助線
  6
Continuous
 62
     7
370
     9
100
AcDbLine
 10
4.0
 20
1.408974358974312
 30
0.0
 11
3.050000000000182
 21
1.408974358974312
 31
0.0
  0
LINE
  5
4A0
330
51
100
AcDbEntity
  8
0-0_補助線
  6
Continuous
 62
     7
370
     9
100
AcDbLine
 10
4.25
 20
1.158974358974312
 30
0.0
 11
4.25
 21
-1.491025641025665
 31
0.0
  0
ARC
  5
4A1
330
51
100
AcDbEntity
  8
0-0_補助線
  6
Continuous
 62
     7
370
     9
100
AcDbCircle
 10
4.0
 20
1.158974358974312
 30
0.0
 40
0.25
100
AcDbArc
 50
0.0
 51
90.0
  0
LINE
  5
4A2
330
51
100
AcDbEntity
  8
0-0_補助線
  6
Continuous
 62
     7
370
     9
100
AcDbLine
 10
-3.25
 20
-1.091025641025688
 30
0.0
 11
-3.25
 21
-1.491025641025665
 31
0.0
  0
ARC
  5
4A3
330
51
100
AcDbEntity
  8
0-0_補助線
  6
Continuous
 62
     7
370
     9
100
AcDbCircle
 10
-3.150000000000091
 20
-1.091025641025688
 30
0.0
 40
0.1
100
AcDbArc
 50
90.0
 51
180.0
  0
LINE
  5
4A4
330
51
100
AcDbEntity
  8
0-0_補助線
  6
Continuous
 62
     7
370
     9
100
AcDbLine
 10
-2.849999999999909
 20
-0.991025641025665
 30
0.0
 11
-3.150000000000091
 21
-0.991025641025665
 31
0.0
  0
LINE
  5
4A5
330
51
100
AcDbEntity
  8
0-0_補助線
  6
Continuous
 62
     7
370
     9
100
AcDbLine
 10
-2.75
 20
-1.091025641025688
 30
0.0
 11
-2.75
 21
-1.491025641025665
 31
0.0
  0
ARC
  5
4A6
330
51
100
AcDbEntity
  8
0-0_補助線
  6
Continuous
 62
     7
370
     9
100
AcDbCircle
 10
-2.849999999999909
 20
-1.091025641025688
 30
0.0
 40
0.1
100
AcDbArc
 50
0.0
 51
90.0
  0
LINE
  5
4A7
330
51
100
AcDbEntity
  8
0-0_補助線
  6
Continuous
 62
     7
370
     9
100
AcDbLine
 10
2.75
 20
-1.091025641025688
 30
0.0
 11
2.75
 21
-1.491025641025665
 31
0.0
  0
ARC
  5
4A8
330
51
100
AcDbEntity
  8
0-0_補助線
  6
Continuous
 62
     7
370
     9
100
AcDbCircle
 10
2.849999999999909
 20
-1.091025641025688
 30
0.0
 40
0.1
100
AcDbArc
 50
90.0
 51
180.0
  0
LINE
  5
4A9
330
51
100
AcDbEntity
  8
0-0_補助線
  6
Continuous
 62
     7
370
     9
100
AcDbLine
 10
3.150000000000091
 20
-0.991025641025665
 30
0.0
 11
2.849999999999909
 21
-0.991025641025665
 31
0.0
  0
LINE
  5
4AA
330
51
100
AcDbEntity
  8
0-0_補助線
  6
Continuous
 62
     7
370
     9
100
AcDbLine
 10
3.25
 20
-1.091025641025688
 30
0.0
 11
3.25
 21
-1.491025641025665
 31
0.0
  0
ARC
  5
4AB
330
51
100
AcDbEntity
  8
0-0_補助線
  6
Continuous
 62
     7
370
     9
100
AcDbCircle
 10
3.150000000000091
 20
-1.091025641025688
 30
0.0
 40
0.1
100
AcDbArc
 50
0.0
 51
90.0
  0
ENDBLK
  5
53
330
51
100
AcDbEntity
  8
0
100
AcDbBlockEnd
  0
ENDSEC
  0
SECTION
  2
ENTITIES
  0
LINE
  5
54
330
1F
100
AcDbEntity
  8
F-0_補助線
  6
JWW_HOJO
 62
   120
370
     5
100
AcDbLine
 10
-6140.081333436773
 20
-4455.0
 30
0.0
 11
-6140.081333436773
 21
4424.999604096284
 31
0.0
  0
LINE
  5
55
330
1F
100
AcDbEntity
  8
F-0_補助線
  6
JWW_HOJO
 62
   120
370
     5
100
AcDbLine
 10
-6140.081333436773
 20
4424.999604096284
 30
0.0
 11
6159.917676803936
 21
4424.999604096284
 31
0.0
  0
LINE
  5
56
330
1F
100
AcDbEntity
  8
F-0_補助線
  6
JWW_HOJO
 62
   120
370
     5
100
AcDbLine
 10
6159.917676803936
 20
4424.999604096284
 30
0.0
 11
6159.917676803936
 21
-4455.0
 31
0.0
  0
LINE
  5
57
330
1F
100
AcDbEntity
  8
F-0_補助線
  6
JWW_HOJO
 62
   120
370
     5
100
AcDbLine
 10
6159.917676803936
 20
-4455.0
 30
0.0
 11
-6140.081333436773
 21
-4455.0
 31
0.0
  0
LINE
  5
58
330
1F
100
AcDbEntity
  8
F-0_補助線
  6
JWW_HOJO
 62
     7
370
     9
100
AcDbLine
 10
1009.918254163524
 20
-3795.000003092998
 30
0.0
 11
1009.918254163524
 21
-4195.000008247994
 31
0.0
  0
LINE
  5
59
330
1F
100
AcDbEntity
  8
F-0_補助線
  6
JWW_HOJO
 62
     7
370
     9
100
AcDbLine
 10
509.9185840832865
 20
-3795.000003092998
 30
0.0
 11
509.9185840832865
 21
-4195.000008247994
 31
0.0
  0
LINE
  5
5A
330
1F
100
AcDbEntity
  8
F-1_枠
  6
Continuous
 62
   200
370
    20
100
AcDbLine
 10
5859.917429364114
 20
4174.999769056166
 30
0.0
 11
5859.917429364114
 21
-4205.000164959882
 31
0.0
  0
LINE
  5
5B
330
1F
100
AcDbEntity
  8
F-1_枠
  6
Continuous
 62
   200
370
    20
100
AcDbLine
 10
-5840.081317971782
 20
4174.999769056166
 30
0.0
 11
-5840.081317971782
 21
-4205.000164959882
 31
0.0
  0
LINE
  5
5C
330
1F
100
AcDbEntity
  8
F-1_枠
  6
Continuous
 62
   200
370
    20
100
AcDbLine
 10
5859.917429364114
 20
-4205.000002577499
 30
0.0
 11
-5840.081085996952
 21
-4205.000002577499
 31
0.0
  0
LINE
  5
5D
330
1F
100
AcDbEntity
  8
F-1_枠
  6
Continuous
 62
   200
370
    20
100
AcDbLine
 10
-5830.081323642279
 20
4174.999769056166
 30
0.0
 11
-5830.081323642279
 21
-4205.000164959882
 31
0.0
  0
LINE
  5
5E
330
1F
100
AcDbEntity
  8
F-1_枠
  6
Continuous
 62
   200
370
    20
100
AcDbLine
 10
-5835.081309208291
 20
4174.999769056166
 30
0.0
 11
-5835.081309208291
 21
-4205.000164959882
 31
0.0
  0
LINE
  5
5F
330
1F
100
AcDbEntity
  8
F-1_枠
  6
Continuous
 62
   200
370
    20
100
AcDbLine
 10
5854.917165428305
 20
4174.999769056166
 30
0.0
 11
5854.917165428305
 21
-4205.000164959882
 31
0.0
  0
LINE
  5
60
330
1F
100
AcDbEntity
  8
F-1_枠
  6
Continuous
 62
   200
370
    20
100
AcDbLine
 10
5849.917643811961
 20
4174.999769056166
 30
0.0
 11
5849.917643811961
 21
-4205.000164959882
 31
0.0
  0
LINE
  5
61
330
1F
100
AcDbEntity
  8
F-1_枠
  6
Continuous
 62
   200
370
    20
100
AcDbLine
 10
5859.917429364114
 20
-4199.999993814004
 30
0.0
 11
-5840.081085996952
 21
-4199.999993814004
 31
0.0
  0
LINE
  5
62
330
1F
100
AcDbEntity
  8
F-1_枠
  6
Continuous
 62
   200
370
    20
100
AcDbLine
 10
5859.917429364114
 20
-4195.000008247994
 30
0.0
 11
-5840.081085996952
 21
-4195.000008247994
 31
0.0
  0
LINE
  5
63
330
1F
100
AcDbEntity
  8
F-1_枠
  6
Continuous
 62
   200
370
    20
100
AcDbLine
 10
4349.917891251784
 20
-3795.000003092998
 30
0.0
 11
4349.917891251784
 21
-4195.000008247994
 31
0.0
  0
LINE
  5
64
330
1F
100
AcDbEntity
  8
F-1_枠
  6
Continuous
 62
   200
370
    20
100
AcDbLine
 10
2849.91739637214
 20
-3795.000003092998
 30
0.0
 11
2849.91739637214
 21
-4195.000008247994
 31
0.0
  0
LINE
  5
65
330
1F
100
AcDbEntity
  8
F-1_枠
  6
Continuous
 62
   200
370
    20
100
AcDbLine
 10
9.918542843316231
 20
-3795.000003092998
 30
0.0
 11
9.918542843316231
 21
-4195.000008247994
 31
0.0
  0
LINE
  5
66
330
1F
100
AcDbEntity
  8
F-1_枠
  6
Continuous
 62
   200
370
    20
100
AcDbLine
 10
9.918542843316231
 20
-3994.999936078045
 30
0.0
 11
5849.917643811961
 21
-3995.005364289155
 31
0.0
  0
LINE
  5
67
330
1F
100
AcDbEntity
  8
F-1_枠
  6
Continuous
 62
   200
370
    20
100
AcDbLine
 10
-5840.081085996952
 20
4174.999769056166
 30
0.0
 11
5859.917429364114
 21
4174.999769056166
 31
0.0
  0
LINE
  5
68
330
1F
100
AcDbEntity
  8
F-1_枠
  6
Continuous
 62
   200
370
    20
100
AcDbLine
 10
-5840.081085996952
 20
4164.999983504013
 30
0.0
 11
5859.917429364114
 21
4164.999983504013
 31
0.0
  0
LINE
  5
69
330
1F
100
AcDbEntity
  8
F-1_枠
  6
Continuous
 62
   200
370
    20
100
AcDbLine
 10
-5840.081085996952
 20
4169.999505120355
 30
0.0
 11
5859.917429364114
 21
4169.999505120355
 31
0.0
  0
LINE
  5
6A
330
1F
100
AcDbEntity
  8
F-0_補助線
  6
JWW_HOJO
 62
     7
370
     9
100
AcDbLine
 10
-5830.081323642279
 20
-3994.99993607839
 30
0.0
 11
9.918542843316231
 21
-3994.99993607839
 31
0.0
  0
LINE
  5
6B
330
1F
100
AcDbEntity
  8
F-0_補助線
  6
JWW_HOJO
 62
     7
370
     9
100
AcDbLine
 10
-5830.081323642279
 20
-3904.99993607839
 30
0.0
 11
9.918542843316231
 21
-3904.99993607839
 31
0.0
  0
LINE
  5
6C
330
1F
100
AcDbEntity
  8
F-0_補助線
  6
JWW_HOJO
 62
     7
370
     9
100
AcDbLine
 10
-5830.081323642279
 20
-4084.99993607839
 30
0.0
 11
9.918542843316231
 21
-4084.99993607839
 31
0.0
  0
LINE
  5
6D
330
1F
100
AcDbEntity
  8
F-0_補助線
  6
JWW_HOJO
 62
     7
370
     9
100
AcDbLine
 10
9.918408067688347
 20
-4139.999739777984
 30
0.0
 11
5849.917509036333
 21
-4140.005167989091
 31
0.0
  0
LINE
  5
6E
330
1F
100
AcDbEntity
  8
F-0_補助線
  6
JWW_HOJO
 62
     7
370
     9
100
AcDbLine
 10
9.918491721639953
 20
-4049.999739778022
 30
0.0
 11
5849.917592690285
 21
-4050.005167989132
 31
0.0
  0
LINE
  5
6F
330
1F
100
AcDbEntity
  8
F-0_補助線
  6
JWW_HOJO
 62
     7
370
     9
100
AcDbLine
 10
9.91859396535915
 20
-3939.99973721807
 30
0.0
 11
5849.917694934003
 21
-3940.005165429179
 31
0.0
  0
LINE
  5
70
330
1F
100
AcDbEntity
  8
F-0_補助線
  6
JWW_HOJO
 62
     7
370
     9
100
AcDbLine
 10
9.918677619310756
 20
-3849.999737218109
 30
0.0
 11
5849.917778587955
 21
-3850.005165429218
 31
0.0
  0
LINE
  5
71
330
1F
100
AcDbEntity
  8
F-0_補助線
  6
JWW_HOJO
 62
     7
370
     9
100
AcDbLine
 10
2939.91739637214
 20
-3795.000003092998
 30
0.0
 11
2939.91739637214
 21
-4195.000008247994
 31
0.0
  0
LINE
  5
72
330
1F
100
AcDbEntity
  8
F-0_補助線
  6
JWW_HOJO
 62
     7
370
     9
100
AcDbLine
 10
99.91854284331623
 20
-3795.000003092998
 30
0.0
 11
99.91854284331623
 21
-4195.000008247994
 31
0.0
  0
LINE
  5
73
330
1F
100
AcDbEntity
  8
F-0_補助線
  6
JWW_HOJO
 62
     7
370
     9
100
AcDbLine
 10
4439.917891251784
 20
-3795.000003092998
 30
0.0
 11
4439.917891251784
 21
-4195.000008247994
 31
0.0
  0
MTEXT
  5
74
330
1F
100
AcDbEntity
  8
F-A_文字
  6
Continuous
 62
     7
370
     0
100
AcDbMText
 10
4439.917891251784
 20
-3887.143854850754
 30
0.0
 40
45.72
 41
240.0
 46
0.0
 71
     7
 72
     1
  1
{\fＭＳ ゴシック|b0|i0|c128|p49;ＤＡＴＥ}
 73
     1
 44
1.0
  0
MTEXT
  5
75
330
1F
100
AcDbEntity
  8
F-A_文字
  6
Continuous
 62
     7
370
     0
100
AcDbMText
 10
4439.917891251784
 20
-4087.143857410839
 30
0.0
 40
45.72
 41
180.0
 46
0.0
 71
     7
 72
     1
  1
{\fＭＳ ゴシック|b0|i0|c128|p49;ＮＯ．}
 73
     1
 44
1.0
  0
MTEXT
  5
76
330
1F
100
AcDbEntity
  8
F-A_文字
  6
Continuous
 62
     7
370
     0
100
AcDbMText
 10
2939.91739637214
 20
-3887.142460617775
 30
0.0
 40
45.72
 41
300.0
 46
0.0
 71
     7
 72
     1
  1
{\fＭＳ ゴシック|b0|i0|c128|p49;ＳＣＡＬＥ}
 73
     1
 44
1.0
  0
MTEXT
  5
77
330
1F
100
AcDbEntity
  8
F-A_文字
  6
Continuous
 62
     7
370
     0
100
AcDbMText
 10
2939.91739637214
 20
-4087.142463177859
 30
0.0
 40
45.72
 41
240.0
 46
0.0
 71
     7
 72
     1
  1
{\fＭＳ ゴシック|b0|i0|c128|p49;ＦＩＬＥ}
 73
     1
 44
1.0
  0
MTEXT
  5
78
330
1F
100
AcDbEntity
  8
F-A_文字
  6
Continuous
 62
     7
370
     0
100
AcDbMText
 10
99.91854284331623
 20
-3887.139820871936
 30
0.0
 40
45.72
 41
180.0
 46
0.0
 71
     7
 72
     1
  1
{\fＭＳ ゴシック|b0|i0|c128|p49;図面名}
 73
     1
 44
1.0
  0
MTEXT
  5
79
330
1F
100
AcDbEntity
  8
F-A_文字
  6
Continuous
 62
     7
370
     0
100
AcDbMText
 10
1604.917396372138
 20
-4164.281754523929
 30
0.0
 40
101.44125
 41
1065.0
 46
0.0
 71
     7
 72
     1
  1
{\fＭＳ ゴシック|b0|i0|c128|p49;ウッドワン・・・}
 73
     1
 44
1.0
  0
MTEXT
  5
7A
330
1F
100
AcDbEntity
  8
F-A_文字
  6
Continuous
 62
     7
370
     0
100
AcDbMText
 10
1394.917396372138
 20
-4096.140669266148
 30
0.0
 40
45.72
 41
120.0
 46
0.0
 71
     7
 72
     1
  1
{\fＭＳ ゴシック|b0|i0|c128|p49;株式}
 73
     1
 44
1.0
  0
MTEXT
  5
7B
330
1F
100
AcDbEntity
  8
F-A_文字
  6
Continuous
 62
     7
370
     0
100
AcDbMText
 10
1394.917396372138
 20
-4168.140669266188
 30
0.0
 40
45.72
 41
120.0
 46
0.0
 71
     7
 72
     1
  1
{\fＭＳ ゴシック|b0|i0|c128|p49;会社}
 73
     1
 44
1.0
  0
LINE
  5
7C
330
1F
100
AcDbEntity
  8
F-1_枠
  6
Continuous
 62
   200
370
    20
100
AcDbLine
 10
5859.917429364114
 20
-3795.000003092998
 30
0.0
 11
-5840.081085996952
 21
-3795.000003092998
 31
0.0
  0
LINE
  5
7D
330
1F
100
AcDbEntity
  8
F-1_枠
  6
Continuous
 62
   200
370
    20
100
AcDbLine
 10
5859.917429364114
 20
-3790.000017526988
 30
0.0
 11
-5840.081085996952
 21
-3790.000017526988
 31
0.0
  0
LINE
  5
7E
330
1F
100
AcDbEntity
  8
F-0_補助線
  6
JWW_HOJO
 62
     7
370
     9
100
AcDbLine
 10
-5087.628710189611
 20
-3795.000003093
 30
0.0
 11
-5087.628710189611
 21
-4205.000164959882
 31
0.0
  0
LINE
  5
7F
330
1F
100
AcDbEntity
  8
F-0_補助線
  6
JWW_HOJO
 62
     7
370
     9
100
AcDbLine
 10
-50.08145715668377
 20
-3795.000003092998
 30
0.0
 11
-50.08145715668377
 21
-4195.000008247994
 31
0.0
  0
MTEXT
  5
80
330
1F
100
AcDbEntity
  8
F-0_補助線
  6
Continuous
 62
     7
370
     0
100
AcDbMText
 10
509.9185840832865
 20
-3946.496666872502
 30
0.0
 40
78.58125
 41
412.5
 46
0.0
 71
     7
 72
     1
  1
{\fＭＳ ゴシック|b0|i0|c128|p49;DOORETUS}
 73
     1
 44
1.0
  0
MTEXT
  5
81
330
1F
100
AcDbEntity
  8
F-0_補助線
  6
Continuous
 62
     7
370
     0
100
AcDbMText
 10
1110.209427605312
 20
-3946.734791872503
 30
0.0
 40
78.105
 41
615.0
 46
0.0
 71
     7
 72
     1
  1
{\fＭＳ ゴシック|b0|i0|c128|p49;建具納まり図}
 73
     1
 44
1.0
  0
LINE
  5
82
330
1F
100
AcDbEntity
  8
0-A_文字
  6
Continuous
 62
    92
370
    13
100
AcDbLine
 10
-5659.999495325866
 20
3730.00018145587
 30
0.0
 11
-5659.999495325866
 21
4000.00018145587
 31
0.0
  0
ELLIPSE
  5
83
330
1F
100
AcDbEntity
  8
戸当り
  6
Continuous
 62
    92
370
    13
100
AcDbEllipse
 10
4675.430917458078
 20
2876.053590301512
 30
0.0
 11
11.36181697857171
 21
42.40287823032828
 31
0.0
210
0.0
220
0.0
230
0.9999999999999999
 40
0.6
 41
1.570796326794897
 42
4.71238898038469
  0
LINE
  5
84
330
1F
100
AcDbEntity
  8
戸当り
  6
Continuous
 62
    92
370
    13
100
AcDbLine
 10
4700.872644396272
 20
2869.236500114368
 30
0.0
 11
4649.989190519879
 21
2882.870680488653
 31
0.0
  0
LINE
  5
85
330
1F
100
AcDbEntity
  8
戸当り
  6
Continuous
 62
    92
370
    13
100
AcDbLine
 10
4704.133764364565
 20
2881.40716552561
 30
0.0
 11
4653.25031048817
 21
2895.041345899896
 31
0.0
  0
ELLIPSE
  5
86
330
1F
100
AcDbEntity
  8
戸当り
  6
Continuous
 62
    92
370
    13
100
AcDbEllipse
 10
4699.604310755758
 20
2966.269922279796
 30
0.0
 11
21.86569797210526
 21
81.6038957748525
 31
0.0
210
0.0
220
0.0
230
1.0
 40
0.5
 41
4.340591432030095
 42
8.225779182329084
  0
ELLIPSE
  5
87
330
1F
100
AcDbEntity
  8
戸当り
  6
Continuous
 62
    92
370
    13
100
AcDbEllipse
 10
4698.978687882654
 20
2963.935065931004
 30
0.0
 11
26.49533313827761
 21
98.88192943551533
 31
0.0
210
0.0
220
0.0
230
0.9999999999999999
 40
0.4
 41
3.840308517104466
 42
4.432552034522944
  0
ELLIPSE
  5
88
330
1F
100
AcDbEntity
  8
戸当り
  6
Continuous
 62
    92
370
    13
100
AcDbEllipse
 10
4698.978687882654
 20
2963.935065931004
 30
0.0
 11
26.49533313827761
 21
98.88192943551533
 31
0.0
210
0.0
220
0.0
230
0.9999999999999999
 40
0.4
 41
1.850633272656679
 42
2.442876790075129
  0
ELLIPSE
  5
89
330
1F
100
AcDbEntity
  8
戸当り
  6
Continuous
 62
    92
370
    13
100
AcDbEllipse
 10
4560.316707711374
 20
2838.28484693721
 30
0.0
 11
-7.622927487939132
 21
43.23177007461331
 31
0.0
210
0.0
220
0.0
230
1.0
 40
0.6000000000000001
 41
1.570796326794897
 42
4.71238898038469
  0
LINE
  5
8A
330
1F
100
AcDbEntity
  8
戸当り
  6
Continuous
 62
    92
370
    13
100
AcDbLine
 10
4586.255769756144
 20
2842.858603429974
 30
0.0
 11
4534.377645666606
 21
2833.711090444447
 31
0.0
  0
LINE
  5
8B
330
1F
100
AcDbEntity
  8
戸当り
  6
Continuous
 62
    92
370
    13
100
AcDbLine
 10
4584.067802717541
 20
2855.267181117928
 30
0.0
 11
4532.189678628003
 21
2846.1196681324
 31
0.0
  0
ELLIPSE
  5
8C
330
1F
100
AcDbEntity
  8
戸当り
  6
Continuous
 62
    92
370
    13
100
AcDbEllipse
 10
4544.098172894875
 20
2930.264728582853
 30
0.0
 11
-14.67024424252691
 21
83.19908946199426
 31
0.0
210
0.0
220
0.0
230
1.0
 40
0.5
 41
4.340591432030095
 42
8.225779182329084
  0
ELLIPSE
  5
8D
330
1F
100
AcDbEntity
  8
戸当り
  6
Continuous
 62
    92
370
    13
100
AcDbEllipse
 10
4544.51791894478
 20
2927.884230441197
 30
0.0
 11
-17.7763823922528
 21
100.8148742797557
 31
0.0
210
0.0
220
0.0
230
1.0
 40
0.4000000000000001
 41
3.840308517104466
 42
4.432552034522944
  0
ELLIPSE
  5
8E
330
1F
100
AcDbEntity
  8
戸当り
  6
Continuous
 62
    92
370
    13
100
AcDbEllipse
 10
4544.51791894478
 20
2927.884230441197
 30
0.0
 11
-17.7763823922528
 21
100.8148742797557
 31
0.0
210
0.0
220
0.0
230
1.0
 40
0.4000000000000001
 41
1.850633272656679
 42
2.442876790075129
  0
LINE
  5
8F
330
1F
100
AcDbEntity
  8
0-0_補助線
  6
JWW_HOJO
 62
   120
370
     5
100
AcDbLine
 10
4619.917643811961
 20
2718.999983504013
 30
0.0
 11
4619.917643811961
 21
3536.444090120684
 31
0.0
  0
LINE
  5
90
330
1F
100
AcDbEntity
  8
0-A_文字
  6
Continuous
 62
    92
370
    13
100
AcDbLine
 10
3869.917643811962
 20
3684.999983504013
 30
0.0
 11
3869.917643811962
 21
2718.999983504013
 31
0.0
  0
LINE
  5
91
330
1F
100
AcDbEntity
  8
0-0_補助線
  6
JWW_HOJO
 62
   120
370
     5
100
AcDbLine
 10
3899.917643811962
 20
3684.999983504013
 30
0.0
 11
3899.917643811962
 21
2718.999983504013
 31
0.0
  0
LINE
  5
92
330
1F
100
AcDbEntity
  8
0-A_文字
  6
Continuous
 62
    92
370
    13
100
AcDbLine
 10
5369.917643811961
 20
2718.999983504013
 30
0.0
 11
3869.917643811962
 21
2718.999983504013
 31
0.0
  0
LINE
  5
93
330
1F
100
AcDbEntity
  8
0-A_文字
  6
Continuous
 62
    92
370
    13
100
AcDbLine
 10
5369.917643811961
 20
3684.999983504013
 30
0.0
 11
5369.917643811961
 21
2718.999983504013
 31
0.0
  0
LINE
  5
94
330
1F
100
AcDbEntity
  8
0-0_補助線
  6
JWW_HOJO
 62
   120
370
     5
100
AcDbLine
 10
5339.917643811961
 20
3684.999983504013
 30
0.0
 11
5339.917643811961
 21
2718.999983504013
 31
0.0
  0
LINE
  5
95
330
1F
100
AcDbEntity
  8
戸当り
  6
Continuous
 62
    40
370
    15
100
AcDbLine
 10
4573.330215693509
 20
3385.504011182749
 30
0.0
 11
4619.917643811961
 21
3211.637362450716
 31
0.0
  0
LINE
  5
96
330
1F
100
AcDbEntity
  8
戸当り
  6
Continuous
 62
    40
370
    15
100
AcDbLine
 10
4666.505071930416
 20
3385.504011182749
 30
0.0
 11
4619.917643811961
 21
3211.637362450717
 31
0.0
  0
LINE
  5
97
330
1F
100
AcDbEntity
  8
戸当り
  6
Continuous
 62
    40
370
    15
100
AcDbLine
 10
5066.742787575054
 20
3385.504011182749
 30
0.0
 11
5113.330215693509
 21
3211.637362450716
 31
0.0
  0
LINE
  5
98
330
1F
100
AcDbEntity
  8
戸当り
  6
Continuous
 62
    40
370
    15
100
AcDbLine
 10
5159.917643811961
 20
3385.504011182749
 30
0.0
 11
5113.330215693509
 21
3211.637362450717
 31
0.0
  0
LINE
  5
99
330
1F
100
AcDbEntity
  8
戸当り
  6
Continuous
 62
    40
370
    15
100
AcDbLine
 10
4173.09250004887
 20
3385.504011182749
 30
0.0
 11
4126.505071930416
 21
3211.637362450717
 31
0.0
  0
LINE
  5
9A
330
1F
100
AcDbEntity
  8
戸当り
  6
Continuous
 62
    40
370
    15
100
AcDbLine
 10
4079.917643811962
 20
3385.504011182749
 30
0.0
 11
4126.505071930416
 21
3211.637362450716
 31
0.0
  0
CIRCLE
  5
9B
330
1F
100
AcDbEntity
  8
0-0_補助線
  6
JWW_HOJO
 62
   120
370
     5
100
AcDbCircle
 10
5159.917643811961
 20
3385.504011182749
 30
0.0
 40
179.9999999999991
  0
CIRCLE
  5
9C
330
1F
100
AcDbEntity
  8
0-0_補助線
  6
JWW_HOJO
 62
   120
370
     5
100
AcDbCircle
 10
4799.917643811961
 20
3385.504011182749
 30
0.0
 40
180.0
  0
CIRCLE
  5
9D
330
1F
100
AcDbEntity
  8
0-0_補助線
  6
JWW_HOJO
 62
   120
370
     5
100
AcDbCircle
 10
4439.917643811961
 20
3385.504011182749
 30
0.0
 40
180.0
  0
CIRCLE
  5
9E
330
1F
100
AcDbEntity
  8
0-0_補助線
  6
JWW_HOJO
 62
   120
370
     5
100
AcDbCircle
 10
4079.917643811962
 20
3385.504011182749
 30
0.0
 40
180.0
  0
LINE
  5
9F
330
1F
100
AcDbEntity
  8
戸当り
  6
JWW_DASHED2
 62
     7
370
     9
100
AcDbLine
 10
5159.917643811961
 20
3385.504011182749
 30
0.0
 11
4079.917643811962
 21
3385.504011182749
 31
0.0
  0
LINE
  5
A0
330
1F
100
AcDbEntity
  8
戸当り
  6
Continuous
 62
    40
370
    15
100
AcDbLine
 10
4079.917643811962
 20
3439.504011182752
 30
0.0
 11
4079.917643811962
 21
3385.504011182749
 31
0.0
  0
LINE
  5
A1
330
1F
100
AcDbEntity
  8
戸当り
  6
Continuous
 62
    40
370
    15
100
AcDbLine
 10
4079.917643811962
 20
3439.504011182752
 30
0.0
 11
3899.917643811962
 21
3439.504011182752
 31
0.0
  0
LINE
  5
A2
330
1F
100
AcDbEntity
  8
戸当り
  6
Continuous
 62
    40
370
    15
100
AcDbLine
 10
4079.917643811962
 20
3385.504011182749
 30
0.0
 11
3899.917643811962
 21
3385.504011182749
 31
0.0
  0
LINE
  5
A3
330
1F
100
AcDbEntity
  8
戸当り
  6
Continuous
 62
    40
370
    15
100
AcDbLine
 10
5159.917643811961
 20
3439.504011182752
 30
0.0
 11
5159.917643811961
 21
3385.504011182749
 31
0.0
  0
LINE
  5
A4
330
1F
100
AcDbEntity
  8
戸当り
  6
Continuous
 62
    40
370
    15
100
AcDbLine
 10
5159.917643811961
 20
3439.504011182752
 30
0.0
 11
5339.917643811961
 21
3439.504011182752
 31
0.0
  0
LINE
  5
A5
330
1F
100
AcDbEntity
  8
戸当り
  6
Continuous
 62
    40
370
    15
100
AcDbLine
 10
5159.917643811961
 20
3385.504011182749
 30
0.0
 11
5339.917643811961
 21
3385.504011182749
 31
0.0
  0
LINE
  5
A6
330
1F
100
AcDbEntity
  8
0-A_文字
  6
Continuous
 62
    92
370
    13
100
AcDbLine
 10
5369.917643811961
 20
3540.999983504013
 30
0.0
 11
3869.917643811962
 21
3540.999983504013
 31
0.0
  0
LINE
  5
A7
330
1F
100
AcDbEntity
  8
0-A_文字
  6
Continuous
 62
    92
370
    13
100
AcDbLine
 10
5369.917643811961
 20
3684.999983504013
 30
0.0
 11
3869.917643811962
 21
3684.999983504013
 31
0.0
  0
MTEXT
  5
A8
330
1F
100
AcDbEntity
  8
0-A_文字
  6
Continuous
 62
     7
370
     9
100
AcDbMText
 10
4259.917643811961
 20
3562.188554932585
 30
0.0
 40
78.37714285714286
 41
720.0
 46
0.0
 71
     7
 72
     1
  1
{\fＭＳ ゴシック|b0|i0|c128|p49;フリーオープン}
 73
     1
 44
1.0
  0
MTEXT
  5
A9
330
1F
100
AcDbEntity
  8
F-A_文字
  6
Continuous
 62
     7
370
     0
100
AcDbMText
 10
3689.917643811962
 20
-3946.903115907308
 30
0.0
 40
76.19999999999999
 41
150.0
 46
0.0
 71
     7
 72
     1
  1
{\fＭＳ ゴシック|b0|i0|c128|p49;1/5}
 73
     1
 44
1.0
  0
MTEXT
  5
AA
330
1F
100
AcDbEntity
  8
0-A_文字
  6
Continuous
 62
    92
370
    13
100
AcDbMText
 10
-5592.499495325861
 20
3758.959004985282
 30
0.0
 40
147.9176470588235
 41
3300.0
 46
0.0
 71
     7
 72
     1
  1
{\fＭＳ ゴシック|b0|i0|c128|p49;クローゼットドア　調整枠　間口９尺}
 73
     1
 44
1.0
  0
LINE
  5
AB
330
1F
100
AcDbEntity
  8
0-A_文字
  6
Continuous
 62
    92
370
    13
100
AcDbLine
 10
-5659.999495325866
 20
3730.00018145587
 30
0.0
 11
-2235.714285714285
 21
3730.00018145587
 31
0.0
  0
LINE
  5
AC
330
1F
100
AcDbEntity
  8
0-A_文字
  6
Continuous
 62
    92
370
    13
100
AcDbLine
 10
-5659.999495325866
 20
4000.00018145587
 30
0.0
 11
-2235.714285714285
 21
4000.00018145587
 31
0.0
  0
LINE
  5
AD
330
1F
100
AcDbEntity
  8
0-A_文字
  6
Continuous
 62
    92
370
    13
100
AcDbLine
 10
-2235.714285714285
 20
3730.00018145587
 30
0.0
 11
-2235.714285714285
 21
4000.00018145587
 31
0.0
  0
MTEXT
  5
AE
330
1F
100
AcDbEntity
  8
F-A_文字
  6
Continuous
 62
     7
370
     0
100
AcDbMText
 10
-5080.081323642279
 20
-4045.064631200341
 30
0.0
 40
79.87060975609751
 41
4297.5
 46
0.0
 71
     7
 72
     1
  1
{\fＭＳ ゴシック|b0|i0|c128|p49;ドレタス　クローゼットドア  調整枠　３方枠＋埋め込みレール　枠外H2,348　枠外W2,558}
 73
     1
 44
1.0
  0
MTEXT
  5
AF
330
1F
100
AcDbEntity
  8
F-A_文字
  6
Continuous
 62
     7
370
     9
100
AcDbMText
 10
5096.167700144057
 20
-4147.857012699984
 30
0.0
 40
74.295
 41
97.5
 46
0.0
 71
     7
 72
     1
  1
{\fＭＳ ゴシック|b0|i0|c128|p49;04}
 73
     1
 44
1.0
  0
MTEXT
  5
B0
330
1F
100
AcDbEntity
  8
0-A_文字
  6
Continuous
 62
     7
370
     9
100
AcDbMText
 10
-3623.689459170392
 20
3310.355192579905
 30
0.0
 40
100.5840000000001
 41
660.0000000000009
 46
0.0
 71
     7
 72
     1
  1
{\fＭＳ ゴシック|b0|i0|c128|p49;■横断面図}
 73
     1
 44
1.0
  0
MTEXT
  5
B1
330
1F
100
AcDbEntity
  8
0-B_寸法
  6
Continuous
 62
     7
370
   211
100
AcDbMText
 10
-1181.68965712225
 20
1087.665146596495
 30
0.0
 40
91.44000000000013
 41
660.0000000000009
 46
0.0
 71
     7
 72
     1
  1
{\fＭＳ ゴシック|b0|i0|c128|p49;枠外＝2,558}
 73
     1
 44
1.0
  0
LINE
  5
B2
330
1F
100
AcDbEntity
  8
0-3_仕上げ
  6
Continuous
 62
   120
370
     5
100
AcDbLine
 10
-2536.143128166338
 20
2582.612293027895
 30
0.0
 11
-2536.143128166338
 21
2120.612293027895
 31
0.0
  0
LINE
  5
B3
330
1F
100
AcDbEntity
  8
0-3_仕上げ
  6
Continuous
 62
   120
370
     5
100
AcDbLine
 10
-2536.143128166338
 20
2120.612293027895
 30
0.0
 11
-2699.374873705996
 21
2120.612293027895
 31
0.0
  0
LWPOLYLINE
  5
B4
330
1F
100
AcDbEntity
  8
0-3_仕上げ
  6
Continuous
 62
     7
370
     9
100
AcDbPolyline
 90
        4
 70
     1
 43
3.0
 10
-2534.643128166338
 20
2120.612293027895
 42
0.4142135623731
 10
-2536.143128166338
 20
2122.112293027895
 42
0.4142135623731
 10
-2537.643128166338
 20
2120.612293027895
 42
0.4142135623731
 10
-2536.143128166338
 20
2119.112293027895
 42
0.4142135623731
  0
LINE
  5
B5
330
1F
100
AcDbEntity
  8
0-3_仕上げ
  6
Continuous
 62
   120
370
     5
100
AcDbLine
 10
-2536.143128166338
 20
2582.612293027895
 30
0.0
 11
-2699.374873705996
 21
2582.612293027895
 31
0.0
  0
LWPOLYLINE
  5
B6
330
1F
100
AcDbEntity
  8
0-3_仕上げ
  6
Continuous
 62
     7
370
     9
100
AcDbPolyline
 90
        4
 70
     1
 43
3.0
 10
-2534.643128166338
 20
2582.612293027895
 42
0.4142135623731
 10
-2536.143128166338
 20
2584.112293027895
 42
0.4142135623731
 10
-2537.643128166338
 20
2582.612293027895
 42
0.4142135623731
 10
-2536.143128166338
 20
2581.112293027895
 42
0.4142135623731
  0
LINE
  5
B7
330
1F
100
AcDbEntity
  8
0-B_寸法
  6
Continuous
 62
   120
370
     5
100
AcDbLine
 10
-2993.689657122252
 20
1806.945146596495
 30
0.0
 11
-2993.689657122252
 21
1986.945146596495
 31
0.0
  0
LINE
  5
B8
330
1F
100
AcDbEntity
  8
0-B_寸法
  6
Continuous
 62
   120
370
     5
100
AcDbLine
 10
-3023.689657122252
 20
1806.945146596495
 30
0.0
 11
-3023.689657122252
 21
1986.945146596495
 31
0.0
  0
MTEXT
  5
B9
330
1F
100
AcDbEntity
  8
0-B_寸法
  6
Continuous
 62
     7
370
   211
100
AcDbMText
 10
1170.310342877751
 20
1267.665146596495
 30
0.0
 40
91.43999999999967
 41
119.9999999999996
 46
0.0
 71
     7
 72
     1
  1
{\fＭＳ ゴシック|b0|i0|c128|p49;30}
 73
     1
 44
1.0
  0
LINE
  5
BA
330
1F
100
AcDbEntity
  8
0-B_寸法
  6
Continuous
 62
   120
370
     5
100
AcDbLine
 10
-3129.138478950915
 20
1866.945146596495
 30
0.0
 11
-3068.689657122252
 21
1866.945146596495
 31
0.0
  0
MTEXT
  5
BB
330
1F
100
AcDbEntity
  8
0-B_寸法
  6
Continuous
 62
     7
370
   211
100
AcDbMText
 10
-1181.68965712225
 20
1267.665146596495
 30
0.0
 40
91.44000000000013
 41
660.0000000000009
 46
0.0
 71
     7
 72
     1
  1
{\fＭＳ ゴシック|b0|i0|c128|p49;枠内＝2,498}
 73
     1
 44
1.0
  0
LINE
  5
BC
330
1F
100
AcDbEntity
  8
0-B_寸法
  6
Continuous
 62
   120
370
     5
100
AcDbLine
 10
-3008.689657122252
 20
1806.945146596495
 30
0.0
 11
-3068.689657122252
 21
1866.945146596495
 31
0.0
  0
LINE
  5
BD
330
1F
100
AcDbEntity
  8
0-B_寸法
  6
Continuous
 62
   120
370
     5
100
AcDbLine
 10
-3120.93619697743
 20
1716.945146596495
 30
0.0
 11
-3065.689657122255
 21
1716.945146596495
 31
0.0
  0
MTEXT
  5
BE
330
1F
100
AcDbEntity
  8
0-B_寸法
  6
Continuous
 62
     7
370
   211
100
AcDbMText
 10
-2993.689657122252
 20
1267.665146596496
 30
0.0
 40
91.4400000000013
 41
120.0000000000017
 46
0.0
 71
     7
 72
     1
  1
{\fＭＳ ゴシック|b0|i0|c128|p49;30}
 73
     1
 44
1.0
  0
LINE
  5
BF
330
1F
100
AcDbEntity
  8
0-B_寸法
  6
Continuous
 62
   120
370
     5
100
AcDbLine
 10
-2975.689657122255
 20
1806.945146596495
 30
0.0
 11
-3065.689657122255
 21
1716.945146596495
 31
0.0
  0
MTEXT
  5
C0
330
1F
100
AcDbEntity
  8
0-B_寸法
  6
Continuous
 62
     7
370
   211
100
AcDbMText
 10
40.31034277775277
 20
1447.665146596495
 30
0.0
 40
91.44000000000001
 41
900.0
 46
0.0
 71
     7
 72
     1
  1
{\fＭＳ ゴシック|b0|i0|c128|p49;折戸：ＤＷ＝833}
 73
     1
 44
1.0
  0
LINE
  5
C1
330
1F
100
AcDbEntity
  8
0-B_寸法
  6
Continuous
 62
   120
370
     5
100
AcDbLine
 10
-2843.689657122252
 20
1806.945146596495
 30
0.0
 11
-2843.689657122252
 21
1986.945146596495
 31
0.0
  0
LWPOLYLINE
  5
C2
330
1F
100
AcDbEntity
  8
0-B_寸法
  6
Continuous
 62
     7
370
     9
100
AcDbPolyline
 90
        4
 70
     1
 43
3.0
 10
-2842.189657122252
 20
1806.945146596495
 42
0.4142135623731
 10
-2843.689657122252
 20
1808.445146596495
 42
0.4142135623731
 10
-2845.189657122252
 20
1806.945146596495
 42
0.4142135623731
 10
-2843.689657122252
 20
1805.445146596495
 42
0.4142135623731
  0
LINE
  5
C3
330
1F
100
AcDbEntity
  8
0-B_寸法
  6
Continuous
 62
   120
370
     5
100
AcDbLine
 10
-2903.689657122252
 20
1806.945146596495
 30
0.0
 11
-2903.689657122252
 21
1986.945146596495
 31
0.0
  0
LWPOLYLINE
  5
C4
330
1F
100
AcDbEntity
  8
0-B_寸法
  6
Continuous
 62
     7
370
     9
100
AcDbPolyline
 90
        4
 70
     1
 43
3.0
 10
-2902.189657122252
 20
1806.945146596495
 42
0.4142135623731
 10
-2903.689657122252
 20
1808.445146596495
 42
0.4142135623731
 10
-2905.189657122252
 20
1806.945146596495
 42
0.4142135623731
 10
-2903.689657122252
 20
1805.445146596495
 42
0.4142135623731
  0
LINE
  5
C5
330
1F
100
AcDbEntity
  8
0-B_寸法
  6
Continuous
 62
   120
370
     5
100
AcDbLine
 10
-2957.689657122255
 20
1806.945146596495
 30
0.0
 11
-2957.689657122255
 21
1986.945146596495
 31
0.0
  0
LWPOLYLINE
  5
C6
330
1F
100
AcDbEntity
  8
0-B_寸法
  6
Continuous
 62
     7
370
     9
100
AcDbPolyline
 90
        4
 70
     1
 43
3.0
 10
-2956.189657122255
 20
1806.945146596495
 42
0.4142135623731
 10
-2957.689657122255
 20
1808.445146596495
 42
0.4142135623731
 10
-2959.189657122255
 20
1806.945146596495
 42
0.4142135623731
 10
-2957.689657122255
 20
1805.445146596495
 42
0.4142135623731
  0
LWPOLYLINE
  5
C7
330
1F
100
AcDbEntity
  8
0-B_寸法
  6
Continuous
 62
     7
370
     9
100
AcDbPolyline
 90
        4
 70
     1
 43
3.0
 10
-2992.189657122252
 20
1806.945146596495
 42
0.4142135623731
 10
-2993.689657122252
 20
1808.445146596495
 42
0.4142135623731
 10
-2995.189657122252
 20
1806.945146596495
 42
0.4142135623731
 10
-2993.689657122252
 20
1805.445146596495
 42
0.4142135623731
  0
LWPOLYLINE
  5
C8
330
1F
100
AcDbEntity
  8
0-B_寸法
  6
Continuous
 62
     7
370
     9
100
AcDbPolyline
 90
        4
 70
     1
 43
3.0
 10
-3022.189657122252
 20
1806.945146596495
 42
0.4142135623731
 10
-3023.689657122252
 20
1808.445146596495
 42
0.4142135623731
 10
-3025.189657122252
 20
1806.945146596495
 42
0.4142135623731
 10
-3023.689657122252
 20
1805.445146596495
 42
0.4142135623731
  0
LINE
  5
C9
330
1F
100
AcDbEntity
  8
0-B_寸法
  6
Continuous
 62
   120
370
     5
100
AcDbLine
 10
-3023.689657122252
 20
1806.945146596495
 30
0.0
 11
-2843.689657122252
 21
1806.945146596495
 31
0.0
  0
LINE
  5
CA
330
1F
100
AcDbEntity
  8
0-B_寸法
  6
Continuous
 62
   120
370
     5
100
AcDbLine
 10
1320.310342877751
 20
1086.945146596495
 30
0.0
 11
1320.310342877751
 21
1806.945146596495
 31
0.0
  0
LINE
  5
CB
330
1F
100
AcDbEntity
  8
0-B_寸法
  6
Continuous
 62
   120
370
     5
100
AcDbLine
 10
-3023.689657122252
 20
1086.945146596495
 30
0.0
 11
-3023.689657122252
 21
1806.945146596495
 31
0.0
  0
LINE
  5
CC
330
1F
100
AcDbEntity
  8
0-0_補助線
  6
JWW_HOJO
 62
   120
370
     5
100
AcDbLine
 10
1920.310144925897
 20
1986.945146596495
 30
0.0
 11
-3623.689459170392
 21
1986.945146596495
 31
0.0
  0
LINE
  5
CD
330
1F
100
AcDbEntity
  8
0-0_補助線
  6
JWW_HOJO
 62
     7
370
     9
100
AcDbLine
 10
-180.6896573222494
 20
906.9451465964949
 30
0.0
 11
-180.6896573222494
 21
3321.945146596497
 31
0.0
  0
LINE
  5
CE
330
1F
100
AcDbEntity
  8
0-0_補助線
  6
JWW_HOJO
 62
     7
370
     9
100
AcDbLine
 10
-1522.689656922249
 20
906.9451465964949
 30
0.0
 11
-1522.689656922249
 21
3321.945146596497
 31
0.0
  0
LINE
  5
CF
330
1F
100
AcDbEntity
  8
0-0_補助線
  6
JWW_HOJO
 62
     7
370
     9
100
AcDbLine
 10
-2193.689656722249
 20
906.9451465964949
 30
0.0
 11
-2193.689656722249
 21
3321.945146596497
 31
0.0
  0
LINE
  5
D0
330
1F
100
AcDbEntity
  8
0-0_補助線
  6
JWW_HOJO
 62
     7
370
     9
100
AcDbLine
 10
490.3103424777499
 20
906.9451465964949
 30
0.0
 11
490.3103424777499
 21
3321.945146596497
 31
0.0
  0
LINE
  5
D1
330
1F
100
AcDbEntity
  8
0-0_補助線
  6
JWW_HOJO
 62
     7
370
     9
100
AcDbLine
 10
-851.6896571222492
 20
906.9451465964949
 30
0.0
 11
-851.6896571222492
 21
3321.945146596497
 31
0.0
  0
LINE
  5
D2
330
1F
100
AcDbEntity
  8
0-0_補助線
  6
JWW_HOJO
 62
     7
370
     9
100
AcDbLine
 10
1140.310342877751
 20
906.9451465964949
 30
0.0
 11
1140.310342877751
 21
3321.945146596497
 31
0.0
  0
LINE
  5
D3
330
1F
100
AcDbEntity
  8
0-0_補助線
  6
JWW_HOJO
 62
     7
370
     9
100
AcDbLine
 10
-2843.689657122252
 20
906.9451465964949
 30
0.0
 11
-2843.689657122252
 21
3321.945146596497
 31
0.0
  0
LINE
  5
D4
330
1F
100
AcDbEntity
  8
0-0_補助線
  6
JWW_HOJO
 62
   120
370
     5
100
AcDbLine
 10
1920.310144925897
 20
1086.945146596495
 30
0.0
 11
1920.310144925897
 21
3141.945146596497
 31
0.0
  0
LINE
  5
D5
330
1F
100
AcDbEntity
  8
0-0_補助線
  6
JWW_HOJO
 62
   120
370
     5
100
AcDbLine
 10
-3623.689459170392
 20
1086.945146596495
 30
0.0
 11
-3623.689459170392
 21
3141.945146596497
 31
0.0
  0
MTEXT
  5
D6
330
1F
100
AcDbEntity
  8
0-B_寸法
  6
Continuous
 62
     7
370
   211
100
AcDbMText
 10
-150.6896573222502
 20
1447.665146596496
 30
0.0
 40
91.4400000000013
 41
60.00000000000085
 46
0.0
 71
     7
 72
     1
  1
{\fＭＳ ゴシック|b0|i0|c128|p49;2}
 73
     1
 44
1.0
  0
MTEXT
  5
D7
330
1F
100
AcDbEntity
  8
0-B_寸法
  6
Continuous
 62
     7
370
   211
100
AcDbMText
 10
-1301.689657122249
 20
1447.665146596495
 30
0.0
 40
91.44000000000001
 41
900.0
 46
0.0
 71
     7
 72
     1
  1
{\fＭＳ ゴシック|b0|i0|c128|p49;折戸：ＤＷ＝833}
 73
     1
 44
1.0
  0
MTEXT
  5
D8
330
1F
100
AcDbEntity
  8
0-B_寸法
  6
Continuous
 62
     7
370
   211
100
AcDbMText
 10
-1492.68965692225
 20
1447.665146596496
 30
0.0
 40
91.4400000000013
 41
60.00000000000085
 46
0.0
 71
     7
 72
     1
  1
{\fＭＳ ゴシック|b0|i0|c128|p49;2}
 73
     1
 44
1.0
  0
MTEXT
  5
D9
330
1F
100
AcDbEntity
  8
0-B_寸法
  6
Continuous
 62
     7
370
   211
100
AcDbMText
 10
-2643.689657022251
 20
1447.665146596495
 30
0.0
 40
91.44000000000001
 41
900.0
 46
0.0
 71
     7
 72
     1
  1
{\fＭＳ ゴシック|b0|i0|c128|p49;折戸：ＤＷ＝833}
 73
     1
 44
1.0
  0
MTEXT
  5
DA
330
1F
100
AcDbEntity
  8
0-B_寸法
  6
Continuous
 62
     7
370
   211
100
AcDbMText
 10
614.3103426777515
 20
1621.950146596495
 30
0.0
 40
80.01000000000032
 41
420.0000000000017
 46
0.0
 71
     7
 72
     1
  1
{\fＭＳ ゴシック|b0|i0|c128|p49;ＤＷ=416}
 73
     1
 44
1.0
  0
MTEXT
  5
DB
330
1F
100
AcDbEntity
  8
0-B_寸法
  6
Continuous
 62
     7
370
   211
100
AcDbMText
 10
-53.68965742225043
 20
1621.950146596495
 30
0.0
 40
80.01000000000032
 41
420.0000000000017
 46
0.0
 71
     7
 72
     1
  1
{\fＭＳ ゴシック|b0|i0|c128|p49;ＤＷ=416}
 73
     1
 44
1.0
  0
MTEXT
  5
DC
330
1F
100
AcDbEntity
  8
0-B_寸法
  6
Continuous
 62
     7
370
   211
100
AcDbMText
 10
-727.6896572222493
 20
1621.950146596495
 30
0.0
 40
80.01000000000032
 41
420.0000000000017
 46
0.0
 71
     7
 72
     1
  1
{\fＭＳ ゴシック|b0|i0|c128|p49;ＤＷ=416}
 73
     1
 44
1.0
  0
MTEXT
  5
DD
330
1F
100
AcDbEntity
  8
0-B_寸法
  6
Continuous
 62
     7
370
   211
100
AcDbMText
 10
-1395.689657022249
 20
1621.950146596495
 30
0.0
 40
80.00999999999951
 41
419.9999999999974
 46
0.0
 71
     7
 72
     1
  1
{\fＭＳ ゴシック|b0|i0|c128|p49;ＤＷ=416}
 73
     1
 44
1.0
  0
MTEXT
  5
DE
330
1F
100
AcDbEntity
  8
0-B_寸法
  6
Continuous
 62
     7
370
   211
100
AcDbMText
 10
-2069.689656822248
 20
1621.950146596495
 30
0.0
 40
80.00999999999951
 41
419.9999999999974
 46
0.0
 71
     7
 72
     1
  1
{\fＭＳ ゴシック|b0|i0|c128|p49;ＤＷ=416}
 73
     1
 44
1.0
  0
MTEXT
  5
DF
330
1F
100
AcDbEntity
  8
0-B_寸法
  6
Continuous
 62
     7
370
   211
100
AcDbMText
 10
-2737.68965692225
 20
1621.950146596495
 30
0.0
 40
80.00999999999951
 41
419.9999999999974
 46
0.0
 71
     7
 72
     1
  1
{\fＭＳ ゴシック|b0|i0|c128|p49;ＤＷ=416}
 73
     1
 44
1.0
  0
MTEXT
  5
E0
330
1F
100
AcDbEntity
  8
0-B_寸法
  6
Continuous
 62
     7
370
   211
100
AcDbMText
 10
-3110.689657122255
 20
1706.235146596497
 30
0.0
 40
68.5800000000026
 41
45.00000000000171
 46
0.0
 71
     7
 72
     1
  1
{\fＭＳ ゴシック|b0|i0|c128|p49;6}
 73
     1
 44
1.0
  0
MTEXT
  5
E1
330
1F
100
AcDbEntity
  8
0-B_寸法
  6
Continuous
 62
     7
370
   211
100
AcDbMText
 10
-2892.439657122251
 20
1799.092646596496
 30
0.0
 40
74.29500000000066
 41
97.50000000000085
 46
0.0
 71
     7
 72
     1
  1
{\fＭＳ ゴシック|b0|i0|c128|p49;10}
 73
     1
 44
1.0
  0
MTEXT
  5
E2
330
1F
100
AcDbEntity
  8
0-B_寸法
  6
Continuous
 62
     7
370
   211
100
AcDbMText
 10
-2953.189657122255
 20
1796.235146596497
 30
0.0
 40
68.5800000000026
 41
45.00000000000171
 46
0.0
 71
     7
 72
     1
  1
{\fＭＳ ゴシック|b0|i0|c128|p49;9}
 73
     1
 44
1.0
  0
MTEXT
  5
E3
330
1F
100
AcDbEntity
  8
0-B_寸法
  6
Continuous
 62
     7
370
   211
100
AcDbMText
 10
-3113.689657122252
 20
1856.235146596497
 30
0.0
 40
68.5800000000026
 41
45.00000000000171
 46
0.0
 71
     7
 72
     1
  1
{\fＭＳ ゴシック|b0|i0|c128|p49;5}
 73
     1
 44
1.0
  0
LWPOLYLINE
  5
E4
330
1F
100
AcDbEntity
  8
0-B_寸法
  6
Continuous
 62
     7
370
     9
100
AcDbPolyline
 90
        4
 70
     1
 43
3.0
 10
1321.81034287775
 20
1086.945146596495
 42
0.4142135623731
 10
1320.310342877751
 20
1088.445146596495
 42
0.4142135623731
 10
1318.810342877751
 20
1086.945146596495
 42
0.4142135623731
 10
1320.310342877751
 20
1085.445146596495
 42
0.4142135623731
  0
LWPOLYLINE
  5
E5
330
1F
100
AcDbEntity
  8
0-B_寸法
  6
Continuous
 62
     7
370
     9
100
AcDbPolyline
 90
        4
 70
     1
 43
3.0
 10
-3022.189657122252
 20
1086.945146596495
 42
0.4142135623731
 10
-3023.689657122252
 20
1088.445146596495
 42
0.4142135623731
 10
-3025.189657122252
 20
1086.945146596495
 42
0.4142135623731
 10
-3023.689657122252
 20
1085.445146596495
 42
0.4142135623731
  0
LINE
  5
E6
330
1F
100
AcDbEntity
  8
0-B_寸法
  6
Continuous
 62
   120
370
     5
100
AcDbLine
 10
-3023.689657122252
 20
1086.945146596495
 30
0.0
 11
1320.310342877751
 21
1086.945146596495
 31
0.0
  0
LWPOLYLINE
  5
E7
330
1F
100
AcDbEntity
  8
0-B_寸法
  6
Continuous
 62
     7
370
     9
100
AcDbPolyline
 90
        4
 70
     1
 43
3.0
 10
1321.81034287775
 20
1266.945146596495
 42
0.4142135623731
 10
1320.310342877751
 20
1268.445146596495
 42
0.4142135623731
 10
1318.810342877751
 20
1266.945146596495
 42
0.4142135623731
 10
1320.310342877751
 20
1265.445146596495
 42
0.4142135623731
  0
LINE
  5
E8
330
1F
100
AcDbEntity
  8
0-B_寸法
  6
Continuous
 62
   120
370
     5
100
AcDbLine
 10
1140.310342877751
 20
1266.945146596495
 30
0.0
 11
1320.310342877751
 21
1266.945146596495
 31
0.0
  0
LINE
  5
E9
330
1F
100
AcDbEntity
  8
0-B_寸法
  6
Continuous
 62
   120
370
     5
100
AcDbLine
 10
1140.310342877751
 20
1266.945146596495
 30
0.0
 11
1140.310342877751
 21
1626.945146596495
 31
0.0
  0
LWPOLYLINE
  5
EA
330
1F
100
AcDbEntity
  8
0-B_寸法
  6
Continuous
 62
     7
370
     9
100
AcDbPolyline
 90
        4
 70
     1
 43
3.0
 10
1141.81034287775
 20
1266.945146596495
 42
0.4142135623731
 10
1140.310342877751
 20
1268.445146596495
 42
0.4142135623731
 10
1138.810342877751
 20
1266.945146596495
 42
0.4142135623731
 10
1140.310342877751
 20
1265.445146596495
 42
0.4142135623731
  0
LINE
  5
EB
330
1F
100
AcDbEntity
  8
0-B_寸法
  6
Continuous
 62
   120
370
     5
100
AcDbLine
 10
-2843.689657122252
 20
1266.945146596495
 30
0.0
 11
1140.310342877751
 21
1266.945146596495
 31
0.0
  0
LINE
  5
EC
330
1F
100
AcDbEntity
  8
0-B_寸法
  6
Continuous
 62
   120
370
     5
100
AcDbLine
 10
-2843.689657122252
 20
1266.945146596495
 30
0.0
 11
-2843.689657122252
 21
1626.945146596495
 31
0.0
  0
LWPOLYLINE
  5
ED
330
1F
100
AcDbEntity
  8
0-B_寸法
  6
Continuous
 62
     7
370
     9
100
AcDbPolyline
 90
        4
 70
     1
 43
3.0
 10
-2842.189657122252
 20
1266.945146596495
 42
0.4142135623731
 10
-2843.689657122252
 20
1268.445146596495
 42
0.4142135623731
 10
-2845.189657122252
 20
1266.945146596495
 42
0.4142135623731
 10
-2843.689657122252
 20
1265.445146596495
 42
0.4142135623731
  0
LWPOLYLINE
  5
EE
330
1F
100
AcDbEntity
  8
0-B_寸法
  6
Continuous
 62
     7
370
     9
100
AcDbPolyline
 90
        4
 70
     1
 43
3.0
 10
-3022.189657122252
 20
1266.945146596495
 42
0.4142135623731
 10
-3023.689657122252
 20
1268.445146596495
 42
0.4142135623731
 10
-3025.189657122252
 20
1266.945146596495
 42
0.4142135623731
 10
-3023.689657122252
 20
1265.445146596495
 42
0.4142135623731
  0
LINE
  5
EF
330
1F
100
AcDbEntity
  8
0-B_寸法
  6
Continuous
 62
   120
370
     5
100
AcDbLine
 10
-3023.689657122252
 20
1266.945146596495
 30
0.0
 11
-2843.689657122252
 21
1266.945146596495
 31
0.0
  0
LINE
  5
F0
330
1F
100
AcDbEntity
  8
0-B_寸法
  6
Continuous
 62
   120
370
     5
100
AcDbLine
 10
1155.310342877755
 20
1446.945146596495
 30
0.0
 11
1155.310342877755
 21
1626.945146596495
 31
0.0
  0
LWPOLYLINE
  5
F1
330
1F
100
AcDbEntity
  8
0-B_寸法
  6
Continuous
 62
     7
370
     9
100
AcDbPolyline
 90
        4
 70
     1
 43
3.0
 10
1156.810342877755
 20
1446.945146596495
 42
0.4142135623731
 10
1155.310342877755
 20
1448.445146596495
 42
0.4142135623731
 10
1153.810342877755
 20
1446.945146596495
 42
0.4142135623731
 10
1155.310342877755
 20
1445.445146596495
 42
0.4142135623731
  0
LINE
  5
F2
330
1F
100
AcDbEntity
  8
0-B_寸法
  6
Continuous
 62
   120
370
     5
100
AcDbLine
 10
-174.6896573222497
 20
1446.945146596495
 30
0.0
 11
1155.310342877755
 21
1446.945146596495
 31
0.0
  0
LINE
  5
F3
330
1F
100
AcDbEntity
  8
0-B_寸法
  6
Continuous
 62
   120
370
     5
100
AcDbLine
 10
-174.6896573222497
 20
1446.945146596495
 30
0.0
 11
-174.6896573222497
 21
1626.945146596495
 31
0.0
  0
LWPOLYLINE
  5
F4
330
1F
100
AcDbEntity
  8
0-B_寸法
  6
Continuous
 62
     7
370
     9
100
AcDbPolyline
 90
        4
 70
     1
 43
3.0
 10
-173.1896573222497
 20
1446.945146596495
 42
0.4142135623731
 10
-174.6896573222497
 20
1448.445146596495
 42
0.4142135623731
 10
-176.1896573222497
 20
1446.945146596495
 42
0.4142135623731
 10
-174.6896573222497
 20
1445.445146596495
 42
0.4142135623731
  0
LINE
  5
F5
330
1F
100
AcDbEntity
  8
0-B_寸法
  6
Continuous
 62
   120
370
     5
100
AcDbLine
 10
-186.6896573222508
 20
1446.945146596495
 30
0.0
 11
-174.6896573222497
 21
1446.945146596495
 31
0.0
  0
LINE
  5
F6
330
1F
100
AcDbEntity
  8
0-B_寸法
  6
Continuous
 62
   120
370
     5
100
AcDbLine
 10
-186.6896573222508
 20
1446.945146596495
 30
0.0
 11
-186.6896573222508
 21
1626.945146596495
 31
0.0
  0
LWPOLYLINE
  5
F7
330
1F
100
AcDbEntity
  8
0-B_寸法
  6
Continuous
 62
     7
370
     9
100
AcDbPolyline
 90
        4
 70
     1
 43
3.0
 10
-185.1896573222508
 20
1446.945146596495
 42
0.4142135623731
 10
-186.6896573222508
 20
1448.445146596495
 42
0.4142135623731
 10
-188.1896573222508
 20
1446.945146596495
 42
0.4142135623731
 10
-186.6896573222508
 20
1445.445146596495
 42
0.4142135623731
  0
LINE
  5
F8
330
1F
100
AcDbEntity
  8
0-B_寸法
  6
Continuous
 62
   120
370
     5
100
AcDbLine
 10
-1516.689656922249
 20
1446.945146596495
 30
0.0
 11
-186.6896573222508
 21
1446.945146596495
 31
0.0
  0
LINE
  5
F9
330
1F
100
AcDbEntity
  8
0-B_寸法
  6
Continuous
 62
   120
370
     5
100
AcDbLine
 10
-1516.689656922249
 20
1446.945146596495
 30
0.0
 11
-1516.689656922249
 21
1626.945146596495
 31
0.0
  0
LWPOLYLINE
  5
FA
330
1F
100
AcDbEntity
  8
0-B_寸法
  6
Continuous
 62
     7
370
     9
100
AcDbPolyline
 90
        4
 70
     1
 43
3.0
 10
-1515.189656922249
 20
1446.945146596495
 42
0.4142135623731
 10
-1516.689656922249
 20
1448.445146596495
 42
0.4142135623731
 10
-1518.189656922248
 20
1446.945146596495
 42
0.4142135623731
 10
-1516.689656922249
 20
1445.445146596495
 42
0.4142135623731
  0
LINE
  5
FB
330
1F
100
AcDbEntity
  8
0-B_寸法
  6
Continuous
 62
   120
370
     5
100
AcDbLine
 10
-1528.689656922249
 20
1446.945146596495
 30
0.0
 11
-1516.689656922249
 21
1446.945146596495
 31
0.0
  0
LINE
  5
FC
330
1F
100
AcDbEntity
  8
0-B_寸法
  6
Continuous
 62
   120
370
     5
100
AcDbLine
 10
-1528.689656922249
 20
1446.945146596495
 30
0.0
 11
-1528.689656922249
 21
1626.945146596495
 31
0.0
  0
LINE
  5
FD
330
1F
100
AcDbEntity
  8
0-B_寸法
  6
Continuous
 62
   120
370
     5
100
AcDbLine
 10
-2858.689657122254
 20
1446.945146596495
 30
0.0
 11
-2858.689657122254
 21
1626.945146596495
 31
0.0
  0
LWPOLYLINE
  5
FE
330
1F
100
AcDbEntity
  8
0-B_寸法
  6
Continuous
 62
     7
370
     9
100
AcDbPolyline
 90
        4
 70
     1
 43
3.0
 10
-1527.189656922249
 20
1446.945146596495
 42
0.4142135623731
 10
-1528.689656922249
 20
1448.445146596495
 42
0.4142135623731
 10
-1530.189656922249
 20
1446.945146596495
 42
0.4142135623731
 10
-1528.689656922249
 20
1445.445146596495
 42
0.4142135623731
  0
LWPOLYLINE
  5
FF
330
1F
100
AcDbEntity
  8
0-B_寸法
  6
Continuous
 62
     7
370
     9
100
AcDbPolyline
 90
        4
 70
     1
 43
3.0
 10
-2857.189657122254
 20
1446.945146596495
 42
0.4142135623731
 10
-2858.689657122254
 20
1448.445146596495
 42
0.4142135623731
 10
-2860.189657122254
 20
1446.945146596495
 42
0.4142135623731
 10
-2858.689657122254
 20
1445.445146596495
 42
0.4142135623731
  0
LINE
  5
100
330
1F
100
AcDbEntity
  8
0-B_寸法
  6
Continuous
 62
   120
370
     5
100
AcDbLine
 10
-2858.689657122254
 20
1446.945146596495
 30
0.0
 11
-1528.689656922249
 21
1446.945146596495
 31
0.0
  0
LINE
  5
101
330
1F
100
AcDbEntity
  8
0-B_寸法
  6
Continuous
 62
   120
370
     5
100
AcDbLine
 10
1155.310342877755
 20
1626.945146596495
 30
0.0
 11
1155.310342877755
 21
1806.945146596495
 31
0.0
  0
LINE
  5
102
330
1F
100
AcDbEntity
  8
0-B_寸法
  6
Continuous
 62
   120
370
     5
100
AcDbLine
 10
493.3103424777498
 20
1626.945146596495
 30
0.0
 11
493.3103424777498
 21
1806.945146596495
 31
0.0
  0
LWPOLYLINE
  5
103
330
1F
100
AcDbEntity
  8
0-B_寸法
  6
Continuous
 62
     7
370
     9
100
AcDbPolyline
 90
        4
 70
     1
 43
3.0
 10
1156.810342877755
 20
1626.945146596495
 42
0.4142135623731
 10
1155.310342877755
 20
1628.445146596495
 42
0.4142135623731
 10
1153.810342877755
 20
1626.945146596495
 42
0.4142135623731
 10
1155.310342877755
 20
1625.445146596495
 42
0.4142135623731
  0
LWPOLYLINE
  5
104
330
1F
100
AcDbEntity
  8
0-B_寸法
  6
Continuous
 62
     7
370
     9
100
AcDbPolyline
 90
        4
 70
     1
 43
3.0
 10
494.8103424777498
 20
1626.945146596495
 42
0.4142135623731
 10
493.3103424777498
 20
1628.445146596495
 42
0.4142135623731
 10
491.8103424777498
 20
1626.945146596495
 42
0.4142135623731
 10
493.3103424777498
 20
1625.445146596495
 42
0.4142135623731
  0
LINE
  5
105
330
1F
100
AcDbEntity
  8
0-B_寸法
  6
Continuous
 62
   120
370
     5
100
AcDbLine
 10
493.3103424777498
 20
1626.945146596495
 30
0.0
 11
1155.310342877755
 21
1626.945146596495
 31
0.0
  0
LINE
  5
106
330
1F
100
AcDbEntity
  8
0-B_寸法
  6
Continuous
 62
   120
370
     5
100
AcDbLine
 10
487.3103424777506
 20
1626.945146596495
 30
0.0
 11
487.3103424777506
 21
1806.945146596495
 31
0.0
  0
LINE
  5
107
330
1F
100
AcDbEntity
  8
0-B_寸法
  6
Continuous
 62
   120
370
     5
100
AcDbLine
 10
-174.6896573222497
 20
1626.945146596495
 30
0.0
 11
-174.6896573222497
 21
1806.945146596495
 31
0.0
  0
LWPOLYLINE
  5
108
330
1F
100
AcDbEntity
  8
0-B_寸法
  6
Continuous
 62
     7
370
     9
100
AcDbPolyline
 90
        4
 70
     1
 43
3.0
 10
488.8103424777506
 20
1626.945146596495
 42
0.4142135623731
 10
487.3103424777506
 20
1628.445146596495
 42
0.4142135623731
 10
485.8103424777506
 20
1626.945146596495
 42
0.4142135623731
 10
487.3103424777506
 20
1625.445146596495
 42
0.4142135623731
  0
LWPOLYLINE
  5
109
330
1F
100
AcDbEntity
  8
0-B_寸法
  6
Continuous
 62
     7
370
     9
100
AcDbPolyline
 90
        4
 70
     1
 43
3.0
 10
-173.1896573222497
 20
1626.945146596495
 42
0.4142135623731
 10
-174.6896573222497
 20
1628.445146596495
 42
0.4142135623731
 10
-176.1896573222497
 20
1626.945146596495
 42
0.4142135623731
 10
-174.6896573222497
 20
1625.445146596495
 42
0.4142135623731
  0
LINE
  5
10A
330
1F
100
AcDbEntity
  8
0-B_寸法
  6
Continuous
 62
   120
370
     5
100
AcDbLine
 10
-174.6896573222497
 20
1626.945146596495
 30
0.0
 11
487.3103424777506
 21
1626.945146596495
 31
0.0
  0
LINE
  5
10B
330
1F
100
AcDbEntity
  8
0-B_寸法
  6
Continuous
 62
   120
370
     5
100
AcDbLine
 10
-186.6896573222508
 20
1626.945146596495
 30
0.0
 11
-186.6896573222508
 21
1806.945146596495
 31
0.0
  0
LINE
  5
10C
330
1F
100
AcDbEntity
  8
0-B_寸法
  6
Continuous
 62
   120
370
     5
100
AcDbLine
 10
-848.6896571222468
 20
1626.945146596495
 30
0.0
 11
-848.6896571222468
 21
1806.945146596495
 31
0.0
  0
LWPOLYLINE
  5
10D
330
1F
100
AcDbEntity
  8
0-B_寸法
  6
Continuous
 62
     7
370
     9
100
AcDbPolyline
 90
        4
 70
     1
 43
3.0
 10
-185.1896573222508
 20
1626.945146596495
 42
0.4142135623731
 10
-186.6896573222508
 20
1628.445146596495
 42
0.4142135623731
 10
-188.1896573222508
 20
1626.945146596495
 42
0.4142135623731
 10
-186.6896573222508
 20
1625.445146596495
 42
0.4142135623731
  0
LWPOLYLINE
  5
10E
330
1F
100
AcDbEntity
  8
0-B_寸法
  6
Continuous
 62
     7
370
     9
100
AcDbPolyline
 90
        4
 70
     1
 43
3.0
 10
-847.1896571222468
 20
1626.945146596495
 42
0.4142135623731
 10
-848.6896571222468
 20
1628.445146596495
 42
0.4142135623731
 10
-850.1896571222468
 20
1626.945146596495
 42
0.4142135623731
 10
-848.6896571222468
 20
1625.445146596495
 42
0.4142135623731
  0
LINE
  5
10F
330
1F
100
AcDbEntity
  8
0-B_寸法
  6
Continuous
 62
   120
370
     5
100
AcDbLine
 10
-848.6896571222468
 20
1626.945146596495
 30
0.0
 11
-186.6896573222508
 21
1626.945146596495
 31
0.0
  0
LINE
  5
110
330
1F
100
AcDbEntity
  8
0-B_寸法
  6
Continuous
 62
   120
370
     5
100
AcDbLine
 10
-854.6896571222524
 20
1626.945146596495
 30
0.0
 11
-854.6896571222524
 21
1806.945146596495
 31
0.0
  0
LINE
  5
111
330
1F
100
AcDbEntity
  8
0-B_寸法
  6
Continuous
 62
   120
370
     5
100
AcDbLine
 10
-1516.689656922249
 20
1626.945146596495
 30
0.0
 11
-1516.689656922249
 21
1806.945146596495
 31
0.0
  0
LWPOLYLINE
  5
112
330
1F
100
AcDbEntity
  8
0-B_寸法
  6
Continuous
 62
     7
370
     9
100
AcDbPolyline
 90
        4
 70
     1
 43
3.0
 10
-853.1896571222524
 20
1626.945146596495
 42
0.4142135623731
 10
-854.6896571222524
 20
1628.445146596495
 42
0.4142135623731
 10
-856.1896571222525
 20
1626.945146596495
 42
0.4142135623731
 10
-854.6896571222524
 20
1625.445146596495
 42
0.4142135623731
  0
LWPOLYLINE
  5
113
330
1F
100
AcDbEntity
  8
0-B_寸法
  6
Continuous
 62
     7
370
     9
100
AcDbPolyline
 90
        4
 70
     1
 43
3.0
 10
-1515.189656922249
 20
1626.945146596495
 42
0.4142135623731
 10
-1516.689656922249
 20
1628.445146596495
 42
0.4142135623731
 10
-1518.189656922248
 20
1626.945146596495
 42
0.4142135623731
 10
-1516.689656922249
 20
1625.445146596495
 42
0.4142135623731
  0
LINE
  5
114
330
1F
100
AcDbEntity
  8
0-B_寸法
  6
Continuous
 62
   120
370
     5
100
AcDbLine
 10
-1516.689656922249
 20
1626.945146596495
 30
0.0
 11
-854.6896571222524
 21
1626.945146596495
 31
0.0
  0
LINE
  5
115
330
1F
100
AcDbEntity
  8
0-B_寸法
  6
Continuous
 62
   120
370
     5
100
AcDbLine
 10
-1528.689656922249
 20
1626.945146596495
 30
0.0
 11
-1528.689656922249
 21
1806.945146596495
 31
0.0
  0
LINE
  5
116
330
1F
100
AcDbEntity
  8
0-B_寸法
  6
Continuous
 62
   120
370
     5
100
AcDbLine
 10
-2190.68965672225
 20
1626.945146596495
 30
0.0
 11
-2190.68965672225
 21
1806.945146596495
 31
0.0
  0
LWPOLYLINE
  5
117
330
1F
100
AcDbEntity
  8
0-B_寸法
  6
Continuous
 62
     7
370
     9
100
AcDbPolyline
 90
        4
 70
     1
 43
3.0
 10
-1527.189656922249
 20
1626.945146596495
 42
0.4142135623731
 10
-1528.689656922249
 20
1628.445146596495
 42
0.4142135623731
 10
-1530.189656922249
 20
1626.945146596495
 42
0.4142135623731
 10
-1528.689656922249
 20
1625.445146596495
 42
0.4142135623731
  0
LWPOLYLINE
  5
118
330
1F
100
AcDbEntity
  8
0-B_寸法
  6
Continuous
 62
     7
370
     9
100
AcDbPolyline
 90
        4
 70
     1
 43
3.0
 10
-2189.18965672225
 20
1626.945146596495
 42
0.4142135623731
 10
-2190.68965672225
 20
1628.445146596495
 42
0.4142135623731
 10
-2192.18965672225
 20
1626.945146596495
 42
0.4142135623731
 10
-2190.68965672225
 20
1625.445146596495
 42
0.4142135623731
  0
LINE
  5
119
330
1F
100
AcDbEntity
  8
0-B_寸法
  6
Continuous
 62
   120
370
     5
100
AcDbLine
 10
-2190.68965672225
 20
1626.945146596495
 30
0.0
 11
-1528.689656922249
 21
1626.945146596495
 31
0.0
  0
LINE
  5
11A
330
1F
100
AcDbEntity
  8
0-B_寸法
  6
Continuous
 62
   120
370
     5
100
AcDbLine
 10
-2196.68965672225
 20
1626.945146596495
 30
0.0
 11
-2196.68965672225
 21
1806.945146596495
 31
0.0
  0
LINE
  5
11B
330
1F
100
AcDbEntity
  8
0-B_寸法
  6
Continuous
 62
   120
370
     5
100
AcDbLine
 10
-2858.689657122254
 20
1626.945146596495
 30
0.0
 11
-2858.689657122254
 21
1806.945146596495
 31
0.0
  0
LWPOLYLINE
  5
11C
330
1F
100
AcDbEntity
  8
0-B_寸法
  6
Continuous
 62
     7
370
     9
100
AcDbPolyline
 90
        4
 70
     1
 43
3.0
 10
-2195.18965672225
 20
1626.945146596495
 42
0.4142135623731
 10
-2196.68965672225
 20
1628.445146596495
 42
0.4142135623731
 10
-2198.18965672225
 20
1626.945146596495
 42
0.4142135623731
 10
-2196.68965672225
 20
1625.445146596495
 42
0.4142135623731
  0
LWPOLYLINE
  5
11D
330
1F
100
AcDbEntity
  8
0-B_寸法
  6
Continuous
 62
     7
370
     9
100
AcDbPolyline
 90
        4
 70
     1
 43
3.0
 10
-2857.189657122254
 20
1626.945146596495
 42
0.4142135623731
 10
-2858.689657122254
 20
1628.445146596495
 42
0.4142135623731
 10
-2860.189657122254
 20
1626.945146596495
 42
0.4142135623731
 10
-2858.689657122254
 20
1625.445146596495
 42
0.4142135623731
  0
LINE
  5
11E
330
1F
100
AcDbEntity
  8
0-B_寸法
  6
Continuous
 62
   120
370
     5
100
AcDbLine
 10
-2858.689657122254
 20
1626.945146596495
 30
0.0
 11
-2196.68965672225
 21
1626.945146596495
 31
0.0
  0
MTEXT
  5
11F
330
1F
100
AcDbEntity
  8
0-B_寸法
  6
Continuous
 62
     7
370
   211
100
AcDbMText
 10
-1405.791242829726
 20
2962.665146596497
 30
0.0
 40
91.44000000000027
 41
1140.000000000003
 46
0.0
 71
     7
 72
     1
  1
{\fＭＳ ゴシック|b0|i0|c128|p49;有効開口寸法＝2,134}
 73
     1
 44
1.0
  0
LINE
  5
120
330
1F
100
AcDbEntity
  8
0-0_補助線
  6
JWW_HOJO
 62
   120
370
     5
100
AcDbLine
 10
1920.310144925897
 20
1806.945146596495
 30
0.0
 11
-3623.689459170392
 21
1806.945146596495
 31
0.0
  0
LINE
  5
121
330
1F
100
AcDbEntity
  8
0-0_補助線
  6
JWW_HOJO
 62
   120
370
     5
100
AcDbLine
 10
1920.310144925897
 20
1626.945146596495
 30
0.0
 11
-3623.689459170392
 21
1626.945146596495
 31
0.0
  0
LINE
  5
122
330
1F
100
AcDbEntity
  8
0-0_補助線
  6
JWW_HOJO
 62
   120
370
     5
100
AcDbLine
 10
1920.310144925897
 20
1086.945146596495
 30
0.0
 11
-3623.689459170392
 21
1086.945146596495
 31
0.0
  0
LINE
  5
123
330
1F
100
AcDbEntity
  8
0-0_補助線
  6
JWW_HOJO
 62
   120
370
     5
100
AcDbLine
 10
1920.310144925897
 20
1266.945146596495
 30
0.0
 11
-3623.689459170392
 21
1266.945146596495
 31
0.0
  0
LINE
  5
124
330
1F
100
AcDbEntity
  8
0-0_補助線
  6
JWW_HOJO
 62
   120
370
     5
100
AcDbLine
 10
1920.310144925897
 20
1446.945146596495
 30
0.0
 11
-3623.689459170392
 21
1446.945146596495
 31
0.0
  0
MTEXT
  5
125
330
1F
100
AcDbEntity
  8
0-B_寸法
  6
Continuous
 62
     7
370
   211
100
AcDbMText
 10
-1241.689657122251
 20
3142.665146596497
 30
0.0
 40
91.4400000000003
 41
780.0000000000025
 46
0.0
 71
     7
 72
     1
  1
{\fＭＳ ゴシック|b0|i0|c128|p49;ＲＯＷ＝2,568}
 73
     1
 44
1.0
  0
LINE
  5
126
330
1F
100
AcDbEntity
  8
0-C_ハッチ
  6
Continuous
 62
   120
370
     5
100
AcDbLine
 10
1140.310342877759
 20
2536.493705726609
 30
0.0
 11
1196.762857636462
 21
2592.946220485313
 31
0.0
  0
LINE
  5
127
330
1F
100
AcDbEntity
  8
0-C_ハッチ
  6
Continuous
 62
   120
370
     5
100
AcDbLine
 10
1149.782790981054
 20
2486.569184210202
 30
0.0
 11
1256.159827256164
 21
2592.946220485313
 31
0.0
  0
LINE
  5
128
330
1F
100
AcDbEntity
  8
0-C_ハッチ
  6
Continuous
 62
   120
370
     5
100
AcDbLine
 10
1165.429653315433
 20
2442.819076924934
 30
0.0
 11
1315.556796875824
 21
2592.946220485325
 31
0.0
  0
LINE
  5
129
330
1F
100
AcDbEntity
  8
0-C_ハッチ
  6
Continuous
 62
   120
370
     5
100
AcDbLine
 10
1174.755997185712
 20
2392.748451175566
 30
0.0
 11
1320.310342877754
 21
2538.302796867609
 31
0.0
  0
LINE
  5
12A
330
1F
100
AcDbEntity
  8
0-C_ハッチ
  6
Continuous
 62
   120
370
     5
100
AcDbLine
 10
1174.993684255938
 20
2333.58916862609
 30
0.0
 11
1320.310342877754
 21
2478.905827247906
 31
0.0
  0
LINE
  5
12B
330
1F
100
AcDbEntity
  8
0-C_ハッチ
  6
Continuous
 62
   120
370
     5
100
AcDbLine
 10
1157.723003508473
 20
2256.921518258977
 30
0.0
 11
1320.310342877759
 21
2419.508857628263
 31
0.0
  0
LINE
  5
12C
330
1F
100
AcDbEntity
  8
0-C_ハッチ
  6
Continuous
 62
   120
370
     5
100
AcDbLine
 10
1140.31034287776
 20
2180.111888008563
 30
0.0
 11
1320.310342877757
 21
2360.111888008561
 31
0.0
  0
LINE
  5
12D
330
1F
100
AcDbEntity
  8
0-C_ハッチ
  6
Continuous
 62
   120
370
     5
100
AcDbLine
 10
1210.541644974168
 20
2190.946220485323
 30
0.0
 11
1320.310342877757
 21
2300.714918388913
 31
0.0
  0
LINE
  5
12E
330
1F
100
AcDbEntity
  8
0-C_ハッチ
  6
Continuous
 62
   120
370
     5
100
AcDbLine
 10
1150.541644974167
 20
2130.946220485323
 30
0.0
 11
1200.310342877754
 21
2180.71491838891
 31
0.0
  0
LINE
  5
12F
330
1F
100
AcDbEntity
  8
0-C_ハッチ
  6
Continuous
 62
   120
370
     5
100
AcDbLine
 10
1254.310342877735
 20
2175.317948769244
 30
0.0
 11
1320.310342877751
 21
2241.317948769259
 31
0.0
  0
LINE
  5
130
330
1F
100
AcDbEntity
  8
0-C_ハッチ
  6
Continuous
 62
   120
370
     5
100
AcDbLine
 10
1311.335584213506
 20
2172.946220485313
 30
0.0
 11
1320.310342877767
 21
2181.920979149572
 31
0.0
  0
LINE
  5
131
330
1F
100
AcDbEntity
  8
0-C_ハッチ
  6
Continuous
 62
   120
370
     5
100
AcDbLine
 10
1269.33558421352
 20
2130.946220485327
 30
0.0
 11
1290.310342877754
 21
2151.920979149561
 31
0.0
  0
LINE
  5
132
330
1F
100
AcDbEntity
  8
0-4_枠
  6
Continuous
 62
    92
370
    13
100
AcDbLine
 10
1320.310342877751
 20
2592.946220485325
 30
0.0
 11
1140.31034287775
 21
2592.946220485325
 31
0.0
  0
LINE
  5
133
330
1F
100
AcDbEntity
  8
0-4_枠
  6
Continuous
 62
    92
370
    13
100
AcDbLine
 10
1140.31034287775
 20
2505.945146596496
 30
0.0
 11
1140.31034287775
 21
2592.946220485325
 31
0.0
  0
LINE
  5
134
330
1F
100
AcDbEntity
  8
0-4_枠
  6
Continuous
 62
    92
370
    13
100
AcDbLine
 10
1320.310342877751
 20
2172.946220485326
 30
0.0
 11
1320.310342877751
 21
2592.946220485325
 31
0.0
  0
LINE
  5
135
330
1F
100
AcDbEntity
  8
0-4_枠
  6
Continuous
 62
    92
370
    13
100
AcDbLine
 10
1140.31034287775
 20
2130.946220485326
 30
0.0
 11
1140.31034287775
 21
2217.945146596497
 31
0.0
  0
LINE
  5
136
330
1F
100
AcDbEntity
  8
0-4_枠
  6
Continuous
 62
    92
370
    13
100
AcDbLine
 10
1184.898299910628
 20
2130.946220485326
 30
0.0
 11
1140.31034287775
 21
2130.946220485326
 31
0.0
  0
LINE
  5
137
330
1F
100
AcDbEntity
  8
0-4_枠
  6
Continuous
 62
    92
370
    13
100
AcDbLine
 10
1200.31034287775
 20
2130.946220485326
 30
0.0
 11
1184.898299910628
 21
2130.946220485326
 31
0.0
  0
LINE
  5
138
330
1F
100
AcDbEntity
  8
0-4_枠
  6
Continuous
 62
    92
370
    13
100
AcDbLine
 10
1200.31034287775
 20
2130.946220485326
 30
0.0
 11
1200.31034287775
 21
2190.946220485326
 31
0.0
  0
LINE
  5
139
330
1F
100
AcDbEntity
  8
0-4_枠
  6
Continuous
 62
    92
370
    13
100
AcDbLine
 10
1290.310342877751
 20
2130.946220485326
 30
0.0
 11
1254.310342877752
 21
2130.946220485326
 31
0.0
  0
LINE
  5
13A
330
1F
100
AcDbEntity
  8
0-4_枠
  6
Continuous
 62
    92
370
    13
100
AcDbLine
 10
1254.310342877752
 20
2130.946220485326
 30
0.0
 11
1254.310342877752
 21
2190.946220485326
 31
0.0
  0
LINE
  5
13B
330
1F
100
AcDbEntity
  8
0-4_枠
  6
Continuous
 62
    92
370
    13
100
AcDbLine
 10
1290.310342877751
 20
2130.946220485326
 30
0.0
 11
1290.310342877751
 21
2172.946220485326
 31
0.0
  0
LINE
  5
13C
330
1F
100
AcDbEntity
  8
0-4_枠
  6
Continuous
 62
    92
370
    13
100
AcDbLine
 10
1320.310342877751
 20
2172.946220485326
 30
0.0
 11
1290.310342877751
 21
2172.946220485326
 31
0.0
  0
LINE
  5
13D
330
1F
100
AcDbEntity
  8
0-4_枠
  6
Continuous
 62
    92
370
    13
100
AcDbLine
 10
1254.310342877752
 20
2190.946220485326
 30
0.0
 11
1200.31034287775
 21
2190.946220485326
 31
0.0
  0
ARC
  5
13E
330
1F
100
AcDbEntity
  8
0-4_枠
  6
Continuous
 62
    92
370
    13
100
AcDbCircle
 10
870.3103428777484
 20
2361.945146596497
 30
0.0
 40
306.0000000000022
100
AcDbArc
 50
331.9275130641473
 51
28.07248693585271
  0
LINE
  5
13F
330
1F
100
AcDbEntity
  8
0-C_ハッチ
  6
Continuous
 62
   120
370
     5
100
AcDbLine
 10
-2864.229422691414
 20
2130.946220485326
 30
0.0
 11
-2843.689657122258
 21
2151.485986054482
 31
0.0
  0
LINE
  5
140
330
1F
100
AcDbEntity
  8
0-C_ハッチ
  6
Continuous
 62
   120
370
     5
100
AcDbLine
 10
-2903.689657122251
 20
2150.882955674135
 30
0.0
 11
-2843.689657122254
 21
2210.882955674133
 31
0.0
  0
LINE
  5
141
330
1F
100
AcDbEntity
  8
0-C_ハッチ
  6
Continuous
 62
   120
370
     5
100
AcDbLine
 10
-2983.023361930763
 20
2130.946220485326
 30
0.0
 11
-2957.689657122251
 21
2156.279925293838
 31
0.0
  0
LINE
  5
142
330
1F
100
AcDbEntity
  8
0-C_ハッチ
  6
Continuous
 62
   120
370
     5
100
AcDbLine
 10
-2923.023361930763
 20
2190.946220485326
 30
0.0
 11
-2860.004647716127
 21
2253.964934699962
 31
0.0
  0
LINE
  5
143
330
1F
100
AcDbEntity
  8
0-C_ハッチ
  6
Continuous
 62
   120
370
     5
100
AcDbLine
 10
-3000.420331550409
 20
2172.946220485326
 30
0.0
 11
-2873.356261258618
 21
2300.010290777118
 31
0.0
  0
LINE
  5
144
330
1F
100
AcDbEntity
  8
0-4_枠
  6
Continuous
 62
    92
370
    13
100
AcDbLine
 10
-3023.689657122251
 20
2592.946220485325
 30
0.0
 11
-2843.689657122251
 21
2592.946220485325
 31
0.0
  0
LINE
  5
145
330
1F
100
AcDbEntity
  8
0-4_枠
  6
Continuous
 62
    92
370
    13
100
AcDbLine
 10
-2843.689657122251
 20
2505.945146596496
 30
0.0
 11
-2843.689657122251
 21
2592.946220485325
 31
0.0
  0
LINE
  5
146
330
1F
100
AcDbEntity
  8
0-C_ハッチ
  6
Continuous
 62
   120
370
     5
100
AcDbLine
 10
-3023.689657122249
 20
2506.058712631534
 30
0.0
 11
-2936.802149268459
 21
2592.946220485325
 31
0.0
  0
LINE
  5
147
330
1F
100
AcDbEntity
  8
0-C_ハッチ
  6
Continuous
 62
   120
370
     5
100
AcDbLine
 10
-3023.689657122261
 20
2446.66174301182
 30
0.0
 11
-2877.405179648755
 21
2592.946220485325
 31
0.0
  0
LINE
  5
148
330
1F
100
AcDbEntity
  8
0-C_ハッチ
  6
Continuous
 62
   120
370
     5
100
AcDbLine
 10
-3023.689657122266
 20
2565.455682251164
 30
0.0
 11
-2996.199118888104
 21
2592.946220485325
 31
0.0
  0
LINE
  5
149
330
1F
100
AcDbEntity
  8
0-4_枠
  6
Continuous
 62
    92
370
    13
100
AcDbLine
 10
-3023.689657122251
 20
2172.946220485326
 30
0.0
 11
-3023.689657122251
 21
2592.946220485325
 31
0.0
  0
LINE
  5
14A
330
1F
100
AcDbEntity
  8
0-4_枠
  6
Continuous
 62
    92
370
    13
100
AcDbLine
 10
-2843.689657122251
 20
2130.946220485326
 30
0.0
 11
-2843.689657122251
 21
2217.945146596497
 31
0.0
  0
LINE
  5
14B
330
1F
100
AcDbEntity
  8
0-4_枠
  6
Continuous
 62
    92
370
    13
100
AcDbLine
 10
-2888.277614155128
 20
2130.946220485326
 30
0.0
 11
-2843.689657122251
 21
2130.946220485326
 31
0.0
  0
LINE
  5
14C
330
1F
100
AcDbEntity
  8
0-4_枠
  6
Continuous
 62
    92
370
    13
100
AcDbLine
 10
-2903.689657122251
 20
2130.946220485326
 30
0.0
 11
-2888.277614155128
 21
2130.946220485326
 31
0.0
  0
LINE
  5
14D
330
1F
100
AcDbEntity
  8
0-4_枠
  6
Continuous
 62
    92
370
    13
100
AcDbLine
 10
-2903.689657122251
 20
2130.946220485326
 30
0.0
 11
-2903.689657122251
 21
2190.946220485326
 31
0.0
  0
LINE
  5
14E
330
1F
100
AcDbEntity
  8
0-4_枠
  6
Continuous
 62
    92
370
    13
100
AcDbLine
 10
-2993.689657122251
 20
2130.946220485326
 30
0.0
 11
-2957.689657122251
 21
2130.946220485326
 31
0.0
  0
LINE
  5
14F
330
1F
100
AcDbEntity
  8
0-4_枠
  6
Continuous
 62
    92
370
    13
100
AcDbLine
 10
-2957.689657122251
 20
2130.946220485326
 30
0.0
 11
-2957.689657122251
 21
2190.946220485326
 31
0.0
  0
LINE
  5
150
330
1F
100
AcDbEntity
  8
0-4_枠
  6
Continuous
 62
    92
370
    13
100
AcDbLine
 10
-2993.689657122251
 20
2130.946220485326
 30
0.0
 11
-2993.689657122251
 21
2172.946220485326
 31
0.0
  0
LINE
  5
151
330
1F
100
AcDbEntity
  8
0-4_枠
  6
Continuous
 62
    92
370
    13
100
AcDbLine
 10
-3023.689657122251
 20
2172.946220485326
 30
0.0
 11
-2993.689657122251
 21
2172.946220485326
 31
0.0
  0
LINE
  5
152
330
1F
100
AcDbEntity
  8
0-4_枠
  6
Continuous
 62
    92
370
    13
100
AcDbLine
 10
-2957.689657122251
 20
2190.946220485326
 30
0.0
 11
-2903.689657122251
 21
2190.946220485326
 31
0.0
  0
ARC
  5
153
330
1F
100
AcDbEntity
  8
0-4_枠
  6
Continuous
 62
    92
370
    13
100
AcDbCircle
 10
-2573.689657122249
 20
2361.945146596497
 30
0.0
 40
306.0000000000022
100
AcDbArc
 50
151.9275130641473
 51
208.0724869358527
  0
LINE
  5
154
330
1F
100
AcDbEntity
  8
0-C_ハッチ
  6
Continuous
 62
   120
370
     5
100
AcDbLine
 10
-3023.689657122245
 20
2209.073864533192
 30
0.0
 11
-2879.564636343425
 21
2353.198885312013
 31
0.0
  0
LINE
  5
155
330
1F
100
AcDbEntity
  8
0-C_ハッチ
  6
Continuous
 62
   120
370
     5
100
AcDbLine
 10
-3023.689657122251
 20
2268.470834152834
 30
0.0
 11
-2874.591640363005
 21
2417.568850912081
 31
0.0
  0
LINE
  5
156
330
1F
100
AcDbEntity
  8
0-C_ハッチ
  6
Continuous
 62
   120
370
     5
100
AcDbLine
 10
-3023.689657122254
 20
2327.867803772477
 30
0.0
 11
-2843.689657122265
 21
2507.867803772468
 31
0.0
  0
LINE
  5
157
330
1F
100
AcDbEntity
  8
0-C_ハッチ
  6
Continuous
 62
   120
370
     5
100
AcDbLine
 10
-3023.689657122247
 20
2387.264773392187
 30
0.0
 11
-2843.689657122251
 21
2567.264773392184
 31
0.0
  0
LINE
  5
158
330
1F
100
AcDbEntity
  8
0-B_寸法
  6
Continuous
 62
   120
370
     5
100
AcDbLine
 10
-2111.689657122249
 20
2961.945146596497
 30
0.0
 11
408.3103428777508
 21
2961.945146596497
 31
0.0
  0
LINE
  5
159
330
1F
100
AcDbEntity
  8
0-B_寸法
  6
Continuous
 62
   120
370
     5
100
AcDbLine
 10
-2111.689657122249
 20
2961.945146596497
 30
0.0
 11
-2111.689657122249
 21
2781.945146596497
 31
0.0
  0
LWPOLYLINE
  5
15A
330
1F
100
AcDbEntity
  8
0-B_寸法
  6
Continuous
 62
     7
370
     9
100
AcDbPolyline
 90
        4
 70
     1
 43
3.0
 10
-2110.189657122249
 20
2961.945146596497
 42
0.4142135623731
 10
-2111.689657122249
 20
2963.445146596497
 42
0.4142135623731
 10
-2113.189657122249
 20
2961.945146596497
 42
0.4142135623731
 10
-2111.689657122249
 20
2960.445146596497
 42
0.4142135623731
  0
LINE
  5
15B
330
1F
100
AcDbEntity
  8
0-1_通り芯
  6
JWW_CENTER1
 62
   120
370
     5
100
AcDbLine
 10
-2111.689657122249
 20
2781.945146596497
 30
0.0
 11
-2111.689657122249
 21
2549.528317855521
 31
0.0
  0
LINE
  5
15C
330
1F
100
AcDbEntity
  8
0-6_扉
  6
JWW_DASHED2
 62
    40
370
    15
100
AcDbLine
 10
-2544.658054428491
 20
2559.076554351871
 30
0.0
 11
-2510.296889949042
 21
2106.945146596497
 31
0.0
  0
LINE
  5
15D
330
1F
100
AcDbEntity
  8
0-6_扉
  6
JWW_DASHED2
 62
    40
370
    15
100
AcDbLine
 10
-2237.327355206104
 20
2559.076554351874
 30
0.0
 11
-2271.688519685544
 21
2106.945146596497
 31
0.0
  0
LINE
  5
15E
330
1F
100
AcDbEntity
  8
0-6_扉
  6
JWW_DASHED2
 62
    40
370
    15
100
AcDbLine
 10
-2111.689657122251
 20
2549.528317855521
 30
0.0
 11
-2145.325172997963
 21
2106.945146596497
 31
0.0
  0
LINE
  5
15F
330
1F
100
AcDbEntity
  8
0-6_扉
  6
JWW_DASHED2
 62
    40
370
    15
100
AcDbLine
 10
-2670.295752512344
 20
2549.528317855516
 30
0.0
 11
-2636.660236636625
 21
2106.945146596497
 31
0.0
  0
ARC
  5
160
330
1F
100
AcDbEntity
  8
0-6_扉
  6
JWW_DASHED2
 62
    40
370
    15
100
AcDbCircle
 10
-2129.637899705657
 20
2550.892351640712
 30
0.0
 40
18.0
100
AcDbArc
 50
355.653979278361
 51
85.65397927836094
  0
LINE
  5
161
330
1F
100
AcDbEntity
  8
0-6_扉
  6
JWW_DASHED2
 62
    40
370
    15
100
AcDbLine
 10
-2128.273865920464
 20
2568.840594224121
 30
0.0
 11
-2218.015078837502
 21
2575.660763150088
 31
0.0
  0
ARC
  5
162
330
1F
100
AcDbEntity
  8
0-6_扉
  6
JWW_DASHED2
 62
    40
370
    15
100
AcDbCircle
 10
-2219.379112622696
 20
2557.712520566679
 30
0.0
 40
18.0
100
AcDbArc
 50
85.65397927836092
 51
175.653979278361
  0
ARC
  5
163
330
1F
100
AcDbEntity
  8
0-6_扉
  6
JWW_DASHED2
 62
    40
370
    15
100
AcDbCircle
 10
-2652.347509928938
 20
2550.892351640707
 30
0.0
 40
18.0
100
AcDbArc
 50
94.3460207216403
 51
184.3460207216401
  0
LINE
  5
164
330
1F
100
AcDbEntity
  8
0-6_扉
  6
JWW_DASHED2
 62
    40
370
    15
100
AcDbLine
 10
-2653.711543714131
 20
2568.840594224116
 30
0.0
 11
-2563.970330797093
 21
2575.660763150085
 31
0.0
  0
ARC
  5
165
330
1F
100
AcDbEntity
  8
0-6_扉
  6
JWW_DASHED2
 62
    40
370
    15
100
AcDbCircle
 10
-2562.606297011898
 20
2557.712520566676
 30
0.0
 40
18.0
100
AcDbArc
 50
4.346020721640005
 51
94.34602072164022
  0
LINE
  5
166
330
1F
100
AcDbEntity
  8
0-B_寸法
  6
Continuous
 62
   120
370
     5
100
AcDbLine
 10
408.3103428777508
 20
2961.945146596497
 30
0.0
 11
408.3103428777508
 21
2781.945146596497
 31
0.0
  0
LWPOLYLINE
  5
167
330
1F
100
AcDbEntity
  8
0-B_寸法
  6
Continuous
 62
     7
370
     9
100
AcDbPolyline
 90
        4
 70
     1
 43
3.0
 10
409.8103428777508
 20
2961.945146596497
 42
0.4142135623731
 10
408.3103428777508
 20
2963.445146596497
 42
0.4142135623731
 10
406.8103428777508
 20
2961.945146596497
 42
0.4142135623731
 10
408.3103428777508
 20
2960.445146596497
 42
0.4142135623731
  0
LINE
  5
168
330
1F
100
AcDbEntity
  8
0-1_通り芯
  6
JWW_CENTER1
 62
   120
370
     5
100
AcDbLine
 10
408.3103428777508
 20
2781.945146596497
 30
0.0
 11
408.3103428777508
 21
2549.528317855521
 31
0.0
  0
LINE
  5
169
330
1F
100
AcDbEntity
  8
0-6_扉
  6
JWW_DASHED2
 62
    40
370
    15
100
AcDbLine
 10
841.2787401839923
 20
2559.076554351871
 30
0.0
 11
806.9175757045434
 21
2106.945146596497
 31
0.0
  0
LINE
  5
16A
330
1F
100
AcDbEntity
  8
0-6_扉
  6
JWW_DASHED2
 62
    40
370
    15
100
AcDbLine
 10
533.948040961605
 20
2559.076554351874
 30
0.0
 11
568.3092054410454
 21
2106.945146596497
 31
0.0
  0
LINE
  5
16B
330
1F
100
AcDbEntity
  8
0-6_扉
  6
JWW_DASHED2
 62
    40
370
    15
100
AcDbLine
 10
408.3103428777521
 20
2549.528317855521
 30
0.0
 11
441.9458587534638
 21
2106.945146596497
 31
0.0
  0
LINE
  5
16C
330
1F
100
AcDbEntity
  8
0-6_扉
  6
JWW_DASHED2
 62
    40
370
    15
100
AcDbLine
 10
966.9164382678457
 20
2549.528317855516
 30
0.0
 11
933.2809223921267
 21
2106.945146596497
 31
0.0
  0
ARC
  5
16D
330
1F
100
AcDbEntity
  8
0-6_扉
  6
JWW_DASHED2
 62
    40
370
    15
100
AcDbCircle
 10
426.2585854611581
 20
2550.892351640712
 30
0.0
 40
18.0
100
AcDbArc
 50
94.34602072163908
 51
184.3460207216391
  0
LINE
  5
16E
330
1F
100
AcDbEntity
  8
0-6_扉
  6
JWW_DASHED2
 62
    40
370
    15
100
AcDbLine
 10
424.8945516759649
 20
2568.840594224121
 30
0.0
 11
514.6357645930028
 21
2575.660763150088
 31
0.0
  0
ARC
  5
16F
330
1F
100
AcDbEntity
  8
0-6_扉
  6
JWW_DASHED2
 62
    40
370
    15
100
AcDbCircle
 10
515.9997983781977
 20
2557.712520566679
 30
0.0
 40
18.0
100
AcDbArc
 50
4.346020721638975
 51
94.34602072163908
  0
ARC
  5
170
330
1F
100
AcDbEntity
  8
0-6_扉
  6
JWW_DASHED2
 62
    40
370
    15
100
AcDbCircle
 10
948.9681956844385
 20
2550.892351640707
 30
0.0
 40
18.0
100
AcDbArc
 50
355.6539792783599
 51
85.6539792783597
  0
LINE
  5
171
330
1F
100
AcDbEntity
  8
0-6_扉
  6
JWW_DASHED2
 62
    40
370
    15
100
AcDbLine
 10
950.3322294696329
 20
2568.840594224116
 30
0.0
 11
860.5910165525933
 21
2575.660763150085
 31
0.0
  0
ARC
  5
172
330
1F
100
AcDbEntity
  8
0-6_扉
  6
JWW_DASHED2
 62
    40
370
    15
100
AcDbCircle
 10
859.2269827673988
 20
2557.712520566676
 30
0.0
 40
18.0
100
AcDbArc
 50
85.6539792783598
 51
175.65397927836
  0
LINE
  5
173
330
1F
100
AcDbEntity
  8
0-B_寸法
  6
Continuous
 62
   120
370
     5
100
AcDbLine
 10
1350.310342877751
 20
3141.945146596497
 30
0.0
 11
1350.310342877751
 21
2781.945146596497
 31
0.0
  0
LINE
  5
174
330
1F
100
AcDbEntity
  8
0-B_寸法
  6
Continuous
 62
   120
370
     5
100
AcDbLine
 10
-3053.689657122252
 20
3141.945146596497
 30
0.0
 11
-3053.689657122252
 21
2781.945146596497
 31
0.0
  0
LWPOLYLINE
  5
175
330
1F
100
AcDbEntity
  8
0-B_寸法
  6
Continuous
 62
     7
370
     9
100
AcDbPolyline
 90
        4
 70
     1
 43
3.0
 10
1351.81034287775
 20
3141.945146596497
 42
0.4142135623731
 10
1350.310342877751
 20
3143.445146596497
 42
0.4142135623731
 10
1348.810342877751
 20
3141.945146596497
 42
0.4142135623731
 10
1350.310342877751
 20
3140.445146596497
 42
0.4142135623731
  0
LWPOLYLINE
  5
176
330
1F
100
AcDbEntity
  8
0-B_寸法
  6
Continuous
 62
     7
370
     9
100
AcDbPolyline
 90
        4
 70
     1
 43
3.0
 10
-3052.189657122252
 20
3141.945146596497
 42
0.4142135623731
 10
-3053.689657122252
 20
3143.445146596497
 42
0.4142135623731
 10
-3055.189657122252
 20
3141.945146596497
 42
0.4142135623731
 10
-3053.689657122252
 20
3140.445146596497
 42
0.4142135623731
  0
LINE
  5
177
330
1F
100
AcDbEntity
  8
0-B_寸法
  6
Continuous
 62
   120
370
     5
100
AcDbLine
 10
-3053.689657122252
 20
3141.945146596497
 30
0.0
 11
1350.310342877751
 21
3141.945146596497
 31
0.0
  0
MTEXT
  5
178
330
1F
100
AcDbEntity
  8
0-3_仕上げ
  6
Continuous
 62
     7
370
   211
100
AcDbMText
 10
-2551.143128166339
 20
2277.33109541915
 30
0.0
 40
91.44
 41
120.0
 46
0.0
 71
     7
 72
     1
  1
{\fＭＳ ゴシック|b0|i0|c128|p49;77}
 11
6.123031769111886E-17
 21
1.0
 31
0.0
 73
     1
 44
1.0
  0
MTEXT
  5
179
330
1F
100
AcDbEntity
  8
0-0_補助線
  6
Continuous
 62
     7
370
   211
100
AcDbMText
 10
-2833.3032022099
 20
2325.079196304036
 30
0.0
 40
91.43999999999912
 41
179.9999999999983
 46
0.0
 71
     7
 72
     1
  1
{\fＭＳ ゴシック|b0|i0|c128|p49;2.5}
 73
     1
 44
1.0
  0
LINE
  5
17A
330
1F
100
AcDbEntity
  8
0-7_金物
  6
Continuous
 62
     7
370
     9
100
AcDbLine
 10
-3053.689657122252
 20
2271.945220828443
 30
0.0
 11
-3053.689657122252
 21
2451.94507236455
 31
0.0
  0
LINE
  5
17B
330
1F
100
AcDbEntity
  8
0-7_金物
  6
Continuous
 62
     7
370
     9
100
AcDbLine
 10
-3029.689726405402
 20
2307.945488063451
 30
0.0
 11
-3023.689657122252
 21
2307.945488063451
 31
0.0
  0
LINE
  5
17C
330
1F
100
AcDbEntity
  8
0-7_金物
  6
Continuous
 62
     7
370
     9
100
AcDbLine
 10
-3029.689726405402
 20
2415.94554744901
 30
0.0
 11
-3023.689657122252
 21
2415.94554744901
 31
0.0
  0
LINE
  5
17D
330
1F
100
AcDbEntity
  8
0-7_金物
  6
Continuous
 62
     7
370
     9
100
AcDbLine
 10
-3029.689726405402
 20
2301.945319804373
 30
0.0
 11
-3029.689726405402
 21
2421.94497338862
 31
0.0
  0
LINE
  5
17E
330
1F
100
AcDbEntity
  8
0-7_金物
  6
Continuous
 62
     7
370
     9
100
AcDbLine
 10
-3041.689320604092
 20
2421.94497338862
 30
0.0
 11
-3029.689726405402
 21
2421.94497338862
 31
0.0
  0
LINE
  5
17F
330
1F
100
AcDbEntity
  8
0-7_金物
  6
Continuous
 62
     7
370
     9
100
AcDbLine
 10
-3041.689320604092
 20
2301.945319804373
 30
0.0
 11
-3029.689726405402
 21
2301.945319804373
 31
0.0
  0
LINE
  5
180
330
1F
100
AcDbEntity
  8
0-7_金物
  6
Continuous
 62
     7
370
     9
100
AcDbLine
 10
-3053.689657122252
 20
2271.945220828443
 30
0.0
 11
-3041.689320604092
 21
2271.945220828443
 31
0.0
  0
LINE
  5
181
330
1F
100
AcDbEntity
  8
0-7_金物
  6
Continuous
 62
     7
370
     9
100
AcDbLine
 10
-3053.689657122252
 20
2451.94507236455
 30
0.0
 11
-3041.689320604092
 21
2451.94507236455
 31
0.0
  0
LINE
  5
182
330
1F
100
AcDbEntity
  8
0-7_金物
  6
Continuous
 62
     7
370
     9
100
AcDbLine
 10
-3041.689320604092
 20
2271.945220828443
 30
0.0
 11
-3041.689320604092
 21
2451.94507236455
 31
0.0
  0
LINE
  5
183
330
1F
100
AcDbEntity
  8
0-7_金物
  6
Continuous
 62
     7
370
     9
100
AcDbLine
 10
1350.310342877751
 20
2271.945220828443
 30
0.0
 11
1350.310342877751
 21
2451.94507236455
 31
0.0
  0
LINE
  5
184
330
1F
100
AcDbEntity
  8
0-7_金物
  6
Continuous
 62
     7
370
     9
100
AcDbLine
 10
1326.310412160901
 20
2307.945488063451
 30
0.0
 11
1320.310342877751
 21
2307.945488063451
 31
0.0
  0
LINE
  5
185
330
1F
100
AcDbEntity
  8
0-7_金物
  6
Continuous
 62
     7
370
     9
100
AcDbLine
 10
1326.310412160901
 20
2415.94554744901
 30
0.0
 11
1320.310342877751
 21
2415.94554744901
 31
0.0
  0
LINE
  5
186
330
1F
100
AcDbEntity
  8
0-7_金物
  6
Continuous
 62
     7
370
     9
100
AcDbLine
 10
1326.310412160901
 20
2301.945319804373
 30
0.0
 11
1326.310412160901
 21
2421.94497338862
 31
0.0
  0
LINE
  5
187
330
1F
100
AcDbEntity
  8
0-7_金物
  6
Continuous
 62
     7
370
     9
100
AcDbLine
 10
1338.310006359591
 20
2421.94497338862
 30
0.0
 11
1326.310412160901
 21
2421.94497338862
 31
0.0
  0
LINE
  5
188
330
1F
100
AcDbEntity
  8
0-7_金物
  6
Continuous
 62
     7
370
     9
100
AcDbLine
 10
1338.310006359591
 20
2301.945319804373
 30
0.0
 11
1326.310412160901
 21
2301.945319804373
 31
0.0
  0
LINE
  5
189
330
1F
100
AcDbEntity
  8
0-7_金物
  6
Continuous
 62
     7
370
     9
100
AcDbLine
 10
1350.310342877751
 20
2271.945220828443
 30
0.0
 11
1338.310006359591
 21
2271.945220828443
 31
0.0
  0
LINE
  5
18A
330
1F
100
AcDbEntity
  8
0-7_金物
  6
Continuous
 62
     7
370
     9
100
AcDbLine
 10
1350.310342877751
 20
2451.94507236455
 30
0.0
 11
1338.310006359591
 21
2451.94507236455
 31
0.0
  0
LINE
  5
18B
330
1F
100
AcDbEntity
  8
0-7_金物
  6
Continuous
 62
     7
370
     9
100
AcDbLine
 10
1338.310006359591
 20
2271.945220828443
 30
0.0
 11
1338.310006359591
 21
2451.94507236455
 31
0.0
  0
MTEXT
  5
18C
330
1F
100
AcDbEntity
  8
0-0_補助線
  6
Continuous
 62
     7
370
   211
100
AcDbMText
 10
-3037.094878813597
 20
2325.079196304036
 30
0.0
 40
91.44000000000129
 41
180.0000000000026
 46
0.0
 71
     7
 72
     1
  1
{\fＭＳ ゴシック|b0|i0|c128|p49;3.5}
 73
     1
 44
1.0
  0
LINE
  5
18D
330
1F
100
AcDbEntity
  8
0-0_補助線
  6
Continuous
 62
   120
370
     5
100
AcDbLine
 10
-2879.68965712225
 20
2324.359196304036
 30
0.0
 11
-2879.68965712225
 21
2405.68845952722
 31
0.0
  0
LWPOLYLINE
  5
18E
330
1F
100
AcDbEntity
  8
0-0_補助線
  6
Continuous
 62
     7
370
     9
100
AcDbPolyline
 90
        4
 70
     1
 43
3.0
 10
-2878.18965712225
 20
2324.359196304036
 42
0.4142135623731
 10
-2879.68965712225
 20
2325.859196304036
 42
0.4142135623731
 10
-2881.18965712225
 20
2324.359196304036
 42
0.4142135623731
 10
-2879.68965712225
 20
2322.859196304036
 42
0.4142135623731
  0
LINE
  5
18F
330
1F
100
AcDbEntity
  8
0-0_補助線
  6
Continuous
 62
   120
370
     5
100
AcDbLine
 10
-2858.689657122252
 20
2324.359196304036
 30
0.0
 11
-2879.68965712225
 21
2324.359196304036
 31
0.0
  0
LWPOLYLINE
  5
190
330
1F
100
AcDbEntity
  8
0-0_補助線
  6
Continuous
 62
     7
370
     9
100
AcDbPolyline
 90
        4
 70
     1
 43
3.0
 10
-2857.189657122252
 20
2324.359196304036
 42
0.4142135623731
 10
-2858.689657122252
 20
2325.859196304036
 42
0.4142135623731
 10
-2860.189657122252
 20
2324.359196304036
 42
0.4142135623731
 10
-2858.689657122252
 20
2322.859196304036
 42
0.4142135623731
  0
LWPOLYLINE
  5
191
330
1F
100
AcDbEntity
  8
0-0_補助線
  6
Continuous
 62
     7
370
     9
100
AcDbPolyline
 90
        4
 70
     1
 43
3.0
 10
-2842.189657122252
 20
2324.359196304036
 42
0.4142135623731
 10
-2843.689657122252
 20
2325.859196304036
 42
0.4142135623731
 10
-2845.189657122252
 20
2324.359196304036
 42
0.4142135623731
 10
-2843.689657122252
 20
2322.859196304036
 42
0.4142135623731
  0
LINE
  5
192
330
1F
100
AcDbEntity
  8
0-0_補助線
  6
Continuous
 62
   120
370
     5
100
AcDbLine
 10
-2843.689657122252
 20
2324.359196304036
 30
0.0
 11
-2858.689657122252
 21
2324.359196304036
 31
0.0
  0
LINE
  5
193
330
1F
100
AcDbEntity
  8
0-1_通り芯
  6
JWW_CENTER1
 62
   120
370
     5
100
AcDbLine
 10
1920.310144925897
 20
2361.945146596497
 30
0.0
 11
-3623.689459170392
 21
2361.945146596497
 31
0.0
  0
LINE
  5
194
330
1F
100
AcDbEntity
  8
0-0_補助線
  6
JWW_HOJO
 62
   120
370
     5
100
AcDbLine
 10
1920.310144925897
 20
2961.945146596497
 30
0.0
 11
-3623.689459170392
 21
2961.945146596497
 31
0.0
  0
LINE
  5
195
330
1F
100
AcDbEntity
  8
0-0_補助線
  6
JWW_HOJO
 62
   120
370
     5
100
AcDbLine
 10
1920.310144925897
 20
3141.945146596497
 30
0.0
 11
-3623.689459170392
 21
3141.945146596497
 31
0.0
  0
LINE
  5
196
330
1F
100
AcDbEntity
  8
0-0_補助線
  6
JWW_HOJO
 62
   120
370
     5
100
AcDbLine
 10
1920.310144925897
 20
2781.945146596497
 30
0.0
 11
-3623.689459170392
 21
2781.945146596497
 31
0.0
  0
LINE
  5
197
330
1F
100
AcDbEntity
  8
0-A_文字
  6
JWW_HOJO
 62
   120
370
     5
100
AcDbLine
 10
-851.6896571222483
 20
947.6368213441579
 30
0.0
 11
1557.834152401562
 21
947.6368213441579
 31
0.0
  0
LINE
  5
198
330
1F
100
AcDbEntity
  8
0-A_文字
  6
JWW_HOJO
 62
   120
370
     5
100
AcDbLine
 10
-851.6896571222483
 20
827.6368213441579
 30
0.0
 11
1557.834152401562
 21
827.6368213441579
 31
0.0
  0
LINE
  5
199
330
1F
100
AcDbEntity
  8
0-A_文字
  6
JWW_HOJO
 62
   120
370
     5
100
AcDbLine
 10
-851.6896571222483
 20
707.6368213441581
 30
0.0
 11
1557.834152401562
 21
707.6368213441581
 31
0.0
  0
MTEXT
  5
19A
330
1F
100
AcDbEntity
  8
0-A_文字
  6
Continuous
 62
     7
370
     9
100
AcDbMText
 10
-851.6896571222475
 20
942.3820486168847
 30
0.0
 40
79.49045454545451
 41
2294.999999999999
 46
0.0
 71
     7
 72
     1
  1
{\fＭＳ ゴシック|b0|i0|c128|p49;※有効開口寸法にはハンドルの突出は含まない。}
 73
     1
 44
1.0
  0
MTEXT
  5
19B
330
1F
100
AcDbEntity
  8
0-A_文字
  6
Continuous
 62
     7
370
     9
100
AcDbMText
 10
-851.6896571222475
 20
822.4301546774908
 30
0.0
 40
79.58666666666664
 41
2820.0
 46
0.0
 71
     7
 72
     1
  1
{\fＭＳ ゴシック|b0|i0|c128|p49;※有効開口寸法は扉の厚さや調整によって若干異なります。}
 73
     1
 44
1.0
  0
MTEXT
  5
19C
330
1F
100
AcDbEntity
  8
0-A_文字
  6
Continuous
 62
     7
370
     0
100
AcDbMText
 10
-851.6896571222483
 20
696.9268213441566
 30
0.0
 40
68.57999999999997
 41
1350.0
 46
0.0
 71
     7
 72
     1
  1
{\fＭＳ ゴシック|b0|i0|c128|p49;※扉厚（　）内はルーバーの場合}
 73
     1
 44
1.0
  0
MTEXT
  5
19D
330
1F
100
AcDbEntity
  8
0-A_文字
  6
Continuous
 62
     7
370
   211
100
AcDbMText
 10
-1883.653684185017
 20
2227.665146596494
 30
0.0
 40
91.44
 41
240.0
 46
0.0
 71
     7
 72
     1
  1
{\fＭＳ ゴシック|b0|i0|c128|p49;(24)}
 11
6.123031769111886E-17
 21
1.0
 31
0.0
 73
     1
 44
1.0
  0
LINE
  5
19E
330
1F
100
AcDbEntity
  8
0-3_仕上げ
  6
Continuous
 62
    40
370
    15
100
AcDbLine
 10
-2993.689657122269
 20
2172.946220485326
 30
0.0
 11
-2993.689657122269
 21
2097.946220485326
 31
0.0
  0
LINE
  5
19F
330
1F
100
AcDbEntity
  8
0-C_ハッチ
  6
JWW_DASHED1
 62
   120
370
     5
100
AcDbLine
 10
-3557.252684288991
 20
2097.946220485337
 30
0.0
 11
-3482.252684288993
 21
2172.946220485332
 31
0.0
  0
LINE
  5
1A0
330
1F
100
AcDbEntity
  8
0-C_ハッチ
  6
JWW_DASHED1
 62
   120
370
     5
100
AcDbLine
 10
-3514.826277417793
 20
2097.946220485333
 30
0.0
 11
-3439.826277417797
 21
2172.946220485328
 31
0.0
  0
LINE
  5
1A1
330
1F
100
AcDbEntity
  8
0-C_ハッチ
  6
JWW_DASHED1
 62
   120
370
     5
100
AcDbLine
 10
-3472.399870546597
 20
2097.946220485329
 30
0.0
 11
-3397.399870546601
 21
2172.946220485324
 31
0.0
  0
LINE
  5
1A2
330
1F
100
AcDbEntity
  8
0-C_ハッチ
  6
JWW_DASHED1
 62
   120
370
     5
100
AcDbLine
 10
-3429.973463675384
 20
2097.946220485341
 30
0.0
 11
-3354.973463675391
 21
2172.946220485337
 31
0.0
  0
LINE
  5
1A3
330
1F
100
AcDbEntity
  8
0-C_ハッチ
  6
JWW_DASHED1
 62
   120
370
     5
100
AcDbLine
 10
-3387.547056804187
 20
2097.946220485337
 30
0.0
 11
-3312.547056804177
 21
2172.946220485349
 31
0.0
  0
LINE
  5
1A4
330
1F
100
AcDbEntity
  8
0-C_ハッチ
  6
JWW_DASHED1
 62
   120
370
     5
100
AcDbLine
 10
-3345.120649932993
 20
2097.946220485333
 30
0.0
 11
-3270.120649932981
 21
2172.946220485345
 31
0.0
  0
LINE
  5
1A5
330
1F
100
AcDbEntity
  8
0-C_ハッチ
  6
JWW_DASHED1
 62
   120
370
     5
100
AcDbLine
 10
-3302.69424306178
 20
2097.946220485346
 30
0.0
 11
-3227.694243061784
 21
2172.946220485341
 31
0.0
  0
LINE
  5
1A6
330
1F
100
AcDbEntity
  8
0-C_ハッチ
  6
JWW_DASHED1
 62
   120
370
     5
100
AcDbLine
 10
-3260.267836190584
 20
2097.946220485342
 30
0.0
 11
-3185.267836190587
 21
2172.946220485338
 31
0.0
  0
LINE
  5
1A7
330
1F
100
AcDbEntity
  8
0-C_ハッチ
  6
JWW_DASHED1
 62
   120
370
     5
100
AcDbLine
 10
-3217.841429319446
 20
2097.946220485333
 30
0.0
 11
-3142.841429319452
 21
2172.946220485329
 31
0.0
  0
LINE
  5
1A8
330
1F
100
AcDbEntity
  8
0-C_ハッチ
  6
JWW_DASHED1
 62
   120
370
     5
100
AcDbLine
 10
-3175.415022448249
 20
2097.94622048533
 30
0.0
 11
-3100.415022448255
 21
2172.946220485326
 31
0.0
  0
LINE
  5
1A9
330
1F
100
AcDbEntity
  8
0-C_ハッチ
  6
JWW_DASHED1
 62
   120
370
     5
100
AcDbLine
 10
-3132.988615577052
 20
2097.94622048533
 30
0.0
 11
-3057.988615577055
 21
2172.946220485324
 31
0.0
  0
LINE
  5
1AA
330
1F
100
AcDbEntity
  8
0-C_ハッチ
  6
JWW_DASHED1
 62
   120
370
     5
100
AcDbLine
 10
-3090.562208705841
 20
2097.946220485339
 30
0.0
 11
-3015.562208705832
 21
2172.94622048535
 31
0.0
  0
LINE
  5
1AB
330
1F
100
AcDbEntity
  8
0-C_ハッチ
  6
JWW_DASHED1
 62
   120
370
     5
100
AcDbLine
 10
-3048.135801834645
 20
2097.946220485335
 30
0.0
 11
-2993.689657122269
 21
2152.392365197712
 31
0.0
  0
LINE
  5
1AC
330
1F
100
AcDbEntity
  8
0-C_ハッチ
  6
JWW_DASHED1
 62
   120
370
     5
100
AcDbLine
 10
-3005.709394963448
 20
2097.946220485332
 30
0.0
 11
-2993.689657122259
 21
2109.965958326521
 31
0.0
  0
LINE
  5
1AD
330
1F
100
AcDbEntity
  8
0-3_仕上げ
  6
Continuous
 62
    40
370
    15
100
AcDbLine
 10
1290.310342877751
 20
2097.946220485326
 30
0.0
 11
1290.310342877751
 21
2172.946220485326
 31
0.0
  0
LINE
  5
1AE
330
1F
100
AcDbEntity
  8
0-C_ハッチ
  6
JWW_DASHED1
 62
   120
370
     5
100
AcDbLine
 10
1290.310342877737
 20
2146.36225934626
 30
0.0
 11
1316.89430401682
 21
2172.946220485343
 31
0.0
  0
LINE
  5
1AF
330
1F
100
AcDbEntity
  8
0-C_ハッチ
  6
JWW_DASHED1
 62
   120
370
     5
100
AcDbLine
 10
1290.310342877733
 20
2103.935852475056
 30
0.0
 11
1359.320710888016
 21
2172.94622048534
 31
0.0
  0
LINE
  5
1B0
330
1F
100
AcDbEntity
  8
0-C_ハッチ
  6
JWW_DASHED1
 62
   120
370
     5
100
AcDbLine
 10
1326.747117759159
 20
2097.946220485336
 30
0.0
 11
1401.747117759155
 21
2172.946220485331
 31
0.0
  0
LINE
  5
1B1
330
1F
100
AcDbEntity
  8
0-C_ハッチ
  6
JWW_DASHED1
 62
   120
370
     5
100
AcDbLine
 10
1369.173524630355
 20
2097.946220485333
 30
0.0
 11
1444.17352463035
 21
2172.946220485328
 31
0.0
  0
LINE
  5
1B2
330
1F
100
AcDbEntity
  8
0-C_ハッチ
  6
JWW_DASHED1
 62
   120
370
     5
100
AcDbLine
 10
1411.599931501551
 20
2097.946220485329
 30
0.0
 11
1486.599931501547
 21
2172.946220485324
 31
0.0
  0
LINE
  5
1B3
330
1F
100
AcDbEntity
  8
0-C_ハッチ
  6
JWW_DASHED1
 62
   120
370
     5
100
AcDbLine
 10
1454.026338372764
 20
2097.946220485341
 30
0.0
 11
1529.026338372759
 21
2172.946220485336
 31
0.0
  0
LINE
  5
1B4
330
1F
100
AcDbEntity
  8
0-C_ハッチ
  6
JWW_DASHED1
 62
   120
370
     5
100
AcDbLine
 10
1496.452745243959
 20
2097.946220485337
 30
0.0
 11
1571.452745243971
 21
2172.946220485348
 31
0.0
  0
LINE
  5
1B5
330
1F
100
AcDbEntity
  8
0-C_ハッチ
  6
JWW_DASHED1
 62
   120
370
     5
100
AcDbLine
 10
1538.879152115156
 20
2097.946220485333
 30
0.0
 11
1613.879152115167
 21
2172.946220485345
 31
0.0
  0
LINE
  5
1B6
330
1F
100
AcDbEntity
  8
0-C_ハッチ
  6
JWW_DASHED1
 62
   120
370
     5
100
AcDbLine
 10
1581.305558986368
 20
2097.946220485346
 30
0.0
 11
1656.305558986364
 21
2172.946220485341
 31
0.0
  0
LINE
  5
1B7
330
1F
100
AcDbEntity
  8
0-C_ハッチ
  6
JWW_DASHED1
 62
   120
370
     5
100
AcDbLine
 10
1623.731965857565
 20
2097.946220485342
 30
0.0
 11
1698.731965857559
 21
2172.946220485338
 31
0.0
  0
LINE
  5
1B8
330
1F
100
AcDbEntity
  8
0-C_ハッチ
  6
JWW_DASHED1
 62
   120
370
     5
100
AcDbLine
 10
1666.158372728701
 20
2097.946220485333
 30
0.0
 11
1741.158372728697
 21
2172.946220485329
 31
0.0
  0
LINE
  5
1B9
330
1F
100
AcDbEntity
  8
0-C_ハッチ
  6
JWW_DASHED1
 62
   120
370
     5
100
AcDbLine
 10
1708.584779599898
 20
2097.94622048533
 30
0.0
 11
1783.584779599894
 21
2172.946220485326
 31
0.0
  0
LINE
  5
1BA
330
1F
100
AcDbEntity
  8
0-C_ハッチ
  6
JWW_DASHED1
 62
   120
370
     5
100
AcDbLine
 10
1751.011186471098
 20
2097.94622048533
 30
0.0
 11
1826.011186471091
 21
2172.946220485324
 31
0.0
  0
LINE
  5
1BB
330
1F
100
AcDbEntity
  8
0-C_ハッチ
  6
JWW_DASHED1
 62
   120
370
     5
100
AcDbLine
 10
1793.437593342307
 20
2097.946220485339
 30
0.0
 11
1868.437593342318
 21
2172.94622048535
 31
0.0
  0
LINE
  5
1BC
330
1F
100
AcDbEntity
  8
0-3_仕上げ
  6
Continuous
 62
    40
370
    15
100
AcDbLine
 10
1290.310342877751
 20
2172.946220485326
 30
0.0
 11
1920.310144925897
 21
2172.946220485326
 31
0.0
  0
LINE
  5
1BD
330
1F
100
AcDbEntity
  8
0-3_仕上げ
  6
Continuous
 62
    40
370
    15
100
AcDbLine
 10
1290.310342877751
 20
2097.946220485326
 30
0.0
 11
1920.310144925897
 21
2097.946220485326
 31
0.0
  0
LINE
  5
1BE
330
1F
100
AcDbEntity
  8
0-C_ハッチ
  6
JWW_DASHED1
 62
   120
370
     5
100
AcDbLine
 10
1878.290407084699
 20
2097.946220485331
 30
0.0
 11
1920.310144925897
 21
2139.965958326529
 31
0.0
  0
LINE
  5
1BF
330
1F
100
AcDbEntity
  8
0-C_ハッチ
  6
JWW_DASHED1
 62
   120
370
     5
100
AcDbLine
 10
1835.864000213504
 20
2097.946220485335
 30
0.0
 11
1910.864000213496
 21
2172.946220485326
 31
0.0
  0
LINE
  5
1C0
330
1F
100
AcDbEntity
  8
0-3_仕上げ
  6
Continuous
 62
    40
370
    15
100
AcDbLine
 10
-3623.689459170392
 20
2172.946220485326
 30
0.0
 11
-2993.689657122251
 21
2172.946220485326
 31
0.0
  0
LINE
  5
1C1
330
1F
100
AcDbEntity
  8
0-3_仕上げ
  6
Continuous
 62
    40
370
    15
100
AcDbLine
 10
-3623.689459170392
 20
2097.946220485326
 30
0.0
 11
-2993.689657122251
 21
2097.946220485326
 31
0.0
  0
LINE
  5
1C2
330
1F
100
AcDbEntity
  8
0-C_ハッチ
  6
JWW_DASHED1
 62
   120
370
     5
100
AcDbLine
 10
-3623.689459170392
 20
2116.362259346281
 30
0.0
 11
-3567.105498031329
 21
2172.946220485344
 31
0.0
  0
LINE
  5
1C3
330
1F
100
AcDbEntity
  8
0-C_ハッチ
  6
JWW_DASHED1
 62
   120
370
     5
100
AcDbLine
 10
-3599.679091160144
 20
2097.946220485326
 30
0.0
 11
-3524.679091160132
 21
2172.94622048534
 31
0.0
  0
MTEXT
  5
1C4
330
1F
100
AcDbEntity
  8
0-3_仕上げ
  6
Continuous
 62
     7
370
   211
100
AcDbMText
 10
-2720.68945917038
 20
-2901.781431134911
 30
0.0
 40
91.43999999999805
 41
119.9999999999974
 46
0.0
 71
     7
 72
     1
  1
{\fＭＳ ゴシック|b0|i0|c128|p49;32}
 73
     1
 44
1.0
  0
MTEXT
  5
1C5
330
1F
100
AcDbEntity
  8
0-A_文字
  6
Continuous
 62
     7
370
     9
100
AcDbMText
 10
-3611.689459170403
 20
198.8080100182983
 30
0.0
 40
91.44
 41
600.0
 46
0.0
 71
     7
 72
     1
  1
{\fＭＳ ゴシック|b0|i0|c128|p49;■縦断面図}
 73
     1
 44
1.0
  0
MTEXT
  5
1C6
330
1F
100
AcDbEntity
  8
0-A_文字
  6
Continuous
 62
     7
370
     9
100
AcDbMText
 10
-3611.689459170403
 20
50.28774485085497
 30
0.0
 40
91.44000000000001
 41
1800.0
 46
0.0
 71
     7
 72
     1
  1
{\fＭＳ ゴシック|b0|i0|c128|p49;　[３方枠＋レール(レール埋込)]}
 73
     1
 44
1.0
  0
MTEXT
  5
1C7
330
1F
100
AcDbEntity
  8
0-B_寸法
  6
Continuous
 62
     7
370
   211
100
AcDbMText
 10
-1507.946251622989
 20
-260.0312686803293
 30
0.0
 40
91.44000000000129
 41
60.00000000000085
 46
0.0
 71
     7
 72
     1
  1
{\fＭＳ ゴシック|b0|i0|c128|p49;8}
 11
6.123031769111886E-17
 21
1.0
 31
0.0
 73
     1
 44
1.0
  0
MTEXT
  5
1C8
330
1F
100
AcDbEntity
  8
0-B_寸法
  6
Continuous
 62
     7
370
   211
100
AcDbMText
 10
-2069.689459170386
 20
-304.7257350667988
 30
0.0
 40
91.43999999999805
 41
59.99999999999872
 46
0.0
 71
     7
 72
     1
  1
{\fＭＳ ゴシック|b0|i0|c128|p49;8}
 11
6.123031769111886E-17
 21
1.0
 31
0.0
 73
     1
 44
1.0
  0
MTEXT
  5
1C9
330
1F
100
AcDbEntity
  8
0-B_寸法
  6
Continuous
 62
     7
370
   211
100
AcDbMText
 10
-2069.689459170386
 20
-390.2791294241523
 30
0.0
 40
91.43999999999805
 41
59.99999999999872
 46
0.0
 71
     7
 72
     1
  1
{\fＭＳ ゴシック|b0|i0|c128|p49;9}
 11
6.123031769111886E-17
 21
1.0
 31
0.0
 73
     1
 44
1.0
  0
MTEXT
  5
1CA
330
1F
100
AcDbEntity
  8
0-B_寸法
  6
Continuous
 62
     7
370
     0
100
AcDbMText
 10
-1694.688766338886
 20
-480.2790725129938
 30
0.0
 40
91.43999999999966
 41
119.9999999999996
 46
0.0
 71
     7
 72
     1
  1
{\fＭＳ ゴシック|b0|i0|c128|p49;36}
 11
6.123031769111886E-17
 21
1.0
 31
0.0
 73
     1
 44
1.0
  0
MTEXT
  5
1CB
330
1F
100
AcDbEntity
  8
0-B_寸法
  6
Continuous
 62
     7
370
   211
100
AcDbMText
 10
-2069.689459170386
 20
-498.279129424153
 30
0.0
 40
91.44000000000129
 41
60.00000000000085
 46
0.0
 71
     7
 72
     1
  1
{\fＭＳ ゴシック|b0|i0|c128|p49;9}
 11
6.123031769111886E-17
 21
1.0
 31
0.0
 73
     1
 44
1.0
  0
MTEXT
  5
1CC
330
1F
100
AcDbEntity
  8
0-B_寸法
  6
Continuous
 62
     7
370
   211
100
AcDbMText
 10
-2069.689459170386
 20
-665.9420510715967
 30
0.0
 40
91.43999999999966
 41
119.9999999999996
 46
0.0
 71
     7
 72
     1
  1
{\fＭＳ ゴシック|b0|i0|c128|p49;10}
 11
6.123031769111886E-17
 21
1.0
 31
0.0
 73
     1
 44
1.0
  0
MTEXT
  5
1CD
330
1F
100
AcDbEntity
  8
0-B_寸法
  6
Continuous
 62
     7
370
     0
100
AcDbMText
 10
-1874.117241750692
 20
-751.2353149736211
 30
0.0
 40
91.44000000000023
 41
180.0000000000004
 46
0.0
 71
     7
 72
     1
  1
{\fＭＳ ゴシック|b0|i0|c128|p49;7.5}
 11
6.123031769111886E-17
 21
1.0
 31
0.0
 73
     1
 44
1.0
  0
MTEXT
  5
1CE
330
1F
100
AcDbEntity
  8
0-B_寸法
  6
Continuous
 62
     7
370
     0
100
AcDbMText
 10
-2720.690008486808
 20
-808.7618943247854
 30
0.0
 40
91.43999999999805
 41
119.9999999999974
 46
0.0
 71
     7
 72
     1
  1
{\fＭＳ ゴシック|b0|i0|c128|p49;77}
 73
     1
 44
1.0
  0
LINE
  5
1CF
330
1F
100
AcDbEntity
  8
0-3_仕上げ
  6
Continuous
 62
     7
370
     9
100
AcDbLine
 10
-2585.689117084831
 20
-3238.000113874911
 30
0.0
 11
-2069.689459170387
 21
-3238.000113874911
 31
0.0
  0
LINE
  5
1D0
330
1F
100
AcDbEntity
  8
0-3_仕上げ
  6
Continuous
 62
     7
370
     9
100
AcDbLine
 10
-2585.689117084831
 20
-3250.000264813205
 30
0.0
 11
-2069.689459170387
 21
-3250.000264813205
 31
0.0
  0
LINE
  5
1D1
330
1F
100
AcDbEntity
  8
0-3_仕上げ
  6
Continuous
 62
     7
370
     9
100
AcDbLine
 10
-2585.689117084831
 20
-3262.00023017163
 30
0.0
 11
-2069.689459170387
 21
-3262.00023017163
 31
0.0
  0
LINE
  5
1D2
330
1F
100
AcDbEntity
  8
0-3_仕上げ
  6
Continuous
 62
     7
370
     9
100
AcDbLine
 10
-2585.689117084831
 20
-3274.000195530055
 30
0.0
 11
-2069.689459170387
 21
-3274.000195530055
 31
0.0
  0
LINE
  5
1D3
330
1F
100
AcDbEntity
  8
0-3_仕上げ
  6
Continuous
 62
     7
370
     9
100
AcDbLine
 10
-2585.689117084831
 20
-3286.000346468346
 30
0.0
 11
-2069.689459170387
 21
-3286.000346468346
 31
0.0
  0
LINE
  5
1D4
330
1F
100
AcDbEntity
  8
0-3_仕上げ
  6
Continuous
 62
    40
370
    15
100
AcDbLine
 10
-2069.689459170387
 20
-3226.000334096355
 30
0.0
 11
-2585.689117084831
 21
-3226.000334096355
 31
0.0
  0
LINE
  5
1D5
330
1F
100
AcDbEntity
  8
0-0_補助線
  6
JWW_HOJO
 62
   120
370
     5
100
AcDbLine
 10
-1709.689459170387
 20
2.00007402574073
 30
0.0
 11
-3623.689459170392
 21
2.00007402574073
 31
0.0
  0
LINE
  5
1D6
330
1F
100
AcDbEntity
  8
0-1_通り芯
  6
JWW_CENTER1
 62
   120
370
     5
100
AcDbLine
 10
-2660.689459170381
 20
-3519.904954945129
 30
0.0
 11
-2660.689459170381
 21
2.00007402574073
 31
0.0
  0
LINE
  5
1D7
330
1F
100
AcDbEntity
  8
0-0_補助線
  6
JWW_HOJO
 62
   120
370
     5
100
AcDbLine
 10
-2069.689459170387
 20
2.00007402574073
 30
0.0
 11
-2069.689459170387
 21
-3297.99994082065
 31
0.0
  0
LINE
  5
1D8
330
1F
100
AcDbEntity
  8
0-0_補助線
  6
JWW_HOJO
 62
   120
370
     5
100
AcDbLine
 10
-3263.689459170392
 20
2.00007402574073
 30
0.0
 11
-3263.689459170392
 21
-3297.99994082065
 31
0.0
  0
LINE
  5
1D9
330
1F
100
AcDbEntity
  8
0-0_補助線
  6
JWW_HOJO
 62
   120
370
     5
100
AcDbLine
 10
-3623.689459170392
 20
2.00007402574073
 30
0.0
 11
-3623.689459170392
 21
-3297.99994082065
 31
0.0
  0
LINE
  5
1DA
330
1F
100
AcDbEntity
  8
0-0_補助線
  6
JWW_HOJO
 62
   120
370
     5
100
AcDbLine
 10
-1709.689459170387
 20
2.00007402574073
 30
0.0
 11
-1709.689459170387
 21
-3297.99994082065
 31
0.0
  0
LINE
  5
1DB
330
1F
100
AcDbEntity
  8
0-B_寸法
  6
Continuous
 62
   120
370
     5
100
AcDbLine
 10
-2069.689459170387
 20
-3174.999460993514
 30
0.0
 11
-1859.689459170387
 21
-3174.999460993514
 31
0.0
  0
LWPOLYLINE
  5
1DC
330
1F
100
AcDbEntity
  8
0-B_寸法
  6
Continuous
 62
     7
370
     9
100
AcDbPolyline
 90
        4
 70
     1
 43
3.0
 10
-3622.189459170393
 20
-3297.99994082065
 42
0.4142135623731
 10
-3623.689459170392
 20
-3296.49994082065
 42
0.4142135623731
 10
-3625.189459170392
 20
-3297.99994082065
 42
0.4142135623731
 10
-3623.689459170392
 20
-3299.49994082065
 42
0.4142135623731
  0
LINE
  5
1DD
330
1F
100
AcDbEntity
  8
0-B_寸法
  6
Continuous
 62
   120
370
     5
100
AcDbLine
 10
-3623.689459170392
 20
-3297.99994082065
 30
0.0
 11
-3263.689459170392
 21
-3297.99994082065
 31
0.0
  0
LINE
  5
1DE
330
1F
100
AcDbEntity
  8
0-B_寸法
  6
Continuous
 62
   120
370
     5
100
AcDbLine
 10
-2069.689459170387
 20
-3297.999941026771
 30
0.0
 11
-1499.689459170387
 21
-3297.999941026771
 31
0.0
  0
LWPOLYLINE
  5
1DF
330
1F
100
AcDbEntity
  8
0-B_寸法
  6
Continuous
 62
     7
370
     9
100
AcDbPolyline
 90
        4
 70
     1
 43
3.0
 10
-1498.189459170387
 20
-3297.999941026771
 42
0.4142135623731
 10
-1499.689459170387
 20
-3296.499941026771
 42
0.4142135623731
 10
-1501.189459170387
 20
-3297.999941026771
 42
0.4142135623731
 10
-1499.689459170387
 20
-3299.499941026771
 42
0.4142135623731
  0
LWPOLYLINE
  5
1E0
330
1F
100
AcDbEntity
  8
0-B_寸法
  6
Continuous
 62
     7
370
     9
100
AcDbPolyline
 90
        4
 70
     1
 43
3.0
 10
-1858.189459170387
 20
-3174.999460993514
 42
0.4142135623731
 10
-1859.689459170387
 20
-3173.499460993514
 42
0.4142135623731
 10
-1861.189459170387
 20
-3174.999460993514
 42
0.4142135623731
 10
-1859.689459170387
 20
-3176.499460993514
 42
0.4142135623731
  0
LWPOLYLINE
  5
1E1
330
1F
100
AcDbEntity
  8
0-B_寸法
  6
Continuous
 62
     7
370
     9
100
AcDbPolyline
 90
        4
 70
     1
 43
3.0
 10
-1858.189459170387
 20
-3225.999592136621
 42
0.4142135623731
 10
-1859.689459170387
 20
-3224.499592136621
 42
0.4142135623731
 10
-1861.189459170387
 20
-3225.999592136621
 42
0.4142135623731
 10
-1859.689459170387
 20
-3227.49959213662
 42
0.4142135623731
  0
LINE
  5
1E2
330
1F
100
AcDbEntity
  8
0-B_寸法
  6
Continuous
 62
   120
370
     5
100
AcDbLine
 10
-1859.689459170387
 20
-3225.999592136621
 30
0.0
 11
-1859.689459170387
 21
-513.998946318683
 31
0.0
  0
LINE
  5
1E3
330
1F
100
AcDbEntity
  8
0-B_寸法
  6
Continuous
 62
   120
370
     5
100
AcDbLine
 10
-2069.689459170387
 20
-3225.999592136621
 30
0.0
 11
-1679.689459170387
 21
-3225.999592136621
 31
0.0
  0
LINE
  5
1E4
330
1F
100
AcDbEntity
  8
0-B_寸法
  6
Continuous
 62
   120
370
     5
100
AcDbLine
 10
-1679.689459170387
 20
-3297.999569867039
 30
0.0
 11
-1679.689459170387
 21
-297.9995698670362
 31
0.0
  0
LINE
  5
1E5
330
1F
100
AcDbEntity
  8
0-B_寸法
  6
Continuous
 62
   120
370
     5
100
AcDbLine
 10
-1859.689459170387
 20
-3297.999569867039
 30
0.0
 11
-1679.689459170387
 21
-3297.999569867039
 31
0.0
  0
LWPOLYLINE
  5
1E6
330
1F
100
AcDbEntity
  8
0-B_寸法
  6
Continuous
 62
     7
370
     9
100
AcDbPolyline
 90
        4
 70
     1
 43
3.0
 10
-1678.189459170387
 20
-3297.999569867039
 42
0.4142135623731
 10
-1679.689459170387
 20
-3296.499569867039
 42
0.4142135623731
 10
-1681.189459170387
 20
-3297.999569867039
 42
0.4142135623731
 10
-1679.689459170387
 20
-3299.499569867039
 42
0.4142135623731
  0
LWPOLYLINE
  5
1E7
330
1F
100
AcDbEntity
  8
0-B_寸法
  6
Continuous
 62
     7
370
     9
100
AcDbPolyline
 90
        4
 70
     1
 43
3.0
 10
-1678.189459170387
 20
-3225.999592136621
 42
0.4142135623731
 10
-1679.689459170387
 20
-3224.499592136621
 42
0.4142135623731
 10
-1681.189459170387
 20
-3225.999592136621
 42
0.4142135623731
 10
-1679.689459170387
 20
-3227.49959213662
 42
0.4142135623731
  0
LWPOLYLINE
  5
1E8
330
1F
100
AcDbEntity
  8
0-B_寸法
  6
Continuous
 62
     7
370
     9
100
AcDbPolyline
 90
        4
 70
     1
 43
3.0
 10
-1498.189459170387
 20
-297.9995698670362
 42
0.4142135623731
 10
-1499.689459170387
 20
-296.4995698670362
 42
0.4142135623731
 10
-1501.189459170387
 20
-297.9995698670362
 42
0.4142135623731
 10
-1499.689459170387
 20
-299.4995698670362
 42
0.4142135623731
  0
LWPOLYLINE
  5
1E9
330
1F
100
AcDbEntity
  8
0-B_寸法
  6
Continuous
 62
     7
370
     9
100
AcDbPolyline
 90
        4
 70
     1
 43
3.0
 10
-1858.189459170387
 20
-513.998946318683
 42
0.4142135623731
 10
-1859.689459170387
 20
-512.498946318683
 42
0.4142135623731
 10
-1861.189459170387
 20
-513.998946318683
 42
0.4142135623731
 10
-1859.689459170387
 20
-515.4989463186831
 42
0.4142135623731
  0
LWPOLYLINE
  5
1EA
330
1F
100
AcDbEntity
  8
0-B_寸法
  6
Continuous
 62
     7
370
     9
100
AcDbPolyline
 90
        4
 70
     1
 43
3.0
 10
-1858.189459170387
 20
-558.9990947825768
 42
0.4142135623731
 10
-1859.689459170387
 20
-557.4990947825768
 42
0.4142135623731
 10
-1861.189459170387
 20
-558.9990947825768
 42
0.4142135623731
 10
-1859.689459170387
 20
-560.4990947825769
 42
0.4142135623731
  0
LINE
  5
1EB
330
1F
100
AcDbEntity
  8
0-B_寸法
  6
Continuous
 62
   120
370
     5
100
AcDbLine
 10
-2069.689459170387
 20
-558.9990947825768
 30
0.0
 11
-1859.689459170387
 21
-558.9990947825768
 31
0.0
  0
LINE
  5
1EC
330
1F
100
AcDbEntity
  8
0-B_寸法
  6
Continuous
 62
   120
370
     5
100
AcDbLine
 10
-1859.689459170387
 20
-513.99857515895
 30
0.0
 11
-1679.689459170387
 21
-513.99857515895
 31
0.0
  0
LWPOLYLINE
  5
1ED
330
1F
100
AcDbEntity
  8
0-B_寸法
  6
Continuous
 62
     7
370
     9
100
AcDbPolyline
 90
        4
 70
     1
 43
3.0
 10
-1678.189459170387
 20
-513.99857515895
 42
0.4142135623731
 10
-1679.689459170387
 20
-512.49857515895
 42
0.4142135623731
 10
-1681.189459170387
 20
-513.99857515895
 42
0.4142135623731
 10
-1679.689459170387
 20
-515.49857515895
 42
0.4142135623731
  0
LWPOLYLINE
  5
1EE
330
1F
100
AcDbEntity
  8
0-B_寸法
  6
Continuous
 62
     7
370
     9
100
AcDbPolyline
 90
        4
 70
     1
 43
3.0
 10
-1678.189459170387
 20
-297.9995698670362
 42
0.4142135623731
 10
-1679.689459170387
 20
-296.4995698670362
 42
0.4142135623731
 10
-1681.189459170387
 20
-297.9995698670362
 42
0.4142135623731
 10
-1679.689459170387
 20
-299.4995698670362
 42
0.4142135623731
  0
LINE
  5
1EF
330
1F
100
AcDbEntity
  8
0-0_補助線
  6
JWW_HOJO
 62
   120
370
     5
100
AcDbLine
 10
-1859.689459170387
 20
-3297.99994082065
 30
0.0
 11
-3623.689459170392
 21
-3297.99994082065
 31
0.0
  0
MTEXT
  5
1F0
330
1F
100
AcDbEntity
  8
0-B_寸法
  6
Continuous
 62
     7
370
     0
100
AcDbMText
 10
-1874.155954417793
 20
-3191.41173001837
 30
0.0
 40
91.4400000000013
 41
180.0000000000026
 46
0.0
 71
     7
 72
     1
  1
{\fＭＳ ゴシック|b0|i0|c128|p49;8.5}
 11
6.123031769111886E-17
 21
1.0
 31
0.0
 73
     1
 44
1.0
  0
MTEXT
  5
1F1
330
1F
100
AcDbEntity
  8
0-B_寸法
  6
Continuous
 62
     7
370
     0
100
AcDbMText
 10
-1694.688766338886
 20
-3446.060221697336
 30
0.0
 40
91.43999999999805
 41
119.9999999999974
 46
0.0
 71
     7
 72
     1
  1
{\fＭＳ ゴシック|b0|i0|c128|p49;12}
 11
6.123031769111886E-17
 21
1.0
 31
0.0
 73
     1
 44
1.0
  0
LINE
  5
1F2
330
1F
100
AcDbEntity
  8
0-3_仕上げ
  6
Continuous
 62
   120
370
     5
100
AcDbLine
 10
-2756.689013778715
 20
-2902.501431134912
 30
0.0
 11
-2564.689904562075
 21
-2902.501431134912
 31
0.0
  0
LWPOLYLINE
  5
1F3
330
1F
100
AcDbEntity
  8
0-3_仕上げ
  6
Continuous
 62
     7
370
     9
100
AcDbPolyline
 90
        4
 70
     1
 43
3.0
 10
-2755.189013778715
 20
-2902.501431134912
 42
0.4142135623731
 10
-2756.689013778715
 20
-2901.001431134912
 42
0.4142135623731
 10
-2758.189013778715
 20
-2902.501431134912
 42
0.4142135623731
 10
-2756.689013778715
 20
-2904.001431134912
 42
0.4142135623731
  0
LWPOLYLINE
  5
1F4
330
1F
100
AcDbEntity
  8
0-3_仕上げ
  6
Continuous
 62
     7
370
     9
100
AcDbPolyline
 90
        4
 70
     1
 43
3.0
 10
-2563.189904562075
 20
-2902.501431134912
 42
0.4142135623731
 10
-2564.689904562075
 20
-2901.001431134912
 42
0.4142135623731
 10
-2566.189904562075
 20
-2902.501431134912
 42
0.4142135623731
 10
-2564.689904562075
 20
-2904.001431134912
 42
0.4142135623731
  0
LINE
  5
1F5
330
1F
100
AcDbEntity
  8
0-3_仕上げ
  6
Continuous
 62
   120
370
     5
100
AcDbLine
 10
-2756.689013778715
 20
-2902.501431134912
 30
0.0
 11
-2756.689013778715
 21
-3011.209140508179
 31
0.0
  0
LINE
  5
1F6
330
1F
100
AcDbEntity
  8
0-3_仕上げ
  6
Continuous
 62
   120
370
     5
100
AcDbLine
 10
-2564.689904562075
 20
-2902.501431134912
 30
0.0
 11
-2564.689904562075
 21
-3011.209140508179
 31
0.0
  0
LINE
  5
1F7
330
1F
100
AcDbEntity
  8
0-3_仕上げ
  6
Continuous
 62
    40
370
    15
100
AcDbLine
 10
-3251.689459170403
 20
-3298.000311826771
 30
0.0
 11
-1907.203479626252
 21
-3298.000311826771
 31
0.0
  0
LINE
  5
1F8
330
1F
100
AcDbEntity
  8
0-3_仕上げ
  6
Continuous
 62
     7
370
     9
100
AcDbLine
 10
-3251.689459170403
 20
-3238.000113874911
 30
0.0
 11
-2735.689117084831
 21
-3238.000113874911
 31
0.0
  0
LINE
  5
1F9
330
1F
100
AcDbEntity
  8
0-3_仕上げ
  6
Continuous
 62
     7
370
     9
100
AcDbLine
 10
-3251.689459170403
 20
-3250.000264813205
 30
0.0
 11
-2735.689117084831
 21
-3250.000264813205
 31
0.0
  0
LINE
  5
1FA
330
1F
100
AcDbEntity
  8
0-3_仕上げ
  6
Continuous
 62
     7
370
     9
100
AcDbLine
 10
-3251.689459170403
 20
-3262.00023017163
 30
0.0
 11
-2735.689117084831
 21
-3262.00023017163
 31
0.0
  0
LINE
  5
1FB
330
1F
100
AcDbEntity
  8
0-3_仕上げ
  6
Continuous
 62
     7
370
     9
100
AcDbLine
 10
-3251.689459170403
 20
-3274.000195530055
 30
0.0
 11
-2735.689117084831
 21
-3274.000195530055
 31
0.0
  0
LINE
  5
1FC
330
1F
100
AcDbEntity
  8
0-3_仕上げ
  6
Continuous
 62
     7
370
     9
100
AcDbLine
 10
-3251.689459170403
 20
-3286.000346468346
 30
0.0
 11
-2735.689117084831
 21
-3286.000346468346
 31
0.0
  0
LINE
  5
1FD
330
1F
100
AcDbEntity
  8
0-3_仕上げ
  6
Continuous
 62
    40
370
    15
100
AcDbLine
 10
-3251.689459170403
 20
-3226.000334096355
 30
0.0
 11
-2735.689117084831
 21
-3226.000334096355
 31
0.0
  0
LINE
  5
1FE
330
1F
100
AcDbEntity
  8
0-3_仕上げ
  6
Continuous
 62
    40
370
    15
100
AcDbLine
 10
-2735.689459170381
 20
-3298.000497406637
 30
0.0
 11
-2735.689459170381
 21
-3226.000705256087
 31
0.0
  0
LINE
  5
1FF
330
1F
100
AcDbEntity
  8
0-3_仕上げ
  6
Continuous
 62
    40
370
    15
100
AcDbLine
 10
-2585.689459170381
 20
-3298.000497406637
 30
0.0
 11
-2585.689459170381
 21
-3226.000705256087
 31
0.0
  0
LINE
  5
200
330
1F
100
AcDbEntity
  8
0-C_ハッチ
  6
Continuous
 62
   120
370
     5
100
AcDbLine
 10
-2729.689459170387
 20
-3276.120416773786
 30
0.0
 11
-2720.689459170381
 21
-3267.120416773787
 31
0.0
  0
LINE
  5
201
330
1F
100
AcDbEntity
  8
0-7_金物
  6
Continuous
 62
    92
370
    13
100
AcDbLine
 10
-2720.689459170381
 20
-3268.000705102476
 30
0.0
 11
-2600.689459170381
 21
-3268.000705102476
 31
0.0
  0
LINE
  5
202
330
1F
100
AcDbEntity
  8
0-7_金物
  6
Continuous
 62
    92
370
    13
100
AcDbLine
 10
-2720.689459170381
 20
-3256.000705102477
 30
0.0
 11
-2720.689459170381
 21
-3268.000705102476
 31
0.0
  0
LINE
  5
203
330
1F
100
AcDbEntity
  8
0-7_金物
  6
Continuous
 62
    92
370
    13
100
AcDbLine
 10
-2720.689459170381
 20
-3256.000705102477
 30
0.0
 11
-2729.689517490452
 21
-3256.000705102477
 31
0.0
  0
LINE
  5
204
330
1F
100
AcDbEntity
  8
0-7_金物
  6
Continuous
 62
    92
370
    13
100
AcDbLine
 10
-2600.689459170381
 20
-3256.000705102477
 30
0.0
 11
-2591.878543850736
 21
-3256.000705102477
 31
0.0
  0
LINE
  5
205
330
1F
100
AcDbEntity
  8
0-7_金物
  6
Continuous
 62
    92
370
    13
100
AcDbLine
 10
-2600.689459170381
 20
-3256.000705102477
 30
0.0
 11
-2600.689459170381
 21
-3268.000705102476
 31
0.0
  0
LINE
  5
206
330
1F
100
AcDbEntity
  8
0-7_金物
  6
Continuous
 62
    92
370
    13
100
AcDbLine
 10
-2591.878602170828
 20
-3256.000482772178
 30
0.0
 11
-2591.878602170828
 21
-3298.000705102476
 31
0.0
  0
LINE
  5
207
330
1F
100
AcDbEntity
  8
0-7_金物
  6
Continuous
 62
    92
370
    13
100
AcDbLine
 10
-2729.689459170387
 20
-3256.000482772178
 30
0.0
 11
-2729.689459170387
 21
-3298.000705102476
 31
0.0
  0
LINE
  5
208
330
1F
100
AcDbEntity
  8
0-7_金物
  6
Continuous
 62
    92
370
    13
100
AcDbLine
 10
-2729.689459170387
 20
-3298.000705102476
 30
0.0
 11
-2591.878602170828
 21
-3298.000705102476
 31
0.0
  0
LINE
  5
209
330
1F
100
AcDbEntity
  8
0-C_ハッチ
  6
Continuous
 62
   120
370
     5
100
AcDbLine
 10
-2598.834682762782
 20
-3298.000705102476
 30
0.0
 11
-2591.878602170828
 21
-3291.044624510505
 31
0.0
  0
LINE
  5
20A
330
1F
100
AcDbEntity
  8
0-C_ハッチ
  6
Continuous
 62
   120
370
     5
100
AcDbLine
 10
-2726.113903376355
 20
-3298.000705102476
 30
0.0
 11
-2696.113903376355
 21
-3268.000705102476
 31
0.0
  0
LINE
  5
20B
330
1F
100
AcDbEntity
  8
0-C_ハッチ
  6
Continuous
 62
   120
370
     5
100
AcDbLine
 10
-2649.746371008233
 20
-3298.000705102476
 30
0.0
 11
-2619.746371008233
 21
-3268.000705102476
 31
0.0
  0
LINE
  5
20C
330
1F
100
AcDbEntity
  8
0-C_ハッチ
  6
Continuous
 62
   120
370
     5
100
AcDbLine
 10
-2675.202215130958
 20
-3298.000705102476
 30
0.0
 11
-2645.202215130931
 21
-3268.000705102476
 31
0.0
  0
LINE
  5
20D
330
1F
100
AcDbEntity
  8
0-C_ハッチ
  6
Continuous
 62
   120
370
     5
100
AcDbLine
 10
-2700.658059253657
 20
-3298.000705102476
 30
0.0
 11
-2670.658059253657
 21
-3268.000705102473
 31
0.0
  0
LINE
  5
20E
330
1F
100
AcDbEntity
  8
0-C_ハッチ
  6
Continuous
 62
   120
370
     5
100
AcDbLine
 10
-2624.290526885507
 20
-3298.000705102476
 30
0.0
 11
-2591.878602170828
 21
-3265.588780387787
 31
0.0
  0
LINE
  5
20F
330
1F
100
AcDbEntity
  8
0-7_金物
  6
Continuous
 62
     7
370
     9
100
AcDbLine
 10
-2618.688823559351
 20
-3229.367745736701
 30
0.0
 11
-2702.689694547526
 21
-3229.367745736701
 31
0.0
  0
LINE
  5
210
330
1F
100
AcDbEntity
  8
0-7_金物
  6
Continuous
 62
     7
370
     9
100
AcDbLine
 10
-2651.689377824551
 20
-3175.000705102475
 30
0.0
 11
-2651.689377824551
 21
-3229.367745736701
 31
0.0
  0
LINE
  5
211
330
1F
100
AcDbEntity
  8
0-7_金物
  6
Continuous
 62
     7
370
     9
100
AcDbLine
 10
-2669.689140282327
 20
-3175.000705102475
 30
0.0
 11
-2669.689140282327
 21
-3229.367745736701
 31
0.0
  0
LINE
  5
212
330
1F
100
AcDbEntity
  8
0-7_金物
  6
Continuous
 62
     7
370
     9
100
AcDbLine
 10
-2636.690070656051
 20
-3241.3677457367
 30
0.0
 11
-2684.689932089751
 21
-3241.3677457367
 31
0.0
  0
LINE
  5
213
330
1F
100
AcDbEntity
  8
0-7_金物
  6
Continuous
 62
     7
370
     9
100
AcDbLine
 10
-2651.689377824551
 20
-3246.065143329607
 30
0.0
 11
-2669.689140282327
 21
-3246.065143329607
 31
0.0
  0
LINE
  5
214
330
1F
100
AcDbEntity
  8
0-7_金物
  6
Continuous
 62
     7
370
     9
100
AcDbLine
 10
-2651.689377824551
 20
-3241.3677457367
 30
0.0
 11
-2651.689377824551
 21
-3246.065143329607
 31
0.0
  0
LINE
  5
215
330
1F
100
AcDbEntity
  8
0-7_金物
  6
Continuous
 62
     7
370
     9
100
AcDbLine
 10
-2669.689140282327
 20
-3241.3677457367
 30
0.0
 11
-2669.689140282327
 21
-3246.065143329607
 31
0.0
  0
LINE
  5
216
330
1F
100
AcDbEntity
  8
0-7_金物
  6
Continuous
 62
     7
370
     9
100
AcDbLine
 10
-2636.690070656051
 20
-3241.3677457367
 30
0.0
 11
-2636.690070656051
 21
-3253.367745736703
 31
0.0
  0
LINE
  5
217
330
1F
100
AcDbEntity
  8
0-7_金物
  6
Continuous
 62
     7
370
     9
100
AcDbLine
 10
-2618.688823559351
 20
-3229.367745736701
 30
0.0
 11
-2618.688823559351
 21
-3253.367745736703
 31
0.0
  0
LINE
  5
218
330
1F
100
AcDbEntity
  8
0-7_金物
  6
Continuous
 62
     7
370
     9
100
AcDbLine
 10
-2684.689932089751
 20
-3241.3677457367
 30
0.0
 11
-2684.689932089751
 21
-3253.367745736703
 31
0.0
  0
LINE
  5
219
330
1F
100
AcDbEntity
  8
0-7_金物
  6
Continuous
 62
     7
370
     9
100
AcDbLine
 10
-2702.689694547526
 20
-3229.367745736701
 30
0.0
 11
-2702.689694547526
 21
-3253.367745736703
 31
0.0
  0
LINE
  5
21A
330
1F
100
AcDbEntity
  8
0-7_金物
  6
Continuous
 62
     7
370
     9
100
AcDbLine
 10
-2702.689694547526
 20
-3253.367745736703
 30
0.0
 11
-2618.688823559351
 21
-3253.367745736703
 31
0.0
  0
LINE
  5
21B
330
1F
100
AcDbEntity
  8
0-7_金物
  6
Continuous
 62
     7
370
     9
100
AcDbLine
 10
-2711.689459170403
 20
-3260.800705102476
 30
0.0
 11
-2699.689459170387
 21
-3260.800705102476
 31
0.0
  0
LINE
  5
21C
330
1F
100
AcDbEntity
  8
0-7_金物
  6
Continuous
 62
     7
370
     9
100
AcDbLine
 10
-2693.689459170392
 20
-3260.800705102476
 30
0.0
 11
-2662.489459170393
 21
-3260.800705102476
 31
0.0
  0
LINE
  5
21D
330
1F
100
AcDbEntity
  8
0-7_金物
  6
Continuous
 62
     7
370
     9
100
AcDbLine
 10
-2662.489459170393
 20
-3260.800705102476
 30
0.0
 11
-2660.689459170381
 21
-3262.600705102478
 31
0.0
  0
LINE
  5
21E
330
1F
100
AcDbEntity
  8
0-7_金物
  6
Continuous
 62
     7
370
     9
100
AcDbLine
 10
-2660.689459170381
 20
-3262.600705102478
 30
0.0
 11
-2658.889459170397
 21
-3260.800705102476
 31
0.0
  0
LINE
  5
21F
330
1F
100
AcDbEntity
  8
0-7_金物
  6
Continuous
 62
     7
370
     9
100
AcDbLine
 10
-2658.889459170397
 20
-3260.800705102476
 30
0.0
 11
-2627.689459170398
 21
-3260.800705102476
 31
0.0
  0
LINE
  5
220
330
1F
100
AcDbEntity
  8
0-7_金物
  6
Continuous
 62
     7
370
     9
100
AcDbLine
 10
-2621.689459170403
 20
-3260.800705102476
 30
0.0
 11
-2609.689459170387
 21
-3260.800705102476
 31
0.0
  0
LINE
  5
221
330
1F
100
AcDbEntity
  8
0-7_金物
  6
Continuous
 62
     7
370
     9
100
AcDbLine
 10
-2566.489459170399
 20
-3226.000705102477
 30
0.0
 11
-2602.489459170393
 21
-3226.000705102477
 31
0.0
  0
LINE
  5
222
330
1F
100
AcDbEntity
  8
0-7_金物
  6
Continuous
 62
     7
370
     9
100
AcDbLine
 10
-2718.889459170397
 20
-3226.000705102477
 30
0.0
 11
-2754.889459170391
 21
-3226.000705102477
 31
0.0
  0
LINE
  5
223
330
1F
100
AcDbEntity
  8
0-7_金物
  6
Continuous
 62
     7
370
     9
100
AcDbLine
 10
-2718.889459170397
 20
-3218.800705102477
 30
0.0
 11
-2754.889459170391
 21
-3222.400705102476
 31
0.0
  0
ARC
  5
224
330
1F
100
AcDbEntity
  8
0-7_金物
  6
Continuous
 62
     7
370
     9
100
AcDbCircle
 10
-2754.889459170391
 20
-3224.200705102478
 30
0.0
 40
1.8
100
AcDbArc
 50
90.0
 51
270.0
  0
ARC
  5
225
330
1F
100
AcDbEntity
  8
0-7_金物
  6
Continuous
 62
     7
370
     9
100
AcDbCircle
 10
-2566.489459170399
 20
-3224.200705102478
 30
0.0
 40
1.8
100
AcDbArc
 50
270.0
 51
89.99999999999997
  0
LINE
  5
226
330
1F
100
AcDbEntity
  8
0-7_金物
  6
Continuous
 62
     7
370
     9
100
AcDbLine
 10
-2566.489459170399
 20
-3222.400705102476
 30
0.0
 11
-2602.489459170393
 21
-3218.800705102477
 31
0.0
  0
LINE
  5
227
330
1F
100
AcDbEntity
  8
0-7_金物
  6
Continuous
 62
     7
370
     9
100
AcDbLine
 10
-2697.289459170389
 20
-3218.800705102477
 30
0.0
 11
-2718.889459170397
 21
-3218.800705102477
 31
0.0
  0
ARC
  5
228
330
1F
100
AcDbEntity
  8
0-7_金物
  6
Continuous
 62
     7
370
     9
100
AcDbCircle
 10
-2697.289459170389
 20
-3222.400705102476
 30
0.0
 40
3.600000000000001
100
AcDbArc
 50
0.0
 51
90.0
  0
ARC
  5
229
330
1F
100
AcDbEntity
  8
0-7_金物
  6
Continuous
 62
     7
370
     9
100
AcDbCircle
 10
-2697.289459170389
 20
-3222.400705102476
 30
0.0
 40
3.600000000000001
100
AcDbArc
 50
270.0
 51
0.0
  0
ARC
  5
22A
330
1F
100
AcDbEntity
  8
0-7_金物
  6
Continuous
 62
     7
370
     9
100
AcDbCircle
 10
-2624.089459170401
 20
-3222.400705102476
 30
0.0
 40
3.600000000000001
100
AcDbArc
 50
180.0
 51
270.0
  0
LINE
  5
22B
330
1F
100
AcDbEntity
  8
0-7_金物
  6
Continuous
 62
     7
370
     9
100
AcDbLine
 10
-2624.089459170401
 20
-3218.800705102477
 30
0.0
 11
-2602.489459170393
 21
-3218.800705102477
 31
0.0
  0
ARC
  5
22C
330
1F
100
AcDbEntity
  8
0-7_金物
  6
Continuous
 62
     7
370
     9
100
AcDbCircle
 10
-2624.089459170401
 20
-3222.400705102476
 30
0.0
 40
3.600000000000001
100
AcDbArc
 50
90.0
 51
180.0
  0
LINE
  5
22D
330
1F
100
AcDbEntity
  8
0-7_金物
  6
Continuous
 62
     7
370
     9
100
AcDbLine
 10
-2602.489459170393
 20
-3259.000705102477
 30
0.0
 11
-2602.489459170393
 21
-3226.000705102477
 31
0.0
  0
ARC
  5
22E
330
1F
100
AcDbEntity
  8
0-7_金物
  6
Continuous
 62
     7
370
     9
100
AcDbCircle
 10
-2611.489459170399
 20
-3259.000705102477
 30
0.0
 40
9.000000000000002
100
AcDbArc
 50
270.0
 51
0.0
  0
LINE
  5
22F
330
1F
100
AcDbEntity
  8
0-7_金物
  6
Continuous
 62
     7
370
     9
100
AcDbLine
 10
-2718.889459170397
 20
-3259.000705102477
 30
0.0
 11
-2718.889459170397
 21
-3226.000705102477
 31
0.0
  0
LINE
  5
230
330
1F
100
AcDbEntity
  8
0-7_金物
  6
Continuous
 62
     7
370
     9
100
AcDbLine
 10
-2709.889459170391
 20
-3268.000705102476
 30
0.0
 11
-2611.489459170399
 21
-3268.000705102476
 31
0.0
  0
ARC
  5
231
330
1F
100
AcDbEntity
  8
0-7_金物
  6
Continuous
 62
     7
370
     9
100
AcDbCircle
 10
-2709.889459170391
 20
-3259.000705102477
 30
0.0
 40
9.000000000000002
100
AcDbArc
 50
180.0
 51
270.0
  0
LINE
  5
232
330
1F
100
AcDbEntity
  8
0-7_金物
  6
Continuous
 62
     7
370
     9
100
AcDbLine
 10
-2708.689459170392
 20
-3226.000705102477
 30
0.0
 11
-2697.289459170389
 21
-3226.000705102477
 31
0.0
  0
LINE
  5
233
330
1F
100
AcDbEntity
  8
0-7_金物
  6
Continuous
 62
     7
370
     9
100
AcDbLine
 10
-2711.689459170403
 20
-3229.000705102477
 30
0.0
 11
-2711.689459170403
 21
-3260.800705102476
 31
0.0
  0
ARC
  5
234
330
1F
100
AcDbEntity
  8
0-7_金物
  6
Continuous
 62
     7
370
     9
100
AcDbCircle
 10
-2708.689459170392
 20
-3229.000705102477
 30
0.0
 40
3.0
100
AcDbArc
 50
90.0
 51
180.0
  0
LINE
  5
235
330
1F
100
AcDbEntity
  8
0-7_金物
  6
Continuous
 62
     7
370
     9
100
AcDbLine
 10
-2612.689459170398
 20
-3226.000705102477
 30
0.0
 11
-2624.089459170401
 21
-3226.000705102477
 31
0.0
  0
LINE
  5
236
330
1F
100
AcDbEntity
  8
0-7_金物
  6
Continuous
 62
     7
370
     9
100
AcDbLine
 10
-2609.689459170387
 20
-3229.000705102477
 30
0.0
 11
-2609.689459170387
 21
-3260.800705102476
 31
0.0
  0
ARC
  5
237
330
1F
100
AcDbEntity
  8
0-7_金物
  6
Continuous
 62
     7
370
     9
100
AcDbCircle
 10
-2612.689459170398
 20
-3229.000705102477
 30
0.0
 40
3.0
100
AcDbArc
 50
0.0
 51
90.0
  0
LINE
  5
238
330
1F
100
AcDbEntity
  8
0-7_金物
  6
Continuous
 62
     7
370
     9
100
AcDbLine
 10
-2699.689459170387
 20
-3256.000705102477
 30
0.0
 11
-2699.689459170387
 21
-3260.800705102476
 31
0.0
  0
ARC
  5
239
330
1F
100
AcDbEntity
  8
0-7_金物
  6
Continuous
 62
     7
370
     9
100
AcDbCircle
 10
-2698.489459170388
 20
-3256.000705102477
 30
0.0
 40
1.2
100
AcDbArc
 50
90.0
 51
180.0
  0
LINE
  5
23A
330
1F
100
AcDbEntity
  8
0-7_金物
  6
Continuous
 62
     7
370
     9
100
AcDbLine
 10
-2694.889459170391
 20
-3254.800705102478
 30
0.0
 11
-2698.489459170388
 21
-3254.800705102478
 31
0.0
  0
LINE
  5
23B
330
1F
100
AcDbEntity
  8
0-7_金物
  6
Continuous
 62
     7
370
     9
100
AcDbLine
 10
-2693.689459170392
 20
-3256.000705102477
 30
0.0
 11
-2693.689459170392
 21
-3260.800705102476
 31
0.0
  0
ARC
  5
23C
330
1F
100
AcDbEntity
  8
0-7_金物
  6
Continuous
 62
     7
370
     9
100
AcDbCircle
 10
-2694.889459170391
 20
-3256.000705102477
 30
0.0
 40
1.2
100
AcDbArc
 50
0.0
 51
90.0
  0
LINE
  5
23D
330
1F
100
AcDbEntity
  8
0-7_金物
  6
Continuous
 62
     7
370
     9
100
AcDbLine
 10
-2627.689459170398
 20
-3256.000705102477
 30
0.0
 11
-2627.689459170398
 21
-3260.800705102476
 31
0.0
  0
ARC
  5
23E
330
1F
100
AcDbEntity
  8
0-7_金物
  6
Continuous
 62
     7
370
     9
100
AcDbCircle
 10
-2626.489459170399
 20
-3256.000705102477
 30
0.0
 40
1.2
100
AcDbArc
 50
90.0
 51
180.0
  0
LINE
  5
23F
330
1F
100
AcDbEntity
  8
0-7_金物
  6
Continuous
 62
     7
370
     9
100
AcDbLine
 10
-2622.889459170402
 20
-3254.800705102478
 30
0.0
 11
-2626.489459170399
 21
-3254.800705102478
 31
0.0
  0
LINE
  5
240
330
1F
100
AcDbEntity
  8
0-7_金物
  6
Continuous
 62
     7
370
     9
100
AcDbLine
 10
-2621.689459170403
 20
-3256.000705102477
 30
0.0
 11
-2621.689459170403
 21
-3260.800705102476
 31
0.0
  0
ARC
  5
241
330
1F
100
AcDbEntity
  8
0-7_金物
  6
Continuous
 62
     7
370
     9
100
AcDbCircle
 10
-2622.889459170402
 20
-3256.000705102477
 30
0.0
 40
1.2
100
AcDbArc
 50
0.0
 51
90.0
  0
ARC
  5
242
330
1F
100
AcDbEntity
  8
0-7_金物
  6
JWW_DASHED1
 62
     7
370
     9
100
AcDbCircle
 10
-2754.889459170391
 20
-3224.200705102478
 30
0.0
 40
1.8
100
AcDbArc
 50
270.0
 51
90.0
  0
ARC
  5
243
330
1F
100
AcDbEntity
  8
0-7_金物
  6
JWW_DASHED1
 62
     7
370
     9
100
AcDbCircle
 10
-2566.489459170399
 20
-3224.200705102478
 30
0.0
 40
1.8
100
AcDbArc
 50
90.0
 51
270.0
  0
LINE
  5
244
330
1F
100
AcDbEntity
  8
0-B_寸法
  6
Continuous
 62
   120
370
     5
100
AcDbLine
 10
-3623.689459170392
 20
-249.8536340398266
 30
0.0
 11
-2951.689413394025
 21
-249.8536340398266
 31
0.0
  0
LINE
  5
245
330
1F
100
AcDbEntity
  8
0-B_寸法
  6
Continuous
 62
   120
370
     5
100
AcDbLine
 10
-1499.689459170387
 20
-249.9995550206484
 30
0.0
 11
-2069.689459170387
 21
-249.9995550206484
 31
0.0
  0
LWPOLYLINE
  5
246
330
1F
100
AcDbEntity
  8
0-B_寸法
  6
Continuous
 62
     7
370
     9
100
AcDbPolyline
 90
        4
 70
     1
 43
3.0
 10
-3622.189459170393
 20
-249.8536340398266
 42
0.4142135623731
 10
-3623.689459170392
 20
-248.3536340398266
 42
0.4142135623731
 10
-3625.189459170392
 20
-249.8536340398266
 42
0.4142135623731
 10
-3623.689459170392
 20
-251.3536340398266
 42
0.4142135623731
  0
LINE
  5
247
330
1F
100
AcDbEntity
  8
0-B_寸法
  6
Continuous
 62
   120
370
     5
100
AcDbLine
 10
-3623.689459170392
 20
-249.8536340398266
 30
0.0
 11
-3623.689459170392
 21
-3297.99994082065
 31
0.0
  0
LWPOLYLINE
  5
248
330
1F
100
AcDbEntity
  8
0-B_寸法
  6
Continuous
 62
     7
370
     9
100
AcDbPolyline
 90
        4
 70
     1
 43
3.0
 10
-1498.189459170387
 20
-249.9995550206484
 42
0.4142135623731
 10
-1499.689459170387
 20
-248.4995550206483
 42
0.4142135623731
 10
-1501.189459170387
 20
-249.9995550206484
 42
0.4142135623731
 10
-1499.689459170387
 20
-251.4995550206484
 42
0.4142135623731
  0
LINE
  5
249
330
1F
100
AcDbEntity
  8
0-B_寸法
  6
Continuous
 62
   120
370
     5
100
AcDbLine
 10
-1499.689459170387
 20
-249.9995550206484
 30
0.0
 11
-1499.689459170387
 21
-3297.999941026771
 31
0.0
  0
LINE
  5
24A
330
1F
100
AcDbEntity
  8
0-B_寸法
  6
Continuous
 62
   120
370
     5
100
AcDbLine
 10
-2069.689459170387
 20
-297.9991294241532
 30
0.0
 11
-2069.689459170387
 21
-513.998946318683
 31
0.0
  0
LWPOLYLINE
  5
24B
330
1F
100
AcDbEntity
  8
0-B_寸法
  6
Continuous
 62
     7
370
     9
100
AcDbPolyline
 90
        4
 70
     1
 43
3.0
 10
-2068.189459170387
 20
-297.9991294241532
 42
0.4142135623731
 10
-2069.689459170387
 20
-296.4991294241532
 42
0.4142135623731
 10
-2071.189459170387
 20
-297.9991294241532
 42
0.4142135623731
 10
-2069.689459170387
 20
-299.4991294241532
 42
0.4142135623731
  0
LWPOLYLINE
  5
24C
330
1F
100
AcDbEntity
  8
0-B_寸法
  6
Continuous
 62
     7
370
     9
100
AcDbPolyline
 90
        4
 70
     1
 43
3.0
 10
-2068.189459170387
 20
-399.9991294241525
 42
0.4142135623731
 10
-2069.689459170387
 20
-398.4991294241525
 42
0.4142135623731
 10
-2071.189459170387
 20
-399.9991294241525
 42
0.4142135623731
 10
-2069.689459170387
 20
-401.4991294241525
 42
0.4142135623731
  0
LWPOLYLINE
  5
24D
330
1F
100
AcDbEntity
  8
0-B_寸法
  6
Continuous
 62
     7
370
     9
100
AcDbPolyline
 90
        4
 70
     1
 43
3.0
 10
-2068.189459170387
 20
-453.9991294241524
 42
0.4142135623731
 10
-2069.689459170387
 20
-452.4991294241524
 42
0.4142135623731
 10
-2071.189459170387
 20
-453.9991294241524
 42
0.4142135623731
 10
-2069.689459170387
 20
-455.4991294241524
 42
0.4142135623731
  0
LWPOLYLINE
  5
24E
330
1F
100
AcDbEntity
  8
0-B_寸法
  6
Continuous
 62
     7
370
     9
100
AcDbPolyline
 90
        4
 70
     1
 43
3.0
 10
-2068.189459170387
 20
-513.998946318683
 42
0.4142135623731
 10
-2069.689459170387
 20
-512.498946318683
 42
0.4142135623731
 10
-2071.189459170387
 20
-513.998946318683
 42
0.4142135623731
 10
-2069.689459170387
 20
-515.4989463186831
 42
0.4142135623731
  0
LWPOLYLINE
  5
24F
330
1F
100
AcDbEntity
  8
0-B_寸法
  6
Continuous
 62
     7
370
     9
100
AcDbPolyline
 90
        4
 70
     1
 43
3.0
 10
-2068.189459170387
 20
-345.9991294241518
 42
0.4142135623731
 10
-2069.689459170387
 20
-344.4991294241517
 42
0.4142135623731
 10
-2071.189459170387
 20
-345.9991294241518
 42
0.4142135623731
 10
-2069.689459170387
 20
-347.4991294241518
 42
0.4142135623731
  0
LINE
  5
250
330
1F
100
AcDbEntity
  8
0-B_寸法
  6
Continuous
 62
   120
370
     5
100
AcDbLine
 10
-2181.183759762217
 20
-453.9991294241524
 30
0.0
 11
-2201.689504946754
 21
-453.9991294241524
 31
0.0
  0
LINE
  5
251
330
1F
100
AcDbEntity
  8
0-B_寸法
  6
Continuous
 62
   120
370
     5
100
AcDbLine
 10
-2069.689459170387
 20
-453.9991294241524
 30
0.0
 11
-2082.221749292404
 21
-453.9991294241524
 31
0.0
  0
LINE
  5
252
330
1F
100
AcDbEntity
  8
0-B_寸法
  6
Continuous
 62
   120
370
     5
100
AcDbLine
 10
-2069.689459170387
 20
-399.9991294241525
 30
0.0
 11
-2201.689504946754
 21
-399.9991294241525
 31
0.0
  0
LINE
  5
253
330
1F
100
AcDbEntity
  8
0-B_寸法
  6
Continuous
 62
   120
370
     5
100
AcDbLine
 10
-2181.183759762217
 20
-345.9991294241518
 30
0.0
 11
-2201.689504946754
 21
-345.9991294241518
 31
0.0
  0
LINE
  5
254
330
1F
100
AcDbEntity
  8
0-B_寸法
  6
Continuous
 62
   120
370
     5
100
AcDbLine
 10
-2069.689459170387
 20
-345.9991294241518
 30
0.0
 11
-2082.221749292404
 21
-345.9991294241518
 31
0.0
  0
LINE
  5
255
330
1F
100
AcDbEntity
  8
0-B_寸法
  6
Continuous
 62
   120
370
     5
100
AcDbLine
 10
-2201.689504946754
 20
-297.9995698670362
 30
0.0
 11
-1499.689459170387
 21
-297.9995698670362
 31
0.0
  0
LINE
  5
256
330
1F
100
AcDbEntity
  8
0-B_寸法
  6
Continuous
 62
   120
370
     5
100
AcDbLine
 10
-2201.689504946754
 20
-513.998946318683
 30
0.0
 11
-1859.689459170387
 21
-513.998946318683
 31
0.0
  0
LINE
  5
257
330
1F
100
AcDbEntity
  8
0-4_枠
  6
Continuous
 62
    92
370
    13
100
AcDbLine
 10
-2891.689459170403
 20
-513.9993719151794
 30
0.0
 11
-2744.690135444681
 21
-513.9993719151794
 31
0.0
  0
LINE
  5
258
330
1F
100
AcDbEntity
  8
0-4_枠
  6
Continuous
 62
    92
370
    13
100
AcDbLine
 10
-2744.690135444681
 20
-513.9993719151794
 30
0.0
 11
-2744.690135444681
 21
-393.9989141515075
 31
0.0
  0
LINE
  5
259
330
1F
100
AcDbEntity
  8
0-4_枠
  6
Continuous
 62
    92
370
    13
100
AcDbLine
 10
-2744.690135444681
 20
-393.9989141515075
 30
0.0
 11
-2576.689882601778
 21
-393.9989141515075
 31
0.0
  0
LINE
  5
25A
330
1F
100
AcDbEntity
  8
0-4_枠
  6
Continuous
 62
    92
370
    13
100
AcDbLine
 10
-2576.689882601778
 20
-393.9989141515075
 30
0.0
 11
-2576.689882601778
 21
-513.9993719151794
 31
0.0
  0
LINE
  5
25B
330
1F
100
AcDbEntity
  8
0-7_金物
  6
Continuous
 62
     7
370
     9
100
AcDbLine
 10
-2726.869271601728
 20
-500.7871221593193
 30
0.0
 11
-2726.869271601728
 21
-434.7871221593201
 31
0.0
  0
LINE
  5
25C
330
1F
100
AcDbEntity
  8
0-7_金物
  6
Continuous
 62
     7
370
     9
100
AcDbLine
 10
-2726.869271601728
 20
-434.7871221593201
 30
0.0
 11
-2690.690105761579
 21
-434.7871221593201
 31
0.0
  0
LINE
  5
25D
330
1F
100
AcDbEntity
  8
0-7_金物
  6
Continuous
 62
     7
370
     9
100
AcDbLine
 10
-2690.690105761579
 20
-513.9993719151794
 30
0.0
 11
-2690.690105761579
 21
-417.9989141515082
 31
0.0
  0
LINE
  5
25E
330
1F
100
AcDbEntity
  8
0-7_金物
  6
Continuous
 62
     7
370
     9
100
AcDbLine
 10
-2690.690105761579
 20
-417.9989141515082
 30
0.0
 11
-2630.688417758039
 21
-417.9989141515082
 31
0.0
  0
LINE
  5
25F
330
1F
100
AcDbEntity
  8
0-7_金物
  6
Continuous
 62
     7
370
     9
100
AcDbLine
 10
-2630.688417758039
 20
-417.9989141515082
 30
0.0
 11
-2630.688417758039
 21
-513.9993719151794
 31
0.0
  0
LINE
  5
260
330
1F
100
AcDbEntity
  8
0-7_金物
  6
Continuous
 62
     7
370
     9
100
AcDbLine
 10
-2594.870024050752
 20
-434.7871221593201
 30
0.0
 11
-2594.870024050752
 21
-500.7871221593193
 31
0.0
  0
LINE
  5
261
330
1F
100
AcDbEntity
  8
0-7_金物
  6
Continuous
 62
     7
370
     9
100
AcDbLine
 10
-2630.688417758039
 20
-434.7871221593201
 30
0.0
 11
-2594.870024050752
 21
-434.7871221593201
 31
0.0
  0
LINE
  5
262
330
1F
100
AcDbEntity
  8
0-7_金物
  6
Continuous
 62
     7
370
     9
100
AcDbLine
 10
-2576.689882601778
 20
-513.9993719151794
 30
0.0
 11
-2558.69011148363
 21
-513.9993719151794
 31
0.0
  0
LINE
  5
263
330
1F
100
AcDbEntity
  8
0-7_金物
  6
Continuous
 62
     7
370
     9
100
AcDbLine
 10
-2595.693998660127
 20
-519.9994634679131
 30
0.0
 11
-2595.693998660127
 21
-513.9993719151794
 31
0.0
  0
LINE
  5
264
330
1F
100
AcDbEntity
  8
0-7_金物
  6
Continuous
 62
     7
370
     9
100
AcDbLine
 10
-2588.69021448044
 20
-513.9993719151794
 30
0.0
 11
-2595.693998660127
 21
-513.9993719151794
 31
0.0
  0
LINE
  5
265
330
1F
100
AcDbEntity
  8
0-7_金物
  6
Continuous
 62
     7
370
     9
100
AcDbLine
 10
-2744.690135444681
 20
-513.9993719151794
 30
0.0
 11
-2762.688413466504
 21
-513.9993719151794
 31
0.0
  0
LINE
  5
266
330
1F
100
AcDbEntity
  8
0-7_金物
  6
Continuous
 62
     7
370
     9
100
AcDbLine
 10
-2724.903611506507
 20
-519.9994634679131
 30
0.0
 11
-2724.903611506507
 21
-513.9993719151794
 31
0.0
  0
LINE
  5
267
330
1F
100
AcDbEntity
  8
0-7_金物
  6
Continuous
 62
     7
370
     9
100
AcDbLine
 10
-2724.903611506507
 20
-513.9993719151794
 30
0.0
 11
-2732.690542067568
 21
-513.9993719151794
 31
0.0
  0
LINE
  5
268
330
1F
100
AcDbEntity
  8
0-7_金物
  6
Continuous
 62
     7
370
     9
100
AcDbLine
 10
-2558.69011148363
 20
-513.9993719151794
 30
0.0
 11
-2558.69011148363
 21
-519.9994634679131
 31
0.0
  0
LINE
  5
269
330
1F
100
AcDbEntity
  8
0-7_金物
  6
Continuous
 62
     7
370
     9
100
AcDbLine
 10
-2724.903611506507
 20
-519.9994634679131
 30
0.0
 11
-2762.688413466504
 21
-519.9994634679131
 31
0.0
  0
LINE
  5
26A
330
1F
100
AcDbEntity
  8
0-7_金物
  6
Continuous
 62
     7
370
     9
100
AcDbLine
 10
-2762.688413466504
 20
-513.9993719151794
 30
0.0
 11
-2762.688413466504
 21
-519.9994634679131
 31
0.0
  0
LINE
  5
26B
330
1F
100
AcDbEntity
  8
0-7_金物
  6
Continuous
 62
     7
370
     9
100
AcDbLine
 10
-2648.689665164039
 20
-558.9994634679138
 30
0.0
 11
-2672.690346087512
 21
-558.9994634679138
 31
0.0
  0
LINE
  5
26C
330
1F
100
AcDbEntity
  8
0-7_金物
  6
Continuous
 62
     7
370
     9
100
AcDbLine
 10
-2648.689665164039
 20
-513.9993719151794
 30
0.0
 11
-2648.689665164039
 21
-558.9994634679138
 31
0.0
  0
LINE
  5
26D
330
1F
100
AcDbEntity
  8
0-7_金物
  6
Continuous
 62
     7
370
     9
100
AcDbLine
 10
-2672.690346087512
 20
-558.9994634679138
 30
0.0
 11
-2672.690346087512
 21
-513.9993719151794
 31
0.0
  0
LINE
  5
26E
330
1F
100
AcDbEntity
  8
0-7_金物
  6
Continuous
 62
     7
370
     9
100
AcDbLine
 10
-2690.690105761579
 20
-500.7871221593193
 30
0.0
 11
-2726.869271601728
 21
-500.7871221593193
 31
0.0
  0
LINE
  5
26F
330
1F
100
AcDbEntity
  8
0-7_金物
  6
Continuous
 62
     7
370
     9
100
AcDbLine
 10
-2594.870024050752
 20
-500.7871221593193
 30
0.0
 11
-2630.688417758039
 21
-500.7871221593193
 31
0.0
  0
LINE
  5
270
330
1F
100
AcDbEntity
  8
0-7_金物
  6
Continuous
 62
     7
370
     9
100
AcDbLine
 10
-2630.688417758039
 20
-513.9993719151794
 30
0.0
 11
-2690.690105761579
 21
-513.9993719151794
 31
0.0
  0
LINE
  5
271
330
1F
100
AcDbEntity
  8
0-7_金物
  6
Continuous
 62
     7
370
     9
100
AcDbLine
 10
-2595.693998660127
 20
-519.9994634679131
 30
0.0
 11
-2558.69011148363
 21
-519.9994634679131
 31
0.0
  0
LINE
  5
272
330
1F
100
AcDbEntity
  8
0-4_枠
  6
Continuous
 62
    92
370
    13
100
AcDbLine
 10
-2891.689459170403
 20
-297.9995550206482
 30
0.0
 11
-2471.689459170403
 21
-297.9995550206482
 31
0.0
  0
LINE
  5
273
330
1F
100
AcDbEntity
  8
0-4_枠
  6
Continuous
 62
    92
370
    13
100
AcDbLine
 10
-2429.689459170387
 20
-513.9993719151794
 30
0.0
 11
-2576.689882601778
 21
-513.9993719151794
 31
0.0
  0
LINE
  5
274
330
1F
100
AcDbEntity
  8
0-B_寸法
  6
Continuous
 62
   120
370
     5
100
AcDbLine
 10
-2429.689459170387
 20
-809.4818943247847
 30
0.0
 11
-2891.689459170403
 21
-809.4818943247847
 31
0.0
  0
LWPOLYLINE
  5
275
330
1F
100
AcDbEntity
  8
0-B_寸法
  6
Continuous
 62
     7
370
     9
100
AcDbPolyline
 90
        4
 70
     1
 43
3.0
 10
-2890.189459170404
 20
-809.4818943247847
 42
0.4142135623731
 10
-2891.689459170403
 20
-807.9818943247847
 42
0.4142135623731
 10
-2893.189459170403
 20
-809.4818943247847
 42
0.4142135623731
 10
-2891.689459170403
 20
-810.9818943247848
 42
0.4142135623731
  0
LINE
  5
276
330
1F
100
AcDbEntity
  8
0-B_寸法
  6
Continuous
 62
   120
370
     5
100
AcDbLine
 10
-2891.689459170403
 20
-809.4818943247847
 30
0.0
 11
-2891.689459170403
 21
-655.7709469028887
 31
0.0
  0
LWPOLYLINE
  5
277
330
1F
100
AcDbEntity
  8
0-B_寸法
  6
Continuous
 62
     7
370
     9
100
AcDbPolyline
 90
        4
 70
     1
 43
3.0
 10
-2428.189459170387
 20
-809.4818943247847
 42
0.4142135623731
 10
-2429.689459170387
 20
-807.9818943247847
 42
0.4142135623731
 10
-2431.189459170387
 20
-809.4818943247847
 42
0.4142135623731
 10
-2429.689459170387
 20
-810.9818943247848
 42
0.4142135623731
  0
LINE
  5
278
330
1F
100
AcDbEntity
  8
0-B_寸法
  6
Continuous
 62
   120
370
     5
100
AcDbLine
 10
-2429.689459170387
 20
-809.4818943247847
 30
0.0
 11
-2429.689459170387
 21
-655.7709469028887
 31
0.0
  0
LINE
  5
279
330
1F
100
AcDbEntity
  8
0-7_金物
  6
Continuous
 62
     7
370
     9
100
AcDbLine
 10
-2588.69021448044
 20
-513.9993719151794
 30
0.0
 11
-2588.69021448044
 21
-405.9992803624451
 31
0.0
  0
LINE
  5
27A
330
1F
100
AcDbEntity
  8
0-7_金物
  6
Continuous
 62
     7
370
     9
100
AcDbLine
 10
-2576.68988260246
 20
-513.9993719151794
 30
0.0
 11
-2576.68988260246
 21
-393.9989141524441
 31
0.0
  0
LINE
  5
27B
330
1F
100
AcDbEntity
  8
0-7_金物
  6
Continuous
 62
     7
370
     9
100
AcDbLine
 10
-2732.690542067568
 20
-513.9993719151794
 30
0.0
 11
-2732.690542067568
 21
-405.9992803624451
 31
0.0
  0
LINE
  5
27C
330
1F
100
AcDbEntity
  8
0-7_金物
  6
Continuous
 62
     7
370
     9
100
AcDbLine
 10
-2744.690873945575
 20
-513.9993719151794
 30
0.0
 11
-2744.690873945575
 21
-393.9989141524441
 31
0.0
  0
LINE
  5
27D
330
1F
100
AcDbEntity
  8
0-7_金物
  6
Continuous
 62
     7
370
     9
100
AcDbLine
 10
-2588.69021448044
 20
-405.9992803624451
 30
0.0
 11
-2732.690542067568
 21
-405.9992803624451
 31
0.0
  0
LINE
  5
27E
330
1F
100
AcDbEntity
  8
0-7_金物
  6
Continuous
 62
     7
370
     9
100
AcDbLine
 10
-2576.68988260246
 20
-393.9989141524441
 30
0.0
 11
-2744.690873945575
 21
-393.9989141524441
 31
0.0
  0
LINE
  5
27F
330
1F
100
AcDbEntity
  8
0-7_金物
  6
Continuous
 62
     7
370
     9
100
AcDbLine
 10
-2570.689155901965
 20
-261.853971640536
 30
0.0
 11
-2750.689018572858
 21
-261.853971640536
 31
0.0
  0
LINE
  5
280
330
1F
100
AcDbEntity
  8
0-7_金物
  6
Continuous
 62
     7
370
     9
100
AcDbLine
 10
-2750.689018572858
 20
-249.8536340398266
 30
0.0
 11
-2750.689018572858
 21
-261.853971640536
 31
0.0
  0
LINE
  5
281
330
1F
100
AcDbEntity
  8
0-7_金物
  6
Continuous
 62
     7
370
     9
100
AcDbLine
 10
-2570.689155901965
 20
-249.8536340398266
 30
0.0
 11
-2570.689155901965
 21
-261.853971640536
 31
0.0
  0
LINE
  5
282
330
1F
100
AcDbEntity
  8
0-7_金物
  6
Continuous
 62
     7
370
     9
100
AcDbLine
 10
-2570.689155901965
 20
-249.8536340398266
 30
0.0
 11
-2750.689018572858
 21
-249.8536340398266
 31
0.0
  0
LINE
  5
283
330
1F
100
AcDbEntity
  8
0-7_金物
  6
Continuous
 62
     7
370
     9
100
AcDbLine
 10
-2600.689258898775
 20
-261.853971640536
 30
0.0
 11
-2600.689258898775
 21
-273.8535653752756
 31
0.0
  0
LINE
  5
284
330
1F
100
AcDbEntity
  8
0-7_金物
  6
Continuous
 62
     7
370
     9
100
AcDbLine
 10
-2720.688915576021
 20
-261.853971640536
 30
0.0
 11
-2720.688915576021
 21
-273.8535653752756
 31
0.0
  0
LINE
  5
285
330
1F
100
AcDbEntity
  8
0-7_金物
  6
Continuous
 62
     7
370
     9
100
AcDbLine
 10
-2600.689258898775
 20
-273.8535653752756
 30
0.0
 11
-2720.688915576021
 21
-273.8535653752756
 31
0.0
  0
LINE
  5
286
330
1F
100
AcDbEntity
  8
0-7_金物
  6
Continuous
 62
     7
370
     9
100
AcDbLine
 10
-2606.689424838106
 20
-273.8535653752756
 30
0.0
 11
-2606.689424838106
 21
-297.9995550206525
 31
0.0
  0
LINE
  5
287
330
1F
100
AcDbEntity
  8
0-7_金物
  6
Continuous
 62
     7
370
     9
100
AcDbLine
 10
-2714.689493502657
 20
-297.9995550206525
 30
0.0
 11
-2714.689493502657
 21
-273.8535653752756
 31
0.0
  0
LINE
  5
288
330
1F
100
AcDbEntity
  8
0-4_枠
  6
Continuous
 62
    92
370
    13
100
AcDbLine
 10
-2471.689459170403
 20
-297.9995550206482
 30
0.0
 11
-2471.689459170403
 21
-345.9995550206489
 31
0.0
  0
LINE
  5
289
330
1F
100
AcDbEntity
  8
0-4_枠
  6
Continuous
 62
    92
370
    13
100
AcDbLine
 10
-2429.689459170387
 20
-345.9995550206489
 30
0.0
 11
-2471.689459170403
 21
-345.9995550206489
 31
0.0
  0
LINE
  5
28A
330
1F
100
AcDbEntity
  8
0-4_枠
  6
Continuous
 62
    92
370
    13
100
AcDbLine
 10
-2429.689459170387
 20
-345.9995550206489
 30
0.0
 11
-2429.689459170387
 21
-399.9995550206475
 31
0.0
  0
LINE
  5
28B
330
1F
100
AcDbEntity
  8
0-4_枠
  6
Continuous
 62
    92
370
    13
100
AcDbLine
 10
-2429.689459170387
 20
-399.9995550206475
 30
0.0
 11
-2489.689459170387
 21
-399.9995550206475
 31
0.0
  0
LINE
  5
28C
330
1F
100
AcDbEntity
  8
0-4_枠
  6
Continuous
 62
    92
370
    13
100
AcDbLine
 10
-2489.689459170387
 20
-399.9995550206475
 30
0.0
 11
-2489.689459170387
 21
-453.9995550206474
 31
0.0
  0
LINE
  5
28D
330
1F
100
AcDbEntity
  8
0-4_枠
  6
Continuous
 62
    92
370
    13
100
AcDbLine
 10
-2429.689459170387
 20
-453.9995550206474
 30
0.0
 11
-2489.689459170387
 21
-453.9995550206474
 31
0.0
  0
LINE
  5
28E
330
1F
100
AcDbEntity
  8
0-C_ハッチ
  6
Continuous
 62
   120
370
     5
100
AcDbLine
 10
-2432.789652964876
 20
-513.9993719151882
 30
0.0
 11
-2429.689459170387
 21
-510.8991781207024
 31
0.0
  0
LINE
  5
28F
330
1F
100
AcDbEntity
  8
0-C_ハッチ
  6
Continuous
 62
   120
370
     5
100
AcDbLine
 10
-2492.186622584496
 20
-513.9993719151678
 30
0.0
 11
-2432.186805689981
 21
-453.9995550206393
 31
0.0
  0
LINE
  5
290
330
1F
100
AcDbEntity
  8
0-C_ハッチ
  6
Continuous
 62
   120
370
     5
100
AcDbLine
 10
-2551.583592204225
 20
-513.9993719151848
 30
0.0
 11
-2489.689459170387
 21
-452.1052388813682
 31
0.0
  0
LINE
  5
291
330
1F
100
AcDbEntity
  8
0-C_ハッチ
  6
Continuous
 62
   120
370
     5
100
AcDbLine
 10
-2437.583775309678
 20
-399.9995550206475
 30
0.0
 11
-2429.689459170387
 21
-392.1052388813601
 31
0.0
  0
LINE
  5
292
330
1F
100
AcDbEntity
  8
0-C_ハッチ
  6
Continuous
 62
   120
370
     5
100
AcDbLine
 10
-2576.689882601778
 20
-479.7086926931107
 30
0.0
 11
-2442.980744929319
 21
-345.9995550206489
 31
0.0
  0
LINE
  5
293
330
1F
100
AcDbEntity
  8
0-C_ハッチ
  6
Continuous
 62
   120
370
     5
100
AcDbLine
 10
-2576.689882601778
 20
-420.3117230734088
 30
0.0
 11
-2471.689459170403
 21
-315.3112996420103
 31
0.0
  0
LINE
  5
294
330
1F
100
AcDbEntity
  8
0-C_ハッチ
  6
Continuous
 62
   120
370
     5
100
AcDbLine
 10
-2609.77404329955
 20
-393.9989141515164
 30
0.0
 11
-2513.774684168685
 21
-297.999555020655
 31
0.0
  0
LINE
  5
295
330
1F
100
AcDbEntity
  8
0-C_ハッチ
  6
Continuous
 62
   120
370
     5
100
AcDbLine
 10
-2789.171470682842
 20
-513.999371915176
 30
0.0
 11
-2744.690873945575
 21
-469.5187751779113
 31
0.0
  0
LINE
  5
296
330
1F
100
AcDbEntity
  8
0-C_ハッチ
  6
Continuous
 62
   120
370
     5
100
AcDbLine
 10
-2669.17101291917
 20
-393.9989141515007
 30
0.0
 11
-2573.171653788332
 21
-297.9995550206525
 31
0.0
  0
LINE
  5
297
330
1F
100
AcDbEntity
  8
0-C_ハッチ
  6
Continuous
 62
   120
370
     5
100
AcDbLine
 10
-2848.568440302571
 20
-513.9993719151828
 30
0.0
 11
-2744.690873945575
 21
-410.1218055581937
 31
0.0
  0
LINE
  5
298
330
1F
100
AcDbEntity
  8
0-C_ハッチ
  6
Continuous
 62
   120
370
     5
100
AcDbLine
 10
-2728.567982538899
 20
-393.9989141515164
 30
0.0
 11
-2632.568623408034
 21
-297.9995550206482
 31
0.0
  0
LINE
  5
299
330
1F
100
AcDbEntity
  8
0-C_ハッチ
  6
Continuous
 62
   120
370
     5
100
AcDbLine
 10
-2891.689459170403
 20
-497.7234211633713
 30
0.0
 11
-2691.965593027681
 21
-297.9995550206495
 31
0.0
  0
LINE
  5
29A
330
1F
100
AcDbEntity
  8
0-C_ハッチ
  6
Continuous
 62
   120
370
     5
100
AcDbLine
 10
-2891.689459170376
 20
-438.3264515436579
 30
0.0
 11
-2751.362562647383
 21
-297.9995550206495
 31
0.0
  0
LINE
  5
29B
330
1F
100
AcDbEntity
  8
0-C_ハッチ
  6
Continuous
 62
   120
370
     5
100
AcDbLine
 10
-2891.689459170403
 20
-378.9294819240243
 30
0.0
 11
-2810.75953226703
 21
-297.9995550206448
 31
0.0
  0
LINE
  5
29C
330
1F
100
AcDbEntity
  8
0-C_ハッチ
  6
Continuous
 62
   120
370
     5
100
AcDbLine
 10
-2891.689459170403
 20
-319.532512304319
 30
0.0
 11
-2870.156501886732
 21
-297.9995550206456
 31
0.0
  0
LINE
  5
29D
330
1F
100
AcDbEntity
  8
0-0_補助線
  6
JWW_HOJO
 62
   120
370
     5
100
AcDbLine
 10
-2890.375227192763
 20
-1797.999673791762
 30
0.0
 11
-2431.003691147999
 21
-1797.999673791762
 31
0.0
  0
LINE
  5
29E
330
1F
100
AcDbEntity
  8
0-0_補助線
  6
JWW_HOJO
 62
   120
370
     5
100
AcDbLine
 10
-2890.375227192763
 20
-1917.999673791762
 30
0.0
 11
-2431.003691147999
 21
-1917.999673791762
 31
0.0
  0
MTEXT
  5
29F
330
1F
100
AcDbEntity
  8
0-B_寸法
  6
Continuous
 62
     7
370
   211
100
AcDbMText
 10
-3638.689459170394
 20
-2178.206787533298
 30
0.0
 40
91.43999999999978
 41
779.9999999999983
 46
0.0
 71
     7
 72
     1
  1
{\fＭＳ ゴシック|b0|i0|c128|p49;ＲＯＨ＝2,356}
 11
6.123031769111886E-17
 21
1.0
 31
0.0
 73
     1
 44
1.0
  0
MTEXT
  5
2A0
330
1F
100
AcDbEntity
  8
0-B_寸法
  6
Continuous
 62
     7
370
     0
100
AcDbMText
 10
-1874.688766338886
 20
-2211.279277888047
 30
0.0
 40
91.44000000000014
 41
660.0000000000009
 46
0.0
 71
     7
 72
     1
  1
{\fＭＳ ゴシック|b0|i0|c128|p49;ＤＨ＝2,284}
 11
6.123031769111886E-17
 21
1.0
 31
0.0
 73
     1
 44
1.0
  0
MTEXT
  5
2A1
330
1F
100
AcDbEntity
  8
0-B_寸法
  6
Continuous
 62
     7
370
     0
100
AcDbMText
 10
-1694.688766338886
 20
-2211.279277888047
 30
0.0
 40
91.44000000000014
 41
660.0000000000009
 46
0.0
 71
     7
 72
     1
  1
{\fＭＳ ゴシック|b0|i0|c128|p49;枠内＝2,300}
 11
6.123031769111886E-17
 21
1.0
 31
0.0
 73
     1
 44
1.0
  0
MTEXT
  5
2A2
330
1F
100
AcDbEntity
  8
0-B_寸法
  6
Continuous
 62
     7
370
     0
100
AcDbMText
 10
-1514.690250977838
 20
-2211.279277888047
 30
0.0
 40
91.44000000000014
 41
660.0000000000009
 46
0.0
 71
     7
 72
     1
  1
{\fＭＳ ゴシック|b0|i0|c128|p49;枠外＝2,348}
 11
6.123031769111886E-17
 21
1.0
 31
0.0
 73
     1
 44
1.0
  0
MTEXT
  5
2A3
330
1F
100
AcDbEntity
  8
0-A_文字
  6
Continuous
 62
     7
370
   211
100
AcDbMText
 10
-2780.689459146384
 20
-1324.495058745641
 30
0.0
 40
91.43999999999967
 41
239.9999999999991
 46
0.0
 71
     7
 72
     1
  1
{\fＭＳ ゴシック|b0|i0|c128|p49;(24)}
 73
     1
 44
1.0
  0
MTEXT
  5
2A4
330
1F
100
AcDbEntity
  8
0-A_文字
  6
Continuous
 62
     7
370
     0
100
AcDbMText
 10
-2659.061373969226
 20
-3666.907689124321
 30
0.0
 40
68.58000000000003
 41
1350.0
 46
0.0
 71
     7
 72
     1
  1
{\fＭＳ ゴシック|b0|i0|c128|p49;※扉厚（　）内はルーバーの場合}
 73
     1
 44
1.0
  0
LINE
  5
2A5
330
1F
100
AcDbEntity
  8
0-3_仕上げ
  6
Continuous
 62
    40
370
    15
100
AcDbLine
 10
-2396.689459170403
 20
-345.9995550206489
 30
0.0
 11
-2471.689459170403
 21
-345.9995550206489
 31
0.0
  0
LINE
  5
2A6
330
1F
100
AcDbEntity
  8
0-3_仕上げ
  6
Continuous
 62
   120
370
     5
100
AcDbLine
 10
-2471.689459170403
 20
-117.8536340398273
 30
0.0
 11
-2471.689459170403
 21
-297.8536340398273
 31
0.0
  0
LINE
  5
2A7
330
1F
100
AcDbEntity
  8
0-C_ハッチ
  6
JWW_DASHED1
 62
   120
370
     5
100
AcDbLine
 10
-2422.61841142341
 20
-345.9995550206502
 30
0.0
 11
-2396.689459170403
 21
-320.0706027676452
 31
0.0
  0
LINE
  5
2A8
330
1F
100
AcDbEntity
  8
0-C_ハッチ
  6
JWW_DASHED1
 62
   120
370
     5
100
AcDbLine
 10
-2465.04481829461
 20
-345.9995550206489
 30
0.0
 11
-2396.689459170403
 21
-277.6441958964486
 31
0.0
  0
LINE
  5
2A9
330
1F
100
AcDbEntity
  8
0-C_ハッチ
  6
JWW_DASHED1
 62
   120
370
     5
100
AcDbLine
 10
-2471.689459170403
 20
-310.2177890252486
 30
0.0
 11
-2396.689459170403
 21
-235.217789025252
 31
0.0
  0
LINE
  5
2AA
330
1F
100
AcDbEntity
  8
0-C_ハッチ
  6
JWW_DASHED1
 62
   120
370
     5
100
AcDbLine
 10
-2471.689459170403
 20
-267.791382154052
 30
0.0
 11
-2396.689459170403
 21
-192.7913821540392
 31
0.0
  0
LINE
  5
2AB
330
1F
100
AcDbEntity
  8
0-C_ハッチ
  6
JWW_DASHED1
 62
   120
370
     5
100
AcDbLine
 10
-2471.689459170403
 20
-225.3649752828554
 30
0.0
 11
-2396.689459170403
 21
-150.3649752828439
 31
0.0
  0
LINE
  5
2AC
330
1F
100
AcDbEntity
  8
0-C_ハッチ
  6
JWW_DASHED1
 62
   120
370
     5
100
AcDbLine
 10
-2471.689459170376
 20
-182.9385684116895
 30
0.0
 11
-2396.689459170403
 21
-107.9385684116963
 31
0.0
  0
LINE
  5
2AD
330
1F
100
AcDbEntity
  8
0-C_ハッチ
  6
JWW_DASHED1
 62
   120
370
     5
100
AcDbLine
 10
-2471.689459170403
 20
-140.5121615404937
 30
0.0
 11
-2396.689459170403
 21
-65.51216154049968
 31
0.0
  0
LINE
  5
2AE
330
1F
100
AcDbEntity
  8
0-3_仕上げ
  6
Continuous
 62
   120
370
     5
100
AcDbLine
 10
-2891.689459170403
 20
-69.8536340398266
 30
0.0
 11
-2471.689459170403
 21
-69.8536340398266
 31
0.0
  0
LINE
  5
2AF
330
1F
100
AcDbEntity
  8
0-3_仕上げ
  6
Continuous
 62
   120
370
     5
100
AcDbLine
 10
-2891.689459170403
 20
-249.8536340398266
 30
0.0
 11
-2891.689459170403
 21
-69.8536340398266
 31
0.0
  0
LINE
  5
2B0
330
1F
100
AcDbEntity
  8
0-3_仕上げ
  6
Continuous
 62
   120
370
     5
100
AcDbLine
 10
-2471.689459170403
 20
-249.8536340398266
 30
0.0
 11
-2891.689459170403
 21
-249.8536340398266
 31
0.0
  0
LINE
  5
2B1
330
1F
100
AcDbEntity
  8
0-3_仕上げ
  6
Continuous
 62
   120
370
     5
100
AcDbLine
 10
-2891.689459170403
 20
-249.8536340398266
 30
0.0
 11
-2471.689459170403
 21
-69.8536340398266
 31
0.0
  0
LINE
  5
2B2
330
1F
100
AcDbEntity
  8
0-3_仕上げ
  6
Continuous
 62
    40
370
    15
100
AcDbLine
 10
-2396.689459170403
 20
-345.9995550206489
 30
0.0
 11
-2396.689459170403
 21
2.00007402574073
 31
0.0
  0
LINE
  5
2B3
330
1F
100
AcDbEntity
  8
0-3_仕上げ
  6
Continuous
 62
    40
370
    15
100
AcDbLine
 10
-2471.689459170403
 20
-345.9995550206489
 30
0.0
 11
-2471.689459170403
 21
2.00007402574073
 31
0.0
  0
LINE
  5
2B4
330
1F
100
AcDbEntity
  8
0-C_ハッチ
  6
JWW_DASHED1
 62
   120
370
     5
100
AcDbLine
 10
-2471.689459170376
 20
-98.08575466929284
 30
0.0
 11
-2396.689459170403
 21
-23.08575466929071
 31
0.0
  0
LINE
  5
2B5
330
1F
100
AcDbEntity
  8
0-C_ハッチ
  6
JWW_DASHED1
 62
   120
370
     5
100
AcDbLine
 10
-2471.689459170403
 20
-55.65934779809368
 30
0.0
 11
-2414.030037346533
 21
2.00007402574073
 31
0.0
  0
LINE
  5
2B6
330
1F
100
AcDbEntity
  8
0-4_枠
  6
Continuous
 62
    92
370
    13
100
AcDbLine
 10
-2891.689459170403
 20
-297.9995550206482
 30
0.0
 11
-2891.689459170403
 21
-1797.999673791762
 31
0.0
  0
LINE
  5
2B7
330
1F
100
AcDbEntity
  8
0-4_枠
  6
Continuous
 62
    92
370
    13
100
AcDbLine
 10
-2891.689459170403
 20
-1917.999673791762
 30
0.0
 11
-2891.689459170403
 21
-3226.000334096355
 31
0.0
  0
LINE
  5
2B8
330
1F
100
AcDbEntity
  8
0-4_枠
  6
Continuous
 62
    92
370
    13
100
AcDbLine
 10
-2429.689459170387
 20
-3226.000334096355
 30
0.0
 11
-2429.689459170387
 21
-1917.999673791762
 31
0.0
  0
LINE
  5
2B9
330
1F
100
AcDbEntity
  8
0-4_枠
  6
Continuous
 62
    92
370
    13
100
AcDbLine
 10
-2429.689459170387
 20
-1797.999673791762
 30
0.0
 11
-2429.689459170387
 21
-453.9995550206474
 31
0.0
  0
LINE
  5
2BA
330
1F
100
AcDbEntity
  8
0-A_文字
  6
JWW_HOJO
 62
   120
370
     5
100
AcDbLine
 10
-2659.061373969226
 20
-3656.197689124322
 30
0.0
 11
-249.5375644454157
 21
-3656.197689124322
 31
0.0
  0
LINE
  5
2BB
330
1F
100
AcDbEntity
  8
1-E
  6
JWW_DASHED1
 62
   120
370
     5
100
AcDbLine
 10
822.3817999271096
 20
-2857.680265755126
 30
0.0
 11
897.3817999271096
 21
-2782.680265755127
 31
0.0
  0
LINE
  5
2BC
330
1F
100
AcDbEntity
  8
1-E
  6
JWW_DASHED1
 62
   120
370
     5
100
AcDbLine
 10
779.9553930559096
 20
-2857.680265755123
 30
0.0
 11
854.9553930559096
 21
-2782.680265755126
 31
0.0
  0
LINE
  5
2BD
330
1F
100
AcDbEntity
  8
1-E
  6
JWW_DASHED1
 62
   120
370
     5
100
AcDbLine
 10
737.5289861847095
 20
-2857.68026575512
 30
0.0
 11
812.5289861847095
 21
-2782.680265755123
 31
0.0
  0
LINE
  5
2BE
330
1F
100
AcDbEntity
  8
1-E
  6
JWW_DASHED1
 62
   120
370
     5
100
AcDbLine
 10
695.1025793135641
 20
-2857.680265755127
 30
0.0
 11
770.1025793135777
 21
-2782.680265755113
 31
0.0
  0
LINE
  5
2BF
330
1F
100
AcDbEntity
  8
1-E
  6
JWW_DASHED1
 62
   120
370
     5
100
AcDbLine
 10
652.6761724423504
 20
-2857.680265755134
 30
0.0
 11
727.6761724423641
 21
-2782.680265755123
 31
0.0
  0
LINE
  5
2C0
330
1F
100
AcDbEntity
  8
1-E
  6
JWW_DASHED1
 62
   120
370
     5
100
AcDbLine
 10
610.2497655711641
 20
-2857.680265755133
 30
0.0
 11
685.2497655711641
 21
-2782.68026575512
 31
0.0
  0
LINE
  5
2C1
330
1F
100
AcDbEntity
  8
1-E
  6
JWW_DASHED1
 62
   120
370
     5
100
AcDbLine
 10
567.8233586999504
 20
-2857.680265755134
 30
0.0
 11
642.8233586999504
 21
-2782.68026575514
 31
0.0
  0
LINE
  5
2C2
330
1F
100
AcDbEntity
  8
1-E
  6
JWW_DASHED1
 62
   120
370
     5
100
AcDbLine
 10
525.396951828764
 20
-2857.680265755133
 30
0.0
 11
600.3969518287504
 21
-2782.680265755137
 31
0.0
  0
LINE
  5
2C3
330
1F
100
AcDbEntity
  8
1-E
  6
JWW_DASHED1
 62
   120
370
     5
100
AcDbLine
 10
482.970544957564
 20
-2857.680265755127
 30
0.0
 11
557.9705449575504
 21
-2782.680265755133
 31
0.0
  0
LINE
  5
2C4
330
1F
100
AcDbEntity
  8
1-E
  6
JWW_DASHED1
 62
   120
370
     5
100
AcDbLine
 10
440.544138086364
 20
-2857.680265755127
 30
0.0
 11
515.544138086364
 21
-2782.68026575513
 31
0.0
  0
LINE
  5
2C5
330
1F
100
AcDbEntity
  8
1-E
  6
JWW_DASHED1
 62
   120
370
     5
100
AcDbLine
 10
398.1177312152186
 20
-2857.680265755119
 30
0.0
 11
473.1177312152186
 21
-2782.680265755123
 31
0.0
  0
LINE
  5
2C6
330
1F
100
AcDbEntity
  8
1-E
  6
Continuous
 62
    40
370
    15
100
AcDbLine
 10
269.5873833217165
 20
-2857.680265755133
 30
0.0
 11
269.5873833217165
 21
-2782.68026575513
 31
0.0
  0
LINE
  5
2C7
330
1F
100
AcDbEntity
  8
1-E
  6
JWW_DASHED1
 62
   120
370
     5
100
AcDbLine
 10
355.6913243440185
 20
-2857.680265755133
 30
0.0
 11
430.6913243440185
 21
-2782.68026575512
 31
0.0
  0
LINE
  5
2C8
330
1F
100
AcDbEntity
  8
1-E
  6
JWW_DASHED1
 62
   120
370
     5
100
AcDbLine
 10
313.2649174728185
 20
-2857.68026575513
 30
0.0
 11
388.2649174728185
 21
-2782.68026575512
 31
0.0
  0
LINE
  5
2C9
330
1F
100
AcDbEntity
  8
1-E
  6
JWW_DASHED1
 62
   120
370
     5
100
AcDbLine
 10
270.8385106016049
 20
-2857.680265755141
 30
0.0
 11
345.8385106016185
 21
-2782.68026575513
 31
0.0
  0
LINE
  5
2CA
330
1F
100
AcDbEntity
  8
1-E
  6
JWW_DASHED1
 62
   120
370
     5
100
AcDbLine
 10
269.5873833217165
 20
-2816.504986163822
 30
0.0
 11
303.4121037304049
 21
-2782.680265755141
 31
0.0
  0
MTEXT
  5
2CB
330
1F
100
AcDbEntity
  8
1-E
  6
Continuous
 62
     7
370
     0
100
AcDbMText
 10
-586.69481442095
 20
36.08525395679287
 30
0.0
 40
91.43999999999998
 41
1440.0
 46
0.0
 71
     7
 72
     1
  1
{\fＭＳ ゴシック|b0|i0|c128|p49;竪枠下端形状図（S＝1/3）}
 73
     1
 44
1.0
  0
LINE
  5
2CC
330
1F
100
AcDbEntity
  8
1-E
  6
Continuous
 62
    92
370
    13
100
AcDbLine
 10
1126.13986641434
 20
200.3652539567932
 30
0.0
 11
3111.809228084918
 21
200.3652539567932
 31
0.0
  0
LINE
  5
2CD
330
1F
100
AcDbEntity
  8
1-E
  6
Continuous
 62
    92
370
    13
100
AcDbLine
 10
1126.13986641434
 20
20.36525395679149
 30
0.0
 11
3111.809228084918
 21
20.36525395679149
 31
0.0
  0
LINE
  5
2CE
330
1F
100
AcDbEntity
  8
1-E
  6
Continuous
 62
    92
370
    13
100
AcDbLine
 10
-859.5294952562416
 20
20.3652539567932
 30
0.0
 11
1126.13986641434
 21
20.3652539567932
 31
0.0
  0
LINE
  5
2CF
330
1F
100
AcDbEntity
  8
1-E
  6
Continuous
 62
    92
370
    13
100
AcDbLine
 10
-859.5294952562416
 20
200.3652539567932
 30
0.0
 11
1126.13986641434
 21
200.3652539567932
 31
0.0
  0
MTEXT
  5
2D0
330
1F
100
AcDbEntity
  8
1-E
  6
Continuous
 62
     7
370
     9
100
AcDbMText
 10
1458.97454724963
 20
36.08525395679117
 30
0.0
 40
91.44
 41
1320.0
 46
0.0
 71
     7
 72
     1
  1
{\fＭＳ ゴシック|b0|i0|c128|p49;レール拡大図（S＝1/2）}
 73
     1
 44
1.0
  0
LINE
  5
2D1
330
1F
100
AcDbEntity
  8
1-E
  6
Continuous
 62
    92
370
    13
100
AcDbLine
 10
-859.5294952562416
 20
200.3652539567932
 30
0.0
 11
-859.5294952562416
 21
-3404.565202715166
 31
0.0
  0
LINE
  5
2D2
330
1F
100
AcDbEntity
  8
1-E
  6
Continuous
 62
    92
370
    13
100
AcDbLine
 10
-859.5294952562416
 20
-3404.565202715166
 30
0.0
 11
3111.809228084918
 21
-3404.565202715166
 31
0.0
  0
MTEXT
  5
2D3
330
1F
100
AcDbEntity
  8
1-E
  6
Continuous
 62
     7
370
   211
100
AcDbMText
 10
-46.29303471301995
 20
-243.7021483349468
 30
0.0
 40
68.58
 41
90.0
 46
0.0
 71
     7
 72
     1
  1
{\fＭＳ ゴシック|b0|i0|c128|p49;77}
 73
     1
 44
1.0
  0
LINE
  5
2D4
330
1F
100
AcDbEntity
  8
1-E
  6
Continuous
 62
    92
370
    13
100
AcDbLine
 10
-859.5294952562416
 20
-1784.565202715166
 30
0.0
 11
1126.13986641434
 21
-1784.565202715166
 31
0.0
  0
LINE
  5
2D5
330
1F
100
AcDbEntity
  8
1-E
  6
Continuous
 62
    92
370
    13
100
AcDbLine
 10
-859.5294952562416
 20
-1964.565202715166
 30
0.0
 11
1126.13986641434
 21
-1964.565202715166
 31
0.0
  0
LINE
  5
2D6
330
1F
100
AcDbEntity
  8
1-E
  6
Continuous
 62
    92
370
    13
100
AcDbLine
 10
1126.13986641434
 20
200.3652539567932
 30
0.0
 11
1126.13986641434
 21
-3404.565202715166
 31
0.0
  0
LINE
  5
2D7
330
1F
100
AcDbEntity
  8
1-E
  6
Continuous
 62
    92
370
    13
100
AcDbLine
 10
3111.809228084918
 20
200.3652539567932
 30
0.0
 11
3111.809228084918
 21
-3404.565202715166
 31
0.0
  0
MTEXT
  5
2D8
330
1F
100
AcDbEntity
  8
1-E
  6
Continuous
 62
     7
370
     0
100
AcDbMText
 10
1987.444881608354
 20
-406.3031884988466
 30
0.0
 40
91.43999999999998
 41
120.0
 46
0.0
 71
     7
 72
     1
  1
{\fＭＳ ゴシック|b0|i0|c128|p49;32}
 73
     1
 44
1.0
  0
MTEXT
  5
2D9
330
1F
100
AcDbEntity
  8
1-E
  6
Continuous
 62
     7
370
   211
100
AcDbMText
 10
1571.763766080649
 20
-526.3032785669424
 30
0.0
 40
91.43999999999998
 41
240.0
 46
0.0
 71
     7
 72
     1
  1
{\fＭＳ ゴシック|b0|i0|c128|p49;10.5}
 73
     1
 44
1.0
  0
LINE
  5
2DA
330
1F
100
AcDbEntity
  8
1-E
  6
JWW_HOJO
 62
   120
370
     5
100
AcDbLine
 10
-43.97071899011877
 20
-2914.680265755132
 30
0.0
 11
-43.97071899011877
 21
-2302.680265755131
 31
0.0
  0
LINE
  5
2DB
330
1F
100
AcDbEntity
  8
1-E
  6
JWW_HOJO
 62
   120
370
     5
100
AcDbLine
 10
946.8689155404518
 20
-3214.680265755132
 30
0.0
 11
946.8689155404518
 21
-2302.680265755131
 31
0.0
  0
LINE
  5
2DC
330
1F
100
AcDbEntity
  8
1-E
  6
JWW_HOJO
 62
   120
370
     5
100
AcDbLine
 10
-158.5973730301126
 20
-3064.680265755132
 30
0.0
 11
946.8689155404518
 21
-3064.680265755132
 31
0.0
  0
LINE
  5
2DD
330
1F
100
AcDbEntity
  8
1-E
  6
JWW_HOJO
 62
   120
370
     5
100
AcDbLine
 10
-43.97071899011877
 20
-2914.680265755132
 30
0.0
 11
946.8689155404518
 21
-2914.680265755132
 31
0.0
  0
LINE
  5
2DE
330
1F
100
AcDbEntity
  8
1-E
  6
JWW_HOJO
 62
   120
370
     5
100
AcDbLine
 10
-158.5973730301126
 20
-3214.680265755132
 30
0.0
 11
946.8689155404518
 21
-3214.680265755132
 31
0.0
  0
LINE
  5
2DF
330
1F
100
AcDbEntity
  8
1-E
  6
JWW_HOJO
 62
   120
370
     5
100
AcDbLine
 10
-158.5973730301126
 20
-2362.680265755131
 30
0.0
 11
-158.5973730301126
 21
-3214.680265755132
 31
0.0
  0
LINE
  5
2E0
330
1F
100
AcDbEntity
  8
1-E
  6
Continuous
 62
   120
370
     5
100
AcDbLine
 10
119.5882741050795
 20
-3064.680265755132
 30
0.0
 11
299.5873833217165
 21
-3064.680265755132
 31
0.0
  0
LWPOLYLINE
  5
2E1
330
1F
100
AcDbEntity
  8
1-E
  6
Continuous
 62
     7
370
     9
100
AcDbPolyline
 90
        4
 70
     1
 43
3.0
 10
121.0882741050795
 20
-3064.680265755132
 42
0.4142135623731
 10
119.5882741050795
 20
-3063.180265755132
 42
0.4142135623731
 10
118.0882741050795
 20
-3064.680265755132
 42
0.4142135623731
 10
119.5882741050795
 20
-3066.180265755132
 42
0.4142135623731
  0
LWPOLYLINE
  5
2E2
330
1F
100
AcDbEntity
  8
1-E
  6
Continuous
 62
     7
370
     9
100
AcDbPolyline
 90
        4
 70
     1
 43
3.0
 10
181.0873833217169
 20
-3064.680265755132
 42
0.4142135623731
 10
179.5873833217169
 20
-3063.180265755132
 42
0.4142135623731
 10
178.0873833217169
 20
-3064.680265755132
 42
0.4142135623731
 10
179.5873833217169
 20
-3066.180265755132
 42
0.4142135623731
  0
LINE
  5
2E3
330
1F
100
AcDbEntity
  8
1-E
  6
Continuous
 62
   120
370
     5
100
AcDbLine
 10
119.5882741050795
 20
-3214.680265755132
 30
0.0
 11
119.5882741050795
 21
-2914.680265755132
 31
0.0
  0
LINE
  5
2E4
330
1F
100
AcDbEntity
  8
1-E
  6
Continuous
 62
   120
370
     5
100
AcDbLine
 10
179.5873833217169
 20
-3064.680265755132
 30
0.0
 11
179.5873833217169
 21
-2914.680265755132
 31
0.0
  0
LWPOLYLINE
  5
2E5
330
1F
100
AcDbEntity
  8
1-E
  6
Continuous
 62
     7
370
     9
100
AcDbPolyline
 90
        4
 70
     1
 43
3.0
 10
235.0873833217083
 20
-3064.680265755132
 42
0.4142135623731
 10
233.5873833217083
 20
-3063.180265755132
 42
0.4142135623731
 10
232.0873833217083
 20
-3064.680265755132
 42
0.4142135623731
 10
233.5873833217083
 20
-3066.180265755132
 42
0.4142135623731
  0
LINE
  5
2E6
330
1F
100
AcDbEntity
  8
1-E
  6
Continuous
 62
   120
370
     5
100
AcDbLine
 10
233.5873833217083
 20
-3064.680265755132
 30
0.0
 11
233.5873833217083
 21
-2914.680265755132
 31
0.0
  0
LWPOLYLINE
  5
2E7
330
1F
100
AcDbEntity
  8
1-E
  6
Continuous
 62
     7
370
     9
100
AcDbPolyline
 90
        4
 70
     1
 43
3.0
 10
271.0873833217165
 20
-3064.680265755132
 42
0.4142135623731
 10
269.5873833217165
 20
-3063.180265755132
 42
0.4142135623731
 10
268.0873833217165
 20
-3064.680265755132
 42
0.4142135623731
 10
269.5873833217165
 20
-3066.180265755132
 42
0.4142135623731
  0
LINE
  5
2E8
330
1F
100
AcDbEntity
  8
1-E
  6
Continuous
 62
   120
370
     5
100
AcDbLine
 10
269.5873833217165
 20
-3064.680265755132
 30
0.0
 11
269.5873833217165
 21
-2914.680265755132
 31
0.0
  0
LWPOLYLINE
  5
2E9
330
1F
100
AcDbEntity
  8
1-E
  6
Continuous
 62
     7
370
     9
100
AcDbPolyline
 90
        4
 70
     1
 43
3.0
 10
301.0873833217165
 20
-3064.680265755132
 42
0.4142135623731
 10
299.5873833217165
 20
-3063.180265755132
 42
0.4142135623731
 10
298.0873833217165
 20
-3064.680265755132
 42
0.4142135623731
 10
299.5873833217165
 20
-3066.180265755132
 42
0.4142135623731
  0
LINE
  5
2EA
330
1F
100
AcDbEntity
  8
1-E
  6
Continuous
 62
   120
370
     5
100
AcDbLine
 10
299.5873833217165
 20
-3214.680265755132
 30
0.0
 11
299.5873833217165
 21
-2914.680265755132
 31
0.0
  0
LINE
  5
2EB
330
1F
100
AcDbEntity
  8
1-E
  6
Continuous
 62
   120
370
     5
100
AcDbLine
 10
119.5882741050795
 20
-3214.680265755132
 30
0.0
 11
299.5873833217165
 21
-3214.680265755132
 31
0.0
  0
LWPOLYLINE
  5
2EC
330
1F
100
AcDbEntity
  8
1-E
  6
Continuous
 62
     7
370
     9
100
AcDbPolyline
 90
        4
 70
     1
 43
3.0
 10
121.0882741050795
 20
-3214.680265755132
 42
0.4142135623731
 10
119.5882741050795
 20
-3213.180265755132
 42
0.4142135623731
 10
118.0882741050795
 20
-3214.680265755132
 42
0.4142135623731
 10
119.5882741050795
 20
-3216.180265755132
 42
0.4142135623731
  0
LWPOLYLINE
  5
2ED
330
1F
100
AcDbEntity
  8
1-E
  6
Continuous
 62
     7
370
     9
100
AcDbPolyline
 90
        4
 70
     1
 43
3.0
 10
301.0873833217165
 20
-3214.680265755132
 42
0.4142135623731
 10
299.5873833217165
 20
-3213.180265755132
 42
0.4142135623731
 10
298.0873833217165
 20
-3214.680265755132
 42
0.4142135623731
 10
299.5873833217165
 20
-3216.180265755132
 42
0.4142135623731
  0
LINE
  5
2EE
330
1F
100
AcDbEntity
  8
1-E
  6
Continuous
 62
   120
370
     5
100
AcDbLine
 10
251.5873833217056
 20
-3064.680265755132
 30
0.0
 11
341.5873833217056
 21
-3154.680265755132
 31
0.0
  0
LINE
  5
2EF
330
1F
100
AcDbEntity
  8
1-E
  6
Continuous
 62
   120
370
     5
100
AcDbLine
 10
341.5873833217056
 20
-3154.680265755132
 30
0.0
 11
398.1063145547278
 21
-3154.680265755132
 31
0.0
  0
LINE
  5
2F0
330
1F
100
AcDbEntity
  8
1-E
  6
Continuous
 62
   120
370
     5
100
AcDbLine
 10
284.5873833217165
 20
-3064.680265755132
 30
0.0
 11
344.5873833217165
 21
-3004.680265755132
 31
0.0
  0
LINE
  5
2F1
330
1F
100
AcDbEntity
  8
1-E
  6
Continuous
 62
   120
370
     5
100
AcDbLine
 10
344.5873833217165
 20
-3004.680265755132
 30
0.0
 11
400.2430671392885
 21
-3004.680265755132
 31
0.0
  0
LINE
  5
2F2
330
1F
100
AcDbEntity
  8
1-E
  6
JWW_HOJO
 62
   120
370
     5
100
AcDbLine
 10
946.8689155404518
 20
-2302.680265755131
 30
0.0
 11
-43.97071899011877
 21
-2302.680265755131
 31
0.0
  0
LINE
  5
2F3
330
1F
100
AcDbEntity
  8
1-E
  6
Continuous
 62
    92
370
    13
100
AcDbLine
 10
299.5873833217165
 20
-2362.680265755131
 30
0.0
 11
119.5882741050795
 21
-2362.680265755131
 31
0.0
  0
LINE
  5
2F4
330
1F
100
AcDbEntity
  8
1-E
  6
Continuous
 62
    92
370
    13
100
AcDbLine
 10
119.5882741050795
 20
-2449.67855347156
 30
0.0
 11
119.5882741050795
 21
-2362.680265755131
 31
0.0
  0
LINE
  5
2F5
330
1F
100
AcDbEntity
  8
1-E
  6
Continuous
 62
   120
370
     5
100
AcDbLine
 10
-302.9420485427332
 20
-2362.680265755131
 30
0.0
 11
-43.97071899011877
 21
-2362.680265755131
 31
0.0
  0
LINE
  5
2F6
330
1F
100
AcDbEntity
  8
1-E
  6
Continuous
 62
   120
370
     5
100
AcDbLine
 10
299.5873833217165
 20
-2467.687223762945
 30
0.0
 11
194.5810295348733
 21
-2362.680265755131
 31
0.0
  0
LINE
  5
2F7
330
1F
100
AcDbEntity
  8
1-E
  6
Continuous
 62
   120
370
     5
100
AcDbLine
 10
299.5873833217165
 20
-2510.11375063161
 30
0.0
 11
152.1545923641574
 21
-2362.680265755131
 31
0.0
  0
LINE
  5
2F8
330
1F
100
AcDbEntity
  8
1-E
  6
Continuous
 62
   120
370
     5
100
AcDbLine
 10
299.5873833217165
 20
-2552.540277500276
 30
0.0
 11
120.6586987777914
 21
-2373.610108317419
 31
0.0
  0
LINE
  5
2F9
330
1F
100
AcDbEntity
  8
1-E
  6
Continuous
 62
   120
370
     5
100
AcDbLine
 10
299.5873833217165
 20
-2425.260696894279
 30
0.0
 11
237.0072204572243
 21
-2362.680265755131
 31
0.0
  0
LINE
  5
2FA
330
1F
100
AcDbEntity
  8
1-E
  6
Continuous
 62
   120
370
     5
100
AcDbLine
 10
299.5873833217165
 20
-2382.834170025613
 30
0.0
 11
279.4338178805019
 21
-2362.680265755131
 31
0.0
  0
LINE
  5
2FB
330
1F
100
AcDbEntity
  8
1-E
  6
Continuous
 62
    92
370
    13
100
AcDbLine
 10
299.5873833217165
 20
-2782.68026575513
 30
0.0
 11
299.5873833217165
 21
-2362.680265755131
 31
0.0
  0
LINE
  5
2FC
330
1F
100
AcDbEntity
  8
1-E
  6
Continuous
 62
   120
370
     5
100
AcDbLine
 10
-495.2053034401538
 20
-2668.680265755146
 30
0.0
 11
155.5877990206167
 21
-2668.680265755146
 31
0.0
  0
LINE
  5
2FD
330
1F
100
AcDbEntity
  8
1-E
  6
Continuous
 62
   120
370
     5
100
AcDbLine
 10
-302.9420485427332
 20
-2824.680265755132
 30
0.0
 11
-302.9420485427332
 21
-2362.680265755131
 31
0.0
  0
LINE
  5
2FE
330
1F
100
AcDbEntity
  8
1-E
  6
Continuous
 62
   120
370
     5
100
AcDbLine
 10
-158.5973730543824
 20
-2824.680265755132
 30
0.0
 11
-158.5973730543824
 21
-2362.680265755131
 31
0.0
  0
LWPOLYLINE
  5
2FF
330
1F
100
AcDbEntity
  8
1-E
  6
Continuous
 62
     7
370
     9
100
AcDbPolyline
 90
        4
 70
     1
 43
3.0
 10
-301.4420485427332
 20
-2824.680265755132
 42
0.4142135623731
 10
-302.9420485427332
 20
-2823.180265755132
 42
0.4142135623731
 10
-304.4420485427332
 20
-2824.680265755132
 42
0.4142135623731
 10
-302.9420485427332
 20
-2826.180265755132
 42
0.4142135623731
  0
LWPOLYLINE
  5
300
330
1F
100
AcDbEntity
  8
1-E
  6
Continuous
 62
     7
370
     9
100
AcDbPolyline
 90
        4
 70
     1
 43
3.0
 10
-157.0973730543824
 20
-2824.680265755132
 42
0.4142135623731
 10
-158.5973730543824
 20
-2823.180265755132
 42
0.4142135623731
 10
-160.0973730543824
 20
-2824.680265755132
 42
0.4142135623731
 10
-158.5973730543824
 20
-2826.180265755132
 42
0.4142135623731
  0
LINE
  5
301
330
1F
100
AcDbEntity
  8
1-E
  6
Continuous
 62
   120
370
     5
100
AcDbLine
 10
-302.9420485427332
 20
-2824.680265755132
 30
0.0
 11
-43.97071899011877
 21
-2824.680265755132
 31
0.0
  0
LINE
  5
302
330
1F
100
AcDbEntity
  8
1-E
  6
Continuous
 62
   120
370
     5
100
AcDbLine
 10
232.7425281404412
 20
-2782.68026575513
 30
0.0
 11
144.5227850320165
 21
-2694.461367291238
 31
0.0
  0
LINE
  5
303
330
1F
100
AcDbEntity
  8
1-E
  6
Continuous
 62
   120
370
     5
100
AcDbLine
 10
269.5873833217165
 20
-2819.524768171763
 30
0.0
 11
233.5873833217083
 21
-2783.525112847479
 31
0.0
  0
LINE
  5
304
330
1F
100
AcDbEntity
  8
1-E
  6
Continuous
 62
   120
370
     5
100
AcDbLine
 10
147.4637869715829
 20
-2824.680265755132
 30
0.0
 11
119.5882741050795
 21
-2796.804952331356
 31
0.0
  0
LINE
  5
305
330
1F
100
AcDbEntity
  8
1-E
  6
Continuous
 62
   120
370
     5
100
AcDbLine
 10
179.5873833217169
 20
-2814.378040849702
 30
0.0
 11
119.5882741050795
 21
-2754.37916778216
 31
0.0
  0
LINE
  5
306
330
1F
100
AcDbEntity
  8
1-E
  6
Continuous
 62
   120
370
     5
100
AcDbLine
 10
190.3166121227
 20
-2782.68026575513
 30
0.0
 11
129.3022666620786
 21
-2721.666633470504
 31
0.0
  0
LINE
  5
307
330
1F
100
AcDbEntity
  8
1-E
  6
Continuous
 62
   120
370
     5
100
AcDbLine
 10
275.1694432540016
 20
-2782.68026575513
 30
0.0
 11
155.5877990206167
 21
-2663.099854411169
 31
0.0
  0
LINE
  5
308
330
1F
100
AcDbEntity
  8
1-E
  6
Continuous
 62
    92
370
    13
100
AcDbLine
 10
269.5873833217165
 20
-2782.68026575513
 30
0.0
 11
299.5873833217165
 21
-2782.68026575513
 31
0.0
  0
LINE
  5
309
330
1F
100
AcDbEntity
  8
1-E
  6
Continuous
 62
    92
370
    13
100
AcDbLine
 10
119.5873833217169
 20
-2824.680265755132
 30
0.0
 11
179.5873833217169
 21
-2824.680265755132
 31
0.0
  0
LINE
  5
30A
330
1F
100
AcDbEntity
  8
1-E
  6
Continuous
 62
    92
370
    13
100
AcDbLine
 10
119.5873833217169
 20
-2824.680265755132
 30
0.0
 11
119.5873833217169
 21
-2737.680265755131
 31
0.0
  0
LINE
  5
30B
330
1F
100
AcDbEntity
  8
1-E
  6
Continuous
 62
    92
370
    13
100
AcDbLine
 10
269.5873833217165
 20
-2782.68026575513
 30
0.0
 11
269.5873833217165
 21
-2824.680265755132
 31
0.0
  0
LINE
  5
30C
330
1F
100
AcDbEntity
  8
1-E
  6
Continuous
 62
    92
370
    13
100
AcDbLine
 10
233.5873833217083
 20
-2824.680265755132
 30
0.0
 11
269.5873833217165
 21
-2824.680265755132
 31
0.0
  0
LINE
  5
30D
330
1F
100
AcDbEntity
  8
1-E
  6
Continuous
 62
    92
370
    13
100
AcDbLine
 10
233.5873833217083
 20
-2782.68026575513
 30
0.0
 11
233.5873833217083
 21
-2824.680265755132
 31
0.0
  0
LINE
  5
30E
330
1F
100
AcDbEntity
  8
1-E
  6
Continuous
 62
    92
370
    13
100
AcDbLine
 10
233.5873833217083
 20
-2782.68026575513
 30
0.0
 11
179.5873833217169
 21
-2782.68026575513
 31
0.0
  0
LINE
  5
30F
330
1F
100
AcDbEntity
  8
1-E
  6
Continuous
 62
    92
370
    13
100
AcDbLine
 10
179.5873833217169
 20
-2782.68026575513
 30
0.0
 11
179.5873833217169
 21
-2824.680265755132
 31
0.0
  0
LWPOLYLINE
  5
310
330
1F
100
AcDbEntity
  8
1-E
  6
Continuous
 62
     7
370
     9
100
AcDbPolyline
 90
        4
 70
     1
 43
3.0
 10
-301.4420485427332
 20
-2362.680265755131
 42
0.4142135623731
 10
-302.9420485427332
 20
-2361.180265755131
 42
0.4142135623731
 10
-304.4420485427332
 20
-2362.680265755131
 42
0.4142135623731
 10
-302.9420485427332
 20
-2364.180265755131
 42
0.4142135623731
  0
LWPOLYLINE
  5
311
330
1F
100
AcDbEntity
  8
1-E
  6
Continuous
 62
     7
370
     9
100
AcDbPolyline
 90
        4
 70
     1
 43
3.0
 10
-157.0973730543824
 20
-2362.680265755131
 42
0.4142135623731
 10
-158.5973730543824
 20
-2361.180265755131
 42
0.4142135623731
 10
-160.0973730543824
 20
-2362.680265755131
 42
0.4142135623731
 10
-158.5973730543824
 20
-2364.180265755131
 42
0.4142135623731
  0
LWPOLYLINE
  5
312
330
1F
100
AcDbEntity
  8
1-E
  6
Continuous
 62
     7
370
     9
100
AcDbPolyline
 90
        4
 70
     1
 43
3.0
 10
-157.0973730543824
 20
-2518.680265755132
 42
0.4142135623731
 10
-158.5973730543824
 20
-2517.180265755132
 42
0.4142135623731
 10
-160.0973730543824
 20
-2518.680265755132
 42
0.4142135623731
 10
-158.5973730543824
 20
-2520.180265755132
 42
0.4142135623731
  0
LWPOLYLINE
  5
313
330
1F
100
AcDbEntity
  8
1-E
  6
Continuous
 62
     7
370
     9
100
AcDbPolyline
 90
        4
 70
     1
 43
3.0
 10
-157.0973730543824
 20
-2668.680265755132
 42
0.4142135623731
 10
-158.5973730543824
 20
-2667.180265755132
 42
0.4142135623731
 10
-160.0973730543824
 20
-2668.680265755132
 42
0.4142135623731
 10
-158.5973730543824
 20
-2670.180265755132
 42
0.4142135623731
  0
LINE
  5
314
330
1F
100
AcDbEntity
  8
1-E
  6
Continuous
 62
   120
370
     5
100
AcDbLine
 10
-158.5973730543824
 20
-2518.680265755132
 30
0.0
 11
-43.97071899011877
 21
-2518.680265755132
 31
0.0
  0
LINE
  5
315
330
1F
100
AcDbEntity
  8
1-E
  6
Continuous
 62
   120
370
     5
100
AcDbLine
 10
-158.5973730543824
 20
-2668.680265755132
 30
0.0
 11
-43.97071899011877
 21
-2668.680265755132
 31
0.0
  0
LINE
  5
316
330
1F
100
AcDbEntity
  8
1-E
  6
Continuous
 62
   120
370
     5
100
AcDbLine
 10
299.5873833217165
 20
-2637.393331237607
 30
0.0
 11
131.587125984291
 21
-2469.392331580723
 31
0.0
  0
LINE
  5
317
330
1F
100
AcDbEntity
  8
1-E
  6
Continuous
 62
   120
370
     5
100
AcDbLine
 10
299.5873833217165
 20
-2594.966804368942
 30
0.0
 11
119.5882741050795
 21
-2414.966210513367
 31
0.0
  0
LINE
  5
318
330
1F
100
AcDbEntity
  8
1-E
  6
Continuous
 62
   120
370
     5
100
AcDbLine
 10
299.5873833217165
 20
-2679.819858106273
 30
0.0
 11
155.5877990206167
 21
-2535.819531485707
 31
0.0
  0
LINE
  5
319
330
1F
100
AcDbEntity
  8
1-E
  6
Continuous
 62
   120
370
     5
100
AcDbLine
 10
299.5873833217165
 20
-2764.672169524135
 30
0.0
 11
155.5877990206167
 21
-2620.674069861973
 31
0.0
  0
LINE
  5
31A
330
1F
100
AcDbEntity
  8
1-E
  6
Continuous
 62
   120
370
     5
100
AcDbLine
 10
299.5873833217165
 20
-2722.246384974938
 30
0.0
 11
155.5877990206167
 21
-2578.246058354373
 31
0.0
  0
LINE
  5
31B
330
1F
100
AcDbEntity
  8
1-E
  6
Continuous
 62
    92
370
    13
100
AcDbLine
 10
119.5882741050795
 20
-2812.680196471981
 30
0.0
 11
119.5882741050795
 21
-2737.676979754287
 31
0.0
  0
LINE
  5
31C
330
1F
100
AcDbEntity
  8
1-E
  6
Continuous
 62
    92
370
    13
100
AcDbLine
 10
155.5877990206167
 20
-2514.631506913282
 30
0.0
 11
155.5877990206167
 21
-2672.724768632032
 31
0.0
  0
ARC
  5
31D
330
1F
100
AcDbEntity
  8
1-E
  6
Continuous
 62
    92
370
    13
100
AcDbCircle
 10
-480.4122207745709
 20
-2362.677969513579
 30
0.0
 40
707.5483889193149
100
AcDbArc
 50
327.9947052001953
 51
334.0110321044921
  0
ARC
  5
31E
330
1F
100
AcDbEntity
  8
1-E
  6
Continuous
 62
    92
370
    13
100
AcDbCircle
 10
-480.4122207745709
 20
-2824.677563712268
 30
0.0
 40
707.5483889193149
100
AcDbArc
 50
25.9889678955078
 51
32.00529479980467
  0
LINE
  5
31F
330
1F
100
AcDbEntity
  8
1-E
  6
Continuous
 62
     7
370
     9
100
AcDbLine
 10
311.5877198398657
 20
-2624.10289792099
 30
0.0
 11
311.5877198398657
 21
-2564.102699969132
 31
0.0
  0
LINE
  5
320
330
1F
100
AcDbEntity
  8
1-E
  6
Continuous
 62
     7
370
     9
100
AcDbLine
 10
299.5873833217165
 20
-2564.102699969132
 30
0.0
 11
317.587888098954
 21
-2564.102699969132
 31
0.0
  0
LINE
  5
321
330
1F
100
AcDbEntity
  8
1-E
  6
Continuous
 62
     7
370
     9
100
AcDbLine
 10
317.587888098954
 20
-2624.10289792099
 30
0.0
 11
299.5873833217165
 21
-2624.10289792099
 31
0.0
  0
LINE
  5
322
330
1F
100
AcDbEntity
  8
1-E
  6
Continuous
 62
     7
370
     9
100
AcDbLine
 10
317.587888098954
 20
-2534.102600993202
 30
0.0
 11
329.5874822976411
 21
-2534.102600993202
 31
0.0
  0
LINE
  5
323
330
1F
100
AcDbEntity
  8
1-E
  6
Continuous
 62
     7
370
     9
100
AcDbLine
 10
317.587888098954
 20
-2654.10299689692
 30
0.0
 11
317.587888098954
 21
-2534.102600993202
 31
0.0
  0
LINE
  5
324
330
1F
100
AcDbEntity
  8
1-E
  6
Continuous
 62
     7
370
     9
100
AcDbLine
 10
329.5874822976411
 20
-2654.10299689692
 30
0.0
 11
317.587888098954
 21
-2654.10299689692
 31
0.0
  0
LINE
  5
325
330
1F
100
AcDbEntity
  8
1-E
  6
Continuous
 62
   120
370
     5
100
AcDbLine
 10
-495.2053034401538
 20
-2518.680265755146
 30
0.0
 11
155.5877990206167
 21
-2518.680265755146
 31
0.0
  0
MTEXT
  5
326
330
1F
100
AcDbEntity
  8
1-E
  6
Continuous
 62
     7
370
   211
100
AcDbMText
 10
1987.444881608354
 20
-526.3032785669424
 30
0.0
 40
91.43999999999998
 41
120.0
 46
0.0
 71
     7
 72
     1
  1
{\fＭＳ ゴシック|b0|i0|c128|p49;11}
 73
     1
 44
1.0
  0
MTEXT
  5
327
330
1F
100
AcDbEntity
  8
1-E
  6
Continuous
 62
     7
370
   211
100
AcDbMText
 10
2288.696972093336
 20
-526.3032785669424
 30
0.0
 40
91.43999999999998
 41
240.0
 46
0.0
 71
     7
 72
     1
  1
{\fＭＳ ゴシック|b0|i0|c128|p49;10.5}
 73
     1
 44
1.0
  0
MTEXT
  5
328
330
1F
100
AcDbEntity
  8
1-E
  6
Continuous
 62
     7
370
   211
100
AcDbMText
 10
2202.845376982878
 20
-646.3032785669424
 30
0.0
 40
91.43999999999998
 41
180.0
 46
0.0
 71
     7
 72
     1
  1
{\fＭＳ ゴシック|b0|i0|c128|p49;6.3}
 73
     1
 44
1.0
  0
MTEXT
  5
329
330
1F
100
AcDbEntity
  8
1-E
  6
Continuous
 62
     7
370
   211
100
AcDbMText
 10
1709.290622685308
 20
-649.0108550119822
 30
0.0
 40
91.43999999999998
 41
180.0
 46
0.0
 71
     7
 72
     1
  1
{\fＭＳ ゴシック|b0|i0|c128|p49;6.3}
 73
     1
 44
1.0
  0
MTEXT
  5
32A
330
1F
100
AcDbEntity
  8
1-E
  6
Continuous
 62
     7
370
     0
100
AcDbMText
 10
2881.358142784112
 20
-830.8872271618978
 30
0.0
 40
91.43999999999998
 41
180.0
 46
0.0
 71
     7
 72
     1
  1
{\fＭＳ ゴシック|b0|i0|c128|p49;1.2}
 11
6.123031769111886E-17
 21
1.0
 31
0.0
 73
     1
 44
1.0
  0
MTEXT
  5
32B
330
1F
100
AcDbEntity
  8
1-E
  6
Continuous
 62
     7
370
     0
100
AcDbMText
 10
2878.837163133536
 20
-930.9021601104519
 30
0.0
 40
91.44000000000064
 41
60.00000000000043
 46
0.0
 71
     7
 72
     1
  1
{\fＭＳ ゴシック|b0|i0|c128|p49;7}
 11
6.123031769111886E-17
 21
1.0
 31
0.0
 73
     1
 44
1.0
  0
MTEXT
  5
32C
330
1F
100
AcDbEntity
  8
1-E
  6
Continuous
 62
     7
370
     0
100
AcDbMText
 10
2880.097652958831
 20
-1020.902160110452
 30
0.0
 40
91.44000000000064
 41
60.00000000000043
 46
0.0
 71
     7
 72
     1
  1
{\fＭＳ ゴシック|b0|i0|c128|p49;5}
 11
6.123031769111886E-17
 21
1.0
 31
0.0
 73
     1
 44
1.0
  0
MTEXT
  5
32D
330
1F
100
AcDbEntity
  8
1-E
  6
Continuous
 62
     7
370
     0
100
AcDbMText
 10
1987.444954508429
 20
-1198.49705111763
 30
0.0
 40
91.44
 41
120.0
 46
0.0
 71
     7
 72
     1
  1
{\fＭＳ ゴシック|b0|i0|c128|p49;23}
 73
     1
 44
1.0
  0
MTEXT
  5
32E
330
1F
100
AcDbEntity
  8
1-E
  6
Continuous
 62
     7
370
     0
100
AcDbMText
 10
2328.336467454975
 20
-1199.960679704666
 30
0.0
 40
91.44
 41
600.0
 46
0.0
 71
     7
 72
     1
  1
{\fＭＳ ゴシック|b0|i0|c128|p49;下地ベース}
 73
     1
 44
1.0
  0
LINE
  5
32F
330
1F
100
AcDbEntity
  8
1-E
  6
Continuous
 62
    92
370
    13
100
AcDbLine
 10
113.7078395743484
 20
-1231.824859316163
 30
0.0
 11
113.7078395743484
 21
-1181.825374815791
 31
0.0
  0
LINE
  5
330
330
1F
100
AcDbEntity
  8
1-E
  6
Continuous
 62
    92
370
    13
100
AcDbLine
 10
-116.2924243614643
 20
-1231.824859316163
 30
0.0
 11
-116.2924243614643
 21
-1181.825374815791
 31
0.0
  0
LINE
  5
331
330
1F
100
AcDbEntity
  8
1-E
  6
Continuous
 62
    92
370
    13
100
AcDbLine
 10
-101.293117192964
 20
-1251.825172739938
 30
0.0
 11
98.70704776692406
 21
-1251.825172739938
 31
0.0
  0
LINE
  5
332
330
1F
100
AcDbEntity
  8
1-E
  6
Continuous
 62
    92
370
    13
100
AcDbLine
 10
-116.2924243614643
 20
-1231.824859316163
 30
0.0
 11
-101.293117192964
 21
-1231.824859316163
 31
0.0
  0
LINE
  5
333
330
1F
100
AcDbEntity
  8
1-E
  6
Continuous
 62
    92
370
    13
100
AcDbLine
 10
-101.293117192964
 20
-1251.825172739938
 30
0.0
 11
-101.293117192964
 21
-1231.824859316163
 31
0.0
  0
LINE
  5
334
330
1F
100
AcDbEntity
  8
1-E
  6
Continuous
 62
    92
370
    13
100
AcDbLine
 10
98.70704776692406
 20
-1251.825172739938
 30
0.0
 11
98.70704776692406
 21
-1231.824859316163
 31
0.0
  0
LINE
  5
335
330
1F
100
AcDbEntity
  8
1-E
  6
Continuous
 62
    92
370
    13
100
AcDbLine
 10
113.7078395743484
 20
-1231.824859316163
 30
0.0
 11
98.70704776692406
 21
-1231.824859316163
 31
0.0
  0
LINE
  5
336
330
1F
100
AcDbEntity
  8
1-E
  6
JWW_HOJO
 62
   120
370
     5
100
AcDbLine
 10
-444.4626421317489
 20
-1379.33482701702
 30
0.0
 11
698.7074931428428
 21
-1379.33482701702
 31
0.0
  0
LINE
  5
337
330
1F
100
AcDbEntity
  8
1-E
  6
JWW_HOJO
 62
   120
370
     5
100
AcDbLine
 10
-444.4626421317489
 20
-1559.33482701702
 30
0.0
 11
878.7074931428428
 21
-1559.33482701702
 31
0.0
  0
LINE
  5
338
330
1F
100
AcDbEntity
  8
1-E
  6
JWW_HOJO
 62
   120
370
     5
100
AcDbLine
 10
-461.2935625846521
 20
-391.5341981349476
 30
0.0
 11
698.7074931428428
 21
-391.5341981349476
 31
0.0
  0
LINE
  5
339
330
1F
100
AcDbEntity
  8
1-E
  6
JWW_HOJO
 62
   120
370
     5
100
AcDbLine
 10
-461.2935625846521
 20
-247.992148334947
 30
0.0
 11
878.7074931428428
 21
-247.992148334947
 31
0.0
  0
LINE
  5
33A
330
1F
100
AcDbEntity
  8
1-E
  6
JWW_HOJO
 62
   120
370
     5
100
AcDbLine
 10
-461.2935625846521
 20
-441.5341981349465
 30
0.0
 11
698.7074931428428
 21
-441.5341981349465
 31
0.0
  0
LINE
  5
33B
330
1F
100
AcDbEntity
  8
1-E
  6
JWW_HOJO
 62
   120
370
     5
100
AcDbLine
 10
878.7074931428428
 20
-1559.33482701702
 30
0.0
 11
878.7074931428428
 21
-247.992148334947
 31
0.0
  0
LINE
  5
33C
330
1F
100
AcDbEntity
  8
1-E
  6
Continuous
 62
   120
370
     5
100
AcDbLine
 10
698.7074931428428
 20
-1181.825374815791
 30
0.0
 11
698.7074931428428
 21
-1251.825172739938
 31
0.0
  0
LWPOLYLINE
  5
33D
330
1F
100
AcDbEntity
  8
1-E
  6
Continuous
 62
     7
370
     9
100
AcDbPolyline
 90
        4
 70
     1
 43
3.0
 10
700.2074931428428
 20
-1181.825374815791
 42
0.4142135623731
 10
698.7074931428428
 20
-1180.325374815791
 42
0.4142135623731
 10
697.2074931428428
 20
-1181.825374815791
 42
0.4142135623731
 10
698.7074931428428
 20
-1183.325374815791
 42
0.4142135623731
  0
LWPOLYLINE
  5
33E
330
1F
100
AcDbEntity
  8
1-E
  6
Continuous
 62
     7
370
     9
100
AcDbPolyline
 90
        4
 70
     1
 43
3.0
 10
700.2074931428428
 20
-1251.825172739938
 42
0.4142135623731
 10
698.7074931428428
 20
-1250.325172739938
 42
0.4142135623731
 10
697.2074931428428
 20
-1251.825172739938
 42
0.4142135623731
 10
698.7074931428428
 20
-1253.325172739938
 42
0.4142135623731
  0
LINE
  5
33F
330
1F
100
AcDbEntity
  8
1-E
  6
Continuous
 62
   120
370
     5
100
AcDbLine
 10
698.7074931428428
 20
-1181.825374815791
 30
0.0
 11
506.9741855065705
 21
-1181.825374815791
 31
0.0
  0
LINE
  5
340
330
1F
100
AcDbEntity
  8
1-E
  6
Continuous
 62
   120
370
     5
100
AcDbLine
 10
698.7074931428428
 20
-1251.825172739938
 30
0.0
 11
506.9741855065705
 21
-1251.825172739938
 31
0.0
  0
MTEXT
  5
341
330
1F
100
AcDbEntity
  8
1-E
  6
Continuous
 62
     7
370
   211
100
AcDbMText
 10
683.7074931428428
 20
-1250.035273777864
 30
0.0
 40
68.58
 41
45.0
 46
0.0
 71
     7
 72
     1
  1
{\fＭＳ ゴシック|b0|i0|c128|p49;7}
 11
6.123031769111886E-17
 21
1.0
 31
0.0
 73
     1
 44
1.0
  0
LINE
  5
342
330
1F
100
AcDbEntity
  8
1-E
  6
JWW_HOJO
 62
   120
370
     5
100
AcDbLine
 10
698.7074931428428
 20
-1379.33482701702
 30
0.0
 11
698.7074931428428
 21
-441.5341981349465
 31
0.0
  0
MTEXT
  5
343
330
1F
100
AcDbEntity
  8
1-E
  6
Continuous
 62
     7
370
     0
100
AcDbMText
 10
1850.439201214827
 20
-1318.317469751744
 30
0.0
 40
91.44
 41
60.0
 46
0.0
 71
     7
 72
     1
  1
{\fＭＳ ゴシック|b0|i0|c128|p49;1}
 73
     1
 44
1.0
  0
LINE
  5
344
330
1F
100
AcDbEntity
  8
1-E
  6
Continuous
 62
     7
370
     9
100
AcDbLine
 10
2148.050672198579
 20
-982.6541004393871
 30
0.0
 11
2274.725236951036
 21
-1125.339660921864
 31
0.0
  0
LINE
  5
345
330
1F
100
AcDbEntity
  8
1-E
  6
Continuous
 62
    40
370
    15
100
AcDbLine
 10
1507.444881608354
 20
-1014.122160110452
 30
0.0
 11
2587.444881608354
 21
-1014.122160110452
 31
0.0
  0
LINE
  5
346
330
1F
100
AcDbEntity
  8
1-E
  6
JWW_HOJO
 62
   120
370
     5
100
AcDbLine
 10
1507.444881608354
 20
-1193.610184508687
 30
0.0
 11
2587.444881608354
 21
-1193.610184508687
 31
0.0
  0
LINE
  5
347
330
1F
100
AcDbEntity
  8
1-E
  6
Continuous
 62
   120
370
     5
100
AcDbLine
 10
2617.444881608354
 20
-1014.122160110452
 30
0.0
 11
2887.444881608354
 21
-1014.122160110452
 31
0.0
  0
LWPOLYLINE
  5
348
330
1F
100
AcDbEntity
  8
1-E
  6
Continuous
 62
     7
370
     9
100
AcDbPolyline
 90
        4
 70
     1
 43
3.0
 10
2888.944881608354
 20
-1014.122160110452
 42
0.4142135623731
 10
2887.444881608354
 20
-1012.622160110452
 42
0.4142135623731
 10
2885.944881608354
 20
-1014.122160110452
 42
0.4142135623731
 10
2887.444881608354
 20
-1015.622160110452
 42
0.4142135623731
  0
LINE
  5
349
330
1F
100
AcDbEntity
  8
1-E
  6
Continuous
 62
   120
370
     5
100
AcDbLine
 10
1859.944881608354
 20
-1073.610184508513
 30
0.0
 11
1859.944881608354
 21
-1193.610184508513
 31
0.0
  0
LWPOLYLINE
  5
34A
330
1F
100
AcDbEntity
  8
1-E
  6
Continuous
 62
     7
370
     9
100
AcDbPolyline
 90
        4
 70
     1
 43
3.0
 10
1861.444881608354
 20
-1193.610184508513
 42
0.4142135623731
 10
1859.944881608354
 20
-1192.110184508513
 42
0.4142135623731
 10
1858.444881608354
 20
-1193.610184508513
 42
0.4142135623731
 10
1859.944881608354
 20
-1195.110184508513
 42
0.4142135623731
  0
MTEXT
  5
34B
330
1F
100
AcDbEntity
  8
1-E
  6
Continuous
 62
     7
370
     0
100
AcDbMText
 10
2200.90465201719
 20
-1318.317469751744
 30
0.0
 40
91.44
 41
60.0
 46
0.0
 71
     7
 72
     1
  1
{\fＭＳ ゴシック|b0|i0|c128|p49;1}
 73
     1
 44
1.0
  0
LINE
  5
34C
330
1F
100
AcDbEntity
  8
1-E
  6
Continuous
 62
   120
370
     5
100
AcDbLine
 10
2234.944881608354
 20
-1073.610184508513
 30
0.0
 11
2234.944881608354
 21
-1193.610184508513
 31
0.0
  0
LWPOLYLINE
  5
34D
330
1F
100
AcDbEntity
  8
1-E
  6
Continuous
 62
     7
370
     9
100
AcDbPolyline
 90
        4
 70
     1
 43
3.0
 10
2236.444881608354
 20
-1193.610184508513
 42
0.4142135623731
 10
2234.944881608354
 20
-1192.110184508513
 42
0.4142135623731
 10
2233.444881608354
 20
-1193.610184508513
 42
0.4142135623731
 10
2234.944881608354
 20
-1195.110184508513
 42
0.4142135623731
  0
MTEXT
  5
34E
330
1F
100
AcDbEntity
  8
1-E
  6
Continuous
 62
     7
370
   211
100
AcDbMText
 10
-296.2928202651777
 20
-1555.04482701702
 30
0.0
 40
68.58
 41
90.0
 46
0.0
 71
     7
 72
     1
  1
{\fＭＳ ゴシック|b0|i0|c128|p49;27}
 73
     1
 44
1.0
  0
LINE
  5
34F
330
1F
100
AcDbEntity
  8
1-E
  6
Continuous
 62
   120
370
     5
100
AcDbLine
 10
1859.944881608354
 20
-1193.610184508513
 30
0.0
 11
2234.944881608354
 21
-1193.610184508513
 31
0.0
  0
LINE
  5
350
330
1F
100
AcDbEntity
  8
1-E
  6
Continuous
 62
   120
370
     5
100
AcDbLine
 10
2219.944881608354
 20
-1073.610184508513
 30
0.0
 11
2219.944881608354
 21
-1193.610184508513
 31
0.0
  0
LWPOLYLINE
  5
351
330
1F
100
AcDbEntity
  8
1-E
  6
Continuous
 62
     7
370
     9
100
AcDbPolyline
 90
        4
 70
     1
 43
3.0
 10
2221.444881608354
 20
-1193.610184508513
 42
0.4142135623731
 10
2219.944881608354
 20
-1192.110184508513
 42
0.4142135623731
 10
2218.444881608354
 20
-1193.610184508513
 42
0.4142135623731
 10
2219.944881608354
 20
-1195.110184508513
 42
0.4142135623731
  0
LINE
  5
352
330
1F
100
AcDbEntity
  8
1-E
  6
Continuous
 62
   120
370
     5
100
AcDbLine
 10
1874.945027408517
 20
-1073.610184508513
 30
0.0
 11
1874.945027408517
 21
-1193.610184508513
 31
0.0
  0
LWPOLYLINE
  5
353
330
1F
100
AcDbEntity
  8
1-E
  6
Continuous
 62
     7
370
     9
100
AcDbPolyline
 90
        4
 70
     1
 43
3.0
 10
1876.445027408517
 20
-1193.610184508513
 42
0.4142135623731
 10
1874.945027408517
 20
-1192.110184508513
 42
0.4142135623731
 10
1873.445027408518
 20
-1193.610184508513
 42
0.4142135623731
 10
1874.945027408517
 20
-1195.110184508513
 42
0.4142135623731
  0
MTEXT
  5
354
330
1F
100
AcDbEntity
  8
1-E
  6
Continuous
 62
     7
370
   211
100
AcDbMText
 10
-46.29229239355794
 20
-1555.04482701702
 30
0.0
 40
68.58
 41
90.0
 46
0.0
 71
     7
 72
     1
  1
{\fＭＳ ゴシック|b0|i0|c128|p49;23}
 73
     1
 44
1.0
  0
LINE
  5
355
330
1F
100
AcDbEntity
  8
1-E
  6
Continuous
 62
   120
370
     5
100
AcDbLine
 10
2617.444881608354
 20
-939.1221601104521
 30
0.0
 11
2887.444881608354
 21
-939.1221601104521
 31
0.0
  0
LWPOLYLINE
  5
356
330
1F
100
AcDbEntity
  8
1-E
  6
Continuous
 62
     7
370
     9
100
AcDbPolyline
 90
        4
 70
     1
 43
3.0
 10
2888.944881608354
 20
-939.1221601104521
 42
0.4142135623731
 10
2887.444881608354
 20
-937.6221601104521
 42
0.4142135623731
 10
2885.944881608354
 20
-939.1221601104521
 42
0.4142135623731
 10
2887.444881608354
 20
-940.6221601104522
 42
0.4142135623731
  0
LINE
  5
357
330
1F
100
AcDbEntity
  8
1-E
  6
Continuous
 62
   120
370
     5
100
AcDbLine
 10
1807.444881608354
 20
-752.2822231581156
 30
0.0
 11
1807.444881608354
 21
-392.2822231581156
 31
0.0
  0
LWPOLYLINE
  5
358
330
1F
100
AcDbEntity
  8
1-E
  6
Continuous
 62
     7
370
     9
100
AcDbPolyline
 90
        4
 70
     1
 43
3.0
 10
1808.944881608354
 20
-632.2822231581156
 42
0.4142135623731
 10
1807.444881608354
 20
-630.7822231581156
 42
0.4142135623731
 10
1805.944881608354
 20
-632.2822231581156
 42
0.4142135623731
 10
1807.444881608354
 20
-633.7822231581157
 42
0.4142135623731
  0
LWPOLYLINE
  5
359
330
1F
100
AcDbEntity
  8
1-E
  6
Continuous
 62
     7
370
     9
100
AcDbPolyline
 90
        4
 70
     1
 43
3.0
 10
1808.944881608354
 20
-512.2822231581156
 42
0.4142135623731
 10
1807.444881608354
 20
-510.7822231581156
 42
0.4142135623731
 10
1805.944881608354
 20
-512.2822231581156
 42
0.4142135623731
 10
1807.444881608354
 20
-513.7822231581157
 42
0.4142135623731
  0
LWPOLYLINE
  5
35A
330
1F
100
AcDbEntity
  8
1-E
  6
Continuous
 62
     7
370
     9
100
AcDbPolyline
 90
        4
 70
     1
 43
3.0
 10
1808.944881608354
 20
-392.2822231581156
 42
0.4142135623731
 10
1807.444881608354
 20
-390.7822231581156
 42
0.4142135623731
 10
1805.944881608354
 20
-392.2822231581156
 42
0.4142135623731
 10
1807.444881608354
 20
-393.7822231581156
 42
0.4142135623731
  0
MTEXT
  5
35B
330
1F
100
AcDbEntity
  8
1-E
  6
Continuous
 62
     7
370
   211
100
AcDbMText
 10
203.7074931586015
 20
-1555.04482701702
 30
0.0
 40
68.58
 41
90.0
 46
0.0
 71
     7
 72
     1
  1
{\fＭＳ ゴシック|b0|i0|c128|p49;27}
 73
     1
 44
1.0
  0
LINE
  5
35C
330
1F
100
AcDbEntity
  8
1-E
  6
JWW_HOJO
 62
   120
370
     5
100
AcDbLine
 10
1507.444881608354
 20
-392.2822231581156
 30
0.0
 11
1507.444881608354
 21
-1193.610184508687
 31
0.0
  0
LINE
  5
35D
330
1F
100
AcDbEntity
  8
1-E
  6
JWW_HOJO
 62
   120
370
     5
100
AcDbLine
 10
1807.444881608354
 20
-632.2822231581156
 30
0.0
 11
2287.444881608354
 21
-632.2822231581156
 31
0.0
  0
LINE
  5
35E
330
1F
100
AcDbEntity
  8
1-E
  6
JWW_HOJO
 62
   120
370
     5
100
AcDbLine
 10
1807.444881608354
 20
-512.2822231581156
 30
0.0
 11
2287.444881608354
 21
-512.2822231581156
 31
0.0
  0
LINE
  5
35F
330
1F
100
AcDbEntity
  8
1-E
  6
Continuous
 62
   120
370
     5
100
AcDbLine
 10
1807.444881608354
 20
-512.2822231581156
 30
0.0
 11
2287.444881608354
 21
-512.2822231581156
 31
0.0
  0
LINE
  5
360
330
1F
100
AcDbEntity
  8
1-E
  6
Continuous
 62
   120
370
     5
100
AcDbLine
 10
1807.444881608354
 20
-392.2822231581156
 30
0.0
 11
2287.444881608354
 21
-392.2822231581156
 31
0.0
  0
LWPOLYLINE
  5
361
330
1F
100
AcDbEntity
  8
1-E
  6
Continuous
 62
     7
370
     9
100
AcDbPolyline
 90
        4
 70
     1
 43
3.0
 10
2288.944881608354
 20
-632.2822231581156
 42
0.4142135623731
 10
2287.444881608354
 20
-630.7822231581156
 42
0.4142135623731
 10
2285.944881608354
 20
-632.2822231581156
 42
0.4142135623731
 10
2287.444881608354
 20
-633.7822231581157
 42
0.4142135623731
  0
LWPOLYLINE
  5
362
330
1F
100
AcDbEntity
  8
1-E
  6
Continuous
 62
     7
370
     9
100
AcDbPolyline
 90
        4
 70
     1
 43
3.0
 10
2288.944881608354
 20
-512.2822231581156
 42
0.4142135623731
 10
2287.444881608354
 20
-510.7822231581156
 42
0.4142135623731
 10
2285.944881608354
 20
-512.2822231581156
 42
0.4142135623731
 10
2287.444881608354
 20
-513.7822231581157
 42
0.4142135623731
  0
LWPOLYLINE
  5
363
330
1F
100
AcDbEntity
  8
1-E
  6
Continuous
 62
     7
370
     9
100
AcDbPolyline
 90
        4
 70
     1
 43
3.0
 10
2288.944881608354
 20
-392.2822231581156
 42
0.4142135623731
 10
2287.444881608354
 20
-390.7822231581156
 42
0.4142135623731
 10
2285.944881608354
 20
-392.2822231581156
 42
0.4142135623731
 10
2287.444881608354
 20
-393.7822231581156
 42
0.4142135623731
  0
LINE
  5
364
330
1F
100
AcDbEntity
  8
1-E
  6
Continuous
 62
   120
370
     5
100
AcDbLine
 10
2287.444881608354
 20
-752.2822231581156
 30
0.0
 11
2287.444881608354
 21
-392.2822231581156
 31
0.0
  0
MTEXT
  5
365
330
1F
100
AcDbEntity
  8
1-E
  6
Continuous
 62
     7
370
   211
100
AcDbMText
 10
2002.444881608354
 20
-1764.467876345044
 30
0.0
 40
68.58
 41
90.0
 46
0.0
 71
     7
 72
     1
  1
{\fＭＳ ゴシック|b0|i0|c128|p49;32}
 73
     1
 44
1.0
  0
LINE
  5
366
330
1F
100
AcDbEntity
  8
1-E
  6
JWW_HOJO
 62
   120
370
     5
100
AcDbLine
 10
1507.444881608354
 20
-392.2822231581156
 30
0.0
 11
2587.444881608354
 21
-392.2822231581156
 31
0.0
  0
LINE
  5
367
330
1F
100
AcDbEntity
  8
1-E
  6
JWW_HOJO
 62
   120
370
     5
100
AcDbLine
 10
2587.444881608354
 20
-392.2822231581156
 30
0.0
 11
2587.444881608354
 21
-1193.610184508687
 31
0.0
  0
LINE
  5
368
330
1F
100
AcDbEntity
  8
1-E
  6
Continuous
 62
   120
370
     5
100
AcDbLine
 10
2617.444881608354
 20
-834.1221601104521
 30
0.0
 11
2887.444881608354
 21
-834.1221601104521
 31
0.0
  0
LWPOLYLINE
  5
369
330
1F
100
AcDbEntity
  8
1-E
  6
Continuous
 62
     7
370
     9
100
AcDbPolyline
 90
        4
 70
     1
 43
3.0
 10
2888.944881608354
 20
-834.1221601104521
 42
0.4142135623731
 10
2887.444881608354
 20
-832.6221601104521
 42
0.4142135623731
 10
2885.944881608354
 20
-834.1221601104521
 42
0.4142135623731
 10
2887.444881608354
 20
-835.6221601104522
 42
0.4142135623731
  0
LWPOLYLINE
  5
36A
330
1F
100
AcDbEntity
  8
1-E
  6
Continuous
 62
     7
370
     9
100
AcDbPolyline
 90
        4
 70
     1
 43
3.0
 10
1966.444881608354
 20
-512.2822231581156
 42
0.4142135623731
 10
1964.944881608354
 20
-510.7822231581156
 42
0.4142135623731
 10
1963.444881608354
 20
-512.2822231581156
 42
0.4142135623731
 10
1964.944881608354
 20
-513.7822231581157
 42
0.4142135623731
  0
LINE
  5
36B
330
1F
100
AcDbEntity
  8
1-E
  6
Continuous
 62
   120
370
     5
100
AcDbLine
 10
1964.944881608354
 20
-512.2822231581156
 30
0.0
 11
1964.944881608354
 21
-752.2822231581156
 31
0.0
  0
LWPOLYLINE
  5
36C
330
1F
100
AcDbEntity
  8
1-E
  6
Continuous
 62
     7
370
     9
100
AcDbPolyline
 90
        4
 70
     1
 43
3.0
 10
2131.444881608354
 20
-512.2822231581156
 42
0.4142135623731
 10
2129.944881608354
 20
-510.7822231581156
 42
0.4142135623731
 10
2128.444881608354
 20
-512.2822231581156
 42
0.4142135623731
 10
2129.944881608354
 20
-513.7822231581157
 42
0.4142135623731
  0
LINE
  5
36D
330
1F
100
AcDbEntity
  8
1-E
  6
Continuous
 62
   120
370
     5
100
AcDbLine
 10
2129.944881608354
 20
-512.2822231581156
 30
0.0
 11
2129.944881608354
 21
-752.2822231581156
 31
0.0
  0
MTEXT
  5
36E
330
1F
100
AcDbEntity
  8
1-E
  6
Continuous
 62
     7
370
   211
100
AcDbMText
 10
2002.444881608354
 20
-1923.930164335515
 30
0.0
 40
68.58
 41
90.0
 46
0.0
 71
     7
 72
     1
  1
{\fＭＳ ゴシック|b0|i0|c128|p49;11}
 73
     1
 44
1.0
  0
LINE
  5
36F
330
1F
100
AcDbEntity
  8
1-E
  6
Continuous
 62
    40
370
    15
100
AcDbLine
 10
1860.160386135422
 20
-834.1221601104521
 30
0.0
 11
1507.444881608354
 21
-834.1221601104521
 31
0.0
  0
LINE
  5
370
330
1F
100
AcDbEntity
  8
1-E
  6
Continuous
 62
    40
370
    15
100
AcDbLine
 10
2234.729377081286
 20
-834.1221601104521
 30
0.0
 11
2587.444881608354
 21
-834.1221601104521
 31
0.0
  0
MTEXT
  5
371
330
1F
100
AcDbEntity
  8
1-E
  6
Continuous
 62
     7
370
     9
100
AcDbMText
 10
-736.69481442095
 20
-1948.845202715165
 30
0.0
 40
91.44000000000003
 41
1740.0
 46
0.0
 71
     7
 72
     1
  1
{\fＭＳ ゴシック|b0|i0|c128|p49;レール埋込時 フロアー貼込位置}
 73
     1
 44
1.0
  0
MTEXT
  5
372
330
1F
100
AcDbEntity
  8
1-E
  6
Continuous
 62
     7
370
   211
100
AcDbMText
 10
1574.593155869428
 20
-2060.086971205946
 30
0.0
 40
68.57999999999998
 41
135.0
 46
0.0
 71
     7
 72
     1
  1
{\fＭＳ ゴシック|b0|i0|c128|p49;1.2}
 11
6.123031769111886E-17
 21
1.0
 31
0.0
 73
     1
 44
1.0
  0
MTEXT
  5
373
330
1F
100
AcDbEntity
  8
1-E
  6
Continuous
 62
     7
370
   211
100
AcDbMText
 10
1574.593155869428
 20
-2172.110280268266
 30
0.0
 40
68.58
 41
45.0
 46
0.0
 71
     7
 72
     1
  1
{\fＭＳ ゴシック|b0|i0|c128|p49;7}
 11
6.123031769111886E-17
 21
1.0
 31
0.0
 73
     1
 44
1.0
  0
LINE
  5
374
330
1F
100
AcDbEntity
  8
1-E
  6
Continuous
 62
     7
370
     9
100
AcDbLine
 10
1859.944881608354
 20
-870.1221601104501
 30
0.0
 11
1507.444881608354
 21
-870.1221601104501
 31
0.0
  0
LINE
  5
375
330
1F
100
AcDbEntity
  8
1-E
  6
Continuous
 62
     7
370
     9
100
AcDbLine
 10
1859.944881608354
 20
-906.1221601104514
 30
0.0
 11
1507.444881608354
 21
-906.1221601104514
 31
0.0
  0
LINE
  5
376
330
1F
100
AcDbEntity
  8
1-E
  6
Continuous
 62
     7
370
     9
100
AcDbLine
 10
1859.944881608354
 20
-942.1221601104494
 30
0.0
 11
1507.444881608354
 21
-942.1221601104494
 31
0.0
  0
LINE
  5
377
330
1F
100
AcDbEntity
  8
1-E
  6
Continuous
 62
     7
370
     9
100
AcDbLine
 10
1859.944881608354
 20
-978.1221601104507
 30
0.0
 11
1507.444881608354
 21
-978.1221601104507
 31
0.0
  0
LINE
  5
378
330
1F
100
AcDbEntity
  8
1-E
  6
Continuous
 62
     7
370
     9
100
AcDbLine
 10
2587.444881608354
 20
-870.5501303484018
 30
0.0
 11
2234.944881608354
 21
-870.5501303484018
 31
0.0
  0
LINE
  5
379
330
1F
100
AcDbEntity
  8
1-E
  6
Continuous
 62
     7
370
     9
100
AcDbLine
 10
2587.444881608354
 20
-906.5501303484032
 30
0.0
 11
2234.944881608354
 21
-906.5501303484032
 31
0.0
  0
LINE
  5
37A
330
1F
100
AcDbEntity
  8
1-E
  6
Continuous
 62
     7
370
     9
100
AcDbLine
 10
2587.444881608354
 20
-942.5501303484011
 30
0.0
 11
2234.944881608354
 21
-942.5501303484011
 31
0.0
  0
LINE
  5
37B
330
1F
100
AcDbEntity
  8
1-E
  6
Continuous
 62
     7
370
     9
100
AcDbLine
 10
2587.444881608354
 20
-978.5501303484025
 30
0.0
 11
2234.944881608354
 21
-978.5501303484025
 31
0.0
  0
LINE
  5
37C
330
1F
100
AcDbEntity
  8
1-E
  6
Continuous
 62
   120
370
     5
100
AcDbLine
 10
2887.444881608354
 20
-1014.122160110452
 30
0.0
 11
2887.444881608354
 21
-816.1221601104514
 31
0.0
  0
LINE
  5
37D
330
1F
100
AcDbEntity
  8
1-E
  6
Continuous
 62
   120
370
     5
100
AcDbLine
 10
2617.444881608354
 20
-816.1221601104514
 30
0.0
 11
2887.444881608354
 21
-816.1221601104514
 31
0.0
  0
LWPOLYLINE
  5
37E
330
1F
100
AcDbEntity
  8
1-E
  6
Continuous
 62
     7
370
     9
100
AcDbPolyline
 90
        4
 70
     1
 43
3.0
 10
2888.944881608354
 20
-816.1221601104514
 42
0.4142135623731
 10
2887.444881608354
 20
-814.6221601104514
 42
0.4142135623731
 10
2885.944881608354
 20
-816.1221601104514
 42
0.4142135623731
 10
2887.444881608354
 20
-817.6221601104515
 42
0.4142135623731
  0
LINE
  5
37F
330
1F
100
AcDbEntity
  8
1-E
  6
Continuous
 62
   120
370
     5
100
AcDbLine
 10
2192.944881608351
 20
-632.2822231581156
 30
0.0
 11
2287.444881608354
 21
-632.2822231581156
 31
0.0
  0
LWPOLYLINE
  5
380
330
1F
100
AcDbEntity
  8
1-E
  6
Continuous
 62
     7
370
     9
100
AcDbPolyline
 90
        4
 70
     1
 43
3.0
 10
2194.444881608351
 20
-632.2822231581156
 42
0.4142135623731
 10
2192.944881608351
 20
-630.7822231581156
 42
0.4142135623731
 10
2191.444881608351
 20
-632.2822231581156
 42
0.4142135623731
 10
2192.944881608351
 20
-633.7822231581157
 42
0.4142135623731
  0
LINE
  5
381
330
1F
100
AcDbEntity
  8
1-E
  6
Continuous
 62
   120
370
     5
100
AcDbLine
 10
2192.944881608351
 20
-632.2822231581156
 30
0.0
 11
2192.944881608351
 21
-752.2822231581156
 31
0.0
  0
LINE
  5
382
330
1F
100
AcDbEntity
  8
1-E
  6
Continuous
 62
   120
370
     5
100
AcDbLine
 10
1807.444881608354
 20
-632.2822231581156
 30
0.0
 11
1901.944881608357
 21
-632.2822231581156
 31
0.0
  0
LINE
  5
383
330
1F
100
AcDbEntity
  8
1-E
  6
Continuous
 62
   120
370
     5
100
AcDbLine
 10
1901.944881608357
 20
-632.2822231581156
 30
0.0
 11
1901.944881608357
 21
-752.2822231581156
 31
0.0
  0
LWPOLYLINE
  5
384
330
1F
100
AcDbEntity
  8
1-E
  6
Continuous
 62
     7
370
     9
100
AcDbPolyline
 90
        4
 70
     1
 43
3.0
 10
1903.444881608357
 20
-632.2822231581156
 42
0.4142135623731
 10
1901.944881608357
 20
-630.7822231581156
 42
0.4142135623731
 10
1900.444881608357
 20
-632.2822231581156
 42
0.4142135623731
 10
1901.944881608357
 20
-633.7822231581157
 42
0.4142135623731
  0
MTEXT
  5
385
330
1F
100
AcDbEntity
  8
1-E
  6
Continuous
 62
     7
370
   211
100
AcDbMText
 10
1418.150185625434
 20
-2208.110280268266
 30
0.0
 40
68.57999999999998
 41
135.0
 46
0.0
 71
     7
 72
     1
  1
{\fＭＳ ゴシック|b0|i0|c128|p49;8.2}
 11
6.123031769111886E-17
 21
1.0
 31
0.0
 73
     1
 44
1.0
  0
MTEXT
  5
386
330
1F
100
AcDbEntity
  8
1-E
  6
Continuous
 62
     7
370
     9
100
AcDbMText
 10
-533.6074248432228
 20
-2241.439083674889
 30
0.0
 40
91.44
 41
360.0
 46
0.0
 71
     7
 72
     1
  1
{\fＭＳ ゴシック|b0|i0|c128|p49;収納側}
 73
     1
 44
1.0
  0
MTEXT
  5
387
330
1F
100
AcDbEntity
  8
1-E
  6
Continuous
 62
     7
370
   211
100
AcDbMText
 10
1957.444881608354
 20
-2398.006629078716
 30
0.0
 40
68.58
 41
180.0
 46
0.0
 71
     7
 72
     1
  1
{\fＭＳ ゴシック|b0|i0|c128|p49;19.4}
 73
     1
 44
1.0
  0
LINE
  5
388
330
1F
100
AcDbEntity
  8
1-E
  6
Continuous
 62
   120
370
     5
100
AcDbLine
 10
1874.944881608354
 20
-959.4214392887252
 30
0.0
 11
1897.444881608354
 21
-936.9214392887218
 31
0.0
  0
LINE
  5
389
330
1F
100
AcDbEntity
  8
1-E
  6
Continuous
 62
    92
370
    13
100
AcDbLine
 10
1897.444881608354
 20
-939.1221601104521
 30
0.0
 11
2197.444881608354
 21
-939.1221601104521
 31
0.0
  0
LINE
  5
38A
330
1F
100
AcDbEntity
  8
1-E
  6
Continuous
 62
    92
370
    13
100
AcDbLine
 10
1897.444881608354
 20
-909.1221601104487
 30
0.0
 11
1897.444881608354
 21
-939.1221601104521
 31
0.0
  0
LINE
  5
38B
330
1F
100
AcDbEntity
  8
1-E
  6
Continuous
 62
    92
370
    13
100
AcDbLine
 10
1897.444881608354
 20
-909.1221601104487
 30
0.0
 11
1874.944735808191
 21
-909.1221601104487
 31
0.0
  0
LINE
  5
38C
330
1F
100
AcDbEntity
  8
1-E
  6
Continuous
 62
    92
370
    13
100
AcDbLine
 10
2197.444881608354
 20
-909.1221601104487
 30
0.0
 11
2219.472169907468
 21
-909.1221601104487
 31
0.0
  0
LINE
  5
38D
330
1F
100
AcDbEntity
  8
1-E
  6
Continuous
 62
    92
370
    13
100
AcDbLine
 10
2197.444881608354
 20
-909.1221601104487
 30
0.0
 11
2197.444881608354
 21
-939.1221601104521
 31
0.0
  0
LINE
  5
38E
330
1F
100
AcDbEntity
  8
1-E
  6
Continuous
 62
    92
370
    13
100
AcDbLine
 10
2219.472024107291
 20
-909.1216042847034
 30
0.0
 11
2219.472024107291
 21
-1014.122160110452
 31
0.0
  0
LINE
  5
38F
330
1F
100
AcDbEntity
  8
1-E
  6
Continuous
 62
    92
370
    13
100
AcDbLine
 10
1874.944881608354
 20
-909.1216042847034
 30
0.0
 11
1874.944881608354
 21
-1014.122160110452
 31
0.0
  0
LINE
  5
390
330
1F
100
AcDbEntity
  8
1-E
  6
Continuous
 62
    92
370
    13
100
AcDbLine
 10
1874.944881608354
 20
-1014.122160110452
 30
0.0
 11
2219.472024107291
 21
-1014.122160110452
 31
0.0
  0
LINE
  5
391
330
1F
100
AcDbEntity
  8
1-E
  6
Continuous
 62
   120
370
     5
100
AcDbLine
 10
2202.08182262738
 20
-1014.122160110452
 30
0.0
 11
2219.472024107291
 21
-996.7319586305236
 31
0.0
  0
LINE
  5
392
330
1F
100
AcDbEntity
  8
1-E
  6
Continuous
 62
   120
370
     5
100
AcDbLine
 10
1883.883771093434
 20
-1014.122160110452
 30
0.0
 11
1958.883771093434
 21
-939.1221601104521
 31
0.0
  0
LINE
  5
393
330
1F
100
AcDbEntity
  8
1-E
  6
Continuous
 62
   120
370
     5
100
AcDbLine
 10
2074.80260201378
 20
-1014.122160110452
 30
0.0
 11
2149.80260201378
 21
-939.1221601104521
 31
0.0
  0
LINE
  5
394
330
1F
100
AcDbEntity
  8
1-E
  6
Continuous
 62
   120
370
     5
100
AcDbLine
 10
2011.162991706979
 20
-1014.122160110452
 30
0.0
 11
2086.162991706979
 21
-939.1221601104453
 31
0.0
  0
LINE
  5
395
330
1F
100
AcDbEntity
  8
1-E
  6
Continuous
 62
   120
370
     5
100
AcDbLine
 10
1947.523381400179
 20
-1014.122160110452
 30
0.0
 11
2022.523381400179
 21
-939.1221601104419
 31
0.0
  0
LINE
  5
396
330
1F
100
AcDbEntity
  8
1-E
  6
Continuous
 62
   120
370
     5
100
AcDbLine
 10
2138.44221232058
 20
-1014.122160110452
 30
0.0
 11
2219.472024107291
 21
-933.0923483237236
 31
0.0
  0
LINE
  5
397
330
1F
100
AcDbEntity
  8
1-E
  6
JWW_HOJO
 62
   120
370
     5
100
AcDbLine
 10
2047.444881608354
 20
-819.6331525231235
 30
0.0
 11
2047.444881608354
 21
-973.8409357067635
 31
0.0
  0
LINE
  5
398
330
1F
100
AcDbEntity
  8
1-E
  6
Continuous
 62
     7
370
     9
100
AcDbLine
 10
1919.944881608354
 20
-921.1221601104514
 30
0.0
 11
1949.944881608354
 21
-921.1221601104514
 31
0.0
  0
LINE
  5
399
330
1F
100
AcDbEntity
  8
1-E
  6
Continuous
 62
     7
370
     9
100
AcDbLine
 10
1964.944881608354
 20
-921.1221601104514
 30
0.0
 11
2042.944881608351
 21
-921.1221601104514
 31
0.0
  0
LINE
  5
39A
330
1F
100
AcDbEntity
  8
1-E
  6
Continuous
 62
     7
370
     9
100
AcDbLine
 10
2042.944881608351
 20
-921.1221601104514
 30
0.0
 11
2047.444881608354
 21
-925.6221601104507
 31
0.0
  0
LINE
  5
39B
330
1F
100
AcDbEntity
  8
1-E
  6
Continuous
 62
     7
370
     9
100
AcDbLine
 10
2047.444881608354
 20
-925.6221601104507
 30
0.0
 11
2051.944881608357
 21
-921.1221601104514
 31
0.0
  0
LINE
  5
39C
330
1F
100
AcDbEntity
  8
1-E
  6
Continuous
 62
     7
370
     9
100
AcDbLine
 10
2051.944881608357
 20
-921.1221601104514
 30
0.0
 11
2129.944881608354
 21
-921.1221601104514
 31
0.0
  0
LINE
  5
39D
330
1F
100
AcDbEntity
  8
1-E
  6
Continuous
 62
     7
370
     9
100
AcDbLine
 10
2144.944881608354
 20
-921.1221601104514
 30
0.0
 11
2174.944881608354
 21
-921.1221601104514
 31
0.0
  0
LINE
  5
39E
330
1F
100
AcDbEntity
  8
1-E
  6
Continuous
 62
     7
370
     9
100
AcDbLine
 10
2282.944881608351
 20
-834.1221601104521
 30
0.0
 11
2192.944881608351
 21
-834.1221601104521
 31
0.0
  0
LINE
  5
39F
330
1F
100
AcDbEntity
  8
1-E
  6
Continuous
 62
     7
370
     9
100
AcDbLine
 10
1901.944881608357
 20
-834.1221601104521
 30
0.0
 11
1811.944881608357
 21
-834.1221601104521
 31
0.0
  0
LINE
  5
3A0
330
1F
100
AcDbEntity
  8
1-E
  6
Continuous
 62
     7
370
     9
100
AcDbLine
 10
1901.944881608357
 20
-816.1221601104514
 30
0.0
 11
1811.944881608357
 21
-825.1221601104501
 31
0.0
  0
ARC
  5
3A1
330
1F
100
AcDbEntity
  8
1-E
  6
Continuous
 62
     7
370
     9
100
AcDbCircle
 10
1811.944881608357
 20
-829.6221601104494
 30
0.0
 40
4.500000000000001
100
AcDbArc
 50
90.0
 51
270.0
  0
ARC
  5
3A2
330
1F
100
AcDbEntity
  8
1-E
  6
Continuous
 62
     7
370
     9
100
AcDbCircle
 10
2282.944881608351
 20
-829.6221601104494
 30
0.0
 40
4.500000000000001
100
AcDbArc
 50
270.0
 51
89.99999999999997
  0
LINE
  5
3A3
330
1F
100
AcDbEntity
  8
1-E
  6
Continuous
 62
     7
370
     9
100
AcDbLine
 10
2282.944881608351
 20
-825.1221601104501
 30
0.0
 11
2192.944881608351
 21
-816.1221601104514
 31
0.0
  0
LINE
  5
3A4
330
1F
100
AcDbEntity
  8
1-E
  6
Continuous
 62
     7
370
     9
100
AcDbLine
 10
1955.944881608349
 20
-816.1221601104514
 30
0.0
 11
1901.944881608357
 21
-816.1221601104514
 31
0.0
  0
ARC
  5
3A5
330
1F
100
AcDbEntity
  8
1-E
  6
Continuous
 62
     7
370
     9
100
AcDbCircle
 10
1955.944881608349
 20
-825.1221601104501
 30
0.0
 40
9.000000000000002
100
AcDbArc
 50
0.0
 51
90.0
  0
ARC
  5
3A6
330
1F
100
AcDbEntity
  8
1-E
  6
Continuous
 62
     7
370
     9
100
AcDbCircle
 10
1955.944881608349
 20
-825.1221601104501
 30
0.0
 40
9.000000000000002
100
AcDbArc
 50
270.0
 51
0.0
  0
ARC
  5
3A7
330
1F
100
AcDbEntity
  8
1-E
  6
Continuous
 62
     7
370
     9
100
AcDbCircle
 10
2138.94488160836
 20
-825.1221601104501
 30
0.0
 40
9.000000000000002
100
AcDbArc
 50
180.0
 51
270.0
  0
LINE
  5
3A8
330
1F
100
AcDbEntity
  8
1-E
  6
Continuous
 62
     7
370
     9
100
AcDbLine
 10
2138.94488160836
 20
-816.1221601104514
 30
0.0
 11
2192.944881608351
 21
-816.1221601104514
 31
0.0
  0
ARC
  5
3A9
330
1F
100
AcDbEntity
  8
1-E
  6
Continuous
 62
     7
370
     9
100
AcDbCircle
 10
2138.94488160836
 20
-825.1221601104501
 30
0.0
 40
9.000000000000002
100
AcDbArc
 50
90.0
 51
180.0
  0
LINE
  5
3AA
330
1F
100
AcDbEntity
  8
1-E
  6
Continuous
 62
     7
370
     9
100
AcDbLine
 10
2192.944881608351
 20
-916.6221601104521
 30
0.0
 11
2192.944881608351
 21
-834.1221601104521
 31
0.0
  0
ARC
  5
3AB
330
1F
100
AcDbEntity
  8
1-E
  6
Continuous
 62
     7
370
     9
100
AcDbCircle
 10
2170.444881608351
 20
-916.6221601104521
 30
0.0
 40
22.5
100
AcDbArc
 50
270.0
 51
0.0
  0
LINE
  5
3AC
330
1F
100
AcDbEntity
  8
1-E
  6
Continuous
 62
     7
370
     9
100
AcDbLine
 10
1901.944881608357
 20
-916.6221601104521
 30
0.0
 11
1901.944881608357
 21
-834.1221601104521
 31
0.0
  0
LINE
  5
3AD
330
1F
100
AcDbEntity
  8
1-E
  6
Continuous
 62
     7
370
     9
100
AcDbLine
 10
1924.444881608357
 20
-939.1221601104521
 30
0.0
 11
2170.444881608351
 21
-939.1221601104521
 31
0.0
  0
ARC
  5
3AE
330
1F
100
AcDbEntity
  8
1-E
  6
Continuous
 62
     7
370
     9
100
AcDbCircle
 10
1924.444881608357
 20
-916.6221601104521
 30
0.0
 40
22.5
100
AcDbArc
 50
180.0
 51
270.0
  0
LINE
  5
3AF
330
1F
100
AcDbEntity
  8
1-E
  6
Continuous
 62
     7
370
     9
100
AcDbLine
 10
1927.444881608354
 20
-834.1221601104521
 30
0.0
 11
1955.944881608349
 21
-834.1221601104521
 31
0.0
  0
LINE
  5
3B0
330
1F
100
AcDbEntity
  8
1-E
  6
Continuous
 62
     7
370
     9
100
AcDbLine
 10
1919.944881608354
 20
-841.6221601104521
 30
0.0
 11
1919.944881608354
 21
-921.1221601104514
 31
0.0
  0
ARC
  5
3B1
330
1F
100
AcDbEntity
  8
1-E
  6
Continuous
 62
     7
370
     9
100
AcDbCircle
 10
1927.444881608354
 20
-841.6221601104521
 30
0.0
 40
7.5
100
AcDbArc
 50
90.0
 51
180.0
  0
LINE
  5
3B2
330
1F
100
AcDbEntity
  8
1-E
  6
Continuous
 62
     7
370
     9
100
AcDbLine
 10
2167.444881608354
 20
-834.1221601104521
 30
0.0
 11
2138.94488160836
 21
-834.1221601104521
 31
0.0
  0
LINE
  5
3B3
330
1F
100
AcDbEntity
  8
1-E
  6
Continuous
 62
     7
370
     9
100
AcDbLine
 10
2174.944881608354
 20
-841.6221601104521
 30
0.0
 11
2174.944881608354
 21
-921.1221601104514
 31
0.0
  0
ARC
  5
3B4
330
1F
100
AcDbEntity
  8
1-E
  6
Continuous
 62
     7
370
     9
100
AcDbCircle
 10
2167.444881608354
 20
-841.6221601104521
 30
0.0
 40
7.5
100
AcDbArc
 50
0.0
 51
90.0
  0
LINE
  5
3B5
330
1F
100
AcDbEntity
  8
1-E
  6
Continuous
 62
     7
370
     9
100
AcDbLine
 10
1949.944881608354
 20
-909.1221601104521
 30
0.0
 11
1949.944881608354
 21
-921.1221601104514
 31
0.0
  0
ARC
  5
3B6
330
1F
100
AcDbEntity
  8
1-E
  6
Continuous
 62
     7
370
     9
100
AcDbCircle
 10
1952.944881608351
 20
-909.1221601104521
 30
0.0
 40
3.0
100
AcDbArc
 50
90.0
 51
180.0
  0
LINE
  5
3B7
330
1F
100
AcDbEntity
  8
1-E
  6
Continuous
 62
     7
370
     9
100
AcDbLine
 10
1961.944881608357
 20
-906.1221601104514
 30
0.0
 11
1952.944881608351
 21
-906.1221601104514
 31
0.0
  0
LINE
  5
3B8
330
1F
100
AcDbEntity
  8
1-E
  6
Continuous
 62
     7
370
     9
100
AcDbLine
 10
1964.944881608354
 20
-909.1221601104521
 30
0.0
 11
1964.944881608354
 21
-921.1221601104514
 31
0.0
  0
ARC
  5
3B9
330
1F
100
AcDbEntity
  8
1-E
  6
Continuous
 62
     7
370
     9
100
AcDbCircle
 10
1961.944881608357
 20
-909.1221601104521
 30
0.0
 40
3.0
100
AcDbArc
 50
0.0
 51
90.0
  0
LINE
  5
3BA
330
1F
100
AcDbEntity
  8
1-E
  6
Continuous
 62
     7
370
     9
100
AcDbLine
 10
2129.944881608354
 20
-909.1221601104521
 30
0.0
 11
2129.944881608354
 21
-921.1221601104514
 31
0.0
  0
ARC
  5
3BB
330
1F
100
AcDbEntity
  8
1-E
  6
Continuous
 62
     7
370
     9
100
AcDbCircle
 10
2132.944881608351
 20
-909.1221601104521
 30
0.0
 40
3.0
100
AcDbArc
 50
90.0
 51
180.0
  0
LINE
  5
3BC
330
1F
100
AcDbEntity
  8
1-E
  6
Continuous
 62
     7
370
     9
100
AcDbLine
 10
2141.944881608357
 20
-906.1221601104514
 30
0.0
 11
2132.944881608351
 21
-906.1221601104514
 31
0.0
  0
LINE
  5
3BD
330
1F
100
AcDbEntity
  8
1-E
  6
Continuous
 62
     7
370
     9
100
AcDbLine
 10
2144.944881608354
 20
-909.1221601104521
 30
0.0
 11
2144.944881608354
 21
-921.1221601104514
 31
0.0
  0
ARC
  5
3BE
330
1F
100
AcDbEntity
  8
1-E
  6
Continuous
 62
     7
370
     9
100
AcDbCircle
 10
2141.944881608357
 20
-909.1221601104521
 30
0.0
 40
3.0
100
AcDbArc
 50
0.0
 51
90.0
  0
ARC
  5
3BF
330
1F
100
AcDbEntity
  8
1-E
  6
JWW_DASHED1
 62
     7
370
     9
100
AcDbCircle
 10
1811.944881608357
 20
-829.6221601104494
 30
0.0
 40
4.500000000000001
100
AcDbArc
 50
270.0
 51
90.0
  0
ARC
  5
3C0
330
1F
100
AcDbEntity
  8
1-E
  6
JWW_DASHED1
 62
     7
370
     9
100
AcDbCircle
 10
2282.944881608351
 20
-829.6221601104494
 30
0.0
 40
4.500000000000001
100
AcDbArc
 50
90.0
 51
270.0
  0
LINE
  5
3C1
330
1F
100
AcDbEntity
  8
1-E
  6
Continuous
 62
    40
370
    15
100
AcDbLine
 10
2234.944881608354
 20
-834.1221601104521
 30
0.0
 11
2234.944881608354
 21
-1014.122160110452
 31
0.0
  0
LINE
  5
3C2
330
1F
100
AcDbEntity
  8
1-E
  6
Continuous
 62
    40
370
    15
100
AcDbLine
 10
1859.944881608354
 20
-834.1221601104521
 30
0.0
 11
1859.944881608354
 21
-1014.122160110452
 31
0.0
  0
LINE
  5
3C3
330
1F
100
AcDbEntity
  8
1-E
  6
Continuous
 62
     7
370
     9
100
AcDbLine
 10
2274.725236951036
 20
-1125.339660921864
 30
0.0
 11
2341.277861427985
 21
-1125.339660921864
 31
0.0
  0
INSERT
  5
3C4
330
1F
100
AcDbEntity
  8
1-E
  6
Continuous
 62
     7
370
     9
100
AcDbBlockReference
  2
01@@SfigorgFlag@@4
 10
2047.444881608354
 20
-2128.669511037496
 30
0.0
 41
30.0
 42
30.0
  0
LWPOLYLINE
  5
3C5
330
1F
100
AcDbEntity
  8
1-E
  6
Continuous
 62
     7
370
     9
100
AcDbPolyline
 90
        4
 70
     1
 43
3.0
 10
1808.944881608357
 20
-2081.900280268263
 42
0.4142135623731
 10
1807.444881608357
 20
-2080.400280268263
 42
0.4142135623731
 10
1805.944881608357
 20
-2081.900280268263
 42
0.4142135623731
 10
1807.444881608357
 20
-2083.400280268263
 42
0.4142135623731
  0
LWPOLYLINE
  5
3C6
330
1F
100
AcDbEntity
  8
1-E
  6
Continuous
 62
     7
370
     9
100
AcDbPolyline
 90
        4
 70
     1
 43
3.0
 10
2288.944881608352
 20
-2081.900280268263
 42
0.4142135623731
 10
2287.444881608352
 20
-2080.400280268263
 42
0.4142135623731
 10
2285.944881608353
 20
-2081.900280268263
 42
0.4142135623731
 10
2287.444881608352
 20
-2083.400280268263
 42
0.4142135623731
  0
LWPOLYLINE
  5
3C7
330
1F
100
AcDbEntity
  8
1-E
  6
Continuous
 62
     7
370
     9
100
AcDbPolyline
 90
        4
 70
     1
 43
3.0
 10
1966.444881608349
 20
-2077.400280268264
 42
0.4142135623731
 10
1964.944881608349
 20
-2075.900280268264
 42
0.4142135623731
 10
1963.444881608349
 20
-2077.400280268264
 42
0.4142135623731
 10
1964.944881608349
 20
-2078.900280268264
 42
0.4142135623731
  0
LWPOLYLINE
  5
3C8
330
1F
100
AcDbEntity
  8
1-E
  6
Continuous
 62
     7
370
     9
100
AcDbPolyline
 90
        4
 70
     1
 43
3.0
 10
2131.44488160836
 20
-2077.400280268264
 42
0.4142135623731
 10
2129.94488160836
 20
-2075.900280268264
 42
0.4142135623731
 10
2128.44488160836
 20
-2077.400280268264
 42
0.4142135623731
 10
2129.94488160836
 20
-2078.900280268264
 42
0.4142135623731
  0
LINE
  5
3C9
330
1F
100
AcDbEntity
  8
1-E
  6
Continuous
 62
   120
370
     5
100
AcDbLine
 10
1964.944881608349
 20
-1928.220164335515
 30
0.0
 11
2129.94488160836
 21
-1928.220164335515
 31
0.0
  0
LWPOLYLINE
  5
3CA
330
1F
100
AcDbEntity
  8
1-E
  6
Continuous
 62
     7
370
     9
100
AcDbPolyline
 90
        4
 70
     1
 43
3.0
 10
1966.444881608349
 20
-1928.220164335515
 42
0.4142135623731
 10
1964.944881608349
 20
-1926.720164335515
 42
0.4142135623731
 10
1963.444881608349
 20
-1928.220164335515
 42
0.4142135623731
 10
1964.944881608349
 20
-1929.720164335515
 42
0.4142135623731
  0
LWPOLYLINE
  5
3CB
330
1F
100
AcDbEntity
  8
1-E
  6
Continuous
 62
     7
370
     9
100
AcDbPolyline
 90
        4
 70
     1
 43
3.0
 10
2131.44488160836
 20
-1928.220164335515
 42
0.4142135623731
 10
2129.94488160836
 20
-1926.720164335515
 42
0.4142135623731
 10
2128.44488160836
 20
-1928.220164335515
 42
0.4142135623731
 10
2129.94488160836
 20
-1929.720164335515
 42
0.4142135623731
  0
LINE
  5
3CC
330
1F
100
AcDbEntity
  8
1-E
  6
Continuous
 62
   120
370
     5
100
AcDbLine
 10
1964.944881608349
 20
-1928.220164335515
 30
0.0
 11
1964.944881608349
 21
-2014.084473253462
 31
0.0
  0
LINE
  5
3CD
330
1F
100
AcDbEntity
  8
1-E
  6
Continuous
 62
   120
370
     5
100
AcDbLine
 10
2129.94488160836
 20
-1928.220164335515
 30
0.0
 11
2129.94488160836
 21
-2014.084473253462
 31
0.0
  0
MTEXT
  5
3CE
330
1F
100
AcDbEntity
  8
1-E
  6
Continuous
 62
     7
370
   211
100
AcDbMText
 10
-173.5973730543824
 20
-2514.960265755131
 30
0.0
 40
91.44000000000065
 41
120.0000000000009
 46
0.0
 71
     7
 72
     1
  1
{\fＭＳ ゴシック|b0|i0|c128|p49;26}
 11
6.123031769111886E-17
 21
1.0
 31
0.0
 73
     1
 44
1.0
  0
LINE
  5
3CF
330
1F
100
AcDbEntity
  8
1-E
  6
Continuous
 62
   120
370
     5
100
AcDbLine
 10
1807.444881608357
 20
-1768.757876345044
 30
0.0
 11
2287.444881608352
 21
-1768.757876345044
 31
0.0
  0
LWPOLYLINE
  5
3D0
330
1F
100
AcDbEntity
  8
1-E
  6
Continuous
 62
     7
370
     9
100
AcDbPolyline
 90
        4
 70
     1
 43
3.0
 10
1808.944881608357
 20
-1768.757876345044
 42
0.4142135623731
 10
1807.444881608357
 20
-1767.257876345044
 42
0.4142135623731
 10
1805.944881608357
 20
-1768.757876345044
 42
0.4142135623731
 10
1807.444881608357
 20
-1770.257876345044
 42
0.4142135623731
  0
LWPOLYLINE
  5
3D1
330
1F
100
AcDbEntity
  8
1-E
  6
Continuous
 62
     7
370
     9
100
AcDbPolyline
 90
        4
 70
     1
 43
3.0
 10
2288.944881608352
 20
-1768.757876345044
 42
0.4142135623731
 10
2287.444881608352
 20
-1767.257876345044
 42
0.4142135623731
 10
2285.944881608353
 20
-1768.757876345044
 42
0.4142135623731
 10
2287.444881608352
 20
-1770.257876345044
 42
0.4142135623731
  0
LINE
  5
3D2
330
1F
100
AcDbEntity
  8
1-E
  6
Continuous
 62
   120
370
     5
100
AcDbLine
 10
1807.444881608357
 20
-1768.757876345044
 30
0.0
 11
1807.444881608357
 21
-2014.084473253462
 31
0.0
  0
LINE
  5
3D3
330
1F
100
AcDbEntity
  8
1-E
  6
Continuous
 62
   120
370
     5
100
AcDbLine
 10
2287.444881608352
 20
-1768.757876345044
 30
0.0
 11
2287.444881608352
 21
-2014.084473253462
 31
0.0
  0
MTEXT
  5
3D4
330
1F
100
AcDbEntity
  8
1-E
  6
Continuous
 62
     7
370
   211
100
AcDbMText
 10
2002.208452857823
 20
-2607.676425215755
 30
0.0
 40
68.58
 41
90.0
 46
0.0
 71
     7
 72
     1
  1
{\fＭＳ ゴシック|b0|i0|c128|p49;23}
 73
     1
 44
1.0
  0
LWPOLYLINE
  5
3D5
330
1F
100
AcDbEntity
  8
1-E
  6
Continuous
 62
     7
370
     9
100
AcDbPolyline
 90
        4
 70
     1
 43
3.0
 10
1591.093155869428
 20
-2068.400280268265
 42
0.4142135623731
 10
1589.593155869428
 20
-2066.900280268265
 42
0.4142135623731
 10
1588.093155869428
 20
-2068.400280268265
 42
0.4142135623731
 10
1589.593155869428
 20
-2069.900280268265
 42
0.4142135623731
  0
LWPOLYLINE
  5
3D6
330
1F
100
AcDbEntity
  8
1-E
  6
Continuous
 62
     7
370
     9
100
AcDbPolyline
 90
        4
 70
     1
 43
3.0
 10
1591.093155869428
 20
-2086.400280268266
 42
0.4142135623731
 10
1589.593155869428
 20
-2084.900280268266
 42
0.4142135623731
 10
1588.093155869428
 20
-2086.400280268266
 42
0.4142135623731
 10
1589.593155869428
 20
-2087.900280268266
 42
0.4142135623731
  0
LINE
  5
3D7
330
1F
100
AcDbEntity
  8
1-E
  6
Continuous
 62
   120
370
     5
100
AcDbLine
 10
1589.593155869428
 20
-2068.400280268265
 30
0.0
 11
1720.434007553919
 21
-2068.400280268265
 31
0.0
  0
LINE
  5
3D8
330
1F
100
AcDbEntity
  8
1-E
  6
Continuous
 62
   120
370
     5
100
AcDbLine
 10
1589.593155869428
 20
-2086.400280268266
 30
0.0
 11
1720.434007553919
 21
-2086.400280268266
 31
0.0
  0
LINE
  5
3D9
330
1F
100
AcDbEntity
  8
1-E
  6
Continuous
 62
   120
370
     5
100
AcDbLine
 10
1589.593155869428
 20
-2086.400280268266
 30
0.0
 11
1589.593155869428
 21
-2191.400280268266
 31
0.0
  0
LWPOLYLINE
  5
3DA
330
1F
100
AcDbEntity
  8
1-E
  6
Continuous
 62
     7
370
     9
100
AcDbPolyline
 90
        4
 70
     1
 43
3.0
 10
1591.093155869428
 20
-2191.400280268266
 42
0.4142135623731
 10
1589.593155869428
 20
-2189.900280268266
 42
0.4142135623731
 10
1588.093155869428
 20
-2191.400280268266
 42
0.4142135623731
 10
1589.593155869428
 20
-2192.900280268266
 42
0.4142135623731
  0
LINE
  5
3DB
330
1F
100
AcDbEntity
  8
1-E
  6
Continuous
 62
   120
370
     5
100
AcDbLine
 10
1589.593155869428
 20
-2191.400280268266
 30
0.0
 11
1720.434007553919
 21
-2191.400280268266
 31
0.0
  0
MTEXT
  5
3DC
330
1F
100
AcDbEntity
  8
1-E
  6
Continuous
 62
     7
370
   211
100
AcDbMText
 10
-173.5973730543824
 20
-2667.960265755132
 30
0.0
 40
91.44000000000065
 41
120.0000000000009
 46
0.0
 71
     7
 72
     1
  1
{\fＭＳ ゴシック|b0|i0|c128|p49;25}
 11
6.123031769111886E-17
 21
1.0
 31
0.0
 73
     1
 44
1.0
  0
LINE
  5
3DD
330
1F
100
AcDbEntity
  8
1-E
  6
Continuous
 62
   120
370
     5
100
AcDbLine
 10
1901.944881608357
 20
-2402.296629078716
 30
0.0
 11
2192.944881608351
 21
-2402.296629078716
 31
0.0
  0
LWPOLYLINE
  5
3DE
330
1F
100
AcDbEntity
  8
1-E
  6
Continuous
 62
     7
370
     9
100
AcDbPolyline
 90
        4
 70
     1
 43
3.0
 10
1903.444881608357
 20
-2402.296629078716
 42
0.4142135623731
 10
1901.944881608357
 20
-2400.796629078716
 42
0.4142135623731
 10
1900.444881608357
 20
-2402.296629078716
 42
0.4142135623731
 10
1901.944881608357
 20
-2403.796629078716
 42
0.4142135623731
  0
LWPOLYLINE
  5
3DF
330
1F
100
AcDbEntity
  8
1-E
  6
Continuous
 62
     7
370
     9
100
AcDbPolyline
 90
        4
 70
     1
 43
3.0
 10
2194.444881608351
 20
-2402.296629078716
 42
0.4142135623731
 10
2192.944881608351
 20
-2400.796629078716
 42
0.4142135623731
 10
2191.444881608351
 20
-2402.296629078716
 42
0.4142135623731
 10
2192.944881608351
 20
-2403.796629078716
 42
0.4142135623731
  0
LINE
  5
3E0
330
1F
100
AcDbEntity
  8
1-E
  6
Continuous
 62
   120
370
     5
100
AcDbLine
 10
1901.944881608357
 20
-2402.296629078716
 30
0.0
 11
1901.944881608357
 21
-2274.680547010566
 31
0.0
  0
LINE
  5
3E1
330
1F
100
AcDbEntity
  8
1-E
  6
Continuous
 62
   120
370
     5
100
AcDbLine
 10
2192.944881608351
 20
-2402.296629078716
 30
0.0
 11
2192.944881608351
 21
-2274.680547010566
 31
0.0
  0
MTEXT
  5
3E2
330
1F
100
AcDbEntity
  8
1-E
  6
Continuous
 62
     7
370
   211
100
AcDbMText
 10
-317.9420485427332
 20
-2668.382373348566
 30
0.0
 40
91.44000000000065
 41
120.0000000000009
 46
0.0
 71
     7
 72
     1
  1
{\fＭＳ ゴシック|b0|i0|c128|p49;77}
 11
6.123031769111886E-17
 21
1.0
 31
0.0
 73
     1
 44
1.0
  0
MTEXT
  5
3E3
330
1F
100
AcDbEntity
  8
1-E
  6
Continuous
 62
     7
370
   211
100
AcDbMText
 10
1725.560217509885
 20
-2769.623660873526
 30
0.0
 40
68.57999999999998
 41
135.0
 46
0.0
 71
     7
 72
     1
  1
{\fＭＳ ゴシック|b0|i0|c128|p49;1.5}
 73
     1
 44
1.0
  0
LINE
  5
3E4
330
1F
100
AcDbEntity
  8
1-E
  6
Continuous
 62
   120
370
     5
100
AcDbLine
 10
1589.593155869428
 20
-1901.912435643958
 30
0.0
 11
1589.593155869428
 21
-2086.400280268266
 31
0.0
  0
LINE
  5
3E5
330
1F
100
AcDbEntity
  8
1-E
  6
JWW_HOJO
 62
   120
370
     5
100
AcDbLine
 10
2047.444881608354
 20
-2071.911272680937
 30
0.0
 11
2047.444881608354
 21
-2226.119055864578
 31
0.0
  0
LINE
  5
3E6
330
1F
100
AcDbEntity
  8
1-E
  6
Continuous
 62
   120
370
     5
100
AcDbLine
 10
1874.944881608354
 20
-3000.906861804463
 30
0.0
 11
1897.444881608354
 21
-2978.40686180446
 31
0.0
  0
LINE
  5
3E7
330
1F
100
AcDbEntity
  8
1-E
  6
Continuous
 62
    92
370
    13
100
AcDbLine
 10
1897.444881608354
 20
-2950.607582626187
 30
0.0
 11
1897.444881608354
 21
-2980.60758262619
 31
0.0
  0
LINE
  5
3E8
330
1F
100
AcDbEntity
  8
1-E
  6
Continuous
 62
    92
370
    13
100
AcDbLine
 10
1897.444881608354
 20
-2950.607582626187
 30
0.0
 11
1874.944735808191
 21
-2950.607582626187
 31
0.0
  0
LINE
  5
3E9
330
1F
100
AcDbEntity
  8
1-E
  6
Continuous
 62
    92
370
    13
100
AcDbLine
 10
1874.944881608354
 20
-2950.607026800441
 30
0.0
 11
1874.944881608354
 21
-3055.60758262619
 31
0.0
  0
LINE
  5
3EA
330
1F
100
AcDbEntity
  8
1-E
  6
Continuous
 62
    92
370
    13
100
AcDbLine
 10
1897.444881608354
 20
-2980.60758262619
 30
0.0
 11
2197.444881608354
 21
-2980.60758262619
 31
0.0
  0
LINE
  5
3EB
330
1F
100
AcDbEntity
  8
1-E
  6
Continuous
 62
   120
370
     5
100
AcDbLine
 10
1883.883771093434
 20
-3055.60758262619
 30
0.0
 11
1958.883771093434
 21
-2980.60758262619
 31
0.0
  0
LINE
  5
3EC
330
1F
100
AcDbEntity
  8
1-E
  6
Continuous
 62
   120
370
     5
100
AcDbLine
 10
1947.523381400179
 20
-3055.60758262619
 30
0.0
 11
2022.523381400179
 21
-2980.60758262618
 31
0.0
  0
LINE
  5
3ED
330
1F
100
AcDbEntity
  8
1-E
  6
Continuous
 62
   120
370
     5
100
AcDbLine
 10
2011.162991706979
 20
-3055.60758262619
 30
0.0
 11
2086.162991706979
 21
-2980.607582626183
 31
0.0
  0
LINE
  5
3EE
330
1F
100
AcDbEntity
  8
1-E
  6
Continuous
 62
   120
370
     5
100
AcDbLine
 10
2074.80260201378
 20
-3055.60758262619
 30
0.0
 11
2149.80260201378
 21
-2980.60758262619
 31
0.0
  0
LINE
  5
3EF
330
1F
100
AcDbEntity
  8
1-E
  6
Continuous
 62
   120
370
     5
100
AcDbLine
 10
2138.44221232058
 20
-3055.60758262619
 30
0.0
 11
2219.472024107291
 21
-2974.577770839462
 31
0.0
  0
LINE
  5
3F0
330
1F
100
AcDbEntity
  8
1-E
  6
Continuous
 62
   120
370
     5
100
AcDbLine
 10
2202.08182262738
 20
-3055.60758262619
 30
0.0
 11
2219.472024107291
 21
-3038.217381146262
 31
0.0
  0
LINE
  5
3F1
330
1F
100
AcDbEntity
  8
1-E
  6
Continuous
 62
    92
370
    13
100
AcDbLine
 10
2197.444881608354
 20
-2950.607582626187
 30
0.0
 11
2197.444881608354
 21
-2980.60758262619
 31
0.0
  0
LINE
  5
3F2
330
1F
100
AcDbEntity
  8
1-E
  6
Continuous
 62
    92
370
    13
100
AcDbLine
 10
2197.444881608354
 20
-2950.607582626187
 30
0.0
 11
2219.472169907468
 21
-2950.607582626187
 31
0.0
  0
LINE
  5
3F3
330
1F
100
AcDbEntity
  8
1-E
  6
Continuous
 62
    92
370
    13
100
AcDbLine
 10
2219.472024107291
 20
-2950.607026800441
 30
0.0
 11
2219.472024107291
 21
-3055.60758262619
 31
0.0
  0
LINE
  5
3F4
330
1F
100
AcDbEntity
  8
1-E
  6
Continuous
 62
    92
370
    13
100
AcDbLine
 10
1874.944881608354
 20
-3055.60758262619
 30
0.0
 11
2219.472024107291
 21
-3055.60758262619
 31
0.0
  0
LWPOLYLINE
  5
3F5
330
1F
100
AcDbEntity
  8
1-E
  6
Continuous
 62
     7
370
     9
100
AcDbPolyline
 90
        4
 70
     1
 43
3.0
 10
1876.444881608354
 20
-2773.913660873526
 42
0.4142135623731
 10
1874.944881608354
 20
-2772.413660873526
 42
0.4142135623731
 10
1873.444881608354
 20
-2773.913660873526
 42
0.4142135623731
 10
1874.944881608354
 20
-2775.413660873526
 42
0.4142135623731
  0
LWPOLYLINE
  5
3F6
330
1F
100
AcDbEntity
  8
1-E
  6
Continuous
 62
     7
370
     9
100
AcDbPolyline
 90
        4
 70
     1
 43
3.0
 10
1898.944881608354
 20
-2773.913660873526
 42
0.4142135623731
 10
1897.444881608354
 20
-2772.413660873526
 42
0.4142135623731
 10
1895.944881608354
 20
-2773.913660873526
 42
0.4142135623731
 10
1897.444881608354
 20
-2775.413660873526
 42
0.4142135623731
  0
LINE
  5
3F7
330
1F
100
AcDbEntity
  8
1-E
  6
Continuous
 62
   120
370
     5
100
AcDbLine
 10
1874.944881608354
 20
-2773.913660873526
 30
0.0
 11
1874.944881608354
 21
-2878.426012602427
 31
0.0
  0
LINE
  5
3F8
330
1F
100
AcDbEntity
  8
1-E
  6
Continuous
 62
   120
370
     5
100
AcDbLine
 10
1897.444881608354
 20
-2773.913660873526
 30
0.0
 11
1897.444881608354
 21
-2878.426012602427
 31
0.0
  0
LINE
  5
3F9
330
1F
100
AcDbEntity
  8
1-E
  6
Continuous
 62
   120
370
     5
100
AcDbLine
 10
1897.444881608354
 20
-2773.913660873526
 30
0.0
 11
2197.444881608354
 21
-2773.913660873526
 31
0.0
  0
LWPOLYLINE
  5
3FA
330
1F
100
AcDbEntity
  8
1-E
  6
Continuous
 62
     7
370
     9
100
AcDbPolyline
 90
        4
 70
     1
 43
3.0
 10
2198.944881608354
 20
-2773.913660873526
 42
0.4142135623731
 10
2197.444881608354
 20
-2772.413660873526
 42
0.4142135623731
 10
2195.944881608354
 20
-2773.913660873526
 42
0.4142135623731
 10
2197.444881608354
 20
-2775.413660873526
 42
0.4142135623731
  0
LINE
  5
3FB
330
1F
100
AcDbEntity
  8
1-E
  6
Continuous
 62
   120
370
     5
100
AcDbLine
 10
2197.444881608354
 20
-2773.913660873526
 30
0.0
 11
2197.444881608354
 21
-2878.426012602427
 31
0.0
  0
MTEXT
  5
3FC
330
1F
100
AcDbEntity
  8
1-E
  6
Continuous
 62
     7
370
   211
100
AcDbMText
 10
2002.444881608354
 20
-2769.623660873526
 30
0.0
 40
68.58
 41
90.0
 46
0.0
 71
     7
 72
     1
  1
{\fＭＳ ゴシック|b0|i0|c128|p49;20}
 73
     1
 44
1.0
  0
LWPOLYLINE
  5
3FD
330
1F
100
AcDbEntity
  8
1-E
  6
Continuous
 62
     7
370
     9
100
AcDbPolyline
 90
        4
 70
     1
 43
3.0
 10
2220.972024107291
 20
-2773.913660873526
 42
0.4142135623731
 10
2219.472024107291
 20
-2772.413660873526
 42
0.4142135623731
 10
2217.972024107291
 20
-2773.913660873526
 42
0.4142135623731
 10
2219.472024107291
 20
-2775.413660873526
 42
0.4142135623731
  0
LINE
  5
3FE
330
1F
100
AcDbEntity
  8
1-E
  6
Continuous
 62
   120
370
     5
100
AcDbLine
 10
2219.472024107291
 20
-2773.913660873526
 30
0.0
 11
2219.472024107291
 21
-2878.426012602427
 31
0.0
  0
LWPOLYLINE
  5
3FF
330
1F
100
AcDbEntity
  8
1-E
  6
Continuous
 62
     7
370
     9
100
AcDbPolyline
 90
        4
 70
     1
 43
3.0
 10
1591.093155869428
 20
-2950.607026800441
 42
0.4142135623731
 10
1589.593155869428
 20
-2949.107026800441
 42
0.4142135623731
 10
1588.093155869428
 20
-2950.607026800441
 42
0.4142135623731
 10
1589.593155869428
 20
-2952.107026800441
 42
0.4142135623731
  0
LWPOLYLINE
  5
400
330
1F
100
AcDbEntity
  8
1-E
  6
Continuous
 62
     7
370
     9
100
AcDbPolyline
 90
        4
 70
     1
 43
3.0
 10
1591.093155869428
 20
-2980.607582626183
 42
0.4142135623731
 10
1589.593155869428
 20
-2979.107582626183
 42
0.4142135623731
 10
1588.093155869428
 20
-2980.607582626183
 42
0.4142135623731
 10
1589.593155869428
 20
-2982.107582626183
 42
0.4142135623731
  0
LINE
  5
401
330
1F
100
AcDbEntity
  8
1-E
  6
Continuous
 62
   120
370
     5
100
AcDbLine
 10
1589.593155869428
 20
-2950.607026800441
 30
0.0
 11
1720.434007553919
 21
-2950.607026800441
 31
0.0
  0
LINE
  5
402
330
1F
100
AcDbEntity
  8
1-E
  6
Continuous
 62
   120
370
     5
100
AcDbLine
 10
1589.593155869428
 20
-2980.607582626183
 30
0.0
 11
1720.434007553919
 21
-2980.607582626183
 31
0.0
  0
LINE
  5
403
330
1F
100
AcDbEntity
  8
1-E
  6
Continuous
 62
   120
370
     5
100
AcDbLine
 10
1589.593155869428
 20
-2980.607582626183
 30
0.0
 11
1589.593155869428
 21
-3055.60758262619
 31
0.0
  0
LWPOLYLINE
  5
404
330
1F
100
AcDbEntity
  8
1-E
  6
Continuous
 62
     7
370
     9
100
AcDbPolyline
 90
        4
 70
     1
 43
3.0
 10
1591.093155869428
 20
-3055.60758262619
 42
0.4142135623731
 10
1589.593155869428
 20
-3054.10758262619
 42
0.4142135623731
 10
1588.093155869428
 20
-3055.60758262619
 42
0.4142135623731
 10
1589.593155869428
 20
-3057.10758262619
 42
0.4142135623731
  0
LINE
  5
405
330
1F
100
AcDbEntity
  8
1-E
  6
Continuous
 62
   120
370
     5
100
AcDbLine
 10
1589.593155869428
 20
-3055.60758262619
 30
0.0
 11
1720.434007553919
 21
-3055.60758262619
 31
0.0
  0
MTEXT
  5
406
330
1F
100
AcDbEntity
  8
1-E
  6
Continuous
 62
     7
370
   211
100
AcDbMText
 10
2246.312029079114
 20
-2769.623660873526
 30
0.0
 40
68.57999999999998
 41
135.0
 46
0.0
 71
     7
 72
     1
  1
{\fＭＳ ゴシック|b0|i0|c128|p49;1.5}
 73
     1
 44
1.0
  0
LINE
  5
407
330
1F
100
AcDbEntity
  8
1-E
  6
Continuous
 62
   120
370
     5
100
AcDbLine
 10
1433.150185625434
 20
-3055.60758262619
 30
0.0
 11
1433.150185625434
 21
-2950.607026800441
 31
0.0
  0
LWPOLYLINE
  5
408
330
1F
100
AcDbEntity
  8
1-E
  6
Continuous
 62
     7
370
     9
100
AcDbPolyline
 90
        4
 70
     1
 43
3.0
 10
1434.650185625434
 20
-3055.60758262619
 42
0.4142135623731
 10
1433.150185625434
 20
-3054.10758262619
 42
0.4142135623731
 10
1431.650185625434
 20
-3055.60758262619
 42
0.4142135623731
 10
1433.150185625434
 20
-3057.10758262619
 42
0.4142135623731
  0
LWPOLYLINE
  5
409
330
1F
100
AcDbEntity
  8
1-E
  6
Continuous
 62
     7
370
     9
100
AcDbPolyline
 90
        4
 70
     1
 43
3.0
 10
1434.650185625434
 20
-2950.607026800441
 42
0.4142135623731
 10
1433.150185625434
 20
-2949.107026800441
 42
0.4142135623731
 10
1431.650185625434
 20
-2950.607026800441
 42
0.4142135623731
 10
1433.150185625434
 20
-2952.107026800441
 42
0.4142135623731
  0
LINE
  5
40A
330
1F
100
AcDbEntity
  8
1-E
  6
Continuous
 62
   120
370
     5
100
AcDbLine
 10
1433.150185625434
 20
-3055.60758262619
 30
0.0
 11
1589.593155869428
 21
-3055.60758262619
 31
0.0
  0
LINE
  5
40B
330
1F
100
AcDbEntity
  8
1-E
  6
Continuous
 62
   120
370
     5
100
AcDbLine
 10
1433.150185625434
 20
-2950.607026800441
 30
0.0
 11
1589.593155869428
 21
-2950.607026800441
 31
0.0
  0
MTEXT
  5
40C
330
1F
100
AcDbEntity
  8
1-E
  6
Continuous
 62
     7
370
   211
100
AcDbMText
 10
-173.5973730543824
 20
-2820.960265755129
 30
0.0
 40
91.44000000000065
 41
120.0000000000009
 46
0.0
 71
     7
 72
     1
  1
{\fＭＳ ゴシック|b0|i0|c128|p49;26}
 11
6.123031769111886E-17
 21
1.0
 31
0.0
 73
     1
 44
1.0
  0
LWPOLYLINE
  5
40D
330
1F
100
AcDbEntity
  8
1-E
  6
Continuous
 62
     7
370
     9
100
AcDbPolyline
 90
        4
 70
     1
 43
3.0
 10
1434.650185625434
 20
-2191.400280268266
 42
0.4142135623731
 10
1433.150185625434
 20
-2189.900280268266
 42
0.4142135623731
 10
1431.650185625434
 20
-2191.400280268266
 42
0.4142135623731
 10
1433.150185625434
 20
-2192.900280268266
 42
0.4142135623731
  0
LINE
  5
40E
330
1F
100
AcDbEntity
  8
1-E
  6
Continuous
 62
   120
370
     5
100
AcDbLine
 10
1433.150185625434
 20
-2191.400280268266
 30
0.0
 11
1589.593155869428
 21
-2191.400280268266
 31
0.0
  0
LINE
  5
40F
330
1F
100
AcDbEntity
  8
1-E
  6
Continuous
 62
   120
370
     5
100
AcDbLine
 10
1433.150185625434
 20
-2191.400280268266
 30
0.0
 11
1433.150185625434
 21
-2068.400280268265
 31
0.0
  0
LWPOLYLINE
  5
410
330
1F
100
AcDbEntity
  8
1-E
  6
Continuous
 62
     7
370
     9
100
AcDbPolyline
 90
        4
 70
     1
 43
3.0
 10
1434.650185625434
 20
-2068.400280268265
 42
0.4142135623731
 10
1433.150185625434
 20
-2066.900280268265
 42
0.4142135623731
 10
1431.650185625434
 20
-2068.400280268265
 42
0.4142135623731
 10
1433.150185625434
 20
-2069.900280268265
 42
0.4142135623731
  0
LINE
  5
411
330
1F
100
AcDbEntity
  8
1-E
  6
Continuous
 62
   120
370
     5
100
AcDbLine
 10
1433.150185625434
 20
-2068.400280268265
 30
0.0
 11
1589.593155869428
 21
-2068.400280268265
 31
0.0
  0
MTEXT
  5
412
330
1F
100
AcDbEntity
  8
1-E
  6
Continuous
 62
     7
370
   211
100
AcDbMText
 10
1574.593155869428
 20
-2949.738177967032
 30
0.0
 40
68.58
 41
45.0
 46
0.0
 71
     7
 72
     1
  1
{\fＭＳ ゴシック|b0|i0|c128|p49;2}
 11
6.123031769111886E-17
 21
1.0
 31
0.0
 73
     1
 44
1.0
  0
MTEXT
  5
413
330
1F
100
AcDbEntity
  8
1-E
  6
Continuous
 62
     7
370
   211
100
AcDbMText
 10
337.0873833217167
 20
-3018.960265755133
 30
0.0
 40
91.43999999999969
 41
59.99999999999979
 46
0.0
 71
     7
 72
     1
  1
{\fＭＳ ゴシック|b0|i0|c128|p49;5}
 73
     1
 44
1.0
  0
LINE
  5
414
330
1F
100
AcDbEntity
  8
1-E
  6
Continuous
 62
   120
370
     5
100
AcDbLine
 10
1589.593155869428
 20
-2884.085730391352
 30
0.0
 11
1589.593155869428
 21
-2980.607582626183
 31
0.0
  0
LINE
  5
415
330
1F
100
AcDbEntity
  8
1-E
  6
Continuous
 62
   120
370
     5
100
AcDbLine
 10
1874.944881608354
 20
-2611.966425215754
 30
0.0
 11
2219.472024107291
 21
-2611.966425215754
 31
0.0
  0
LWPOLYLINE
  5
416
330
1F
100
AcDbEntity
  8
1-E
  6
Continuous
 62
     7
370
     9
100
AcDbPolyline
 90
        4
 70
     1
 43
3.0
 10
1876.444881608354
 20
-2611.966425215754
 42
0.4142135623731
 10
1874.944881608354
 20
-2610.466425215754
 42
0.4142135623731
 10
1873.444881608354
 20
-2611.966425215754
 42
0.4142135623731
 10
1874.944881608354
 20
-2613.466425215754
 42
0.4142135623731
  0
LWPOLYLINE
  5
417
330
1F
100
AcDbEntity
  8
1-E
  6
Continuous
 62
     7
370
     9
100
AcDbPolyline
 90
        4
 70
     1
 43
3.0
 10
2220.972024107291
 20
-2611.966425215754
 42
0.4142135623731
 10
2219.472024107291
 20
-2610.466425215754
 42
0.4142135623731
 10
2217.972024107291
 20
-2611.966425215754
 42
0.4142135623731
 10
2219.472024107291
 20
-2613.466425215754
 42
0.4142135623731
  0
LINE
  5
418
330
1F
100
AcDbEntity
  8
1-E
  6
Continuous
 62
   120
370
     5
100
AcDbLine
 10
1874.944881608354
 20
-2611.966425215754
 30
0.0
 11
1874.944881608354
 21
-2773.913660873526
 31
0.0
  0
LINE
  5
419
330
1F
100
AcDbEntity
  8
1-E
  6
Continuous
 62
   120
370
     5
100
AcDbLine
 10
2219.472024107291
 20
-2611.966425215754
 30
0.0
 11
2219.472024107291
 21
-2773.913660873526
 31
0.0
  0
MTEXT
  5
41A
330
1F
100
AcDbEntity
  8
1-E
  6
Continuous
 62
     7
370
   211
100
AcDbMText
 10
1418.150185625434
 20
-3036.317304713316
 30
0.0
 40
68.58
 41
45.0
 46
0.0
 71
     7
 72
     1
  1
{\fＭＳ ゴシック|b0|i0|c128|p49;7}
 11
6.123031769111886E-17
 21
1.0
 31
0.0
 73
     1
 44
1.0
  0
LINE
  5
41B
330
1F
100
AcDbEntity
  8
1-E
  6
Continuous
 62
   120
370
     5
100
AcDbLine
 10
1710.54279983082
 20
-2773.913660873526
 30
0.0
 11
1897.444881608354
 21
-2773.913660873526
 31
0.0
  0
LINE
  5
41C
330
1F
100
AcDbEntity
  8
1-E
  6
Continuous
 62
   120
370
     5
100
AcDbLine
 10
2197.444881608354
 20
-2773.913660873526
 30
0.0
 11
2390.753945563648
 21
-2773.913660873526
 31
0.0
  0
MTEXT
  5
41D
330
1F
100
AcDbEntity
  8
1-E
  6
Continuous
 62
     7
370
   211
100
AcDbMText
 10
1574.593155869428
 20
-3051.317582626187
 30
0.0
 40
68.58
 41
45.0
 46
0.0
 71
     7
 72
     1
  1
{\fＭＳ ゴシック|b0|i0|c128|p49;5}
 11
6.123031769111886E-17
 21
1.0
 31
0.0
 73
     1
 44
1.0
  0
MTEXT
  5
41E
330
1F
100
AcDbEntity
  8
1-E
  6
Continuous
 62
     7
370
   211
100
AcDbMText
 10
10.83827410507929
 20
-3078.960265755132
 30
0.0
 40
91.44000000000017
 41
120.0000000000002
 46
0.0
 71
     7
 72
     1
  1
{\fＭＳ ゴシック|b0|i0|c128|p49;10}
 73
     1
 44
1.0
  0
LINE
  5
41F
330
1F
100
AcDbEntity
  8
1-E
  6
Continuous
 62
   120
370
     5
100
AcDbLine
 10
-386.2932161688924
 20
-247.992148334947
 30
0.0
 11
383.7071467428542
 21
-247.992148334947
 31
0.0
  0
LWPOLYLINE
  5
420
330
1F
100
AcDbEntity
  8
1-E
  6
Continuous
 62
     7
370
     9
100
AcDbPolyline
 90
        4
 70
     1
 43
3.0
 10
-384.7932161688924
 20
-247.992148334947
 42
0.4142135623731
 10
-386.2932161688924
 20
-246.492148334947
 42
0.4142135623731
 10
-387.7932161688925
 20
-247.992148334947
 42
0.4142135623731
 10
-386.2932161688924
 20
-249.492148334947
 42
0.4142135623731
  0
LWPOLYLINE
  5
421
330
1F
100
AcDbEntity
  8
1-E
  6
Continuous
 62
     7
370
     9
100
AcDbPolyline
 90
        4
 70
     1
 43
3.0
 10
385.2071467428543
 20
-247.992148334947
 42
0.4142135623731
 10
383.7071467428542
 20
-246.492148334947
 42
0.4142135623731
 10
382.2071467428542
 20
-247.992148334947
 42
0.4142135623731
 10
383.7071467428542
 20
-249.492148334947
 42
0.4142135623731
  0
LINE
  5
422
330
1F
100
AcDbEntity
  8
1-E
  6
Continuous
 62
   120
370
     5
100
AcDbLine
 10
-386.2932161688924
 20
-247.992148334947
 30
0.0
 11
-386.2932161688924
 21
-391.5341981349476
 31
0.0
  0
LINE
  5
423
330
1F
100
AcDbEntity
  8
1-E
  6
Continuous
 62
   120
370
     5
100
AcDbLine
 10
383.7071467428542
 20
-247.992148334947
 30
0.0
 11
383.7071467428542
 21
-391.5341981349476
 31
0.0
  0
MTEXT
  5
424
330
1F
100
AcDbEntity
  8
1-E
  6
Continuous
 62
     7
370
   211
100
AcDbMText
 10
176.5873833217054
 20
-3078.960265755132
 30
0.0
 40
91.44000000000032
 41
60.00000000000021
 46
0.0
 71
     7
 72
     1
  1
{\fＭＳ ゴシック|b0|i0|c128|p49;9}
 73
     1
 44
1.0
  0
LINE
  5
425
330
1F
100
AcDbEntity
  8
1-E
  6
Continuous
 62
    92
370
    13
100
AcDbLine
 10
-386.2932161688924
 20
-441.5341981349465
 30
0.0
 11
-386.2932161688924
 21
-1181.825374815791
 31
0.0
  0
LINE
  5
426
330
1F
100
AcDbEntity
  8
1-E
  6
Continuous
 62
    92
370
    13
100
AcDbLine
 10
-386.2932161688924
 20
-1181.825374815791
 30
0.0
 11
-116.2924243614643
 21
-1181.825374815791
 31
0.0
  0
LINE
  5
427
330
1F
100
AcDbEntity
  8
1-E
  6
Continuous
 62
    92
370
    13
100
AcDbLine
 10
113.7078395743484
 20
-1181.825374815791
 30
0.0
 11
383.7071467428542
 21
-1181.825374815791
 31
0.0
  0
LINE
  5
428
330
1F
100
AcDbEntity
  8
1-E
  6
Continuous
 62
    92
370
    13
100
AcDbLine
 10
383.7071467428542
 20
-441.5341981349465
 30
0.0
 11
383.7071467428542
 21
-1181.825374815791
 31
0.0
  0
LINE
  5
429
330
1F
100
AcDbEntity
  8
1-E
  6
Continuous
 62
   120
370
     5
100
AcDbLine
 10
-386.2932161688924
 20
-1559.33482701702
 30
0.0
 11
-116.2924243614643
 21
-1559.33482701702
 31
0.0
  0
LWPOLYLINE
  5
42A
330
1F
100
AcDbEntity
  8
1-E
  6
Continuous
 62
     7
370
     9
100
AcDbPolyline
 90
        4
 70
     1
 43
3.0
 10
-384.7932161688924
 20
-1559.33482701702
 42
0.4142135623731
 10
-386.2932161688924
 20
-1557.83482701702
 42
0.4142135623731
 10
-387.7932161688925
 20
-1559.33482701702
 42
0.4142135623731
 10
-386.2932161688924
 20
-1560.83482701702
 42
0.4142135623731
  0
LWPOLYLINE
  5
42B
330
1F
100
AcDbEntity
  8
1-E
  6
Continuous
 62
     7
370
     9
100
AcDbPolyline
 90
        4
 70
     1
 43
3.0
 10
-114.7924243614643
 20
-1559.33482701702
 42
0.4142135623731
 10
-116.2924243614643
 20
-1557.83482701702
 42
0.4142135623731
 10
-117.7924243614643
 20
-1559.33482701702
 42
0.4142135623731
 10
-116.2924243614643
 20
-1560.83482701702
 42
0.4142135623731
  0
LINE
  5
42C
330
1F
100
AcDbEntity
  8
1-E
  6
Continuous
 62
   120
370
     5
100
AcDbLine
 10
-386.2932161688924
 20
-1559.33482701702
 30
0.0
 11
-386.2932161688924
 21
-1379.33482701702
 31
0.0
  0
LINE
  5
42D
330
1F
100
AcDbEntity
  8
1-E
  6
Continuous
 62
   120
370
     5
100
AcDbLine
 10
-116.2924243614643
 20
-1559.33482701702
 30
0.0
 11
-116.2924243614643
 21
-1379.33482701702
 31
0.0
  0
MTEXT
  5
42E
330
1F
100
AcDbEntity
  8
1-E
  6
Continuous
 62
     7
370
     9
100
AcDbMText
 10
-518.3900335388776
 20
-3123.960265755132
 30
0.0
 40
91.44000000000001
 41
360.0
 46
0.0
 71
     7
 72
     1
  1
{\fＭＳ ゴシック|b0|i0|c128|p49;室内側}
 73
     1
 44
1.0
  0
LINE
  5
42F
330
1F
100
AcDbEntity
  8
1-E
  6
Continuous
 62
   120
370
     5
100
AcDbLine
 10
-116.2924243614643
 20
-1559.33482701702
 30
0.0
 11
113.7078395743484
 21
-1559.33482701702
 31
0.0
  0
LWPOLYLINE
  5
430
330
1F
100
AcDbEntity
  8
1-E
  6
Continuous
 62
     7
370
     9
100
AcDbPolyline
 90
        4
 70
     1
 43
3.0
 10
115.2078395743484
 20
-1559.33482701702
 42
0.4142135623731
 10
113.7078395743484
 20
-1557.83482701702
 42
0.4142135623731
 10
112.2078395743484
 20
-1559.33482701702
 42
0.4142135623731
 10
113.7078395743484
 20
-1560.83482701702
 42
0.4142135623731
  0
LINE
  5
431
330
1F
100
AcDbEntity
  8
1-E
  6
Continuous
 62
   120
370
     5
100
AcDbLine
 10
113.7078395743484
 20
-1559.33482701702
 30
0.0
 11
113.7078395743484
 21
-1379.33482701702
 31
0.0
  0
MTEXT
  5
432
330
1F
100
AcDbEntity
  8
1-E
  6
Continuous
 62
     7
370
   211
100
AcDbMText
 10
334.0873833217058
 20
-3168.960265755133
 30
0.0
 40
91.43999999999969
 41
59.99999999999979
 46
0.0
 71
     7
 72
     1
  1
{\fＭＳ ゴシック|b0|i0|c128|p49;6}
 73
     1
 44
1.0
  0
LINE
  5
433
330
1F
100
AcDbEntity
  8
1-E
  6
Continuous
 62
   120
370
     5
100
AcDbLine
 10
113.7078395743484
 20
-1559.33482701702
 30
0.0
 11
383.7071467428542
 21
-1559.33482701702
 31
0.0
  0
LWPOLYLINE
  5
434
330
1F
100
AcDbEntity
  8
1-E
  6
Continuous
 62
     7
370
     9
100
AcDbPolyline
 90
        4
 70
     1
 43
3.0
 10
385.2071467428543
 20
-1559.33482701702
 42
0.4142135623731
 10
383.7071467428542
 20
-1557.83482701702
 42
0.4142135623731
 10
382.2071467428542
 20
-1559.33482701702
 42
0.4142135623731
 10
383.7071467428542
 20
-1560.83482701702
 42
0.4142135623731
  0
LINE
  5
435
330
1F
100
AcDbEntity
  8
1-E
  6
Continuous
 62
   120
370
     5
100
AcDbLine
 10
383.7071467428542
 20
-1559.33482701702
 30
0.0
 11
383.7071467428542
 21
-1379.33482701702
 31
0.0
  0
MTEXT
  5
436
330
1F
100
AcDbEntity
  8
1-E
  6
Continuous
 62
     7
370
   211
100
AcDbMText
 10
149.587828713391
 20
-3213.960265755132
 30
0.0
 40
91.44000000000017
 41
120.0000000000002
 46
0.0
 71
     7
 72
     1
  1
{\fＭＳ ゴシック|b0|i0|c128|p49;30}
 73
     1
 44
1.0
  0
LINE
  5
437
330
1F
100
AcDbEntity
  8
1-E
  6
Continuous
 62
    92
370
    13
100
AcDbLine
 10
329.5874822976411
 20
-2465.102353553378
 30
0.0
 11
329.5874822976411
 21
-2782.68026575513
 31
0.0
  0
LINE
  5
438
330
1F
100
AcDbEntity
  8
1-E
  6
Continuous
 62
    40
370
    15
100
AcDbLine
 10
269.5873833217165
 20
-2857.680265755133
 30
0.0
 11
946.8689155404518
 21
-2857.680265755133
 31
0.0
  0
LINE
  5
439
330
1F
100
AcDbEntity
  8
1-E
  6
Continuous
 62
    40
370
    15
100
AcDbLine
 10
269.5873833217165
 20
-2782.68026575513
 30
0.0
 11
946.8689155404518
 21
-2782.68026575513
 31
0.0
  0
LINE
  5
43A
330
1F
100
AcDbEntity
  8
1-E
  6
JWW_DASHED1
 62
   120
370
     5
100
AcDbLine
 10
907.2346136695096
 20
-2857.680265755133
 30
0.0
 11
946.8689155404518
 21
-2818.045963884169
 31
0.0
  0
LINE
  5
43B
330
1F
100
AcDbEntity
  8
1-E
  6
JWW_DASHED1
 62
   120
370
     5
100
AcDbLine
 10
864.8082067983096
 20
-2857.680265755127
 30
0.0
 11
939.8082067983113
 21
-2782.68026575513
 31
0.0
  0
MTEXT
  5
43C
330
1F
100
AcDbEntity
  8
0-B_寸法
  6
Continuous
 62
     7
370
   211
100
AcDbMText
 10
-2047.879242215158
 20
2287.665146596498
 30
0.0
 40
91.44
 41
120.0
 46
0.0
 71
     7
 72
     1
  1
{\fＭＳ ゴシック|b0|i0|c128|p49;20}
 11
6.123031769111886E-17
 21
1.0
 31
0.0
 73
     1
 44
1.0
  0
MTEXT
  5
43D
330
1F
100
AcDbEntity
  8
0-B_寸法
  6
Continuous
 62
     7
370
     0
100
AcDbMText
 10
-2724.440013744389
 20
-1160.269884247785
 30
0.0
 40
91.44000000000179
 41
120.0000000000024
 46
0.0
 71
     7
 72
     1
  1
{\fＭＳ ゴシック|b0|i0|c128|p49;20}
 11
0.9999999999914964
 21
4.124000500689212E-6
 31
0.0
 73
     1
 44
1.0
  0
MTEXT
  5
43E
330
1F
100
AcDbEntity
  8
F-A_文字
  6
Continuous
 62
     7
370
     0
100
AcDbMText
 10
4938.667793092893
 20
-3938.071010139966
 30
0.0
 40
78.86699999999999
 41
517.5
 46
0.0
 71
     7
 72
     1
  1
{\fＭＳ ゴシック|b0|i0|c128|p49;2024.04.01}
 73
     1
 44
1.0
  0
LINE
  5
43F
330
1F
100
AcDbEntity
  8
0-6_扉
  6
Continuous
 62
   200
370
    20
100
AcDbLine
 10
-1528.689656922249
 20
2421.945146596497
 30
0.0
 11
-1828.189657122254
 21
2421.945146596497
 31
0.0
  0
LINE
  5
440
330
1F
100
AcDbEntity
  8
0-6_扉
  6
Continuous
 62
   200
370
    20
100
AcDbLine
 10
-1214.689657122252
 20
2421.945146596497
 30
0.0
 11
-1516.689656922249
 21
2421.945146596497
 31
0.0
  0
LINE
  5
441
330
1F
100
AcDbEntity
  8
0-6_扉
  6
Continuous
 62
   200
370
    20
100
AcDbLine
 10
-2196.68965672225
 20
2421.945146596497
 30
0.0
 11
-2497.189657122252
 21
2421.945146596497
 31
0.0
  0
LINE
  5
442
330
1F
100
AcDbEntity
  8
0-6_扉
  6
Continuous
 62
   200
370
    20
100
AcDbLine
 10
-1888.189657122254
 20
2421.945146596497
 30
0.0
 11
-2190.68965672225
 21
2421.945146596497
 31
0.0
  0
LINE
  5
443
330
1F
100
AcDbEntity
  8
0-6_扉
  6
Continuous
 62
   200
370
    20
100
AcDbLine
 10
-2557.189657122252
 20
2421.945146596497
 30
0.0
 11
-2858.689657122254
 21
2421.945146596497
 31
0.0
  0
LINE
  5
444
330
1F
100
AcDbEntity
  8
0-0_補助線
  6
JWW_HOJO
 62
     7
370
     9
100
AcDbLine
 10
-2557.189657122252
 20
2439.945146596496
 30
0.0
 11
-2557.189657122252
 21
2280.944503252958
 31
0.0
  0
LINE
  5
445
330
1F
100
AcDbEntity
  8
0-0_補助線
  6
JWW_HOJO
 62
     7
370
     9
100
AcDbLine
 10
-2497.189657122252
 20
2439.945146596496
 30
0.0
 11
-2497.189657122252
 21
2280.944503252958
 31
0.0
  0
LINE
  5
446
330
1F
100
AcDbEntity
  8
0-0_補助線
  6
JWW_HOJO
 62
     7
370
     9
100
AcDbLine
 10
-1888.189657122254
 20
2439.945146596496
 30
0.0
 11
-1888.189657122254
 21
2280.944503252958
 31
0.0
  0
LINE
  5
447
330
1F
100
AcDbEntity
  8
0-0_補助線
  6
JWW_HOJO
 62
     7
370
     9
100
AcDbLine
 10
-1828.189657122254
 20
2439.945146596496
 30
0.0
 11
-1828.189657122254
 21
2280.944503252958
 31
0.0
  0
LINE
  5
448
330
1F
100
AcDbEntity
  8
0-6_扉
  6
Continuous
 62
   200
370
    20
100
AcDbLine
 10
-854.6896571222524
 20
2421.945146596497
 30
0.0
 11
-1154.689657122252
 21
2421.945146596497
 31
0.0
  0
LINE
  5
449
330
1F
100
AcDbEntity
  8
0-0_補助線
  6
JWW_HOJO
 62
     7
370
     9
100
AcDbLine
 10
-1214.689657122252
 20
2439.945146596496
 30
0.0
 11
-1214.689657122252
 21
2280.944503252958
 31
0.0
  0
LINE
  5
44A
330
1F
100
AcDbEntity
  8
0-0_補助線
  6
JWW_HOJO
 62
     7
370
     9
100
AcDbLine
 10
-1154.689657122252
 20
2439.945146596496
 30
0.0
 11
-1154.689657122252
 21
2280.944503252958
 31
0.0
  0
LINE
  5
44B
330
1F
100
AcDbEntity
  8
0-6_扉
  6
Continuous
 62
   200
370
    20
100
AcDbLine
 10
-174.6896573222497
 20
2421.945146596497
 30
0.0
 11
124.8103428777546
 21
2421.945146596497
 31
0.0
  0
LINE
  5
44C
330
1F
100
AcDbEntity
  8
0-6_扉
  6
Continuous
 62
   200
370
    20
100
AcDbLine
 10
-488.6896571222476
 20
2421.945146596497
 30
0.0
 11
-186.6896573222508
 21
2421.945146596497
 31
0.0
  0
LINE
  5
44D
330
1F
100
AcDbEntity
  8
0-6_扉
  6
Continuous
 62
   200
370
    20
100
AcDbLine
 10
493.3103424777498
 20
2421.945146596497
 30
0.0
 11
793.810342877754
 21
2421.945146596497
 31
0.0
  0
LINE
  5
44E
330
1F
100
AcDbEntity
  8
0-6_扉
  6
Continuous
 62
   200
370
    20
100
AcDbLine
 10
184.8103428777546
 20
2421.945146596497
 30
0.0
 11
487.3103424777506
 21
2421.945146596497
 31
0.0
  0
CIRCLE
  5
44F
330
1F
100
AcDbEntity
  8
0-7_金物
  6
Continuous
 62
     7
370
     9
100
AcDbCircle
 10
490.3103424777499
 20
2451.945146596473
 30
0.0
 40
30.0
  0
CIRCLE
  5
450
330
1F
100
AcDbEntity
  8
0-7_金物
  6
Continuous
 62
     7
370
     9
100
AcDbCircle
 10
490.3103424777499
 20
2451.945146596473
 30
0.0
 40
21.00000000000001
  0
LINE
  5
451
330
1F
100
AcDbEntity
  8
0-6_扉
  6
Continuous
 62
   200
370
    20
100
AcDbLine
 10
853.810342877754
 20
2421.945146596497
 30
0.0
 11
1155.310342877755
 21
2421.945146596497
 31
0.0
  0
LINE
  5
452
330
1F
100
AcDbEntity
  8
0-0_補助線
  6
JWW_HOJO
 62
     7
370
     9
100
AcDbLine
 10
853.810342877754
 20
2439.945146596496
 30
0.0
 11
853.810342877754
 21
2280.944503252958
 31
0.0
  0
LINE
  5
453
330
1F
100
AcDbEntity
  8
0-0_補助線
  6
JWW_HOJO
 62
     7
370
     9
100
AcDbLine
 10
793.810342877754
 20
2439.945146596496
 30
0.0
 11
793.810342877754
 21
2280.944503252958
 31
0.0
  0
LINE
  5
454
330
1F
100
AcDbEntity
  8
0-0_補助線
  6
JWW_HOJO
 62
     7
370
     9
100
AcDbLine
 10
184.8103428777546
 20
2439.945146596496
 30
0.0
 11
184.8103428777546
 21
2280.944503252958
 31
0.0
  0
LINE
  5
455
330
1F
100
AcDbEntity
  8
0-0_補助線
  6
JWW_HOJO
 62
     7
370
     9
100
AcDbLine
 10
124.8103428777546
 20
2439.945146596496
 30
0.0
 11
124.8103428777546
 21
2280.944503252958
 31
0.0
  0
LINE
  5
456
330
1F
100
AcDbEntity
  8
0-6_扉
  6
Continuous
 62
   200
370
    20
100
AcDbLine
 10
-848.6896571222468
 20
2421.945146596497
 30
0.0
 11
-548.6896571222476
 21
2421.945146596497
 31
0.0
  0
LINE
  5
457
330
1F
100
AcDbEntity
  8
0-0_補助線
  6
JWW_HOJO
 62
     7
370
     9
100
AcDbLine
 10
-488.6896571222476
 20
2439.945146596496
 30
0.0
 11
-488.6896571222476
 21
2280.944503252958
 31
0.0
  0
LINE
  5
458
330
1F
100
AcDbEntity
  8
0-0_補助線
  6
JWW_HOJO
 62
     7
370
     9
100
AcDbLine
 10
-548.6896571222476
 20
2439.945146596496
 30
0.0
 11
-548.6896571222476
 21
2280.944503252958
 31
0.0
  0
CIRCLE
  5
459
330
1F
100
AcDbEntity
  8
0-7_金物
  6
Continuous
 62
     7
370
     9
100
AcDbCircle
 10
-851.6896571222483
 20
2451.945146596473
 30
0.0
 40
30.0
  0
CIRCLE
  5
45A
330
1F
100
AcDbEntity
  8
0-7_金物
  6
Continuous
 62
     7
370
     9
100
AcDbCircle
 10
-851.6896571222483
 20
2451.945146596473
 30
0.0
 40
21.00000000000001
  0
CIRCLE
  5
45B
330
1F
100
AcDbEntity
  8
0-7_金物
  6
Continuous
 62
     7
370
     9
100
AcDbCircle
 10
-2192.68965712225
 20
2451.945146596473
 30
0.0
 40
30.0
  0
CIRCLE
  5
45C
330
1F
100
AcDbEntity
  8
0-7_金物
  6
Continuous
 62
     7
370
     9
100
AcDbCircle
 10
-2192.68965712225
 20
2451.945146596473
 30
0.0
 40
21.00000000000001
  0
LWPOLYLINE
  5
45D
330
1F
100
AcDbEntity
  8
0-B_寸法
  6
Continuous
 62
     7
370
     9
100
AcDbPolyline
 90
        4
 70
     1
 43
3.0
 10
-2031.379242215158
 20
2421.945146596497
 42
0.4142135623731
 10
-2032.879242215157
 20
2423.445146596497
 42
0.4142135623731
 10
-2034.379242215157
 20
2421.945146596497
 42
0.4142135623731
 10
-2032.879242215157
 20
2420.445146596497
 42
0.4142135623731
  0
LINE
  5
45E
330
1F
100
AcDbEntity
  8
0-0_補助線
  6
Continuous
 62
   120
370
     5
100
AcDbLine
 10
-2858.689657122252
 20
2324.359196304036
 30
0.0
 11
-2858.689657122252
 21
2402.688459527219
 31
0.0
  0
LINE
  5
45F
330
1F
100
AcDbEntity
  8
0-0_補助線
  6
Continuous
 62
   120
370
     5
100
AcDbLine
 10
-2843.689657122252
 20
2324.359196304036
 30
0.0
 11
-2843.689657122252
 21
2402.688459527219
 31
0.0
  0
LINE
  5
460
330
1F
100
AcDbEntity
  8
0-6_扉
  6
Continuous
 62
   200
370
    20
100
AcDbLine
 10
-1528.689656922249
 20
2301.945146596497
 30
0.0
 11
-1828.189657122254
 21
2301.945146596497
 31
0.0
  0
LINE
  5
461
330
1F
100
AcDbEntity
  8
0-6_扉
  6
Continuous
 62
   200
370
    20
100
AcDbLine
 10
-1214.689657122252
 20
2301.945146596497
 30
0.0
 11
-1516.689656922249
 21
2301.945146596497
 31
0.0
  0
LINE
  5
462
330
1F
100
AcDbEntity
  8
0-6_扉
  6
Continuous
 62
   200
370
    20
100
AcDbLine
 10
-2196.68965672225
 20
2301.945146596497
 30
0.0
 11
-2497.189657122252
 21
2301.945146596497
 31
0.0
  0
LINE
  5
463
330
1F
100
AcDbEntity
  8
0-6_扉
  6
Continuous
 62
   200
370
    20
100
AcDbLine
 10
-1888.189657122254
 20
2301.945146596497
 30
0.0
 11
-2190.68965672225
 21
2301.945146596497
 31
0.0
  0
LINE
  5
464
330
1F
100
AcDbEntity
  8
0-6_扉
  6
Continuous
 62
   200
370
    20
100
AcDbLine
 10
-2557.189657122252
 20
2301.945146596497
 30
0.0
 11
-2858.689657122254
 21
2301.945146596497
 31
0.0
  0
LINE
  5
465
330
1F
100
AcDbEntity
  8
0-6_扉
  6
Continuous
 62
   200
370
    20
100
AcDbLine
 10
-854.6896571222524
 20
2301.945146596497
 30
0.0
 11
-1154.689657122252
 21
2301.945146596497
 31
0.0
  0
LINE
  5
466
330
1F
100
AcDbEntity
  8
0-6_扉
  6
Continuous
 62
   200
370
    20
100
AcDbLine
 10
-174.6896573222497
 20
2301.945146596497
 30
0.0
 11
124.8103428777546
 21
2301.945146596497
 31
0.0
  0
LINE
  5
467
330
1F
100
AcDbEntity
  8
0-6_扉
  6
Continuous
 62
   200
370
    20
100
AcDbLine
 10
-488.6896571222476
 20
2301.945146596497
 30
0.0
 11
-186.6896573222508
 21
2301.945146596497
 31
0.0
  0
LINE
  5
468
330
1F
100
AcDbEntity
  8
0-6_扉
  6
Continuous
 62
   200
370
    20
100
AcDbLine
 10
493.3103424777498
 20
2301.945146596497
 30
0.0
 11
793.810342877754
 21
2301.945146596497
 31
0.0
  0
LINE
  5
469
330
1F
100
AcDbEntity
  8
0-6_扉
  6
Continuous
 62
   200
370
    20
100
AcDbLine
 10
184.8103428777546
 20
2301.945146596497
 30
0.0
 11
487.3103424777506
 21
2301.945146596497
 31
0.0
  0
LINE
  5
46A
330
1F
100
AcDbEntity
  8
0-6_扉
  6
Continuous
 62
   200
370
    20
100
AcDbLine
 10
853.810342877754
 20
2301.945146596497
 30
0.0
 11
1155.310342877755
 21
2301.945146596497
 31
0.0
  0
LINE
  5
46B
330
1F
100
AcDbEntity
  8
0-6_扉
  6
Continuous
 62
   200
370
    20
100
AcDbLine
 10
-848.6896571222468
 20
2301.945146596497
 30
0.0
 11
-548.6896571222476
 21
2301.945146596497
 31
0.0
  0
LWPOLYLINE
  5
46C
330
1F
100
AcDbEntity
  8
0-B_寸法
  6
Continuous
 62
     7
370
     9
100
AcDbPolyline
 90
        4
 70
     1
 43
3.0
 10
-2031.379242215158
 20
2301.945146596497
 42
0.4142135623731
 10
-2032.879242215157
 20
2303.445146596497
 42
0.4142135623731
 10
-2034.379242215157
 20
2301.945146596497
 42
0.4142135623731
 10
-2032.879242215157
 20
2300.445146596497
 42
0.4142135623731
  0
LINE
  5
46D
330
1F
100
AcDbEntity
  8
0-6_扉
  6
Continuous
 62
   200
370
    20
100
AcDbLine
 10
-1528.689656922249
 20
2421.945146596497
 30
0.0
 11
-1528.689656922249
 21
2301.945146596497
 31
0.0
  0
LINE
  5
46E
330
1F
100
AcDbEntity
  8
0-6_扉
  6
Continuous
 62
   200
370
    20
100
AcDbLine
 10
-1516.689656922249
 20
2421.945146596497
 30
0.0
 11
-1516.689656922249
 21
2301.945146596497
 31
0.0
  0
LINE
  5
46F
330
1F
100
AcDbEntity
  8
0-6_扉
  6
Continuous
 62
   200
370
    20
100
AcDbLine
 10
-2196.68965672225
 20
2421.945146596497
 30
0.0
 11
-2196.68965672225
 21
2301.945146596497
 31
0.0
  0
LINE
  5
470
330
1F
100
AcDbEntity
  8
0-6_扉
  6
Continuous
 62
   200
370
    20
100
AcDbLine
 10
-2190.68965672225
 20
2421.945146596497
 30
0.0
 11
-2190.68965672225
 21
2301.945146596497
 31
0.0
  0
LINE
  5
471
330
1F
100
AcDbEntity
  8
0-6_扉
  6
Continuous
 62
   200
370
    20
100
AcDbLine
 10
-2858.689657122254
 20
2421.945146596497
 30
0.0
 11
-2858.689657122254
 21
2301.945146596497
 31
0.0
  0
LINE
  5
472
330
1F
100
AcDbEntity
  8
0-6_扉
  6
Continuous
 62
   200
370
    20
100
AcDbLine
 10
-854.6896571222524
 20
2421.945146596497
 30
0.0
 11
-854.6896571222524
 21
2301.945146596497
 31
0.0
  0
LINE
  5
473
330
1F
100
AcDbEntity
  8
0-6_扉
  6
Continuous
 62
   200
370
    20
100
AcDbLine
 10
-174.6896573222497
 20
2421.945146596497
 30
0.0
 11
-174.6896573222497
 21
2301.945146596497
 31
0.0
  0
LINE
  5
474
330
1F
100
AcDbEntity
  8
0-6_扉
  6
Continuous
 62
   200
370
    20
100
AcDbLine
 10
-186.6896573222508
 20
2421.945146596497
 30
0.0
 11
-186.6896573222508
 21
2301.945146596497
 31
0.0
  0
LINE
  5
475
330
1F
100
AcDbEntity
  8
0-6_扉
  6
Continuous
 62
   200
370
    20
100
AcDbLine
 10
493.3103424777498
 20
2421.945146596497
 30
0.0
 11
493.3103424777498
 21
2301.945146596497
 31
0.0
  0
LINE
  5
476
330
1F
100
AcDbEntity
  8
0-6_扉
  6
Continuous
 62
   200
370
    20
100
AcDbLine
 10
487.3103424777506
 20
2421.945146596497
 30
0.0
 11
487.3103424777506
 21
2301.945146596497
 31
0.0
  0
LINE
  5
477
330
1F
100
AcDbEntity
  8
0-6_扉
  6
Continuous
 62
   200
370
    20
100
AcDbLine
 10
1155.310342877755
 20
2421.945146596497
 30
0.0
 11
1155.310342877755
 21
2301.945146596497
 31
0.0
  0
LINE
  5
478
330
1F
100
AcDbEntity
  8
0-6_扉
  6
Continuous
 62
   200
370
    20
100
AcDbLine
 10
-848.6896571222468
 20
2421.945146596497
 30
0.0
 11
-848.6896571222468
 21
2301.945146596497
 31
0.0
  0
LINE
  5
479
330
1F
100
AcDbEntity
  8
0-B_寸法
  6
Continuous
 62
   120
370
     5
100
AcDbLine
 10
-2032.879242215157
 20
2421.945146596497
 30
0.0
 11
-2032.879242215157
 21
2301.945146596497
 31
0.0
  0
LWPOLYLINE
  5
47A
330
1F
100
AcDbEntity
  8
0-B_寸法
  6
Continuous
 62
     7
370
     9
100
AcDbPolyline
 90
        4
 70
     1
 43
3.0
 10
-2599.189459170382
 20
-1160.989500715855
 42
0.4142135623731
 10
-2600.689459170381
 20
-1159.489500715855
 42
0.4142135623731
 10
-2602.189459170381
 20
-1160.989500715855
 42
0.4142135623731
 10
-2600.689459170381
 20
-1162.489500715855
 42
0.4142135623731
  0
LINE
  5
47B
330
1F
100
AcDbEntity
  8
0-B_寸法
  6
Continuous
 62
   120
370
     5
100
AcDbLine
 10
-2600.689459170381
 20
-1076.752572136883
 30
0.0
 11
-2600.689459170381
 21
-1160.989500715855
 31
0.0
  0
LINE
  5
47C
330
1F
100
AcDbEntity
  8
0-6_扉
  6
Continuous
 62
   200
370
    20
100
AcDbLine
 10
-2600.689459170381
 20
-3175.000334096354
 30
0.0
 11
-2600.689459170381
 21
-1917.999673791762
 31
0.0
  0
LINE
  5
47D
330
1F
100
AcDbEntity
  8
0-6_扉
  6
Continuous
 62
   200
370
    20
100
AcDbLine
 10
-2600.689459170381
 20
-558.9994634679138
 30
0.0
 11
-2600.689459170381
 21
-1797.999673791762
 31
0.0
  0
LWPOLYLINE
  5
47E
330
1F
100
AcDbEntity
  8
0-B_寸法
  6
Continuous
 62
     7
370
     9
100
AcDbPolyline
 90
        4
 70
     1
 43
3.0
 10
-2719.189459170382
 20
-1160.989500715855
 42
0.4142135623731
 10
-2720.689459170381
 20
-1159.489500715855
 42
0.4142135623731
 10
-2722.189459170381
 20
-1160.989500715855
 42
0.4142135623731
 10
-2720.689459170381
 20
-1162.489500715855
 42
0.4142135623731
  0
LINE
  5
47F
330
1F
100
AcDbEntity
  8
0-B_寸法
  6
Continuous
 62
   120
370
     5
100
AcDbLine
 10
-2720.689459170381
 20
-1076.752572136883
 30
0.0
 11
-2720.689459170381
 21
-1160.989500715855
 31
0.0
  0
LINE
  5
480
330
1F
100
AcDbEntity
  8
0-6_扉
  6
Continuous
 62
   200
370
    20
100
AcDbLine
 10
-2720.689459170381
 20
-3175.000334096354
 30
0.0
 11
-2720.689459170381
 21
-1917.999673791762
 31
0.0
  0
LINE
  5
481
330
1F
100
AcDbEntity
  8
0-6_扉
  6
Continuous
 62
   200
370
    20
100
AcDbLine
 10
-2720.689459170381
 20
-558.9994634679138
 30
0.0
 11
-2720.689459170381
 21
-1797.999673791762
 31
0.0
  0
LINE
  5
482
330
1F
100
AcDbEntity
  8
0-6_扉
  6
Continuous
 62
   200
370
    20
100
AcDbLine
 10
-2600.689459170381
 20
-3175.000334096354
 30
0.0
 11
-2720.689459170381
 21
-3175.000334096354
 31
0.0
  0
LINE
  5
483
330
1F
100
AcDbEntity
  8
0-6_扉
  6
Continuous
 62
   200
370
    20
100
AcDbLine
 10
-2720.689459170381
 20
-558.9994634679138
 30
0.0
 11
-2600.689459170381
 21
-558.9994634679138
 31
0.0
  0
LINE
  5
484
330
1F
100
AcDbEntity
  8
0-B_寸法
  6
Continuous
 62
   120
370
     5
100
AcDbLine
 10
-2720.689459170381
 20
-1160.989500715855
 30
0.0
 11
-2600.689459170381
 21
-1160.989500715855
 31
0.0
  0
ENDSEC
  0
SECTION
  2
OBJECTS
  0
DICTIONARY
  5
C
330
0
100
AcDbDictionary
281
     1
  3
ACAD_GROUP
350
D
  3
ACAD_LAYOUT
350
1A
  3
ACAD_MATERIAL
350
3B
  3
ACAD_MLEADERSTYLE
350
4AD
  3
ACAD_MLINESTYLE
350
17
  3
ACAD_PLOTSETTINGS
350
19
  3
ACAD_PLOTSTYLENAME
350
E
  3
ACAD_TABLESTYLE
350
4AC
  3
ACAD_VISUALSTYLE
350
2A
  0
DICTIONARY
  5
D
102
{ACAD_REACTORS
330
C
102
}
330
C
100
AcDbDictionary
281
     1
  0
DICTIONARY
  5
1A
102
{ACAD_REACTORS
330
C
102
}
330
C
100
AcDbDictionary
281
     1
  3
Layout1
350
1E
  3
Layout2
350
26
  3
Model
350
22
  0
DICTIONARY
  5
3B
102
{ACAD_REACTORS
330
C
102
}
330
C
100
AcDbDictionary
281
     1
  3
ByBlock
350
3D
  3
ByLayer
350
3C
  3
Global
350
3E
  0
DICTIONARY
  5
4AD
102
{ACAD_REACTORS
330
C
102
}
330
C
100
AcDbDictionary
281
     1
  0
DICTIONARY
  5
17
102
{ACAD_REACTORS
330
C
102
}
330
C
100
AcDbDictionary
281
     1
  3
Standard
350
18
  0
DICTIONARY
  5
19
102
{ACAD_REACTORS
330
C
102
}
330
C
100
AcDbDictionary
281
     1
  0
ACDBDICTIONARYWDFLT
  5
E
102
{ACAD_REACTORS
330
C
102
}
330
C
100
AcDbDictionary
281
     1
  3
Normal
350
F
100
AcDbDictionaryWithDefault
340
F
  0
DICTIONARY
  5
4AC
102
{ACAD_REACTORS
330
C
102
}
330
C
100
AcDbDictionary
281
     1
  0
DICTIONARY
  5
2A
102
{ACAD_REACTORS
330
C
102
}
330
C
100
AcDbDictionary
281
     1
  3
2dWireframe
350
2F
  3
3D Hidden
350
31
  3
3dWireframe
350
30
  3
Basic
350
32
  3
Brighten
350
36
  3
ColorChange
350
3A
  3
Conceptual
350
34
  3
Dim
350
35
  3
Facepattern
350
39
  3
Flat
350
2B
  3
FlatWithEdges
350
2C
  3
Gouraud
350
2D
  3
GouraudWithEdges
350
2E
  3
Linepattern
350
38
  3
Realistic
350
33
  3
Thicken
350
37
  0
LAYOUT
  5
1E
102
{ACAD_REACTORS
330
1A
102
}
330
1A
100
AcDbPlotSettings
  1

  2
none_device
  4

  6

 40
0.0
 41
0.0
 42
0.0
 43
0.0
 44
0.0
 45
0.0
 46
0.0
 47
0.0
 48
0.0
 49
0.0
140
0.0
141
0.0
142
1.0
143
1.0
 70
   688
 72
     0
 73
     0
 74
     5
  7

 75
    16
 76
     0
 77
     5
 78
   300
147
1.0
148
0.0
149
0.0
100
AcDbLayout
  1
Layout1
 70
     1
 71
     1
 10
0.0
 20
0.0
 11
420.0
 21
297.0
 12
0.0
 22
0.0
 32
0.0
 14
1.000000000000000E+20
 24
1.000000000000000E+20
 34
1.000000000000000E+20
 15
-1.000000000000000E+20
 25
-1.000000000000000E+20
 35
-1.000000000000000E+20
146
0.0
 13
0.0
 23
0.0
 33
0.0
 16
1.0
 26
0.0
 36
0.0
 17
0.0
 27
1.0
 37
0.0
 76
     0
330
1B
  0
LAYOUT
  5
26
102
{ACAD_REACTORS
330
1A
102
}
330
1A
100
AcDbPlotSettings
  1

  2
none_device
  4

  6

 40
0.0
 41
0.0
 42
0.0
 43
0.0
 44
0.0
 45
0.0
 46
0.0
 47
0.0
 48
0.0
 49
0.0
140
0.0
141
0.0
142
1.0
143
1.0
 70
   688
 72
     0
 73
     0
 74
     5
  7

 75
    16
 76
     0
 77
     5
 78
   300
147
1.0
148
0.0
149
0.0
100
AcDbLayout
  1
Layout2
 70
     1
 71
     2
 10
0.0
 20
0.0
 11
0.0
 21
0.0
 12
0.0
 22
0.0
 32
0.0
 14
0.0
 24
0.0
 34
0.0
 15
0.0
 25
0.0
 35
0.0
146
0.0
 13
0.0
 23
0.0
 33
0.0
 16
1.0
 26
0.0
 36
0.0
 17
0.0
 27
1.0
 37
0.0
 76
     0
330
23
  0
LAYOUT
  5
22
102
{ACAD_REACTORS
330
1A
102
}
330
1A
100
AcDbPlotSettings
  1

  2
none_device
  4

  6

 40
0.0
 41
0.0
 42
0.0
 43
0.0
 44
0.0
 45
0.0
 46
0.0
 47
0.0
 48
0.0
 49
0.0
140
0.0
141
0.0
142
1.0
143
1.0
 70
  1712
 72
     0
 73
     0
 74
     0
  7

 75
     0
 76
     0
 77
     5
 78
   300
147
1.0
148
0.0
149
0.0
100
AcDbLayout
  1
Model
 70
     1
 71
     0
 10
-6300.0
 20
-4455.0
 11
6300.0
 21
4455.0
 12
0.0
 22
0.0
 32
0.0
 14
-6300.0
 24
-4455.0
 34
0.0
 15
6300.0
 25
4455.0
 35
0.0
146
0.0
 13
0.0
 23
0.0
 33
0.0
 16
1.0
 26
0.0
 36
0.0
 17
0.0
 27
1.0
 37
0.0
 76
     0
330
1F
331
29
  0
MATERIAL
  5
3D
102
{ACAD_REACTORS
330
3B
102
}
330
3B
100
AcDbMaterial
  1
ByBlock
 72
     1
 94
      127
  0
MATERIAL
  5
3C
102
{ACAD_REACTORS
330
3B
102
}
330
3B
100
AcDbMaterial
  1
ByLayer
 72
     1
 94
      127
  0
MATERIAL
  5
3E
102
{ACAD_REACTORS
330
3B
102
}
330
3B
100
AcDbMaterial
  1
Global
 72
     1
 94
      127
  0
MLINESTYLE
  5
18
102
{ACAD_REACTORS
330
17
102
}
330
17
100
AcDbMlineStyle
  2
Standard
 70
     0
  3

 62
   256
 51
90.0
 52
90.0
 71
     2
 49
0.5
 62
   256
  6
BYLAYER
 49
-0.5
 62
   256
  6
BYLAYER
  0
ACDBPLACEHOLDER
  5
F
102
{ACAD_REACTORS
330
E
102
}
330
E
  0
VISUALSTYLE
  5
2F
102
{ACAD_REACTORS
330
2A
102
}
330
2A
100
AcDbVisualStyle
  2
2dWireframe
 70
     4
177
     2
291
     0
 71
     0
176
     1
 72
     2
176
     1
 73
     0
176
     1
 90
        0
176
     1
 40
-0.6
176
     1
 41
-30.0
176
     1
 62
     5
 63
     7
421
 16777215
176
     1
 74
     1
176
     1
 91
        4
176
     1
 64
     7
176
     1
 65
   257
176
     1
 75
     1
176
     1
175
     1
176
     1
 42
1.0
176
     1
 92
        0
176
     1
 66
   257
176
     1
 43
1.0
176
     1
 76
     1
176
     1
 77
     6
176
     1
 78
     2
176
     1
 67
     7
176
     1
 79
     5
176
     1
170
     0
176
     1
171
     0
176
     1
290
     0
176
     1
 93
        1
176
     1
 44
0.0
176
     1
173
     0
176
     1
  0
VISUALSTYLE
  5
31
102
{ACAD_REACTORS
330
2A
102
}
330
2A
100
AcDbVisualStyle
  2
3D Hidden
 70
     6
177
     2
291
     0
 71
     1
176
     1
 72
     2
176
     1
 73
     2
176
     1
 90
        0
176
     1
 40
-0.6
176
     1
 41
-30.0
176
     1
 62
     5
 63
     7
421
 16777215
176
     1
 74
     2
176
     1
 91
        2
176
     1
 64
     7
176
     1
 65
   257
176
     1
 75
     2
176
     1
175
     1
176
     1
 42
40.0
176
     1
 92
        0
176
     1
 66
   257
176
     1
 43
1.0
176
     1
 76
     1
176
     1
 77
     6
176
     1
 78
     2
176
     1
 67
     7
176
     1
 79
     3
176
     1
170
     0
176
     1
171
     0
176
     1
290
     0
176
     1
 93
        1
176
     1
 44
0.0
176
     1
173
     0
176
     1
  0
VISUALSTYLE
  5
30
102
{ACAD_REACTORS
330
2A
102
}
330
2A
100
AcDbVisualStyle
  2
3dWireframe
 70
     5
177
     2
291
     0
 71
     0
176
     1
 72
     2
176
     1
 73
     0
176
     1
 90
        0
176
     1
 40
-0.6
176
     1
 41
-30.0
176
     1
 62
     5
 63
     7
421
 16777215
176
     1
 74
     1
176
     1
 91
        4
176
     1
 64
     7
176
     1
 65
   257
176
     1
 75
     1
176
     1
175
     1
176
     1
 42
1.0
176
     1
 92
        0
176
     1
 66
   257
176
     1
 43
1.0
176
     1
 76
     1
176
     1
 77
     6
176
     1
 78
     2
176
     1
 67
     7
176
     1
 79
     5
176
     1
170
     0
176
     1
171
     0
176
     1
290
     0
176
     1
 93
        1
176
     1
 44
0.0
176
     1
173
     0
176
     1
  0
VISUALSTYLE
  5
32
102
{ACAD_REACTORS
330
2A
102
}
330
2A
100
AcDbVisualStyle
  2
Basic
 70
     7
177
     2
291
     1
 71
     1
176
     1
 72
     0
176
     1
 73
     1
176
     1
 90
        0
176
     1
 40
-0.6
176
     1
 41
-30.0
176
     1
 62
     5
 63
     7
421
 16777215
176
     1
 74
     0
176
     1
 91
        4
176
     1
 64
     7
176
     1
 65
   257
176
     1
 75
     1
176
     1
175
     1
176
     1
 42
1.0
176
     1
 92
        8
176
     1
 66
     7
176
     1
 43
1.0
176
     1
 76
     1
176
     1
 77
     6
176
     1
 78
     2
176
     1
 67
     7
176
     1
 79
     5
176
     1
170
     0
176
     1
171
     0
176
     1
290
     0
176
     1
 93
        1
176
     1
 44
0.0
176
     1
173
     0
176
     1
  0
VISUALSTYLE
  5
36
102
{ACAD_REACTORS
330
2A
102
}
330
2A
100
AcDbVisualStyle
  2
Brighten
 70
    12
177
     2
291
     1
 71
     2
176
     1
 72
     2
176
     1
 73
     0
176
     1
 90
        0
176
     1
 40
-0.6
176
     1
 41
-30.0
176
     1
 62
     5
 63
     7
421
 16777215
176
     1
 74
     1
176
     1
 91
        4
176
     1
 64
     7
176
     1
 65
   257
176
     1
 75
     1
176
     1
175
     1
176
     1
 42
1.0
176
     1
 92
        8
176
     1
 66
     7
176
     1
 43
1.0
176
     1
 76
     1
176
     1
 77
     6
176
     1
 78
     2
176
     1
 67
     7
176
     1
 79
     5
176
     1
170
     0
176
     1
171
     0
176
     1
290
     0
176
     1
 93
        1
176
     1
 44
50.0
176
     1
173
     0
176
     1
  0
VISUALSTYLE
  5
3A
102
{ACAD_REACTORS
330
2A
102
}
330
2A
100
AcDbVisualStyle
  2
ColorChange
 70
    16
177
     2
291
     1
 71
     2
176
     1
 72
     2
176
     1
 73
     3
176
     1
 90
        0
176
     1
 40
-0.6
176
     1
 41
-30.0
176
     1
 62
     5
 63
     8
421
  8421504
176
     1
 74
     1
176
     1
 91
        4
176
     1
 64
     7
176
     1
 65
   257
176
     1
 75
     1
176
     1
175
     1
176
     1
 42
1.0
176
     1
 92
        8
176
     1
 66
     8
424
  8421504
176
     1
 43
1.0
176
     1
 76
     1
176
     1
 77
     6
176
     1
 78
     2
176
     1
 67
     7
176
     1
 79
     5
176
     1
170
     0
176
     1
171
     0
176
     1
290
     0
176
     1
 93
        1
176
     1
 44
0.0
176
     1
173
     0
176
     1
  0
VISUALSTYLE
  5
34
102
{ACAD_REACTORS
330
2A
102
}
330
2A
100
AcDbVisualStyle
  2
Conceptual
 70
     9
177
     2
291
     0
 71
     3
176
     1
 72
     2
176
     1
 73
     0
176
     1
 90
        0
176
     1
 40
-0.6
176
     1
 41
-30.0
176
     1
 62
     5
 63
     7
421
 16777215
176
     1
 74
     2
176
     1
 91
        2
176
     1
 64
     7
176
     1
 65
   257
176
     1
 75
     1
176
     1
175
     1
176
     1
 42
40.0
176
     1
 92
        8
176
     1
 66
     7
176
     1
 43
1.0
176
     1
 76
     1
176
     1
 77
     6
176
     1
 78
     2
176
     1
 67
     7
176
     1
 79
     3
176
     1
170
     0
176
     1
171
     0
176
     1
290
     0
176
     1
 93
        1
176
     1
 44
0.0
176
     1
173
     0
176
     1
  0
VISUALSTYLE
  5
35
102
{ACAD_REACTORS
330
2A
102
}
330
2A
100
AcDbVisualStyle
  2
Dim
 70
    11
177
     2
291
     1
 71
     2
176
     1
 72
     2
176
     1
 73
     0
176
     1
 90
        0
176
     1
 40
-0.6
176
     1
 41
-30.0
176
     1
 62
     5
 63
     7
421
 16777215
176
     1
 74
     1
176
     1
 91
        4
176
     1
 64
     7
176
     1
 65
   257
176
     1
 75
     1
176
     1
175
     1
176
     1
 42
1.0
176
     1
 92
        8
176
     1
 66
     7
176
     1
 43
1.0
176
     1
 76
     1
176
     1
 77
     6
176
     1
 78
     2
176
     1
 67
     7
176
     1
 79
     5
176
     1
170
     0
176
     1
171
     0
176
     1
290
     0
176
     1
 93
        1
176
     1
 44
-50.0
176
     1
173
     0
176
     1
  0
VISUALSTYLE
  5
39
102
{ACAD_REACTORS
330
2A
102
}
330
2A
100
AcDbVisualStyle
  2
Facepattern
 70
    15
177
     2
291
     1
 71
     2
176
     1
 72
     2
176
     1
 73
     0
176
     1
 90
        0
176
     1
 40
-0.6
176
     1
 41
-30.0
176
     1
 62
     5
 63
     7
421
 16777215
176
     1
 74
     1
176
     1
 91
        4
176
     1
 64
     7
176
     1
 65
   257
176
     1
 75
     1
176
     1
175
     1
176
     1
 42
1.0
176
     1
 92
        8
176
     1
 66
     7
176
     1
 43
1.0
176
     1
 76
     1
176
     1
 77
     6
176
     1
 78
     2
176
     1
 67
     7
176
     1
 79
     5
176
     1
170
     0
176
     1
171
     0
176
     1
290
     0
176
     1
 93
        1
176
     1
 44
0.0
176
     1
173
     0
176
     1
  0
VISUALSTYLE
  5
2B
102
{ACAD_REACTORS
330
2A
102
}
330
2A
100
AcDbVisualStyle
  2
Flat
 70
     0
177
     2
291
     1
 71
     2
176
     1
 72
     1
176
     1
 73
     1
176
     1
 90
        2
176
     1
 40
-0.6
176
     1
 41
30.0
176
     1
 62
     5
 63
     7
421
 16777215
176
     1
 74
     0
176
     1
 91
        4
176
     1
 64
     7
176
     1
 65
   257
176
     1
 75
     1
176
     1
175
     1
176
     1
 42
1.0
176
     1
 92
        8
176
     1
 66
     7
176
     1
 43
1.0
176
     1
 76
     1
176
     1
 77
     6
176
     1
 78
     2
176
     1
 67
     7
176
     1
 79
     5
176
     1
170
     0
176
     1
171
     0
176
     1
290
     0
176
     1
 93
       13
176
     1
 44
0.0
176
     1
173
     0
176
     1
  0
VISUALSTYLE
  5
2C
102
{ACAD_REACTORS
330
2A
102
}
330
2A
100
AcDbVisualStyle
  2
FlatWithEdges
 70
     1
177
     2
291
     1
 71
     2
176
     1
 72
     1
176
     1
 73
     1
176
     1
 90
        2
176
     1
 40
-0.6
176
     1
 41
30.0
176
     1
 62
     5
 63
     7
421
 16777215
176
     1
 74
     1
176
     1
 91
        4
176
     1
 64
     7
176
     1
 65
   257
176
     1
 75
     1
176
     1
175
     1
176
     1
 42
1.0
176
     1
 92
        0
176
     1
 66
   257
176
     1
 43
1.0
176
     1
 76
     1
176
     1
 77
     6
176
     1
 78
     2
176
     1
 67
     7
176
     1
 79
     5
176
     1
170
     0
176
     1
171
     0
176
     1
290
     0
176
     1
 93
       13
176
     1
 44
0.0
176
     1
173
     0
176
     1
  0
VISUALSTYLE
  5
2D
102
{ACAD_REACTORS
330
2A
102
}
330
2A
100
AcDbVisualStyle
  2
Gouraud
 70
     2
177
     2
291
     1
 71
     2
176
     1
 72
     2
176
     1
 73
     1
176
     1
 90
        2
176
     1
 40
-0.6
176
     1
 41
30.0
176
     1
 62
     5
 63
     7
421
 16777215
176
     1
 74
     0
176
     1
 91
        4
176
     1
 64
     7
176
     1
 65
   257
176
     1
 75
     1
176
     1
175
     1
176
     1
 42
1.0
176
     1
 92
        0
176
     1
 66
     7
176
     1
 43
1.0
176
     1
 76
     1
176
     1
 77
     6
176
     1
 78
     2
176
     1
 67
     7
176
     1
 79
     5
176
     1
170
     0
176
     1
171
     0
176
     1
290
     0
176
     1
 93
       13
176
     1
 44
0.0
176
     1
173
     0
176
     1
  0
VISUALSTYLE
  5
2E
102
{ACAD_REACTORS
330
2A
102
}
330
2A
100
AcDbVisualStyle
  2
GouraudWithEdges
 70
     3
177
     2
291
     1
 71
     2
176
     1
 72
     2
176
     1
 73
     1
176
     1
 90
        2
176
     1
 40
-0.6
176
     1
 41
30.0
176
     1
 62
     5
 63
     7
421
 16777215
176
     1
 74
     1
176
     1
 91
        4
176
     1
 64
     7
176
     1
 65
   257
176
     1
 75
     1
176
     1
175
     1
176
     1
 42
1.0
176
     1
 92
        0
176
     1
 66
   257
176
     1
 43
1.0
176
     1
 76
     1
176
     1
 77
     6
176
     1
 78
     2
176
     1
 67
     7
176
     1
 79
     5
176
     1
170
     0
176
     1
171
     0
176
     1
290
     0
176
     1
 93
       13
176
     1
 44
0.0
176
     1
173
     0
176
     1
  0
VISUALSTYLE
  5
38
102
{ACAD_REACTORS
330
2A
102
}
330
2A
100
AcDbVisualStyle
  2
Linepattern
 70
    14
177
     2
291
     1
 71
     2
176
     1
 72
     2
176
     1
 73
     0
176
     1
 90
        0
176
     1
 40
-0.6
176
     1
 41
-30.0
176
     1
 62
     5
 63
     7
421
 16777215
176
     1
 74
     1
176
     1
 91
        4
176
     1
 64
     7
176
     1
 65
   257
176
     1
 75
     7
176
     1
175
     7
176
     1
 42
1.0
176
     1
 92
        8
176
     1
 66
     7
176
     1
 43
1.0
176
     1
 76
     1
176
     1
 77
     6
176
     1
 78
     2
176
     1
 67
     7
176
     1
 79
     5
176
     1
170
     0
176
     1
171
     0
176
     1
290
     0
176
     1
 93
        1
176
     1
 44
0.0
176
     1
173
     0
176
     1
  0
VISUALSTYLE
  5
33
102
{ACAD_REACTORS
330
2A
102
}
330
2A
100
AcDbVisualStyle
  2
Realistic
 70
     8
177
     2
291
     0
 71
     2
176
     1
 72
     2
176
     1
 73
     0
176
     1
 90
        0
176
     1
 40
-0.6
176
     1
 41
-30.0
176
     1
 62
     5
 63
     7
421
 16777215
176
     1
 74
     1
176
     1
 91
        0
176
     1
 64
     7
176
     1
 65
   257
176
     1
 75
     1
176
     1
175
     1
176
     1
 42
1.0
176
     1
 92
        8
176
     1
 66
     8
424
  7895160
176
     1
 43
1.0
176
     1
 76
     1
176
     1
 77
     6
176
     1
 78
     2
176
     1
 67
     7
176
     1
 79
     5
176
     1
170
     0
176
     1
171
     0
176
     1
290
     0
176
     1
 93
       13
176
     1
 44
0.0
176
     1
173
     0
176
     1
  0
VISUALSTYLE
  5
37
102
{ACAD_REACTORS
330
2A
102
}
330
2A
100
AcDbVisualStyle
  2
Thicken
 70
    13
177
     2
291
     1
 71
     2
176
     1
 72
     2
176
     1
 73
     0
176
     1
 90
        0
176
     1
 40
-0.6
176
     1
 41
-30.0
176
     1
 62
     5
 63
     7
421
 16777215
176
     1
 74
     1
176
     1
 91
        4
176
     1
 64
     7
176
     1
 65
   257
176
     1
 75
     1
176
     1
175
     1
176
     1
 42
1.0
176
     1
 92
       12
176
     1
 66
     7
176
     1
 43
1.0
176
     1
 76
     1
176
     1
 77
     6
176
     1
 78
     2
176
     1
 67
     7
176
     1
 79
     5
176
     1
170
     0
176
     1
171
     0
176
     1
290
     0
176
     1
 93
        1
176
     1
 44
0.0
176
     1
173
     0
176
     1
  0
ENDSEC
  0
EOF
