  0
SECTION
  2
HEADER
  9
$ACADVER
  1
AC1024
  9
$ACADMAINTVER
 70
     6
  9
$DWGCODEPAGE
  3
ANSI_932
  9
$INSBASE
 10
0.0
 20
0.0
 30
0.0
  9
$EXTMIN
 10
-6300.0
 20
-4455.0
 30
0.0
  9
$EXTMAX
 10
6300.0
 20
4455.0
 30
0.0
  9
$LIMMIN
 10
-6300.0
 20
-4455.0
  9
$LIMMAX
 10
6300.0
 20
4455.0
  9
$ORTHOMODE
 70
     0
  9
$REGENMODE
 70
     1
  9
$FILLMODE
 70
     1
  9
$QTEXTMODE
 70
     0
  9
$MIRRTEXT
 70
     1
  9
$LTSCALE
 40
30.0
  9
$ATTMODE
 70
     1
  9
$TEXTSIZE
 40
2.5
  9
$TRACEWID
 40
1.0
  9
$TEXTSTYLE
  7
Standard
  9
$CLAYER
  8
0
  9
$CELTYPE
  6
ByLayer
  9
$CECOLOR
 62
   256
  9
$CELTSCALE
 40
1.0
  9
$DISPSILH
 70
     0
  9
$DIMSCALE
 40
1.0
  9
$DIMASZ
 40
2.5
  9
$DIMEXO
 40
0.625
  9
$DIMDLI
 40
3.75
  9
$DIMRND
 40
0.0
  9
$DIMDLE
 40
0.0
  9
$DIMEXE
 40
1.25
  9
$DIMTP
 40
0.0
  9
$DIMTM
 40
0.0
  9
$DIMTXT
 40
2.5
  9
$DIMCEN
 40
2.5
  9
$DIMTSZ
 40
0.0
  9
$DIMTOL
 70
     0
  9
$DIMLIM
 70
     0
  9
$DIMTIH
 70
     0
  9
$DIMTOH
 70
     0
  9
$DIMSE1
 70
     0
  9
$DIMSE2
 70
     0
  9
$DIMTAD
 70
     1
  9
$DIMZIN
 70
     8
  9
$DIMBLK
  1

  9
$DIMASO
 70
     1
  9
$DIMSHO
 70
     1
  9
$DIMPOST
  1

  9
$DIMAPOST
  1

  9
$DIMALT
 70
     0
  9
$DIMALTD
 70
     3
  9
$DIMALTF
 40
0.03937007874016
  9
$DIMLFAC
 40
1.0
  9
$DIMTOFL
 70
     1
  9
$DIMTVP
 40
0.0
  9
$DIMTIX
 70
     0
  9
$DIMSOXD
 70
     0
  9
$DIMSAH
 70
     0
  9
$DIMBLK1
  1

  9
$DIMBLK2
  1

  9
$DIMSTYLE
  2
ISO-25
  9
$DIMCLRD
 70
     0
  9
$DIMCLRE
 70
     0
  9
$DIMCLRT
 70
     0
  9
$DIMTFAC
 40
1.0
  9
$DIMGAP
 40
0.625
  9
$DIMJUST
 70
     0
  9
$DIMSD1
 70
     0
  9
$DIMSD2
 70
     0
  9
$DIMTOLJ
 70
     0
  9
$DIMTZIN
 70
     8
  9
$DIMALTZ
 70
     0
  9
$DIMALTTZ
 70
     0
  9
$DIMUPT
 70
     0
  9
$DIMDEC
 70
     2
  9
$DIMTDEC
 70
     2
  9
$DIMALTU
 70
     2
  9
$DIMALTTD
 70
     3
  9
$DIMTXSTY
  7
Standard
  9
$DIMAUNIT
 70
     0
  9
$DIMADEC
 70
     0
  9
$DIMALTRND
 40
0.0
  9
$DIMAZIN
 70
     0
  9
$DIMDSEP
 70
    44
  9
$DIMATFIT
 70
     3
  9
$DIMFRAC
 70
     0
  9
$DIMLDRBLK
  1

  9
$DIMLUNIT
 70
     2
  9
$DIMLWD
 70
    -2
  9
$DIMLWE
 70
    -2
  9
$DIMTMOVE
 70
     0
  9
$DIMFXL
 40
1.0
  9
$DIMFXLON
 70
     0
  9
$DIMJOGANG
 40
0.7853981633974483
  9
$DIMTFILL
 70
     0
  9
$DIMTFILLCLR
 70
     0
  9
$DIMARCSYM
 70
     0
  9
$DIMLTYPE
  6

  9
$DIMLTEX1
  6

  9
$DIMLTEX2
  6

  9
$DIMTXTDIRECTION
 70
     0
  9
$LUNITS
 70
     2
  9
$LUPREC
 70
     4
  9
$SKETCHINC
 40
1.0
  9
$FILLETRAD
 40
10.0
  9
$AUNITS
 70
     0
  9
$AUPREC
 70
     0
  9
$MENU
  1
.
  9
$ELEVATION
 40
0.0
  9
$PELEVATION
 40
0.0
  9
$THICKNESS
 40
0.0
  9
$LIMCHECK
 70
     0
  9
$CHAMFERA
 40
10.0
  9
$CHAMFERB
 40
10.0
  9
$CHAMFERC
 40
20.0
  9
$CHAMFERD
 40
0.0
  9
$SKPOLY
 70
     0
  9
$TDCREATE
 40
2460327.690407442
  9
$TDUCREATE
 40
2460327.315407442
  9
$TDUPDATE
 40
2460327.690407454
  9
$TDUUPDATE
 40
2460327.315407454
  9
$TDINDWG
 40
0.0000000116
  9
$TDUSRTIMER
 40
0.0000000116
  9
$USRTIMER
 70
     1
  9
$ANGBASE
 50
0.0
  9
$ANGDIR
 70
     0
  9
$PDMODE
 70
     0
  9
$PDSIZE
 40
0.0
  9
$PLINEWID
 40
0.0
  9
$SPLFRAME
 70
     0
  9
$SPLINETYPE
 70
     6
  9
$SPLINESEGS
 70
     8
  9
$HANDSEED
  5
481
  9
$SURFTAB1
 70
     6
  9
$SURFTAB2
 70
     6
  9
$SURFTYPE
 70
     6
  9
$SURFU
 70
     6
  9
$SURFV
 70
     6
  9
$UCSBASE
  2

  9
$UCSNAME
  2

  9
$UCSORG
 10
0.0
 20
0.0
 30
0.0
  9
$UCSXDIR
 10
1.0
 20
0.0
 30
0.0
  9
$UCSYDIR
 10
0.0
 20
1.0
 30
0.0
  9
$UCSORTHOREF
  2

  9
$UCSORTHOVIEW
 70
     0
  9
$UCSORGTOP
 10
0.0
 20
0.0
 30
0.0
  9
$UCSORGBOTTOM
 10
0.0
 20
0.0
 30
0.0
  9
$UCSORGLEFT
 10
0.0
 20
0.0
 30
0.0
  9
$UCSORGRIGHT
 10
0.0
 20
0.0
 30
0.0
  9
$UCSORGFRONT
 10
0.0
 20
0.0
 30
0.0
  9
$UCSORGBACK
 10
0.0
 20
0.0
 30
0.0
  9
$PUCSBASE
  2

  9
$PUCSNAME
  2

  9
$PUCSORG
 10
0.0
 20
0.0
 30
0.0
  9
$PUCSXDIR
 10
1.0
 20
0.0
 30
0.0
  9
$PUCSYDIR
 10
0.0
 20
1.0
 30
0.0
  9
$PUCSORTHOREF
  2

  9
$PUCSORTHOVIEW
 70
     0
  9
$PUCSORGTOP
 10
0.0
 20
0.0
 30
0.0
  9
$PUCSORGBOTTOM
 10
0.0
 20
0.0
 30
0.0
  9
$PUCSORGLEFT
 10
0.0
 20
0.0
 30
0.0
  9
$PUCSORGRIGHT
 10
0.0
 20
0.0
 30
0.0
  9
$PUCSORGFRONT
 10
0.0
 20
0.0
 30
0.0
  9
$PUCSORGBACK
 10
0.0
 20
0.0
 30
0.0
  9
$USERI1
 70
     0
  9
$USERI2
 70
     0
  9
$USERI3
 70
     0
  9
$USERI4
 70
     0
  9
$USERI5
 70
     0
  9
$USERR1
 40
0.0
  9
$USERR2
 40
0.0
  9
$USERR3
 40
0.0
  9
$USERR4
 40
0.0
  9
$USERR5
 40
0.0
  9
$WORLDVIEW
 70
     1
  9
$SHADEDGE
 70
     3
  9
$SHADEDIF
 70
    70
  9
$TILEMODE
 70
     1
  9
$MAXACTVP
 70
    64
  9
$PINSBASE
 10
0.0
 20
0.0
 30
0.0
  9
$PLIMCHECK
 70
     0
  9
$PEXTMIN
 10
1.000000000000000E+20
 20
1.000000000000000E+20
 30
1.000000000000000E+20
  9
$PEXTMAX
 10
-1.000000000000000E+20
 20
-1.000000000000000E+20
 30
-1.000000000000000E+20
  9
$PLIMMIN
 10
0.0
 20
0.0
  9
$PLIMMAX
 10
420.0
 20
297.0
  9
$UNITMODE
 70
     0
  9
$VISRETAIN
 70
     1
  9
$PLINEGEN
 70
     0
  9
$PSLTSCALE
 70
     1
  9
$TREEDEPTH
 70
  3020
  9
$CMLSTYLE
  2
Standard
  9
$CMLJUST
 70
     0
  9
$CMLSCALE
 40
20.0
  9
$PROXYGRAPHICS
 70
     1
  9
$MEASUREMENT
 70
     1
  9
$CELWEIGHT
370
    -1
  9
$ENDCAPS
280
     0
  9
$JOINSTYLE
280
     0
  9
$LWDISPLAY
290
     0
  9
$INSUNITS
 70
     4
  9
$HYPERLINKBASE
  1

  9
$STYLESHEET
  1

  9
$XEDIT
290
     1
  9
$CEPSNTYPE
380
     0
  9
$PSTYLEMODE
290
     1
  9
$FINGERPRINTGUID
  2
{4497D3EC-2C0E-42D2-A0DB-373726517864}
  9
$VERSIONGUID
  2
{FAEB1C32-E019-11D5-929B-00C0DF256EC4}
  9
$EXTNAMES
290
     1
  9
$PSVPSCALE
 40
0.0
  9
$OLESTARTUP
290
     0
  9
$SORTENTS
280
   127
  9
$INDEXCTL
280
     0
  9
$HIDETEXT
280
     1
  9
$XCLIPFRAME
280
     2
  9
$HALOGAP
280
     0
  9
$OBSCOLOR
 70
   257
  9
$OBSLTYPE
280
     0
  9
$INTERSECTIONDISPLAY
280
     0
  9
$INTERSECTIONCOLOR
 70
   257
  9
$DIMASSOC
280
     2
  9
$PROJECTNAME
  1

  9
$CAMERADISPLAY
290
     0
  9
$LENSLENGTH
 40
50.0
  9
$CAMERAHEIGHT
 40
0.0
  9
$STEPSPERSEC
 40
2.0
  9
$STEPSIZE
 40
6.0
  9
$3DDWFPREC
 40
2.0
  9
$PSOLWIDTH
 40
5.0
  9
$PSOLHEIGHT
 40
80.0
  9
$LOFTANG1
 40
1.570796326794897
  9
$LOFTANG2
 40
1.570796326794897
  9
$LOFTMAG1
 40
0.0
  9
$LOFTMAG2
 40
0.0
  9
$LOFTPARAM
 70
     7
  9
$LOFTNORMALS
280
     1
  9
$LATITUDE
 40
37.795
  9
$LONGITUDE
 40
-122.394
  9
$NORTHDIRECTION
 40
0.0
  9
$TIMEZONE
 70
 -8000
  9
$LIGHTGLYPHDISPLAY
280
     1
  9
$TILEMODELIGHTSYNCH
280
     1
  9
$SOLIDHIST
280
     1
  9
$SHOWHIST
280
     1
  9
$DWFFRAME
280
     2
  9
$DGNFRAME
280
     2
  9
$REALWORLDSCALE
290
     1
  9
$INTERFERECOLOR
 62
   256
  9
$CSHADOW
280
     0
  9
$SHADOWPLANELOCATION
 40
0.0
  0
ENDSEC
  0
SECTION
  2
CLASSES
  0
CLASS
  1
ACDBDICTIONARYWDFLT
  2
AcDbDictionaryWithDefault
  3
ObjectDBX Classes
 90
        0
 91
        4
280
     0
281
     0
  0
CLASS
  1
VISUALSTYLE
  2
AcDbVisualStyle
  3
ObjectDBX Classes
 90
     4095
 91
        4
280
     0
281
     0
  0
CLASS
  1
MATERIAL
  2
AcDbMaterial
  3
ObjectDBX Classes
 90
     1153
 91
        4
280
     0
281
     0
  0
ENDSEC
  0
SECTION
  2
TABLES
  0
TABLE
  2
VPORT
  5
8
330
0
100
AcDbSymbolTable
 70
     1
  0
VPORT
  5
29
330
8
100
AcDbSymbolTableRecord
100
AcDbViewportTableRecord
  2
*Active
 70
     0
 10
0.0
 20
0.0
 11
1.0
 21
1.0
 12
0.0
 22
0.0
 13
0.0
 23
0.0
 14
10.0
 24
10.0
 15
10.0
 25
10.0
 16
0.0
 26
0.0
 36
1.0
 17
0.0
 27
0.0
 37
0.0
 40
9801.0
 41
1.414141414141414
 42
50.0
 43
0.0
 44
0.0
 50
0.0
 51
0.0
 71
     0
 72
 10000
 73
     1
 74
     3
 75
     0
 76
     0
 77
     0
 78
     0
281
     0
 65
     1
110
0.0
120
0.0
130
0.0
111
1.0
121
0.0
131
0.0
112
0.0
122
1.0
132
0.0
 79
     0
146
0.0
 60
     3
 61
     5
292
     1
282
     1
141
0.0
142
0.0
 63
   250
  0
ENDTAB
  0
TABLE
  2
LTYPE
  5
5
330
0
100
AcDbSymbolTable
 70
     5
  0
LTYPE
  5
14
330
5
100
AcDbSymbolTableRecord
100
AcDbLinetypeTableRecord
  2
ByBlock
 70
     0
  3

 72
    65
 73
     0
 40
0.0
  0
LTYPE
  5
15
330
5
100
AcDbSymbolTableRecord
100
AcDbLinetypeTableRecord
  2
ByLayer
 70
     0
  3

 72
    65
 73
     0
 40
0.0
  0
LTYPE
  5
16
330
5
100
AcDbSymbolTableRecord
100
AcDbLinetypeTableRecord
  2
Continuous
 70
     0
  3
Solid line
 72
    65
 73
     0
 40
0.0
  0
LTYPE
  5
3F
330
5
100
AcDbSymbolTableRecord
100
AcDbLinetypeTableRecord
  2
JWW_HOJO
 70
     0
  3
  -   -   -   -   -   -   -   - 
 72
    65
 73
     2
 40
1.693333333333333
 49
-1.27
 74
     0
 49
0.4233333333333333
 74
     0
  0
LTYPE
  5
40
330
5
100
AcDbSymbolTableRecord
100
AcDbLinetypeTableRecord
  2
JWW_DASHED2
 70
     0
  3
--    ----    ----    ----    --
 72
    65
 73
     2
 40
3.386666666666667
 49
1.693333333333333
 74
     0
 49
-1.693333333333333
 74
     0
  0
LTYPE
  5
41
330
5
100
AcDbSymbolTableRecord
100
AcDbLinetypeTableRecord
  2
JWW_CENTER1
 70
     0
  3
-----  --  ----------  --  -----
 72
    65
 73
     4
 40
6.773333333333333
 49
4.233333333333333
 74
     0
 49
-0.8466666666666667
 74
     0
 49
0.8466666666666667
 74
     0
 49
-0.8466666666666667
 74
     0
  0
LTYPE
  5
42
330
5
100
AcDbSymbolTableRecord
100
AcDbLinetypeTableRecord
  2
JWW_DASHED1
 70
     0
  3
-  --  --  --  --  --  --  --  -
 72
    65
 73
     2
 40
1.693333333333333
 49
0.8466666666666667
 74
     0
 49
-0.8466666666666667
 74
     0
  0
ENDTAB
  0
TABLE
  2
LAYER
  5
2
330
0
100
AcDbSymbolTable
 70
    15
  0
LAYER
  5
10
330
2
100
AcDbSymbolTableRecord
100
AcDbLayerTableRecord
  2
0
 70
     0
 62
     7
  6
Continuous
370
    -3
390
F
347
3E
  0
LAYER
  5
43
330
2
100
AcDbSymbolTableRecord
100
AcDbLayerTableRecord
  2
F-0_補助線
 70
     0
 62
     7
  6
Continuous
370
    -3
390
F
347
3E
  0
LAYER
  5
44
330
2
100
AcDbSymbolTableRecord
100
AcDbLayerTableRecord
  2
F-1_枠
 70
     0
 62
     7
  6
Continuous
370
    -3
390
F
347
3E
  0
LAYER
  5
45
330
2
100
AcDbSymbolTableRecord
100
AcDbLayerTableRecord
  2
F-A_文字
 70
     0
 62
     7
  6
Continuous
370
    -3
390
F
347
3E
  0
LAYER
  5
46
330
2
100
AcDbSymbolTableRecord
100
AcDbLayerTableRecord
  2
0-A_文字
 70
     0
 62
     7
  6
Continuous
370
    -3
390
F
347
3E
  0
LAYER
  5
47
330
2
100
AcDbSymbolTableRecord
100
AcDbLayerTableRecord
  2
戸当り
 70
     0
 62
     7
  6
Continuous
370
    -3
390
F
347
3E
  0
LAYER
  5
48
330
2
100
AcDbSymbolTableRecord
100
AcDbLayerTableRecord
  2
0-0_補助線
 70
     0
 62
     7
  6
Continuous
370
    -3
390
F
347
3E
  0
LAYER
  5
49
330
2
100
AcDbSymbolTableRecord
100
AcDbLayerTableRecord
  2
0-B_寸法
 70
     0
 62
     7
  6
Continuous
370
    -3
390
F
347
3E
  0
LAYER
  5
4A
330
2
100
AcDbSymbolTableRecord
100
AcDbLayerTableRecord
  2
0-1_通り芯
 70
     0
 62
     7
  6
Continuous
370
    -3
390
F
347
3E
  0
LAYER
  5
4B
330
2
100
AcDbSymbolTableRecord
100
AcDbLayerTableRecord
  2
0-7_金物
 70
     0
 62
     7
  6
Continuous
370
    -3
390
F
347
3E
  0
LAYER
  5
4C
330
2
100
AcDbSymbolTableRecord
100
AcDbLayerTableRecord
  2
0-6_扉
 70
     0
 62
     7
  6
Continuous
370
    -3
390
F
347
3E
  0
LAYER
  5
4D
330
2
100
AcDbSymbolTableRecord
100
AcDbLayerTableRecord
  2
0-C_ハッチ
 70
     0
 62
     7
  6
Continuous
370
    -3
390
F
347
3E
  0
LAYER
  5
4E
330
2
100
AcDbSymbolTableRecord
100
AcDbLayerTableRecord
  2
0-4_枠
 70
     0
 62
     7
  6
Continuous
370
    -3
390
F
347
3E
  0
LAYER
  5
4F
330
2
100
AcDbSymbolTableRecord
100
AcDbLayerTableRecord
  2
0-3_仕上げ
 70
     0
 62
     7
  6
Continuous
370
    -3
390
F
347
3E
  0
LAYER
  5
50
330
2
100
AcDbSymbolTableRecord
100
AcDbLayerTableRecord
  2
1-E
 70
     0
 62
     7
  6
Continuous
370
    -3
390
F
347
3E
  0
ENDTAB
  0
TABLE
  2
STYLE
  5
3
330
0
100
AcDbSymbolTable
 70
     1
  0
STYLE
  5
11
330
3
100
AcDbSymbolTableRecord
100
AcDbTextStyleTableRecord
  2
Standard
 70
     0
 40
0.0
 41
1.0
 50
0.0
 71
     0
 42
2.5
  3
txt
  4

  0
ENDTAB
  0
TABLE
  2
VIEW
  5
6
330
0
100
AcDbSymbolTable
 70
     0
  0
ENDTAB
  0
TABLE
  2
UCS
  5
7
330
0
100
AcDbSymbolTable
 70
     0
  0
ENDTAB
  0
TABLE
  2
APPID
  5
9
330
0
100
AcDbSymbolTable
 70
     1
  0
APPID
  5
12
330
9
100
AcDbSymbolTableRecord
100
AcDbRegAppTableRecord
  2
ACAD
 70
     0
  0
ENDTAB
  0
TABLE
  2
DIMSTYLE
  5
A
330
0
100
AcDbSymbolTable
 70
     1
100
AcDbDimStyleTable
  0
DIMSTYLE
105
27
330
A
100
AcDbSymbolTableRecord
100
AcDbDimStyleTableRecord
  2
ISO-25
 70
     0
 41
2.5
 42
0.625
 43
3.75
 44
1.25
 73
     0
 74
     0
 77
     1
 78
     8
140
2.5
141
2.5
143
0.03937007874016
147
0.625
171
     3
172
     1
178
     0
271
     2
272
     2
274
     3
278
    44
283
     0
284
     8
340
11
  0
ENDTAB
  0
TABLE
  2
BLOCK_RECORD
  5
1
330
0
100
AcDbSymbolTable
 70
     2
  0
BLOCK_RECORD
  5
1F
330
1
100
AcDbSymbolTableRecord
100
AcDbBlockTableRecord
  2
*Model_Space
340
22
 70
     0
280
     1
281
     0
  0
BLOCK_RECORD
  5
1B
330
1
100
AcDbSymbolTableRecord
100
AcDbBlockTableRecord
  2
*Paper_Space
340
1E
 70
     0
280
     1
281
     0
  0
BLOCK_RECORD
  5
23
330
1
100
AcDbSymbolTableRecord
100
AcDbBlockTableRecord
  2
*Paper_Space0
340
26
 70
     0
280
     1
281
     0
  0
BLOCK_RECORD
  5
51
330
1
100
AcDbSymbolTableRecord
100
AcDbBlockTableRecord
  2
01@@SfigorgFlag@@4
340
0
102
{BLKREFS
331
3A9
102
}
 70
     0
280
     1
281
     0
  0
ENDTAB
  0
ENDSEC
  0
SECTION
  2
BLOCKS
  0
BLOCK
  5
20
330
1F
100
AcDbEntity
  8
0
100
AcDbBlockBegin
  2
*Model_Space
 70
     0
 10
0.0
 20
0.0
 30
0.0
  3
*Model_Space
  1

  0
ENDBLK
  5
21
330
1F
100
AcDbEntity
  8
0
100
AcDbBlockEnd
  0
BLOCK
  5
1C
330
1B
100
AcDbEntity
 67
     1
  8
0
100
AcDbBlockBegin
  2
*Paper_Space
 70
     0
 10
0.0
 20
0.0
 30
0.0
  3
*Paper_Space
  1

  0
ENDBLK
  5
1D
330
1B
100
AcDbEntity
 67
     1
  8
0
100
AcDbBlockEnd
  0
BLOCK
  5
24
330
23
100
AcDbEntity
  8
0
100
AcDbBlockBegin
  2
*Paper_Space0
 70
     0
 10
0.0
 20
0.0
 30
0.0
  3
*Paper_Space0
  1

  0
ENDBLK
  5
25
330
23
100
AcDbEntity
  8
0
100
AcDbBlockEnd
  0
BLOCK
  5
52
330
51
100
AcDbEntity
  8
0
100
AcDbBlockBegin
  2
01@@SfigorgFlag@@4
 70
     0
 10
0.0
 20
0.0
 30
0.0
  3
01@@SfigorgFlag@@4
  1

  0
LINE
  5
458
330
51
100
AcDbEntity
  8
0-0_補助線
  6
Continuous
 62
     7
370
     9
100
AcDbLine
 10
-4.25
 20
-1.491025641025665
 30
0.0
 11
-3.25
 21
-1.491025641025665
 31
0.0
  0
LINE
  5
459
330
51
100
AcDbEntity
  8
0-0_補助線
  6
Continuous
 62
     7
370
     9
100
AcDbLine
 10
-2.75
 20
-1.491025641025665
 30
0.0
 11
-0.1500000000000909
 21
-1.491025641025665
 31
0.0
  0
LINE
  5
45A
330
51
100
AcDbEntity
  8
0-0_補助線
  6
Continuous
 62
     7
370
     9
100
AcDbLine
 10
-0.1500000000000909
 20
-1.491025641025665
 30
0.0
 11
0.0
 21
-1.641025641025642
 31
0.0
  0
LINE
  5
45B
330
51
100
AcDbEntity
  8
0-0_補助線
  6
Continuous
 62
     7
370
     9
100
AcDbLine
 10
0.0
 20
-1.641025641025642
 30
0.0
 11
0.1500000000000909
 21
-1.491025641025665
 31
0.0
  0
LINE
  5
45C
330
51
100
AcDbEntity
  8
0-0_補助線
  6
Continuous
 62
     7
370
     9
100
AcDbLine
 10
0.1500000000000909
 20
-1.491025641025665
 30
0.0
 11
2.75
 21
-1.491025641025665
 31
0.0
  0
LINE
  5
45D
330
51
100
AcDbEntity
  8
0-0_補助線
  6
Continuous
 62
     7
370
     9
100
AcDbLine
 10
3.25
 20
-1.491025641025665
 30
0.0
 11
4.25
 21
-1.491025641025665
 31
0.0
  0
LINE
  5
45E
330
51
100
AcDbEntity
  8
0-0_補助線
  6
Continuous
 62
     7
370
     9
100
AcDbLine
 10
7.849999999999909
 20
1.408974358974312
 30
0.0
 11
4.849999999999909
 21
1.408974358974312
 31
0.0
  0
LINE
  5
45F
330
51
100
AcDbEntity
  8
0-0_補助線
  6
Continuous
 62
     7
370
     9
100
AcDbLine
 10
-4.849999999999909
 20
1.408974358974312
 30
0.0
 11
-7.849999999999909
 21
1.408974358974312
 31
0.0
  0
LINE
  5
460
330
51
100
AcDbEntity
  8
0-0_補助線
  6
Continuous
 62
     7
370
     9
100
AcDbLine
 10
-4.849999999999909
 20
2.008974358974335
 30
0.0
 11
-7.849999999999909
 21
1.70897435897438
 31
0.0
  0
ARC
  5
461
330
51
100
AcDbEntity
  8
0-0_補助線
  6
Continuous
 62
     7
370
     9
100
AcDbCircle
 10
-7.849999999999909
 20
1.558974358974403
 30
0.0
 40
0.15
100
AcDbArc
 50
90.0
 51
270.0
  0
ARC
  5
462
330
51
100
AcDbEntity
  8
0-0_補助線
  6
Continuous
 62
     7
370
     9
100
AcDbCircle
 10
7.849999999999909
 20
1.558974358974403
 30
0.0
 40
0.15
100
AcDbArc
 50
270.0
 51
89.99999999999997
  0
LINE
  5
463
330
51
100
AcDbEntity
  8
0-0_補助線
  6
Continuous
 62
     7
370
     9
100
AcDbLine
 10
7.849999999999909
 20
1.70897435897438
 30
0.0
 11
4.849999999999909
 21
2.008974358974335
 31
0.0
  0
LINE
  5
464
330
51
100
AcDbEntity
  8
0-0_補助線
  6
Continuous
 62
     7
370
     9
100
AcDbLine
 10
-3.050000000000182
 20
2.008974358974335
 30
0.0
 11
-4.849999999999909
 21
2.008974358974335
 31
0.0
  0
ARC
  5
465
330
51
100
AcDbEntity
  8
0-0_補助線
  6
Continuous
 62
     7
370
     9
100
AcDbCircle
 10
-3.050000000000182
 20
1.70897435897438
 30
0.0
 40
0.3
100
AcDbArc
 50
0.0
 51
90.0
  0
ARC
  5
466
330
51
100
AcDbEntity
  8
0-0_補助線
  6
Continuous
 62
     7
370
     9
100
AcDbCircle
 10
-3.050000000000182
 20
1.70897435897438
 30
0.0
 40
0.3
100
AcDbArc
 50
270.0
 51
0.0
  0
ARC
  5
467
330
51
100
AcDbEntity
  8
0-0_補助線
  6
Continuous
 62
     7
370
     9
100
AcDbCircle
 10
3.050000000000182
 20
1.70897435897438
 30
0.0
 40
0.3
100
AcDbArc
 50
180.0
 51
270.0
  0
LINE
  5
468
330
51
100
AcDbEntity
  8
0-0_補助線
  6
Continuous
 62
     7
370
     9
100
AcDbLine
 10
3.050000000000182
 20
2.008974358974335
 30
0.0
 11
4.849999999999909
 21
2.008974358974335
 31
0.0
  0
ARC
  5
469
330
51
100
AcDbEntity
  8
0-0_補助線
  6
Continuous
 62
     7
370
     9
100
AcDbCircle
 10
3.050000000000182
 20
1.70897435897438
 30
0.0
 40
0.3
100
AcDbArc
 50
90.0
 51
180.0
  0
LINE
  5
46A
330
51
100
AcDbEntity
  8
0-0_補助線
  6
Continuous
 62
     7
370
     9
100
AcDbLine
 10
4.849999999999909
 20
-1.341025641025688
 30
0.0
 11
4.849999999999909
 21
1.408974358974312
 31
0.0
  0
ARC
  5
46B
330
51
100
AcDbEntity
  8
0-0_補助線
  6
Continuous
 62
     7
370
     9
100
AcDbCircle
 10
4.099999999999909
 20
-1.341025641025688
 30
0.0
 40
0.75
100
AcDbArc
 50
270.0
 51
0.0
  0
LINE
  5
46C
330
51
100
AcDbEntity
  8
0-0_補助線
  6
Continuous
 62
     7
370
     9
100
AcDbLine
 10
-4.849999999999909
 20
-1.341025641025688
 30
0.0
 11
-4.849999999999909
 21
1.408974358974312
 31
0.0
  0
LINE
  5
46D
330
51
100
AcDbEntity
  8
0-0_補助線
  6
Continuous
 62
     7
370
     9
100
AcDbLine
 10
-4.099999999999909
 20
-2.091025641025688
 30
0.0
 11
4.099999999999909
 21
-2.091025641025688
 31
0.0
  0
ARC
  5
46E
330
51
100
AcDbEntity
  8
0-0_補助線
  6
Continuous
 62
     7
370
     9
100
AcDbCircle
 10
-4.099999999999909
 20
-1.341025641025688
 30
0.0
 40
0.75
100
AcDbArc
 50
180.0
 51
270.0
  0
LINE
  5
46F
330
51
100
AcDbEntity
  8
0-0_補助線
  6
Continuous
 62
     7
370
     9
100
AcDbLine
 10
-4.0
 20
1.408974358974312
 30
0.0
 11
-3.050000000000182
 21
1.408974358974312
 31
0.0
  0
LINE
  5
470
330
51
100
AcDbEntity
  8
0-0_補助線
  6
Continuous
 62
     7
370
     9
100
AcDbLine
 10
-4.25
 20
1.158974358974312
 30
0.0
 11
-4.25
 21
-1.491025641025665
 31
0.0
  0
ARC
  5
471
330
51
100
AcDbEntity
  8
0-0_補助線
  6
Continuous
 62
     7
370
     9
100
AcDbCircle
 10
-4.0
 20
1.158974358974312
 30
0.0
 40
0.25
100
AcDbArc
 50
90.0
 51
180.0
  0
LINE
  5
472
330
51
100
AcDbEntity
  8
0-0_補助線
  6
Continuous
 62
     7
370
     9
100
AcDbLine
 10
4.0
 20
1.408974358974312
 30
0.0
 11
3.050000000000182
 21
1.408974358974312
 31
0.0
  0
LINE
  5
473
330
51
100
AcDbEntity
  8
0-0_補助線
  6
Continuous
 62
     7
370
     9
100
AcDbLine
 10
4.25
 20
1.158974358974312
 30
0.0
 11
4.25
 21
-1.491025641025665
 31
0.0
  0
ARC
  5
474
330
51
100
AcDbEntity
  8
0-0_補助線
  6
Continuous
 62
     7
370
     9
100
AcDbCircle
 10
4.0
 20
1.158974358974312
 30
0.0
 40
0.25
100
AcDbArc
 50
0.0
 51
90.0
  0
LINE
  5
475
330
51
100
AcDbEntity
  8
0-0_補助線
  6
Continuous
 62
     7
370
     9
100
AcDbLine
 10
-3.25
 20
-1.091025641025688
 30
0.0
 11
-3.25
 21
-1.491025641025665
 31
0.0
  0
ARC
  5
476
330
51
100
AcDbEntity
  8
0-0_補助線
  6
Continuous
 62
     7
370
     9
100
AcDbCircle
 10
-3.150000000000091
 20
-1.091025641025688
 30
0.0
 40
0.1
100
AcDbArc
 50
90.0
 51
180.0
  0
LINE
  5
477
330
51
100
AcDbEntity
  8
0-0_補助線
  6
Continuous
 62
     7
370
     9
100
AcDbLine
 10
-2.849999999999909
 20
-0.991025641025665
 30
0.0
 11
-3.150000000000091
 21
-0.991025641025665
 31
0.0
  0
LINE
  5
478
330
51
100
AcDbEntity
  8
0-0_補助線
  6
Continuous
 62
     7
370
     9
100
AcDbLine
 10
-2.75
 20
-1.091025641025688
 30
0.0
 11
-2.75
 21
-1.491025641025665
 31
0.0
  0
ARC
  5
479
330
51
100
AcDbEntity
  8
0-0_補助線
  6
Continuous
 62
     7
370
     9
100
AcDbCircle
 10
-2.849999999999909
 20
-1.091025641025688
 30
0.0
 40
0.1
100
AcDbArc
 50
0.0
 51
90.0
  0
LINE
  5
47A
330
51
100
AcDbEntity
  8
0-0_補助線
  6
Continuous
 62
     7
370
     9
100
AcDbLine
 10
2.75
 20
-1.091025641025688
 30
0.0
 11
2.75
 21
-1.491025641025665
 31
0.0
  0
ARC
  5
47B
330
51
100
AcDbEntity
  8
0-0_補助線
  6
Continuous
 62
     7
370
     9
100
AcDbCircle
 10
2.849999999999909
 20
-1.091025641025688
 30
0.0
 40
0.1
100
AcDbArc
 50
90.0
 51
180.0
  0
LINE
  5
47C
330
51
100
AcDbEntity
  8
0-0_補助線
  6
Continuous
 62
     7
370
     9
100
AcDbLine
 10
3.150000000000091
 20
-0.991025641025665
 30
0.0
 11
2.849999999999909
 21
-0.991025641025665
 31
0.0
  0
LINE
  5
47D
330
51
100
AcDbEntity
  8
0-0_補助線
  6
Continuous
 62
     7
370
     9
100
AcDbLine
 10
3.25
 20
-1.091025641025688
 30
0.0
 11
3.25
 21
-1.491025641025665
 31
0.0
  0
ARC
  5
47E
330
51
100
AcDbEntity
  8
0-0_補助線
  6
Continuous
 62
     7
370
     9
100
AcDbCircle
 10
3.150000000000091
 20
-1.091025641025688
 30
0.0
 40
0.1
100
AcDbArc
 50
0.0
 51
90.0
  0
ENDBLK
  5
53
330
51
100
AcDbEntity
  8
0
100
AcDbBlockEnd
  0
ENDSEC
  0
SECTION
  2
ENTITIES
  0
LINE
  5
54
330
1F
100
AcDbEntity
  8
F-0_補助線
  6
JWW_HOJO
 62
   120
370
     5
100
AcDbLine
 10
-6140.081333436769
 20
-4455.0
 30
0.0
 11
-6140.081333436769
 21
4424.999604096284
 31
0.0
  0
LINE
  5
55
330
1F
100
AcDbEntity
  8
F-0_補助線
  6
JWW_HOJO
 62
   120
370
     5
100
AcDbLine
 10
-6140.081333436769
 20
4424.999604096284
 30
0.0
 11
6159.917676803936
 21
4424.999604096284
 31
0.0
  0
LINE
  5
56
330
1F
100
AcDbEntity
  8
F-0_補助線
  6
JWW_HOJO
 62
   120
370
     5
100
AcDbLine
 10
6159.917676803936
 20
4424.999604096284
 30
0.0
 11
6159.917676803936
 21
-4455.0
 31
0.0
  0
LINE
  5
57
330
1F
100
AcDbEntity
  8
F-0_補助線
  6
JWW_HOJO
 62
   120
370
     5
100
AcDbLine
 10
6159.917676803936
 20
-4455.0
 30
0.0
 11
-6140.081333436769
 21
-4455.0
 31
0.0
  0
LINE
  5
58
330
1F
100
AcDbEntity
  8
F-0_補助線
  6
JWW_HOJO
 62
     7
370
     9
100
AcDbLine
 10
1009.918254163524
 20
-3795.000003092998
 30
0.0
 11
1009.918254163524
 21
-4195.000008247994
 31
0.0
  0
LINE
  5
59
330
1F
100
AcDbEntity
  8
F-0_補助線
  6
JWW_HOJO
 62
     7
370
     9
100
AcDbLine
 10
509.9185840832865
 20
-3795.000003092998
 30
0.0
 11
509.9185840832865
 21
-4195.000008247994
 31
0.0
  0
LINE
  5
5A
330
1F
100
AcDbEntity
  8
F-1_枠
  6
Continuous
 62
   200
370
    20
100
AcDbLine
 10
5859.917429364118
 20
4174.999769056166
 30
0.0
 11
5859.917429364118
 21
-4205.000164959882
 31
0.0
  0
LINE
  5
5B
330
1F
100
AcDbEntity
  8
F-1_枠
  6
Continuous
 62
   200
370
    20
100
AcDbLine
 10
-5840.081317971782
 20
4174.999769056166
 30
0.0
 11
-5840.081317971782
 21
-4205.000164959882
 31
0.0
  0
LINE
  5
5C
330
1F
100
AcDbEntity
  8
F-1_枠
  6
Continuous
 62
   200
370
    20
100
AcDbLine
 10
5859.917429364118
 20
-4205.000002577499
 30
0.0
 11
-5840.081085996952
 21
-4205.000002577499
 31
0.0
  0
LINE
  5
5D
330
1F
100
AcDbEntity
  8
F-1_枠
  6
Continuous
 62
   200
370
    20
100
AcDbLine
 10
-5830.081323642278
 20
4174.999769056166
 30
0.0
 11
-5830.081323642278
 21
-4205.000164959882
 31
0.0
  0
LINE
  5
5E
330
1F
100
AcDbEntity
  8
F-1_枠
  6
Continuous
 62
   200
370
    20
100
AcDbLine
 10
-5835.081309208292
 20
4174.999769056166
 30
0.0
 11
-5835.081309208292
 21
-4205.000164959882
 31
0.0
  0
LINE
  5
5F
330
1F
100
AcDbEntity
  8
F-1_枠
  6
Continuous
 62
   200
370
    20
100
AcDbLine
 10
5854.917165428305
 20
4174.999769056166
 30
0.0
 11
5854.917165428305
 21
-4205.000164959882
 31
0.0
  0
LINE
  5
60
330
1F
100
AcDbEntity
  8
F-1_枠
  6
Continuous
 62
   200
370
    20
100
AcDbLine
 10
5849.917643811961
 20
4174.999769056166
 30
0.0
 11
5849.917643811961
 21
-4205.000164959882
 31
0.0
  0
LINE
  5
61
330
1F
100
AcDbEntity
  8
F-1_枠
  6
Continuous
 62
   200
370
    20
100
AcDbLine
 10
5859.917429364118
 20
-4199.999993814004
 30
0.0
 11
-5840.081085996952
 21
-4199.999993814004
 31
0.0
  0
LINE
  5
62
330
1F
100
AcDbEntity
  8
F-1_枠
  6
Continuous
 62
   200
370
    20
100
AcDbLine
 10
5859.917429364118
 20
-4195.000008247994
 30
0.0
 11
-5840.081085996952
 21
-4195.000008247994
 31
0.0
  0
LINE
  5
63
330
1F
100
AcDbEntity
  8
F-1_枠
  6
Continuous
 62
   200
370
    20
100
AcDbLine
 10
4349.91789125178
 20
-3795.000003092998
 30
0.0
 11
4349.91789125178
 21
-4195.000008247994
 31
0.0
  0
LINE
  5
64
330
1F
100
AcDbEntity
  8
F-1_枠
  6
Continuous
 62
   200
370
    20
100
AcDbLine
 10
2849.917396372143
 20
-3795.000003092998
 30
0.0
 11
2849.917396372143
 21
-4195.000008247994
 31
0.0
  0
LINE
  5
65
330
1F
100
AcDbEntity
  8
F-1_枠
  6
Continuous
 62
   200
370
    20
100
AcDbLine
 10
9.918542843317937
 20
-3795.000003092998
 30
0.0
 11
9.918542843317937
 21
-4195.000008247994
 31
0.0
  0
LINE
  5
66
330
1F
100
AcDbEntity
  8
F-1_枠
  6
Continuous
 62
   200
370
    20
100
AcDbLine
 10
9.918542843317937
 20
-3994.999936078045
 30
0.0
 11
5849.917643811961
 21
-3995.005364289155
 31
0.0
  0
LINE
  5
67
330
1F
100
AcDbEntity
  8
F-1_枠
  6
Continuous
 62
   200
370
    20
100
AcDbLine
 10
-5840.081085996952
 20
4174.999769056166
 30
0.0
 11
5859.917429364118
 21
4174.999769056166
 31
0.0
  0
LINE
  5
68
330
1F
100
AcDbEntity
  8
F-1_枠
  6
Continuous
 62
   200
370
    20
100
AcDbLine
 10
-5840.081085996952
 20
4164.999983504013
 30
0.0
 11
5859.917429364118
 21
4164.999983504013
 31
0.0
  0
LINE
  5
69
330
1F
100
AcDbEntity
  8
F-1_枠
  6
Continuous
 62
   200
370
    20
100
AcDbLine
 10
-5840.081085996952
 20
4169.999505120355
 30
0.0
 11
5859.917429364118
 21
4169.999505120355
 31
0.0
  0
LINE
  5
6A
330
1F
100
AcDbEntity
  8
F-0_補助線
  6
JWW_HOJO
 62
     7
370
     9
100
AcDbLine
 10
-5830.081323642278
 20
-3994.99993607839
 30
0.0
 11
9.918542843317937
 21
-3994.99993607839
 31
0.0
  0
LINE
  5
6B
330
1F
100
AcDbEntity
  8
F-0_補助線
  6
JWW_HOJO
 62
     7
370
     9
100
AcDbLine
 10
-5830.081323642278
 20
-3904.99993607839
 30
0.0
 11
9.918542843317937
 21
-3904.99993607839
 31
0.0
  0
LINE
  5
6C
330
1F
100
AcDbEntity
  8
F-0_補助線
  6
JWW_HOJO
 62
     7
370
     9
100
AcDbLine
 10
-5830.081323642278
 20
-4084.99993607839
 30
0.0
 11
9.918542843317937
 21
-4084.99993607839
 31
0.0
  0
LINE
  5
6D
330
1F
100
AcDbEntity
  8
F-0_補助線
  6
JWW_HOJO
 62
     7
370
     9
100
AcDbLine
 10
9.918408067690052
 20
-4139.999739777984
 30
0.0
 11
5849.917509036333
 21
-4140.005167989091
 31
0.0
  0
LINE
  5
6E
330
1F
100
AcDbEntity
  8
F-0_補助線
  6
JWW_HOJO
 62
     7
370
     9
100
AcDbLine
 10
9.918491721641658
 20
-4049.999739778022
 30
0.0
 11
5849.917592690285
 21
-4050.005167989132
 31
0.0
  0
LINE
  5
6F
330
1F
100
AcDbEntity
  8
F-0_補助線
  6
JWW_HOJO
 62
     7
370
     9
100
AcDbLine
 10
9.918593965362561
 20
-3939.99973721807
 30
0.0
 11
5849.917694934006
 21
-3940.005165429179
 31
0.0
  0
LINE
  5
70
330
1F
100
AcDbEntity
  8
F-0_補助線
  6
JWW_HOJO
 62
     7
370
     9
100
AcDbLine
 10
9.918677619307346
 20
-3849.999737218109
 30
0.0
 11
5849.917778587951
 21
-3850.005165429218
 31
0.0
  0
LINE
  5
71
330
1F
100
AcDbEntity
  8
F-0_補助線
  6
JWW_HOJO
 62
     7
370
     9
100
AcDbLine
 10
2939.917396372143
 20
-3795.000003092998
 30
0.0
 11
2939.917396372143
 21
-4195.000008247994
 31
0.0
  0
LINE
  5
72
330
1F
100
AcDbEntity
  8
F-0_補助線
  6
JWW_HOJO
 62
     7
370
     9
100
AcDbLine
 10
99.91854284331794
 20
-3795.000003092998
 30
0.0
 11
99.91854284331794
 21
-4195.000008247994
 31
0.0
  0
LINE
  5
73
330
1F
100
AcDbEntity
  8
F-0_補助線
  6
JWW_HOJO
 62
     7
370
     9
100
AcDbLine
 10
4439.91789125178
 20
-3795.000003092998
 30
0.0
 11
4439.91789125178
 21
-4195.000008247994
 31
0.0
  0
MTEXT
  5
74
330
1F
100
AcDbEntity
  8
F-A_文字
  6
Continuous
 62
     7
370
     0
100
AcDbMText
 10
4439.91789125178
 20
-3887.143854850754
 30
0.0
 40
45.72
 41
240.0
 46
0.0
 71
     7
 72
     1
  1
{\fＭＳ ゴシック|b0|i0|c128|p49;ＤＡＴＥ}
 73
     1
 44
1.0
  0
MTEXT
  5
75
330
1F
100
AcDbEntity
  8
F-A_文字
  6
Continuous
 62
     7
370
     0
100
AcDbMText
 10
4439.91789125178
 20
-4087.143857410839
 30
0.0
 40
45.72
 41
180.0
 46
0.0
 71
     7
 72
     1
  1
{\fＭＳ ゴシック|b0|i0|c128|p49;ＮＯ．}
 73
     1
 44
1.0
  0
MTEXT
  5
76
330
1F
100
AcDbEntity
  8
F-A_文字
  6
Continuous
 62
     7
370
     0
100
AcDbMText
 10
2939.917396372143
 20
-3887.142460617775
 30
0.0
 40
45.72
 41
300.0
 46
0.0
 71
     7
 72
     1
  1
{\fＭＳ ゴシック|b0|i0|c128|p49;ＳＣＡＬＥ}
 73
     1
 44
1.0
  0
MTEXT
  5
77
330
1F
100
AcDbEntity
  8
F-A_文字
  6
Continuous
 62
     7
370
     0
100
AcDbMText
 10
2939.917396372143
 20
-4087.142463177859
 30
0.0
 40
45.72
 41
240.0
 46
0.0
 71
     7
 72
     1
  1
{\fＭＳ ゴシック|b0|i0|c128|p49;ＦＩＬＥ}
 73
     1
 44
1.0
  0
MTEXT
  5
78
330
1F
100
AcDbEntity
  8
F-A_文字
  6
Continuous
 62
     7
370
     0
100
AcDbMText
 10
99.91854284331794
 20
-3887.139820871936
 30
0.0
 40
45.72
 41
180.0
 46
0.0
 71
     7
 72
     1
  1
{\fＭＳ ゴシック|b0|i0|c128|p49;図面名}
 73
     1
 44
1.0
  0
MTEXT
  5
79
330
1F
100
AcDbEntity
  8
F-A_文字
  6
Continuous
 62
     7
370
     0
100
AcDbMText
 10
1604.917396372136
 20
-4164.281754523929
 30
0.0
 40
101.44125
 41
1065.0
 46
0.0
 71
     7
 72
     1
  1
{\fＭＳ ゴシック|b0|i0|c128|p49;ウッドワン・・・}
 73
     1
 44
1.0
  0
MTEXT
  5
7A
330
1F
100
AcDbEntity
  8
F-A_文字
  6
Continuous
 62
     7
370
     0
100
AcDbMText
 10
1394.917396372136
 20
-4096.140669266148
 30
0.0
 40
45.72
 41
120.0
 46
0.0
 71
     7
 72
     1
  1
{\fＭＳ ゴシック|b0|i0|c128|p49;株式}
 73
     1
 44
1.0
  0
MTEXT
  5
7B
330
1F
100
AcDbEntity
  8
F-A_文字
  6
Continuous
 62
     7
370
     0
100
AcDbMText
 10
1394.917396372136
 20
-4168.140669266188
 30
0.0
 40
45.72
 41
120.0
 46
0.0
 71
     7
 72
     1
  1
{\fＭＳ ゴシック|b0|i0|c128|p49;会社}
 73
     1
 44
1.0
  0
LINE
  5
7C
330
1F
100
AcDbEntity
  8
F-1_枠
  6
Continuous
 62
   200
370
    20
100
AcDbLine
 10
5859.917429364118
 20
-3795.000003092998
 30
0.0
 11
-5840.081085996952
 21
-3795.000003092998
 31
0.0
  0
LINE
  5
7D
330
1F
100
AcDbEntity
  8
F-1_枠
  6
Continuous
 62
   200
370
    20
100
AcDbLine
 10
5859.917429364118
 20
-3790.000017526988
 30
0.0
 11
-5840.081085996952
 21
-3790.000017526988
 31
0.0
  0
LINE
  5
7E
330
1F
100
AcDbEntity
  8
F-0_補助線
  6
JWW_HOJO
 62
     7
370
     9
100
AcDbLine
 10
-5087.628710189612
 20
-3795.000003093
 30
0.0
 11
-5087.628710189612
 21
-4205.000164959882
 31
0.0
  0
LINE
  5
7F
330
1F
100
AcDbEntity
  8
F-0_補助線
  6
JWW_HOJO
 62
     7
370
     9
100
AcDbLine
 10
-50.08145715668206
 20
-3795.000003092998
 30
0.0
 11
-50.08145715668206
 21
-4195.000008247994
 31
0.0
  0
MTEXT
  5
80
330
1F
100
AcDbEntity
  8
F-0_補助線
  6
Continuous
 62
     7
370
     0
100
AcDbMText
 10
509.9185840832865
 20
-3946.496666872502
 30
0.0
 40
78.58125
 41
412.5
 46
0.0
 71
     7
 72
     1
  1
{\fＭＳ ゴシック|b0|i0|c128|p49;DOORETUS}
 73
     1
 44
1.0
  0
MTEXT
  5
81
330
1F
100
AcDbEntity
  8
F-0_補助線
  6
Continuous
 62
     7
370
     0
100
AcDbMText
 10
1110.209427605312
 20
-3946.734791872503
 30
0.0
 40
78.105
 41
615.0
 46
0.0
 71
     7
 72
     1
  1
{\fＭＳ ゴシック|b0|i0|c128|p49;建具納まり図}
 73
     1
 44
1.0
  0
MTEXT
  5
82
330
1F
100
AcDbEntity
  8
0-A_文字
  6
Continuous
 62
     7
370
     9
100
AcDbMText
 10
4278.667643811961
 20
3554.775383504013
 30
0.0
 40
63.55080000000001
 41
1042.5
 46
0.0
 71
     7
 72
     1
  1
{\fＭＳ ゴシック|b0|i0|c128|p49;上吊軸固定/フリーオープン}
 73
     1
 44
1.0
  0
LINE
  5
83
330
1F
100
AcDbEntity
  8
0-A_文字
  6
Continuous
 62
    92
370
    13
100
AcDbLine
 10
5369.917643811961
 20
3684.999983504013
 30
0.0
 11
4229.917643811961
 21
3684.999983504013
 31
0.0
  0
LINE
  5
84
330
1F
100
AcDbEntity
  8
0-A_文字
  6
Continuous
 62
    92
370
    13
100
AcDbLine
 10
5369.917643811961
 20
3540.999983504012
 30
0.0
 11
4229.917643811961
 21
3540.999983504012
 31
0.0
  0
LINE
  5
85
330
1F
100
AcDbEntity
  8
戸当り
  6
Continuous
 62
    40
370
    15
100
AcDbLine
 10
4439.917643811961
 20
3385.50401118275
 30
0.0
 11
4259.917643811961
 21
3385.50401118275
 31
0.0
  0
LINE
  5
86
330
1F
100
AcDbEntity
  8
戸当り
  6
Continuous
 62
    40
370
    15
100
AcDbLine
 10
4439.917643811961
 20
3439.504011182749
 30
0.0
 11
4259.917643811961
 21
3439.504011182749
 31
0.0
  0
LINE
  5
87
330
1F
100
AcDbEntity
  8
戸当り
  6
Continuous
 62
    40
370
    15
100
AcDbLine
 10
4439.917643811961
 20
3439.504011182749
 30
0.0
 11
4439.917643811961
 21
3385.50401118275
 31
0.0
  0
LINE
  5
88
330
1F
100
AcDbEntity
  8
戸当り
  6
Continuous
 62
    40
370
    15
100
AcDbLine
 10
5159.917643811961
 20
3385.50401118275
 30
0.0
 11
5339.917643811961
 21
3385.50401118275
 31
0.0
  0
LINE
  5
89
330
1F
100
AcDbEntity
  8
戸当り
  6
Continuous
 62
    40
370
    15
100
AcDbLine
 10
5159.917643811961
 20
3439.504011182749
 30
0.0
 11
5339.917643811961
 21
3439.504011182749
 31
0.0
  0
LINE
  5
8A
330
1F
100
AcDbEntity
  8
戸当り
  6
Continuous
 62
    40
370
    15
100
AcDbLine
 10
5159.917643811961
 20
3439.504011182749
 30
0.0
 11
5159.917643811961
 21
3385.50401118275
 31
0.0
  0
LINE
  5
8B
330
1F
100
AcDbEntity
  8
戸当り
  6
JWW_DASHED2
 62
     7
370
     9
100
AcDbLine
 10
5159.917643811961
 20
3385.50401118275
 30
0.0
 11
4439.917643811961
 21
3385.50401118275
 31
0.0
  0
LINE
  5
8C
330
1F
100
AcDbEntity
  8
戸当り
  6
Continuous
 62
    40
370
    15
100
AcDbLine
 10
5159.917643811961
 20
3385.50401118275
 30
0.0
 11
5097.801072987351
 21
3153.681812873372
 31
0.0
  0
LINE
  5
8D
330
1F
100
AcDbEntity
  8
戸当り
  6
Continuous
 62
    40
370
    15
100
AcDbLine
 10
5035.684502162749
 20
3385.50401118275
 30
0.0
 11
5097.801072987351
 21
3153.681812873372
 31
0.0
  0
LINE
  5
8E
330
1F
100
AcDbEntity
  8
戸当り
  6
Continuous
 62
    40
370
    15
100
AcDbLine
 10
4502.034214636565
 20
3153.681812873372
 30
0.0
 11
4439.917643811961
 21
3385.50401118275
 31
0.0
  0
LINE
  5
8F
330
1F
100
AcDbEntity
  8
戸当り
  6
Continuous
 62
    40
370
    15
100
AcDbLine
 10
4502.034214636565
 20
3153.681812873372
 30
0.0
 11
4564.150785461168
 21
3385.50401118275
 31
0.0
  0
CIRCLE
  5
90
330
1F
100
AcDbEntity
  8
0-0_補助線
  6
JWW_HOJO
 62
   120
370
     5
100
AcDbCircle
 10
4444.047372024825
 20
3385.50401118275
 30
0.0
 40
240.0
  0
CIRCLE
  5
91
330
1F
100
AcDbEntity
  8
0-0_補助線
  6
JWW_HOJO
 62
   120
370
     5
100
AcDbCircle
 10
4799.917643811961
 20
3385.50401118275
 30
0.0
 40
240.0
  0
CIRCLE
  5
92
330
1F
100
AcDbEntity
  8
0-0_補助線
  6
JWW_HOJO
 62
   120
370
     5
100
AcDbCircle
 10
5159.917643811961
 20
3385.50401118275
 30
0.0
 40
240.0
  0
LINE
  5
93
330
1F
100
AcDbEntity
  8
0-0_補助線
  6
JWW_HOJO
 62
   120
370
     5
100
AcDbLine
 10
4799.917643811961
 20
3684.999983504013
 30
0.0
 11
4799.917643811961
 21
2718.999983504014
 31
0.0
  0
LINE
  5
94
330
1F
100
AcDbEntity
  8
0-0_補助線
  6
JWW_HOJO
 62
   120
370
     5
100
AcDbLine
 10
4259.917643811961
 20
3684.999983504013
 30
0.0
 11
4259.917643811961
 21
2718.999983504014
 31
0.0
  0
LINE
  5
95
330
1F
100
AcDbEntity
  8
0-0_補助線
  6
JWW_HOJO
 62
   120
370
     5
100
AcDbLine
 10
5339.917643811961
 20
3684.999983504013
 30
0.0
 11
5339.917643811961
 21
2718.999983504014
 31
0.0
  0
LINE
  5
96
330
1F
100
AcDbEntity
  8
0-A_文字
  6
Continuous
 62
    92
370
    13
100
AcDbLine
 10
4229.917643811961
 20
3684.999983504013
 30
0.0
 11
4229.917643811961
 21
2718.999983504014
 31
0.0
  0
LINE
  5
97
330
1F
100
AcDbEntity
  8
0-A_文字
  6
Continuous
 62
    92
370
    13
100
AcDbLine
 10
5369.917643811961
 20
2718.999983504014
 30
0.0
 11
4229.917643811961
 21
2718.999983504014
 31
0.0
  0
LINE
  5
98
330
1F
100
AcDbEntity
  8
0-A_文字
  6
Continuous
 62
    92
370
    13
100
AcDbLine
 10
5369.917643811961
 20
3684.999983504013
 30
0.0
 11
5369.917643811961
 21
2718.999983504014
 31
0.0
  0
ELLIPSE
  5
99
330
1F
100
AcDbEntity
  8
戸当り
  6
Continuous
 62
    92
370
    13
100
AcDbEllipse
 10
4724.517918944783
 20
2927.884230441198
 30
0.0
 11
-17.7763823922528
 21
100.8148742797557
 31
0.0
210
0.0
220
0.0
230
1.0
 40
0.4000000000000001
 41
1.850633272656679
 42
2.442876790075129
  0
ELLIPSE
  5
9A
330
1F
100
AcDbEntity
  8
戸当り
  6
Continuous
 62
    92
370
    13
100
AcDbEllipse
 10
4724.517918944783
 20
2927.884230441198
 30
0.0
 11
-17.7763823922528
 21
100.8148742797557
 31
0.0
210
0.0
220
0.0
230
1.0
 40
0.4000000000000001
 41
3.840308517104466
 42
4.432552034522944
  0
ELLIPSE
  5
9B
330
1F
100
AcDbEntity
  8
戸当り
  6
Continuous
 62
    92
370
    13
100
AcDbEllipse
 10
4724.098172894875
 20
2930.264728582854
 30
0.0
 11
-14.67024424252691
 21
83.19908946199426
 31
0.0
210
0.0
220
0.0
230
1.0
 40
0.5
 41
4.340591432030095
 42
8.225779182329084
  0
LINE
  5
9C
330
1F
100
AcDbEntity
  8
戸当り
  6
Continuous
 62
    92
370
    13
100
AcDbLine
 10
4764.067802717541
 20
2855.267181117928
 30
0.0
 11
4712.189678627999
 21
2846.119668132401
 31
0.0
  0
LINE
  5
9D
330
1F
100
AcDbEntity
  8
戸当り
  6
Continuous
 62
    92
370
    13
100
AcDbLine
 10
4766.255769756144
 20
2842.858603429975
 30
0.0
 11
4714.377645666602
 21
2833.711090444447
 31
0.0
  0
ELLIPSE
  5
9E
330
1F
100
AcDbEntity
  8
戸当り
  6
Continuous
 62
    92
370
    13
100
AcDbEllipse
 10
4740.31670771137
 20
2838.284846937211
 30
0.0
 11
-7.622927487939132
 21
43.23177007461331
 31
0.0
210
0.0
220
0.0
230
1.0
 40
0.6000000000000001
 41
1.570796326794897
 42
4.71238898038469
  0
ELLIPSE
  5
9F
330
1F
100
AcDbEntity
  8
戸当り
  6
Continuous
 62
    92
370
    13
100
AcDbEllipse
 10
4878.978687882654
 20
2963.935065931005
 30
0.0
 11
26.49533313827761
 21
98.88192943551533
 31
0.0
210
0.0
220
0.0
230
0.9999999999999999
 40
0.4
 41
1.850633272656679
 42
2.442876790075129
  0
ELLIPSE
  5
A0
330
1F
100
AcDbEntity
  8
戸当り
  6
Continuous
 62
    92
370
    13
100
AcDbEllipse
 10
4878.978687882654
 20
2963.935065931005
 30
0.0
 11
26.49533313827761
 21
98.88192943551533
 31
0.0
210
0.0
220
0.0
230
0.9999999999999999
 40
0.4
 41
3.840308517104466
 42
4.432552034522944
  0
ELLIPSE
  5
A1
330
1F
100
AcDbEntity
  8
戸当り
  6
Continuous
 62
    92
370
    13
100
AcDbEllipse
 10
4879.604310755758
 20
2966.269922279796
 30
0.0
 11
21.86569797210526
 21
81.6038957748525
 31
0.0
210
0.0
220
0.0
230
1.0
 40
0.5
 41
4.340591432030095
 42
8.225779182329084
  0
LINE
  5
A2
330
1F
100
AcDbEntity
  8
戸当り
  6
Continuous
 62
    92
370
    13
100
AcDbLine
 10
4884.133764364567
 20
2881.407165525611
 30
0.0
 11
4833.25031048817
 21
2895.041345899897
 31
0.0
  0
LINE
  5
A3
330
1F
100
AcDbEntity
  8
戸当り
  6
Continuous
 62
    92
370
    13
100
AcDbLine
 10
4880.872644396272
 20
2869.236500114369
 30
0.0
 11
4829.989190519875
 21
2882.870680488654
 31
0.0
  0
ELLIPSE
  5
A4
330
1F
100
AcDbEntity
  8
戸当り
  6
Continuous
 62
    92
370
    13
100
AcDbEllipse
 10
4855.430917458078
 20
2876.053590301512
 30
0.0
 11
11.36181697857171
 21
42.40287823032828
 31
0.0
210
0.0
220
0.0
230
0.9999999999999999
 40
0.6
 41
1.570796326794897
 42
4.71238898038469
  0
LINE
  5
A5
330
1F
100
AcDbEntity
  8
0-A_文字
  6
Continuous
 62
    92
370
    13
100
AcDbLine
 10
-5659.999495325865
 20
3730.00018145587
 30
0.0
 11
-5659.999495325865
 21
4000.00018145587
 31
0.0
  0
MTEXT
  5
A6
330
1F
100
AcDbEntity
  8
F-A_文字
  6
Continuous
 62
     7
370
     0
100
AcDbMText
 10
3689.917643811962
 20
-3946.903115907308
 30
0.0
 40
76.19999999999999
 41
150.0
 46
0.0
 71
     7
 72
     1
  1
{\fＭＳ ゴシック|b0|i0|c128|p49;1/5}
 73
     1
 44
1.0
  0
MTEXT
  5
A7
330
1F
100
AcDbEntity
  8
0-A_文字
  6
Continuous
 62
    92
370
    13
100
AcDbMText
 10
-5592.499495325865
 20
3758.994391982186
 30
0.0
 40
147.9884210526316
 41
3690.0
 46
0.0
 71
     7
 72
     1
  1
{\fＭＳ ゴシック|b0|i0|c128|p49;クローゼットドア　調整枠　間口４．５尺}
 73
     1
 44
1.0
  0
LINE
  5
A8
330
1F
100
AcDbEntity
  8
0-A_文字
  6
Continuous
 62
    92
370
    13
100
AcDbLine
 10
-1835.714285714286
 20
3730.00018145587
 30
0.0
 11
-1835.714285714286
 21
4000.00018145587
 31
0.0
  0
LINE
  5
A9
330
1F
100
AcDbEntity
  8
0-A_文字
  6
Continuous
 62
    92
370
    13
100
AcDbLine
 10
-5659.999495325865
 20
4000.00018145587
 30
0.0
 11
-1835.714285714286
 21
4000.00018145587
 31
0.0
  0
LINE
  5
AA
330
1F
100
AcDbEntity
  8
0-A_文字
  6
Continuous
 62
    92
370
    13
100
AcDbLine
 10
-5659.999495325865
 20
3730.00018145587
 30
0.0
 11
-1835.714285714286
 21
3730.00018145587
 31
0.0
  0
MTEXT
  5
AB
330
1F
100
AcDbEntity
  8
F-A_文字
  6
Continuous
 62
     7
370
     0
100
AcDbMText
 10
-5080.081323642278
 20
-4045.064631200341
 30
0.0
 40
79.87060975609751
 41
4297.5
 46
0.0
 71
     7
 72
     1
  1
{\fＭＳ ゴシック|b0|i0|c128|p49;ドレタス　クローゼットドア  調整枠　３方枠＋埋め込みレール　枠外H2,047　枠外W1,189}
 73
     1
 44
1.0
  0
MTEXT
  5
AC
330
1F
100
AcDbEntity
  8
F-A_文字
  6
Continuous
 62
     7
370
     9
100
AcDbMText
 10
5096.16770014406
 20
-4147.857012699984
 30
0.0
 40
74.295
 41
97.5
 46
0.0
 71
     7
 72
     1
  1
{\fＭＳ ゴシック|b0|i0|c128|p49;02}
 73
     1
 44
1.0
  0
LINE
  5
AD
330
1F
100
AcDbEntity
  8
0-B_寸法
  6
Continuous
 62
   120
370
     5
100
AcDbLine
 10
-2975.690214024118
 20
1806.944295403512
 30
0.0
 11
-3065.690214024118
 21
1716.944295403512
 31
0.0
  0
LINE
  5
AE
330
1F
100
AcDbEntity
  8
0-B_寸法
  6
Continuous
 62
   120
370
     5
100
AcDbLine
 10
-3023.69021402412
 20
1806.944295403512
 30
0.0
 11
-2843.69021402412
 21
1806.944295403512
 31
0.0
  0
LWPOLYLINE
  5
AF
330
1F
100
AcDbEntity
  8
0-B_寸法
  6
Continuous
 62
     7
370
     9
100
AcDbPolyline
 90
        4
 70
     1
 43
3.0
 10
-3022.19021402412
 20
1806.944295403512
 42
0.4142135623731
 10
-3023.69021402412
 20
1808.444295403512
 42
0.4142135623731
 10
-3025.19021402412
 20
1806.944295403512
 42
0.4142135623731
 10
-3023.69021402412
 20
1805.444295403512
 42
0.4142135623731
  0
LWPOLYLINE
  5
B0
330
1F
100
AcDbEntity
  8
0-B_寸法
  6
Continuous
 62
     7
370
     9
100
AcDbPolyline
 90
        4
 70
     1
 43
3.0
 10
-2992.19021402412
 20
1806.944295403512
 42
0.4142135623731
 10
-2993.69021402412
 20
1808.444295403512
 42
0.4142135623731
 10
-2995.19021402412
 20
1806.944295403512
 42
0.4142135623731
 10
-2993.69021402412
 20
1805.444295403512
 42
0.4142135623731
  0
LWPOLYLINE
  5
B1
330
1F
100
AcDbEntity
  8
0-B_寸法
  6
Continuous
 62
     7
370
     9
100
AcDbPolyline
 90
        4
 70
     1
 43
3.0
 10
-2956.190214024121
 20
1806.944295403512
 42
0.4142135623731
 10
-2957.690214024121
 20
1808.444295403512
 42
0.4142135623731
 10
-2959.190214024121
 20
1806.944295403512
 42
0.4142135623731
 10
-2957.690214024121
 20
1805.444295403512
 42
0.4142135623731
  0
LWPOLYLINE
  5
B2
330
1F
100
AcDbEntity
  8
0-B_寸法
  6
Continuous
 62
     7
370
     9
100
AcDbPolyline
 90
        4
 70
     1
 43
3.0
 10
-2902.19021402412
 20
1806.944295403512
 42
0.4142135623731
 10
-2903.69021402412
 20
1808.444295403512
 42
0.4142135623731
 10
-2905.19021402412
 20
1806.944295403512
 42
0.4142135623731
 10
-2903.69021402412
 20
1805.444295403512
 42
0.4142135623731
  0
MTEXT
  5
B3
330
1F
100
AcDbEntity
  8
0-0_補助線
  6
Continuous
 62
     7
370
   211
100
AcDbMText
 10
-3037.095435715468
 20
2325.079196304035
 30
0.0
 40
91.44000000000129
 41
180.0000000000026
 46
0.0
 71
     7
 72
     1
  1
{\fＭＳ ゴシック|b0|i0|c128|p49;3.5}
 73
     1
 44
1.0
  0
LINE
  5
B4
330
1F
100
AcDbEntity
  8
0-B_寸法
  6
Continuous
 62
   120
370
     5
100
AcDbLine
 10
-3120.936753879293
 20
1716.944295403512
 30
0.0
 11
-3065.690214024118
 21
1716.944295403512
 31
0.0
  0
LINE
  5
B5
330
1F
100
AcDbEntity
  8
0-B_寸法
  6
Continuous
 62
   120
370
     5
100
AcDbLine
 10
-3008.69021402412
 20
1806.944295403512
 30
0.0
 11
-3068.69021402412
 21
1866.944295403512
 31
0.0
  0
MTEXT
  5
B6
330
1F
100
AcDbEntity
  8
0-0_補助線
  6
Continuous
 62
     7
370
   211
100
AcDbMText
 10
-2833.303759111769
 20
2325.079196304034
 30
0.0
 40
91.43999999999912
 41
179.9999999999983
 46
0.0
 71
     7
 72
     1
  1
{\fＭＳ ゴシック|b0|i0|c128|p49;2.5}
 73
     1
 44
1.0
  0
LINE
  5
B7
330
1F
100
AcDbEntity
  8
0-B_寸法
  6
Continuous
 62
   120
370
     5
100
AcDbLine
 10
-3129.139035852783
 20
1866.944295403512
 30
0.0
 11
-3068.69021402412
 21
1866.944295403512
 31
0.0
  0
LINE
  5
B8
330
1F
100
AcDbEntity
  8
0-B_寸法
  6
Continuous
 62
   120
370
     5
100
AcDbLine
 10
-2993.69021402412
 20
1806.944295403512
 30
0.0
 11
-2993.69021402412
 21
1986.944295403512
 31
0.0
  0
LINE
  5
B9
330
1F
100
AcDbEntity
  8
0-B_寸法
  6
Continuous
 62
   120
370
     5
100
AcDbLine
 10
-2957.690214024121
 20
1806.944295403512
 30
0.0
 11
-2957.690214024121
 21
1986.944295403512
 31
0.0
  0
LINE
  5
BA
330
1F
100
AcDbEntity
  8
0-B_寸法
  6
Continuous
 62
   120
370
     5
100
AcDbLine
 10
-2903.69021402412
 20
1806.944295403512
 30
0.0
 11
-2903.69021402412
 21
1986.944295403512
 31
0.0
  0
LINE
  5
BB
330
1F
100
AcDbEntity
  8
0-B_寸法
  6
Continuous
 62
   120
370
     5
100
AcDbLine
 10
-3023.69021402412
 20
1806.944295403512
 30
0.0
 11
-3023.69021402412
 21
1986.944295403512
 31
0.0
  0
LWPOLYLINE
  5
BC
330
1F
100
AcDbEntity
  8
0-B_寸法
  6
Continuous
 62
     7
370
     9
100
AcDbPolyline
 90
        4
 70
     1
 43
3.0
 10
-2842.19021402412
 20
1806.944295403512
 42
0.4142135623731
 10
-2843.69021402412
 20
1808.444295403512
 42
0.4142135623731
 10
-2845.19021402412
 20
1806.944295403512
 42
0.4142135623731
 10
-2843.69021402412
 20
1805.444295403512
 42
0.4142135623731
  0
LINE
  5
BD
330
1F
100
AcDbEntity
  8
0-B_寸法
  6
Continuous
 62
   120
370
     5
100
AcDbLine
 10
-2843.69021402412
 20
1806.944295403512
 30
0.0
 11
-2843.69021402412
 21
1986.944295403512
 31
0.0
  0
LINE
  5
BE
330
1F
100
AcDbEntity
  8
0-0_補助線
  6
JWW_HOJO
 62
   120
370
     5
100
AcDbLine
 10
1920.309588024027
 20
2781.945146596496
 30
0.0
 11
-3623.690016072262
 21
2781.945146596496
 31
0.0
  0
LINE
  5
BF
330
1F
100
AcDbEntity
  8
0-0_補助線
  6
JWW_HOJO
 62
   120
370
     5
100
AcDbLine
 10
1920.309588024027
 20
3141.945146596496
 30
0.0
 11
-3623.690016072262
 21
3141.945146596496
 31
0.0
  0
LINE
  5
C0
330
1F
100
AcDbEntity
  8
0-1_通り芯
  6
JWW_CENTER1
 62
   120
370
     5
100
AcDbLine
 10
1920.309588024027
 20
2361.945146596495
 30
0.0
 11
-3623.690016072262
 21
2361.945146596495
 31
0.0
  0
LINE
  5
C1
330
1F
100
AcDbEntity
  8
0-0_補助線
  6
Continuous
 62
   120
370
     5
100
AcDbLine
 10
-2843.69021402412
 20
2324.359196304034
 30
0.0
 11
-2858.69021402412
 21
2324.359196304034
 31
0.0
  0
LWPOLYLINE
  5
C2
330
1F
100
AcDbEntity
  8
0-0_補助線
  6
Continuous
 62
     7
370
     9
100
AcDbPolyline
 90
        4
 70
     1
 43
3.0
 10
-2842.19021402412
 20
2324.359196304034
 42
0.4142135623731
 10
-2843.69021402412
 20
2325.859196304034
 42
0.4142135623731
 10
-2845.19021402412
 20
2324.359196304034
 42
0.4142135623731
 10
-2843.69021402412
 20
2322.859196304034
 42
0.4142135623731
  0
LWPOLYLINE
  5
C3
330
1F
100
AcDbEntity
  8
0-0_補助線
  6
Continuous
 62
     7
370
     9
100
AcDbPolyline
 90
        4
 70
     1
 43
3.0
 10
-2857.19021402412
 20
2324.359196304034
 42
0.4142135623731
 10
-2858.69021402412
 20
2325.859196304034
 42
0.4142135623731
 10
-2860.19021402412
 20
2324.359196304034
 42
0.4142135623731
 10
-2858.69021402412
 20
2322.859196304034
 42
0.4142135623731
  0
LINE
  5
C4
330
1F
100
AcDbEntity
  8
0-0_補助線
  6
Continuous
 62
   120
370
     5
100
AcDbLine
 10
-2858.69021402412
 20
2324.359196304034
 30
0.0
 11
-2879.69021402412
 21
2324.359196304034
 31
0.0
  0
LWPOLYLINE
  5
C5
330
1F
100
AcDbEntity
  8
0-0_補助線
  6
Continuous
 62
     7
370
     9
100
AcDbPolyline
 90
        4
 70
     1
 43
3.0
 10
-2878.19021402412
 20
2324.359196304034
 42
0.4142135623731
 10
-2879.69021402412
 20
2325.859196304034
 42
0.4142135623731
 10
-2881.19021402412
 20
2324.359196304034
 42
0.4142135623731
 10
-2879.69021402412
 20
2322.859196304034
 42
0.4142135623731
  0
LINE
  5
C6
330
1F
100
AcDbEntity
  8
0-0_補助線
  6
Continuous
 62
   120
370
     5
100
AcDbLine
 10
-2879.69021402412
 20
2324.359196304034
 30
0.0
 11
-2879.69021402412
 21
2405.688459527219
 31
0.0
  0
LINE
  5
C7
330
1F
100
AcDbEntity
  8
0-7_金物
  6
Continuous
 62
     7
370
     9
100
AcDbLine
 10
1338.309449457721
 20
2271.945220828442
 30
0.0
 11
1338.309449457721
 21
2451.945072364548
 31
0.0
  0
LINE
  5
C8
330
1F
100
AcDbEntity
  8
0-7_金物
  6
Continuous
 62
     7
370
     9
100
AcDbLine
 10
1350.309785975881
 20
2451.945072364548
 30
0.0
 11
1338.309449457721
 21
2451.945072364548
 31
0.0
  0
LINE
  5
C9
330
1F
100
AcDbEntity
  8
0-7_金物
  6
Continuous
 62
     7
370
     9
100
AcDbLine
 10
1350.309785975881
 20
2271.945220828442
 30
0.0
 11
1338.309449457721
 21
2271.945220828442
 31
0.0
  0
LINE
  5
CA
330
1F
100
AcDbEntity
  8
0-7_金物
  6
Continuous
 62
     7
370
     9
100
AcDbLine
 10
1338.309449457721
 20
2301.945319804372
 30
0.0
 11
1326.309855259031
 21
2301.945319804372
 31
0.0
  0
LINE
  5
CB
330
1F
100
AcDbEntity
  8
0-7_金物
  6
Continuous
 62
     7
370
     9
100
AcDbLine
 10
1338.309449457721
 20
2421.944973388618
 30
0.0
 11
1326.309855259031
 21
2421.944973388618
 31
0.0
  0
LINE
  5
CC
330
1F
100
AcDbEntity
  8
0-7_金物
  6
Continuous
 62
     7
370
     9
100
AcDbLine
 10
1326.309855259031
 20
2301.945319804372
 30
0.0
 11
1326.309855259031
 21
2421.944973388618
 31
0.0
  0
LINE
  5
CD
330
1F
100
AcDbEntity
  8
0-7_金物
  6
Continuous
 62
     7
370
     9
100
AcDbLine
 10
1326.309855259031
 20
2415.945547449009
 30
0.0
 11
1320.309785975881
 21
2415.945547449009
 31
0.0
  0
LINE
  5
CE
330
1F
100
AcDbEntity
  8
0-7_金物
  6
Continuous
 62
     7
370
     9
100
AcDbLine
 10
1326.309855259031
 20
2307.94548806345
 30
0.0
 11
1320.309785975881
 21
2307.94548806345
 31
0.0
  0
LINE
  5
CF
330
1F
100
AcDbEntity
  8
0-7_金物
  6
Continuous
 62
     7
370
     9
100
AcDbLine
 10
1350.309785975881
 20
2271.945220828442
 30
0.0
 11
1350.309785975881
 21
2451.945072364548
 31
0.0
  0
LINE
  5
D0
330
1F
100
AcDbEntity
  8
0-7_金物
  6
Continuous
 62
     7
370
     9
100
AcDbLine
 10
-3041.689877505962
 20
2271.945220828442
 30
0.0
 11
-3041.689877505962
 21
2451.945072364548
 31
0.0
  0
LINE
  5
D1
330
1F
100
AcDbEntity
  8
0-7_金物
  6
Continuous
 62
     7
370
     9
100
AcDbLine
 10
-3053.69021402412
 20
2451.945072364548
 30
0.0
 11
-3041.689877505962
 21
2451.945072364548
 31
0.0
  0
LINE
  5
D2
330
1F
100
AcDbEntity
  8
0-7_金物
  6
Continuous
 62
     7
370
     9
100
AcDbLine
 10
-3053.69021402412
 20
2271.945220828442
 30
0.0
 11
-3041.689877505962
 21
2271.945220828442
 31
0.0
  0
LINE
  5
D3
330
1F
100
AcDbEntity
  8
0-7_金物
  6
Continuous
 62
     7
370
     9
100
AcDbLine
 10
-3041.689877505962
 20
2301.945319804372
 30
0.0
 11
-3029.69028330727
 21
2301.945319804372
 31
0.0
  0
LINE
  5
D4
330
1F
100
AcDbEntity
  8
0-7_金物
  6
Continuous
 62
     7
370
     9
100
AcDbLine
 10
-3041.689877505962
 20
2421.944973388618
 30
0.0
 11
-3029.69028330727
 21
2421.944973388618
 31
0.0
  0
LINE
  5
D5
330
1F
100
AcDbEntity
  8
0-7_金物
  6
Continuous
 62
     7
370
     9
100
AcDbLine
 10
-3029.69028330727
 20
2301.945319804372
 30
0.0
 11
-3029.69028330727
 21
2421.944973388618
 31
0.0
  0
LINE
  5
D6
330
1F
100
AcDbEntity
  8
0-7_金物
  6
Continuous
 62
     7
370
     9
100
AcDbLine
 10
-3029.69028330727
 20
2415.945547449009
 30
0.0
 11
-3023.69021402412
 21
2415.945547449009
 31
0.0
  0
LINE
  5
D7
330
1F
100
AcDbEntity
  8
0-7_金物
  6
Continuous
 62
     7
370
     9
100
AcDbLine
 10
-3029.69028330727
 20
2307.94548806345
 30
0.0
 11
-3023.69021402412
 21
2307.94548806345
 31
0.0
  0
LINE
  5
D8
330
1F
100
AcDbEntity
  8
0-7_金物
  6
Continuous
 62
     7
370
     9
100
AcDbLine
 10
-3053.69021402412
 20
2271.945220828442
 30
0.0
 11
-3053.69021402412
 21
2451.945072364548
 31
0.0
  0
LINE
  5
D9
330
1F
100
AcDbEntity
  8
0-B_寸法
  6
Continuous
 62
   120
370
     5
100
AcDbLine
 10
-3053.69021402412
 20
3141.945146596496
 30
0.0
 11
1350.309785975881
 21
3141.945146596496
 31
0.0
  0
LWPOLYLINE
  5
DA
330
1F
100
AcDbEntity
  8
0-B_寸法
  6
Continuous
 62
     7
370
     9
100
AcDbPolyline
 90
        4
 70
     1
 43
3.0
 10
-3052.19021402412
 20
3141.945146596496
 42
0.4142135623731
 10
-3053.69021402412
 20
3143.445146596496
 42
0.4142135623731
 10
-3055.19021402412
 20
3141.945146596496
 42
0.4142135623731
 10
-3053.69021402412
 20
3140.445146596496
 42
0.4142135623731
  0
LWPOLYLINE
  5
DB
330
1F
100
AcDbEntity
  8
0-B_寸法
  6
Continuous
 62
     7
370
     9
100
AcDbPolyline
 90
        4
 70
     1
 43
3.0
 10
1351.809785975881
 20
3141.945146596496
 42
0.4142135623731
 10
1350.309785975881
 20
3143.445146596496
 42
0.4142135623731
 10
1348.809785975881
 20
3141.945146596496
 42
0.4142135623731
 10
1350.309785975881
 20
3140.445146596496
 42
0.4142135623731
  0
LINE
  5
DC
330
1F
100
AcDbEntity
  8
0-B_寸法
  6
Continuous
 62
   120
370
     5
100
AcDbLine
 10
-3053.69021402412
 20
3141.945146596496
 30
0.0
 11
-3053.69021402412
 21
2781.945146596496
 31
0.0
  0
LINE
  5
DD
330
1F
100
AcDbEntity
  8
0-B_寸法
  6
Continuous
 62
   120
370
     5
100
AcDbLine
 10
1350.309785975881
 20
3141.945146596496
 30
0.0
 11
1350.309785975881
 21
2781.945146596496
 31
0.0
  0
ARC
  5
DE
330
1F
100
AcDbEntity
  8
0-6_扉
  6
JWW_DASHED2
 62
    40
370
    15
100
AcDbCircle
 10
859.2264258655291
 20
2557.712520566675
 30
0.0
 40
18.0
100
AcDbArc
 50
85.6539792783598
 51
175.65397927836
  0
LINE
  5
DF
330
1F
100
AcDbEntity
  8
0-6_扉
  6
JWW_DASHED2
 62
    40
370
    15
100
AcDbLine
 10
950.3316725677632
 20
2568.840594224115
 30
0.0
 11
860.5904596507236
 21
2575.660763150084
 31
0.0
  0
ARC
  5
E0
330
1F
100
AcDbEntity
  8
0-6_扉
  6
JWW_DASHED2
 62
    40
370
    15
100
AcDbCircle
 10
948.9676387825683
 20
2550.892351640706
 30
0.0
 40
18.0
100
AcDbArc
 50
355.6539792783599
 51
85.6539792783597
  0
ARC
  5
E1
330
1F
100
AcDbEntity
  8
0-6_扉
  6
JWW_DASHED2
 62
    40
370
    15
100
AcDbCircle
 10
515.999241476328
 20
2557.712520566678
 30
0.0
 40
18.0
100
AcDbArc
 50
4.346020721638975
 51
94.34602072163908
  0
LINE
  5
E2
330
1F
100
AcDbEntity
  8
0-6_扉
  6
JWW_DASHED2
 62
    40
370
    15
100
AcDbLine
 10
424.8939947740956
 20
2568.84059422412
 30
0.0
 11
514.6352076911336
 21
2575.660763150086
 31
0.0
  0
ARC
  5
E3
330
1F
100
AcDbEntity
  8
0-6_扉
  6
JWW_DASHED2
 62
    40
370
    15
100
AcDbCircle
 10
426.2580285592879
 20
2550.892351640711
 30
0.0
 40
18.0
100
AcDbArc
 50
94.34602072163908
 51
184.3460207216391
  0
LINE
  5
E4
330
1F
100
AcDbEntity
  8
0-6_扉
  6
JWW_DASHED2
 62
    40
370
    15
100
AcDbLine
 10
966.915881365976
 20
2549.528317855515
 30
0.0
 11
933.280365490257
 21
2106.945146596495
 31
0.0
  0
LINE
  5
E5
330
1F
100
AcDbEntity
  8
0-6_扉
  6
JWW_DASHED2
 62
    40
370
    15
100
AcDbLine
 10
408.3097859758828
 20
2549.52831785552
 30
0.0
 11
441.9453018515936
 21
2106.945146596495
 31
0.0
  0
LINE
  5
E6
330
1F
100
AcDbEntity
  8
0-6_扉
  6
JWW_DASHED2
 62
    40
370
    15
100
AcDbLine
 10
533.9474840597348
 20
2559.076554351872
 30
0.0
 11
568.3086485391757
 21
2106.945146596495
 31
0.0
  0
LINE
  5
E7
330
1F
100
AcDbEntity
  8
0-6_扉
  6
JWW_DASHED2
 62
    40
370
    15
100
AcDbLine
 10
841.2781832821227
 20
2559.07655435187
 30
0.0
 11
806.9170188026737
 21
2106.945146596495
 31
0.0
  0
LINE
  5
E8
330
1F
100
AcDbEntity
  8
0-1_通り芯
  6
JWW_CENTER1
 62
   120
370
     5
100
AcDbLine
 10
408.3097859758811
 20
2781.945146596496
 30
0.0
 11
408.3097859758811
 21
2549.52831785552
 31
0.0
  0
LWPOLYLINE
  5
E9
330
1F
100
AcDbEntity
  8
0-B_寸法
  6
Continuous
 62
     7
370
     9
100
AcDbPolyline
 90
        4
 70
     1
 43
3.0
 10
409.8097859758811
 20
2961.945146596496
 42
0.4142135623731
 10
408.3097859758811
 20
2963.445146596496
 42
0.4142135623731
 10
406.8097859758811
 20
2961.945146596496
 42
0.4142135623731
 10
408.3097859758811
 20
2960.445146596496
 42
0.4142135623731
  0
LINE
  5
EA
330
1F
100
AcDbEntity
  8
0-B_寸法
  6
Continuous
 62
   120
370
     5
100
AcDbLine
 10
408.3097859758811
 20
2961.945146596496
 30
0.0
 11
408.3097859758811
 21
2781.945146596496
 31
0.0
  0
ARC
  5
EB
330
1F
100
AcDbEntity
  8
0-6_扉
  6
JWW_DASHED2
 62
    40
370
    15
100
AcDbCircle
 10
-2562.606853913767
 20
2557.712520566675
 30
0.0
 40
18.0
100
AcDbArc
 50
4.346020721640005
 51
94.34602072164022
  0
LINE
  5
EC
330
1F
100
AcDbEntity
  8
0-6_扉
  6
JWW_DASHED2
 62
    40
370
    15
100
AcDbLine
 10
-2653.712100616001
 20
2568.840594224115
 30
0.0
 11
-2563.970887698963
 21
2575.660763150084
 31
0.0
  0
ARC
  5
ED
330
1F
100
AcDbEntity
  8
0-6_扉
  6
JWW_DASHED2
 62
    40
370
    15
100
AcDbCircle
 10
-2652.348066830807
 20
2550.892351640706
 30
0.0
 40
18.0
100
AcDbArc
 50
94.3460207216403
 51
184.3460207216401
  0
ARC
  5
EE
330
1F
100
AcDbEntity
  8
0-6_扉
  6
JWW_DASHED2
 62
    40
370
    15
100
AcDbCircle
 10
-2219.379669524566
 20
2557.712520566678
 30
0.0
 40
18.0
100
AcDbArc
 50
85.65397927836092
 51
175.653979278361
  0
LINE
  5
EF
330
1F
100
AcDbEntity
  8
0-6_扉
  6
JWW_DASHED2
 62
    40
370
    15
100
AcDbLine
 10
-2128.274422822334
 20
2568.84059422412
 30
0.0
 11
-2218.015635739373
 21
2575.660763150086
 31
0.0
  0
ARC
  5
F0
330
1F
100
AcDbEntity
  8
0-6_扉
  6
JWW_DASHED2
 62
    40
370
    15
100
AcDbCircle
 10
-2129.638456607526
 20
2550.892351640711
 30
0.0
 40
18.0
100
AcDbArc
 50
355.653979278361
 51
85.65397927836094
  0
LINE
  5
F1
330
1F
100
AcDbEntity
  8
0-6_扉
  6
JWW_DASHED2
 62
    40
370
    15
100
AcDbLine
 10
-2670.296309414214
 20
2549.528317855515
 30
0.0
 11
-2636.660793538494
 21
2106.945146596495
 31
0.0
  0
LINE
  5
F2
330
1F
100
AcDbEntity
  8
0-6_扉
  6
JWW_DASHED2
 62
    40
370
    15
100
AcDbLine
 10
-2111.690214024121
 20
2549.52831785552
 30
0.0
 11
-2145.325729899832
 21
2106.945146596495
 31
0.0
  0
LINE
  5
F3
330
1F
100
AcDbEntity
  8
0-6_扉
  6
JWW_DASHED2
 62
    40
370
    15
100
AcDbLine
 10
-2237.327912107973
 20
2559.076554351872
 30
0.0
 11
-2271.689076587413
 21
2106.945146596495
 31
0.0
  0
LINE
  5
F4
330
1F
100
AcDbEntity
  8
0-6_扉
  6
JWW_DASHED2
 62
    40
370
    15
100
AcDbLine
 10
-2544.65861133036
 20
2559.07655435187
 30
0.0
 11
-2510.297446850911
 21
2106.945146596495
 31
0.0
  0
LINE
  5
F5
330
1F
100
AcDbEntity
  8
0-1_通り芯
  6
JWW_CENTER1
 62
   120
370
     5
100
AcDbLine
 10
-2111.69021402412
 20
2781.945146596496
 30
0.0
 11
-2111.69021402412
 21
2549.52831785552
 31
0.0
  0
LWPOLYLINE
  5
F6
330
1F
100
AcDbEntity
  8
0-B_寸法
  6
Continuous
 62
     7
370
     9
100
AcDbPolyline
 90
        4
 70
     1
 43
3.0
 10
-2110.19021402412
 20
2961.945146596496
 42
0.4142135623731
 10
-2111.69021402412
 20
2963.445146596496
 42
0.4142135623731
 10
-2113.19021402412
 20
2961.945146596496
 42
0.4142135623731
 10
-2111.69021402412
 20
2960.445146596496
 42
0.4142135623731
  0
LINE
  5
F7
330
1F
100
AcDbEntity
  8
0-B_寸法
  6
Continuous
 62
   120
370
     5
100
AcDbLine
 10
-2111.69021402412
 20
2961.945146596496
 30
0.0
 11
-2111.69021402412
 21
2781.945146596496
 31
0.0
  0
LINE
  5
F8
330
1F
100
AcDbEntity
  8
0-B_寸法
  6
Continuous
 62
   120
370
     5
100
AcDbLine
 10
-2111.69021402412
 20
2961.945146596496
 30
0.0
 11
408.3097859758811
 21
2961.945146596496
 31
0.0
  0
MTEXT
  5
F9
330
1F
100
AcDbEntity
  8
0-B_寸法
  6
Continuous
 62
     7
370
   211
100
AcDbMText
 10
-1241.69021402412
 20
3142.665146596496
 30
0.0
 40
91.4400000000003
 41
780.0000000000025
 46
0.0
 71
     7
 72
     1
  1
{\fＭＳ ゴシック|b0|i0|c128|p49;ＲＯＷ＝1,199}
 73
     1
 44
1.0
  0
MTEXT
  5
FA
330
1F
100
AcDbEntity
  8
0-B_寸法
  6
Continuous
 62
     7
370
   211
100
AcDbMText
 10
-1345.791799731594
 20
2962.665146596496
 30
0.0
 40
91.44000000000015
 41
1020.000000000002
 46
0.0
 71
     7
 72
     1
  1
{\fＭＳ ゴシック|b0|i0|c128|p49;有効開口寸法＝885}
 73
     1
 44
1.0
  0
MTEXT
  5
FB
330
1F
100
AcDbEntity
  8
0-B_寸法
  6
Continuous
 62
     7
370
   211
100
AcDbMText
 10
-2429.488886602368
 20
2287.665146596491
 30
0.0
 40
91.44
 41
120.0
 46
0.0
 71
     7
 72
     1
  1
{\fＭＳ ゴシック|b0|i0|c128|p49;77}
 11
6.123031769111886E-17
 21
1.0
 31
0.0
 73
     1
 44
1.0
  0
MTEXT
  5
FC
330
1F
100
AcDbEntity
  8
0-B_寸法
  6
Continuous
 62
     7
370
   211
100
AcDbMText
 10
-3113.690214024121
 20
1856.234295403513
 30
0.0
 40
68.5800000000026
 41
45.00000000000171
 46
0.0
 71
     7
 72
     1
  1
{\fＭＳ ゴシック|b0|i0|c128|p49;5}
 73
     1
 44
1.0
  0
LINE
  5
FD
330
1F
100
AcDbEntity
  8
0-0_補助線
  6
JWW_HOJO
 62
     7
370
     9
100
AcDbLine
 10
-851.6902140241189
 20
906.9442954035114
 30
0.0
 11
-851.6902140241189
 21
3321.945146596496
 31
0.0
  0
MTEXT
  5
FE
330
1F
100
AcDbEntity
  8
0-B_寸法
  6
Continuous
 62
     7
370
   211
100
AcDbMText
 10
-2953.190214024119
 20
1796.234295403513
 30
0.0
 40
68.5800000000026
 41
45.00000000000171
 46
0.0
 71
     7
 72
     1
  1
{\fＭＳ ゴシック|b0|i0|c128|p49;9}
 73
     1
 44
1.0
  0
LINE
  5
FF
330
1F
100
AcDbEntity
  8
0-0_補助線
  6
JWW_HOJO
 62
   120
370
     5
100
AcDbLine
 10
-3623.690016072262
 20
1086.944295403511
 30
0.0
 11
-3623.690016072262
 21
3141.945146596496
 31
0.0
  0
LINE
  5
100
330
1F
100
AcDbEntity
  8
0-0_補助線
  6
JWW_HOJO
 62
   120
370
     5
100
AcDbLine
 10
1920.309588024027
 20
1086.944295403511
 30
0.0
 11
1920.309588024027
 21
3141.945146596496
 31
0.0
  0
LINE
  5
101
330
1F
100
AcDbEntity
  8
0-0_補助線
  6
JWW_HOJO
 62
   120
370
     5
100
AcDbLine
 10
1920.309588024027
 20
1446.944295403512
 30
0.0
 11
-3623.690016072262
 21
1446.944295403512
 31
0.0
  0
LINE
  5
102
330
1F
100
AcDbEntity
  8
0-0_補助線
  6
JWW_HOJO
 62
   120
370
     5
100
AcDbLine
 10
1920.309588024027
 20
1266.944295403512
 30
0.0
 11
-3623.690016072262
 21
1266.944295403512
 31
0.0
  0
LINE
  5
103
330
1F
100
AcDbEntity
  8
0-0_補助線
  6
JWW_HOJO
 62
   120
370
     5
100
AcDbLine
 10
1920.309588024027
 20
1086.944295403511
 30
0.0
 11
-3623.690016072262
 21
1086.944295403511
 31
0.0
  0
LINE
  5
104
330
1F
100
AcDbEntity
  8
0-0_補助線
  6
JWW_HOJO
 62
     7
370
     9
100
AcDbLine
 10
-2843.69021402412
 20
906.9442954035114
 30
0.0
 11
-2843.69021402412
 21
3321.945146596496
 31
0.0
  0
LINE
  5
105
330
1F
100
AcDbEntity
  8
0-0_補助線
  6
JWW_HOJO
 62
     7
370
     9
100
AcDbLine
 10
1140.309785975881
 20
906.9442954035114
 30
0.0
 11
1140.309785975881
 21
3321.945146596496
 31
0.0
  0
LINE
  5
106
330
1F
100
AcDbEntity
  8
0-0_補助線
  6
JWW_HOJO
 62
   120
370
     5
100
AcDbLine
 10
1920.309588024027
 20
1626.944295403512
 30
0.0
 11
-3623.690016072262
 21
1626.944295403512
 31
0.0
  0
LINE
  5
107
330
1F
100
AcDbEntity
  8
0-0_補助線
  6
JWW_HOJO
 62
   120
370
     5
100
AcDbLine
 10
1920.309588024027
 20
1806.944295403512
 30
0.0
 11
-3623.690016072262
 21
1806.944295403512
 31
0.0
  0
LINE
  5
108
330
1F
100
AcDbEntity
  8
0-B_寸法
  6
Continuous
 62
   120
370
     5
100
AcDbLine
 10
-3023.69021402412
 20
1266.944295403512
 30
0.0
 11
-2843.69021402412
 21
1266.944295403512
 31
0.0
  0
LWPOLYLINE
  5
109
330
1F
100
AcDbEntity
  8
0-B_寸法
  6
Continuous
 62
     7
370
     9
100
AcDbPolyline
 90
        4
 70
     1
 43
3.0
 10
-3022.19021402412
 20
1266.944295403512
 42
0.4142135623731
 10
-3023.69021402412
 20
1268.444295403512
 42
0.4142135623731
 10
-3025.19021402412
 20
1266.944295403512
 42
0.4142135623731
 10
-3023.69021402412
 20
1265.444295403512
 42
0.4142135623731
  0
LWPOLYLINE
  5
10A
330
1F
100
AcDbEntity
  8
0-B_寸法
  6
Continuous
 62
     7
370
     9
100
AcDbPolyline
 90
        4
 70
     1
 43
3.0
 10
-2842.19021402412
 20
1266.944295403512
 42
0.4142135623731
 10
-2843.69021402412
 20
1268.444295403512
 42
0.4142135623731
 10
-2845.19021402412
 20
1266.944295403512
 42
0.4142135623731
 10
-2843.69021402412
 20
1265.444295403512
 42
0.4142135623731
  0
LINE
  5
10B
330
1F
100
AcDbEntity
  8
0-B_寸法
  6
Continuous
 62
   120
370
     5
100
AcDbLine
 10
-2843.69021402412
 20
1266.944295403512
 30
0.0
 11
-2843.69021402412
 21
1626.944295403512
 31
0.0
  0
MTEXT
  5
10C
330
1F
100
AcDbEntity
  8
0-B_寸法
  6
Continuous
 62
     7
370
   211
100
AcDbMText
 10
-2892.440214024118
 20
1799.091795403511
 30
0.0
 40
74.2949999999974
 41
97.49999999999659
 46
0.0
 71
     7
 72
     1
  1
{\fＭＳ ゴシック|b0|i0|c128|p49;10}
 73
     1
 44
1.0
  0
LINE
  5
10D
330
1F
100
AcDbEntity
  8
0-B_寸法
  6
Continuous
 62
   120
370
     5
100
AcDbLine
 10
-2843.69021402412
 20
1266.944295403512
 30
0.0
 11
1140.309785975881
 21
1266.944295403512
 31
0.0
  0
LWPOLYLINE
  5
10E
330
1F
100
AcDbEntity
  8
0-B_寸法
  6
Continuous
 62
     7
370
     9
100
AcDbPolyline
 90
        4
 70
     1
 43
3.0
 10
1141.809785975881
 20
1266.944295403512
 42
0.4142135623731
 10
1140.309785975881
 20
1268.444295403512
 42
0.4142135623731
 10
1138.809785975881
 20
1266.944295403512
 42
0.4142135623731
 10
1140.309785975881
 20
1265.444295403512
 42
0.4142135623731
  0
LINE
  5
10F
330
1F
100
AcDbEntity
  8
0-B_寸法
  6
Continuous
 62
   120
370
     5
100
AcDbLine
 10
1140.309785975881
 20
1266.944295403512
 30
0.0
 11
1140.309785975881
 21
1626.944295403512
 31
0.0
  0
LINE
  5
110
330
1F
100
AcDbEntity
  8
0-B_寸法
  6
Continuous
 62
   120
370
     5
100
AcDbLine
 10
1140.309785975881
 20
1266.944295403512
 30
0.0
 11
1320.309785975881
 21
1266.944295403512
 31
0.0
  0
LWPOLYLINE
  5
111
330
1F
100
AcDbEntity
  8
0-B_寸法
  6
Continuous
 62
     7
370
     9
100
AcDbPolyline
 90
        4
 70
     1
 43
3.0
 10
1321.809785975881
 20
1266.944295403512
 42
0.4142135623731
 10
1320.309785975881
 20
1268.444295403512
 42
0.4142135623731
 10
1318.809785975881
 20
1266.944295403512
 42
0.4142135623731
 10
1320.309785975881
 20
1265.444295403512
 42
0.4142135623731
  0
MTEXT
  5
112
330
1F
100
AcDbEntity
  8
0-B_寸法
  6
Continuous
 62
     7
370
   211
100
AcDbMText
 10
-3110.690214024119
 20
1706.234295403513
 30
0.0
 40
68.5800000000026
 41
45.00000000000171
 46
0.0
 71
     7
 72
     1
  1
{\fＭＳ ゴシック|b0|i0|c128|p49;6}
 73
     1
 44
1.0
  0
LINE
  5
113
330
1F
100
AcDbEntity
  8
0-B_寸法
  6
Continuous
 62
   120
370
     5
100
AcDbLine
 10
-3023.69021402412
 20
1086.944295403511
 30
0.0
 11
1320.309785975881
 21
1086.944295403511
 31
0.0
  0
LWPOLYLINE
  5
114
330
1F
100
AcDbEntity
  8
0-B_寸法
  6
Continuous
 62
     7
370
     9
100
AcDbPolyline
 90
        4
 70
     1
 43
3.0
 10
-3022.19021402412
 20
1086.944295403511
 42
0.4142135623731
 10
-3023.69021402412
 20
1088.444295403511
 42
0.4142135623731
 10
-3025.19021402412
 20
1086.944295403511
 42
0.4142135623731
 10
-3023.69021402412
 20
1085.444295403511
 42
0.4142135623731
  0
LWPOLYLINE
  5
115
330
1F
100
AcDbEntity
  8
0-B_寸法
  6
Continuous
 62
     7
370
     9
100
AcDbPolyline
 90
        4
 70
     1
 43
3.0
 10
1321.809785975881
 20
1086.944295403511
 42
0.4142135623731
 10
1320.309785975881
 20
1088.444295403511
 42
0.4142135623731
 10
1318.809785975881
 20
1086.944295403511
 42
0.4142135623731
 10
1320.309785975881
 20
1085.444295403511
 42
0.4142135623731
  0
LINE
  5
116
330
1F
100
AcDbEntity
  8
0-B_寸法
  6
Continuous
 62
   120
370
     5
100
AcDbLine
 10
-3023.69021402412
 20
1086.944295403511
 30
0.0
 11
-3023.69021402412
 21
1266.944295403512
 31
0.0
  0
LINE
  5
117
330
1F
100
AcDbEntity
  8
0-B_寸法
  6
Continuous
 62
   120
370
     5
100
AcDbLine
 10
1320.309785975881
 20
1086.944295403511
 30
0.0
 11
1320.309785975881
 21
1266.944295403512
 31
0.0
  0
LINE
  5
118
330
1F
100
AcDbEntity
  8
0-0_補助線
  6
JWW_HOJO
 62
     7
370
     9
100
AcDbLine
 10
-1858.190214024121
 20
906.9442954035114
 30
0.0
 11
-1858.190214024121
 21
3321.945146596496
 31
0.0
  0
LINE
  5
119
330
1F
100
AcDbEntity
  8
0-0_補助線
  6
JWW_HOJO
 62
     7
370
     9
100
AcDbLine
 10
154.8097859758815
 20
906.9442954035114
 30
0.0
 11
154.8097859758815
 21
3321.945146596496
 31
0.0
  0
LINE
  5
11A
330
1F
100
AcDbEntity
  8
0-B_寸法
  6
Continuous
 62
   120
370
     5
100
AcDbLine
 10
-2858.69021402412
 20
1626.944295403512
 30
0.0
 11
-1861.190214024119
 21
1626.944295403512
 31
0.0
  0
LWPOLYLINE
  5
11B
330
1F
100
AcDbEntity
  8
0-B_寸法
  6
Continuous
 62
     7
370
     9
100
AcDbPolyline
 90
        4
 70
     1
 43
3.0
 10
-2857.19021402412
 20
1626.944295403512
 42
0.4142135623731
 10
-2858.69021402412
 20
1628.444295403512
 42
0.4142135623731
 10
-2860.19021402412
 20
1626.944295403512
 42
0.4142135623731
 10
-2858.69021402412
 20
1625.444295403512
 42
0.4142135623731
  0
LWPOLYLINE
  5
11C
330
1F
100
AcDbEntity
  8
0-B_寸法
  6
Continuous
 62
     7
370
     9
100
AcDbPolyline
 90
        4
 70
     1
 43
3.0
 10
-1859.690214024119
 20
1626.944295403512
 42
0.4142135623731
 10
-1861.190214024119
 20
1628.444295403512
 42
0.4142135623731
 10
-1862.690214024119
 20
1626.944295403512
 42
0.4142135623731
 10
-1861.190214024119
 20
1625.444295403512
 42
0.4142135623731
  0
LINE
  5
11D
330
1F
100
AcDbEntity
  8
0-B_寸法
  6
Continuous
 62
   120
370
     5
100
AcDbLine
 10
-2858.69021402412
 20
1446.944295403512
 30
0.0
 11
-2858.69021402412
 21
1806.944295403512
 31
0.0
  0
LINE
  5
11E
330
1F
100
AcDbEntity
  8
0-B_寸法
  6
Continuous
 62
   120
370
     5
100
AcDbLine
 10
-1861.190214024119
 20
1626.944295403512
 30
0.0
 11
-1861.190214024119
 21
1806.944295403512
 31
0.0
  0
LINE
  5
11F
330
1F
100
AcDbEntity
  8
0-B_寸法
  6
Continuous
 62
   120
370
     5
100
AcDbLine
 10
-1855.19021402412
 20
1626.944295403512
 30
0.0
 11
-857.6902140241185
 21
1626.944295403512
 31
0.0
  0
LWPOLYLINE
  5
120
330
1F
100
AcDbEntity
  8
0-B_寸法
  6
Continuous
 62
     7
370
     9
100
AcDbPolyline
 90
        4
 70
     1
 43
3.0
 10
-1853.69021402412
 20
1626.944295403512
 42
0.4142135623731
 10
-1855.19021402412
 20
1628.444295403512
 42
0.4142135623731
 10
-1856.69021402412
 20
1626.944295403512
 42
0.4142135623731
 10
-1855.19021402412
 20
1625.444295403512
 42
0.4142135623731
  0
LWPOLYLINE
  5
121
330
1F
100
AcDbEntity
  8
0-B_寸法
  6
Continuous
 62
     7
370
     9
100
AcDbPolyline
 90
        4
 70
     1
 43
3.0
 10
-856.1902140241185
 20
1626.944295403512
 42
0.4142135623731
 10
-857.6902140241185
 20
1628.444295403512
 42
0.4142135623731
 10
-859.1902140241185
 20
1626.944295403512
 42
0.4142135623731
 10
-857.6902140241185
 20
1625.444295403512
 42
0.4142135623731
  0
LINE
  5
122
330
1F
100
AcDbEntity
  8
0-B_寸法
  6
Continuous
 62
   120
370
     5
100
AcDbLine
 10
-1855.19021402412
 20
1626.944295403512
 30
0.0
 11
-1855.19021402412
 21
1806.944295403512
 31
0.0
  0
LINE
  5
123
330
1F
100
AcDbEntity
  8
0-B_寸法
  6
Continuous
 62
   120
370
     5
100
AcDbLine
 10
-857.6902140241185
 20
1446.944295403512
 30
0.0
 11
-857.6902140241185
 21
1806.944295403512
 31
0.0
  0
LINE
  5
124
330
1F
100
AcDbEntity
  8
0-B_寸法
  6
Continuous
 62
   120
370
     5
100
AcDbLine
 10
-845.69021402412
 20
1626.944295403512
 30
0.0
 11
151.8097859758817
 21
1626.944295403512
 31
0.0
  0
LWPOLYLINE
  5
125
330
1F
100
AcDbEntity
  8
0-B_寸法
  6
Continuous
 62
     7
370
     9
100
AcDbPolyline
 90
        4
 70
     1
 43
3.0
 10
-844.19021402412
 20
1626.944295403512
 42
0.4142135623731
 10
-845.69021402412
 20
1628.444295403512
 42
0.4142135623731
 10
-847.1902140241201
 20
1626.944295403512
 42
0.4142135623731
 10
-845.69021402412
 20
1625.444295403512
 42
0.4142135623731
  0
LWPOLYLINE
  5
126
330
1F
100
AcDbEntity
  8
0-B_寸法
  6
Continuous
 62
     7
370
     9
100
AcDbPolyline
 90
        4
 70
     1
 43
3.0
 10
153.3097859758817
 20
1626.944295403512
 42
0.4142135623731
 10
151.8097859758817
 20
1628.444295403512
 42
0.4142135623731
 10
150.3097859758817
 20
1626.944295403512
 42
0.4142135623731
 10
151.8097859758817
 20
1625.444295403512
 42
0.4142135623731
  0
LINE
  5
127
330
1F
100
AcDbEntity
  8
0-B_寸法
  6
Continuous
 62
   120
370
     5
100
AcDbLine
 10
-845.69021402412
 20
1446.944295403512
 30
0.0
 11
-845.69021402412
 21
1806.944295403512
 31
0.0
  0
LINE
  5
128
330
1F
100
AcDbEntity
  8
0-B_寸法
  6
Continuous
 62
   120
370
     5
100
AcDbLine
 10
151.8097859758817
 20
1626.944295403512
 30
0.0
 11
151.8097859758817
 21
1806.944295403512
 31
0.0
  0
LINE
  5
129
330
1F
100
AcDbEntity
  8
0-B_寸法
  6
Continuous
 62
   120
370
     5
100
AcDbLine
 10
157.8097859758805
 20
1626.944295403512
 30
0.0
 11
1155.309785975884
 21
1626.944295403512
 31
0.0
  0
LWPOLYLINE
  5
12A
330
1F
100
AcDbEntity
  8
0-B_寸法
  6
Continuous
 62
     7
370
     9
100
AcDbPolyline
 90
        4
 70
     1
 43
3.0
 10
159.3097859758805
 20
1626.944295403512
 42
0.4142135623731
 10
157.8097859758805
 20
1628.444295403512
 42
0.4142135623731
 10
156.3097859758805
 20
1626.944295403512
 42
0.4142135623731
 10
157.8097859758805
 20
1625.444295403512
 42
0.4142135623731
  0
LWPOLYLINE
  5
12B
330
1F
100
AcDbEntity
  8
0-B_寸法
  6
Continuous
 62
     7
370
     9
100
AcDbPolyline
 90
        4
 70
     1
 43
3.0
 10
1156.809785975884
 20
1626.944295403512
 42
0.4142135623731
 10
1155.309785975884
 20
1628.444295403512
 42
0.4142135623731
 10
1153.809785975884
 20
1626.944295403512
 42
0.4142135623731
 10
1155.309785975884
 20
1625.444295403512
 42
0.4142135623731
  0
LINE
  5
12C
330
1F
100
AcDbEntity
  8
0-B_寸法
  6
Continuous
 62
   120
370
     5
100
AcDbLine
 10
157.8097859758805
 20
1626.944295403512
 30
0.0
 11
157.8097859758805
 21
1806.944295403512
 31
0.0
  0
LINE
  5
12D
330
1F
100
AcDbEntity
  8
0-B_寸法
  6
Continuous
 62
   120
370
     5
100
AcDbLine
 10
1155.309785975884
 20
1446.944295403512
 30
0.0
 11
1155.309785975884
 21
1806.944295403512
 31
0.0
  0
LINE
  5
12E
330
1F
100
AcDbEntity
  8
0-B_寸法
  6
Continuous
 62
   120
370
     5
100
AcDbLine
 10
-2858.69021402412
 20
1446.944295403512
 30
0.0
 11
-857.6902140241185
 21
1446.944295403512
 31
0.0
  0
LWPOLYLINE
  5
12F
330
1F
100
AcDbEntity
  8
0-B_寸法
  6
Continuous
 62
     7
370
     9
100
AcDbPolyline
 90
        4
 70
     1
 43
3.0
 10
-2857.19021402412
 20
1446.944295403512
 42
0.4142135623731
 10
-2858.69021402412
 20
1448.444295403512
 42
0.4142135623731
 10
-2860.19021402412
 20
1446.944295403512
 42
0.4142135623731
 10
-2858.69021402412
 20
1445.444295403512
 42
0.4142135623731
  0
LWPOLYLINE
  5
130
330
1F
100
AcDbEntity
  8
0-B_寸法
  6
Continuous
 62
     7
370
     9
100
AcDbPolyline
 90
        4
 70
     1
 43
3.0
 10
-856.1902140241185
 20
1446.944295403512
 42
0.4142135623731
 10
-857.6902140241185
 20
1448.444295403512
 42
0.4142135623731
 10
-859.1902140241185
 20
1446.944295403512
 42
0.4142135623731
 10
-857.6902140241185
 20
1445.444295403512
 42
0.4142135623731
  0
LINE
  5
131
330
1F
100
AcDbEntity
  8
0-B_寸法
  6
Continuous
 62
   120
370
     5
100
AcDbLine
 10
-857.6902140241185
 20
1446.944295403512
 30
0.0
 11
-845.69021402412
 21
1446.944295403512
 31
0.0
  0
LWPOLYLINE
  5
132
330
1F
100
AcDbEntity
  8
0-B_寸法
  6
Continuous
 62
     7
370
     9
100
AcDbPolyline
 90
        4
 70
     1
 43
3.0
 10
-844.19021402412
 20
1446.944295403512
 42
0.4142135623731
 10
-845.69021402412
 20
1448.444295403512
 42
0.4142135623731
 10
-847.1902140241201
 20
1446.944295403512
 42
0.4142135623731
 10
-845.69021402412
 20
1445.444295403512
 42
0.4142135623731
  0
LINE
  5
133
330
1F
100
AcDbEntity
  8
0-B_寸法
  6
Continuous
 62
   120
370
     5
100
AcDbLine
 10
-845.69021402412
 20
1446.944295403512
 30
0.0
 11
1155.309785975884
 21
1446.944295403512
 31
0.0
  0
LWPOLYLINE
  5
134
330
1F
100
AcDbEntity
  8
0-B_寸法
  6
Continuous
 62
     7
370
     9
100
AcDbPolyline
 90
        4
 70
     1
 43
3.0
 10
1156.809785975884
 20
1446.944295403512
 42
0.4142135623731
 10
1155.309785975884
 20
1448.444295403512
 42
0.4142135623731
 10
1153.809785975884
 20
1446.944295403512
 42
0.4142135623731
 10
1155.309785975884
 20
1445.444295403512
 42
0.4142135623731
  0
MTEXT
  5
135
330
1F
100
AcDbEntity
  8
0-B_寸法
  6
Continuous
 62
     7
370
   211
100
AcDbMText
 10
-2689.940214024118
 20
1627.664295403512
 30
0.0
 40
91.43999999999953
 41
659.9999999999966
 46
0.0
 71
     7
 72
     1
  1
{\fＭＳ ゴシック|b0|i0|c128|p49;ＤＷ＝282.5}
 73
     1
 44
1.0
  0
MTEXT
  5
136
330
1F
100
AcDbEntity
  8
0-B_寸法
  6
Continuous
 62
     7
370
   211
100
AcDbMText
 10
-1686.440214024122
 20
1627.664295403512
 30
0.0
 40
91.44000000000034
 41
660.0000000000025
 46
0.0
 71
     7
 72
     1
  1
{\fＭＳ ゴシック|b0|i0|c128|p49;ＤＷ＝282.5}
 73
     1
 44
1.0
  0
MTEXT
  5
137
330
1F
100
AcDbEntity
  8
0-B_寸法
  6
Continuous
 62
     7
370
   211
100
AcDbMText
 10
-676.9402140241192
 20
1627.664295403512
 30
0.0
 40
91.44000000000013
 41
660.0000000000009
 46
0.0
 71
     7
 72
     1
  1
{\fＭＳ ゴシック|b0|i0|c128|p49;ＤＷ＝282.5}
 73
     1
 44
1.0
  0
MTEXT
  5
138
330
1F
100
AcDbEntity
  8
0-B_寸法
  6
Continuous
 62
     7
370
   211
100
AcDbMText
 10
326.5597859758839
 20
1627.664295403512
 30
0.0
 40
91.43999999999994
 41
659.9999999999995
 46
0.0
 71
     7
 72
     1
  1
{\fＭＳ ゴシック|b0|i0|c128|p49;ＤＷ＝282.5}
 73
     1
 44
1.0
  0
MTEXT
  5
139
330
1F
100
AcDbEntity
  8
0-B_寸法
  6
Continuous
 62
     7
370
   211
100
AcDbMText
 10
-2308.19021402412
 20
1447.664295403512
 30
0.0
 40
91.44000000000001
 41
900.0
 46
0.0
 71
     7
 72
     1
  1
{\fＭＳ ゴシック|b0|i0|c128|p49;折戸：ＤＷ＝566}
 73
     1
 44
1.0
  0
MTEXT
  5
13A
330
1F
100
AcDbEntity
  8
0-B_寸法
  6
Continuous
 62
     7
370
   211
100
AcDbMText
 10
-821.6902140241198
 20
1447.664295403513
 30
0.0
 40
91.4400000000013
 41
60.00000000000085
 46
0.0
 71
     7
 72
     1
  1
{\fＭＳ ゴシック|b0|i0|c128|p49;2}
 73
     1
 44
1.0
  0
MTEXT
  5
13B
330
1F
100
AcDbEntity
  8
0-B_寸法
  6
Continuous
 62
     7
370
   211
100
AcDbMText
 10
-295.1902140241168
 20
1447.664295403512
 30
0.0
 40
91.44000000000001
 41
900.0
 46
0.0
 71
     7
 72
     1
  1
{\fＭＳ ゴシック|b0|i0|c128|p49;折戸：ＤＷ＝566}
 73
     1
 44
1.0
  0
MTEXT
  5
13C
330
1F
100
AcDbEntity
  8
0-B_寸法
  6
Continuous
 62
     7
370
   211
100
AcDbMText
 10
-2993.690214024121
 20
1267.664295403513
 30
0.0
 40
91.4400000000013
 41
120.0000000000017
 46
0.0
 71
     7
 72
     1
  1
{\fＭＳ ゴシック|b0|i0|c128|p49;30}
 73
     1
 44
1.0
  0
MTEXT
  5
13D
330
1F
100
AcDbEntity
  8
0-B_寸法
  6
Continuous
 62
     7
370
   211
100
AcDbMText
 10
-1181.69021402412
 20
1267.664295403512
 30
0.0
 40
91.44000000000013
 41
660.0000000000009
 46
0.0
 71
     7
 72
     1
  1
{\fＭＳ ゴシック|b0|i0|c128|p49;枠内＝1,129}
 73
     1
 44
1.0
  0
MTEXT
  5
13E
330
1F
100
AcDbEntity
  8
0-B_寸法
  6
Continuous
 62
     7
370
   211
100
AcDbMText
 10
1170.309785975881
 20
1267.664295403512
 30
0.0
 40
91.43999999999967
 41
119.9999999999996
 46
0.0
 71
     7
 72
     1
  1
{\fＭＳ ゴシック|b0|i0|c128|p49;30}
 73
     1
 44
1.0
  0
LINE
  5
13F
330
1F
100
AcDbEntity
  8
0-B_寸法
  6
Continuous
 62
   120
370
     5
100
AcDbLine
 10
-3023.69021402412
 20
1266.944295403512
 30
0.0
 11
-3023.69021402412
 21
1806.944295403512
 31
0.0
  0
LINE
  5
140
330
1F
100
AcDbEntity
  8
0-B_寸法
  6
Continuous
 62
   120
370
     5
100
AcDbLine
 10
1320.309785975881
 20
1266.944295403512
 30
0.0
 11
1320.309785975881
 21
1806.944295403512
 31
0.0
  0
LINE
  5
141
330
1F
100
AcDbEntity
  8
0-0_補助線
  6
JWW_HOJO
 62
   120
370
     5
100
AcDbLine
 10
1920.309588024027
 20
1986.944295403512
 30
0.0
 11
-3623.690016072262
 21
1986.944295403512
 31
0.0
  0
LINE
  5
142
330
1F
100
AcDbEntity
  8
0-0_補助線
  6
JWW_HOJO
 62
   120
370
     5
100
AcDbLine
 10
1920.309588024027
 20
2961.945146596496
 30
0.0
 11
-3623.690016072262
 21
2961.945146596496
 31
0.0
  0
LINE
  5
143
330
1F
100
AcDbEntity
  8
0-C_ハッチ
  6
Continuous
 62
   120
370
     5
100
AcDbLine
 10
-3023.690214024115
 20
2387.264773392185
 30
0.0
 11
-2843.690214024118
 21
2567.264773392182
 31
0.0
  0
LINE
  5
144
330
1F
100
AcDbEntity
  8
0-C_ハッチ
  6
Continuous
 62
   120
370
     5
100
AcDbLine
 10
-3023.690214024122
 20
2327.867803772474
 30
0.0
 11
-2843.690214024132
 21
2507.867803772466
 31
0.0
  0
LINE
  5
145
330
1F
100
AcDbEntity
  8
0-C_ハッチ
  6
Continuous
 62
   120
370
     5
100
AcDbLine
 10
-3023.690214024118
 20
2268.470834152833
 30
0.0
 11
-2874.592197264873
 21
2417.568850912079
 31
0.0
  0
LINE
  5
146
330
1F
100
AcDbEntity
  8
0-C_ハッチ
  6
Continuous
 62
   120
370
     5
100
AcDbLine
 10
-3023.690214024113
 20
2209.07386453319
 30
0.0
 11
-2879.565193245293
 21
2353.198885312012
 31
0.0
  0
ARC
  5
147
330
1F
100
AcDbEntity
  8
0-4_枠
  6
Continuous
 62
    92
370
    13
100
AcDbCircle
 10
-2573.690214024118
 20
2361.945146596495
 30
0.0
 40
306.0000000000022
100
AcDbArc
 50
151.9275130641473
 51
208.0724869358527
  0
LINE
  5
148
330
1F
100
AcDbEntity
  8
0-4_枠
  6
Continuous
 62
    92
370
    13
100
AcDbLine
 10
-2957.69021402412
 20
2190.946220485324
 30
0.0
 11
-2903.69021402412
 21
2190.946220485324
 31
0.0
  0
LINE
  5
149
330
1F
100
AcDbEntity
  8
0-4_枠
  6
Continuous
 62
    92
370
    13
100
AcDbLine
 10
-3023.69021402412
 20
2172.946220485324
 30
0.0
 11
-2993.69021402412
 21
2172.946220485324
 31
0.0
  0
LINE
  5
14A
330
1F
100
AcDbEntity
  8
0-4_枠
  6
Continuous
 62
    92
370
    13
100
AcDbLine
 10
-2993.69021402412
 20
2130.946220485324
 30
0.0
 11
-2993.69021402412
 21
2172.946220485324
 31
0.0
  0
LINE
  5
14B
330
1F
100
AcDbEntity
  8
0-4_枠
  6
Continuous
 62
    92
370
    13
100
AcDbLine
 10
-2957.69021402412
 20
2130.946220485324
 30
0.0
 11
-2957.69021402412
 21
2190.946220485324
 31
0.0
  0
LINE
  5
14C
330
1F
100
AcDbEntity
  8
0-4_枠
  6
Continuous
 62
    92
370
    13
100
AcDbLine
 10
-2993.69021402412
 20
2130.946220485324
 30
0.0
 11
-2957.69021402412
 21
2130.946220485324
 31
0.0
  0
LINE
  5
14D
330
1F
100
AcDbEntity
  8
0-4_枠
  6
Continuous
 62
    92
370
    13
100
AcDbLine
 10
-2903.69021402412
 20
2130.946220485324
 30
0.0
 11
-2903.69021402412
 21
2190.946220485324
 31
0.0
  0
LINE
  5
14E
330
1F
100
AcDbEntity
  8
0-4_枠
  6
Continuous
 62
    92
370
    13
100
AcDbLine
 10
-2903.69021402412
 20
2130.946220485324
 30
0.0
 11
-2888.278171056998
 21
2130.946220485324
 31
0.0
  0
LINE
  5
14F
330
1F
100
AcDbEntity
  8
0-4_枠
  6
Continuous
 62
    92
370
    13
100
AcDbLine
 10
-2888.278171056998
 20
2130.946220485324
 30
0.0
 11
-2843.69021402412
 21
2130.946220485324
 31
0.0
  0
LINE
  5
150
330
1F
100
AcDbEntity
  8
0-4_枠
  6
Continuous
 62
    92
370
    13
100
AcDbLine
 10
-2843.69021402412
 20
2130.946220485324
 30
0.0
 11
-2843.69021402412
 21
2217.945146596495
 31
0.0
  0
LINE
  5
151
330
1F
100
AcDbEntity
  8
0-4_枠
  6
Continuous
 62
    92
370
    13
100
AcDbLine
 10
-3023.69021402412
 20
2172.946220485324
 30
0.0
 11
-3023.69021402412
 21
2592.946220485323
 31
0.0
  0
LINE
  5
152
330
1F
100
AcDbEntity
  8
0-C_ハッチ
  6
Continuous
 62
   120
370
     5
100
AcDbLine
 10
-3023.690214024134
 20
2565.455682251162
 30
0.0
 11
-2996.199675789974
 21
2592.946220485323
 31
0.0
  0
LINE
  5
153
330
1F
100
AcDbEntity
  8
0-C_ハッチ
  6
Continuous
 62
   120
370
     5
100
AcDbLine
 10
-3023.690214024128
 20
2446.661743011819
 30
0.0
 11
-2877.405736550625
 21
2592.946220485323
 31
0.0
  0
LINE
  5
154
330
1F
100
AcDbEntity
  8
0-C_ハッチ
  6
Continuous
 62
   120
370
     5
100
AcDbLine
 10
-3023.690214024118
 20
2506.058712631533
 30
0.0
 11
-2936.802706170326
 21
2592.946220485323
 31
0.0
  0
LINE
  5
155
330
1F
100
AcDbEntity
  8
0-4_枠
  6
Continuous
 62
    92
370
    13
100
AcDbLine
 10
-2843.69021402412
 20
2505.945146596494
 30
0.0
 11
-2843.69021402412
 21
2592.946220485323
 31
0.0
  0
LINE
  5
156
330
1F
100
AcDbEntity
  8
0-4_枠
  6
Continuous
 62
    92
370
    13
100
AcDbLine
 10
-3023.69021402412
 20
2592.946220485323
 30
0.0
 11
-2843.69021402412
 21
2592.946220485323
 31
0.0
  0
LINE
  5
157
330
1F
100
AcDbEntity
  8
0-C_ハッチ
  6
Continuous
 62
   120
370
     5
100
AcDbLine
 10
-3000.420888452279
 20
2172.946220485324
 30
0.0
 11
-2873.356818160486
 21
2300.010290777117
 31
0.0
  0
LINE
  5
158
330
1F
100
AcDbEntity
  8
0-C_ハッチ
  6
Continuous
 62
   120
370
     5
100
AcDbLine
 10
-2923.023918832632
 20
2190.946220485324
 30
0.0
 11
-2860.005204617996
 21
2253.96493469996
 31
0.0
  0
LINE
  5
159
330
1F
100
AcDbEntity
  8
0-C_ハッチ
  6
Continuous
 62
   120
370
     5
100
AcDbLine
 10
-2983.023918832632
 20
2130.946220485324
 30
0.0
 11
-2957.69021402412
 21
2156.279925293835
 31
0.0
  0
LINE
  5
15A
330
1F
100
AcDbEntity
  8
0-C_ハッチ
  6
Continuous
 62
   120
370
     5
100
AcDbLine
 10
-2903.69021402412
 20
2150.882955674133
 30
0.0
 11
-2843.690214024122
 21
2210.882955674132
 31
0.0
  0
LINE
  5
15B
330
1F
100
AcDbEntity
  8
0-C_ハッチ
  6
Continuous
 62
   120
370
     5
100
AcDbLine
 10
-2864.229979593283
 20
2130.946220485324
 30
0.0
 11
-2843.690214024125
 21
2151.48598605448
 31
0.0
  0
ARC
  5
15C
330
1F
100
AcDbEntity
  8
0-4_枠
  6
Continuous
 62
    92
370
    13
100
AcDbCircle
 10
870.3097859758795
 20
2361.945146596495
 30
0.0
 40
306.0000000000022
100
AcDbArc
 50
331.9275130641473
 51
28.07248693585271
  0
LINE
  5
15D
330
1F
100
AcDbEntity
  8
0-4_枠
  6
Continuous
 62
    92
370
    13
100
AcDbLine
 10
1254.309785975882
 20
2190.946220485324
 30
0.0
 11
1200.309785975881
 21
2190.946220485324
 31
0.0
  0
LINE
  5
15E
330
1F
100
AcDbEntity
  8
0-4_枠
  6
Continuous
 62
    92
370
    13
100
AcDbLine
 10
1320.309785975881
 20
2172.946220485324
 30
0.0
 11
1290.309785975881
 21
2172.946220485324
 31
0.0
  0
LINE
  5
15F
330
1F
100
AcDbEntity
  8
0-4_枠
  6
Continuous
 62
    92
370
    13
100
AcDbLine
 10
1290.309785975881
 20
2130.946220485324
 30
0.0
 11
1290.309785975881
 21
2172.946220485324
 31
0.0
  0
LINE
  5
160
330
1F
100
AcDbEntity
  8
0-4_枠
  6
Continuous
 62
    92
370
    13
100
AcDbLine
 10
1254.309785975882
 20
2130.946220485324
 30
0.0
 11
1254.309785975882
 21
2190.946220485324
 31
0.0
  0
LINE
  5
161
330
1F
100
AcDbEntity
  8
0-4_枠
  6
Continuous
 62
    92
370
    13
100
AcDbLine
 10
1290.309785975881
 20
2130.946220485324
 30
0.0
 11
1254.309785975882
 21
2130.946220485324
 31
0.0
  0
LINE
  5
162
330
1F
100
AcDbEntity
  8
0-4_枠
  6
Continuous
 62
    92
370
    13
100
AcDbLine
 10
1200.309785975881
 20
2130.946220485324
 30
0.0
 11
1200.309785975881
 21
2190.946220485324
 31
0.0
  0
LINE
  5
163
330
1F
100
AcDbEntity
  8
0-4_枠
  6
Continuous
 62
    92
370
    13
100
AcDbLine
 10
1200.309785975881
 20
2130.946220485324
 30
0.0
 11
1184.897743008759
 21
2130.946220485324
 31
0.0
  0
LINE
  5
164
330
1F
100
AcDbEntity
  8
0-4_枠
  6
Continuous
 62
    92
370
    13
100
AcDbLine
 10
1184.897743008759
 20
2130.946220485324
 30
0.0
 11
1140.309785975881
 21
2130.946220485324
 31
0.0
  0
LINE
  5
165
330
1F
100
AcDbEntity
  8
0-4_枠
  6
Continuous
 62
    92
370
    13
100
AcDbLine
 10
1140.309785975881
 20
2130.946220485324
 30
0.0
 11
1140.309785975881
 21
2217.945146596495
 31
0.0
  0
LINE
  5
166
330
1F
100
AcDbEntity
  8
0-4_枠
  6
Continuous
 62
    92
370
    13
100
AcDbLine
 10
1320.309785975881
 20
2172.946220485324
 30
0.0
 11
1320.309785975881
 21
2592.946220485323
 31
0.0
  0
LINE
  5
167
330
1F
100
AcDbEntity
  8
0-4_枠
  6
Continuous
 62
    92
370
    13
100
AcDbLine
 10
1140.309785975881
 20
2505.945146596494
 30
0.0
 11
1140.309785975881
 21
2592.946220485323
 31
0.0
  0
LINE
  5
168
330
1F
100
AcDbEntity
  8
0-4_枠
  6
Continuous
 62
    92
370
    13
100
AcDbLine
 10
1320.309785975881
 20
2592.946220485323
 30
0.0
 11
1140.309785975881
 21
2592.946220485323
 31
0.0
  0
LINE
  5
169
330
1F
100
AcDbEntity
  8
0-C_ハッチ
  6
Continuous
 62
   120
370
     5
100
AcDbLine
 10
1269.33502731165
 20
2130.946220485324
 30
0.0
 11
1290.309785975884
 21
2151.920979149559
 31
0.0
  0
LINE
  5
16A
330
1F
100
AcDbEntity
  8
0-C_ハッチ
  6
Continuous
 62
   120
370
     5
100
AcDbLine
 10
1311.335027311637
 20
2172.94622048531
 30
0.0
 11
1320.309785975897
 21
2181.92097914957
 31
0.0
  0
LINE
  5
16B
330
1F
100
AcDbEntity
  8
0-C_ハッチ
  6
Continuous
 62
   120
370
     5
100
AcDbLine
 10
1254.309785975865
 20
2175.317948769241
 30
0.0
 11
1320.309785975881
 21
2241.317948769256
 31
0.0
  0
LINE
  5
16C
330
1F
100
AcDbEntity
  8
0-C_ハッチ
  6
Continuous
 62
   120
370
     5
100
AcDbLine
 10
1150.541088072298
 20
2130.946220485321
 30
0.0
 11
1200.309785975885
 21
2180.714918388908
 31
0.0
  0
LINE
  5
16D
330
1F
100
AcDbEntity
  8
0-C_ハッチ
  6
Continuous
 62
   120
370
     5
100
AcDbLine
 10
1210.541088072298
 20
2190.946220485321
 30
0.0
 11
1320.309785975888
 21
2300.714918388912
 31
0.0
  0
LINE
  5
16E
330
1F
100
AcDbEntity
  8
0-C_ハッチ
  6
Continuous
 62
   120
370
     5
100
AcDbLine
 10
1140.309785975891
 20
2180.111888008561
 30
0.0
 11
1320.309785975889
 21
2360.111888008559
 31
0.0
  0
LINE
  5
16F
330
1F
100
AcDbEntity
  8
0-C_ハッチ
  6
Continuous
 62
   120
370
     5
100
AcDbLine
 10
1157.722446606604
 20
2256.921518258976
 30
0.0
 11
1320.309785975889
 21
2419.508857628262
 31
0.0
  0
LINE
  5
170
330
1F
100
AcDbEntity
  8
0-C_ハッチ
  6
Continuous
 62
   120
370
     5
100
AcDbLine
 10
1174.993127354069
 20
2333.589168626088
 30
0.0
 11
1320.309785975885
 21
2478.905827247905
 31
0.0
  0
LINE
  5
171
330
1F
100
AcDbEntity
  8
0-C_ハッチ
  6
Continuous
 62
   120
370
     5
100
AcDbLine
 10
1174.755440283843
 20
2392.748451175564
 30
0.0
 11
1320.309785975885
 21
2538.302796867607
 31
0.0
  0
LINE
  5
172
330
1F
100
AcDbEntity
  8
0-C_ハッチ
  6
Continuous
 62
   120
370
     5
100
AcDbLine
 10
1165.429096413563
 20
2442.819076924932
 30
0.0
 11
1315.556239973955
 21
2592.946220485323
 31
0.0
  0
LINE
  5
173
330
1F
100
AcDbEntity
  8
0-C_ハッチ
  6
Continuous
 62
   120
370
     5
100
AcDbLine
 10
1149.782234079184
 20
2486.5691842102
 30
0.0
 11
1256.159270354296
 21
2592.946220485312
 31
0.0
  0
LINE
  5
174
330
1F
100
AcDbEntity
  8
0-C_ハッチ
  6
Continuous
 62
   120
370
     5
100
AcDbLine
 10
1140.30978597589
 20
2536.493705726607
 30
0.0
 11
1196.762300734593
 21
2592.946220485311
 31
0.0
  0
LWPOLYLINE
  5
175
330
1F
100
AcDbEntity
  8
0-B_寸法
  6
Continuous
 62
     7
370
     9
100
AcDbPolyline
 90
        4
 70
     1
 43
3.0
 10
-2412.988886602368
 20
2592.946220485323
 42
0.4142135623731
 10
-2414.488886602368
 20
2594.446220485323
 42
0.4142135623731
 10
-2415.988886602368
 20
2592.946220485323
 42
0.4142135623731
 10
-2414.488886602368
 20
2591.446220485323
 42
0.4142135623731
  0
LINE
  5
176
330
1F
100
AcDbEntity
  8
0-B_寸法
  6
Continuous
 62
   120
370
     5
100
AcDbLine
 10
-2414.488886602368
 20
2592.946220485323
 30
0.0
 11
-2533.264455384039
 21
2592.946220485323
 31
0.0
  0
LWPOLYLINE
  5
177
330
1F
100
AcDbEntity
  8
0-B_寸法
  6
Continuous
 62
     7
370
     9
100
AcDbPolyline
 90
        4
 70
     1
 43
3.0
 10
-2412.988886602368
 20
2130.946220485324
 42
0.4142135623731
 10
-2414.488886602368
 20
2132.446220485324
 42
0.4142135623731
 10
-2415.988886602368
 20
2130.946220485324
 42
0.4142135623731
 10
-2414.488886602368
 20
2129.446220485324
 42
0.4142135623731
  0
LINE
  5
178
330
1F
100
AcDbEntity
  8
0-B_寸法
  6
Continuous
 62
   120
370
     5
100
AcDbLine
 10
-2414.488886602368
 20
2130.946220485324
 30
0.0
 11
-2533.264455384039
 21
2130.946220485324
 31
0.0
  0
LINE
  5
179
330
1F
100
AcDbEntity
  8
0-B_寸法
  6
Continuous
 62
   120
370
     5
100
AcDbLine
 10
-2414.488886602368
 20
2592.946220485323
 30
0.0
 11
-2414.488886602368
 21
2130.946220485324
 31
0.0
  0
MTEXT
  5
17A
330
1F
100
AcDbEntity
  8
0-B_寸法
  6
Continuous
 62
     7
370
   211
100
AcDbMText
 10
-1181.69021402412
 20
1087.664295403512
 30
0.0
 40
91.44000000000013
 41
660.0000000000009
 46
0.0
 71
     7
 72
     1
  1
{\fＭＳ ゴシック|b0|i0|c128|p49;枠外＝1,189}
 73
     1
 44
1.0
  0
MTEXT
  5
17B
330
1F
100
AcDbEntity
  8
0-A_文字
  6
Continuous
 62
     7
370
     9
100
AcDbMText
 10
-3590.223429306715
 20
3310.355192579903
 30
0.0
 40
100.5840000000003
 41
660.0000000000017
 46
0.0
 71
     7
 72
     1
  1
{\fＭＳ ゴシック|b0|i0|c128|p49;■横断面図}
 73
     1
 44
1.0
  0
LINE
  5
17C
330
1F
100
AcDbEntity
  8
0-A_文字
  6
JWW_HOJO
 62
   120
370
     5
100
AcDbLine
 10
-851.6902140241172
 20
947.6359701511744
 30
0.0
 11
1557.833595499692
 21
947.6359701511744
 31
0.0
  0
LINE
  5
17D
330
1F
100
AcDbEntity
  8
0-A_文字
  6
JWW_HOJO
 62
   120
370
     5
100
AcDbLine
 10
-851.6902140241172
 20
827.6359701511744
 30
0.0
 11
1557.833595499692
 21
827.6359701511744
 31
0.0
  0
LINE
  5
17E
330
1F
100
AcDbEntity
  8
0-A_文字
  6
JWW_HOJO
 62
   120
370
     5
100
AcDbLine
 10
-851.6902140241172
 20
707.6359701511749
 30
0.0
 11
1557.833595499692
 21
707.6359701511749
 31
0.0
  0
MTEXT
  5
17F
330
1F
100
AcDbEntity
  8
0-A_文字
  6
Continuous
 62
     7
370
     9
100
AcDbMText
 10
-851.690214024118
 20
942.3811974239017
 30
0.0
 40
79.49045454545461
 41
2295.000000000002
 46
0.0
 71
     7
 72
     1
  1
{\fＭＳ ゴシック|b0|i0|c128|p49;※有効開口寸法にはハンドルの突出は含まない。}
 73
     1
 44
1.0
  0
MTEXT
  5
180
330
1F
100
AcDbEntity
  8
0-A_文字
  6
Continuous
 62
     7
370
     9
100
AcDbMText
 10
-851.6902140241164
 20
822.4293034845076
 30
0.0
 40
79.58666666666659
 41
2819.999999999998
 46
0.0
 71
     7
 72
     1
  1
{\fＭＳ ゴシック|b0|i0|c128|p49;※有効開口寸法は扉の厚さや調整によって若干異なります。}
 73
     1
 44
1.0
  0
MTEXT
  5
181
330
1F
100
AcDbEntity
  8
0-A_文字
  6
Continuous
 62
     7
370
     0
100
AcDbMText
 10
-851.6902140241172
 20
696.9259701511756
 30
0.0
 40
68.58000000000003
 41
1350.0
 46
0.0
 71
     7
 72
     1
  1
{\fＭＳ ゴシック|b0|i0|c128|p49;※扉厚（　）内はルーバーの場合}
 73
     1
 44
1.0
  0
MTEXT
  5
182
330
1F
100
AcDbEntity
  8
0-A_文字
  6
Continuous
 62
     7
370
   211
100
AcDbMText
 10
-1883.654241086887
 20
2227.664295403511
 30
0.0
 40
91.44
 41
240.0
 46
0.0
 71
     7
 72
     1
  1
{\fＭＳ ゴシック|b0|i0|c128|p49;(24)}
 11
6.123031769111886E-17
 21
1.0
 31
0.0
 73
     1
 44
1.0
  0
LINE
  5
183
330
1F
100
AcDbEntity
  8
0-C_ハッチ
  6
JWW_DASHED1
 62
   120
370
     5
100
AcDbLine
 10
-3005.709951865299
 20
2097.946220485329
 30
0.0
 11
-2993.690214024111
 21
2109.965958326519
 31
0.0
  0
LINE
  5
184
330
1F
100
AcDbEntity
  8
0-C_ハッチ
  6
JWW_DASHED1
 62
   120
370
     5
100
AcDbLine
 10
-3048.136358736496
 20
2097.946220485333
 30
0.0
 11
-2993.69021402412
 21
2152.392365197709
 31
0.0
  0
LINE
  5
185
330
1F
100
AcDbEntity
  8
0-C_ハッチ
  6
JWW_DASHED1
 62
   120
370
     5
100
AcDbLine
 10
-3090.562765607692
 20
2097.946220485337
 30
0.0
 11
-3015.562765607681
 21
2172.946220485348
 31
0.0
  0
LINE
  5
186
330
1F
100
AcDbEntity
  8
0-C_ハッチ
  6
JWW_DASHED1
 62
   120
370
     5
100
AcDbLine
 10
-3132.989172478901
 20
2097.946220485328
 30
0.0
 11
-3057.989172478908
 21
2172.946220485322
 31
0.0
  0
LINE
  5
187
330
1F
100
AcDbEntity
  8
0-C_ハッチ
  6
JWW_DASHED1
 62
   120
370
     5
100
AcDbLine
 10
-3175.415579350101
 20
2097.946220485328
 30
0.0
 11
-3100.415579350105
 21
2172.946220485324
 31
0.0
  0
LINE
  5
188
330
1F
100
AcDbEntity
  8
0-C_ハッチ
  6
JWW_DASHED1
 62
   120
370
     5
100
AcDbLine
 10
-3217.841986221296
 20
2097.946220485331
 30
0.0
 11
-3142.841986221301
 21
2172.946220485327
 31
0.0
  0
LINE
  5
189
330
1F
100
AcDbEntity
  8
0-C_ハッチ
  6
JWW_DASHED1
 62
   120
370
     5
100
AcDbLine
 10
-3260.268393092435
 20
2097.94622048534
 30
0.0
 11
-3185.26839309244
 21
2172.946220485336
 31
0.0
  0
LINE
  5
18A
330
1F
100
AcDbEntity
  8
0-C_ハッチ
  6
JWW_DASHED1
 62
   120
370
     5
100
AcDbLine
 10
-3302.69479996363
 20
2097.946220485343
 30
0.0
 11
-3227.694799963635
 21
2172.946220485339
 31
0.0
  0
LINE
  5
18B
330
1F
100
AcDbEntity
  8
0-C_ハッチ
  6
JWW_DASHED1
 62
   120
370
     5
100
AcDbLine
 10
-3345.121206834843
 20
2097.946220485331
 30
0.0
 11
-3270.121206834833
 21
2172.946220485343
 31
0.0
  0
LINE
  5
18C
330
1F
100
AcDbEntity
  8
0-C_ハッチ
  6
JWW_DASHED1
 62
   120
370
     5
100
AcDbLine
 10
-3387.54761370604
 20
2097.946220485334
 30
0.0
 11
-3312.547613706028
 21
2172.946220485347
 31
0.0
  0
LINE
  5
18D
330
1F
100
AcDbEntity
  8
0-C_ハッチ
  6
JWW_DASHED1
 62
   120
370
     5
100
AcDbLine
 10
-3429.974020577235
 20
2097.946220485339
 30
0.0
 11
-3354.97402057724
 21
2172.946220485334
 31
0.0
  0
LINE
  5
18E
330
1F
100
AcDbEntity
  8
0-C_ハッチ
  6
JWW_DASHED1
 62
   120
370
     5
100
AcDbLine
 10
-3472.400427448447
 20
2097.946220485327
 30
0.0
 11
-3397.400427448454
 21
2172.946220485322
 31
0.0
  0
LINE
  5
18F
330
1F
100
AcDbEntity
  8
0-C_ハッチ
  6
JWW_DASHED1
 62
   120
370
     5
100
AcDbLine
 10
-3514.826834319643
 20
2097.946220485331
 30
0.0
 11
-3439.826834319649
 21
2172.946220485326
 31
0.0
  0
LINE
  5
190
330
1F
100
AcDbEntity
  8
0-C_ハッチ
  6
JWW_DASHED1
 62
   120
370
     5
100
AcDbLine
 10
-3557.25324119084
 20
2097.946220485334
 30
0.0
 11
-3482.253241190843
 21
2172.946220485329
 31
0.0
  0
LINE
  5
191
330
1F
100
AcDbEntity
  8
0-3_仕上げ
  6
Continuous
 62
    40
370
    15
100
AcDbLine
 10
-2993.69021402412
 20
2172.946220485324
 30
0.0
 11
-2993.69021402412
 21
2097.946220485324
 31
0.0
  0
LINE
  5
192
330
1F
100
AcDbEntity
  8
0-C_ハッチ
  6
JWW_DASHED1
 62
   120
370
     5
100
AcDbLine
 10
1793.437036440437
 20
2097.946220485337
 30
0.0
 11
1868.437036440448
 21
2172.946220485348
 31
0.0
  0
LINE
  5
193
330
1F
100
AcDbEntity
  8
0-C_ハッチ
  6
JWW_DASHED1
 62
   120
370
     5
100
AcDbLine
 10
1751.010629569229
 20
2097.946220485328
 30
0.0
 11
1826.010629569223
 21
2172.946220485321
 31
0.0
  0
LINE
  5
194
330
1F
100
AcDbEntity
  8
0-C_ハッチ
  6
JWW_DASHED1
 62
   120
370
     5
100
AcDbLine
 10
1708.584222698029
 20
2097.946220485328
 30
0.0
 11
1783.584222698024
 21
2172.946220485323
 31
0.0
  0
LINE
  5
195
330
1F
100
AcDbEntity
  8
0-C_ハッチ
  6
JWW_DASHED1
 62
   120
370
     5
100
AcDbLine
 10
1666.157815826833
 20
2097.946220485332
 30
0.0
 11
1741.157815826828
 21
2172.946220485327
 31
0.0
  0
LINE
  5
196
330
1F
100
AcDbEntity
  8
0-C_ハッチ
  6
JWW_DASHED1
 62
   120
370
     5
100
AcDbLine
 10
1623.731408955695
 20
2097.94622048534
 30
0.0
 11
1698.731408955691
 21
2172.946220485335
 31
0.0
  0
LINE
  5
197
330
1F
100
AcDbEntity
  8
0-C_ハッチ
  6
JWW_DASHED1
 62
   120
370
     5
100
AcDbLine
 10
1581.305002084499
 20
2097.946220485343
 30
0.0
 11
1656.305002084494
 21
2172.946220485338
 31
0.0
  0
LINE
  5
198
330
1F
100
AcDbEntity
  8
0-C_ハッチ
  6
JWW_DASHED1
 62
   120
370
     5
100
AcDbLine
 10
1538.878595213287
 20
2097.946220485332
 30
0.0
 11
1613.878595213298
 21
2172.946220485342
 31
0.0
  0
LINE
  5
199
330
1F
100
AcDbEntity
  8
0-C_ハッチ
  6
JWW_DASHED1
 62
   120
370
     5
100
AcDbLine
 10
1496.452188342091
 20
2097.946220485335
 30
0.0
 11
1571.452188342102
 21
2172.946220485346
 31
0.0
  0
LINE
  5
19A
330
1F
100
AcDbEntity
  8
0-C_ハッチ
  6
JWW_DASHED1
 62
   120
370
     5
100
AcDbLine
 10
1454.025781470894
 20
2097.946220485339
 30
0.0
 11
1529.025781470889
 21
2172.946220485334
 31
0.0
  0
LINE
  5
19B
330
1F
100
AcDbEntity
  8
0-C_ハッチ
  6
JWW_DASHED1
 62
   120
370
     5
100
AcDbLine
 10
1411.599374599682
 20
2097.946220485327
 30
0.0
 11
1486.599374599677
 21
2172.946220485322
 31
0.0
  0
LINE
  5
19C
330
1F
100
AcDbEntity
  8
0-C_ハッチ
  6
JWW_DASHED1
 62
   120
370
     5
100
AcDbLine
 10
1369.172967728485
 20
2097.946220485331
 30
0.0
 11
1444.17296772848
 21
2172.946220485325
 31
0.0
  0
LINE
  5
19D
330
1F
100
AcDbEntity
  8
0-C_ハッチ
  6
JWW_DASHED1
 62
   120
370
     5
100
AcDbLine
 10
1326.746560857289
 20
2097.946220485334
 30
0.0
 11
1401.746560857285
 21
2172.946220485328
 31
0.0
  0
LINE
  5
19E
330
1F
100
AcDbEntity
  8
0-C_ハッチ
  6
JWW_DASHED1
 62
   120
370
     5
100
AcDbLine
 10
1290.309785975863
 20
2103.935852475053
 30
0.0
 11
1359.320153986147
 21
2172.946220485338
 31
0.0
  0
LINE
  5
19F
330
1F
100
AcDbEntity
  8
0-C_ハッチ
  6
JWW_DASHED1
 62
   120
370
     5
100
AcDbLine
 10
1290.309785975867
 20
2146.362259346257
 30
0.0
 11
1316.893747114951
 21
2172.946220485341
 31
0.0
  0
LINE
  5
1A0
330
1F
100
AcDbEntity
  8
0-3_仕上げ
  6
Continuous
 62
    40
370
    15
100
AcDbLine
 10
1290.309785975881
 20
2097.946220485324
 30
0.0
 11
1290.309785975881
 21
2172.946220485324
 31
0.0
  0
LINE
  5
1A1
330
1F
100
AcDbEntity
  8
0-3_仕上げ
  6
Continuous
 62
    40
370
    15
100
AcDbLine
 10
-3623.690016072262
 20
2097.946220485324
 30
0.0
 11
-2993.690214024102
 21
2097.946220485324
 31
0.0
  0
LINE
  5
1A2
330
1F
100
AcDbEntity
  8
0-3_仕上げ
  6
Continuous
 62
    40
370
    15
100
AcDbLine
 10
-3623.690016072262
 20
2172.946220485324
 30
0.0
 11
-2993.690214024102
 21
2172.946220485324
 31
0.0
  0
LINE
  5
1A3
330
1F
100
AcDbEntity
  8
0-C_ハッチ
  6
JWW_DASHED1
 62
   120
370
     5
100
AcDbLine
 10
-3599.679648061997
 20
2097.946220485324
 30
0.0
 11
-3524.679648061984
 21
2172.946220485338
 31
0.0
  0
LINE
  5
1A4
330
1F
100
AcDbEntity
  8
0-C_ハッチ
  6
JWW_DASHED1
 62
   120
370
     5
100
AcDbLine
 10
-3623.690016072262
 20
2116.362259346258
 30
0.0
 11
-3567.106054933179
 21
2172.946220485341
 31
0.0
  0
LINE
  5
1A5
330
1F
100
AcDbEntity
  8
0-3_仕上げ
  6
Continuous
 62
    40
370
    15
100
AcDbLine
 10
1290.309785975881
 20
2097.946220485324
 30
0.0
 11
1920.309588024027
 21
2097.946220485324
 31
0.0
  0
LINE
  5
1A6
330
1F
100
AcDbEntity
  8
0-3_仕上げ
  6
Continuous
 62
    40
370
    15
100
AcDbLine
 10
1290.309785975881
 20
2172.946220485324
 30
0.0
 11
1920.309588024027
 21
2172.946220485324
 31
0.0
  0
LINE
  5
1A7
330
1F
100
AcDbEntity
  8
0-C_ハッチ
  6
JWW_DASHED1
 62
   120
370
     5
100
AcDbLine
 10
1878.289850182831
 20
2097.946220485328
 30
0.0
 11
1920.309588024027
 21
2139.965958326528
 31
0.0
  0
LINE
  5
1A8
330
1F
100
AcDbEntity
  8
0-C_ハッチ
  6
JWW_DASHED1
 62
   120
370
     5
100
AcDbLine
 10
1835.863443311634
 20
2097.946220485333
 30
0.0
 11
1910.863443311626
 21
2172.946220485324
 31
0.0
  0
MTEXT
  5
1A9
330
1F
100
AcDbEntity
  8
0-3_仕上げ
  6
Continuous
 62
     7
370
   211
100
AcDbMText
 10
-2720.69001607225
 20
-2901.781431134915
 30
0.0
 40
91.43999999999805
 41
119.9999999999974
 46
0.0
 71
     7
 72
     1
  1
{\fＭＳ ゴシック|b0|i0|c128|p49;32}
 73
     1
 44
1.0
  0
MTEXT
  5
1AA
330
1F
100
AcDbEntity
  8
0-A_文字
  6
Continuous
 62
     7
370
     9
100
AcDbMText
 10
-3611.690016072273
 20
198.8080100182983
 30
0.0
 40
91.44
 41
600.0
 46
0.0
 71
     7
 72
     1
  1
{\fＭＳ ゴシック|b0|i0|c128|p49;■縦断面図}
 73
     1
 44
1.0
  0
MTEXT
  5
1AB
330
1F
100
AcDbEntity
  8
0-A_文字
  6
Continuous
 62
     7
370
     9
100
AcDbMText
 10
-3611.690016072273
 20
50.28774485085497
 30
0.0
 40
91.44000000000001
 41
1800.0
 46
0.0
 71
     7
 72
     1
  1
{\fＭＳ ゴシック|b0|i0|c128|p49;　[３方枠＋レール(レール埋込)]}
 73
     1
 44
1.0
  0
MTEXT
  5
1AC
330
1F
100
AcDbEntity
  8
0-B_寸法
  6
Continuous
 62
     7
370
   211
100
AcDbMText
 10
-1507.946808524859
 20
-260.0312686803301
 30
0.0
 40
91.43999999999805
 41
59.99999999999872
 46
0.0
 71
     7
 72
     1
  1
{\fＭＳ ゴシック|b0|i0|c128|p49;8}
 11
6.123031769111886E-17
 21
1.0
 31
0.0
 73
     1
 44
1.0
  0
MTEXT
  5
1AD
330
1F
100
AcDbEntity
  8
0-B_寸法
  6
Continuous
 62
     7
370
   211
100
AcDbMText
 10
-2069.690016072256
 20
-304.7257350667984
 30
0.0
 40
91.44000000000129
 41
60.00000000000085
 46
0.0
 71
     7
 72
     1
  1
{\fＭＳ ゴシック|b0|i0|c128|p49;8}
 11
6.123031769111886E-17
 21
1.0
 31
0.0
 73
     1
 44
1.0
  0
MTEXT
  5
1AE
330
1F
100
AcDbEntity
  8
0-B_寸法
  6
Continuous
 62
     7
370
   211
100
AcDbMText
 10
-2069.690016072256
 20
-390.2791294241524
 30
0.0
 40
91.44000000000129
 41
60.00000000000085
 46
0.0
 71
     7
 72
     1
  1
{\fＭＳ ゴシック|b0|i0|c128|p49;9}
 11
6.123031769111886E-17
 21
1.0
 31
0.0
 73
     1
 44
1.0
  0
MTEXT
  5
1AF
330
1F
100
AcDbEntity
  8
0-B_寸法
  6
Continuous
 62
     7
370
     0
100
AcDbMText
 10
-1694.689323240756
 20
-480.2790725129943
 30
0.0
 40
91.43999999999966
 41
119.9999999999996
 46
0.0
 71
     7
 72
     1
  1
{\fＭＳ ゴシック|b0|i0|c128|p49;36}
 11
6.123031769111886E-17
 21
1.0
 31
0.0
 73
     1
 44
1.0
  0
MTEXT
  5
1B0
330
1F
100
AcDbEntity
  8
0-B_寸法
  6
Continuous
 62
     7
370
   211
100
AcDbMText
 10
-2069.690016072256
 20
-498.279129424153
 30
0.0
 40
91.44000000000129
 41
60.00000000000085
 46
0.0
 71
     7
 72
     1
  1
{\fＭＳ ゴシック|b0|i0|c128|p49;9}
 11
6.123031769111886E-17
 21
1.0
 31
0.0
 73
     1
 44
1.0
  0
MTEXT
  5
1B1
330
1F
100
AcDbEntity
  8
0-B_寸法
  6
Continuous
 62
     7
370
   211
100
AcDbMText
 10
-2069.690016072256
 20
-665.9420510715973
 30
0.0
 40
91.43999999999934
 41
119.9999999999991
 46
0.0
 71
     7
 72
     1
  1
{\fＭＳ ゴシック|b0|i0|c128|p49;10}
 11
6.123031769111886E-17
 21
1.0
 31
0.0
 73
     1
 44
1.0
  0
MTEXT
  5
1B2
330
1F
100
AcDbEntity
  8
0-B_寸法
  6
Continuous
 62
     7
370
     0
100
AcDbMText
 10
-1874.117798652561
 20
-751.2353149736211
 30
0.0
 40
91.44000000000023
 41
180.0000000000004
 46
0.0
 71
     7
 72
     1
  1
{\fＭＳ ゴシック|b0|i0|c128|p49;7.5}
 11
6.123031769111886E-17
 21
1.0
 31
0.0
 73
     1
 44
1.0
  0
MTEXT
  5
1B3
330
1F
100
AcDbEntity
  8
0-B_寸法
  6
Continuous
 62
     7
370
     0
100
AcDbMText
 10
-2720.690565388678
 20
-808.7618943247874
 30
0.0
 40
91.43999999999805
 41
119.9999999999974
 46
0.0
 71
     7
 72
     1
  1
{\fＭＳ ゴシック|b0|i0|c128|p49;77}
 73
     1
 44
1.0
  0
LINE
  5
1B4
330
1F
100
AcDbEntity
  8
0-3_仕上げ
  6
Continuous
 62
     7
370
     9
100
AcDbLine
 10
-2585.689673986701
 20
-3238.00011387491
 30
0.0
 11
-2069.690016072257
 21
-3238.00011387491
 31
0.0
  0
LINE
  5
1B5
330
1F
100
AcDbEntity
  8
0-3_仕上げ
  6
Continuous
 62
     7
370
     9
100
AcDbLine
 10
-2585.689673986701
 20
-3250.000264813204
 30
0.0
 11
-2069.690016072257
 21
-3250.000264813204
 31
0.0
  0
LINE
  5
1B6
330
1F
100
AcDbEntity
  8
0-3_仕上げ
  6
Continuous
 62
     7
370
     9
100
AcDbLine
 10
-2585.689673986701
 20
-3262.000230171629
 30
0.0
 11
-2069.690016072257
 21
-3262.000230171629
 31
0.0
  0
LINE
  5
1B7
330
1F
100
AcDbEntity
  8
0-3_仕上げ
  6
Continuous
 62
     7
370
     9
100
AcDbLine
 10
-2585.689673986701
 20
-3274.000195530054
 30
0.0
 11
-2069.690016072257
 21
-3274.000195530054
 31
0.0
  0
LINE
  5
1B8
330
1F
100
AcDbEntity
  8
0-3_仕上げ
  6
Continuous
 62
     7
370
     9
100
AcDbLine
 10
-2585.689673986701
 20
-3286.000346468346
 30
0.0
 11
-2069.690016072257
 21
-3286.000346468346
 31
0.0
  0
LINE
  5
1B9
330
1F
100
AcDbEntity
  8
0-3_仕上げ
  6
Continuous
 62
    40
370
    15
100
AcDbLine
 10
-2069.690016072257
 20
-3226.000334096354
 30
0.0
 11
-2585.689673986701
 21
-3226.000334096354
 31
0.0
  0
LINE
  5
1BA
330
1F
100
AcDbEntity
  8
0-0_補助線
  6
JWW_HOJO
 62
   120
370
     5
100
AcDbLine
 10
-1709.690016072257
 20
2.00007402574073
 30
0.0
 11
-3623.690016072262
 21
2.00007402574073
 31
0.0
  0
LINE
  5
1BB
330
1F
100
AcDbEntity
  8
0-1_通り芯
  6
JWW_CENTER1
 62
   120
370
     5
100
AcDbLine
 10
-2660.690016072251
 20
-3519.904954945129
 30
0.0
 11
-2660.690016072251
 21
2.00007402574073
 31
0.0
  0
LINE
  5
1BC
330
1F
100
AcDbEntity
  8
0-0_補助線
  6
JWW_HOJO
 62
   120
370
     5
100
AcDbLine
 10
-2069.690016072257
 20
2.00007402574073
 30
0.0
 11
-2069.690016072257
 21
-3297.999940820649
 31
0.0
  0
LINE
  5
1BD
330
1F
100
AcDbEntity
  8
0-0_補助線
  6
JWW_HOJO
 62
   120
370
     5
100
AcDbLine
 10
-3263.690016072262
 20
2.00007402574073
 30
0.0
 11
-3263.690016072262
 21
-3297.999940820649
 31
0.0
  0
LINE
  5
1BE
330
1F
100
AcDbEntity
  8
0-0_補助線
  6
JWW_HOJO
 62
   120
370
     5
100
AcDbLine
 10
-3623.690016072262
 20
2.00007402574073
 30
0.0
 11
-3623.690016072262
 21
-3297.999940820649
 31
0.0
  0
LINE
  5
1BF
330
1F
100
AcDbEntity
  8
0-0_補助線
  6
JWW_HOJO
 62
   120
370
     5
100
AcDbLine
 10
-1709.690016072257
 20
2.00007402574073
 30
0.0
 11
-1709.690016072257
 21
-3297.999940820649
 31
0.0
  0
LINE
  5
1C0
330
1F
100
AcDbEntity
  8
0-B_寸法
  6
Continuous
 62
   120
370
     5
100
AcDbLine
 10
-2069.690016072257
 20
-3174.999460993514
 30
0.0
 11
-1859.690016072257
 21
-3174.999460993514
 31
0.0
  0
LWPOLYLINE
  5
1C1
330
1F
100
AcDbEntity
  8
0-B_寸法
  6
Continuous
 62
     7
370
     9
100
AcDbPolyline
 90
        4
 70
     1
 43
3.0
 10
-3622.190016072262
 20
-3297.999940820649
 42
0.4142135623731
 10
-3623.690016072262
 20
-3296.499940820649
 42
0.4142135623731
 10
-3625.190016072262
 20
-3297.999940820649
 42
0.4142135623731
 10
-3623.690016072262
 20
-3299.499940820649
 42
0.4142135623731
  0
LINE
  5
1C2
330
1F
100
AcDbEntity
  8
0-B_寸法
  6
Continuous
 62
   120
370
     5
100
AcDbLine
 10
-3623.690016072262
 20
-3297.999940820649
 30
0.0
 11
-3263.690016072262
 21
-3297.999940820649
 31
0.0
  0
LINE
  5
1C3
330
1F
100
AcDbEntity
  8
0-B_寸法
  6
Continuous
 62
   120
370
     5
100
AcDbLine
 10
-2069.690016072257
 20
-3297.999941026771
 30
0.0
 11
-1499.690016072257
 21
-3297.999941026771
 31
0.0
  0
LWPOLYLINE
  5
1C4
330
1F
100
AcDbEntity
  8
0-B_寸法
  6
Continuous
 62
     7
370
     9
100
AcDbPolyline
 90
        4
 70
     1
 43
3.0
 10
-1498.190016072257
 20
-3297.999941026771
 42
0.4142135623731
 10
-1499.690016072257
 20
-3296.499941026771
 42
0.4142135623731
 10
-1501.190016072257
 20
-3297.999941026771
 42
0.4142135623731
 10
-1499.690016072257
 20
-3299.499941026771
 42
0.4142135623731
  0
LWPOLYLINE
  5
1C5
330
1F
100
AcDbEntity
  8
0-B_寸法
  6
Continuous
 62
     7
370
     9
100
AcDbPolyline
 90
        4
 70
     1
 43
3.0
 10
-1858.190016072257
 20
-3174.999460993514
 42
0.4142135623731
 10
-1859.690016072257
 20
-3173.499460993514
 42
0.4142135623731
 10
-1861.190016072257
 20
-3174.999460993514
 42
0.4142135623731
 10
-1859.690016072257
 20
-3176.499460993514
 42
0.4142135623731
  0
LWPOLYLINE
  5
1C6
330
1F
100
AcDbEntity
  8
0-B_寸法
  6
Continuous
 62
     7
370
     9
100
AcDbPolyline
 90
        4
 70
     1
 43
3.0
 10
-1858.190016072257
 20
-3225.999592136622
 42
0.4142135623731
 10
-1859.690016072257
 20
-3224.499592136622
 42
0.4142135623731
 10
-1861.190016072257
 20
-3225.999592136622
 42
0.4142135623731
 10
-1859.690016072257
 20
-3227.499592136621
 42
0.4142135623731
  0
LINE
  5
1C7
330
1F
100
AcDbEntity
  8
0-B_寸法
  6
Continuous
 62
   120
370
     5
100
AcDbLine
 10
-1859.690016072257
 20
-3225.999592136622
 30
0.0
 11
-1859.690016072257
 21
-513.998946318683
 31
0.0
  0
LINE
  5
1C8
330
1F
100
AcDbEntity
  8
0-B_寸法
  6
Continuous
 62
   120
370
     5
100
AcDbLine
 10
-2069.690016072257
 20
-3225.999592136622
 30
0.0
 11
-1679.690016072257
 21
-3225.999592136622
 31
0.0
  0
LINE
  5
1C9
330
1F
100
AcDbEntity
  8
0-B_寸法
  6
Continuous
 62
   120
370
     5
100
AcDbLine
 10
-1679.690016072257
 20
-3297.999569867038
 30
0.0
 11
-1679.690016072257
 21
-297.9995698670362
 31
0.0
  0
LINE
  5
1CA
330
1F
100
AcDbEntity
  8
0-B_寸法
  6
Continuous
 62
   120
370
     5
100
AcDbLine
 10
-1859.690016072257
 20
-3297.999569867038
 30
0.0
 11
-1679.690016072257
 21
-3297.999569867038
 31
0.0
  0
LWPOLYLINE
  5
1CB
330
1F
100
AcDbEntity
  8
0-B_寸法
  6
Continuous
 62
     7
370
     9
100
AcDbPolyline
 90
        4
 70
     1
 43
3.0
 10
-1678.190016072257
 20
-3297.999569867038
 42
0.4142135623731
 10
-1679.690016072257
 20
-3296.499569867038
 42
0.4142135623731
 10
-1681.190016072257
 20
-3297.999569867038
 42
0.4142135623731
 10
-1679.690016072257
 20
-3299.499569867038
 42
0.4142135623731
  0
LWPOLYLINE
  5
1CC
330
1F
100
AcDbEntity
  8
0-B_寸法
  6
Continuous
 62
     7
370
     9
100
AcDbPolyline
 90
        4
 70
     1
 43
3.0
 10
-1678.190016072257
 20
-3225.999592136622
 42
0.4142135623731
 10
-1679.690016072257
 20
-3224.499592136622
 42
0.4142135623731
 10
-1681.190016072257
 20
-3225.999592136622
 42
0.4142135623731
 10
-1679.690016072257
 20
-3227.499592136621
 42
0.4142135623731
  0
LWPOLYLINE
  5
1CD
330
1F
100
AcDbEntity
  8
0-B_寸法
  6
Continuous
 62
     7
370
     9
100
AcDbPolyline
 90
        4
 70
     1
 43
3.0
 10
-1498.190016072257
 20
-297.9995698670362
 42
0.4142135623731
 10
-1499.690016072257
 20
-296.4995698670362
 42
0.4142135623731
 10
-1501.190016072257
 20
-297.9995698670362
 42
0.4142135623731
 10
-1499.690016072257
 20
-299.4995698670362
 42
0.4142135623731
  0
LWPOLYLINE
  5
1CE
330
1F
100
AcDbEntity
  8
0-B_寸法
  6
Continuous
 62
     7
370
     9
100
AcDbPolyline
 90
        4
 70
     1
 43
3.0
 10
-1858.190016072257
 20
-513.998946318683
 42
0.4142135623731
 10
-1859.690016072257
 20
-512.498946318683
 42
0.4142135623731
 10
-1861.190016072257
 20
-513.998946318683
 42
0.4142135623731
 10
-1859.690016072257
 20
-515.4989463186831
 42
0.4142135623731
  0
LWPOLYLINE
  5
1CF
330
1F
100
AcDbEntity
  8
0-B_寸法
  6
Continuous
 62
     7
370
     9
100
AcDbPolyline
 90
        4
 70
     1
 43
3.0
 10
-1858.190016072257
 20
-558.9990947825768
 42
0.4142135623731
 10
-1859.690016072257
 20
-557.4990947825768
 42
0.4142135623731
 10
-1861.190016072257
 20
-558.9990947825768
 42
0.4142135623731
 10
-1859.690016072257
 20
-560.4990947825769
 42
0.4142135623731
  0
LINE
  5
1D0
330
1F
100
AcDbEntity
  8
0-B_寸法
  6
Continuous
 62
   120
370
     5
100
AcDbLine
 10
-2069.690016072257
 20
-558.9990947825768
 30
0.0
 11
-1859.690016072257
 21
-558.9990947825768
 31
0.0
  0
LINE
  5
1D1
330
1F
100
AcDbEntity
  8
0-B_寸法
  6
Continuous
 62
   120
370
     5
100
AcDbLine
 10
-1859.690016072257
 20
-513.99857515895
 30
0.0
 11
-1679.690016072257
 21
-513.99857515895
 31
0.0
  0
LWPOLYLINE
  5
1D2
330
1F
100
AcDbEntity
  8
0-B_寸法
  6
Continuous
 62
     7
370
     9
100
AcDbPolyline
 90
        4
 70
     1
 43
3.0
 10
-1678.190016072257
 20
-513.99857515895
 42
0.4142135623731
 10
-1679.690016072257
 20
-512.49857515895
 42
0.4142135623731
 10
-1681.190016072257
 20
-513.99857515895
 42
0.4142135623731
 10
-1679.690016072257
 20
-515.49857515895
 42
0.4142135623731
  0
LWPOLYLINE
  5
1D3
330
1F
100
AcDbEntity
  8
0-B_寸法
  6
Continuous
 62
     7
370
     9
100
AcDbPolyline
 90
        4
 70
     1
 43
3.0
 10
-1678.190016072257
 20
-297.9995698670362
 42
0.4142135623731
 10
-1679.690016072257
 20
-296.4995698670362
 42
0.4142135623731
 10
-1681.190016072257
 20
-297.9995698670362
 42
0.4142135623731
 10
-1679.690016072257
 20
-299.4995698670362
 42
0.4142135623731
  0
LINE
  5
1D4
330
1F
100
AcDbEntity
  8
0-0_補助線
  6
JWW_HOJO
 62
   120
370
     5
100
AcDbLine
 10
-1859.690016072257
 20
-3297.999940820649
 30
0.0
 11
-3623.690016072262
 21
-3297.999940820649
 31
0.0
  0
MTEXT
  5
1D5
330
1F
100
AcDbEntity
  8
0-B_寸法
  6
Continuous
 62
     7
370
     0
100
AcDbMText
 10
-1874.156511319663
 20
-3191.41173001837
 30
0.0
 40
91.4400000000013
 41
180.0000000000026
 46
0.0
 71
     7
 72
     1
  1
{\fＭＳ ゴシック|b0|i0|c128|p49;8.5}
 11
6.123031769111886E-17
 21
1.0
 31
0.0
 73
     1
 44
1.0
  0
MTEXT
  5
1D6
330
1F
100
AcDbEntity
  8
0-B_寸法
  6
Continuous
 62
     7
370
     0
100
AcDbMText
 10
-1694.689323240756
 20
-3446.060221697335
 30
0.0
 40
91.43999999999805
 41
119.9999999999974
 46
0.0
 71
     7
 72
     1
  1
{\fＭＳ ゴシック|b0|i0|c128|p49;12}
 11
6.123031769111886E-17
 21
1.0
 31
0.0
 73
     1
 44
1.0
  0
LINE
  5
1D7
330
1F
100
AcDbEntity
  8
0-3_仕上げ
  6
Continuous
 62
   120
370
     5
100
AcDbLine
 10
-2756.689570680585
 20
-2902.501431134912
 30
0.0
 11
-2564.690461463945
 21
-2902.501431134912
 31
0.0
  0
LWPOLYLINE
  5
1D8
330
1F
100
AcDbEntity
  8
0-3_仕上げ
  6
Continuous
 62
     7
370
     9
100
AcDbPolyline
 90
        4
 70
     1
 43
3.0
 10
-2755.189570680585
 20
-2902.501431134912
 42
0.4142135623731
 10
-2756.689570680585
 20
-2901.001431134912
 42
0.4142135623731
 10
-2758.189570680585
 20
-2902.501431134912
 42
0.4142135623731
 10
-2756.689570680585
 20
-2904.001431134912
 42
0.4142135623731
  0
LWPOLYLINE
  5
1D9
330
1F
100
AcDbEntity
  8
0-3_仕上げ
  6
Continuous
 62
     7
370
     9
100
AcDbPolyline
 90
        4
 70
     1
 43
3.0
 10
-2563.190461463945
 20
-2902.501431134912
 42
0.4142135623731
 10
-2564.690461463945
 20
-2901.001431134912
 42
0.4142135623731
 10
-2566.190461463945
 20
-2902.501431134912
 42
0.4142135623731
 10
-2564.690461463945
 20
-2904.001431134912
 42
0.4142135623731
  0
LINE
  5
1DA
330
1F
100
AcDbEntity
  8
0-3_仕上げ
  6
Continuous
 62
   120
370
     5
100
AcDbLine
 10
-2756.689570680585
 20
-2902.501431134912
 30
0.0
 11
-2756.689570680585
 21
-3011.209140508178
 31
0.0
  0
LINE
  5
1DB
330
1F
100
AcDbEntity
  8
0-3_仕上げ
  6
Continuous
 62
   120
370
     5
100
AcDbLine
 10
-2564.690461463945
 20
-2902.501431134912
 30
0.0
 11
-2564.690461463945
 21
-3011.209140508178
 31
0.0
  0
LINE
  5
1DC
330
1F
100
AcDbEntity
  8
0-3_仕上げ
  6
Continuous
 62
    40
370
    15
100
AcDbLine
 10
-3251.690016072273
 20
-3298.000311826771
 30
0.0
 11
-1907.204036528121
 21
-3298.000311826771
 31
0.0
  0
LINE
  5
1DD
330
1F
100
AcDbEntity
  8
0-3_仕上げ
  6
Continuous
 62
     7
370
     9
100
AcDbLine
 10
-3251.690016072273
 20
-3238.00011387491
 30
0.0
 11
-2735.689673986701
 21
-3238.00011387491
 31
0.0
  0
LINE
  5
1DE
330
1F
100
AcDbEntity
  8
0-3_仕上げ
  6
Continuous
 62
     7
370
     9
100
AcDbLine
 10
-3251.690016072273
 20
-3250.000264813204
 30
0.0
 11
-2735.689673986701
 21
-3250.000264813204
 31
0.0
  0
LINE
  5
1DF
330
1F
100
AcDbEntity
  8
0-3_仕上げ
  6
Continuous
 62
     7
370
     9
100
AcDbLine
 10
-3251.690016072273
 20
-3262.000230171629
 30
0.0
 11
-2735.689673986701
 21
-3262.000230171629
 31
0.0
  0
LINE
  5
1E0
330
1F
100
AcDbEntity
  8
0-3_仕上げ
  6
Continuous
 62
     7
370
     9
100
AcDbLine
 10
-3251.690016072273
 20
-3274.000195530054
 30
0.0
 11
-2735.689673986701
 21
-3274.000195530054
 31
0.0
  0
LINE
  5
1E1
330
1F
100
AcDbEntity
  8
0-3_仕上げ
  6
Continuous
 62
     7
370
     9
100
AcDbLine
 10
-3251.690016072273
 20
-3286.000346468346
 30
0.0
 11
-2735.689673986701
 21
-3286.000346468346
 31
0.0
  0
LINE
  5
1E2
330
1F
100
AcDbEntity
  8
0-3_仕上げ
  6
Continuous
 62
    40
370
    15
100
AcDbLine
 10
-3251.690016072273
 20
-3226.000334096354
 30
0.0
 11
-2735.689673986701
 21
-3226.000334096354
 31
0.0
  0
LINE
  5
1E3
330
1F
100
AcDbEntity
  8
0-3_仕上げ
  6
Continuous
 62
    40
370
    15
100
AcDbLine
 10
-2735.690016072251
 20
-3298.000497406637
 30
0.0
 11
-2735.690016072251
 21
-3226.000705256087
 31
0.0
  0
LINE
  5
1E4
330
1F
100
AcDbEntity
  8
0-3_仕上げ
  6
Continuous
 62
    40
370
    15
100
AcDbLine
 10
-2585.690016072251
 20
-3298.000497406637
 30
0.0
 11
-2585.690016072251
 21
-3226.000705256087
 31
0.0
  0
LINE
  5
1E5
330
1F
100
AcDbEntity
  8
0-C_ハッチ
  6
Continuous
 62
   120
370
     5
100
AcDbLine
 10
-2729.690016072257
 20
-3276.120416773787
 30
0.0
 11
-2720.690016072251
 21
-3267.120416773788
 31
0.0
  0
LINE
  5
1E6
330
1F
100
AcDbEntity
  8
0-7_金物
  6
Continuous
 62
    92
370
    13
100
AcDbLine
 10
-2720.690016072251
 20
-3268.000705102476
 30
0.0
 11
-2600.690016072251
 21
-3268.000705102476
 31
0.0
  0
LINE
  5
1E7
330
1F
100
AcDbEntity
  8
0-7_金物
  6
Continuous
 62
    92
370
    13
100
AcDbLine
 10
-2720.690016072251
 20
-3256.000705102478
 30
0.0
 11
-2720.690016072251
 21
-3268.000705102476
 31
0.0
  0
LINE
  5
1E8
330
1F
100
AcDbEntity
  8
0-7_金物
  6
Continuous
 62
    92
370
    13
100
AcDbLine
 10
-2720.690016072251
 20
-3256.000705102478
 30
0.0
 11
-2729.690074392322
 21
-3256.000705102478
 31
0.0
  0
LINE
  5
1E9
330
1F
100
AcDbEntity
  8
0-7_金物
  6
Continuous
 62
    92
370
    13
100
AcDbLine
 10
-2600.690016072251
 20
-3256.000705102478
 30
0.0
 11
-2591.879100752606
 21
-3256.000705102478
 31
0.0
  0
LINE
  5
1EA
330
1F
100
AcDbEntity
  8
0-7_金物
  6
Continuous
 62
    92
370
    13
100
AcDbLine
 10
-2600.690016072251
 20
-3256.000705102478
 30
0.0
 11
-2600.690016072251
 21
-3268.000705102476
 31
0.0
  0
LINE
  5
1EB
330
1F
100
AcDbEntity
  8
0-7_金物
  6
Continuous
 62
    92
370
    13
100
AcDbLine
 10
-2591.879159072698
 20
-3256.000482772178
 30
0.0
 11
-2591.879159072698
 21
-3298.000705102476
 31
0.0
  0
LINE
  5
1EC
330
1F
100
AcDbEntity
  8
0-7_金物
  6
Continuous
 62
    92
370
    13
100
AcDbLine
 10
-2729.690016072257
 20
-3256.000482772178
 30
0.0
 11
-2729.690016072257
 21
-3298.000705102476
 31
0.0
  0
LINE
  5
1ED
330
1F
100
AcDbEntity
  8
0-7_金物
  6
Continuous
 62
    92
370
    13
100
AcDbLine
 10
-2729.690016072257
 20
-3298.000705102476
 30
0.0
 11
-2591.879159072698
 21
-3298.000705102476
 31
0.0
  0
LINE
  5
1EE
330
1F
100
AcDbEntity
  8
0-C_ハッチ
  6
Continuous
 62
   120
370
     5
100
AcDbLine
 10
-2598.835239664652
 20
-3298.000705102476
 30
0.0
 11
-2591.879159072698
 21
-3291.044624510506
 31
0.0
  0
LINE
  5
1EF
330
1F
100
AcDbEntity
  8
0-C_ハッチ
  6
Continuous
 62
   120
370
     5
100
AcDbLine
 10
-2726.114460278225
 20
-3298.000705102476
 30
0.0
 11
-2696.114460278225
 21
-3268.000705102476
 31
0.0
  0
LINE
  5
1F0
330
1F
100
AcDbEntity
  8
0-C_ハッチ
  6
Continuous
 62
   120
370
     5
100
AcDbLine
 10
-2649.746927910103
 20
-3298.000705102476
 30
0.0
 11
-2619.746927910103
 21
-3268.000705102476
 31
0.0
  0
LINE
  5
1F1
330
1F
100
AcDbEntity
  8
0-C_ハッチ
  6
Continuous
 62
   120
370
     5
100
AcDbLine
 10
-2675.202772032828
 20
-3298.000705102476
 30
0.0
 11
-2645.202772032801
 21
-3268.000705102476
 31
0.0
  0
LINE
  5
1F2
330
1F
100
AcDbEntity
  8
0-C_ハッチ
  6
Continuous
 62
   120
370
     5
100
AcDbLine
 10
-2700.658616155526
 20
-3298.000705102476
 30
0.0
 11
-2670.658616155526
 21
-3268.000705102473
 31
0.0
  0
LINE
  5
1F3
330
1F
100
AcDbEntity
  8
0-C_ハッチ
  6
Continuous
 62
   120
370
     5
100
AcDbLine
 10
-2624.291083787377
 20
-3298.000705102476
 30
0.0
 11
-2591.879159072698
 21
-3265.588780387788
 31
0.0
  0
LINE
  5
1F4
330
1F
100
AcDbEntity
  8
0-7_金物
  6
Continuous
 62
     7
370
     9
100
AcDbLine
 10
-2618.689380461221
 20
-3229.367745736701
 30
0.0
 11
-2702.690251449396
 21
-3229.367745736701
 31
0.0
  0
LINE
  5
1F5
330
1F
100
AcDbEntity
  8
0-7_金物
  6
Continuous
 62
     7
370
     9
100
AcDbLine
 10
-2651.689934726421
 20
-3175.000705102476
 30
0.0
 11
-2651.689934726421
 21
-3229.367745736701
 31
0.0
  0
LINE
  5
1F6
330
1F
100
AcDbEntity
  8
0-7_金物
  6
Continuous
 62
     7
370
     9
100
AcDbLine
 10
-2669.689697184197
 20
-3175.000705102476
 30
0.0
 11
-2669.689697184197
 21
-3229.367745736701
 31
0.0
  0
LINE
  5
1F7
330
1F
100
AcDbEntity
  8
0-7_金物
  6
Continuous
 62
     7
370
     9
100
AcDbLine
 10
-2636.690627557921
 20
-3241.367745736701
 30
0.0
 11
-2684.690488991621
 21
-3241.367745736701
 31
0.0
  0
LINE
  5
1F8
330
1F
100
AcDbEntity
  8
0-7_金物
  6
Continuous
 62
     7
370
     9
100
AcDbLine
 10
-2651.689934726421
 20
-3246.065143329607
 30
0.0
 11
-2669.689697184197
 21
-3246.065143329607
 31
0.0
  0
LINE
  5
1F9
330
1F
100
AcDbEntity
  8
0-7_金物
  6
Continuous
 62
     7
370
     9
100
AcDbLine
 10
-2651.689934726421
 20
-3241.367745736701
 30
0.0
 11
-2651.689934726421
 21
-3246.065143329607
 31
0.0
  0
LINE
  5
1FA
330
1F
100
AcDbEntity
  8
0-7_金物
  6
Continuous
 62
     7
370
     9
100
AcDbLine
 10
-2669.689697184197
 20
-3241.367745736701
 30
0.0
 11
-2669.689697184197
 21
-3246.065143329607
 31
0.0
  0
LINE
  5
1FB
330
1F
100
AcDbEntity
  8
0-7_金物
  6
Continuous
 62
     7
370
     9
100
AcDbLine
 10
-2636.690627557921
 20
-3241.367745736701
 30
0.0
 11
-2636.690627557921
 21
-3253.367745736704
 31
0.0
  0
LINE
  5
1FC
330
1F
100
AcDbEntity
  8
0-7_金物
  6
Continuous
 62
     7
370
     9
100
AcDbLine
 10
-2618.689380461221
 20
-3229.367745736701
 30
0.0
 11
-2618.689380461221
 21
-3253.367745736704
 31
0.0
  0
LINE
  5
1FD
330
1F
100
AcDbEntity
  8
0-7_金物
  6
Continuous
 62
     7
370
     9
100
AcDbLine
 10
-2684.690488991621
 20
-3241.367745736701
 30
0.0
 11
-2684.690488991621
 21
-3253.367745736704
 31
0.0
  0
LINE
  5
1FE
330
1F
100
AcDbEntity
  8
0-7_金物
  6
Continuous
 62
     7
370
     9
100
AcDbLine
 10
-2702.690251449396
 20
-3229.367745736701
 30
0.0
 11
-2702.690251449396
 21
-3253.367745736704
 31
0.0
  0
LINE
  5
1FF
330
1F
100
AcDbEntity
  8
0-7_金物
  6
Continuous
 62
     7
370
     9
100
AcDbLine
 10
-2702.690251449396
 20
-3253.367745736704
 30
0.0
 11
-2618.689380461221
 21
-3253.367745736704
 31
0.0
  0
LINE
  5
200
330
1F
100
AcDbEntity
  8
0-7_金物
  6
Continuous
 62
     7
370
     9
100
AcDbLine
 10
-2711.690016072273
 20
-3260.800705102476
 30
0.0
 11
-2699.690016072257
 21
-3260.800705102476
 31
0.0
  0
LINE
  5
201
330
1F
100
AcDbEntity
  8
0-7_金物
  6
Continuous
 62
     7
370
     9
100
AcDbLine
 10
-2693.690016072262
 20
-3260.800705102476
 30
0.0
 11
-2662.490016072263
 21
-3260.800705102476
 31
0.0
  0
LINE
  5
202
330
1F
100
AcDbEntity
  8
0-7_金物
  6
Continuous
 62
     7
370
     9
100
AcDbLine
 10
-2662.490016072263
 20
-3260.800705102476
 30
0.0
 11
-2660.690016072251
 21
-3262.600705102478
 31
0.0
  0
LINE
  5
203
330
1F
100
AcDbEntity
  8
0-7_金物
  6
Continuous
 62
     7
370
     9
100
AcDbLine
 10
-2660.690016072251
 20
-3262.600705102478
 30
0.0
 11
-2658.890016072266
 21
-3260.800705102476
 31
0.0
  0
LINE
  5
204
330
1F
100
AcDbEntity
  8
0-7_金物
  6
Continuous
 62
     7
370
     9
100
AcDbLine
 10
-2658.890016072266
 20
-3260.800705102476
 30
0.0
 11
-2627.690016072268
 21
-3260.800705102476
 31
0.0
  0
LINE
  5
205
330
1F
100
AcDbEntity
  8
0-7_金物
  6
Continuous
 62
     7
370
     9
100
AcDbLine
 10
-2621.690016072273
 20
-3260.800705102476
 30
0.0
 11
-2609.690016072257
 21
-3260.800705102476
 31
0.0
  0
LINE
  5
206
330
1F
100
AcDbEntity
  8
0-7_金物
  6
Continuous
 62
     7
370
     9
100
AcDbLine
 10
-2566.490016072269
 20
-3226.000705102478
 30
0.0
 11
-2602.490016072263
 21
-3226.000705102478
 31
0.0
  0
LINE
  5
207
330
1F
100
AcDbEntity
  8
0-7_金物
  6
Continuous
 62
     7
370
     9
100
AcDbLine
 10
-2718.890016072266
 20
-3226.000705102478
 30
0.0
 11
-2754.890016072261
 21
-3226.000705102478
 31
0.0
  0
LINE
  5
208
330
1F
100
AcDbEntity
  8
0-7_金物
  6
Continuous
 62
     7
370
     9
100
AcDbLine
 10
-2718.890016072266
 20
-3218.800705102477
 30
0.0
 11
-2754.890016072261
 21
-3222.400705102476
 31
0.0
  0
ARC
  5
209
330
1F
100
AcDbEntity
  8
0-7_金物
  6
Continuous
 62
     7
370
     9
100
AcDbCircle
 10
-2754.890016072261
 20
-3224.200705102479
 30
0.0
 40
1.8
100
AcDbArc
 50
90.0
 51
270.0
  0
ARC
  5
20A
330
1F
100
AcDbEntity
  8
0-7_金物
  6
Continuous
 62
     7
370
     9
100
AcDbCircle
 10
-2566.490016072269
 20
-3224.200705102479
 30
0.0
 40
1.8
100
AcDbArc
 50
270.0
 51
89.99999999999997
  0
LINE
  5
20B
330
1F
100
AcDbEntity
  8
0-7_金物
  6
Continuous
 62
     7
370
     9
100
AcDbLine
 10
-2566.490016072269
 20
-3222.400705102476
 30
0.0
 11
-2602.490016072263
 21
-3218.800705102477
 31
0.0
  0
LINE
  5
20C
330
1F
100
AcDbEntity
  8
0-7_金物
  6
Continuous
 62
     7
370
     9
100
AcDbLine
 10
-2697.290016072259
 20
-3218.800705102477
 30
0.0
 11
-2718.890016072266
 21
-3218.800705102477
 31
0.0
  0
ARC
  5
20D
330
1F
100
AcDbEntity
  8
0-7_金物
  6
Continuous
 62
     7
370
     9
100
AcDbCircle
 10
-2697.290016072259
 20
-3222.400705102476
 30
0.0
 40
3.600000000000001
100
AcDbArc
 50
0.0
 51
90.0
  0
ARC
  5
20E
330
1F
100
AcDbEntity
  8
0-7_金物
  6
Continuous
 62
     7
370
     9
100
AcDbCircle
 10
-2697.290016072259
 20
-3222.400705102476
 30
0.0
 40
3.600000000000001
100
AcDbArc
 50
270.0
 51
0.0
  0
ARC
  5
20F
330
1F
100
AcDbEntity
  8
0-7_金物
  6
Continuous
 62
     7
370
     9
100
AcDbCircle
 10
-2624.090016072271
 20
-3222.400705102476
 30
0.0
 40
3.600000000000001
100
AcDbArc
 50
180.0
 51
270.0
  0
LINE
  5
210
330
1F
100
AcDbEntity
  8
0-7_金物
  6
Continuous
 62
     7
370
     9
100
AcDbLine
 10
-2624.090016072271
 20
-3218.800705102477
 30
0.0
 11
-2602.490016072263
 21
-3218.800705102477
 31
0.0
  0
ARC
  5
211
330
1F
100
AcDbEntity
  8
0-7_金物
  6
Continuous
 62
     7
370
     9
100
AcDbCircle
 10
-2624.090016072271
 20
-3222.400705102476
 30
0.0
 40
3.600000000000001
100
AcDbArc
 50
90.0
 51
180.0
  0
LINE
  5
212
330
1F
100
AcDbEntity
  8
0-7_金物
  6
Continuous
 62
     7
370
     9
100
AcDbLine
 10
-2602.490016072263
 20
-3259.000705102477
 30
0.0
 11
-2602.490016072263
 21
-3226.000705102478
 31
0.0
  0
ARC
  5
213
330
1F
100
AcDbEntity
  8
0-7_金物
  6
Continuous
 62
     7
370
     9
100
AcDbCircle
 10
-2611.490016072269
 20
-3259.000705102477
 30
0.0
 40
9.000000000000002
100
AcDbArc
 50
270.0
 51
0.0
  0
LINE
  5
214
330
1F
100
AcDbEntity
  8
0-7_金物
  6
Continuous
 62
     7
370
     9
100
AcDbLine
 10
-2718.890016072266
 20
-3259.000705102477
 30
0.0
 11
-2718.890016072266
 21
-3226.000705102478
 31
0.0
  0
LINE
  5
215
330
1F
100
AcDbEntity
  8
0-7_金物
  6
Continuous
 62
     7
370
     9
100
AcDbLine
 10
-2709.890016072261
 20
-3268.000705102476
 30
0.0
 11
-2611.490016072269
 21
-3268.000705102476
 31
0.0
  0
ARC
  5
216
330
1F
100
AcDbEntity
  8
0-7_金物
  6
Continuous
 62
     7
370
     9
100
AcDbCircle
 10
-2709.890016072261
 20
-3259.000705102477
 30
0.0
 40
9.000000000000002
100
AcDbArc
 50
180.0
 51
270.0
  0
LINE
  5
217
330
1F
100
AcDbEntity
  8
0-7_金物
  6
Continuous
 62
     7
370
     9
100
AcDbLine
 10
-2708.690016072262
 20
-3226.000705102478
 30
0.0
 11
-2697.290016072259
 21
-3226.000705102478
 31
0.0
  0
LINE
  5
218
330
1F
100
AcDbEntity
  8
0-7_金物
  6
Continuous
 62
     7
370
     9
100
AcDbLine
 10
-2711.690016072273
 20
-3229.000705102477
 30
0.0
 11
-2711.690016072273
 21
-3260.800705102476
 31
0.0
  0
ARC
  5
219
330
1F
100
AcDbEntity
  8
0-7_金物
  6
Continuous
 62
     7
370
     9
100
AcDbCircle
 10
-2708.690016072262
 20
-3229.000705102477
 30
0.0
 40
3.0
100
AcDbArc
 50
90.0
 51
180.0
  0
LINE
  5
21A
330
1F
100
AcDbEntity
  8
0-7_金物
  6
Continuous
 62
     7
370
     9
100
AcDbLine
 10
-2612.690016072268
 20
-3226.000705102478
 30
0.0
 11
-2624.090016072271
 21
-3226.000705102478
 31
0.0
  0
LINE
  5
21B
330
1F
100
AcDbEntity
  8
0-7_金物
  6
Continuous
 62
     7
370
     9
100
AcDbLine
 10
-2609.690016072257
 20
-3229.000705102477
 30
0.0
 11
-2609.690016072257
 21
-3260.800705102476
 31
0.0
  0
ARC
  5
21C
330
1F
100
AcDbEntity
  8
0-7_金物
  6
Continuous
 62
     7
370
     9
100
AcDbCircle
 10
-2612.690016072268
 20
-3229.000705102477
 30
0.0
 40
3.0
100
AcDbArc
 50
0.0
 51
90.0
  0
LINE
  5
21D
330
1F
100
AcDbEntity
  8
0-7_金物
  6
Continuous
 62
     7
370
     9
100
AcDbLine
 10
-2699.690016072257
 20
-3256.000705102478
 30
0.0
 11
-2699.690016072257
 21
-3260.800705102476
 31
0.0
  0
ARC
  5
21E
330
1F
100
AcDbEntity
  8
0-7_金物
  6
Continuous
 62
     7
370
     9
100
AcDbCircle
 10
-2698.490016072258
 20
-3256.000705102478
 30
0.0
 40
1.2
100
AcDbArc
 50
90.0
 51
180.0
  0
LINE
  5
21F
330
1F
100
AcDbEntity
  8
0-7_金物
  6
Continuous
 62
     7
370
     9
100
AcDbLine
 10
-2694.890016072261
 20
-3254.800705102479
 30
0.0
 11
-2698.490016072258
 21
-3254.800705102479
 31
0.0
  0
LINE
  5
220
330
1F
100
AcDbEntity
  8
0-7_金物
  6
Continuous
 62
     7
370
     9
100
AcDbLine
 10
-2693.690016072262
 20
-3256.000705102478
 30
0.0
 11
-2693.690016072262
 21
-3260.800705102476
 31
0.0
  0
ARC
  5
221
330
1F
100
AcDbEntity
  8
0-7_金物
  6
Continuous
 62
     7
370
     9
100
AcDbCircle
 10
-2694.890016072261
 20
-3256.000705102478
 30
0.0
 40
1.2
100
AcDbArc
 50
0.0
 51
90.0
  0
LINE
  5
222
330
1F
100
AcDbEntity
  8
0-7_金物
  6
Continuous
 62
     7
370
     9
100
AcDbLine
 10
-2627.690016072268
 20
-3256.000705102478
 30
0.0
 11
-2627.690016072268
 21
-3260.800705102476
 31
0.0
  0
ARC
  5
223
330
1F
100
AcDbEntity
  8
0-7_金物
  6
Continuous
 62
     7
370
     9
100
AcDbCircle
 10
-2626.490016072269
 20
-3256.000705102478
 30
0.0
 40
1.2
100
AcDbArc
 50
90.0
 51
180.0
  0
LINE
  5
224
330
1F
100
AcDbEntity
  8
0-7_金物
  6
Continuous
 62
     7
370
     9
100
AcDbLine
 10
-2622.890016072272
 20
-3254.800705102479
 30
0.0
 11
-2626.490016072269
 21
-3254.800705102479
 31
0.0
  0
LINE
  5
225
330
1F
100
AcDbEntity
  8
0-7_金物
  6
Continuous
 62
     7
370
     9
100
AcDbLine
 10
-2621.690016072273
 20
-3256.000705102478
 30
0.0
 11
-2621.690016072273
 21
-3260.800705102476
 31
0.0
  0
ARC
  5
226
330
1F
100
AcDbEntity
  8
0-7_金物
  6
Continuous
 62
     7
370
     9
100
AcDbCircle
 10
-2622.890016072272
 20
-3256.000705102478
 30
0.0
 40
1.2
100
AcDbArc
 50
0.0
 51
90.0
  0
ARC
  5
227
330
1F
100
AcDbEntity
  8
0-7_金物
  6
JWW_DASHED1
 62
     7
370
     9
100
AcDbCircle
 10
-2754.890016072261
 20
-3224.200705102479
 30
0.0
 40
1.8
100
AcDbArc
 50
270.0
 51
90.0
  0
ARC
  5
228
330
1F
100
AcDbEntity
  8
0-7_金物
  6
JWW_DASHED1
 62
     7
370
     9
100
AcDbCircle
 10
-2566.490016072269
 20
-3224.200705102479
 30
0.0
 40
1.8
100
AcDbArc
 50
90.0
 51
270.0
  0
LINE
  5
229
330
1F
100
AcDbEntity
  8
0-B_寸法
  6
Continuous
 62
   120
370
     5
100
AcDbLine
 10
-3623.690016072262
 20
-249.853634039827
 30
0.0
 11
-2951.689970295895
 21
-249.853634039827
 31
0.0
  0
LINE
  5
22A
330
1F
100
AcDbEntity
  8
0-B_寸法
  6
Continuous
 62
   120
370
     5
100
AcDbLine
 10
-1499.690016072257
 20
-249.9995550206488
 30
0.0
 11
-2069.690016072257
 21
-249.9995550206488
 31
0.0
  0
LWPOLYLINE
  5
22B
330
1F
100
AcDbEntity
  8
0-B_寸法
  6
Continuous
 62
     7
370
     9
100
AcDbPolyline
 90
        4
 70
     1
 43
3.0
 10
-3622.190016072262
 20
-249.853634039827
 42
0.4142135623731
 10
-3623.690016072262
 20
-248.353634039827
 42
0.4142135623731
 10
-3625.190016072262
 20
-249.853634039827
 42
0.4142135623731
 10
-3623.690016072262
 20
-251.3536340398271
 42
0.4142135623731
  0
LINE
  5
22C
330
1F
100
AcDbEntity
  8
0-B_寸法
  6
Continuous
 62
   120
370
     5
100
AcDbLine
 10
-3623.690016072262
 20
-249.853634039827
 30
0.0
 11
-3623.690016072262
 21
-3297.999940820649
 31
0.0
  0
LWPOLYLINE
  5
22D
330
1F
100
AcDbEntity
  8
0-B_寸法
  6
Continuous
 62
     7
370
     9
100
AcDbPolyline
 90
        4
 70
     1
 43
3.0
 10
-1498.190016072257
 20
-249.9995550206488
 42
0.4142135623731
 10
-1499.690016072257
 20
-248.4995550206488
 42
0.4142135623731
 10
-1501.190016072257
 20
-249.9995550206488
 42
0.4142135623731
 10
-1499.690016072257
 20
-251.4995550206488
 42
0.4142135623731
  0
LINE
  5
22E
330
1F
100
AcDbEntity
  8
0-B_寸法
  6
Continuous
 62
   120
370
     5
100
AcDbLine
 10
-1499.690016072257
 20
-249.9995550206488
 30
0.0
 11
-1499.690016072257
 21
-3297.999941026771
 31
0.0
  0
LINE
  5
22F
330
1F
100
AcDbEntity
  8
0-B_寸法
  6
Continuous
 62
   120
370
     5
100
AcDbLine
 10
-2069.690016072257
 20
-297.9991294241532
 30
0.0
 11
-2069.690016072257
 21
-513.998946318683
 31
0.0
  0
LWPOLYLINE
  5
230
330
1F
100
AcDbEntity
  8
0-B_寸法
  6
Continuous
 62
     7
370
     9
100
AcDbPolyline
 90
        4
 70
     1
 43
3.0
 10
-2068.190016072257
 20
-297.9991294241532
 42
0.4142135623731
 10
-2069.690016072257
 20
-296.4991294241532
 42
0.4142135623731
 10
-2071.190016072257
 20
-297.9991294241532
 42
0.4142135623731
 10
-2069.690016072257
 20
-299.4991294241532
 42
0.4142135623731
  0
LWPOLYLINE
  5
231
330
1F
100
AcDbEntity
  8
0-B_寸法
  6
Continuous
 62
     7
370
     9
100
AcDbPolyline
 90
        4
 70
     1
 43
3.0
 10
-2068.190016072257
 20
-399.9991294241529
 42
0.4142135623731
 10
-2069.690016072257
 20
-398.4991294241529
 42
0.4142135623731
 10
-2071.190016072257
 20
-399.9991294241529
 42
0.4142135623731
 10
-2069.690016072257
 20
-401.499129424153
 42
0.4142135623731
  0
LWPOLYLINE
  5
232
330
1F
100
AcDbEntity
  8
0-B_寸法
  6
Continuous
 62
     7
370
     9
100
AcDbPolyline
 90
        4
 70
     1
 43
3.0
 10
-2068.190016072257
 20
-453.9991294241524
 42
0.4142135623731
 10
-2069.690016072257
 20
-452.4991294241524
 42
0.4142135623731
 10
-2071.190016072257
 20
-453.9991294241524
 42
0.4142135623731
 10
-2069.690016072257
 20
-455.4991294241524
 42
0.4142135623731
  0
LWPOLYLINE
  5
233
330
1F
100
AcDbEntity
  8
0-B_寸法
  6
Continuous
 62
     7
370
     9
100
AcDbPolyline
 90
        4
 70
     1
 43
3.0
 10
-2068.190016072257
 20
-513.998946318683
 42
0.4142135623731
 10
-2069.690016072257
 20
-512.498946318683
 42
0.4142135623731
 10
-2071.190016072257
 20
-513.998946318683
 42
0.4142135623731
 10
-2069.690016072257
 20
-515.4989463186831
 42
0.4142135623731
  0
LWPOLYLINE
  5
234
330
1F
100
AcDbEntity
  8
0-B_寸法
  6
Continuous
 62
     7
370
     9
100
AcDbPolyline
 90
        4
 70
     1
 43
3.0
 10
-2068.190016072257
 20
-345.9991294241522
 42
0.4142135623731
 10
-2069.690016072257
 20
-344.4991294241522
 42
0.4142135623731
 10
-2071.190016072257
 20
-345.9991294241522
 42
0.4142135623731
 10
-2069.690016072257
 20
-347.4991294241522
 42
0.4142135623731
  0
LINE
  5
235
330
1F
100
AcDbEntity
  8
0-B_寸法
  6
Continuous
 62
   120
370
     5
100
AcDbLine
 10
-2181.184316664087
 20
-453.9991294241524
 30
0.0
 11
-2201.690061848624
 21
-453.9991294241524
 31
0.0
  0
LINE
  5
236
330
1F
100
AcDbEntity
  8
0-B_寸法
  6
Continuous
 62
   120
370
     5
100
AcDbLine
 10
-2069.690016072257
 20
-453.9991294241524
 30
0.0
 11
-2082.222306194274
 21
-453.9991294241524
 31
0.0
  0
LINE
  5
237
330
1F
100
AcDbEntity
  8
0-B_寸法
  6
Continuous
 62
   120
370
     5
100
AcDbLine
 10
-2069.690016072257
 20
-399.9991294241529
 30
0.0
 11
-2201.690061848624
 21
-399.9991294241529
 31
0.0
  0
LINE
  5
238
330
1F
100
AcDbEntity
  8
0-B_寸法
  6
Continuous
 62
   120
370
     5
100
AcDbLine
 10
-2181.184316664087
 20
-345.9991294241522
 30
0.0
 11
-2201.690061848624
 21
-345.9991294241522
 31
0.0
  0
LINE
  5
239
330
1F
100
AcDbEntity
  8
0-B_寸法
  6
Continuous
 62
   120
370
     5
100
AcDbLine
 10
-2069.690016072257
 20
-345.9991294241522
 30
0.0
 11
-2082.222306194274
 21
-345.9991294241522
 31
0.0
  0
LINE
  5
23A
330
1F
100
AcDbEntity
  8
0-B_寸法
  6
Continuous
 62
   120
370
     5
100
AcDbLine
 10
-2201.690061848624
 20
-297.9995698670362
 30
0.0
 11
-1499.690016072257
 21
-297.9995698670362
 31
0.0
  0
LINE
  5
23B
330
1F
100
AcDbEntity
  8
0-B_寸法
  6
Continuous
 62
   120
370
     5
100
AcDbLine
 10
-2201.690061848624
 20
-513.998946318683
 30
0.0
 11
-1859.690016072257
 21
-513.998946318683
 31
0.0
  0
LINE
  5
23C
330
1F
100
AcDbEntity
  8
0-4_枠
  6
Continuous
 62
    92
370
    13
100
AcDbLine
 10
-2891.690016072273
 20
-513.9993719151794
 30
0.0
 11
-2744.690692346551
 21
-513.9993719151794
 31
0.0
  0
LINE
  5
23D
330
1F
100
AcDbEntity
  8
0-4_枠
  6
Continuous
 62
    92
370
    13
100
AcDbLine
 10
-2744.690692346551
 20
-513.9993719151794
 30
0.0
 11
-2744.690692346551
 21
-393.9989141515075
 31
0.0
  0
LINE
  5
23E
330
1F
100
AcDbEntity
  8
0-4_枠
  6
Continuous
 62
    92
370
    13
100
AcDbLine
 10
-2744.690692346551
 20
-393.9989141515075
 30
0.0
 11
-2576.690439503648
 21
-393.9989141515075
 31
0.0
  0
LINE
  5
23F
330
1F
100
AcDbEntity
  8
0-4_枠
  6
Continuous
 62
    92
370
    13
100
AcDbLine
 10
-2576.690439503648
 20
-393.9989141515075
 30
0.0
 11
-2576.690439503648
 21
-513.9993719151794
 31
0.0
  0
LINE
  5
240
330
1F
100
AcDbEntity
  8
0-7_金物
  6
Continuous
 62
     7
370
     9
100
AcDbLine
 10
-2726.869828503598
 20
-500.7871221593193
 30
0.0
 11
-2726.869828503598
 21
-434.7871221593201
 31
0.0
  0
LINE
  5
241
330
1F
100
AcDbEntity
  8
0-7_金物
  6
Continuous
 62
     7
370
     9
100
AcDbLine
 10
-2726.869828503598
 20
-434.7871221593201
 30
0.0
 11
-2690.690662663449
 21
-434.7871221593201
 31
0.0
  0
LINE
  5
242
330
1F
100
AcDbEntity
  8
0-7_金物
  6
Continuous
 62
     7
370
     9
100
AcDbLine
 10
-2690.690662663449
 20
-513.9993719151794
 30
0.0
 11
-2690.690662663449
 21
-417.9989141515086
 31
0.0
  0
LINE
  5
243
330
1F
100
AcDbEntity
  8
0-7_金物
  6
Continuous
 62
     7
370
     9
100
AcDbLine
 10
-2690.690662663449
 20
-417.9989141515086
 30
0.0
 11
-2630.688974659909
 21
-417.9989141515086
 31
0.0
  0
LINE
  5
244
330
1F
100
AcDbEntity
  8
0-7_金物
  6
Continuous
 62
     7
370
     9
100
AcDbLine
 10
-2630.688974659909
 20
-417.9989141515086
 30
0.0
 11
-2630.688974659909
 21
-513.9993719151794
 31
0.0
  0
LINE
  5
245
330
1F
100
AcDbEntity
  8
0-7_金物
  6
Continuous
 62
     7
370
     9
100
AcDbLine
 10
-2594.870580952622
 20
-434.7871221593201
 30
0.0
 11
-2594.870580952622
 21
-500.7871221593193
 31
0.0
  0
LINE
  5
246
330
1F
100
AcDbEntity
  8
0-7_金物
  6
Continuous
 62
     7
370
     9
100
AcDbLine
 10
-2630.688974659909
 20
-434.7871221593201
 30
0.0
 11
-2594.870580952622
 21
-434.7871221593201
 31
0.0
  0
LINE
  5
247
330
1F
100
AcDbEntity
  8
0-7_金物
  6
Continuous
 62
     7
370
     9
100
AcDbLine
 10
-2576.690439503648
 20
-513.9993719151794
 30
0.0
 11
-2558.6906683855
 21
-513.9993719151794
 31
0.0
  0
LINE
  5
248
330
1F
100
AcDbEntity
  8
0-7_金物
  6
Continuous
 62
     7
370
     9
100
AcDbLine
 10
-2595.694555561997
 20
-519.9994634679131
 30
0.0
 11
-2595.694555561997
 21
-513.9993719151794
 31
0.0
  0
LINE
  5
249
330
1F
100
AcDbEntity
  8
0-7_金物
  6
Continuous
 62
     7
370
     9
100
AcDbLine
 10
-2588.69077138231
 20
-513.9993719151794
 30
0.0
 11
-2595.694555561997
 21
-513.9993719151794
 31
0.0
  0
LINE
  5
24A
330
1F
100
AcDbEntity
  8
0-7_金物
  6
Continuous
 62
     7
370
     9
100
AcDbLine
 10
-2744.690692346551
 20
-513.9993719151794
 30
0.0
 11
-2762.688970368374
 21
-513.9993719151794
 31
0.0
  0
LINE
  5
24B
330
1F
100
AcDbEntity
  8
0-7_金物
  6
Continuous
 62
     7
370
     9
100
AcDbLine
 10
-2724.904168408377
 20
-519.9994634679131
 30
0.0
 11
-2724.904168408377
 21
-513.9993719151794
 31
0.0
  0
LINE
  5
24C
330
1F
100
AcDbEntity
  8
0-7_金物
  6
Continuous
 62
     7
370
     9
100
AcDbLine
 10
-2724.904168408377
 20
-513.9993719151794
 30
0.0
 11
-2732.691098969437
 21
-513.9993719151794
 31
0.0
  0
LINE
  5
24D
330
1F
100
AcDbEntity
  8
0-7_金物
  6
Continuous
 62
     7
370
     9
100
AcDbLine
 10
-2558.6906683855
 20
-513.9993719151794
 30
0.0
 11
-2558.6906683855
 21
-519.9994634679131
 31
0.0
  0
LINE
  5
24E
330
1F
100
AcDbEntity
  8
0-7_金物
  6
Continuous
 62
     7
370
     9
100
AcDbLine
 10
-2724.904168408377
 20
-519.9994634679131
 30
0.0
 11
-2762.688970368374
 21
-519.9994634679131
 31
0.0
  0
LINE
  5
24F
330
1F
100
AcDbEntity
  8
0-7_金物
  6
Continuous
 62
     7
370
     9
100
AcDbLine
 10
-2762.688970368374
 20
-513.9993719151794
 30
0.0
 11
-2762.688970368374
 21
-519.9994634679131
 31
0.0
  0
LINE
  5
250
330
1F
100
AcDbEntity
  8
0-7_金物
  6
Continuous
 62
     7
370
     9
100
AcDbLine
 10
-2648.690222065909
 20
-558.9994634679138
 30
0.0
 11
-2672.690902989382
 21
-558.9994634679138
 31
0.0
  0
LINE
  5
251
330
1F
100
AcDbEntity
  8
0-7_金物
  6
Continuous
 62
     7
370
     9
100
AcDbLine
 10
-2648.690222065909
 20
-513.9993719151794
 30
0.0
 11
-2648.690222065909
 21
-558.9994634679138
 31
0.0
  0
LINE
  5
252
330
1F
100
AcDbEntity
  8
0-7_金物
  6
Continuous
 62
     7
370
     9
100
AcDbLine
 10
-2672.690902989382
 20
-558.9994634679138
 30
0.0
 11
-2672.690902989382
 21
-513.9993719151794
 31
0.0
  0
LINE
  5
253
330
1F
100
AcDbEntity
  8
0-7_金物
  6
Continuous
 62
     7
370
     9
100
AcDbLine
 10
-2690.690662663449
 20
-500.7871221593193
 30
0.0
 11
-2726.869828503598
 21
-500.7871221593193
 31
0.0
  0
LINE
  5
254
330
1F
100
AcDbEntity
  8
0-7_金物
  6
Continuous
 62
     7
370
     9
100
AcDbLine
 10
-2594.870580952622
 20
-500.7871221593193
 30
0.0
 11
-2630.688974659909
 21
-500.7871221593193
 31
0.0
  0
LINE
  5
255
330
1F
100
AcDbEntity
  8
0-7_金物
  6
Continuous
 62
     7
370
     9
100
AcDbLine
 10
-2630.688974659909
 20
-513.9993719151794
 30
0.0
 11
-2690.690662663449
 21
-513.9993719151794
 31
0.0
  0
LINE
  5
256
330
1F
100
AcDbEntity
  8
0-7_金物
  6
Continuous
 62
     7
370
     9
100
AcDbLine
 10
-2595.694555561997
 20
-519.9994634679131
 30
0.0
 11
-2558.6906683855
 21
-519.9994634679131
 31
0.0
  0
LINE
  5
257
330
1F
100
AcDbEntity
  8
0-4_枠
  6
Continuous
 62
    92
370
    13
100
AcDbLine
 10
-2891.690016072273
 20
-297.9995550206482
 30
0.0
 11
-2471.690016072273
 21
-297.9995550206482
 31
0.0
  0
LINE
  5
258
330
1F
100
AcDbEntity
  8
0-4_枠
  6
Continuous
 62
    92
370
    13
100
AcDbLine
 10
-2429.690016072257
 20
-513.9993719151794
 30
0.0
 11
-2576.690439503648
 21
-513.9993719151794
 31
0.0
  0
LINE
  5
259
330
1F
100
AcDbEntity
  8
0-B_寸法
  6
Continuous
 62
   120
370
     5
100
AcDbLine
 10
-2429.690016072257
 20
-809.4818943247847
 30
0.0
 11
-2891.690016072273
 21
-809.4818943247847
 31
0.0
  0
LWPOLYLINE
  5
25A
330
1F
100
AcDbEntity
  8
0-B_寸法
  6
Continuous
 62
     7
370
     9
100
AcDbPolyline
 90
        4
 70
     1
 43
3.0
 10
-2890.190016072273
 20
-809.4818943247847
 42
0.4142135623731
 10
-2891.690016072273
 20
-807.9818943247847
 42
0.4142135623731
 10
-2893.190016072273
 20
-809.4818943247847
 42
0.4142135623731
 10
-2891.690016072273
 20
-810.9818943247848
 42
0.4142135623731
  0
LINE
  5
25B
330
1F
100
AcDbEntity
  8
0-B_寸法
  6
Continuous
 62
   120
370
     5
100
AcDbLine
 10
-2891.690016072273
 20
-809.4818943247847
 30
0.0
 11
-2891.690016072273
 21
-655.7709469028887
 31
0.0
  0
LWPOLYLINE
  5
25C
330
1F
100
AcDbEntity
  8
0-B_寸法
  6
Continuous
 62
     7
370
     9
100
AcDbPolyline
 90
        4
 70
     1
 43
3.0
 10
-2428.190016072257
 20
-809.4818943247847
 42
0.4142135623731
 10
-2429.690016072257
 20
-807.9818943247847
 42
0.4142135623731
 10
-2431.190016072257
 20
-809.4818943247847
 42
0.4142135623731
 10
-2429.690016072257
 20
-810.9818943247848
 42
0.4142135623731
  0
LINE
  5
25D
330
1F
100
AcDbEntity
  8
0-B_寸法
  6
Continuous
 62
   120
370
     5
100
AcDbLine
 10
-2429.690016072257
 20
-809.4818943247847
 30
0.0
 11
-2429.690016072257
 21
-655.7709469028887
 31
0.0
  0
LINE
  5
25E
330
1F
100
AcDbEntity
  8
0-7_金物
  6
Continuous
 62
     7
370
     9
100
AcDbLine
 10
-2588.69077138231
 20
-513.9993719151794
 30
0.0
 11
-2588.69077138231
 21
-405.9992803624451
 31
0.0
  0
LINE
  5
25F
330
1F
100
AcDbEntity
  8
0-7_金物
  6
Continuous
 62
     7
370
     9
100
AcDbLine
 10
-2576.69043950433
 20
-513.9993719151794
 30
0.0
 11
-2576.69043950433
 21
-393.9989141524445
 31
0.0
  0
LINE
  5
260
330
1F
100
AcDbEntity
  8
0-7_金物
  6
Continuous
 62
     7
370
     9
100
AcDbLine
 10
-2732.691098969437
 20
-513.9993719151794
 30
0.0
 11
-2732.691098969437
 21
-405.9992803624451
 31
0.0
  0
LINE
  5
261
330
1F
100
AcDbEntity
  8
0-7_金物
  6
Continuous
 62
     7
370
     9
100
AcDbLine
 10
-2744.691430847445
 20
-513.9993719151794
 30
0.0
 11
-2744.691430847445
 21
-393.9989141524445
 31
0.0
  0
LINE
  5
262
330
1F
100
AcDbEntity
  8
0-7_金物
  6
Continuous
 62
     7
370
     9
100
AcDbLine
 10
-2588.69077138231
 20
-405.9992803624451
 30
0.0
 11
-2732.691098969437
 21
-405.9992803624451
 31
0.0
  0
LINE
  5
263
330
1F
100
AcDbEntity
  8
0-7_金物
  6
Continuous
 62
     7
370
     9
100
AcDbLine
 10
-2576.69043950433
 20
-393.9989141524445
 30
0.0
 11
-2744.691430847445
 21
-393.9989141524445
 31
0.0
  0
LINE
  5
264
330
1F
100
AcDbEntity
  8
0-7_金物
  6
Continuous
 62
     7
370
     9
100
AcDbLine
 10
-2570.689712803835
 20
-261.8539716405364
 30
0.0
 11
-2750.689575474728
 21
-261.8539716405364
 31
0.0
  0
LINE
  5
265
330
1F
100
AcDbEntity
  8
0-7_金物
  6
Continuous
 62
     7
370
     9
100
AcDbLine
 10
-2750.689575474728
 20
-249.853634039827
 30
0.0
 11
-2750.689575474728
 21
-261.8539716405364
 31
0.0
  0
LINE
  5
266
330
1F
100
AcDbEntity
  8
0-7_金物
  6
Continuous
 62
     7
370
     9
100
AcDbLine
 10
-2570.689712803835
 20
-249.853634039827
 30
0.0
 11
-2570.689712803835
 21
-261.8539716405364
 31
0.0
  0
LINE
  5
267
330
1F
100
AcDbEntity
  8
0-7_金物
  6
Continuous
 62
     7
370
     9
100
AcDbLine
 10
-2570.689712803835
 20
-249.853634039827
 30
0.0
 11
-2750.689575474728
 21
-249.853634039827
 31
0.0
  0
LINE
  5
268
330
1F
100
AcDbEntity
  8
0-7_金物
  6
Continuous
 62
     7
370
     9
100
AcDbLine
 10
-2600.689815800645
 20
-261.8539716405364
 30
0.0
 11
-2600.689815800645
 21
-273.853565375276
 31
0.0
  0
LINE
  5
269
330
1F
100
AcDbEntity
  8
0-7_金物
  6
Continuous
 62
     7
370
     9
100
AcDbLine
 10
-2720.689472477891
 20
-261.8539716405364
 30
0.0
 11
-2720.689472477891
 21
-273.853565375276
 31
0.0
  0
LINE
  5
26A
330
1F
100
AcDbEntity
  8
0-7_金物
  6
Continuous
 62
     7
370
     9
100
AcDbLine
 10
-2600.689815800645
 20
-273.853565375276
 30
0.0
 11
-2720.689472477891
 21
-273.853565375276
 31
0.0
  0
LINE
  5
26B
330
1F
100
AcDbEntity
  8
0-7_金物
  6
Continuous
 62
     7
370
     9
100
AcDbLine
 10
-2606.689981739976
 20
-273.853565375276
 30
0.0
 11
-2606.689981739976
 21
-297.9995550206529
 31
0.0
  0
LINE
  5
26C
330
1F
100
AcDbEntity
  8
0-7_金物
  6
Continuous
 62
     7
370
     9
100
AcDbLine
 10
-2714.690050404527
 20
-297.9995550206529
 30
0.0
 11
-2714.690050404527
 21
-273.853565375276
 31
0.0
  0
LINE
  5
26D
330
1F
100
AcDbEntity
  8
0-4_枠
  6
Continuous
 62
    92
370
    13
100
AcDbLine
 10
-2471.690016072273
 20
-297.9995550206482
 30
0.0
 11
-2471.690016072273
 21
-345.9995550206489
 31
0.0
  0
LINE
  5
26E
330
1F
100
AcDbEntity
  8
0-4_枠
  6
Continuous
 62
    92
370
    13
100
AcDbLine
 10
-2429.690016072257
 20
-345.9995550206489
 30
0.0
 11
-2471.690016072273
 21
-345.9995550206489
 31
0.0
  0
LINE
  5
26F
330
1F
100
AcDbEntity
  8
0-4_枠
  6
Continuous
 62
    92
370
    13
100
AcDbLine
 10
-2429.690016072257
 20
-345.9995550206489
 30
0.0
 11
-2429.690016072257
 21
-399.9995550206479
 31
0.0
  0
LINE
  5
270
330
1F
100
AcDbEntity
  8
0-4_枠
  6
Continuous
 62
    92
370
    13
100
AcDbLine
 10
-2429.690016072257
 20
-399.9995550206479
 30
0.0
 11
-2489.690016072257
 21
-399.9995550206479
 31
0.0
  0
LINE
  5
271
330
1F
100
AcDbEntity
  8
0-4_枠
  6
Continuous
 62
    92
370
    13
100
AcDbLine
 10
-2489.690016072257
 20
-399.9995550206479
 30
0.0
 11
-2489.690016072257
 21
-453.9995550206474
 31
0.0
  0
LINE
  5
272
330
1F
100
AcDbEntity
  8
0-4_枠
  6
Continuous
 62
    92
370
    13
100
AcDbLine
 10
-2429.690016072257
 20
-453.9995550206474
 30
0.0
 11
-2489.690016072257
 21
-453.9995550206474
 31
0.0
  0
LINE
  5
273
330
1F
100
AcDbEntity
  8
0-C_ハッチ
  6
Continuous
 62
   120
370
     5
100
AcDbLine
 10
-2432.790209866746
 20
-513.9993719151887
 30
0.0
 11
-2429.690016072257
 21
-510.8991781207024
 31
0.0
  0
LINE
  5
274
330
1F
100
AcDbEntity
  8
0-C_ハッチ
  6
Continuous
 62
   120
370
     5
100
AcDbLine
 10
-2492.187179486366
 20
-513.9993719151682
 30
0.0
 11
-2432.187362591851
 21
-453.9995550206397
 31
0.0
  0
LINE
  5
275
330
1F
100
AcDbEntity
  8
0-C_ハッチ
  6
Continuous
 62
   120
370
     5
100
AcDbLine
 10
-2551.584149106095
 20
-513.9993719151848
 30
0.0
 11
-2489.690016072257
 21
-452.1052388813682
 31
0.0
  0
LINE
  5
276
330
1F
100
AcDbEntity
  8
0-C_ハッチ
  6
Continuous
 62
   120
370
     5
100
AcDbLine
 10
-2437.584332211547
 20
-399.9995550206479
 30
0.0
 11
-2429.690016072257
 21
-392.1052388813601
 31
0.0
  0
LINE
  5
277
330
1F
100
AcDbEntity
  8
0-C_ハッチ
  6
Continuous
 62
   120
370
     5
100
AcDbLine
 10
-2576.690439503648
 20
-479.7086926931107
 30
0.0
 11
-2442.981301831189
 21
-345.9995550206489
 31
0.0
  0
LINE
  5
278
330
1F
100
AcDbEntity
  8
0-C_ハッチ
  6
Continuous
 62
   120
370
     5
100
AcDbLine
 10
-2576.690439503648
 20
-420.3117230734088
 30
0.0
 11
-2471.690016072273
 21
-315.3112996420103
 31
0.0
  0
LINE
  5
279
330
1F
100
AcDbEntity
  8
0-C_ハッチ
  6
Continuous
 62
   120
370
     5
100
AcDbLine
 10
-2609.77460020142
 20
-393.9989141515168
 30
0.0
 11
-2513.775241070555
 21
-297.999555020655
 31
0.0
  0
LINE
  5
27A
330
1F
100
AcDbEntity
  8
0-C_ハッチ
  6
Continuous
 62
   120
370
     5
100
AcDbLine
 10
-2789.172027584711
 20
-513.999371915176
 30
0.0
 11
-2744.691430847445
 21
-469.5187751779113
 31
0.0
  0
LINE
  5
27B
330
1F
100
AcDbEntity
  8
0-C_ハッチ
  6
Continuous
 62
   120
370
     5
100
AcDbLine
 10
-2669.17156982104
 20
-393.9989141515007
 30
0.0
 11
-2573.172210690202
 21
-297.9995550206529
 31
0.0
  0
LINE
  5
27C
330
1F
100
AcDbEntity
  8
0-C_ハッチ
  6
Continuous
 62
   120
370
     5
100
AcDbLine
 10
-2848.568997204441
 20
-513.9993719151828
 30
0.0
 11
-2744.691430847445
 21
-410.1218055581937
 31
0.0
  0
LINE
  5
27D
330
1F
100
AcDbEntity
  8
0-C_ハッチ
  6
Continuous
 62
   120
370
     5
100
AcDbLine
 10
-2728.568539440769
 20
-393.9989141515168
 30
0.0
 11
-2632.569180309904
 21
-297.9995550206482
 31
0.0
  0
LINE
  5
27E
330
1F
100
AcDbEntity
  8
0-C_ハッチ
  6
Continuous
 62
   120
370
     5
100
AcDbLine
 10
-2891.690016072273
 20
-497.7234211633713
 30
0.0
 11
-2691.966149929551
 21
-297.9995550206499
 31
0.0
  0
LINE
  5
27F
330
1F
100
AcDbEntity
  8
0-C_ハッチ
  6
Continuous
 62
   120
370
     5
100
AcDbLine
 10
-2891.690016072246
 20
-438.3264515436583
 30
0.0
 11
-2751.363119549253
 21
-297.9995550206499
 31
0.0
  0
LINE
  5
280
330
1F
100
AcDbEntity
  8
0-C_ハッチ
  6
Continuous
 62
   120
370
     5
100
AcDbLine
 10
-2891.690016072273
 20
-378.9294819240247
 30
0.0
 11
-2810.7600891689
 21
-297.9995550206448
 31
0.0
  0
LINE
  5
281
330
1F
100
AcDbEntity
  8
0-C_ハッチ
  6
Continuous
 62
   120
370
     5
100
AcDbLine
 10
-2891.690016072273
 20
-319.532512304319
 30
0.0
 11
-2870.157058788602
 21
-297.9995550206461
 31
0.0
  0
LINE
  5
282
330
1F
100
AcDbEntity
  8
0-0_補助線
  6
JWW_HOJO
 62
   120
370
     5
100
AcDbLine
 10
-2890.375784094633
 20
-1797.999673791763
 30
0.0
 11
-2431.004248049869
 21
-1797.999673791763
 31
0.0
  0
LINE
  5
283
330
1F
100
AcDbEntity
  8
0-0_補助線
  6
JWW_HOJO
 62
   120
370
     5
100
AcDbLine
 10
-2890.375784094633
 20
-1917.999673791763
 30
0.0
 11
-2431.004248049869
 21
-1917.999673791763
 31
0.0
  0
MTEXT
  5
284
330
1F
100
AcDbEntity
  8
0-B_寸法
  6
Continuous
 62
     7
370
   211
100
AcDbMText
 10
-3638.690016072262
 20
-2178.2067875333
 30
0.0
 40
91.43999999999981
 41
779.9999999999983
 46
0.0
 71
     7
 72
     1
  1
{\fＭＳ ゴシック|b0|i0|c128|p49;ＲＯＨ＝2,055}
 11
6.123031769111886E-17
 21
1.0
 31
0.0
 73
     1
 44
1.0
  0
MTEXT
  5
285
330
1F
100
AcDbEntity
  8
0-B_寸法
  6
Continuous
 62
     7
370
     0
100
AcDbMText
 10
-1874.689323240756
 20
-2211.279277888046
 30
0.0
 40
91.44000000000014
 41
660.0000000000009
 46
0.0
 71
     7
 72
     1
  1
{\fＭＳ ゴシック|b0|i0|c128|p49;ＤＨ＝1,983}
 11
6.123031769111886E-17
 21
1.0
 31
0.0
 73
     1
 44
1.0
  0
MTEXT
  5
286
330
1F
100
AcDbEntity
  8
0-B_寸法
  6
Continuous
 62
     7
370
     0
100
AcDbMText
 10
-1694.689323240756
 20
-2211.279277888046
 30
0.0
 40
91.44000000000014
 41
660.0000000000009
 46
0.0
 71
     7
 72
     1
  1
{\fＭＳ ゴシック|b0|i0|c128|p49;枠内＝1,999}
 11
6.123031769111886E-17
 21
1.0
 31
0.0
 73
     1
 44
1.0
  0
MTEXT
  5
287
330
1F
100
AcDbEntity
  8
0-B_寸法
  6
Continuous
 62
     7
370
     0
100
AcDbMText
 10
-1514.690807879707
 20
-2211.279277888046
 30
0.0
 40
91.44000000000014
 41
660.0000000000009
 46
0.0
 71
     7
 72
     1
  1
{\fＭＳ ゴシック|b0|i0|c128|p49;枠外＝2,047}
 11
6.123031769111886E-17
 21
1.0
 31
0.0
 73
     1
 44
1.0
  0
MTEXT
  5
288
330
1F
100
AcDbEntity
  8
0-A_文字
  6
Continuous
 62
     7
370
   211
100
AcDbMText
 10
-2780.690572950125
 20
-1324.49590993863
 30
0.0
 40
91.43999999999966
 41
239.9999999999991
 46
0.0
 71
     7
 72
     1
  1
{\fＭＳ ゴシック|b0|i0|c128|p49;(24)}
 73
     1
 44
1.0
  0
MTEXT
  5
289
330
1F
100
AcDbEntity
  8
0-A_文字
  6
Continuous
 62
     7
370
     0
100
AcDbMText
 10
-2659.062487772968
 20
-3666.908540317303
 30
0.0
 40
68.58000000000003
 41
1350.0
 46
0.0
 71
     7
 72
     1
  1
{\fＭＳ ゴシック|b0|i0|c128|p49;※扉厚（　）内はルーバーの場合}
 73
     1
 44
1.0
  0
LINE
  5
28A
330
1F
100
AcDbEntity
  8
0-3_仕上げ
  6
Continuous
 62
    40
370
    15
100
AcDbLine
 10
-2396.690016072273
 20
-345.9995550206489
 30
0.0
 11
-2471.690016072273
 21
-345.9995550206489
 31
0.0
  0
LINE
  5
28B
330
1F
100
AcDbEntity
  8
0-3_仕上げ
  6
Continuous
 62
   120
370
     5
100
AcDbLine
 10
-2471.690016072273
 20
-117.8536340398277
 30
0.0
 11
-2471.690016072273
 21
-297.8536340398277
 31
0.0
  0
LINE
  5
28C
330
1F
100
AcDbEntity
  8
0-C_ハッチ
  6
JWW_DASHED1
 62
   120
370
     5
100
AcDbLine
 10
-2422.61896832528
 20
-345.9995550206506
 30
0.0
 11
-2396.690016072273
 21
-320.0706027676452
 31
0.0
  0
LINE
  5
28D
330
1F
100
AcDbEntity
  8
0-C_ハッチ
  6
JWW_DASHED1
 62
   120
370
     5
100
AcDbLine
 10
-2465.04537519648
 20
-345.9995550206489
 30
0.0
 11
-2396.690016072273
 21
-277.6441958964486
 31
0.0
  0
LINE
  5
28E
330
1F
100
AcDbEntity
  8
0-C_ハッチ
  6
JWW_DASHED1
 62
   120
370
     5
100
AcDbLine
 10
-2471.690016072273
 20
-310.2177890252486
 30
0.0
 11
-2396.690016072273
 21
-235.217789025252
 31
0.0
  0
LINE
  5
28F
330
1F
100
AcDbEntity
  8
0-C_ハッチ
  6
JWW_DASHED1
 62
   120
370
     5
100
AcDbLine
 10
-2471.690016072273
 20
-267.791382154052
 30
0.0
 11
-2396.690016072273
 21
-192.7913821540396
 31
0.0
  0
LINE
  5
290
330
1F
100
AcDbEntity
  8
0-C_ハッチ
  6
JWW_DASHED1
 62
   120
370
     5
100
AcDbLine
 10
-2471.690016072273
 20
-225.3649752828554
 30
0.0
 11
-2396.690016072273
 21
-150.3649752828434
 31
0.0
  0
LINE
  5
291
330
1F
100
AcDbEntity
  8
0-C_ハッチ
  6
JWW_DASHED1
 62
   120
370
     5
100
AcDbLine
 10
-2471.690016072246
 20
-182.9385684116895
 30
0.0
 11
-2396.690016072273
 21
-107.9385684116963
 31
0.0
  0
LINE
  5
292
330
1F
100
AcDbEntity
  8
0-C_ハッチ
  6
JWW_DASHED1
 62
   120
370
     5
100
AcDbLine
 10
-2471.690016072273
 20
-140.5121615404941
 30
0.0
 11
-2396.690016072273
 21
-65.51216154049968
 31
0.0
  0
LINE
  5
293
330
1F
100
AcDbEntity
  8
0-3_仕上げ
  6
Continuous
 62
   120
370
     5
100
AcDbLine
 10
-2891.690016072273
 20
-69.85363403982703
 30
0.0
 11
-2471.690016072273
 21
-69.85363403982703
 31
0.0
  0
LINE
  5
294
330
1F
100
AcDbEntity
  8
0-3_仕上げ
  6
Continuous
 62
   120
370
     5
100
AcDbLine
 10
-2891.690016072273
 20
-249.853634039827
 30
0.0
 11
-2891.690016072273
 21
-69.85363403982703
 31
0.0
  0
LINE
  5
295
330
1F
100
AcDbEntity
  8
0-3_仕上げ
  6
Continuous
 62
   120
370
     5
100
AcDbLine
 10
-2471.690016072273
 20
-249.853634039827
 30
0.0
 11
-2891.690016072273
 21
-249.853634039827
 31
0.0
  0
LINE
  5
296
330
1F
100
AcDbEntity
  8
0-3_仕上げ
  6
Continuous
 62
   120
370
     5
100
AcDbLine
 10
-2891.690016072273
 20
-249.853634039827
 30
0.0
 11
-2471.690016072273
 21
-69.85363403982703
 31
0.0
  0
LINE
  5
297
330
1F
100
AcDbEntity
  8
0-3_仕上げ
  6
Continuous
 62
    40
370
    15
100
AcDbLine
 10
-2396.690016072273
 20
-345.9995550206489
 30
0.0
 11
-2396.690016072273
 21
2.00007402574073
 31
0.0
  0
LINE
  5
298
330
1F
100
AcDbEntity
  8
0-3_仕上げ
  6
Continuous
 62
    40
370
    15
100
AcDbLine
 10
-2471.690016072273
 20
-345.9995550206489
 30
0.0
 11
-2471.690016072273
 21
2.00007402574073
 31
0.0
  0
LINE
  5
299
330
1F
100
AcDbEntity
  8
0-C_ハッチ
  6
JWW_DASHED1
 62
   120
370
     5
100
AcDbLine
 10
-2471.690016072246
 20
-98.08575466929284
 30
0.0
 11
-2396.690016072273
 21
-23.08575466929113
 31
0.0
  0
LINE
  5
29A
330
1F
100
AcDbEntity
  8
0-C_ハッチ
  6
JWW_DASHED1
 62
   120
370
     5
100
AcDbLine
 10
-2471.690016072273
 20
-55.6593477980941
 30
0.0
 11
-2414.030594248404
 21
2.00007402574073
 31
0.0
  0
LINE
  5
29B
330
1F
100
AcDbEntity
  8
0-4_枠
  6
Continuous
 62
    92
370
    13
100
AcDbLine
 10
-2891.690016072273
 20
-297.9995550206482
 30
0.0
 11
-2891.690016072273
 21
-1797.999673791763
 31
0.0
  0
LINE
  5
29C
330
1F
100
AcDbEntity
  8
0-4_枠
  6
Continuous
 62
    92
370
    13
100
AcDbLine
 10
-2891.690016072273
 20
-1917.999673791763
 30
0.0
 11
-2891.690016072273
 21
-3226.000334096354
 31
0.0
  0
LINE
  5
29D
330
1F
100
AcDbEntity
  8
0-4_枠
  6
Continuous
 62
    92
370
    13
100
AcDbLine
 10
-2429.690016072257
 20
-3225.999592136622
 30
0.0
 11
-2429.690016072257
 21
-1917.999673791763
 31
0.0
  0
LINE
  5
29E
330
1F
100
AcDbEntity
  8
0-4_枠
  6
Continuous
 62
    92
370
    13
100
AcDbLine
 10
-2429.690016072257
 20
-1797.999673791763
 30
0.0
 11
-2429.690016072257
 21
-453.9995550206474
 31
0.0
  0
LINE
  5
29F
330
1F
100
AcDbEntity
  8
0-A_文字
  6
JWW_HOJO
 62
   120
370
     5
100
AcDbLine
 10
-2659.062487772968
 20
-3656.198540317304
 30
0.0
 11
-249.5386782491576
 21
-3656.198540317304
 31
0.0
  0
LINE
  5
2A0
330
1F
100
AcDbEntity
  8
1-E
  6
JWW_DASHED1
 62
   120
370
     5
100
AcDbLine
 10
822.3812430252394
 20
-2857.680265755126
 30
0.0
 11
897.3812430252394
 21
-2782.680265755127
 31
0.0
  0
LINE
  5
2A1
330
1F
100
AcDbEntity
  8
1-E
  6
JWW_DASHED1
 62
   120
370
     5
100
AcDbLine
 10
779.9548361540394
 20
-2857.680265755123
 30
0.0
 11
854.9548361540394
 21
-2782.680265755126
 31
0.0
  0
LINE
  5
2A2
330
1F
100
AcDbEntity
  8
1-E
  6
JWW_DASHED1
 62
   120
370
     5
100
AcDbLine
 10
737.5284292828394
 20
-2857.68026575512
 30
0.0
 11
812.5284292828394
 21
-2782.680265755123
 31
0.0
  0
LINE
  5
2A3
330
1F
100
AcDbEntity
  8
1-E
  6
JWW_DASHED1
 62
   120
370
     5
100
AcDbLine
 10
695.102022411694
 20
-2857.680265755127
 30
0.0
 11
770.1020224117076
 21
-2782.680265755113
 31
0.0
  0
LINE
  5
2A4
330
1F
100
AcDbEntity
  8
1-E
  6
JWW_DASHED1
 62
   120
370
     5
100
AcDbLine
 10
652.6756155404803
 20
-2857.680265755134
 30
0.0
 11
727.6756155404939
 21
-2782.680265755123
 31
0.0
  0
LINE
  5
2A5
330
1F
100
AcDbEntity
  8
1-E
  6
JWW_DASHED1
 62
   120
370
     5
100
AcDbLine
 10
610.2492086692941
 20
-2857.680265755133
 30
0.0
 11
685.2492086692939
 21
-2782.68026575512
 31
0.0
  0
LINE
  5
2A6
330
1F
100
AcDbEntity
  8
1-E
  6
JWW_DASHED1
 62
   120
370
     5
100
AcDbLine
 10
567.8228017980805
 20
-2857.680265755134
 30
0.0
 11
642.8228017980803
 21
-2782.68026575514
 31
0.0
  0
LINE
  5
2A7
330
1F
100
AcDbEntity
  8
1-E
  6
JWW_DASHED1
 62
   120
370
     5
100
AcDbLine
 10
525.3963949268941
 20
-2857.680265755133
 30
0.0
 11
600.3963949268805
 21
-2782.680265755137
 31
0.0
  0
LINE
  5
2A8
330
1F
100
AcDbEntity
  8
1-E
  6
JWW_DASHED1
 62
   120
370
     5
100
AcDbLine
 10
482.9699880556941
 20
-2857.680265755127
 30
0.0
 11
557.9699880556805
 21
-2782.680265755133
 31
0.0
  0
LINE
  5
2A9
330
1F
100
AcDbEntity
  8
1-E
  6
JWW_DASHED1
 62
   120
370
     5
100
AcDbLine
 10
440.5435811844941
 20
-2857.680265755127
 30
0.0
 11
515.5435811844941
 21
-2782.68026575513
 31
0.0
  0
LINE
  5
2AA
330
1F
100
AcDbEntity
  8
1-E
  6
JWW_DASHED1
 62
   120
370
     5
100
AcDbLine
 10
398.1171743133486
 20
-2857.680265755119
 30
0.0
 11
473.1171743133486
 21
-2782.680265755123
 31
0.0
  0
LINE
  5
2AB
330
1F
100
AcDbEntity
  8
1-E
  6
Continuous
 62
    40
370
    15
100
AcDbLine
 10
269.5868264198466
 20
-2857.680265755133
 30
0.0
 11
269.5868264198466
 21
-2782.68026575513
 31
0.0
  0
LINE
  5
2AC
330
1F
100
AcDbEntity
  8
1-E
  6
JWW_DASHED1
 62
   120
370
     5
100
AcDbLine
 10
355.6907674421486
 20
-2857.680265755133
 30
0.0
 11
430.6907674421486
 21
-2782.68026575512
 31
0.0
  0
LINE
  5
2AD
330
1F
100
AcDbEntity
  8
1-E
  6
JWW_DASHED1
 62
   120
370
     5
100
AcDbLine
 10
313.2643605709486
 20
-2857.68026575513
 30
0.0
 11
388.2643605709486
 21
-2782.68026575512
 31
0.0
  0
LINE
  5
2AE
330
1F
100
AcDbEntity
  8
1-E
  6
JWW_DASHED1
 62
   120
370
     5
100
AcDbLine
 10
270.837953699735
 20
-2857.680265755141
 30
0.0
 11
345.8379536997486
 21
-2782.68026575513
 31
0.0
  0
LINE
  5
2AF
330
1F
100
AcDbEntity
  8
1-E
  6
JWW_DASHED1
 62
   120
370
     5
100
AcDbLine
 10
269.5868264198466
 20
-2816.504986163822
 30
0.0
 11
303.4115468285349
 21
-2782.680265755141
 31
0.0
  0
MTEXT
  5
2B0
330
1F
100
AcDbEntity
  8
1-E
  6
Continuous
 62
     7
370
     0
100
AcDbMText
 10
-586.6953713228197
 20
36.08525395679265
 30
0.0
 40
91.43999999999997
 41
1440.0
 46
0.0
 71
     7
 72
     1
  1
{\fＭＳ ゴシック|b0|i0|c128|p49;竪枠下端形状図（S＝1/3）}
 73
     1
 44
1.0
  0
LINE
  5
2B1
330
1F
100
AcDbEntity
  8
1-E
  6
Continuous
 62
    92
370
    13
100
AcDbLine
 10
1126.13930951247
 20
200.365253956793
 30
0.0
 11
3111.808671183048
 21
200.365253956793
 31
0.0
  0
LINE
  5
2B2
330
1F
100
AcDbEntity
  8
1-E
  6
Continuous
 62
    92
370
    13
100
AcDbLine
 10
1126.13930951247
 20
20.36525395679128
 30
0.0
 11
3111.808671183048
 21
20.36525395679128
 31
0.0
  0
LINE
  5
2B3
330
1F
100
AcDbEntity
  8
1-E
  6
Continuous
 62
    92
370
    13
100
AcDbLine
 10
-859.5300521581113
 20
20.36525395679298
 30
0.0
 11
1126.13930951247
 21
20.36525395679298
 31
0.0
  0
LINE
  5
2B4
330
1F
100
AcDbEntity
  8
1-E
  6
Continuous
 62
    92
370
    13
100
AcDbLine
 10
-859.5300521581113
 20
200.365253956793
 30
0.0
 11
1126.13930951247
 21
200.365253956793
 31
0.0
  0
MTEXT
  5
2B5
330
1F
100
AcDbEntity
  8
1-E
  6
Continuous
 62
     7
370
     9
100
AcDbMText
 10
1458.97399034776
 20
36.08525395679096
 30
0.0
 40
91.44
 41
1320.0
 46
0.0
 71
     7
 72
     1
  1
{\fＭＳ ゴシック|b0|i0|c128|p49;レール拡大図（S＝1/2）}
 73
     1
 44
1.0
  0
LINE
  5
2B6
330
1F
100
AcDbEntity
  8
1-E
  6
Continuous
 62
    92
370
    13
100
AcDbLine
 10
-859.5300521581113
 20
200.365253956793
 30
0.0
 11
-859.5300521581113
 21
-3404.565202715166
 31
0.0
  0
LINE
  5
2B7
330
1F
100
AcDbEntity
  8
1-E
  6
Continuous
 62
    92
370
    13
100
AcDbLine
 10
-859.5300521581113
 20
-3404.565202715166
 30
0.0
 11
3111.808671183048
 21
-3404.565202715166
 31
0.0
  0
MTEXT
  5
2B8
330
1F
100
AcDbEntity
  8
1-E
  6
Continuous
 62
     7
370
   211
100
AcDbMText
 10
-46.29359161489006
 20
-243.702148334947
 30
0.0
 40
68.58
 41
90.0
 46
0.0
 71
     7
 72
     1
  1
{\fＭＳ ゴシック|b0|i0|c128|p49;77}
 73
     1
 44
1.0
  0
LINE
  5
2B9
330
1F
100
AcDbEntity
  8
1-E
  6
Continuous
 62
    92
370
    13
100
AcDbLine
 10
-859.5300521581113
 20
-1784.565202715166
 30
0.0
 11
1126.13930951247
 21
-1784.565202715166
 31
0.0
  0
LINE
  5
2BA
330
1F
100
AcDbEntity
  8
1-E
  6
Continuous
 62
    92
370
    13
100
AcDbLine
 10
-859.5300521581113
 20
-1964.565202715166
 30
0.0
 11
1126.13930951247
 21
-1964.565202715166
 31
0.0
  0
LINE
  5
2BB
330
1F
100
AcDbEntity
  8
1-E
  6
Continuous
 62
    92
370
    13
100
AcDbLine
 10
1126.13930951247
 20
200.365253956793
 30
0.0
 11
1126.13930951247
 21
-3404.565202715166
 31
0.0
  0
LINE
  5
2BC
330
1F
100
AcDbEntity
  8
1-E
  6
Continuous
 62
    92
370
    13
100
AcDbLine
 10
3111.808671183048
 20
200.365253956793
 30
0.0
 11
3111.808671183048
 21
-3404.565202715166
 31
0.0
  0
MTEXT
  5
2BD
330
1F
100
AcDbEntity
  8
1-E
  6
Continuous
 62
     7
370
     0
100
AcDbMText
 10
1987.444324706484
 20
-406.3031884988467
 30
0.0
 40
91.43999999999998
 41
120.0
 46
0.0
 71
     7
 72
     1
  1
{\fＭＳ ゴシック|b0|i0|c128|p49;32}
 73
     1
 44
1.0
  0
MTEXT
  5
2BE
330
1F
100
AcDbEntity
  8
1-E
  6
Continuous
 62
     7
370
   211
100
AcDbMText
 10
1571.76320917878
 20
-526.3032785669426
 30
0.0
 40
91.43999999999998
 41
240.0
 46
0.0
 71
     7
 72
     1
  1
{\fＭＳ ゴシック|b0|i0|c128|p49;10.5}
 73
     1
 44
1.0
  0
LINE
  5
2BF
330
1F
100
AcDbEntity
  8
1-E
  6
JWW_HOJO
 62
   120
370
     5
100
AcDbLine
 10
-43.97127589198888
 20
-2914.680265755132
 30
0.0
 11
-43.97127589198888
 21
-2302.680265755131
 31
0.0
  0
LINE
  5
2C0
330
1F
100
AcDbEntity
  8
1-E
  6
JWW_HOJO
 62
   120
370
     5
100
AcDbLine
 10
946.8683586385816
 20
-3214.680265755132
 30
0.0
 11
946.8683586385816
 21
-2302.680265755131
 31
0.0
  0
LINE
  5
2C1
330
1F
100
AcDbEntity
  8
1-E
  6
JWW_HOJO
 62
   120
370
     5
100
AcDbLine
 10
-158.5979299319827
 20
-3064.680265755132
 30
0.0
 11
946.8683586385816
 21
-3064.680265755132
 31
0.0
  0
LINE
  5
2C2
330
1F
100
AcDbEntity
  8
1-E
  6
JWW_HOJO
 62
   120
370
     5
100
AcDbLine
 10
-43.97127589198888
 20
-2914.680265755132
 30
0.0
 11
946.8683586385816
 21
-2914.680265755132
 31
0.0
  0
LINE
  5
2C3
330
1F
100
AcDbEntity
  8
1-E
  6
JWW_HOJO
 62
   120
370
     5
100
AcDbLine
 10
-158.5979299319827
 20
-3214.680265755132
 30
0.0
 11
946.8683586385816
 21
-3214.680265755132
 31
0.0
  0
LINE
  5
2C4
330
1F
100
AcDbEntity
  8
1-E
  6
JWW_HOJO
 62
   120
370
     5
100
AcDbLine
 10
-158.5979299319827
 20
-2362.680265755131
 30
0.0
 11
-158.5979299319827
 21
-3214.680265755132
 31
0.0
  0
LINE
  5
2C5
330
1F
100
AcDbEntity
  8
1-E
  6
Continuous
 62
   120
370
     5
100
AcDbLine
 10
119.5877172032094
 20
-3064.680265755132
 30
0.0
 11
299.5868264198466
 21
-3064.680265755132
 31
0.0
  0
LWPOLYLINE
  5
2C6
330
1F
100
AcDbEntity
  8
1-E
  6
Continuous
 62
     7
370
     9
100
AcDbPolyline
 90
        4
 70
     1
 43
3.0
 10
121.0877172032094
 20
-3064.680265755132
 42
0.4142135623731
 10
119.5877172032094
 20
-3063.180265755132
 42
0.4142135623731
 10
118.0877172032094
 20
-3064.680265755132
 42
0.4142135623731
 10
119.5877172032094
 20
-3066.180265755132
 42
0.4142135623731
  0
LWPOLYLINE
  5
2C7
330
1F
100
AcDbEntity
  8
1-E
  6
Continuous
 62
     7
370
     9
100
AcDbPolyline
 90
        4
 70
     1
 43
3.0
 10
181.0868264198468
 20
-3064.680265755132
 42
0.4142135623731
 10
179.5868264198468
 20
-3063.180265755132
 42
0.4142135623731
 10
178.0868264198468
 20
-3064.680265755132
 42
0.4142135623731
 10
179.5868264198468
 20
-3066.180265755132
 42
0.4142135623731
  0
LINE
  5
2C8
330
1F
100
AcDbEntity
  8
1-E
  6
Continuous
 62
   120
370
     5
100
AcDbLine
 10
119.5877172032094
 20
-3214.680265755132
 30
0.0
 11
119.5877172032094
 21
-2914.680265755132
 31
0.0
  0
LINE
  5
2C9
330
1F
100
AcDbEntity
  8
1-E
  6
Continuous
 62
   120
370
     5
100
AcDbLine
 10
179.5868264198468
 20
-3064.680265755132
 30
0.0
 11
179.5868264198468
 21
-2914.680265755132
 31
0.0
  0
LWPOLYLINE
  5
2CA
330
1F
100
AcDbEntity
  8
1-E
  6
Continuous
 62
     7
370
     9
100
AcDbPolyline
 90
        4
 70
     1
 43
3.0
 10
235.0868264198384
 20
-3064.680265755132
 42
0.4142135623731
 10
233.5868264198384
 20
-3063.180265755132
 42
0.4142135623731
 10
232.0868264198384
 20
-3064.680265755132
 42
0.4142135623731
 10
233.5868264198384
 20
-3066.180265755132
 42
0.4142135623731
  0
LINE
  5
2CB
330
1F
100
AcDbEntity
  8
1-E
  6
Continuous
 62
   120
370
     5
100
AcDbLine
 10
233.5868264198384
 20
-3064.680265755132
 30
0.0
 11
233.5868264198384
 21
-2914.680265755132
 31
0.0
  0
LWPOLYLINE
  5
2CC
330
1F
100
AcDbEntity
  8
1-E
  6
Continuous
 62
     7
370
     9
100
AcDbPolyline
 90
        4
 70
     1
 43
3.0
 10
271.0868264198466
 20
-3064.680265755132
 42
0.4142135623731
 10
269.5868264198466
 20
-3063.180265755132
 42
0.4142135623731
 10
268.0868264198465
 20
-3064.680265755132
 42
0.4142135623731
 10
269.5868264198466
 20
-3066.180265755132
 42
0.4142135623731
  0
LINE
  5
2CD
330
1F
100
AcDbEntity
  8
1-E
  6
Continuous
 62
   120
370
     5
100
AcDbLine
 10
269.5868264198466
 20
-3064.680265755132
 30
0.0
 11
269.5868264198466
 21
-2914.680265755132
 31
0.0
  0
LWPOLYLINE
  5
2CE
330
1F
100
AcDbEntity
  8
1-E
  6
Continuous
 62
     7
370
     9
100
AcDbPolyline
 90
        4
 70
     1
 43
3.0
 10
301.0868264198466
 20
-3064.680265755132
 42
0.4142135623731
 10
299.5868264198466
 20
-3063.180265755132
 42
0.4142135623731
 10
298.0868264198465
 20
-3064.680265755132
 42
0.4142135623731
 10
299.5868264198466
 20
-3066.180265755132
 42
0.4142135623731
  0
LINE
  5
2CF
330
1F
100
AcDbEntity
  8
1-E
  6
Continuous
 62
   120
370
     5
100
AcDbLine
 10
299.5868264198466
 20
-3214.680265755132
 30
0.0
 11
299.5868264198466
 21
-2914.680265755132
 31
0.0
  0
LINE
  5
2D0
330
1F
100
AcDbEntity
  8
1-E
  6
Continuous
 62
   120
370
     5
100
AcDbLine
 10
119.5877172032094
 20
-3214.680265755132
 30
0.0
 11
299.5868264198466
 21
-3214.680265755132
 31
0.0
  0
LWPOLYLINE
  5
2D1
330
1F
100
AcDbEntity
  8
1-E
  6
Continuous
 62
     7
370
     9
100
AcDbPolyline
 90
        4
 70
     1
 43
3.0
 10
121.0877172032094
 20
-3214.680265755132
 42
0.4142135623731
 10
119.5877172032094
 20
-3213.180265755132
 42
0.4142135623731
 10
118.0877172032094
 20
-3214.680265755132
 42
0.4142135623731
 10
119.5877172032094
 20
-3216.180265755132
 42
0.4142135623731
  0
LWPOLYLINE
  5
2D2
330
1F
100
AcDbEntity
  8
1-E
  6
Continuous
 62
     7
370
     9
100
AcDbPolyline
 90
        4
 70
     1
 43
3.0
 10
301.0868264198466
 20
-3214.680265755132
 42
0.4142135623731
 10
299.5868264198466
 20
-3213.180265755132
 42
0.4142135623731
 10
298.0868264198465
 20
-3214.680265755132
 42
0.4142135623731
 10
299.5868264198466
 20
-3216.180265755132
 42
0.4142135623731
  0
LINE
  5
2D3
330
1F
100
AcDbEntity
  8
1-E
  6
Continuous
 62
   120
370
     5
100
AcDbLine
 10
251.5868264198357
 20
-3064.680265755132
 30
0.0
 11
341.5868264198357
 21
-3154.680265755132
 31
0.0
  0
LINE
  5
2D4
330
1F
100
AcDbEntity
  8
1-E
  6
Continuous
 62
   120
370
     5
100
AcDbLine
 10
341.5868264198357
 20
-3154.680265755132
 30
0.0
 11
398.1057576528578
 21
-3154.680265755132
 31
0.0
  0
LINE
  5
2D5
330
1F
100
AcDbEntity
  8
1-E
  6
Continuous
 62
   120
370
     5
100
AcDbLine
 10
284.5868264198466
 20
-3064.680265755132
 30
0.0
 11
344.5868264198466
 21
-3004.680265755132
 31
0.0
  0
LINE
  5
2D6
330
1F
100
AcDbEntity
  8
1-E
  6
Continuous
 62
   120
370
     5
100
AcDbLine
 10
344.5868264198466
 20
-3004.680265755132
 30
0.0
 11
400.2425102374186
 21
-3004.680265755132
 31
0.0
  0
LINE
  5
2D7
330
1F
100
AcDbEntity
  8
1-E
  6
JWW_HOJO
 62
   120
370
     5
100
AcDbLine
 10
946.8683586385816
 20
-2302.680265755131
 30
0.0
 11
-43.97127589198888
 21
-2302.680265755131
 31
0.0
  0
LINE
  5
2D8
330
1F
100
AcDbEntity
  8
1-E
  6
Continuous
 62
    92
370
    13
100
AcDbLine
 10
299.5868264198466
 20
-2362.680265755131
 30
0.0
 11
119.5877172032094
 21
-2362.680265755131
 31
0.0
  0
LINE
  5
2D9
330
1F
100
AcDbEntity
  8
1-E
  6
Continuous
 62
    92
370
    13
100
AcDbLine
 10
119.5877172032094
 20
-2449.678553471561
 30
0.0
 11
119.5877172032094
 21
-2362.680265755131
 31
0.0
  0
LINE
  5
2DA
330
1F
100
AcDbEntity
  8
1-E
  6
Continuous
 62
   120
370
     5
100
AcDbLine
 10
-302.9426054446033
 20
-2362.680265755131
 30
0.0
 11
-43.97127589198888
 21
-2362.680265755131
 31
0.0
  0
LINE
  5
2DB
330
1F
100
AcDbEntity
  8
1-E
  6
Continuous
 62
   120
370
     5
100
AcDbLine
 10
299.5868264198466
 20
-2467.687223762945
 30
0.0
 11
194.5804726330032
 21
-2362.680265755131
 31
0.0
  0
LINE
  5
2DC
330
1F
100
AcDbEntity
  8
1-E
  6
Continuous
 62
   120
370
     5
100
AcDbLine
 10
299.5868264198466
 20
-2510.113750631611
 30
0.0
 11
152.1540354622873
 21
-2362.680265755131
 31
0.0
  0
LINE
  5
2DD
330
1F
100
AcDbEntity
  8
1-E
  6
Continuous
 62
   120
370
     5
100
AcDbLine
 10
299.5868264198466
 20
-2552.540277500276
 30
0.0
 11
120.6581418759212
 21
-2373.61010831742
 31
0.0
  0
LINE
  5
2DE
330
1F
100
AcDbEntity
  8
1-E
  6
Continuous
 62
   120
370
     5
100
AcDbLine
 10
299.5868264198466
 20
-2425.26069689428
 30
0.0
 11
237.0066635553544
 21
-2362.680265755131
 31
0.0
  0
LINE
  5
2DF
330
1F
100
AcDbEntity
  8
1-E
  6
Continuous
 62
   120
370
     5
100
AcDbLine
 10
299.5868264198466
 20
-2382.834170025614
 30
0.0
 11
279.433260978632
 21
-2362.680265755131
 31
0.0
  0
LINE
  5
2E0
330
1F
100
AcDbEntity
  8
1-E
  6
Continuous
 62
    92
370
    13
100
AcDbLine
 10
299.5868264198466
 20
-2782.68026575513
 30
0.0
 11
299.5868264198466
 21
-2362.680265755131
 31
0.0
  0
LINE
  5
2E1
330
1F
100
AcDbEntity
  8
1-E
  6
Continuous
 62
   120
370
     5
100
AcDbLine
 10
-495.2058603420239
 20
-2668.680265755146
 30
0.0
 11
155.5872421187466
 21
-2668.680265755146
 31
0.0
  0
LINE
  5
2E2
330
1F
100
AcDbEntity
  8
1-E
  6
Continuous
 62
   120
370
     5
100
AcDbLine
 10
-302.9426054446033
 20
-2824.680265755132
 30
0.0
 11
-302.9426054446033
 21
-2362.680265755131
 31
0.0
  0
LINE
  5
2E3
330
1F
100
AcDbEntity
  8
1-E
  6
Continuous
 62
   120
370
     5
100
AcDbLine
 10
-158.5979299562526
 20
-2824.680265755132
 30
0.0
 11
-158.5979299562526
 21
-2362.680265755131
 31
0.0
  0
LWPOLYLINE
  5
2E4
330
1F
100
AcDbEntity
  8
1-E
  6
Continuous
 62
     7
370
     9
100
AcDbPolyline
 90
        4
 70
     1
 43
3.0
 10
-301.4426054446033
 20
-2824.680265755132
 42
0.4142135623731
 10
-302.9426054446033
 20
-2823.180265755132
 42
0.4142135623731
 10
-304.4426054446033
 20
-2824.680265755132
 42
0.4142135623731
 10
-302.9426054446033
 20
-2826.180265755132
 42
0.4142135623731
  0
LWPOLYLINE
  5
2E5
330
1F
100
AcDbEntity
  8
1-E
  6
Continuous
 62
     7
370
     9
100
AcDbPolyline
 90
        4
 70
     1
 43
3.0
 10
-157.0979299562526
 20
-2824.680265755132
 42
0.4142135623731
 10
-158.5979299562526
 20
-2823.180265755132
 42
0.4142135623731
 10
-160.0979299562526
 20
-2824.680265755132
 42
0.4142135623731
 10
-158.5979299562526
 20
-2826.180265755132
 42
0.4142135623731
  0
LINE
  5
2E6
330
1F
100
AcDbEntity
  8
1-E
  6
Continuous
 62
   120
370
     5
100
AcDbLine
 10
-302.9426054446033
 20
-2824.680265755132
 30
0.0
 11
-43.97127589198888
 21
-2824.680265755132
 31
0.0
  0
LINE
  5
2E7
330
1F
100
AcDbEntity
  8
1-E
  6
Continuous
 62
   120
370
     5
100
AcDbLine
 10
232.7419712385713
 20
-2782.68026575513
 30
0.0
 11
144.5222281301464
 21
-2694.461367291239
 31
0.0
  0
LINE
  5
2E8
330
1F
100
AcDbEntity
  8
1-E
  6
Continuous
 62
   120
370
     5
100
AcDbLine
 10
269.5868264198466
 20
-2819.524768171763
 30
0.0
 11
233.5868264198384
 21
-2783.525112847479
 31
0.0
  0
LINE
  5
2E9
330
1F
100
AcDbEntity
  8
1-E
  6
Continuous
 62
   120
370
     5
100
AcDbLine
 10
147.4632300697128
 20
-2824.680265755132
 30
0.0
 11
119.5877172032094
 21
-2796.804952331356
 31
0.0
  0
LINE
  5
2EA
330
1F
100
AcDbEntity
  8
1-E
  6
Continuous
 62
   120
370
     5
100
AcDbLine
 10
179.5868264198468
 20
-2814.378040849702
 30
0.0
 11
119.5877172032094
 21
-2754.37916778216
 31
0.0
  0
LINE
  5
2EB
330
1F
100
AcDbEntity
  8
1-E
  6
Continuous
 62
   120
370
     5
100
AcDbLine
 10
190.3160552208298
 20
-2782.68026575513
 30
0.0
 11
129.3017097602085
 21
-2721.666633470505
 31
0.0
  0
LINE
  5
2EC
330
1F
100
AcDbEntity
  8
1-E
  6
Continuous
 62
   120
370
     5
100
AcDbLine
 10
275.1688863521317
 20
-2782.68026575513
 30
0.0
 11
155.5872421187466
 21
-2663.09985441117
 31
0.0
  0
LINE
  5
2ED
330
1F
100
AcDbEntity
  8
1-E
  6
Continuous
 62
    92
370
    13
100
AcDbLine
 10
269.5868264198466
 20
-2782.68026575513
 30
0.0
 11
299.5868264198466
 21
-2782.68026575513
 31
0.0
  0
LINE
  5
2EE
330
1F
100
AcDbEntity
  8
1-E
  6
Continuous
 62
    92
370
    13
100
AcDbLine
 10
119.5868264198468
 20
-2824.680265755132
 30
0.0
 11
179.5868264198468
 21
-2824.680265755132
 31
0.0
  0
LINE
  5
2EF
330
1F
100
AcDbEntity
  8
1-E
  6
Continuous
 62
    92
370
    13
100
AcDbLine
 10
119.5868264198468
 20
-2824.680265755132
 30
0.0
 11
119.5868264198468
 21
-2737.680265755131
 31
0.0
  0
LINE
  5
2F0
330
1F
100
AcDbEntity
  8
1-E
  6
Continuous
 62
    92
370
    13
100
AcDbLine
 10
269.5868264198466
 20
-2782.68026575513
 30
0.0
 11
269.5868264198466
 21
-2824.680265755132
 31
0.0
  0
LINE
  5
2F1
330
1F
100
AcDbEntity
  8
1-E
  6
Continuous
 62
    92
370
    13
100
AcDbLine
 10
233.5868264198384
 20
-2824.680265755132
 30
0.0
 11
269.5868264198466
 21
-2824.680265755132
 31
0.0
  0
LINE
  5
2F2
330
1F
100
AcDbEntity
  8
1-E
  6
Continuous
 62
    92
370
    13
100
AcDbLine
 10
233.5868264198384
 20
-2782.68026575513
 30
0.0
 11
233.5868264198384
 21
-2824.680265755132
 31
0.0
  0
LINE
  5
2F3
330
1F
100
AcDbEntity
  8
1-E
  6
Continuous
 62
    92
370
    13
100
AcDbLine
 10
233.5868264198384
 20
-2782.68026575513
 30
0.0
 11
179.5868264198468
 21
-2782.68026575513
 31
0.0
  0
LINE
  5
2F4
330
1F
100
AcDbEntity
  8
1-E
  6
Continuous
 62
    92
370
    13
100
AcDbLine
 10
179.5868264198468
 20
-2782.68026575513
 30
0.0
 11
179.5868264198468
 21
-2824.680265755132
 31
0.0
  0
LWPOLYLINE
  5
2F5
330
1F
100
AcDbEntity
  8
1-E
  6
Continuous
 62
     7
370
     9
100
AcDbPolyline
 90
        4
 70
     1
 43
3.0
 10
-301.4426054446033
 20
-2362.680265755131
 42
0.4142135623731
 10
-302.9426054446033
 20
-2361.180265755131
 42
0.4142135623731
 10
-304.4426054446033
 20
-2362.680265755131
 42
0.4142135623731
 10
-302.9426054446033
 20
-2364.180265755131
 42
0.4142135623731
  0
LWPOLYLINE
  5
2F6
330
1F
100
AcDbEntity
  8
1-E
  6
Continuous
 62
     7
370
     9
100
AcDbPolyline
 90
        4
 70
     1
 43
3.0
 10
-157.0979299562526
 20
-2362.680265755131
 42
0.4142135623731
 10
-158.5979299562526
 20
-2361.180265755131
 42
0.4142135623731
 10
-160.0979299562526
 20
-2362.680265755131
 42
0.4142135623731
 10
-158.5979299562526
 20
-2364.180265755131
 42
0.4142135623731
  0
LWPOLYLINE
  5
2F7
330
1F
100
AcDbEntity
  8
1-E
  6
Continuous
 62
     7
370
     9
100
AcDbPolyline
 90
        4
 70
     1
 43
3.0
 10
-157.0979299562526
 20
-2518.680265755132
 42
0.4142135623731
 10
-158.5979299562526
 20
-2517.180265755132
 42
0.4142135623731
 10
-160.0979299562526
 20
-2518.680265755132
 42
0.4142135623731
 10
-158.5979299562526
 20
-2520.180265755132
 42
0.4142135623731
  0
LWPOLYLINE
  5
2F8
330
1F
100
AcDbEntity
  8
1-E
  6
Continuous
 62
     7
370
     9
100
AcDbPolyline
 90
        4
 70
     1
 43
3.0
 10
-157.0979299562526
 20
-2668.680265755132
 42
0.4142135623731
 10
-158.5979299562526
 20
-2667.180265755132
 42
0.4142135623731
 10
-160.0979299562526
 20
-2668.680265755132
 42
0.4142135623731
 10
-158.5979299562526
 20
-2670.180265755132
 42
0.4142135623731
  0
LINE
  5
2F9
330
1F
100
AcDbEntity
  8
1-E
  6
Continuous
 62
   120
370
     5
100
AcDbLine
 10
-158.5979299562526
 20
-2518.680265755132
 30
0.0
 11
-43.97127589198888
 21
-2518.680265755132
 31
0.0
  0
LINE
  5
2FA
330
1F
100
AcDbEntity
  8
1-E
  6
Continuous
 62
   120
370
     5
100
AcDbLine
 10
-158.5979299562526
 20
-2668.680265755132
 30
0.0
 11
-43.97127589198888
 21
-2668.680265755132
 31
0.0
  0
LINE
  5
2FB
330
1F
100
AcDbEntity
  8
1-E
  6
Continuous
 62
   120
370
     5
100
AcDbLine
 10
299.5868264198466
 20
-2637.393331237608
 30
0.0
 11
131.5865690824209
 21
-2469.392331580723
 31
0.0
  0
LINE
  5
2FC
330
1F
100
AcDbEntity
  8
1-E
  6
Continuous
 62
   120
370
     5
100
AcDbLine
 10
299.5868264198466
 20
-2594.966804368942
 30
0.0
 11
119.5877172032094
 21
-2414.966210513367
 31
0.0
  0
LINE
  5
2FD
330
1F
100
AcDbEntity
  8
1-E
  6
Continuous
 62
   120
370
     5
100
AcDbLine
 10
299.5868264198466
 20
-2679.819858106273
 30
0.0
 11
155.5872421187466
 21
-2535.819531485708
 31
0.0
  0
LINE
  5
2FE
330
1F
100
AcDbEntity
  8
1-E
  6
Continuous
 62
   120
370
     5
100
AcDbLine
 10
299.5868264198466
 20
-2764.672169524135
 30
0.0
 11
155.5872421187466
 21
-2620.674069861973
 31
0.0
  0
LINE
  5
2FF
330
1F
100
AcDbEntity
  8
1-E
  6
Continuous
 62
   120
370
     5
100
AcDbLine
 10
299.5868264198466
 20
-2722.246384974939
 30
0.0
 11
155.5872421187466
 21
-2578.246058354373
 31
0.0
  0
LINE
  5
300
330
1F
100
AcDbEntity
  8
1-E
  6
Continuous
 62
    92
370
    13
100
AcDbLine
 10
119.5877172032094
 20
-2812.680196471981
 30
0.0
 11
119.5877172032094
 21
-2737.676979754287
 31
0.0
  0
LINE
  5
301
330
1F
100
AcDbEntity
  8
1-E
  6
Continuous
 62
    92
370
    13
100
AcDbLine
 10
155.5872421187466
 20
-2514.631506913282
 30
0.0
 11
155.5872421187466
 21
-2672.724768632032
 31
0.0
  0
ARC
  5
302
330
1F
100
AcDbEntity
  8
1-E
  6
Continuous
 62
    92
370
    13
100
AcDbCircle
 10
-480.412777676441
 20
-2362.67796951358
 30
0.0
 40
707.5483889193149
100
AcDbArc
 50
327.9947052001953
 51
334.0110321044921
  0
ARC
  5
303
330
1F
100
AcDbEntity
  8
1-E
  6
Continuous
 62
    92
370
    13
100
AcDbCircle
 10
-480.412777676441
 20
-2824.677563712268
 30
0.0
 40
707.5483889193149
100
AcDbArc
 50
25.9889678955078
 51
32.00529479980467
  0
LINE
  5
304
330
1F
100
AcDbEntity
  8
1-E
  6
Continuous
 62
     7
370
     9
100
AcDbLine
 10
311.5871629379958
 20
-2624.10289792099
 30
0.0
 11
311.5871629379958
 21
-2564.102699969132
 31
0.0
  0
LINE
  5
305
330
1F
100
AcDbEntity
  8
1-E
  6
Continuous
 62
     7
370
     9
100
AcDbLine
 10
299.5868264198466
 20
-2564.102699969132
 30
0.0
 11
317.587331197084
 21
-2564.102699969132
 31
0.0
  0
LINE
  5
306
330
1F
100
AcDbEntity
  8
1-E
  6
Continuous
 62
     7
370
     9
100
AcDbLine
 10
317.587331197084
 20
-2624.10289792099
 30
0.0
 11
299.5868264198466
 21
-2624.10289792099
 31
0.0
  0
LINE
  5
307
330
1F
100
AcDbEntity
  8
1-E
  6
Continuous
 62
     7
370
     9
100
AcDbLine
 10
317.587331197084
 20
-2534.102600993202
 30
0.0
 11
329.5869253957712
 21
-2534.102600993202
 31
0.0
  0
LINE
  5
308
330
1F
100
AcDbEntity
  8
1-E
  6
Continuous
 62
     7
370
     9
100
AcDbLine
 10
317.587331197084
 20
-2654.10299689692
 30
0.0
 11
317.587331197084
 21
-2534.102600993202
 31
0.0
  0
LINE
  5
309
330
1F
100
AcDbEntity
  8
1-E
  6
Continuous
 62
     7
370
     9
100
AcDbLine
 10
329.5869253957712
 20
-2654.10299689692
 30
0.0
 11
317.587331197084
 21
-2654.10299689692
 31
0.0
  0
LINE
  5
30A
330
1F
100
AcDbEntity
  8
1-E
  6
Continuous
 62
   120
370
     5
100
AcDbLine
 10
-495.2058603420239
 20
-2518.680265755146
 30
0.0
 11
155.5872421187466
 21
-2518.680265755146
 31
0.0
  0
MTEXT
  5
30B
330
1F
100
AcDbEntity
  8
1-E
  6
Continuous
 62
     7
370
   211
100
AcDbMText
 10
1987.444324706484
 20
-526.3032785669426
 30
0.0
 40
91.43999999999998
 41
120.0
 46
0.0
 71
     7
 72
     1
  1
{\fＭＳ ゴシック|b0|i0|c128|p49;11}
 73
     1
 44
1.0
  0
MTEXT
  5
30C
330
1F
100
AcDbEntity
  8
1-E
  6
Continuous
 62
     7
370
   211
100
AcDbMText
 10
2288.696415191466
 20
-526.3032785669426
 30
0.0
 40
91.43999999999998
 41
240.0
 46
0.0
 71
     7
 72
     1
  1
{\fＭＳ ゴシック|b0|i0|c128|p49;10.5}
 73
     1
 44
1.0
  0
MTEXT
  5
30D
330
1F
100
AcDbEntity
  8
1-E
  6
Continuous
 62
     7
370
   211
100
AcDbMText
 10
2202.844820081008
 20
-646.3032785669426
 30
0.0
 40
91.43999999999998
 41
180.0
 46
0.0
 71
     7
 72
     1
  1
{\fＭＳ ゴシック|b0|i0|c128|p49;6.3}
 73
     1
 44
1.0
  0
MTEXT
  5
30E
330
1F
100
AcDbEntity
  8
1-E
  6
Continuous
 62
     7
370
   211
100
AcDbMText
 10
1709.290065783438
 20
-649.0108550119825
 30
0.0
 40
91.43999999999998
 41
180.0
 46
0.0
 71
     7
 72
     1
  1
{\fＭＳ ゴシック|b0|i0|c128|p49;6.3}
 73
     1
 44
1.0
  0
MTEXT
  5
30F
330
1F
100
AcDbEntity
  8
1-E
  6
Continuous
 62
     7
370
     0
100
AcDbMText
 10
2881.357585882242
 20
-830.8872271618981
 30
0.0
 40
91.43999999999998
 41
180.0
 46
0.0
 71
     7
 72
     1
  1
{\fＭＳ ゴシック|b0|i0|c128|p49;1.2}
 11
6.123031769111886E-17
 21
1.0
 31
0.0
 73
     1
 44
1.0
  0
MTEXT
  5
310
330
1F
100
AcDbEntity
  8
1-E
  6
Continuous
 62
     7
370
     0
100
AcDbMText
 10
2878.836606231666
 20
-930.9021601104521
 30
0.0
 40
91.44000000000064
 41
60.00000000000043
 46
0.0
 71
     7
 72
     1
  1
{\fＭＳ ゴシック|b0|i0|c128|p49;7}
 11
6.123031769111886E-17
 21
1.0
 31
0.0
 73
     1
 44
1.0
  0
MTEXT
  5
311
330
1F
100
AcDbEntity
  8
1-E
  6
Continuous
 62
     7
370
     0
100
AcDbMText
 10
2880.097096056961
 20
-1020.902160110452
 30
0.0
 40
91.44000000000064
 41
60.00000000000043
 46
0.0
 71
     7
 72
     1
  1
{\fＭＳ ゴシック|b0|i0|c128|p49;5}
 11
6.123031769111886E-17
 21
1.0
 31
0.0
 73
     1
 44
1.0
  0
MTEXT
  5
312
330
1F
100
AcDbEntity
  8
1-E
  6
Continuous
 62
     7
370
     0
100
AcDbMText
 10
1987.444397606559
 20
-1198.49705111763
 30
0.0
 40
91.44
 41
120.0
 46
0.0
 71
     7
 72
     1
  1
{\fＭＳ ゴシック|b0|i0|c128|p49;23}
 73
     1
 44
1.0
  0
MTEXT
  5
313
330
1F
100
AcDbEntity
  8
1-E
  6
Continuous
 62
     7
370
     0
100
AcDbMText
 10
2328.335910553105
 20
-1199.960679704666
 30
0.0
 40
91.44
 41
600.0
 46
0.0
 71
     7
 72
     1
  1
{\fＭＳ ゴシック|b0|i0|c128|p49;下地ベース}
 73
     1
 44
1.0
  0
LINE
  5
314
330
1F
100
AcDbEntity
  8
1-E
  6
Continuous
 62
    92
370
    13
100
AcDbLine
 10
113.7072826724783
 20
-1231.824859316163
 30
0.0
 11
113.7072826724783
 21
-1181.825374815791
 31
0.0
  0
LINE
  5
315
330
1F
100
AcDbEntity
  8
1-E
  6
Continuous
 62
    92
370
    13
100
AcDbLine
 10
-116.2929812633344
 20
-1231.824859316163
 30
0.0
 11
-116.2929812633344
 21
-1181.825374815791
 31
0.0
  0
LINE
  5
316
330
1F
100
AcDbEntity
  8
1-E
  6
Continuous
 62
    92
370
    13
100
AcDbLine
 10
-101.2936740948341
 20
-1251.825172739938
 30
0.0
 11
98.70649086505395
 21
-1251.825172739938
 31
0.0
  0
LINE
  5
317
330
1F
100
AcDbEntity
  8
1-E
  6
Continuous
 62
    92
370
    13
100
AcDbLine
 10
-116.2929812633344
 20
-1231.824859316163
 30
0.0
 11
-101.2936740948341
 21
-1231.824859316163
 31
0.0
  0
LINE
  5
318
330
1F
100
AcDbEntity
  8
1-E
  6
Continuous
 62
    92
370
    13
100
AcDbLine
 10
-101.2936740948341
 20
-1251.825172739938
 30
0.0
 11
-101.2936740948341
 21
-1231.824859316163
 31
0.0
  0
LINE
  5
319
330
1F
100
AcDbEntity
  8
1-E
  6
Continuous
 62
    92
370
    13
100
AcDbLine
 10
98.70649086505395
 20
-1251.825172739938
 30
0.0
 11
98.70649086505395
 21
-1231.824859316163
 31
0.0
  0
LINE
  5
31A
330
1F
100
AcDbEntity
  8
1-E
  6
Continuous
 62
    92
370
    13
100
AcDbLine
 10
113.7072826724783
 20
-1231.824859316163
 30
0.0
 11
98.70649086505395
 21
-1231.824859316163
 31
0.0
  0
LINE
  5
31B
330
1F
100
AcDbEntity
  8
1-E
  6
JWW_HOJO
 62
   120
370
     5
100
AcDbLine
 10
-444.4631990336189
 20
-1379.334827017021
 30
0.0
 11
698.7069362409727
 21
-1379.334827017021
 31
0.0
  0
LINE
  5
31C
330
1F
100
AcDbEntity
  8
1-E
  6
JWW_HOJO
 62
   120
370
     5
100
AcDbLine
 10
-444.4631990336189
 20
-1559.33482701702
 30
0.0
 11
878.7069362409727
 21
-1559.33482701702
 31
0.0
  0
LINE
  5
31D
330
1F
100
AcDbEntity
  8
1-E
  6
JWW_HOJO
 62
   120
370
     5
100
AcDbLine
 10
-461.2941194865222
 20
-391.5341981349478
 30
0.0
 11
698.7069362409727
 21
-391.5341981349478
 31
0.0
  0
LINE
  5
31E
330
1F
100
AcDbEntity
  8
1-E
  6
JWW_HOJO
 62
   120
370
     5
100
AcDbLine
 10
-461.2941194865222
 20
-247.9921483349472
 30
0.0
 11
878.7069362409727
 21
-247.9921483349472
 31
0.0
  0
LINE
  5
31F
330
1F
100
AcDbEntity
  8
1-E
  6
JWW_HOJO
 62
   120
370
     5
100
AcDbLine
 10
-461.2941194865222
 20
-441.5341981349467
 30
0.0
 11
698.7069362409727
 21
-441.5341981349467
 31
0.0
  0
LINE
  5
320
330
1F
100
AcDbEntity
  8
1-E
  6
JWW_HOJO
 62
   120
370
     5
100
AcDbLine
 10
878.7069362409727
 20
-1559.33482701702
 30
0.0
 11
878.7069362409727
 21
-247.9921483349472
 31
0.0
  0
LINE
  5
321
330
1F
100
AcDbEntity
  8
1-E
  6
Continuous
 62
   120
370
     5
100
AcDbLine
 10
698.7069362409727
 20
-1181.825374815791
 30
0.0
 11
698.7069362409727
 21
-1251.825172739938
 31
0.0
  0
LWPOLYLINE
  5
322
330
1F
100
AcDbEntity
  8
1-E
  6
Continuous
 62
     7
370
     9
100
AcDbPolyline
 90
        4
 70
     1
 43
3.0
 10
700.2069362409727
 20
-1181.825374815791
 42
0.4142135623731
 10
698.7069362409727
 20
-1180.325374815791
 42
0.4142135623731
 10
697.2069362409727
 20
-1181.825374815791
 42
0.4142135623731
 10
698.7069362409727
 20
-1183.325374815791
 42
0.4142135623731
  0
LWPOLYLINE
  5
323
330
1F
100
AcDbEntity
  8
1-E
  6
Continuous
 62
     7
370
     9
100
AcDbPolyline
 90
        4
 70
     1
 43
3.0
 10
700.2069362409727
 20
-1251.825172739938
 42
0.4142135623731
 10
698.7069362409727
 20
-1250.325172739938
 42
0.4142135623731
 10
697.2069362409727
 20
-1251.825172739938
 42
0.4142135623731
 10
698.7069362409727
 20
-1253.325172739938
 42
0.4142135623731
  0
LINE
  5
324
330
1F
100
AcDbEntity
  8
1-E
  6
Continuous
 62
   120
370
     5
100
AcDbLine
 10
698.7069362409727
 20
-1181.825374815791
 30
0.0
 11
506.9736286047006
 21
-1181.825374815791
 31
0.0
  0
LINE
  5
325
330
1F
100
AcDbEntity
  8
1-E
  6
Continuous
 62
   120
370
     5
100
AcDbLine
 10
698.7069362409727
 20
-1251.825172739938
 30
0.0
 11
506.9736286047006
 21
-1251.825172739938
 31
0.0
  0
MTEXT
  5
326
330
1F
100
AcDbEntity
  8
1-E
  6
Continuous
 62
     7
370
   211
100
AcDbMText
 10
683.7069362409729
 20
-1250.035273777865
 30
0.0
 40
68.58
 41
45.0
 46
0.0
 71
     7
 72
     1
  1
{\fＭＳ ゴシック|b0|i0|c128|p49;7}
 11
6.123031769111886E-17
 21
1.0
 31
0.0
 73
     1
 44
1.0
  0
LINE
  5
327
330
1F
100
AcDbEntity
  8
1-E
  6
JWW_HOJO
 62
   120
370
     5
100
AcDbLine
 10
698.7069362409727
 20
-1379.334827017021
 30
0.0
 11
698.7069362409727
 21
-441.5341981349467
 31
0.0
  0
MTEXT
  5
328
330
1F
100
AcDbEntity
  8
1-E
  6
Continuous
 62
     7
370
     0
100
AcDbMText
 10
1850.438644312957
 20
-1318.317469751744
 30
0.0
 40
91.44
 41
60.0
 46
0.0
 71
     7
 72
     1
  1
{\fＭＳ ゴシック|b0|i0|c128|p49;1}
 73
     1
 44
1.0
  0
LINE
  5
329
330
1F
100
AcDbEntity
  8
1-E
  6
Continuous
 62
     7
370
     9
100
AcDbLine
 10
2148.050115296709
 20
-982.6541004393873
 30
0.0
 11
2274.724680049166
 21
-1125.339660921864
 31
0.0
  0
LINE
  5
32A
330
1F
100
AcDbEntity
  8
1-E
  6
Continuous
 62
    40
370
    15
100
AcDbLine
 10
1507.444324706484
 20
-1014.122160110452
 30
0.0
 11
2587.444324706484
 21
-1014.122160110452
 31
0.0
  0
LINE
  5
32B
330
1F
100
AcDbEntity
  8
1-E
  6
JWW_HOJO
 62
   120
370
     5
100
AcDbLine
 10
1507.444324706484
 20
-1193.610184508687
 30
0.0
 11
2587.444324706484
 21
-1193.610184508687
 31
0.0
  0
LINE
  5
32C
330
1F
100
AcDbEntity
  8
1-E
  6
Continuous
 62
   120
370
     5
100
AcDbLine
 10
2617.444324706484
 20
-1014.122160110452
 30
0.0
 11
2887.444324706484
 21
-1014.122160110452
 31
0.0
  0
LWPOLYLINE
  5
32D
330
1F
100
AcDbEntity
  8
1-E
  6
Continuous
 62
     7
370
     9
100
AcDbPolyline
 90
        4
 70
     1
 43
3.0
 10
2888.944324706484
 20
-1014.122160110452
 42
0.4142135623731
 10
2887.444324706484
 20
-1012.622160110452
 42
0.4142135623731
 10
2885.944324706484
 20
-1014.122160110452
 42
0.4142135623731
 10
2887.444324706484
 20
-1015.622160110452
 42
0.4142135623731
  0
LINE
  5
32E
330
1F
100
AcDbEntity
  8
1-E
  6
Continuous
 62
   120
370
     5
100
AcDbLine
 10
1859.944324706484
 20
-1073.610184508513
 30
0.0
 11
1859.944324706484
 21
-1193.610184508513
 31
0.0
  0
LWPOLYLINE
  5
32F
330
1F
100
AcDbEntity
  8
1-E
  6
Continuous
 62
     7
370
     9
100
AcDbPolyline
 90
        4
 70
     1
 43
3.0
 10
1861.444324706484
 20
-1193.610184508513
 42
0.4142135623731
 10
1859.944324706484
 20
-1192.110184508513
 42
0.4142135623731
 10
1858.444324706484
 20
-1193.610184508513
 42
0.4142135623731
 10
1859.944324706484
 20
-1195.110184508513
 42
0.4142135623731
  0
MTEXT
  5
330
330
1F
100
AcDbEntity
  8
1-E
  6
Continuous
 62
     7
370
     0
100
AcDbMText
 10
2200.90409511532
 20
-1318.317469751744
 30
0.0
 40
91.44
 41
60.0
 46
0.0
 71
     7
 72
     1
  1
{\fＭＳ ゴシック|b0|i0|c128|p49;1}
 73
     1
 44
1.0
  0
LINE
  5
331
330
1F
100
AcDbEntity
  8
1-E
  6
Continuous
 62
   120
370
     5
100
AcDbLine
 10
2234.944324706484
 20
-1073.610184508513
 30
0.0
 11
2234.944324706484
 21
-1193.610184508513
 31
0.0
  0
LWPOLYLINE
  5
332
330
1F
100
AcDbEntity
  8
1-E
  6
Continuous
 62
     7
370
     9
100
AcDbPolyline
 90
        4
 70
     1
 43
3.0
 10
2236.444324706484
 20
-1193.610184508513
 42
0.4142135623731
 10
2234.944324706484
 20
-1192.110184508513
 42
0.4142135623731
 10
2233.444324706484
 20
-1193.610184508513
 42
0.4142135623731
 10
2234.944324706484
 20
-1195.110184508513
 42
0.4142135623731
  0
MTEXT
  5
333
330
1F
100
AcDbEntity
  8
1-E
  6
Continuous
 62
     7
370
   211
100
AcDbMText
 10
-296.2933771670478
 20
-1555.04482701702
 30
0.0
 40
68.58
 41
90.0
 46
0.0
 71
     7
 72
     1
  1
{\fＭＳ ゴシック|b0|i0|c128|p49;27}
 73
     1
 44
1.0
  0
LINE
  5
334
330
1F
100
AcDbEntity
  8
1-E
  6
Continuous
 62
   120
370
     5
100
AcDbLine
 10
1859.944324706484
 20
-1193.610184508513
 30
0.0
 11
2234.944324706484
 21
-1193.610184508513
 31
0.0
  0
LINE
  5
335
330
1F
100
AcDbEntity
  8
1-E
  6
Continuous
 62
   120
370
     5
100
AcDbLine
 10
2219.944324706484
 20
-1073.610184508513
 30
0.0
 11
2219.944324706484
 21
-1193.610184508513
 31
0.0
  0
LWPOLYLINE
  5
336
330
1F
100
AcDbEntity
  8
1-E
  6
Continuous
 62
     7
370
     9
100
AcDbPolyline
 90
        4
 70
     1
 43
3.0
 10
2221.444324706484
 20
-1193.610184508513
 42
0.4142135623731
 10
2219.944324706484
 20
-1192.110184508513
 42
0.4142135623731
 10
2218.444324706484
 20
-1193.610184508513
 42
0.4142135623731
 10
2219.944324706484
 20
-1195.110184508513
 42
0.4142135623731
  0
LINE
  5
337
330
1F
100
AcDbEntity
  8
1-E
  6
Continuous
 62
   120
370
     5
100
AcDbLine
 10
1874.944470506648
 20
-1073.610184508513
 30
0.0
 11
1874.944470506648
 21
-1193.610184508513
 31
0.0
  0
LWPOLYLINE
  5
338
330
1F
100
AcDbEntity
  8
1-E
  6
Continuous
 62
     7
370
     9
100
AcDbPolyline
 90
        4
 70
     1
 43
3.0
 10
1876.444470506647
 20
-1193.610184508513
 42
0.4142135623731
 10
1874.944470506648
 20
-1192.110184508513
 42
0.4142135623731
 10
1873.444470506648
 20
-1193.610184508513
 42
0.4142135623731
 10
1874.944470506648
 20
-1195.110184508513
 42
0.4142135623731
  0
MTEXT
  5
339
330
1F
100
AcDbEntity
  8
1-E
  6
Continuous
 62
     7
370
   211
100
AcDbMText
 10
-46.29284929542806
 20
-1555.04482701702
 30
0.0
 40
68.58
 41
90.0
 46
0.0
 71
     7
 72
     1
  1
{\fＭＳ ゴシック|b0|i0|c128|p49;23}
 73
     1
 44
1.0
  0
LINE
  5
33A
330
1F
100
AcDbEntity
  8
1-E
  6
Continuous
 62
   120
370
     5
100
AcDbLine
 10
2617.444324706484
 20
-939.1221601104523
 30
0.0
 11
2887.444324706484
 21
-939.1221601104523
 31
0.0
  0
LWPOLYLINE
  5
33B
330
1F
100
AcDbEntity
  8
1-E
  6
Continuous
 62
     7
370
     9
100
AcDbPolyline
 90
        4
 70
     1
 43
3.0
 10
2888.944324706484
 20
-939.1221601104523
 42
0.4142135623731
 10
2887.444324706484
 20
-937.6221601104523
 42
0.4142135623731
 10
2885.944324706484
 20
-939.1221601104523
 42
0.4142135623731
 10
2887.444324706484
 20
-940.6221601104525
 42
0.4142135623731
  0
LINE
  5
33C
330
1F
100
AcDbEntity
  8
1-E
  6
Continuous
 62
   120
370
     5
100
AcDbLine
 10
1807.444324706484
 20
-752.2822231581158
 30
0.0
 11
1807.444324706484
 21
-392.2822231581159
 31
0.0
  0
LWPOLYLINE
  5
33D
330
1F
100
AcDbEntity
  8
1-E
  6
Continuous
 62
     7
370
     9
100
AcDbPolyline
 90
        4
 70
     1
 43
3.0
 10
1808.944324706484
 20
-632.2822231581158
 42
0.4142135623731
 10
1807.444324706484
 20
-630.7822231581158
 42
0.4142135623731
 10
1805.944324706484
 20
-632.2822231581158
 42
0.4142135623731
 10
1807.444324706484
 20
-633.7822231581159
 42
0.4142135623731
  0
LWPOLYLINE
  5
33E
330
1F
100
AcDbEntity
  8
1-E
  6
Continuous
 62
     7
370
     9
100
AcDbPolyline
 90
        4
 70
     1
 43
3.0
 10
1808.944324706484
 20
-512.2822231581158
 42
0.4142135623731
 10
1807.444324706484
 20
-510.7822231581158
 42
0.4142135623731
 10
1805.944324706484
 20
-512.2822231581158
 42
0.4142135623731
 10
1807.444324706484
 20
-513.7822231581159
 42
0.4142135623731
  0
LWPOLYLINE
  5
33F
330
1F
100
AcDbEntity
  8
1-E
  6
Continuous
 62
     7
370
     9
100
AcDbPolyline
 90
        4
 70
     1
 43
3.0
 10
1808.944324706484
 20
-392.2822231581159
 42
0.4142135623731
 10
1807.444324706484
 20
-390.7822231581158
 42
0.4142135623731
 10
1805.944324706484
 20
-392.2822231581159
 42
0.4142135623731
 10
1807.444324706484
 20
-393.7822231581159
 42
0.4142135623731
  0
MTEXT
  5
340
330
1F
100
AcDbEntity
  8
1-E
  6
Continuous
 62
     7
370
   211
100
AcDbMText
 10
203.7069362567316
 20
-1555.04482701702
 30
0.0
 40
68.58
 41
90.0
 46
0.0
 71
     7
 72
     1
  1
{\fＭＳ ゴシック|b0|i0|c128|p49;27}
 73
     1
 44
1.0
  0
LINE
  5
341
330
1F
100
AcDbEntity
  8
1-E
  6
JWW_HOJO
 62
   120
370
     5
100
AcDbLine
 10
1507.444324706484
 20
-392.2822231581159
 30
0.0
 11
1507.444324706484
 21
-1193.610184508687
 31
0.0
  0
LINE
  5
342
330
1F
100
AcDbEntity
  8
1-E
  6
JWW_HOJO
 62
   120
370
     5
100
AcDbLine
 10
1807.444324706484
 20
-632.2822231581158
 30
0.0
 11
2287.444324706484
 21
-632.2822231581158
 31
0.0
  0
LINE
  5
343
330
1F
100
AcDbEntity
  8
1-E
  6
JWW_HOJO
 62
   120
370
     5
100
AcDbLine
 10
1807.444324706484
 20
-512.2822231581158
 30
0.0
 11
2287.444324706484
 21
-512.2822231581158
 31
0.0
  0
LINE
  5
344
330
1F
100
AcDbEntity
  8
1-E
  6
Continuous
 62
   120
370
     5
100
AcDbLine
 10
1807.444324706484
 20
-512.2822231581158
 30
0.0
 11
2287.444324706484
 21
-512.2822231581158
 31
0.0
  0
LINE
  5
345
330
1F
100
AcDbEntity
  8
1-E
  6
Continuous
 62
   120
370
     5
100
AcDbLine
 10
1807.444324706484
 20
-392.2822231581159
 30
0.0
 11
2287.444324706484
 21
-392.2822231581159
 31
0.0
  0
LWPOLYLINE
  5
346
330
1F
100
AcDbEntity
  8
1-E
  6
Continuous
 62
     7
370
     9
100
AcDbPolyline
 90
        4
 70
     1
 43
3.0
 10
2288.944324706484
 20
-632.2822231581158
 42
0.4142135623731
 10
2287.444324706484
 20
-630.7822231581158
 42
0.4142135623731
 10
2285.944324706484
 20
-632.2822231581158
 42
0.4142135623731
 10
2287.444324706484
 20
-633.7822231581159
 42
0.4142135623731
  0
LWPOLYLINE
  5
347
330
1F
100
AcDbEntity
  8
1-E
  6
Continuous
 62
     7
370
     9
100
AcDbPolyline
 90
        4
 70
     1
 43
3.0
 10
2288.944324706484
 20
-512.2822231581158
 42
0.4142135623731
 10
2287.444324706484
 20
-510.7822231581158
 42
0.4142135623731
 10
2285.944324706484
 20
-512.2822231581158
 42
0.4142135623731
 10
2287.444324706484
 20
-513.7822231581159
 42
0.4142135623731
  0
LWPOLYLINE
  5
348
330
1F
100
AcDbEntity
  8
1-E
  6
Continuous
 62
     7
370
     9
100
AcDbPolyline
 90
        4
 70
     1
 43
3.0
 10
2288.944324706484
 20
-392.2822231581159
 42
0.4142135623731
 10
2287.444324706484
 20
-390.7822231581158
 42
0.4142135623731
 10
2285.944324706484
 20
-392.2822231581159
 42
0.4142135623731
 10
2287.444324706484
 20
-393.7822231581159
 42
0.4142135623731
  0
LINE
  5
349
330
1F
100
AcDbEntity
  8
1-E
  6
Continuous
 62
   120
370
     5
100
AcDbLine
 10
2287.444324706484
 20
-752.2822231581158
 30
0.0
 11
2287.444324706484
 21
-392.2822231581159
 31
0.0
  0
MTEXT
  5
34A
330
1F
100
AcDbEntity
  8
1-E
  6
Continuous
 62
     7
370
   211
100
AcDbMText
 10
2002.444324706484
 20
-1764.467876345044
 30
0.0
 40
68.58
 41
90.0
 46
0.0
 71
     7
 72
     1
  1
{\fＭＳ ゴシック|b0|i0|c128|p49;32}
 73
     1
 44
1.0
  0
LINE
  5
34B
330
1F
100
AcDbEntity
  8
1-E
  6
JWW_HOJO
 62
   120
370
     5
100
AcDbLine
 10
1507.444324706484
 20
-392.2822231581159
 30
0.0
 11
2587.444324706484
 21
-392.2822231581159
 31
0.0
  0
LINE
  5
34C
330
1F
100
AcDbEntity
  8
1-E
  6
JWW_HOJO
 62
   120
370
     5
100
AcDbLine
 10
2587.444324706484
 20
-392.2822231581159
 30
0.0
 11
2587.444324706484
 21
-1193.610184508687
 31
0.0
  0
LINE
  5
34D
330
1F
100
AcDbEntity
  8
1-E
  6
Continuous
 62
   120
370
     5
100
AcDbLine
 10
2617.444324706484
 20
-834.1221601104523
 30
0.0
 11
2887.444324706484
 21
-834.1221601104523
 31
0.0
  0
LWPOLYLINE
  5
34E
330
1F
100
AcDbEntity
  8
1-E
  6
Continuous
 62
     7
370
     9
100
AcDbPolyline
 90
        4
 70
     1
 43
3.0
 10
2888.944324706484
 20
-834.1221601104523
 42
0.4142135623731
 10
2887.444324706484
 20
-832.6221601104523
 42
0.4142135623731
 10
2885.944324706484
 20
-834.1221601104523
 42
0.4142135623731
 10
2887.444324706484
 20
-835.6221601104525
 42
0.4142135623731
  0
LWPOLYLINE
  5
34F
330
1F
100
AcDbEntity
  8
1-E
  6
Continuous
 62
     7
370
     9
100
AcDbPolyline
 90
        4
 70
     1
 43
3.0
 10
1966.444324706484
 20
-512.2822231581158
 42
0.4142135623731
 10
1964.944324706484
 20
-510.7822231581158
 42
0.4142135623731
 10
1963.444324706484
 20
-512.2822231581158
 42
0.4142135623731
 10
1964.944324706484
 20
-513.7822231581159
 42
0.4142135623731
  0
LINE
  5
350
330
1F
100
AcDbEntity
  8
1-E
  6
Continuous
 62
   120
370
     5
100
AcDbLine
 10
1964.944324706484
 20
-512.2822231581158
 30
0.0
 11
1964.944324706484
 21
-752.2822231581158
 31
0.0
  0
LWPOLYLINE
  5
351
330
1F
100
AcDbEntity
  8
1-E
  6
Continuous
 62
     7
370
     9
100
AcDbPolyline
 90
        4
 70
     1
 43
3.0
 10
2131.444324706484
 20
-512.2822231581158
 42
0.4142135623731
 10
2129.944324706484
 20
-510.7822231581158
 42
0.4142135623731
 10
2128.444324706484
 20
-512.2822231581158
 42
0.4142135623731
 10
2129.944324706484
 20
-513.7822231581159
 42
0.4142135623731
  0
LINE
  5
352
330
1F
100
AcDbEntity
  8
1-E
  6
Continuous
 62
   120
370
     5
100
AcDbLine
 10
2129.944324706484
 20
-512.2822231581158
 30
0.0
 11
2129.944324706484
 21
-752.2822231581158
 31
0.0
  0
MTEXT
  5
353
330
1F
100
AcDbEntity
  8
1-E
  6
Continuous
 62
     7
370
   211
100
AcDbMText
 10
2002.444324706484
 20
-1923.930164335515
 30
0.0
 40
68.58
 41
90.0
 46
0.0
 71
     7
 72
     1
  1
{\fＭＳ ゴシック|b0|i0|c128|p49;11}
 73
     1
 44
1.0
  0
LINE
  5
354
330
1F
100
AcDbEntity
  8
1-E
  6
Continuous
 62
    40
370
    15
100
AcDbLine
 10
1860.159829233553
 20
-834.1221601104523
 30
0.0
 11
1507.444324706484
 21
-834.1221601104523
 31
0.0
  0
LINE
  5
355
330
1F
100
AcDbEntity
  8
1-E
  6
Continuous
 62
    40
370
    15
100
AcDbLine
 10
2234.728820179416
 20
-834.1221601104523
 30
0.0
 11
2587.444324706484
 21
-834.1221601104523
 31
0.0
  0
MTEXT
  5
356
330
1F
100
AcDbEntity
  8
1-E
  6
Continuous
 62
     7
370
     9
100
AcDbMText
 10
-736.6953713228197
 20
-1948.845202715166
 30
0.0
 40
91.43999999999997
 41
1740.0
 46
0.0
 71
     7
 72
     1
  1
{\fＭＳ ゴシック|b0|i0|c128|p49;レール埋込時 フロアー貼込位置}
 73
     1
 44
1.0
  0
MTEXT
  5
357
330
1F
100
AcDbEntity
  8
1-E
  6
Continuous
 62
     7
370
   211
100
AcDbMText
 10
1574.592598967558
 20
-2060.086971205946
 30
0.0
 40
68.57999999999988
 41
134.9999999999998
 46
0.0
 71
     7
 72
     1
  1
{\fＭＳ ゴシック|b0|i0|c128|p49;1.2}
 11
6.123031769111886E-17
 21
1.0
 31
0.0
 73
     1
 44
1.0
  0
MTEXT
  5
358
330
1F
100
AcDbEntity
  8
1-E
  6
Continuous
 62
     7
370
   211
100
AcDbMText
 10
1574.592598967558
 20
-2172.110280268266
 30
0.0
 40
68.58
 41
45.0
 46
0.0
 71
     7
 72
     1
  1
{\fＭＳ ゴシック|b0|i0|c128|p49;7}
 11
6.123031769111886E-17
 21
1.0
 31
0.0
 73
     1
 44
1.0
  0
LINE
  5
359
330
1F
100
AcDbEntity
  8
1-E
  6
Continuous
 62
     7
370
     9
100
AcDbLine
 10
1859.944324706484
 20
-870.1221601104503
 30
0.0
 11
1507.444324706484
 21
-870.1221601104503
 31
0.0
  0
LINE
  5
35A
330
1F
100
AcDbEntity
  8
1-E
  6
Continuous
 62
     7
370
     9
100
AcDbLine
 10
1859.944324706484
 20
-906.1221601104517
 30
0.0
 11
1507.444324706484
 21
-906.1221601104517
 31
0.0
  0
LINE
  5
35B
330
1F
100
AcDbEntity
  8
1-E
  6
Continuous
 62
     7
370
     9
100
AcDbLine
 10
1859.944324706484
 20
-942.1221601104496
 30
0.0
 11
1507.444324706484
 21
-942.1221601104496
 31
0.0
  0
LINE
  5
35C
330
1F
100
AcDbEntity
  8
1-E
  6
Continuous
 62
     7
370
     9
100
AcDbLine
 10
1859.944324706484
 20
-978.122160110451
 30
0.0
 11
1507.444324706484
 21
-978.122160110451
 31
0.0
  0
LINE
  5
35D
330
1F
100
AcDbEntity
  8
1-E
  6
Continuous
 62
     7
370
     9
100
AcDbLine
 10
2587.444324706484
 20
-870.550130348402
 30
0.0
 11
2234.944324706484
 21
-870.550130348402
 31
0.0
  0
LINE
  5
35E
330
1F
100
AcDbEntity
  8
1-E
  6
Continuous
 62
     7
370
     9
100
AcDbLine
 10
2587.444324706484
 20
-906.5501303484034
 30
0.0
 11
2234.944324706484
 21
-906.5501303484034
 31
0.0
  0
LINE
  5
35F
330
1F
100
AcDbEntity
  8
1-E
  6
Continuous
 62
     7
370
     9
100
AcDbLine
 10
2587.444324706484
 20
-942.5501303484014
 30
0.0
 11
2234.944324706484
 21
-942.5501303484014
 31
0.0
  0
LINE
  5
360
330
1F
100
AcDbEntity
  8
1-E
  6
Continuous
 62
     7
370
     9
100
AcDbLine
 10
2587.444324706484
 20
-978.5501303484027
 30
0.0
 11
2234.944324706484
 21
-978.5501303484027
 31
0.0
  0
LINE
  5
361
330
1F
100
AcDbEntity
  8
1-E
  6
Continuous
 62
   120
370
     5
100
AcDbLine
 10
2887.444324706484
 20
-1014.122160110452
 30
0.0
 11
2887.444324706484
 21
-816.1221601104517
 31
0.0
  0
LINE
  5
362
330
1F
100
AcDbEntity
  8
1-E
  6
Continuous
 62
   120
370
     5
100
AcDbLine
 10
2617.444324706484
 20
-816.1221601104517
 30
0.0
 11
2887.444324706484
 21
-816.1221601104517
 31
0.0
  0
LWPOLYLINE
  5
363
330
1F
100
AcDbEntity
  8
1-E
  6
Continuous
 62
     7
370
     9
100
AcDbPolyline
 90
        4
 70
     1
 43
3.0
 10
2888.944324706484
 20
-816.1221601104517
 42
0.4142135623731
 10
2887.444324706484
 20
-814.6221601104517
 42
0.4142135623731
 10
2885.944324706484
 20
-816.1221601104517
 42
0.4142135623731
 10
2887.444324706484
 20
-817.6221601104518
 42
0.4142135623731
  0
LINE
  5
364
330
1F
100
AcDbEntity
  8
1-E
  6
Continuous
 62
   120
370
     5
100
AcDbLine
 10
2192.944324706481
 20
-632.2822231581158
 30
0.0
 11
2287.444324706484
 21
-632.2822231581158
 31
0.0
  0
LWPOLYLINE
  5
365
330
1F
100
AcDbEntity
  8
1-E
  6
Continuous
 62
     7
370
     9
100
AcDbPolyline
 90
        4
 70
     1
 43
3.0
 10
2194.444324706481
 20
-632.2822231581158
 42
0.4142135623731
 10
2192.944324706481
 20
-630.7822231581158
 42
0.4142135623731
 10
2191.444324706481
 20
-632.2822231581158
 42
0.4142135623731
 10
2192.944324706481
 20
-633.7822231581159
 42
0.4142135623731
  0
LINE
  5
366
330
1F
100
AcDbEntity
  8
1-E
  6
Continuous
 62
   120
370
     5
100
AcDbLine
 10
2192.944324706481
 20
-632.2822231581158
 30
0.0
 11
2192.944324706481
 21
-752.2822231581158
 31
0.0
  0
LINE
  5
367
330
1F
100
AcDbEntity
  8
1-E
  6
Continuous
 62
   120
370
     5
100
AcDbLine
 10
1807.444324706484
 20
-632.2822231581158
 30
0.0
 11
1901.944324706487
 21
-632.2822231581158
 31
0.0
  0
LINE
  5
368
330
1F
100
AcDbEntity
  8
1-E
  6
Continuous
 62
   120
370
     5
100
AcDbLine
 10
1901.944324706487
 20
-632.2822231581158
 30
0.0
 11
1901.944324706487
 21
-752.2822231581158
 31
0.0
  0
LWPOLYLINE
  5
369
330
1F
100
AcDbEntity
  8
1-E
  6
Continuous
 62
     7
370
     9
100
AcDbPolyline
 90
        4
 70
     1
 43
3.0
 10
1903.444324706487
 20
-632.2822231581158
 42
0.4142135623731
 10
1901.944324706487
 20
-630.7822231581158
 42
0.4142135623731
 10
1900.444324706487
 20
-632.2822231581158
 42
0.4142135623731
 10
1901.944324706487
 20
-633.7822231581159
 42
0.4142135623731
  0
MTEXT
  5
36A
330
1F
100
AcDbEntity
  8
1-E
  6
Continuous
 62
     7
370
   211
100
AcDbMText
 10
1418.149628723564
 20
-2208.110280268266
 30
0.0
 40
68.57999999999998
 41
135.0
 46
0.0
 71
     7
 72
     1
  1
{\fＭＳ ゴシック|b0|i0|c128|p49;8.2}
 11
6.123031769111886E-17
 21
1.0
 31
0.0
 73
     1
 44
1.0
  0
MTEXT
  5
36B
330
1F
100
AcDbEntity
  8
1-E
  6
Continuous
 62
     7
370
     9
100
AcDbMText
 10
-533.607981745093
 20
-2241.43908367489
 30
0.0
 40
91.44
 41
360.0
 46
0.0
 71
     7
 72
     1
  1
{\fＭＳ ゴシック|b0|i0|c128|p49;収納側}
 73
     1
 44
1.0
  0
MTEXT
  5
36C
330
1F
100
AcDbEntity
  8
1-E
  6
Continuous
 62
     7
370
   211
100
AcDbMText
 10
1957.444324706484
 20
-2398.006629078716
 30
0.0
 40
68.58
 41
180.0
 46
0.0
 71
     7
 72
     1
  1
{\fＭＳ ゴシック|b0|i0|c128|p49;19.4}
 73
     1
 44
1.0
  0
LINE
  5
36D
330
1F
100
AcDbEntity
  8
1-E
  6
Continuous
 62
   120
370
     5
100
AcDbLine
 10
1874.944324706484
 20
-959.4214392887254
 30
0.0
 11
1897.444324706484
 21
-936.921439288722
 31
0.0
  0
LINE
  5
36E
330
1F
100
AcDbEntity
  8
1-E
  6
Continuous
 62
    92
370
    13
100
AcDbLine
 10
1897.444324706484
 20
-939.1221601104523
 30
0.0
 11
2197.444324706484
 21
-939.1221601104523
 31
0.0
  0
LINE
  5
36F
330
1F
100
AcDbEntity
  8
1-E
  6
Continuous
 62
    92
370
    13
100
AcDbLine
 10
1897.444324706484
 20
-909.1221601104489
 30
0.0
 11
1897.444324706484
 21
-939.1221601104523
 31
0.0
  0
LINE
  5
370
330
1F
100
AcDbEntity
  8
1-E
  6
Continuous
 62
    92
370
    13
100
AcDbLine
 10
1897.444324706484
 20
-909.1221601104489
 30
0.0
 11
1874.944178906321
 21
-909.1221601104489
 31
0.0
  0
LINE
  5
371
330
1F
100
AcDbEntity
  8
1-E
  6
Continuous
 62
    92
370
    13
100
AcDbLine
 10
2197.444324706484
 20
-909.1221601104489
 30
0.0
 11
2219.471613005598
 21
-909.1221601104489
 31
0.0
  0
LINE
  5
372
330
1F
100
AcDbEntity
  8
1-E
  6
Continuous
 62
    92
370
    13
100
AcDbLine
 10
2197.444324706484
 20
-909.1221601104489
 30
0.0
 11
2197.444324706484
 21
-939.1221601104523
 31
0.0
  0
LINE
  5
373
330
1F
100
AcDbEntity
  8
1-E
  6
Continuous
 62
    92
370
    13
100
AcDbLine
 10
2219.471467205421
 20
-909.1216042847036
 30
0.0
 11
2219.471467205421
 21
-1014.122160110452
 31
0.0
  0
LINE
  5
374
330
1F
100
AcDbEntity
  8
1-E
  6
Continuous
 62
    92
370
    13
100
AcDbLine
 10
1874.944324706484
 20
-909.1216042847036
 30
0.0
 11
1874.944324706484
 21
-1014.122160110452
 31
0.0
  0
LINE
  5
375
330
1F
100
AcDbEntity
  8
1-E
  6
Continuous
 62
    92
370
    13
100
AcDbLine
 10
1874.944324706484
 20
-1014.122160110452
 30
0.0
 11
2219.471467205421
 21
-1014.122160110452
 31
0.0
  0
LINE
  5
376
330
1F
100
AcDbEntity
  8
1-E
  6
Continuous
 62
   120
370
     5
100
AcDbLine
 10
2202.08126572551
 20
-1014.122160110452
 30
0.0
 11
2219.471467205421
 21
-996.7319586305239
 31
0.0
  0
LINE
  5
377
330
1F
100
AcDbEntity
  8
1-E
  6
Continuous
 62
   120
370
     5
100
AcDbLine
 10
1883.883214191564
 20
-1014.122160110452
 30
0.0
 11
1958.883214191564
 21
-939.1221601104523
 31
0.0
  0
LINE
  5
378
330
1F
100
AcDbEntity
  8
1-E
  6
Continuous
 62
   120
370
     5
100
AcDbLine
 10
2074.80204511191
 20
-1014.122160110452
 30
0.0
 11
2149.80204511191
 21
-939.1221601104523
 31
0.0
  0
LINE
  5
379
330
1F
100
AcDbEntity
  8
1-E
  6
Continuous
 62
   120
370
     5
100
AcDbLine
 10
2011.16243480511
 20
-1014.122160110452
 30
0.0
 11
2086.16243480511
 21
-939.1221601104455
 31
0.0
  0
LINE
  5
37A
330
1F
100
AcDbEntity
  8
1-E
  6
Continuous
 62
   120
370
     5
100
AcDbLine
 10
1947.52282449831
 20
-1014.122160110452
 30
0.0
 11
2022.52282449831
 21
-939.1221601104421
 31
0.0
  0
LINE
  5
37B
330
1F
100
AcDbEntity
  8
1-E
  6
Continuous
 62
   120
370
     5
100
AcDbLine
 10
2138.44165541871
 20
-1014.122160110452
 30
0.0
 11
2219.471467205421
 21
-933.0923483237239
 31
0.0
  0
LINE
  5
37C
330
1F
100
AcDbEntity
  8
1-E
  6
JWW_HOJO
 62
   120
370
     5
100
AcDbLine
 10
2047.444324706484
 20
-819.6331525231237
 30
0.0
 11
2047.444324706484
 21
-973.8409357067637
 31
0.0
  0
LINE
  5
37D
330
1F
100
AcDbEntity
  8
1-E
  6
Continuous
 62
     7
370
     9
100
AcDbLine
 10
1919.944324706484
 20
-921.1221601104517
 30
0.0
 11
1949.944324706484
 21
-921.1221601104517
 31
0.0
  0
LINE
  5
37E
330
1F
100
AcDbEntity
  8
1-E
  6
Continuous
 62
     7
370
     9
100
AcDbLine
 10
1964.944324706484
 20
-921.1221601104517
 30
0.0
 11
2042.944324706481
 21
-921.1221601104517
 31
0.0
  0
LINE
  5
37F
330
1F
100
AcDbEntity
  8
1-E
  6
Continuous
 62
     7
370
     9
100
AcDbLine
 10
2042.944324706481
 20
-921.1221601104517
 30
0.0
 11
2047.444324706484
 21
-925.622160110451
 31
0.0
  0
LINE
  5
380
330
1F
100
AcDbEntity
  8
1-E
  6
Continuous
 62
     7
370
     9
100
AcDbLine
 10
2047.444324706484
 20
-925.622160110451
 30
0.0
 11
2051.944324706487
 21
-921.1221601104517
 31
0.0
  0
LINE
  5
381
330
1F
100
AcDbEntity
  8
1-E
  6
Continuous
 62
     7
370
     9
100
AcDbLine
 10
2051.944324706487
 20
-921.1221601104517
 30
0.0
 11
2129.944324706484
 21
-921.1221601104517
 31
0.0
  0
LINE
  5
382
330
1F
100
AcDbEntity
  8
1-E
  6
Continuous
 62
     7
370
     9
100
AcDbLine
 10
2144.944324706484
 20
-921.1221601104517
 30
0.0
 11
2174.944324706484
 21
-921.1221601104517
 31
0.0
  0
LINE
  5
383
330
1F
100
AcDbEntity
  8
1-E
  6
Continuous
 62
     7
370
     9
100
AcDbLine
 10
2282.944324706481
 20
-834.1221601104523
 30
0.0
 11
2192.944324706481
 21
-834.1221601104523
 31
0.0
  0
LINE
  5
384
330
1F
100
AcDbEntity
  8
1-E
  6
Continuous
 62
     7
370
     9
100
AcDbLine
 10
1901.944324706487
 20
-834.1221601104523
 30
0.0
 11
1811.944324706487
 21
-834.1221601104523
 31
0.0
  0
LINE
  5
385
330
1F
100
AcDbEntity
  8
1-E
  6
Continuous
 62
     7
370
     9
100
AcDbLine
 10
1901.944324706487
 20
-816.1221601104517
 30
0.0
 11
1811.944324706487
 21
-825.1221601104503
 31
0.0
  0
ARC
  5
386
330
1F
100
AcDbEntity
  8
1-E
  6
Continuous
 62
     7
370
     9
100
AcDbCircle
 10
1811.944324706487
 20
-829.6221601104496
 30
0.0
 40
4.500000000000001
100
AcDbArc
 50
90.0
 51
270.0
  0
ARC
  5
387
330
1F
100
AcDbEntity
  8
1-E
  6
Continuous
 62
     7
370
     9
100
AcDbCircle
 10
2282.944324706481
 20
-829.6221601104496
 30
0.0
 40
4.500000000000001
100
AcDbArc
 50
270.0
 51
89.99999999999997
  0
LINE
  5
388
330
1F
100
AcDbEntity
  8
1-E
  6
Continuous
 62
     7
370
     9
100
AcDbLine
 10
2282.944324706481
 20
-825.1221601104503
 30
0.0
 11
2192.944324706481
 21
-816.1221601104517
 31
0.0
  0
LINE
  5
389
330
1F
100
AcDbEntity
  8
1-E
  6
Continuous
 62
     7
370
     9
100
AcDbLine
 10
1955.944324706479
 20
-816.1221601104517
 30
0.0
 11
1901.944324706487
 21
-816.1221601104517
 31
0.0
  0
ARC
  5
38A
330
1F
100
AcDbEntity
  8
1-E
  6
Continuous
 62
     7
370
     9
100
AcDbCircle
 10
1955.944324706479
 20
-825.1221601104503
 30
0.0
 40
9.000000000000002
100
AcDbArc
 50
0.0
 51
90.0
  0
ARC
  5
38B
330
1F
100
AcDbEntity
  8
1-E
  6
Continuous
 62
     7
370
     9
100
AcDbCircle
 10
1955.944324706479
 20
-825.1221601104503
 30
0.0
 40
9.000000000000002
100
AcDbArc
 50
270.0
 51
0.0
  0
ARC
  5
38C
330
1F
100
AcDbEntity
  8
1-E
  6
Continuous
 62
     7
370
     9
100
AcDbCircle
 10
2138.94432470649
 20
-825.1221601104503
 30
0.0
 40
9.000000000000002
100
AcDbArc
 50
180.0
 51
270.0
  0
LINE
  5
38D
330
1F
100
AcDbEntity
  8
1-E
  6
Continuous
 62
     7
370
     9
100
AcDbLine
 10
2138.94432470649
 20
-816.1221601104517
 30
0.0
 11
2192.944324706481
 21
-816.1221601104517
 31
0.0
  0
ARC
  5
38E
330
1F
100
AcDbEntity
  8
1-E
  6
Continuous
 62
     7
370
     9
100
AcDbCircle
 10
2138.94432470649
 20
-825.1221601104503
 30
0.0
 40
9.000000000000002
100
AcDbArc
 50
90.0
 51
180.0
  0
LINE
  5
38F
330
1F
100
AcDbEntity
  8
1-E
  6
Continuous
 62
     7
370
     9
100
AcDbLine
 10
2192.944324706481
 20
-916.6221601104523
 30
0.0
 11
2192.944324706481
 21
-834.1221601104523
 31
0.0
  0
ARC
  5
390
330
1F
100
AcDbEntity
  8
1-E
  6
Continuous
 62
     7
370
     9
100
AcDbCircle
 10
2170.444324706481
 20
-916.6221601104523
 30
0.0
 40
22.5
100
AcDbArc
 50
270.0
 51
0.0
  0
LINE
  5
391
330
1F
100
AcDbEntity
  8
1-E
  6
Continuous
 62
     7
370
     9
100
AcDbLine
 10
1901.944324706487
 20
-916.6221601104523
 30
0.0
 11
1901.944324706487
 21
-834.1221601104523
 31
0.0
  0
LINE
  5
392
330
1F
100
AcDbEntity
  8
1-E
  6
Continuous
 62
     7
370
     9
100
AcDbLine
 10
1924.444324706487
 20
-939.1221601104523
 30
0.0
 11
2170.444324706481
 21
-939.1221601104523
 31
0.0
  0
ARC
  5
393
330
1F
100
AcDbEntity
  8
1-E
  6
Continuous
 62
     7
370
     9
100
AcDbCircle
 10
1924.444324706487
 20
-916.6221601104523
 30
0.0
 40
22.5
100
AcDbArc
 50
180.0
 51
270.0
  0
LINE
  5
394
330
1F
100
AcDbEntity
  8
1-E
  6
Continuous
 62
     7
370
     9
100
AcDbLine
 10
1927.444324706484
 20
-834.1221601104523
 30
0.0
 11
1955.944324706479
 21
-834.1221601104523
 31
0.0
  0
LINE
  5
395
330
1F
100
AcDbEntity
  8
1-E
  6
Continuous
 62
     7
370
     9
100
AcDbLine
 10
1919.944324706484
 20
-841.6221601104523
 30
0.0
 11
1919.944324706484
 21
-921.1221601104517
 31
0.0
  0
ARC
  5
396
330
1F
100
AcDbEntity
  8
1-E
  6
Continuous
 62
     7
370
     9
100
AcDbCircle
 10
1927.444324706484
 20
-841.6221601104523
 30
0.0
 40
7.5
100
AcDbArc
 50
90.0
 51
180.0
  0
LINE
  5
397
330
1F
100
AcDbEntity
  8
1-E
  6
Continuous
 62
     7
370
     9
100
AcDbLine
 10
2167.444324706484
 20
-834.1221601104523
 30
0.0
 11
2138.94432470649
 21
-834.1221601104523
 31
0.0
  0
LINE
  5
398
330
1F
100
AcDbEntity
  8
1-E
  6
Continuous
 62
     7
370
     9
100
AcDbLine
 10
2174.944324706484
 20
-841.6221601104523
 30
0.0
 11
2174.944324706484
 21
-921.1221601104517
 31
0.0
  0
ARC
  5
399
330
1F
100
AcDbEntity
  8
1-E
  6
Continuous
 62
     7
370
     9
100
AcDbCircle
 10
2167.444324706484
 20
-841.6221601104523
 30
0.0
 40
7.5
100
AcDbArc
 50
0.0
 51
90.0
  0
LINE
  5
39A
330
1F
100
AcDbEntity
  8
1-E
  6
Continuous
 62
     7
370
     9
100
AcDbLine
 10
1949.944324706484
 20
-909.1221601104523
 30
0.0
 11
1949.944324706484
 21
-921.1221601104517
 31
0.0
  0
ARC
  5
39B
330
1F
100
AcDbEntity
  8
1-E
  6
Continuous
 62
     7
370
     9
100
AcDbCircle
 10
1952.944324706481
 20
-909.1221601104523
 30
0.0
 40
3.0
100
AcDbArc
 50
90.0
 51
180.0
  0
LINE
  5
39C
330
1F
100
AcDbEntity
  8
1-E
  6
Continuous
 62
     7
370
     9
100
AcDbLine
 10
1961.944324706487
 20
-906.1221601104517
 30
0.0
 11
1952.944324706481
 21
-906.1221601104517
 31
0.0
  0
LINE
  5
39D
330
1F
100
AcDbEntity
  8
1-E
  6
Continuous
 62
     7
370
     9
100
AcDbLine
 10
1964.944324706484
 20
-909.1221601104523
 30
0.0
 11
1964.944324706484
 21
-921.1221601104517
 31
0.0
  0
ARC
  5
39E
330
1F
100
AcDbEntity
  8
1-E
  6
Continuous
 62
     7
370
     9
100
AcDbCircle
 10
1961.944324706487
 20
-909.1221601104523
 30
0.0
 40
3.0
100
AcDbArc
 50
0.0
 51
90.0
  0
LINE
  5
39F
330
1F
100
AcDbEntity
  8
1-E
  6
Continuous
 62
     7
370
     9
100
AcDbLine
 10
2129.944324706484
 20
-909.1221601104523
 30
0.0
 11
2129.944324706484
 21
-921.1221601104517
 31
0.0
  0
ARC
  5
3A0
330
1F
100
AcDbEntity
  8
1-E
  6
Continuous
 62
     7
370
     9
100
AcDbCircle
 10
2132.944324706481
 20
-909.1221601104523
 30
0.0
 40
3.0
100
AcDbArc
 50
90.0
 51
180.0
  0
LINE
  5
3A1
330
1F
100
AcDbEntity
  8
1-E
  6
Continuous
 62
     7
370
     9
100
AcDbLine
 10
2141.944324706487
 20
-906.1221601104517
 30
0.0
 11
2132.944324706481
 21
-906.1221601104517
 31
0.0
  0
LINE
  5
3A2
330
1F
100
AcDbEntity
  8
1-E
  6
Continuous
 62
     7
370
     9
100
AcDbLine
 10
2144.944324706484
 20
-909.1221601104523
 30
0.0
 11
2144.944324706484
 21
-921.1221601104517
 31
0.0
  0
ARC
  5
3A3
330
1F
100
AcDbEntity
  8
1-E
  6
Continuous
 62
     7
370
     9
100
AcDbCircle
 10
2141.944324706487
 20
-909.1221601104523
 30
0.0
 40
3.0
100
AcDbArc
 50
0.0
 51
90.0
  0
ARC
  5
3A4
330
1F
100
AcDbEntity
  8
1-E
  6
JWW_DASHED1
 62
     7
370
     9
100
AcDbCircle
 10
1811.944324706487
 20
-829.6221601104496
 30
0.0
 40
4.500000000000001
100
AcDbArc
 50
270.0
 51
90.0
  0
ARC
  5
3A5
330
1F
100
AcDbEntity
  8
1-E
  6
JWW_DASHED1
 62
     7
370
     9
100
AcDbCircle
 10
2282.944324706481
 20
-829.6221601104496
 30
0.0
 40
4.500000000000001
100
AcDbArc
 50
90.0
 51
270.0
  0
LINE
  5
3A6
330
1F
100
AcDbEntity
  8
1-E
  6
Continuous
 62
    40
370
    15
100
AcDbLine
 10
2234.944324706484
 20
-834.1221601104523
 30
0.0
 11
2234.944324706484
 21
-1014.122160110452
 31
0.0
  0
LINE
  5
3A7
330
1F
100
AcDbEntity
  8
1-E
  6
Continuous
 62
    40
370
    15
100
AcDbLine
 10
1859.944324706484
 20
-834.1221601104523
 30
0.0
 11
1859.944324706484
 21
-1014.122160110452
 31
0.0
  0
LINE
  5
3A8
330
1F
100
AcDbEntity
  8
1-E
  6
Continuous
 62
     7
370
     9
100
AcDbLine
 10
2274.724680049166
 20
-1125.339660921864
 30
0.0
 11
2341.277304526115
 21
-1125.339660921864
 31
0.0
  0
INSERT
  5
3A9
330
1F
100
AcDbEntity
  8
1-E
  6
Continuous
 62
     7
370
     9
100
AcDbBlockReference
  2
01@@SfigorgFlag@@4
 10
2047.444324706484
 20
-2128.669511037496
 30
0.0
 41
30.0
 42
30.0
  0
LWPOLYLINE
  5
3AA
330
1F
100
AcDbEntity
  8
1-E
  6
Continuous
 62
     7
370
     9
100
AcDbPolyline
 90
        4
 70
     1
 43
3.0
 10
1808.944324706486
 20
-2081.900280268263
 42
0.4142135623731
 10
1807.444324706487
 20
-2080.400280268263
 42
0.4142135623731
 10
1805.944324706487
 20
-2081.900280268263
 42
0.4142135623731
 10
1807.444324706487
 20
-2083.400280268263
 42
0.4142135623731
  0
LWPOLYLINE
  5
3AB
330
1F
100
AcDbEntity
  8
1-E
  6
Continuous
 62
     7
370
     9
100
AcDbPolyline
 90
        4
 70
     1
 43
3.0
 10
2288.944324706482
 20
-2081.900280268263
 42
0.4142135623731
 10
2287.444324706482
 20
-2080.400280268263
 42
0.4142135623731
 10
2285.944324706482
 20
-2081.900280268263
 42
0.4142135623731
 10
2287.444324706482
 20
-2083.400280268263
 42
0.4142135623731
  0
LWPOLYLINE
  5
3AC
330
1F
100
AcDbEntity
  8
1-E
  6
Continuous
 62
     7
370
     9
100
AcDbPolyline
 90
        4
 70
     1
 43
3.0
 10
1966.444324706479
 20
-2077.400280268264
 42
0.4142135623731
 10
1964.944324706479
 20
-2075.900280268264
 42
0.4142135623731
 10
1963.444324706479
 20
-2077.400280268264
 42
0.4142135623731
 10
1964.944324706479
 20
-2078.900280268264
 42
0.4142135623731
  0
LWPOLYLINE
  5
3AD
330
1F
100
AcDbEntity
  8
1-E
  6
Continuous
 62
     7
370
     9
100
AcDbPolyline
 90
        4
 70
     1
 43
3.0
 10
2131.44432470649
 20
-2077.400280268264
 42
0.4142135623731
 10
2129.94432470649
 20
-2075.900280268264
 42
0.4142135623731
 10
2128.44432470649
 20
-2077.400280268264
 42
0.4142135623731
 10
2129.94432470649
 20
-2078.900280268264
 42
0.4142135623731
  0
LINE
  5
3AE
330
1F
100
AcDbEntity
  8
1-E
  6
Continuous
 62
   120
370
     5
100
AcDbLine
 10
1964.944324706479
 20
-1928.220164335516
 30
0.0
 11
2129.94432470649
 21
-1928.220164335516
 31
0.0
  0
LWPOLYLINE
  5
3AF
330
1F
100
AcDbEntity
  8
1-E
  6
Continuous
 62
     7
370
     9
100
AcDbPolyline
 90
        4
 70
     1
 43
3.0
 10
1966.444324706479
 20
-1928.220164335516
 42
0.4142135623731
 10
1964.944324706479
 20
-1926.720164335516
 42
0.4142135623731
 10
1963.444324706479
 20
-1928.220164335516
 42
0.4142135623731
 10
1964.944324706479
 20
-1929.720164335516
 42
0.4142135623731
  0
LWPOLYLINE
  5
3B0
330
1F
100
AcDbEntity
  8
1-E
  6
Continuous
 62
     7
370
     9
100
AcDbPolyline
 90
        4
 70
     1
 43
3.0
 10
2131.44432470649
 20
-1928.220164335516
 42
0.4142135623731
 10
2129.94432470649
 20
-1926.720164335516
 42
0.4142135623731
 10
2128.44432470649
 20
-1928.220164335516
 42
0.4142135623731
 10
2129.94432470649
 20
-1929.720164335516
 42
0.4142135623731
  0
LINE
  5
3B1
330
1F
100
AcDbEntity
  8
1-E
  6
Continuous
 62
   120
370
     5
100
AcDbLine
 10
1964.944324706479
 20
-1928.220164335516
 30
0.0
 11
1964.944324706479
 21
-2014.084473253462
 31
0.0
  0
LINE
  5
3B2
330
1F
100
AcDbEntity
  8
1-E
  6
Continuous
 62
   120
370
     5
100
AcDbLine
 10
2129.94432470649
 20
-1928.220164335516
 30
0.0
 11
2129.94432470649
 21
-2014.084473253462
 31
0.0
  0
MTEXT
  5
3B3
330
1F
100
AcDbEntity
  8
1-E
  6
Continuous
 62
     7
370
   211
100
AcDbMText
 10
-173.597929956253
 20
-2514.960265755131
 30
0.0
 40
91.44000000000065
 41
120.0000000000009
 46
0.0
 71
     7
 72
     1
  1
{\fＭＳ ゴシック|b0|i0|c128|p49;26}
 11
6.123031769111886E-17
 21
1.0
 31
0.0
 73
     1
 44
1.0
  0
LINE
  5
3B4
330
1F
100
AcDbEntity
  8
1-E
  6
Continuous
 62
   120
370
     5
100
AcDbLine
 10
1807.444324706487
 20
-1768.757876345044
 30
0.0
 11
2287.444324706482
 21
-1768.757876345044
 31
0.0
  0
LWPOLYLINE
  5
3B5
330
1F
100
AcDbEntity
  8
1-E
  6
Continuous
 62
     7
370
     9
100
AcDbPolyline
 90
        4
 70
     1
 43
3.0
 10
1808.944324706486
 20
-1768.757876345044
 42
0.4142135623731
 10
1807.444324706487
 20
-1767.257876345044
 42
0.4142135623731
 10
1805.944324706487
 20
-1768.757876345044
 42
0.4142135623731
 10
1807.444324706487
 20
-1770.257876345044
 42
0.4142135623731
  0
LWPOLYLINE
  5
3B6
330
1F
100
AcDbEntity
  8
1-E
  6
Continuous
 62
     7
370
     9
100
AcDbPolyline
 90
        4
 70
     1
 43
3.0
 10
2288.944324706482
 20
-1768.757876345044
 42
0.4142135623731
 10
2287.444324706482
 20
-1767.257876345044
 42
0.4142135623731
 10
2285.944324706482
 20
-1768.757876345044
 42
0.4142135623731
 10
2287.444324706482
 20
-1770.257876345044
 42
0.4142135623731
  0
LINE
  5
3B7
330
1F
100
AcDbEntity
  8
1-E
  6
Continuous
 62
   120
370
     5
100
AcDbLine
 10
1807.444324706487
 20
-1768.757876345044
 30
0.0
 11
1807.444324706487
 21
-2014.084473253462
 31
0.0
  0
LINE
  5
3B8
330
1F
100
AcDbEntity
  8
1-E
  6
Continuous
 62
   120
370
     5
100
AcDbLine
 10
2287.444324706482
 20
-1768.757876345044
 30
0.0
 11
2287.444324706482
 21
-2014.084473253462
 31
0.0
  0
MTEXT
  5
3B9
330
1F
100
AcDbEntity
  8
1-E
  6
Continuous
 62
     7
370
   211
100
AcDbMText
 10
2002.207895955953
 20
-2607.676425215755
 30
0.0
 40
68.58
 41
90.0
 46
0.0
 71
     7
 72
     1
  1
{\fＭＳ ゴシック|b0|i0|c128|p49;23}
 73
     1
 44
1.0
  0
LWPOLYLINE
  5
3BA
330
1F
100
AcDbEntity
  8
1-E
  6
Continuous
 62
     7
370
     9
100
AcDbPolyline
 90
        4
 70
     1
 43
3.0
 10
1591.092598967558
 20
-2068.400280268265
 42
0.4142135623731
 10
1589.592598967558
 20
-2066.900280268265
 42
0.4142135623731
 10
1588.092598967558
 20
-2068.400280268265
 42
0.4142135623731
 10
1589.592598967558
 20
-2069.900280268265
 42
0.4142135623731
  0
LWPOLYLINE
  5
3BB
330
1F
100
AcDbEntity
  8
1-E
  6
Continuous
 62
     7
370
     9
100
AcDbPolyline
 90
        4
 70
     1
 43
3.0
 10
1591.092598967558
 20
-2086.400280268266
 42
0.4142135623731
 10
1589.592598967558
 20
-2084.900280268266
 42
0.4142135623731
 10
1588.092598967558
 20
-2086.400280268266
 42
0.4142135623731
 10
1589.592598967558
 20
-2087.900280268266
 42
0.4142135623731
  0
LINE
  5
3BC
330
1F
100
AcDbEntity
  8
1-E
  6
Continuous
 62
   120
370
     5
100
AcDbLine
 10
1589.592598967558
 20
-2068.400280268265
 30
0.0
 11
1720.433450652049
 21
-2068.400280268265
 31
0.0
  0
LINE
  5
3BD
330
1F
100
AcDbEntity
  8
1-E
  6
Continuous
 62
   120
370
     5
100
AcDbLine
 10
1589.592598967558
 20
-2086.400280268266
 30
0.0
 11
1720.433450652049
 21
-2086.400280268266
 31
0.0
  0
LINE
  5
3BE
330
1F
100
AcDbEntity
  8
1-E
  6
Continuous
 62
   120
370
     5
100
AcDbLine
 10
1589.592598967558
 20
-2086.400280268266
 30
0.0
 11
1589.592598967558
 21
-2191.400280268266
 31
0.0
  0
LWPOLYLINE
  5
3BF
330
1F
100
AcDbEntity
  8
1-E
  6
Continuous
 62
     7
370
     9
100
AcDbPolyline
 90
        4
 70
     1
 43
3.0
 10
1591.092598967558
 20
-2191.400280268266
 42
0.4142135623731
 10
1589.592598967558
 20
-2189.900280268266
 42
0.4142135623731
 10
1588.092598967558
 20
-2191.400280268266
 42
0.4142135623731
 10
1589.592598967558
 20
-2192.900280268266
 42
0.4142135623731
  0
LINE
  5
3C0
330
1F
100
AcDbEntity
  8
1-E
  6
Continuous
 62
   120
370
     5
100
AcDbLine
 10
1589.592598967558
 20
-2191.400280268266
 30
0.0
 11
1720.433450652049
 21
-2191.400280268266
 31
0.0
  0
MTEXT
  5
3C1
330
1F
100
AcDbEntity
  8
1-E
  6
Continuous
 62
     7
370
   211
100
AcDbMText
 10
-173.597929956253
 20
-2667.960265755132
 30
0.0
 40
91.44000000000065
 41
120.0000000000009
 46
0.0
 71
     7
 72
     1
  1
{\fＭＳ ゴシック|b0|i0|c128|p49;25}
 11
6.123031769111886E-17
 21
1.0
 31
0.0
 73
     1
 44
1.0
  0
LINE
  5
3C2
330
1F
100
AcDbEntity
  8
1-E
  6
Continuous
 62
   120
370
     5
100
AcDbLine
 10
1901.944324706487
 20
-2402.296629078716
 30
0.0
 11
2192.944324706481
 21
-2402.296629078716
 31
0.0
  0
LWPOLYLINE
  5
3C3
330
1F
100
AcDbEntity
  8
1-E
  6
Continuous
 62
     7
370
     9
100
AcDbPolyline
 90
        4
 70
     1
 43
3.0
 10
1903.444324706487
 20
-2402.296629078716
 42
0.4142135623731
 10
1901.944324706487
 20
-2400.796629078716
 42
0.4142135623731
 10
1900.444324706487
 20
-2402.296629078716
 42
0.4142135623731
 10
1901.944324706487
 20
-2403.796629078716
 42
0.4142135623731
  0
LWPOLYLINE
  5
3C4
330
1F
100
AcDbEntity
  8
1-E
  6
Continuous
 62
     7
370
     9
100
AcDbPolyline
 90
        4
 70
     1
 43
3.0
 10
2194.444324706481
 20
-2402.296629078716
 42
0.4142135623731
 10
2192.944324706481
 20
-2400.796629078716
 42
0.4142135623731
 10
2191.444324706481
 20
-2402.296629078716
 42
0.4142135623731
 10
2192.944324706481
 20
-2403.796629078716
 42
0.4142135623731
  0
LINE
  5
3C5
330
1F
100
AcDbEntity
  8
1-E
  6
Continuous
 62
   120
370
     5
100
AcDbLine
 10
1901.944324706487
 20
-2402.296629078716
 30
0.0
 11
1901.944324706487
 21
-2274.680547010566
 31
0.0
  0
LINE
  5
3C6
330
1F
100
AcDbEntity
  8
1-E
  6
Continuous
 62
   120
370
     5
100
AcDbLine
 10
2192.944324706481
 20
-2402.296629078716
 30
0.0
 11
2192.944324706481
 21
-2274.680547010566
 31
0.0
  0
MTEXT
  5
3C7
330
1F
100
AcDbEntity
  8
1-E
  6
Continuous
 62
     7
370
   211
100
AcDbMText
 10
-317.9426054446037
 20
-2668.382373348566
 30
0.0
 40
91.44000000000065
 41
120.0000000000009
 46
0.0
 71
     7
 72
     1
  1
{\fＭＳ ゴシック|b0|i0|c128|p49;77}
 11
6.123031769111886E-17
 21
1.0
 31
0.0
 73
     1
 44
1.0
  0
MTEXT
  5
3C8
330
1F
100
AcDbEntity
  8
1-E
  6
Continuous
 62
     7
370
   211
100
AcDbMText
 10
1725.559660608014
 20
-2769.623660873526
 30
0.0
 40
68.57999999999998
 41
135.0
 46
0.0
 71
     7
 72
     1
  1
{\fＭＳ ゴシック|b0|i0|c128|p49;1.5}
 73
     1
 44
1.0
  0
LINE
  5
3C9
330
1F
100
AcDbEntity
  8
1-E
  6
Continuous
 62
   120
370
     5
100
AcDbLine
 10
1589.592598967558
 20
-1901.912435643959
 30
0.0
 11
1589.592598967558
 21
-2086.400280268266
 31
0.0
  0
LINE
  5
3CA
330
1F
100
AcDbEntity
  8
1-E
  6
JWW_HOJO
 62
   120
370
     5
100
AcDbLine
 10
2047.444324706484
 20
-2071.911272680937
 30
0.0
 11
2047.444324706484
 21
-2226.119055864578
 31
0.0
  0
LINE
  5
3CB
330
1F
100
AcDbEntity
  8
1-E
  6
Continuous
 62
   120
370
     5
100
AcDbLine
 10
1874.944324706484
 20
-3000.906861804463
 30
0.0
 11
1897.444324706484
 21
-2978.40686180446
 31
0.0
  0
LINE
  5
3CC
330
1F
100
AcDbEntity
  8
1-E
  6
Continuous
 62
    92
370
    13
100
AcDbLine
 10
1897.444324706484
 20
-2950.607582626187
 30
0.0
 11
1897.444324706484
 21
-2980.60758262619
 31
0.0
  0
LINE
  5
3CD
330
1F
100
AcDbEntity
  8
1-E
  6
Continuous
 62
    92
370
    13
100
AcDbLine
 10
1897.444324706484
 20
-2950.607582626187
 30
0.0
 11
1874.944178906321
 21
-2950.607582626187
 31
0.0
  0
LINE
  5
3CE
330
1F
100
AcDbEntity
  8
1-E
  6
Continuous
 62
    92
370
    13
100
AcDbLine
 10
1874.944324706484
 20
-2950.607026800441
 30
0.0
 11
1874.944324706484
 21
-3055.60758262619
 31
0.0
  0
LINE
  5
3CF
330
1F
100
AcDbEntity
  8
1-E
  6
Continuous
 62
    92
370
    13
100
AcDbLine
 10
1897.444324706484
 20
-2980.60758262619
 30
0.0
 11
2197.444324706484
 21
-2980.60758262619
 31
0.0
  0
LINE
  5
3D0
330
1F
100
AcDbEntity
  8
1-E
  6
Continuous
 62
   120
370
     5
100
AcDbLine
 10
1883.883214191564
 20
-3055.60758262619
 30
0.0
 11
1958.883214191564
 21
-2980.60758262619
 31
0.0
  0
LINE
  5
3D1
330
1F
100
AcDbEntity
  8
1-E
  6
Continuous
 62
   120
370
     5
100
AcDbLine
 10
1947.52282449831
 20
-3055.60758262619
 30
0.0
 11
2022.52282449831
 21
-2980.60758262618
 31
0.0
  0
LINE
  5
3D2
330
1F
100
AcDbEntity
  8
1-E
  6
Continuous
 62
   120
370
     5
100
AcDbLine
 10
2011.16243480511
 20
-3055.60758262619
 30
0.0
 11
2086.16243480511
 21
-2980.607582626183
 31
0.0
  0
LINE
  5
3D3
330
1F
100
AcDbEntity
  8
1-E
  6
Continuous
 62
   120
370
     5
100
AcDbLine
 10
2074.80204511191
 20
-3055.60758262619
 30
0.0
 11
2149.80204511191
 21
-2980.60758262619
 31
0.0
  0
LINE
  5
3D4
330
1F
100
AcDbEntity
  8
1-E
  6
Continuous
 62
   120
370
     5
100
AcDbLine
 10
2138.44165541871
 20
-3055.60758262619
 30
0.0
 11
2219.471467205421
 21
-2974.577770839462
 31
0.0
  0
LINE
  5
3D5
330
1F
100
AcDbEntity
  8
1-E
  6
Continuous
 62
   120
370
     5
100
AcDbLine
 10
2202.08126572551
 20
-3055.60758262619
 30
0.0
 11
2219.471467205421
 21
-3038.217381146262
 31
0.0
  0
LINE
  5
3D6
330
1F
100
AcDbEntity
  8
1-E
  6
Continuous
 62
    92
370
    13
100
AcDbLine
 10
2197.444324706484
 20
-2950.607582626187
 30
0.0
 11
2197.444324706484
 21
-2980.60758262619
 31
0.0
  0
LINE
  5
3D7
330
1F
100
AcDbEntity
  8
1-E
  6
Continuous
 62
    92
370
    13
100
AcDbLine
 10
2197.444324706484
 20
-2950.607582626187
 30
0.0
 11
2219.471613005598
 21
-2950.607582626187
 31
0.0
  0
LINE
  5
3D8
330
1F
100
AcDbEntity
  8
1-E
  6
Continuous
 62
    92
370
    13
100
AcDbLine
 10
2219.471467205421
 20
-2950.607026800441
 30
0.0
 11
2219.471467205421
 21
-3055.60758262619
 31
0.0
  0
LINE
  5
3D9
330
1F
100
AcDbEntity
  8
1-E
  6
Continuous
 62
    92
370
    13
100
AcDbLine
 10
1874.944324706484
 20
-3055.60758262619
 30
0.0
 11
2219.471467205421
 21
-3055.60758262619
 31
0.0
  0
LWPOLYLINE
  5
3DA
330
1F
100
AcDbEntity
  8
1-E
  6
Continuous
 62
     7
370
     9
100
AcDbPolyline
 90
        4
 70
     1
 43
3.0
 10
1876.444324706484
 20
-2773.913660873526
 42
0.4142135623731
 10
1874.944324706484
 20
-2772.413660873526
 42
0.4142135623731
 10
1873.444324706484
 20
-2773.913660873526
 42
0.4142135623731
 10
1874.944324706484
 20
-2775.413660873526
 42
0.4142135623731
  0
LWPOLYLINE
  5
3DB
330
1F
100
AcDbEntity
  8
1-E
  6
Continuous
 62
     7
370
     9
100
AcDbPolyline
 90
        4
 70
     1
 43
3.0
 10
1898.944324706484
 20
-2773.913660873526
 42
0.4142135623731
 10
1897.444324706484
 20
-2772.413660873526
 42
0.4142135623731
 10
1895.944324706484
 20
-2773.913660873526
 42
0.4142135623731
 10
1897.444324706484
 20
-2775.413660873526
 42
0.4142135623731
  0
LINE
  5
3DC
330
1F
100
AcDbEntity
  8
1-E
  6
Continuous
 62
   120
370
     5
100
AcDbLine
 10
1874.944324706484
 20
-2773.913660873526
 30
0.0
 11
1874.944324706484
 21
-2878.426012602427
 31
0.0
  0
LINE
  5
3DD
330
1F
100
AcDbEntity
  8
1-E
  6
Continuous
 62
   120
370
     5
100
AcDbLine
 10
1897.444324706484
 20
-2773.913660873526
 30
0.0
 11
1897.444324706484
 21
-2878.426012602427
 31
0.0
  0
LINE
  5
3DE
330
1F
100
AcDbEntity
  8
1-E
  6
Continuous
 62
   120
370
     5
100
AcDbLine
 10
1897.444324706484
 20
-2773.913660873526
 30
0.0
 11
2197.444324706484
 21
-2773.913660873526
 31
0.0
  0
LWPOLYLINE
  5
3DF
330
1F
100
AcDbEntity
  8
1-E
  6
Continuous
 62
     7
370
     9
100
AcDbPolyline
 90
        4
 70
     1
 43
3.0
 10
2198.944324706484
 20
-2773.913660873526
 42
0.4142135623731
 10
2197.444324706484
 20
-2772.413660873526
 42
0.4142135623731
 10
2195.944324706484
 20
-2773.913660873526
 42
0.4142135623731
 10
2197.444324706484
 20
-2775.413660873526
 42
0.4142135623731
  0
LINE
  5
3E0
330
1F
100
AcDbEntity
  8
1-E
  6
Continuous
 62
   120
370
     5
100
AcDbLine
 10
2197.444324706484
 20
-2773.913660873526
 30
0.0
 11
2197.444324706484
 21
-2878.426012602427
 31
0.0
  0
MTEXT
  5
3E1
330
1F
100
AcDbEntity
  8
1-E
  6
Continuous
 62
     7
370
   211
100
AcDbMText
 10
2002.444324706484
 20
-2769.623660873526
 30
0.0
 40
68.58
 41
90.0
 46
0.0
 71
     7
 72
     1
  1
{\fＭＳ ゴシック|b0|i0|c128|p49;20}
 73
     1
 44
1.0
  0
LWPOLYLINE
  5
3E2
330
1F
100
AcDbEntity
  8
1-E
  6
Continuous
 62
     7
370
     9
100
AcDbPolyline
 90
        4
 70
     1
 43
3.0
 10
2220.971467205421
 20
-2773.913660873526
 42
0.4142135623731
 10
2219.471467205421
 20
-2772.413660873526
 42
0.4142135623731
 10
2217.971467205421
 20
-2773.913660873526
 42
0.4142135623731
 10
2219.471467205421
 20
-2775.413660873526
 42
0.4142135623731
  0
LINE
  5
3E3
330
1F
100
AcDbEntity
  8
1-E
  6
Continuous
 62
   120
370
     5
100
AcDbLine
 10
2219.471467205421
 20
-2773.913660873526
 30
0.0
 11
2219.471467205421
 21
-2878.426012602427
 31
0.0
  0
LWPOLYLINE
  5
3E4
330
1F
100
AcDbEntity
  8
1-E
  6
Continuous
 62
     7
370
     9
100
AcDbPolyline
 90
        4
 70
     1
 43
3.0
 10
1591.092598967558
 20
-2950.607026800441
 42
0.4142135623731
 10
1589.592598967558
 20
-2949.107026800441
 42
0.4142135623731
 10
1588.092598967558
 20
-2950.607026800441
 42
0.4142135623731
 10
1589.592598967558
 20
-2952.107026800441
 42
0.4142135623731
  0
LWPOLYLINE
  5
3E5
330
1F
100
AcDbEntity
  8
1-E
  6
Continuous
 62
     7
370
     9
100
AcDbPolyline
 90
        4
 70
     1
 43
3.0
 10
1591.092598967558
 20
-2980.607582626183
 42
0.4142135623731
 10
1589.592598967558
 20
-2979.107582626183
 42
0.4142135623731
 10
1588.092598967558
 20
-2980.607582626183
 42
0.4142135623731
 10
1589.592598967558
 20
-2982.107582626183
 42
0.4142135623731
  0
LINE
  5
3E6
330
1F
100
AcDbEntity
  8
1-E
  6
Continuous
 62
   120
370
     5
100
AcDbLine
 10
1589.592598967558
 20
-2950.607026800441
 30
0.0
 11
1720.433450652049
 21
-2950.607026800441
 31
0.0
  0
LINE
  5
3E7
330
1F
100
AcDbEntity
  8
1-E
  6
Continuous
 62
   120
370
     5
100
AcDbLine
 10
1589.592598967558
 20
-2980.607582626183
 30
0.0
 11
1720.433450652049
 21
-2980.607582626183
 31
0.0
  0
LINE
  5
3E8
330
1F
100
AcDbEntity
  8
1-E
  6
Continuous
 62
   120
370
     5
100
AcDbLine
 10
1589.592598967558
 20
-2980.607582626183
 30
0.0
 11
1589.592598967558
 21
-3055.60758262619
 31
0.0
  0
LWPOLYLINE
  5
3E9
330
1F
100
AcDbEntity
  8
1-E
  6
Continuous
 62
     7
370
     9
100
AcDbPolyline
 90
        4
 70
     1
 43
3.0
 10
1591.092598967558
 20
-3055.60758262619
 42
0.4142135623731
 10
1589.592598967558
 20
-3054.10758262619
 42
0.4142135623731
 10
1588.092598967558
 20
-3055.60758262619
 42
0.4142135623731
 10
1589.592598967558
 20
-3057.10758262619
 42
0.4142135623731
  0
LINE
  5
3EA
330
1F
100
AcDbEntity
  8
1-E
  6
Continuous
 62
   120
370
     5
100
AcDbLine
 10
1589.592598967558
 20
-3055.60758262619
 30
0.0
 11
1720.433450652049
 21
-3055.60758262619
 31
0.0
  0
MTEXT
  5
3EB
330
1F
100
AcDbEntity
  8
1-E
  6
Continuous
 62
     7
370
   211
100
AcDbMText
 10
2246.311472177244
 20
-2769.623660873526
 30
0.0
 40
68.57999999999998
 41
135.0
 46
0.0
 71
     7
 72
     1
  1
{\fＭＳ ゴシック|b0|i0|c128|p49;1.5}
 73
     1
 44
1.0
  0
LINE
  5
3EC
330
1F
100
AcDbEntity
  8
1-E
  6
Continuous
 62
   120
370
     5
100
AcDbLine
 10
1433.149628723564
 20
-3055.60758262619
 30
0.0
 11
1433.149628723564
 21
-2950.607026800441
 31
0.0
  0
LWPOLYLINE
  5
3ED
330
1F
100
AcDbEntity
  8
1-E
  6
Continuous
 62
     7
370
     9
100
AcDbPolyline
 90
        4
 70
     1
 43
3.0
 10
1434.649628723564
 20
-3055.60758262619
 42
0.4142135623731
 10
1433.149628723564
 20
-3054.10758262619
 42
0.4142135623731
 10
1431.649628723564
 20
-3055.60758262619
 42
0.4142135623731
 10
1433.149628723564
 20
-3057.10758262619
 42
0.4142135623731
  0
LWPOLYLINE
  5
3EE
330
1F
100
AcDbEntity
  8
1-E
  6
Continuous
 62
     7
370
     9
100
AcDbPolyline
 90
        4
 70
     1
 43
3.0
 10
1434.649628723564
 20
-2950.607026800441
 42
0.4142135623731
 10
1433.149628723564
 20
-2949.107026800441
 42
0.4142135623731
 10
1431.649628723564
 20
-2950.607026800441
 42
0.4142135623731
 10
1433.149628723564
 20
-2952.107026800441
 42
0.4142135623731
  0
LINE
  5
3EF
330
1F
100
AcDbEntity
  8
1-E
  6
Continuous
 62
   120
370
     5
100
AcDbLine
 10
1433.149628723564
 20
-3055.60758262619
 30
0.0
 11
1589.592598967558
 21
-3055.60758262619
 31
0.0
  0
LINE
  5
3F0
330
1F
100
AcDbEntity
  8
1-E
  6
Continuous
 62
   120
370
     5
100
AcDbLine
 10
1433.149628723564
 20
-2950.607026800441
 30
0.0
 11
1589.592598967558
 21
-2950.607026800441
 31
0.0
  0
MTEXT
  5
3F1
330
1F
100
AcDbEntity
  8
1-E
  6
Continuous
 62
     7
370
   211
100
AcDbMText
 10
-173.597929956253
 20
-2820.960265755129
 30
0.0
 40
91.44000000000065
 41
120.0000000000009
 46
0.0
 71
     7
 72
     1
  1
{\fＭＳ ゴシック|b0|i0|c128|p49;26}
 11
6.123031769111886E-17
 21
1.0
 31
0.0
 73
     1
 44
1.0
  0
LWPOLYLINE
  5
3F2
330
1F
100
AcDbEntity
  8
1-E
  6
Continuous
 62
     7
370
     9
100
AcDbPolyline
 90
        4
 70
     1
 43
3.0
 10
1434.649628723564
 20
-2191.400280268266
 42
0.4142135623731
 10
1433.149628723564
 20
-2189.900280268266
 42
0.4142135623731
 10
1431.649628723564
 20
-2191.400280268266
 42
0.4142135623731
 10
1433.149628723564
 20
-2192.900280268266
 42
0.4142135623731
  0
LINE
  5
3F3
330
1F
100
AcDbEntity
  8
1-E
  6
Continuous
 62
   120
370
     5
100
AcDbLine
 10
1433.149628723564
 20
-2191.400280268266
 30
0.0
 11
1589.592598967558
 21
-2191.400280268266
 31
0.0
  0
LINE
  5
3F4
330
1F
100
AcDbEntity
  8
1-E
  6
Continuous
 62
   120
370
     5
100
AcDbLine
 10
1433.149628723564
 20
-2191.400280268266
 30
0.0
 11
1433.149628723564
 21
-2068.400280268265
 31
0.0
  0
LWPOLYLINE
  5
3F5
330
1F
100
AcDbEntity
  8
1-E
  6
Continuous
 62
     7
370
     9
100
AcDbPolyline
 90
        4
 70
     1
 43
3.0
 10
1434.649628723564
 20
-2068.400280268265
 42
0.4142135623731
 10
1433.149628723564
 20
-2066.900280268265
 42
0.4142135623731
 10
1431.649628723564
 20
-2068.400280268265
 42
0.4142135623731
 10
1433.149628723564
 20
-2069.900280268265
 42
0.4142135623731
  0
LINE
  5
3F6
330
1F
100
AcDbEntity
  8
1-E
  6
Continuous
 62
   120
370
     5
100
AcDbLine
 10
1433.149628723564
 20
-2068.400280268265
 30
0.0
 11
1589.592598967558
 21
-2068.400280268265
 31
0.0
  0
MTEXT
  5
3F7
330
1F
100
AcDbEntity
  8
1-E
  6
Continuous
 62
     7
370
   211
100
AcDbMText
 10
1574.592598967558
 20
-2949.738177967032
 30
0.0
 40
68.58
 41
45.0
 46
0.0
 71
     7
 72
     1
  1
{\fＭＳ ゴシック|b0|i0|c128|p49;2}
 11
6.123031769111886E-17
 21
1.0
 31
0.0
 73
     1
 44
1.0
  0
MTEXT
  5
3F8
330
1F
100
AcDbEntity
  8
1-E
  6
Continuous
 62
     7
370
   211
100
AcDbMText
 10
337.0868264198464
 20
-3018.960265755132
 30
0.0
 40
91.44000000000065
 41
60.00000000000043
 46
0.0
 71
     7
 72
     1
  1
{\fＭＳ ゴシック|b0|i0|c128|p49;5}
 73
     1
 44
1.0
  0
LINE
  5
3F9
330
1F
100
AcDbEntity
  8
1-E
  6
Continuous
 62
   120
370
     5
100
AcDbLine
 10
1589.592598967558
 20
-2884.085730391352
 30
0.0
 11
1589.592598967558
 21
-2980.607582626183
 31
0.0
  0
LINE
  5
3FA
330
1F
100
AcDbEntity
  8
1-E
  6
Continuous
 62
   120
370
     5
100
AcDbLine
 10
1874.944324706484
 20
-2611.966425215754
 30
0.0
 11
2219.471467205421
 21
-2611.966425215754
 31
0.0
  0
LWPOLYLINE
  5
3FB
330
1F
100
AcDbEntity
  8
1-E
  6
Continuous
 62
     7
370
     9
100
AcDbPolyline
 90
        4
 70
     1
 43
3.0
 10
1876.444324706484
 20
-2611.966425215754
 42
0.4142135623731
 10
1874.944324706484
 20
-2610.466425215754
 42
0.4142135623731
 10
1873.444324706484
 20
-2611.966425215754
 42
0.4142135623731
 10
1874.944324706484
 20
-2613.466425215754
 42
0.4142135623731
  0
LWPOLYLINE
  5
3FC
330
1F
100
AcDbEntity
  8
1-E
  6
Continuous
 62
     7
370
     9
100
AcDbPolyline
 90
        4
 70
     1
 43
3.0
 10
2220.971467205421
 20
-2611.966425215754
 42
0.4142135623731
 10
2219.471467205421
 20
-2610.466425215754
 42
0.4142135623731
 10
2217.971467205421
 20
-2611.966425215754
 42
0.4142135623731
 10
2219.471467205421
 20
-2613.466425215754
 42
0.4142135623731
  0
LINE
  5
3FD
330
1F
100
AcDbEntity
  8
1-E
  6
Continuous
 62
   120
370
     5
100
AcDbLine
 10
1874.944324706484
 20
-2611.966425215754
 30
0.0
 11
1874.944324706484
 21
-2773.913660873526
 31
0.0
  0
LINE
  5
3FE
330
1F
100
AcDbEntity
  8
1-E
  6
Continuous
 62
   120
370
     5
100
AcDbLine
 10
2219.471467205421
 20
-2611.966425215754
 30
0.0
 11
2219.471467205421
 21
-2773.913660873526
 31
0.0
  0
MTEXT
  5
3FF
330
1F
100
AcDbEntity
  8
1-E
  6
Continuous
 62
     7
370
   211
100
AcDbMText
 10
1418.149628723564
 20
-3036.317304713316
 30
0.0
 40
68.58
 41
45.0
 46
0.0
 71
     7
 72
     1
  1
{\fＭＳ ゴシック|b0|i0|c128|p49;7}
 11
6.123031769111886E-17
 21
1.0
 31
0.0
 73
     1
 44
1.0
  0
LINE
  5
400
330
1F
100
AcDbEntity
  8
1-E
  6
Continuous
 62
   120
370
     5
100
AcDbLine
 10
1710.54224292895
 20
-2773.913660873526
 30
0.0
 11
1897.444324706484
 21
-2773.913660873526
 31
0.0
  0
LINE
  5
401
330
1F
100
AcDbEntity
  8
1-E
  6
Continuous
 62
   120
370
     5
100
AcDbLine
 10
2197.444324706484
 20
-2773.913660873526
 30
0.0
 11
2390.753388661778
 21
-2773.913660873526
 31
0.0
  0
MTEXT
  5
402
330
1F
100
AcDbEntity
  8
1-E
  6
Continuous
 62
     7
370
   211
100
AcDbMText
 10
1574.592598967558
 20
-3051.317582626187
 30
0.0
 40
68.58
 41
45.0
 46
0.0
 71
     7
 72
     1
  1
{\fＭＳ ゴシック|b0|i0|c128|p49;5}
 11
6.123031769111886E-17
 21
1.0
 31
0.0
 73
     1
 44
1.0
  0
MTEXT
  5
403
330
1F
100
AcDbEntity
  8
1-E
  6
Continuous
 62
     7
370
   211
100
AcDbMText
 10
10.83771720320939
 20
-3078.960265755132
 30
0.0
 40
91.44000000000017
 41
120.0000000000002
 46
0.0
 71
     7
 72
     1
  1
{\fＭＳ ゴシック|b0|i0|c128|p49;10}
 73
     1
 44
1.0
  0
LINE
  5
404
330
1F
100
AcDbEntity
  8
1-E
  6
Continuous
 62
   120
370
     5
100
AcDbLine
 10
-386.2937730707621
 20
-247.9921483349472
 30
0.0
 11
383.7065898409841
 21
-247.9921483349472
 31
0.0
  0
LWPOLYLINE
  5
405
330
1F
100
AcDbEntity
  8
1-E
  6
Continuous
 62
     7
370
     9
100
AcDbPolyline
 90
        4
 70
     1
 43
3.0
 10
-384.7937730707621
 20
-247.9921483349472
 42
0.4142135623731
 10
-386.2937730707621
 20
-246.4921483349472
 42
0.4142135623731
 10
-387.7937730707621
 20
-247.9921483349472
 42
0.4142135623731
 10
-386.2937730707621
 20
-249.4921483349472
 42
0.4142135623731
  0
LWPOLYLINE
  5
406
330
1F
100
AcDbEntity
  8
1-E
  6
Continuous
 62
     7
370
     9
100
AcDbPolyline
 90
        4
 70
     1
 43
3.0
 10
385.2065898409841
 20
-247.9921483349472
 42
0.4142135623731
 10
383.7065898409841
 20
-246.4921483349472
 42
0.4142135623731
 10
382.2065898409841
 20
-247.9921483349472
 42
0.4142135623731
 10
383.7065898409841
 20
-249.4921483349472
 42
0.4142135623731
  0
LINE
  5
407
330
1F
100
AcDbEntity
  8
1-E
  6
Continuous
 62
   120
370
     5
100
AcDbLine
 10
-386.2937730707621
 20
-247.9921483349472
 30
0.0
 11
-386.2937730707621
 21
-391.5341981349478
 31
0.0
  0
LINE
  5
408
330
1F
100
AcDbEntity
  8
1-E
  6
Continuous
 62
   120
370
     5
100
AcDbLine
 10
383.7065898409841
 20
-247.9921483349472
 30
0.0
 11
383.7065898409841
 21
-391.5341981349478
 31
0.0
  0
MTEXT
  5
409
330
1F
100
AcDbEntity
  8
1-E
  6
Continuous
 62
     7
370
   211
100
AcDbMText
 10
176.5868264198355
 20
-3078.960265755133
 30
0.0
 40
91.43999999999969
 41
59.99999999999979
 46
0.0
 71
     7
 72
     1
  1
{\fＭＳ ゴシック|b0|i0|c128|p49;9}
 73
     1
 44
1.0
  0
LINE
  5
40A
330
1F
100
AcDbEntity
  8
1-E
  6
Continuous
 62
    92
370
    13
100
AcDbLine
 10
-386.2937730707621
 20
-441.5341981349467
 30
0.0
 11
-386.2937730707621
 21
-1181.825374815791
 31
0.0
  0
LINE
  5
40B
330
1F
100
AcDbEntity
  8
1-E
  6
Continuous
 62
    92
370
    13
100
AcDbLine
 10
-386.2937730707621
 20
-1181.825374815791
 30
0.0
 11
-116.2929812633344
 21
-1181.825374815791
 31
0.0
  0
LINE
  5
40C
330
1F
100
AcDbEntity
  8
1-E
  6
Continuous
 62
    92
370
    13
100
AcDbLine
 10
113.7072826724783
 20
-1181.825374815791
 30
0.0
 11
383.7065898409841
 21
-1181.825374815791
 31
0.0
  0
LINE
  5
40D
330
1F
100
AcDbEntity
  8
1-E
  6
Continuous
 62
    92
370
    13
100
AcDbLine
 10
383.7065898409841
 20
-441.5341981349467
 30
0.0
 11
383.7065898409841
 21
-1181.825374815791
 31
0.0
  0
LINE
  5
40E
330
1F
100
AcDbEntity
  8
1-E
  6
Continuous
 62
   120
370
     5
100
AcDbLine
 10
-386.2937730707621
 20
-1559.33482701702
 30
0.0
 11
-116.2929812633344
 21
-1559.33482701702
 31
0.0
  0
LWPOLYLINE
  5
40F
330
1F
100
AcDbEntity
  8
1-E
  6
Continuous
 62
     7
370
     9
100
AcDbPolyline
 90
        4
 70
     1
 43
3.0
 10
-384.7937730707621
 20
-1559.33482701702
 42
0.4142135623731
 10
-386.2937730707621
 20
-1557.83482701702
 42
0.4142135623731
 10
-387.7937730707621
 20
-1559.33482701702
 42
0.4142135623731
 10
-386.2937730707621
 20
-1560.83482701702
 42
0.4142135623731
  0
LWPOLYLINE
  5
410
330
1F
100
AcDbEntity
  8
1-E
  6
Continuous
 62
     7
370
     9
100
AcDbPolyline
 90
        4
 70
     1
 43
3.0
 10
-114.7929812633344
 20
-1559.33482701702
 42
0.4142135623731
 10
-116.2929812633344
 20
-1557.83482701702
 42
0.4142135623731
 10
-117.7929812633344
 20
-1559.33482701702
 42
0.4142135623731
 10
-116.2929812633344
 20
-1560.83482701702
 42
0.4142135623731
  0
LINE
  5
411
330
1F
100
AcDbEntity
  8
1-E
  6
Continuous
 62
   120
370
     5
100
AcDbLine
 10
-386.2937730707621
 20
-1559.33482701702
 30
0.0
 11
-386.2937730707621
 21
-1379.334827017021
 31
0.0
  0
LINE
  5
412
330
1F
100
AcDbEntity
  8
1-E
  6
Continuous
 62
   120
370
     5
100
AcDbLine
 10
-116.2929812633344
 20
-1559.33482701702
 30
0.0
 11
-116.2929812633344
 21
-1379.334827017021
 31
0.0
  0
MTEXT
  5
413
330
1F
100
AcDbEntity
  8
1-E
  6
Continuous
 62
     7
370
     9
100
AcDbMText
 10
-518.3905904407477
 20
-3123.960265755132
 30
0.0
 40
91.44000000000001
 41
360.0
 46
0.0
 71
     7
 72
     1
  1
{\fＭＳ ゴシック|b0|i0|c128|p49;室内側}
 73
     1
 44
1.0
  0
LINE
  5
414
330
1F
100
AcDbEntity
  8
1-E
  6
Continuous
 62
   120
370
     5
100
AcDbLine
 10
-116.2929812633344
 20
-1559.33482701702
 30
0.0
 11
113.7072826724783
 21
-1559.33482701702
 31
0.0
  0
LWPOLYLINE
  5
415
330
1F
100
AcDbEntity
  8
1-E
  6
Continuous
 62
     7
370
     9
100
AcDbPolyline
 90
        4
 70
     1
 43
3.0
 10
115.2072826724783
 20
-1559.33482701702
 42
0.4142135623731
 10
113.7072826724783
 20
-1557.83482701702
 42
0.4142135623731
 10
112.2072826724783
 20
-1559.33482701702
 42
0.4142135623731
 10
113.7072826724783
 20
-1560.83482701702
 42
0.4142135623731
  0
LINE
  5
416
330
1F
100
AcDbEntity
  8
1-E
  6
Continuous
 62
   120
370
     5
100
AcDbLine
 10
113.7072826724783
 20
-1559.33482701702
 30
0.0
 11
113.7072826724783
 21
-1379.334827017021
 31
0.0
  0
MTEXT
  5
417
330
1F
100
AcDbEntity
  8
1-E
  6
Continuous
 62
     7
370
   211
100
AcDbMText
 10
334.0868264198355
 20
-3168.960265755132
 30
0.0
 40
91.44000000000065
 41
60.00000000000043
 46
0.0
 71
     7
 72
     1
  1
{\fＭＳ ゴシック|b0|i0|c128|p49;6}
 73
     1
 44
1.0
  0
LINE
  5
418
330
1F
100
AcDbEntity
  8
1-E
  6
Continuous
 62
   120
370
     5
100
AcDbLine
 10
113.7072826724783
 20
-1559.33482701702
 30
0.0
 11
383.7065898409841
 21
-1559.33482701702
 31
0.0
  0
LWPOLYLINE
  5
419
330
1F
100
AcDbEntity
  8
1-E
  6
Continuous
 62
     7
370
     9
100
AcDbPolyline
 90
        4
 70
     1
 43
3.0
 10
385.2065898409841
 20
-1559.33482701702
 42
0.4142135623731
 10
383.7065898409841
 20
-1557.83482701702
 42
0.4142135623731
 10
382.2065898409841
 20
-1559.33482701702
 42
0.4142135623731
 10
383.7065898409841
 20
-1560.83482701702
 42
0.4142135623731
  0
LINE
  5
41A
330
1F
100
AcDbEntity
  8
1-E
  6
Continuous
 62
   120
370
     5
100
AcDbLine
 10
383.7065898409841
 20
-1559.33482701702
 30
0.0
 11
383.7065898409841
 21
-1379.334827017021
 31
0.0
  0
MTEXT
  5
41B
330
1F
100
AcDbEntity
  8
1-E
  6
Continuous
 62
     7
370
   211
100
AcDbMText
 10
149.5872718115213
 20
-3213.960265755133
 30
0.0
 40
91.43999999999969
 41
119.9999999999996
 46
0.0
 71
     7
 72
     1
  1
{\fＭＳ ゴシック|b0|i0|c128|p49;30}
 73
     1
 44
1.0
  0
LINE
  5
41C
330
1F
100
AcDbEntity
  8
1-E
  6
Continuous
 62
    92
370
    13
100
AcDbLine
 10
329.5869253957712
 20
-2465.102353553379
 30
0.0
 11
329.5869253957712
 21
-2782.68026575513
 31
0.0
  0
LINE
  5
41D
330
1F
100
AcDbEntity
  8
1-E
  6
Continuous
 62
    40
370
    15
100
AcDbLine
 10
269.5868264198466
 20
-2857.680265755133
 30
0.0
 11
946.8683586385816
 21
-2857.680265755133
 31
0.0
  0
LINE
  5
41E
330
1F
100
AcDbEntity
  8
1-E
  6
Continuous
 62
    40
370
    15
100
AcDbLine
 10
269.5868264198466
 20
-2782.68026575513
 30
0.0
 11
946.8683586385816
 21
-2782.68026575513
 31
0.0
  0
LINE
  5
41F
330
1F
100
AcDbEntity
  8
1-E
  6
JWW_DASHED1
 62
   120
370
     5
100
AcDbLine
 10
907.2340567676395
 20
-2857.680265755133
 30
0.0
 11
946.8683586385816
 21
-2818.045963884169
 31
0.0
  0
LINE
  5
420
330
1F
100
AcDbEntity
  8
1-E
  6
JWW_DASHED1
 62
   120
370
     5
100
AcDbLine
 10
864.8076498964394
 20
-2857.680265755127
 30
0.0
 11
939.8076498964411
 21
-2782.68026575513
 31
0.0
  0
MTEXT
  5
421
330
1F
100
AcDbEntity
  8
0-B_寸法
  6
Continuous
 62
     7
370
     0
100
AcDbMText
 10
-2724.44057064626
 20
-1160.269884247784
 30
0.0
 40
91.44000000000179
 41
120.0000000000024
 46
0.0
 71
     7
 72
     1
  1
{\fＭＳ ゴシック|b0|i0|c128|p49;20}
 11
0.9999999999914964
 21
4.124000500689212E-6
 31
0.0
 73
     1
 44
1.0
  0
MTEXT
  5
422
330
1F
100
AcDbEntity
  8
0-B_寸法
  6
Continuous
 62
     7
370
   211
100
AcDbMText
 10
-2047.879799117025
 20
2287.665146596494
 30
0.0
 40
91.44
 41
120.0
 46
0.0
 71
     7
 72
     1
  1
{\fＭＳ ゴシック|b0|i0|c128|p49;20}
 11
6.123031769111886E-17
 21
1.0
 31
0.0
 73
     1
 44
1.0
  0
MTEXT
  5
423
330
1F
100
AcDbEntity
  8
F-A_文字
  6
Continuous
 62
     7
370
     0
100
AcDbMText
 10
4938.667793092893
 20
-3938.071010139966
 30
0.0
 40
78.86699999999999
 41
517.5
 46
0.0
 71
     7
 72
     1
  1
{\fＭＳ ゴシック|b0|i0|c128|p49;2024.04.01}
 73
     1
 44
1.0
  0
LINE
  5
424
330
1F
100
AcDbEntity
  8
0-0_補助線
  6
Continuous
 62
   120
370
     5
100
AcDbLine
 10
-2843.69021402412
 20
2324.359196304034
 30
0.0
 11
-2843.69021402412
 21
2402.688459527218
 31
0.0
  0
LINE
  5
425
330
1F
100
AcDbEntity
  8
0-0_補助線
  6
Continuous
 62
   120
370
     5
100
AcDbLine
 10
-2858.69021402412
 20
2324.359196304034
 30
0.0
 11
-2858.69021402412
 21
2402.688459527218
 31
0.0
  0
LWPOLYLINE
  5
426
330
1F
100
AcDbEntity
  8
0-B_寸法
  6
Continuous
 62
     7
370
     9
100
AcDbPolyline
 90
        4
 70
     1
 43
3.0
 10
-2031.379799117026
 20
2421.945146596495
 42
0.4142135623731
 10
-2032.879799117026
 20
2423.445146596495
 42
0.4142135623731
 10
-2034.379799117026
 20
2421.945146596495
 42
0.4142135623731
 10
-2032.879799117026
 20
2420.445146596495
 42
0.4142135623731
  0
LINE
  5
427
330
1F
100
AcDbEntity
  8
0-0_補助線
  6
JWW_HOJO
 62
     7
370
     9
100
AcDbLine
 10
-2389.94021402412
 20
2439.945146596494
 30
0.0
 11
-2389.94021402412
 21
2280.944503252957
 31
0.0
  0
LINE
  5
428
330
1F
100
AcDbEntity
  8
0-0_補助線
  6
JWW_HOJO
 62
     7
370
     9
100
AcDbLine
 10
-2329.94021402412
 20
2439.945146596494
 30
0.0
 11
-2329.94021402412
 21
2280.944503252957
 31
0.0
  0
LINE
  5
429
330
1F
100
AcDbEntity
  8
0-6_扉
  6
Continuous
 62
   200
370
    20
100
AcDbLine
 10
-2858.69021402412
 20
2421.945146596495
 30
0.0
 11
-2389.94021402412
 21
2421.945146596495
 31
0.0
  0
LINE
  5
42A
330
1F
100
AcDbEntity
  8
0-6_扉
  6
Continuous
 62
   200
370
    20
100
AcDbLine
 10
-2329.94021402412
 20
2421.945146596495
 30
0.0
 11
-1861.190214024119
 21
2421.945146596495
 31
0.0
  0
LINE
  5
42B
330
1F
100
AcDbEntity
  8
0-0_補助線
  6
JWW_HOJO
 62
     7
370
     9
100
AcDbLine
 10
-1386.44021402412
 20
2439.945146596494
 30
0.0
 11
-1386.44021402412
 21
2280.944503252957
 31
0.0
  0
LINE
  5
42C
330
1F
100
AcDbEntity
  8
0-0_補助線
  6
JWW_HOJO
 62
     7
370
     9
100
AcDbLine
 10
-1326.44021402412
 20
2439.945146596494
 30
0.0
 11
-1326.44021402412
 21
2280.944503252957
 31
0.0
  0
LINE
  5
42D
330
1F
100
AcDbEntity
  8
0-0_補助線
  6
JWW_HOJO
 62
     7
370
     9
100
AcDbLine
 10
-376.9402140241158
 20
2439.945146596494
 30
0.0
 11
-376.9402140241158
 21
2280.944503252957
 31
0.0
  0
LINE
  5
42E
330
1F
100
AcDbEntity
  8
0-0_補助線
  6
JWW_HOJO
 62
     7
370
     9
100
AcDbLine
 10
-316.9402140241158
 20
2439.945146596494
 30
0.0
 11
-316.9402140241158
 21
2280.944503252957
 31
0.0
  0
LINE
  5
42F
330
1F
100
AcDbEntity
  8
0-0_補助線
  6
JWW_HOJO
 62
     7
370
     9
100
AcDbLine
 10
626.559785975883
 20
2439.945146596494
 30
0.0
 11
626.559785975883
 21
2280.944503252957
 31
0.0
  0
LINE
  5
430
330
1F
100
AcDbEntity
  8
0-0_補助線
  6
JWW_HOJO
 62
     7
370
     9
100
AcDbLine
 10
686.559785975883
 20
2439.945146596494
 30
0.0
 11
686.559785975883
 21
2280.944503252957
 31
0.0
  0
LINE
  5
431
330
1F
100
AcDbEntity
  8
0-6_扉
  6
Continuous
 62
   200
370
    20
100
AcDbLine
 10
-1855.19021402412
 20
2421.945146596495
 30
0.0
 11
-1386.44021402412
 21
2421.945146596495
 31
0.0
  0
LINE
  5
432
330
1F
100
AcDbEntity
  8
0-6_扉
  6
Continuous
 62
   200
370
    20
100
AcDbLine
 10
-1326.44021402412
 20
2421.945146596495
 30
0.0
 11
-857.6902140241185
 21
2421.945146596495
 31
0.0
  0
LINE
  5
433
330
1F
100
AcDbEntity
  8
0-6_扉
  6
Continuous
 62
   200
370
    20
100
AcDbLine
 10
-845.6902140241141
 20
2421.945146596495
 30
0.0
 11
-376.9402140241158
 21
2421.945146596495
 31
0.0
  0
LINE
  5
434
330
1F
100
AcDbEntity
  8
0-6_扉
  6
Continuous
 62
   200
370
    20
100
AcDbLine
 10
-316.9402140241158
 20
2421.945146596495
 30
0.0
 11
151.8097859758817
 21
2421.945146596495
 31
0.0
  0
LINE
  5
435
330
1F
100
AcDbEntity
  8
0-6_扉
  6
Continuous
 62
   200
370
    20
100
AcDbLine
 10
157.8097859758805
 20
2421.945146596495
 30
0.0
 11
626.559785975883
 21
2421.945146596495
 31
0.0
  0
LINE
  5
436
330
1F
100
AcDbEntity
  8
0-6_扉
  6
Continuous
 62
   200
370
    20
100
AcDbLine
 10
686.559785975883
 20
2421.945146596495
 30
0.0
 11
1155.309785975884
 21
2421.945146596495
 31
0.0
  0
CIRCLE
  5
437
330
1F
100
AcDbEntity
  8
0-7_金物
  6
Continuous
 62
     7
370
     9
100
AcDbCircle
 10
-1858.190214024121
 20
2451.945146596472
 30
0.0
 40
21.00000000000001
  0
CIRCLE
  5
438
330
1F
100
AcDbEntity
  8
0-7_金物
  6
Continuous
 62
     7
370
     9
100
AcDbCircle
 10
-1858.190214024121
 20
2451.945146596472
 30
0.0
 40
30.0
  0
CIRCLE
  5
439
330
1F
100
AcDbEntity
  8
0-7_金物
  6
Continuous
 62
     7
370
     9
100
AcDbCircle
 10
154.8097859758815
 20
2451.945146596472
 30
0.0
 40
21.00000000000001
  0
CIRCLE
  5
43A
330
1F
100
AcDbEntity
  8
0-7_金物
  6
Continuous
 62
     7
370
     9
100
AcDbCircle
 10
154.8097859758815
 20
2451.945146596472
 30
0.0
 40
30.0
  0
LWPOLYLINE
  5
43B
330
1F
100
AcDbEntity
  8
0-B_寸法
  6
Continuous
 62
     7
370
     9
100
AcDbPolyline
 90
        4
 70
     1
 43
3.0
 10
-2031.379799117026
 20
2301.945146596495
 42
0.4142135623731
 10
-2032.879799117026
 20
2303.445146596495
 42
0.4142135623731
 10
-2034.379799117026
 20
2301.945146596495
 42
0.4142135623731
 10
-2032.879799117026
 20
2300.445146596495
 42
0.4142135623731
  0
LINE
  5
43C
330
1F
100
AcDbEntity
  8
0-6_扉
  6
Continuous
 62
   200
370
    20
100
AcDbLine
 10
-2858.69021402412
 20
2301.945146596495
 30
0.0
 11
-2389.94021402412
 21
2301.945146596495
 31
0.0
  0
LINE
  5
43D
330
1F
100
AcDbEntity
  8
0-6_扉
  6
Continuous
 62
   200
370
    20
100
AcDbLine
 10
-2329.94021402412
 20
2301.945146596495
 30
0.0
 11
-1861.190214024119
 21
2301.945146596495
 31
0.0
  0
LINE
  5
43E
330
1F
100
AcDbEntity
  8
0-6_扉
  6
Continuous
 62
   200
370
    20
100
AcDbLine
 10
-1855.19021402412
 20
2301.945146596495
 30
0.0
 11
-1386.44021402412
 21
2301.945146596495
 31
0.0
  0
LINE
  5
43F
330
1F
100
AcDbEntity
  8
0-6_扉
  6
Continuous
 62
   200
370
    20
100
AcDbLine
 10
-1326.44021402412
 20
2301.945146596495
 30
0.0
 11
-857.6902140241185
 21
2301.945146596495
 31
0.0
  0
LINE
  5
440
330
1F
100
AcDbEntity
  8
0-6_扉
  6
Continuous
 62
   200
370
    20
100
AcDbLine
 10
-845.6902140241141
 20
2301.945146596495
 30
0.0
 11
-376.9402140241158
 21
2301.945146596495
 31
0.0
  0
LINE
  5
441
330
1F
100
AcDbEntity
  8
0-6_扉
  6
Continuous
 62
   200
370
    20
100
AcDbLine
 10
-316.9402140241158
 20
2301.945146596495
 30
0.0
 11
151.8097859758817
 21
2301.945146596495
 31
0.0
  0
LINE
  5
442
330
1F
100
AcDbEntity
  8
0-6_扉
  6
Continuous
 62
   200
370
    20
100
AcDbLine
 10
157.8097859758805
 20
2301.945146596495
 30
0.0
 11
626.559785975883
 21
2301.945146596495
 31
0.0
  0
LINE
  5
443
330
1F
100
AcDbEntity
  8
0-6_扉
  6
Continuous
 62
   200
370
    20
100
AcDbLine
 10
686.559785975883
 20
2301.945146596495
 30
0.0
 11
1155.309785975884
 21
2301.945146596495
 31
0.0
  0
LINE
  5
444
330
1F
100
AcDbEntity
  8
0-6_扉
  6
Continuous
 62
   200
370
    20
100
AcDbLine
 10
-2858.69021402412
 20
2421.945146596495
 30
0.0
 11
-2858.69021402412
 21
2301.945146596495
 31
0.0
  0
LINE
  5
445
330
1F
100
AcDbEntity
  8
0-6_扉
  6
Continuous
 62
   200
370
    20
100
AcDbLine
 10
1155.309785975884
 20
2421.945146596495
 30
0.0
 11
1155.309785975884
 21
2301.945146596495
 31
0.0
  0
LINE
  5
446
330
1F
100
AcDbEntity
  8
0-B_寸法
  6
Continuous
 62
   120
370
     5
100
AcDbLine
 10
-2032.879799117026
 20
2421.945146596495
 30
0.0
 11
-2032.879799117026
 21
2301.945146596495
 31
0.0
  0
LINE
  5
447
330
1F
100
AcDbEntity
  8
0-6_扉
  6
Continuous
 62
   200
370
    20
100
AcDbLine
 10
-857.6902140241185
 20
2421.945146596495
 30
0.0
 11
-857.6902140241185
 21
2301.945146596495
 31
0.0
  0
LINE
  5
448
330
1F
100
AcDbEntity
  8
0-6_扉
  6
Continuous
 62
   200
370
    20
100
AcDbLine
 10
-845.69021402412
 20
2421.945146596495
 30
0.0
 11
-845.69021402412
 21
2301.945146596495
 31
0.0
  0
LINE
  5
449
330
1F
100
AcDbEntity
  8
0-6_扉
  6
Continuous
 62
   200
370
    20
100
AcDbLine
 10
-1861.190214024119
 20
2421.945146596495
 30
0.0
 11
-1861.190214024119
 21
2301.945146596495
 31
0.0
  0
LINE
  5
44A
330
1F
100
AcDbEntity
  8
0-6_扉
  6
Continuous
 62
   200
370
    20
100
AcDbLine
 10
-1855.19021402412
 20
2421.945146596495
 30
0.0
 11
-1855.19021402412
 21
2301.945146596495
 31
0.0
  0
LINE
  5
44B
330
1F
100
AcDbEntity
  8
0-6_扉
  6
Continuous
 62
   200
370
    20
100
AcDbLine
 10
157.8097859758805
 20
2421.945146596495
 30
0.0
 11
157.8097859758805
 21
2301.945146596495
 31
0.0
  0
LINE
  5
44C
330
1F
100
AcDbEntity
  8
0-6_扉
  6
Continuous
 62
   200
370
    20
100
AcDbLine
 10
151.8097859758817
 20
2421.945146596495
 30
0.0
 11
151.8097859758817
 21
2301.945146596495
 31
0.0
  0
LWPOLYLINE
  5
44D
330
1F
100
AcDbEntity
  8
0-B_寸法
  6
Continuous
 62
     7
370
     9
100
AcDbPolyline
 90
        4
 70
     1
 43
3.0
 10
-2599.190016072251
 20
-1160.989500715856
 42
0.4142135623731
 10
-2600.690016072251
 20
-1159.489500715856
 42
0.4142135623731
 10
-2602.190016072251
 20
-1160.989500715856
 42
0.4142135623731
 10
-2600.690016072251
 20
-1162.489500715856
 42
0.4142135623731
  0
LINE
  5
44E
330
1F
100
AcDbEntity
  8
0-B_寸法
  6
Continuous
 62
   120
370
     5
100
AcDbLine
 10
-2600.690016072251
 20
-1076.752572136883
 30
0.0
 11
-2600.690016072251
 21
-1160.989500715856
 31
0.0
  0
LINE
  5
44F
330
1F
100
AcDbEntity
  8
0-6_扉
  6
Continuous
 62
   200
370
    20
100
AcDbLine
 10
-2600.690016072251
 20
-3175.000334096353
 30
0.0
 11
-2600.690016072251
 21
-1917.999673791763
 31
0.0
  0
LINE
  5
450
330
1F
100
AcDbEntity
  8
0-6_扉
  6
Continuous
 62
   200
370
    20
100
AcDbLine
 10
-2600.690016072251
 20
-558.9994634679138
 30
0.0
 11
-2600.690016072251
 21
-1797.999673791763
 31
0.0
  0
LWPOLYLINE
  5
451
330
1F
100
AcDbEntity
  8
0-B_寸法
  6
Continuous
 62
     7
370
     9
100
AcDbPolyline
 90
        4
 70
     1
 43
3.0
 10
-2719.190016072251
 20
-1160.989500715856
 42
0.4142135623731
 10
-2720.690016072251
 20
-1159.489500715856
 42
0.4142135623731
 10
-2722.190016072251
 20
-1160.989500715856
 42
0.4142135623731
 10
-2720.690016072251
 20
-1162.489500715856
 42
0.4142135623731
  0
LINE
  5
452
330
1F
100
AcDbEntity
  8
0-B_寸法
  6
Continuous
 62
   120
370
     5
100
AcDbLine
 10
-2720.690016072251
 20
-1076.752572136883
 30
0.0
 11
-2720.690016072251
 21
-1160.989500715856
 31
0.0
  0
LINE
  5
453
330
1F
100
AcDbEntity
  8
0-6_扉
  6
Continuous
 62
   200
370
    20
100
AcDbLine
 10
-2720.690016072251
 20
-3175.000334096353
 30
0.0
 11
-2720.690016072251
 21
-1917.999673791763
 31
0.0
  0
LINE
  5
454
330
1F
100
AcDbEntity
  8
0-6_扉
  6
Continuous
 62
   200
370
    20
100
AcDbLine
 10
-2720.690016072251
 20
-558.9994634679138
 30
0.0
 11
-2720.690016072251
 21
-1797.999673791763
 31
0.0
  0
LINE
  5
455
330
1F
100
AcDbEntity
  8
0-6_扉
  6
Continuous
 62
   200
370
    20
100
AcDbLine
 10
-2600.690016072251
 20
-3175.000334096354
 30
0.0
 11
-2720.690016072251
 21
-3175.000334096354
 31
0.0
  0
LINE
  5
456
330
1F
100
AcDbEntity
  8
0-6_扉
  6
Continuous
 62
   200
370
    20
100
AcDbLine
 10
-2720.690016072251
 20
-558.9994634679138
 30
0.0
 11
-2600.690016072251
 21
-558.9994634679138
 31
0.0
  0
LINE
  5
457
330
1F
100
AcDbEntity
  8
0-B_寸法
  6
Continuous
 62
   120
370
     5
100
AcDbLine
 10
-2720.690016072251
 20
-1160.989500715856
 30
0.0
 11
-2600.690016072251
 21
-1160.989500715856
 31
0.0
  0
ENDSEC
  0
SECTION
  2
OBJECTS
  0
DICTIONARY
  5
C
330
0
100
AcDbDictionary
281
     1
  3
ACAD_GROUP
350
D
  3
ACAD_LAYOUT
350
1A
  3
ACAD_MATERIAL
350
3B
  3
ACAD_MLEADERSTYLE
350
480
  3
ACAD_MLINESTYLE
350
17
  3
ACAD_PLOTSETTINGS
350
19
  3
ACAD_PLOTSTYLENAME
350
E
  3
ACAD_TABLESTYLE
350
47F
  3
ACAD_VISUALSTYLE
350
2A
  0
DICTIONARY
  5
D
102
{ACAD_REACTORS
330
C
102
}
330
C
100
AcDbDictionary
281
     1
  0
DICTIONARY
  5
1A
102
{ACAD_REACTORS
330
C
102
}
330
C
100
AcDbDictionary
281
     1
  3
Layout1
350
1E
  3
Layout2
350
26
  3
Model
350
22
  0
DICTIONARY
  5
3B
102
{ACAD_REACTORS
330
C
102
}
330
C
100
AcDbDictionary
281
     1
  3
ByBlock
350
3D
  3
ByLayer
350
3C
  3
Global
350
3E
  0
DICTIONARY
  5
480
102
{ACAD_REACTORS
330
C
102
}
330
C
100
AcDbDictionary
281
     1
  0
DICTIONARY
  5
17
102
{ACAD_REACTORS
330
C
102
}
330
C
100
AcDbDictionary
281
     1
  3
Standard
350
18
  0
DICTIONARY
  5
19
102
{ACAD_REACTORS
330
C
102
}
330
C
100
AcDbDictionary
281
     1
  0
ACDBDICTIONARYWDFLT
  5
E
102
{ACAD_REACTORS
330
C
102
}
330
C
100
AcDbDictionary
281
     1
  3
Normal
350
F
100
AcDbDictionaryWithDefault
340
F
  0
DICTIONARY
  5
47F
102
{ACAD_REACTORS
330
C
102
}
330
C
100
AcDbDictionary
281
     1
  0
DICTIONARY
  5
2A
102
{ACAD_REACTORS
330
C
102
}
330
C
100
AcDbDictionary
281
     1
  3
2dWireframe
350
2F
  3
3D Hidden
350
31
  3
3dWireframe
350
30
  3
Basic
350
32
  3
Brighten
350
36
  3
ColorChange
350
3A
  3
Conceptual
350
34
  3
Dim
350
35
  3
Facepattern
350
39
  3
Flat
350
2B
  3
FlatWithEdges
350
2C
  3
Gouraud
350
2D
  3
GouraudWithEdges
350
2E
  3
Linepattern
350
38
  3
Realistic
350
33
  3
Thicken
350
37
  0
LAYOUT
  5
1E
102
{ACAD_REACTORS
330
1A
102
}
330
1A
100
AcDbPlotSettings
  1

  2
none_device
  4

  6

 40
0.0
 41
0.0
 42
0.0
 43
0.0
 44
0.0
 45
0.0
 46
0.0
 47
0.0
 48
0.0
 49
0.0
140
0.0
141
0.0
142
1.0
143
1.0
 70
   688
 72
     0
 73
     0
 74
     5
  7

 75
    16
 76
     0
 77
     5
 78
   300
147
1.0
148
0.0
149
0.0
100
AcDbLayout
  1
Layout1
 70
     1
 71
     1
 10
0.0
 20
0.0
 11
420.0
 21
297.0
 12
0.0
 22
0.0
 32
0.0
 14
1.000000000000000E+20
 24
1.000000000000000E+20
 34
1.000000000000000E+20
 15
-1.000000000000000E+20
 25
-1.000000000000000E+20
 35
-1.000000000000000E+20
146
0.0
 13
0.0
 23
0.0
 33
0.0
 16
1.0
 26
0.0
 36
0.0
 17
0.0
 27
1.0
 37
0.0
 76
     0
330
1B
  0
LAYOUT
  5
26
102
{ACAD_REACTORS
330
1A
102
}
330
1A
100
AcDbPlotSettings
  1

  2
none_device
  4

  6

 40
0.0
 41
0.0
 42
0.0
 43
0.0
 44
0.0
 45
0.0
 46
0.0
 47
0.0
 48
0.0
 49
0.0
140
0.0
141
0.0
142
1.0
143
1.0
 70
   688
 72
     0
 73
     0
 74
     5
  7

 75
    16
 76
     0
 77
     5
 78
   300
147
1.0
148
0.0
149
0.0
100
AcDbLayout
  1
Layout2
 70
     1
 71
     2
 10
0.0
 20
0.0
 11
0.0
 21
0.0
 12
0.0
 22
0.0
 32
0.0
 14
0.0
 24
0.0
 34
0.0
 15
0.0
 25
0.0
 35
0.0
146
0.0
 13
0.0
 23
0.0
 33
0.0
 16
1.0
 26
0.0
 36
0.0
 17
0.0
 27
1.0
 37
0.0
 76
     0
330
23
  0
LAYOUT
  5
22
102
{ACAD_REACTORS
330
1A
102
}
330
1A
100
AcDbPlotSettings
  1

  2
none_device
  4

  6

 40
0.0
 41
0.0
 42
0.0
 43
0.0
 44
0.0
 45
0.0
 46
0.0
 47
0.0
 48
0.0
 49
0.0
140
0.0
141
0.0
142
1.0
143
1.0
 70
  1712
 72
     0
 73
     0
 74
     0
  7

 75
     0
 76
     0
 77
     5
 78
   300
147
1.0
148
0.0
149
0.0
100
AcDbLayout
  1
Model
 70
     1
 71
     0
 10
-6300.0
 20
-4455.0
 11
6300.0
 21
4455.0
 12
0.0
 22
0.0
 32
0.0
 14
-6300.0
 24
-4455.0
 34
0.0
 15
6300.0
 25
4455.0
 35
0.0
146
0.0
 13
0.0
 23
0.0
 33
0.0
 16
1.0
 26
0.0
 36
0.0
 17
0.0
 27
1.0
 37
0.0
 76
     0
330
1F
331
29
  0
MATERIAL
  5
3D
102
{ACAD_REACTORS
330
3B
102
}
330
3B
100
AcDbMaterial
  1
ByBlock
 72
     1
 94
      127
  0
MATERIAL
  5
3C
102
{ACAD_REACTORS
330
3B
102
}
330
3B
100
AcDbMaterial
  1
ByLayer
 72
     1
 94
      127
  0
MATERIAL
  5
3E
102
{ACAD_REACTORS
330
3B
102
}
330
3B
100
AcDbMaterial
  1
Global
 72
     1
 94
      127
  0
MLINESTYLE
  5
18
102
{ACAD_REACTORS
330
17
102
}
330
17
100
AcDbMlineStyle
  2
Standard
 70
     0
  3

 62
   256
 51
90.0
 52
90.0
 71
     2
 49
0.5
 62
   256
  6
BYLAYER
 49
-0.5
 62
   256
  6
BYLAYER
  0
ACDBPLACEHOLDER
  5
F
102
{ACAD_REACTORS
330
E
102
}
330
E
  0
VISUALSTYLE
  5
2F
102
{ACAD_REACTORS
330
2A
102
}
330
2A
100
AcDbVisualStyle
  2
2dWireframe
 70
     4
177
     2
291
     0
 71
     0
176
     1
 72
     2
176
     1
 73
     0
176
     1
 90
        0
176
     1
 40
-0.6
176
     1
 41
-30.0
176
     1
 62
     5
 63
     7
421
 16777215
176
     1
 74
     1
176
     1
 91
        4
176
     1
 64
     7
176
     1
 65
   257
176
     1
 75
     1
176
     1
175
     1
176
     1
 42
1.0
176
     1
 92
        0
176
     1
 66
   257
176
     1
 43
1.0
176
     1
 76
     1
176
     1
 77
     6
176
     1
 78
     2
176
     1
 67
     7
176
     1
 79
     5
176
     1
170
     0
176
     1
171
     0
176
     1
290
     0
176
     1
 93
        1
176
     1
 44
0.0
176
     1
173
     0
176
     1
  0
VISUALSTYLE
  5
31
102
{ACAD_REACTORS
330
2A
102
}
330
2A
100
AcDbVisualStyle
  2
3D Hidden
 70
     6
177
     2
291
     0
 71
     1
176
     1
 72
     2
176
     1
 73
     2
176
     1
 90
        0
176
     1
 40
-0.6
176
     1
 41
-30.0
176
     1
 62
     5
 63
     7
421
 16777215
176
     1
 74
     2
176
     1
 91
        2
176
     1
 64
     7
176
     1
 65
   257
176
     1
 75
     2
176
     1
175
     1
176
     1
 42
40.0
176
     1
 92
        0
176
     1
 66
   257
176
     1
 43
1.0
176
     1
 76
     1
176
     1
 77
     6
176
     1
 78
     2
176
     1
 67
     7
176
     1
 79
     3
176
     1
170
     0
176
     1
171
     0
176
     1
290
     0
176
     1
 93
        1
176
     1
 44
0.0
176
     1
173
     0
176
     1
  0
VISUALSTYLE
  5
30
102
{ACAD_REACTORS
330
2A
102
}
330
2A
100
AcDbVisualStyle
  2
3dWireframe
 70
     5
177
     2
291
     0
 71
     0
176
     1
 72
     2
176
     1
 73
     0
176
     1
 90
        0
176
     1
 40
-0.6
176
     1
 41
-30.0
176
     1
 62
     5
 63
     7
421
 16777215
176
     1
 74
     1
176
     1
 91
        4
176
     1
 64
     7
176
     1
 65
   257
176
     1
 75
     1
176
     1
175
     1
176
     1
 42
1.0
176
     1
 92
        0
176
     1
 66
   257
176
     1
 43
1.0
176
     1
 76
     1
176
     1
 77
     6
176
     1
 78
     2
176
     1
 67
     7
176
     1
 79
     5
176
     1
170
     0
176
     1
171
     0
176
     1
290
     0
176
     1
 93
        1
176
     1
 44
0.0
176
     1
173
     0
176
     1
  0
VISUALSTYLE
  5
32
102
{ACAD_REACTORS
330
2A
102
}
330
2A
100
AcDbVisualStyle
  2
Basic
 70
     7
177
     2
291
     1
 71
     1
176
     1
 72
     0
176
     1
 73
     1
176
     1
 90
        0
176
     1
 40
-0.6
176
     1
 41
-30.0
176
     1
 62
     5
 63
     7
421
 16777215
176
     1
 74
     0
176
     1
 91
        4
176
     1
 64
     7
176
     1
 65
   257
176
     1
 75
     1
176
     1
175
     1
176
     1
 42
1.0
176
     1
 92
        8
176
     1
 66
     7
176
     1
 43
1.0
176
     1
 76
     1
176
     1
 77
     6
176
     1
 78
     2
176
     1
 67
     7
176
     1
 79
     5
176
     1
170
     0
176
     1
171
     0
176
     1
290
     0
176
     1
 93
        1
176
     1
 44
0.0
176
     1
173
     0
176
     1
  0
VISUALSTYLE
  5
36
102
{ACAD_REACTORS
330
2A
102
}
330
2A
100
AcDbVisualStyle
  2
Brighten
 70
    12
177
     2
291
     1
 71
     2
176
     1
 72
     2
176
     1
 73
     0
176
     1
 90
        0
176
     1
 40
-0.6
176
     1
 41
-30.0
176
     1
 62
     5
 63
     7
421
 16777215
176
     1
 74
     1
176
     1
 91
        4
176
     1
 64
     7
176
     1
 65
   257
176
     1
 75
     1
176
     1
175
     1
176
     1
 42
1.0
176
     1
 92
        8
176
     1
 66
     7
176
     1
 43
1.0
176
     1
 76
     1
176
     1
 77
     6
176
     1
 78
     2
176
     1
 67
     7
176
     1
 79
     5
176
     1
170
     0
176
     1
171
     0
176
     1
290
     0
176
     1
 93
        1
176
     1
 44
50.0
176
     1
173
     0
176
     1
  0
VISUALSTYLE
  5
3A
102
{ACAD_REACTORS
330
2A
102
}
330
2A
100
AcDbVisualStyle
  2
ColorChange
 70
    16
177
     2
291
     1
 71
     2
176
     1
 72
     2
176
     1
 73
     3
176
     1
 90
        0
176
     1
 40
-0.6
176
     1
 41
-30.0
176
     1
 62
     5
 63
     8
421
  8421504
176
     1
 74
     1
176
     1
 91
        4
176
     1
 64
     7
176
     1
 65
   257
176
     1
 75
     1
176
     1
175
     1
176
     1
 42
1.0
176
     1
 92
        8
176
     1
 66
     8
424
  8421504
176
     1
 43
1.0
176
     1
 76
     1
176
     1
 77
     6
176
     1
 78
     2
176
     1
 67
     7
176
     1
 79
     5
176
     1
170
     0
176
     1
171
     0
176
     1
290
     0
176
     1
 93
        1
176
     1
 44
0.0
176
     1
173
     0
176
     1
  0
VISUALSTYLE
  5
34
102
{ACAD_REACTORS
330
2A
102
}
330
2A
100
AcDbVisualStyle
  2
Conceptual
 70
     9
177
     2
291
     0
 71
     3
176
     1
 72
     2
176
     1
 73
     0
176
     1
 90
        0
176
     1
 40
-0.6
176
     1
 41
-30.0
176
     1
 62
     5
 63
     7
421
 16777215
176
     1
 74
     2
176
     1
 91
        2
176
     1
 64
     7
176
     1
 65
   257
176
     1
 75
     1
176
     1
175
     1
176
     1
 42
40.0
176
     1
 92
        8
176
     1
 66
     7
176
     1
 43
1.0
176
     1
 76
     1
176
     1
 77
     6
176
     1
 78
     2
176
     1
 67
     7
176
     1
 79
     3
176
     1
170
     0
176
     1
171
     0
176
     1
290
     0
176
     1
 93
        1
176
     1
 44
0.0
176
     1
173
     0
176
     1
  0
VISUALSTYLE
  5
35
102
{ACAD_REACTORS
330
2A
102
}
330
2A
100
AcDbVisualStyle
  2
Dim
 70
    11
177
     2
291
     1
 71
     2
176
     1
 72
     2
176
     1
 73
     0
176
     1
 90
        0
176
     1
 40
-0.6
176
     1
 41
-30.0
176
     1
 62
     5
 63
     7
421
 16777215
176
     1
 74
     1
176
     1
 91
        4
176
     1
 64
     7
176
     1
 65
   257
176
     1
 75
     1
176
     1
175
     1
176
     1
 42
1.0
176
     1
 92
        8
176
     1
 66
     7
176
     1
 43
1.0
176
     1
 76
     1
176
     1
 77
     6
176
     1
 78
     2
176
     1
 67
     7
176
     1
 79
     5
176
     1
170
     0
176
     1
171
     0
176
     1
290
     0
176
     1
 93
        1
176
     1
 44
-50.0
176
     1
173
     0
176
     1
  0
VISUALSTYLE
  5
39
102
{ACAD_REACTORS
330
2A
102
}
330
2A
100
AcDbVisualStyle
  2
Facepattern
 70
    15
177
     2
291
     1
 71
     2
176
     1
 72
     2
176
     1
 73
     0
176
     1
 90
        0
176
     1
 40
-0.6
176
     1
 41
-30.0
176
     1
 62
     5
 63
     7
421
 16777215
176
     1
 74
     1
176
     1
 91
        4
176
     1
 64
     7
176
     1
 65
   257
176
     1
 75
     1
176
     1
175
     1
176
     1
 42
1.0
176
     1
 92
        8
176
     1
 66
     7
176
     1
 43
1.0
176
     1
 76
     1
176
     1
 77
     6
176
     1
 78
     2
176
     1
 67
     7
176
     1
 79
     5
176
     1
170
     0
176
     1
171
     0
176
     1
290
     0
176
     1
 93
        1
176
     1
 44
0.0
176
     1
173
     0
176
     1
  0
VISUALSTYLE
  5
2B
102
{ACAD_REACTORS
330
2A
102
}
330
2A
100
AcDbVisualStyle
  2
Flat
 70
     0
177
     2
291
     1
 71
     2
176
     1
 72
     1
176
     1
 73
     1
176
     1
 90
        2
176
     1
 40
-0.6
176
     1
 41
30.0
176
     1
 62
     5
 63
     7
421
 16777215
176
     1
 74
     0
176
     1
 91
        4
176
     1
 64
     7
176
     1
 65
   257
176
     1
 75
     1
176
     1
175
     1
176
     1
 42
1.0
176
     1
 92
        8
176
     1
 66
     7
176
     1
 43
1.0
176
     1
 76
     1
176
     1
 77
     6
176
     1
 78
     2
176
     1
 67
     7
176
     1
 79
     5
176
     1
170
     0
176
     1
171
     0
176
     1
290
     0
176
     1
 93
       13
176
     1
 44
0.0
176
     1
173
     0
176
     1
  0
VISUALSTYLE
  5
2C
102
{ACAD_REACTORS
330
2A
102
}
330
2A
100
AcDbVisualStyle
  2
FlatWithEdges
 70
     1
177
     2
291
     1
 71
     2
176
     1
 72
     1
176
     1
 73
     1
176
     1
 90
        2
176
     1
 40
-0.6
176
     1
 41
30.0
176
     1
 62
     5
 63
     7
421
 16777215
176
     1
 74
     1
176
     1
 91
        4
176
     1
 64
     7
176
     1
 65
   257
176
     1
 75
     1
176
     1
175
     1
176
     1
 42
1.0
176
     1
 92
        0
176
     1
 66
   257
176
     1
 43
1.0
176
     1
 76
     1
176
     1
 77
     6
176
     1
 78
     2
176
     1
 67
     7
176
     1
 79
     5
176
     1
170
     0
176
     1
171
     0
176
     1
290
     0
176
     1
 93
       13
176
     1
 44
0.0
176
     1
173
     0
176
     1
  0
VISUALSTYLE
  5
2D
102
{ACAD_REACTORS
330
2A
102
}
330
2A
100
AcDbVisualStyle
  2
Gouraud
 70
     2
177
     2
291
     1
 71
     2
176
     1
 72
     2
176
     1
 73
     1
176
     1
 90
        2
176
     1
 40
-0.6
176
     1
 41
30.0
176
     1
 62
     5
 63
     7
421
 16777215
176
     1
 74
     0
176
     1
 91
        4
176
     1
 64
     7
176
     1
 65
   257
176
     1
 75
     1
176
     1
175
     1
176
     1
 42
1.0
176
     1
 92
        0
176
     1
 66
     7
176
     1
 43
1.0
176
     1
 76
     1
176
     1
 77
     6
176
     1
 78
     2
176
     1
 67
     7
176
     1
 79
     5
176
     1
170
     0
176
     1
171
     0
176
     1
290
     0
176
     1
 93
       13
176
     1
 44
0.0
176
     1
173
     0
176
     1
  0
VISUALSTYLE
  5
2E
102
{ACAD_REACTORS
330
2A
102
}
330
2A
100
AcDbVisualStyle
  2
GouraudWithEdges
 70
     3
177
     2
291
     1
 71
     2
176
     1
 72
     2
176
     1
 73
     1
176
     1
 90
        2
176
     1
 40
-0.6
176
     1
 41
30.0
176
     1
 62
     5
 63
     7
421
 16777215
176
     1
 74
     1
176
     1
 91
        4
176
     1
 64
     7
176
     1
 65
   257
176
     1
 75
     1
176
     1
175
     1
176
     1
 42
1.0
176
     1
 92
        0
176
     1
 66
   257
176
     1
 43
1.0
176
     1
 76
     1
176
     1
 77
     6
176
     1
 78
     2
176
     1
 67
     7
176
     1
 79
     5
176
     1
170
     0
176
     1
171
     0
176
     1
290
     0
176
     1
 93
       13
176
     1
 44
0.0
176
     1
173
     0
176
     1
  0
VISUALSTYLE
  5
38
102
{ACAD_REACTORS
330
2A
102
}
330
2A
100
AcDbVisualStyle
  2
Linepattern
 70
    14
177
     2
291
     1
 71
     2
176
     1
 72
     2
176
     1
 73
     0
176
     1
 90
        0
176
     1
 40
-0.6
176
     1
 41
-30.0
176
     1
 62
     5
 63
     7
421
 16777215
176
     1
 74
     1
176
     1
 91
        4
176
     1
 64
     7
176
     1
 65
   257
176
     1
 75
     7
176
     1
175
     7
176
     1
 42
1.0
176
     1
 92
        8
176
     1
 66
     7
176
     1
 43
1.0
176
     1
 76
     1
176
     1
 77
     6
176
     1
 78
     2
176
     1
 67
     7
176
     1
 79
     5
176
     1
170
     0
176
     1
171
     0
176
     1
290
     0
176
     1
 93
        1
176
     1
 44
0.0
176
     1
173
     0
176
     1
  0
VISUALSTYLE
  5
33
102
{ACAD_REACTORS
330
2A
102
}
330
2A
100
AcDbVisualStyle
  2
Realistic
 70
     8
177
     2
291
     0
 71
     2
176
     1
 72
     2
176
     1
 73
     0
176
     1
 90
        0
176
     1
 40
-0.6
176
     1
 41
-30.0
176
     1
 62
     5
 63
     7
421
 16777215
176
     1
 74
     1
176
     1
 91
        0
176
     1
 64
     7
176
     1
 65
   257
176
     1
 75
     1
176
     1
175
     1
176
     1
 42
1.0
176
     1
 92
        8
176
     1
 66
     8
424
  7895160
176
     1
 43
1.0
176
     1
 76
     1
176
     1
 77
     6
176
     1
 78
     2
176
     1
 67
     7
176
     1
 79
     5
176
     1
170
     0
176
     1
171
     0
176
     1
290
     0
176
     1
 93
       13
176
     1
 44
0.0
176
     1
173
     0
176
     1
  0
VISUALSTYLE
  5
37
102
{ACAD_REACTORS
330
2A
102
}
330
2A
100
AcDbVisualStyle
  2
Thicken
 70
    13
177
     2
291
     1
 71
     2
176
     1
 72
     2
176
     1
 73
     0
176
     1
 90
        0
176
     1
 40
-0.6
176
     1
 41
-30.0
176
     1
 62
     5
 63
     7
421
 16777215
176
     1
 74
     1
176
     1
 91
        4
176
     1
 64
     7
176
     1
 65
   257
176
     1
 75
     1
176
     1
175
     1
176
     1
 42
1.0
176
     1
 92
       12
176
     1
 66
     7
176
     1
 43
1.0
176
     1
 76
     1
176
     1
 77
     6
176
     1
 78
     2
176
     1
 67
     7
176
     1
 79
     5
176
     1
170
     0
176
     1
171
     0
176
     1
290
     0
176
     1
 93
        1
176
     1
 44
0.0
176
     1
173
     0
176
     1
  0
ENDSEC
  0
EOF
