  0
SECTION
  2
HEADER
  9
$ACADVER
  1
AC1024
  9
$ACADMAINTVER
 70
     6
  9
$DWGCODEPAGE
  3
ANSI_932
  9
$INSBASE
 10
0.0
 20
0.0
 30
0.0
  9
$EXTMIN
 10
-6300.0
 20
-4455.0
 30
0.0
  9
$EXTMAX
 10
6300.0
 20
4455.0
 30
0.0
  9
$LIMMIN
 10
-6300.0
 20
-4455.0
  9
$LIMMAX
 10
6300.0
 20
4455.0
  9
$ORTHOMODE
 70
     0
  9
$REGENMODE
 70
     1
  9
$FILLMODE
 70
     1
  9
$QTEXTMODE
 70
     0
  9
$MIRRTEXT
 70
     1
  9
$LTSCALE
 40
30.0
  9
$ATTMODE
 70
     1
  9
$TEXTSIZE
 40
2.5
  9
$TRACEWID
 40
1.0
  9
$TEXTSTYLE
  7
Standard
  9
$CLAYER
  8
0
  9
$CELTYPE
  6
ByLayer
  9
$CECOLOR
 62
   256
  9
$CELTSCALE
 40
1.0
  9
$DISPSILH
 70
     0
  9
$DIMSCALE
 40
1.0
  9
$DIMASZ
 40
2.5
  9
$DIMEXO
 40
0.625
  9
$DIMDLI
 40
3.75
  9
$DIMRND
 40
0.0
  9
$DIMDLE
 40
0.0
  9
$DIMEXE
 40
1.25
  9
$DIMTP
 40
0.0
  9
$DIMTM
 40
0.0
  9
$DIMTXT
 40
2.5
  9
$DIMCEN
 40
2.5
  9
$DIMTSZ
 40
0.0
  9
$DIMTOL
 70
     0
  9
$DIMLIM
 70
     0
  9
$DIMTIH
 70
     0
  9
$DIMTOH
 70
     0
  9
$DIMSE1
 70
     0
  9
$DIMSE2
 70
     0
  9
$DIMTAD
 70
     1
  9
$DIMZIN
 70
     8
  9
$DIMBLK
  1

  9
$DIMASO
 70
     1
  9
$DIMSHO
 70
     1
  9
$DIMPOST
  1

  9
$DIMAPOST
  1

  9
$DIMALT
 70
     0
  9
$DIMALTD
 70
     3
  9
$DIMALTF
 40
0.03937007874016
  9
$DIMLFAC
 40
1.0
  9
$DIMTOFL
 70
     1
  9
$DIMTVP
 40
0.0
  9
$DIMTIX
 70
     0
  9
$DIMSOXD
 70
     0
  9
$DIMSAH
 70
     0
  9
$DIMBLK1
  1

  9
$DIMBLK2
  1

  9
$DIMSTYLE
  2
ISO-25
  9
$DIMCLRD
 70
     0
  9
$DIMCLRE
 70
     0
  9
$DIMCLRT
 70
     0
  9
$DIMTFAC
 40
1.0
  9
$DIMGAP
 40
0.625
  9
$DIMJUST
 70
     0
  9
$DIMSD1
 70
     0
  9
$DIMSD2
 70
     0
  9
$DIMTOLJ
 70
     0
  9
$DIMTZIN
 70
     8
  9
$DIMALTZ
 70
     0
  9
$DIMALTTZ
 70
     0
  9
$DIMUPT
 70
     0
  9
$DIMDEC
 70
     2
  9
$DIMTDEC
 70
     2
  9
$DIMALTU
 70
     2
  9
$DIMALTTD
 70
     3
  9
$DIMTXSTY
  7
Standard
  9
$DIMAUNIT
 70
     0
  9
$DIMADEC
 70
     0
  9
$DIMALTRND
 40
0.0
  9
$DIMAZIN
 70
     0
  9
$DIMDSEP
 70
    44
  9
$DIMATFIT
 70
     3
  9
$DIMFRAC
 70
     0
  9
$DIMLDRBLK
  1

  9
$DIMLUNIT
 70
     2
  9
$DIMLWD
 70
    -2
  9
$DIMLWE
 70
    -2
  9
$DIMTMOVE
 70
     0
  9
$DIMFXL
 40
1.0
  9
$DIMFXLON
 70
     0
  9
$DIMJOGANG
 40
0.7853981633974483
  9
$DIMTFILL
 70
     0
  9
$DIMTFILLCLR
 70
     0
  9
$DIMARCSYM
 70
     0
  9
$DIMLTYPE
  6

  9
$DIMLTEX1
  6

  9
$DIMLTEX2
  6

  9
$DIMTXTDIRECTION
 70
     0
  9
$LUNITS
 70
     2
  9
$LUPREC
 70
     4
  9
$SKETCHINC
 40
1.0
  9
$FILLETRAD
 40
10.0
  9
$AUNITS
 70
     0
  9
$AUPREC
 70
     0
  9
$MENU
  1
.
  9
$ELEVATION
 40
0.0
  9
$PELEVATION
 40
0.0
  9
$THICKNESS
 40
0.0
  9
$LIMCHECK
 70
     0
  9
$CHAMFERA
 40
10.0
  9
$CHAMFERB
 40
10.0
  9
$CHAMFERC
 40
20.0
  9
$CHAMFERD
 40
0.0
  9
$SKPOLY
 70
     0
  9
$TDCREATE
 40
2460327.690398796
  9
$TDUCREATE
 40
2460327.315398796
  9
$TDUPDATE
 40
2460327.690398808
  9
$TDUUPDATE
 40
2460327.315398808
  9
$TDINDWG
 40
0.0000000116
  9
$TDUSRTIMER
 40
0.0000000116
  9
$USRTIMER
 70
     1
  9
$ANGBASE
 50
0.0
  9
$ANGDIR
 70
     0
  9
$PDMODE
 70
     0
  9
$PDSIZE
 40
0.0
  9
$PLINEWID
 40
0.0
  9
$SPLFRAME
 70
     0
  9
$SPLINETYPE
 70
     6
  9
$SPLINESEGS
 70
     8
  9
$HANDSEED
  5
443
  9
$SURFTAB1
 70
     6
  9
$SURFTAB2
 70
     6
  9
$SURFTYPE
 70
     6
  9
$SURFU
 70
     6
  9
$SURFV
 70
     6
  9
$UCSBASE
  2

  9
$UCSNAME
  2

  9
$UCSORG
 10
0.0
 20
0.0
 30
0.0
  9
$UCSXDIR
 10
1.0
 20
0.0
 30
0.0
  9
$UCSYDIR
 10
0.0
 20
1.0
 30
0.0
  9
$UCSORTHOREF
  2

  9
$UCSORTHOVIEW
 70
     0
  9
$UCSORGTOP
 10
0.0
 20
0.0
 30
0.0
  9
$UCSORGBOTTOM
 10
0.0
 20
0.0
 30
0.0
  9
$UCSORGLEFT
 10
0.0
 20
0.0
 30
0.0
  9
$UCSORGRIGHT
 10
0.0
 20
0.0
 30
0.0
  9
$UCSORGFRONT
 10
0.0
 20
0.0
 30
0.0
  9
$UCSORGBACK
 10
0.0
 20
0.0
 30
0.0
  9
$PUCSBASE
  2

  9
$PUCSNAME
  2

  9
$PUCSORG
 10
0.0
 20
0.0
 30
0.0
  9
$PUCSXDIR
 10
1.0
 20
0.0
 30
0.0
  9
$PUCSYDIR
 10
0.0
 20
1.0
 30
0.0
  9
$PUCSORTHOREF
  2

  9
$PUCSORTHOVIEW
 70
     0
  9
$PUCSORGTOP
 10
0.0
 20
0.0
 30
0.0
  9
$PUCSORGBOTTOM
 10
0.0
 20
0.0
 30
0.0
  9
$PUCSORGLEFT
 10
0.0
 20
0.0
 30
0.0
  9
$PUCSORGRIGHT
 10
0.0
 20
0.0
 30
0.0
  9
$PUCSORGFRONT
 10
0.0
 20
0.0
 30
0.0
  9
$PUCSORGBACK
 10
0.0
 20
0.0
 30
0.0
  9
$USERI1
 70
     0
  9
$USERI2
 70
     0
  9
$USERI3
 70
     0
  9
$USERI4
 70
     0
  9
$USERI5
 70
     0
  9
$USERR1
 40
0.0
  9
$USERR2
 40
0.0
  9
$USERR3
 40
0.0
  9
$USERR4
 40
0.0
  9
$USERR5
 40
0.0
  9
$WORLDVIEW
 70
     1
  9
$SHADEDGE
 70
     3
  9
$SHADEDIF
 70
    70
  9
$TILEMODE
 70
     1
  9
$MAXACTVP
 70
    64
  9
$PINSBASE
 10
0.0
 20
0.0
 30
0.0
  9
$PLIMCHECK
 70
     0
  9
$PEXTMIN
 10
1.000000000000000E+20
 20
1.000000000000000E+20
 30
1.000000000000000E+20
  9
$PEXTMAX
 10
-1.000000000000000E+20
 20
-1.000000000000000E+20
 30
-1.000000000000000E+20
  9
$PLIMMIN
 10
0.0
 20
0.0
  9
$PLIMMAX
 10
420.0
 20
297.0
  9
$UNITMODE
 70
     0
  9
$VISRETAIN
 70
     1
  9
$PLINEGEN
 70
     0
  9
$PSLTSCALE
 70
     1
  9
$TREEDEPTH
 70
  3020
  9
$CMLSTYLE
  2
Standard
  9
$CMLJUST
 70
     0
  9
$CMLSCALE
 40
20.0
  9
$PROXYGRAPHICS
 70
     1
  9
$MEASUREMENT
 70
     1
  9
$CELWEIGHT
370
    -1
  9
$ENDCAPS
280
     0
  9
$JOINSTYLE
280
     0
  9
$LWDISPLAY
290
     0
  9
$INSUNITS
 70
     4
  9
$HYPERLINKBASE
  1

  9
$STYLESHEET
  1

  9
$XEDIT
290
     1
  9
$CEPSNTYPE
380
     0
  9
$PSTYLEMODE
290
     1
  9
$FINGERPRINTGUID
  2
{F430288E-447F-463C-8A2B-ADD1ED0A1DA0}
  9
$VERSIONGUID
  2
{FAEB1C32-E019-11D5-929B-00C0DF256EC4}
  9
$EXTNAMES
290
     1
  9
$PSVPSCALE
 40
0.0
  9
$OLESTARTUP
290
     0
  9
$SORTENTS
280
   127
  9
$INDEXCTL
280
     0
  9
$HIDETEXT
280
     1
  9
$XCLIPFRAME
280
     2
  9
$HALOGAP
280
     0
  9
$OBSCOLOR
 70
   257
  9
$OBSLTYPE
280
     0
  9
$INTERSECTIONDISPLAY
280
     0
  9
$INTERSECTIONCOLOR
 70
   257
  9
$DIMASSOC
280
     2
  9
$PROJECTNAME
  1

  9
$CAMERADISPLAY
290
     0
  9
$LENSLENGTH
 40
50.0
  9
$CAMERAHEIGHT
 40
0.0
  9
$STEPSPERSEC
 40
2.0
  9
$STEPSIZE
 40
6.0
  9
$3DDWFPREC
 40
2.0
  9
$PSOLWIDTH
 40
5.0
  9
$PSOLHEIGHT
 40
80.0
  9
$LOFTANG1
 40
1.570796326794897
  9
$LOFTANG2
 40
1.570796326794897
  9
$LOFTMAG1
 40
0.0
  9
$LOFTMAG2
 40
0.0
  9
$LOFTPARAM
 70
     7
  9
$LOFTNORMALS
280
     1
  9
$LATITUDE
 40
37.795
  9
$LONGITUDE
 40
-122.394
  9
$NORTHDIRECTION
 40
0.0
  9
$TIMEZONE
 70
 -8000
  9
$LIGHTGLYPHDISPLAY
280
     1
  9
$TILEMODELIGHTSYNCH
280
     1
  9
$SOLIDHIST
280
     1
  9
$SHOWHIST
280
     1
  9
$DWFFRAME
280
     2
  9
$DGNFRAME
280
     2
  9
$REALWORLDSCALE
290
     1
  9
$INTERFERECOLOR
 62
   256
  9
$CSHADOW
280
     0
  9
$SHADOWPLANELOCATION
 40
0.0
  0
ENDSEC
  0
SECTION
  2
CLASSES
  0
CLASS
  1
ACDBDICTIONARYWDFLT
  2
AcDbDictionaryWithDefault
  3
ObjectDBX Classes
 90
        0
 91
        4
280
     0
281
     0
  0
CLASS
  1
VISUALSTYLE
  2
AcDbVisualStyle
  3
ObjectDBX Classes
 90
     4095
 91
        4
280
     0
281
     0
  0
CLASS
  1
MATERIAL
  2
AcDbMaterial
  3
ObjectDBX Classes
 90
     1153
 91
        4
280
     0
281
     0
  0
ENDSEC
  0
SECTION
  2
TABLES
  0
TABLE
  2
VPORT
  5
8
330
0
100
AcDbSymbolTable
 70
     1
  0
VPORT
  5
29
330
8
100
AcDbSymbolTableRecord
100
AcDbViewportTableRecord
  2
*Active
 70
     0
 10
0.0
 20
0.0
 11
1.0
 21
1.0
 12
0.0
 22
0.0
 13
0.0
 23
0.0
 14
10.0
 24
10.0
 15
10.0
 25
10.0
 16
0.0
 26
0.0
 36
1.0
 17
0.0
 27
0.0
 37
0.0
 40
9801.0
 41
1.414141414141414
 42
50.0
 43
0.0
 44
0.0
 50
0.0
 51
0.0
 71
     0
 72
 10000
 73
     1
 74
     3
 75
     0
 76
     0
 77
     0
 78
     0
281
     0
 65
     1
110
0.0
120
0.0
130
0.0
111
1.0
121
0.0
131
0.0
112
0.0
122
1.0
132
0.0
 79
     0
146
0.0
 60
     3
 61
     5
292
     1
282
     1
141
0.0
142
0.0
 63
   250
  0
ENDTAB
  0
TABLE
  2
LTYPE
  5
5
330
0
100
AcDbSymbolTable
 70
     5
  0
LTYPE
  5
14
330
5
100
AcDbSymbolTableRecord
100
AcDbLinetypeTableRecord
  2
ByBlock
 70
     0
  3

 72
    65
 73
     0
 40
0.0
  0
LTYPE
  5
15
330
5
100
AcDbSymbolTableRecord
100
AcDbLinetypeTableRecord
  2
ByLayer
 70
     0
  3

 72
    65
 73
     0
 40
0.0
  0
LTYPE
  5
16
330
5
100
AcDbSymbolTableRecord
100
AcDbLinetypeTableRecord
  2
Continuous
 70
     0
  3
Solid line
 72
    65
 73
     0
 40
0.0
  0
LTYPE
  5
3F
330
5
100
AcDbSymbolTableRecord
100
AcDbLinetypeTableRecord
  2
JWW_HOJO
 70
     0
  3
  -   -   -   -   -   -   -   - 
 72
    65
 73
     2
 40
1.693333333333333
 49
-1.27
 74
     0
 49
0.4233333333333333
 74
     0
  0
LTYPE
  5
40
330
5
100
AcDbSymbolTableRecord
100
AcDbLinetypeTableRecord
  2
JWW_DASHED2
 70
     0
  3
--    ----    ----    ----    --
 72
    65
 73
     2
 40
3.386666666666667
 49
1.693333333333333
 74
     0
 49
-1.693333333333333
 74
     0
  0
LTYPE
  5
41
330
5
100
AcDbSymbolTableRecord
100
AcDbLinetypeTableRecord
  2
JWW_CENTER1
 70
     0
  3
-----  --  ----------  --  -----
 72
    65
 73
     4
 40
6.773333333333333
 49
4.233333333333333
 74
     0
 49
-0.8466666666666667
 74
     0
 49
0.8466666666666667
 74
     0
 49
-0.8466666666666667
 74
     0
  0
LTYPE
  5
42
330
5
100
AcDbSymbolTableRecord
100
AcDbLinetypeTableRecord
  2
JWW_DASHED1
 70
     0
  3
-  --  --  --  --  --  --  --  -
 72
    65
 73
     2
 40
1.693333333333333
 49
0.8466666666666667
 74
     0
 49
-0.8466666666666667
 74
     0
  0
ENDTAB
  0
TABLE
  2
LAYER
  5
2
330
0
100
AcDbSymbolTable
 70
    14
  0
LAYER
  5
10
330
2
100
AcDbSymbolTableRecord
100
AcDbLayerTableRecord
  2
0
 70
     0
 62
     7
  6
Continuous
370
    -3
390
F
347
3E
  0
LAYER
  5
43
330
2
100
AcDbSymbolTableRecord
100
AcDbLayerTableRecord
  2
F-0_補助線
 70
     0
 62
     7
  6
Continuous
370
    -3
390
F
347
3E
  0
LAYER
  5
44
330
2
100
AcDbSymbolTableRecord
100
AcDbLayerTableRecord
  2
F-1_枠
 70
     0
 62
     7
  6
Continuous
370
    -3
390
F
347
3E
  0
LAYER
  5
45
330
2
100
AcDbSymbolTableRecord
100
AcDbLayerTableRecord
  2
F-A_文字
 70
     0
 62
     7
  6
Continuous
370
    -3
390
F
347
3E
  0
LAYER
  5
46
330
2
100
AcDbSymbolTableRecord
100
AcDbLayerTableRecord
  2
0-B_寸法
 70
     0
 62
     7
  6
Continuous
370
    -3
390
F
347
3E
  0
LAYER
  5
47
330
2
100
AcDbSymbolTableRecord
100
AcDbLayerTableRecord
  2
0-A_文字
 70
     0
 62
     7
  6
Continuous
370
    -3
390
F
347
3E
  0
LAYER
  5
48
330
2
100
AcDbSymbolTableRecord
100
AcDbLayerTableRecord
  2
0-0_補助線
 70
     0
 62
     7
  6
Continuous
370
    -3
390
F
347
3E
  0
LAYER
  5
49
330
2
100
AcDbSymbolTableRecord
100
AcDbLayerTableRecord
  2
0-1_通り芯
 70
     0
 62
     7
  6
Continuous
370
    -3
390
F
347
3E
  0
LAYER
  5
4A
330
2
100
AcDbSymbolTableRecord
100
AcDbLayerTableRecord
  2
0-C_ハッチ
 70
     0
 62
     7
  6
Continuous
370
    -3
390
F
347
3E
  0
LAYER
  5
4B
330
2
100
AcDbSymbolTableRecord
100
AcDbLayerTableRecord
  2
0-4_枠
 70
     0
 62
     7
  6
Continuous
370
    -3
390
F
347
3E
  0
LAYER
  5
4C
330
2
100
AcDbSymbolTableRecord
100
AcDbLayerTableRecord
  2
0-7_金物
 70
     0
 62
     7
  6
Continuous
370
    -3
390
F
347
3E
  0
LAYER
  5
4D
330
2
100
AcDbSymbolTableRecord
100
AcDbLayerTableRecord
  2
0-6_扉
 70
     0
 62
     7
  6
Continuous
370
    -3
390
F
347
3E
  0
LAYER
  5
4E
330
2
100
AcDbSymbolTableRecord
100
AcDbLayerTableRecord
  2
0-3_仕上げ
 70
     0
 62
     7
  6
Continuous
370
    -3
390
F
347
3E
  0
LAYER
  5
4F
330
2
100
AcDbSymbolTableRecord
100
AcDbLayerTableRecord
  2
1-E
 70
     0
 62
     7
  6
Continuous
370
    -3
390
F
347
3E
  0
ENDTAB
  0
TABLE
  2
STYLE
  5
3
330
0
100
AcDbSymbolTable
 70
     1
  0
STYLE
  5
11
330
3
100
AcDbSymbolTableRecord
100
AcDbTextStyleTableRecord
  2
Standard
 70
     0
 40
0.0
 41
1.0
 50
0.0
 71
     0
 42
2.5
  3
txt
  4

  0
ENDTAB
  0
TABLE
  2
VIEW
  5
6
330
0
100
AcDbSymbolTable
 70
     0
  0
ENDTAB
  0
TABLE
  2
UCS
  5
7
330
0
100
AcDbSymbolTable
 70
     0
  0
ENDTAB
  0
TABLE
  2
APPID
  5
9
330
0
100
AcDbSymbolTable
 70
     1
  0
APPID
  5
12
330
9
100
AcDbSymbolTableRecord
100
AcDbRegAppTableRecord
  2
ACAD
 70
     0
  0
ENDTAB
  0
TABLE
  2
DIMSTYLE
  5
A
330
0
100
AcDbSymbolTable
 70
     1
100
AcDbDimStyleTable
  0
DIMSTYLE
105
27
330
A
100
AcDbSymbolTableRecord
100
AcDbDimStyleTableRecord
  2
ISO-25
 70
     0
 41
2.5
 42
0.625
 43
3.75
 44
1.25
 73
     0
 74
     0
 77
     1
 78
     8
140
2.5
141
2.5
143
0.03937007874016
147
0.625
171
     3
172
     1
178
     0
271
     2
272
     2
274
     3
278
    44
283
     0
284
     8
340
11
  0
ENDTAB
  0
TABLE
  2
BLOCK_RECORD
  5
1
330
0
100
AcDbSymbolTable
 70
     2
  0
BLOCK_RECORD
  5
1F
330
1
100
AcDbSymbolTableRecord
100
AcDbBlockTableRecord
  2
*Model_Space
340
22
 70
     0
280
     1
281
     0
  0
BLOCK_RECORD
  5
1B
330
1
100
AcDbSymbolTableRecord
100
AcDbBlockTableRecord
  2
*Paper_Space
340
1E
 70
     0
280
     1
281
     0
  0
BLOCK_RECORD
  5
23
330
1
100
AcDbSymbolTableRecord
100
AcDbBlockTableRecord
  2
*Paper_Space0
340
26
 70
     0
280
     1
281
     0
  0
BLOCK_RECORD
  5
50
330
1
100
AcDbSymbolTableRecord
100
AcDbBlockTableRecord
  2
01@@SfigorgFlag@@4
340
0
102
{BLKREFS
331
385
102
}
 70
     0
280
     1
281
     0
  0
ENDTAB
  0
ENDSEC
  0
SECTION
  2
BLOCKS
  0
BLOCK
  5
20
330
1F
100
AcDbEntity
  8
0
100
AcDbBlockBegin
  2
*Model_Space
 70
     0
 10
0.0
 20
0.0
 30
0.0
  3
*Model_Space
  1

  0
ENDBLK
  5
21
330
1F
100
AcDbEntity
  8
0
100
AcDbBlockEnd
  0
BLOCK
  5
1C
330
1B
100
AcDbEntity
 67
     1
  8
0
100
AcDbBlockBegin
  2
*Paper_Space
 70
     0
 10
0.0
 20
0.0
 30
0.0
  3
*Paper_Space
  1

  0
ENDBLK
  5
1D
330
1B
100
AcDbEntity
 67
     1
  8
0
100
AcDbBlockEnd
  0
BLOCK
  5
24
330
23
100
AcDbEntity
  8
0
100
AcDbBlockBegin
  2
*Paper_Space0
 70
     0
 10
0.0
 20
0.0
 30
0.0
  3
*Paper_Space0
  1

  0
ENDBLK
  5
25
330
23
100
AcDbEntity
  8
0
100
AcDbBlockEnd
  0
BLOCK
  5
51
330
50
100
AcDbEntity
  8
0
100
AcDbBlockBegin
  2
01@@SfigorgFlag@@4
 70
     0
 10
0.0
 20
0.0
 30
0.0
  3
01@@SfigorgFlag@@4
  1

  0
LINE
  5
41A
330
50
100
AcDbEntity
  8
0-0_補助線
  6
Continuous
 62
     7
370
     5
100
AcDbLine
 10
-4.25
 20
-1.491025641025665
 30
0.0
 11
-3.25
 21
-1.491025641025665
 31
0.0
  0
LINE
  5
41B
330
50
100
AcDbEntity
  8
0-0_補助線
  6
Continuous
 62
     7
370
     5
100
AcDbLine
 10
-2.75
 20
-1.491025641025665
 30
0.0
 11
-0.1500000000000909
 21
-1.491025641025665
 31
0.0
  0
LINE
  5
41C
330
50
100
AcDbEntity
  8
0-0_補助線
  6
Continuous
 62
     7
370
     5
100
AcDbLine
 10
-0.1500000000000909
 20
-1.491025641025665
 30
0.0
 11
0.0
 21
-1.641025641025642
 31
0.0
  0
LINE
  5
41D
330
50
100
AcDbEntity
  8
0-0_補助線
  6
Continuous
 62
     7
370
     5
100
AcDbLine
 10
0.0
 20
-1.641025641025642
 30
0.0
 11
0.1500000000000909
 21
-1.491025641025665
 31
0.0
  0
LINE
  5
41E
330
50
100
AcDbEntity
  8
0-0_補助線
  6
Continuous
 62
     7
370
     5
100
AcDbLine
 10
0.1500000000000909
 20
-1.491025641025665
 30
0.0
 11
2.75
 21
-1.491025641025665
 31
0.0
  0
LINE
  5
41F
330
50
100
AcDbEntity
  8
0-0_補助線
  6
Continuous
 62
     7
370
     5
100
AcDbLine
 10
3.25
 20
-1.491025641025665
 30
0.0
 11
4.25
 21
-1.491025641025665
 31
0.0
  0
LINE
  5
420
330
50
100
AcDbEntity
  8
0-0_補助線
  6
Continuous
 62
     7
370
     5
100
AcDbLine
 10
7.849999999999909
 20
1.408974358974312
 30
0.0
 11
4.849999999999909
 21
1.408974358974312
 31
0.0
  0
LINE
  5
421
330
50
100
AcDbEntity
  8
0-0_補助線
  6
Continuous
 62
     7
370
     5
100
AcDbLine
 10
-4.849999999999909
 20
1.408974358974312
 30
0.0
 11
-7.849999999999909
 21
1.408974358974312
 31
0.0
  0
LINE
  5
422
330
50
100
AcDbEntity
  8
0-0_補助線
  6
Continuous
 62
     7
370
     5
100
AcDbLine
 10
-4.849999999999909
 20
2.008974358974335
 30
0.0
 11
-7.849999999999909
 21
1.70897435897438
 31
0.0
  0
ARC
  5
423
330
50
100
AcDbEntity
  8
0-0_補助線
  6
Continuous
 62
     7
370
     5
100
AcDbCircle
 10
-7.849999999999909
 20
1.558974358974403
 30
0.0
 40
0.15
100
AcDbArc
 50
90.0
 51
270.0
  0
ARC
  5
424
330
50
100
AcDbEntity
  8
0-0_補助線
  6
Continuous
 62
     7
370
     5
100
AcDbCircle
 10
7.849999999999909
 20
1.558974358974403
 30
0.0
 40
0.15
100
AcDbArc
 50
270.0
 51
89.99999999999997
  0
LINE
  5
425
330
50
100
AcDbEntity
  8
0-0_補助線
  6
Continuous
 62
     7
370
     5
100
AcDbLine
 10
7.849999999999909
 20
1.70897435897438
 30
0.0
 11
4.849999999999909
 21
2.008974358974335
 31
0.0
  0
LINE
  5
426
330
50
100
AcDbEntity
  8
0-0_補助線
  6
Continuous
 62
     7
370
     5
100
AcDbLine
 10
-3.050000000000182
 20
2.008974358974335
 30
0.0
 11
-4.849999999999909
 21
2.008974358974335
 31
0.0
  0
ARC
  5
427
330
50
100
AcDbEntity
  8
0-0_補助線
  6
Continuous
 62
     7
370
     5
100
AcDbCircle
 10
-3.050000000000182
 20
1.70897435897438
 30
0.0
 40
0.3
100
AcDbArc
 50
0.0
 51
90.0
  0
ARC
  5
428
330
50
100
AcDbEntity
  8
0-0_補助線
  6
Continuous
 62
     7
370
     5
100
AcDbCircle
 10
-3.050000000000182
 20
1.70897435897438
 30
0.0
 40
0.3
100
AcDbArc
 50
270.0
 51
0.0
  0
ARC
  5
429
330
50
100
AcDbEntity
  8
0-0_補助線
  6
Continuous
 62
     7
370
     5
100
AcDbCircle
 10
3.050000000000182
 20
1.70897435897438
 30
0.0
 40
0.3
100
AcDbArc
 50
180.0
 51
270.0
  0
LINE
  5
42A
330
50
100
AcDbEntity
  8
0-0_補助線
  6
Continuous
 62
     7
370
     5
100
AcDbLine
 10
3.050000000000182
 20
2.008974358974335
 30
0.0
 11
4.849999999999909
 21
2.008974358974335
 31
0.0
  0
ARC
  5
42B
330
50
100
AcDbEntity
  8
0-0_補助線
  6
Continuous
 62
     7
370
     5
100
AcDbCircle
 10
3.050000000000182
 20
1.70897435897438
 30
0.0
 40
0.3
100
AcDbArc
 50
90.0
 51
180.0
  0
LINE
  5
42C
330
50
100
AcDbEntity
  8
0-0_補助線
  6
Continuous
 62
     7
370
     5
100
AcDbLine
 10
4.849999999999909
 20
-1.341025641025688
 30
0.0
 11
4.849999999999909
 21
1.408974358974312
 31
0.0
  0
ARC
  5
42D
330
50
100
AcDbEntity
  8
0-0_補助線
  6
Continuous
 62
     7
370
     5
100
AcDbCircle
 10
4.099999999999909
 20
-1.341025641025688
 30
0.0
 40
0.75
100
AcDbArc
 50
270.0
 51
0.0
  0
LINE
  5
42E
330
50
100
AcDbEntity
  8
0-0_補助線
  6
Continuous
 62
     7
370
     5
100
AcDbLine
 10
-4.849999999999909
 20
-1.341025641025688
 30
0.0
 11
-4.849999999999909
 21
1.408974358974312
 31
0.0
  0
LINE
  5
42F
330
50
100
AcDbEntity
  8
0-0_補助線
  6
Continuous
 62
     7
370
     5
100
AcDbLine
 10
-4.099999999999909
 20
-2.091025641025688
 30
0.0
 11
4.099999999999909
 21
-2.091025641025688
 31
0.0
  0
ARC
  5
430
330
50
100
AcDbEntity
  8
0-0_補助線
  6
Continuous
 62
     7
370
     5
100
AcDbCircle
 10
-4.099999999999909
 20
-1.341025641025688
 30
0.0
 40
0.75
100
AcDbArc
 50
180.0
 51
270.0
  0
LINE
  5
431
330
50
100
AcDbEntity
  8
0-0_補助線
  6
Continuous
 62
     7
370
     5
100
AcDbLine
 10
-4.0
 20
1.408974358974312
 30
0.0
 11
-3.050000000000182
 21
1.408974358974312
 31
0.0
  0
LINE
  5
432
330
50
100
AcDbEntity
  8
0-0_補助線
  6
Continuous
 62
     7
370
     5
100
AcDbLine
 10
-4.25
 20
1.158974358974312
 30
0.0
 11
-4.25
 21
-1.491025641025665
 31
0.0
  0
ARC
  5
433
330
50
100
AcDbEntity
  8
0-0_補助線
  6
Continuous
 62
     7
370
     5
100
AcDbCircle
 10
-4.0
 20
1.158974358974312
 30
0.0
 40
0.25
100
AcDbArc
 50
90.0
 51
180.0
  0
LINE
  5
434
330
50
100
AcDbEntity
  8
0-0_補助線
  6
Continuous
 62
     7
370
     5
100
AcDbLine
 10
4.0
 20
1.408974358974312
 30
0.0
 11
3.050000000000182
 21
1.408974358974312
 31
0.0
  0
LINE
  5
435
330
50
100
AcDbEntity
  8
0-0_補助線
  6
Continuous
 62
     7
370
     5
100
AcDbLine
 10
4.25
 20
1.158974358974312
 30
0.0
 11
4.25
 21
-1.491025641025665
 31
0.0
  0
ARC
  5
436
330
50
100
AcDbEntity
  8
0-0_補助線
  6
Continuous
 62
     7
370
     5
100
AcDbCircle
 10
4.0
 20
1.158974358974312
 30
0.0
 40
0.25
100
AcDbArc
 50
0.0
 51
90.0
  0
LINE
  5
437
330
50
100
AcDbEntity
  8
0-0_補助線
  6
Continuous
 62
     7
370
     5
100
AcDbLine
 10
-3.25
 20
-1.091025641025688
 30
0.0
 11
-3.25
 21
-1.491025641025665
 31
0.0
  0
ARC
  5
438
330
50
100
AcDbEntity
  8
0-0_補助線
  6
Continuous
 62
     7
370
     5
100
AcDbCircle
 10
-3.150000000000091
 20
-1.091025641025688
 30
0.0
 40
0.1
100
AcDbArc
 50
90.0
 51
180.0
  0
LINE
  5
439
330
50
100
AcDbEntity
  8
0-0_補助線
  6
Continuous
 62
     7
370
     5
100
AcDbLine
 10
-2.849999999999909
 20
-0.991025641025665
 30
0.0
 11
-3.150000000000091
 21
-0.991025641025665
 31
0.0
  0
LINE
  5
43A
330
50
100
AcDbEntity
  8
0-0_補助線
  6
Continuous
 62
     7
370
     5
100
AcDbLine
 10
-2.75
 20
-1.091025641025688
 30
0.0
 11
-2.75
 21
-1.491025641025665
 31
0.0
  0
ARC
  5
43B
330
50
100
AcDbEntity
  8
0-0_補助線
  6
Continuous
 62
     7
370
     5
100
AcDbCircle
 10
-2.849999999999909
 20
-1.091025641025688
 30
0.0
 40
0.1
100
AcDbArc
 50
0.0
 51
90.0
  0
LINE
  5
43C
330
50
100
AcDbEntity
  8
0-0_補助線
  6
Continuous
 62
     7
370
     5
100
AcDbLine
 10
2.75
 20
-1.091025641025688
 30
0.0
 11
2.75
 21
-1.491025641025665
 31
0.0
  0
ARC
  5
43D
330
50
100
AcDbEntity
  8
0-0_補助線
  6
Continuous
 62
     7
370
     5
100
AcDbCircle
 10
2.849999999999909
 20
-1.091025641025688
 30
0.0
 40
0.1
100
AcDbArc
 50
90.0
 51
180.0
  0
LINE
  5
43E
330
50
100
AcDbEntity
  8
0-0_補助線
  6
Continuous
 62
     7
370
     5
100
AcDbLine
 10
3.150000000000091
 20
-0.991025641025665
 30
0.0
 11
2.849999999999909
 21
-0.991025641025665
 31
0.0
  0
LINE
  5
43F
330
50
100
AcDbEntity
  8
0-0_補助線
  6
Continuous
 62
     7
370
     5
100
AcDbLine
 10
3.25
 20
-1.091025641025688
 30
0.0
 11
3.25
 21
-1.491025641025665
 31
0.0
  0
ARC
  5
440
330
50
100
AcDbEntity
  8
0-0_補助線
  6
Continuous
 62
     7
370
     5
100
AcDbCircle
 10
3.150000000000091
 20
-1.091025641025688
 30
0.0
 40
0.1
100
AcDbArc
 50
0.0
 51
90.0
  0
ENDBLK
  5
52
330
50
100
AcDbEntity
  8
0
100
AcDbBlockEnd
  0
ENDSEC
  0
SECTION
  2
ENTITIES
  0
LINE
  5
53
330
1F
100
AcDbEntity
  8
F-0_補助線
  6
JWW_HOJO
 62
   120
370
     5
100
AcDbLine
 10
-6140.081333436769
 20
-4455.0
 30
0.0
 11
-6140.081333436769
 21
4424.999604096284
 31
0.0
  0
LINE
  5
54
330
1F
100
AcDbEntity
  8
F-0_補助線
  6
JWW_HOJO
 62
   120
370
     5
100
AcDbLine
 10
-6140.081333436769
 20
4424.999604096284
 30
0.0
 11
6159.917676803936
 21
4424.999604096284
 31
0.0
  0
LINE
  5
55
330
1F
100
AcDbEntity
  8
F-0_補助線
  6
JWW_HOJO
 62
   120
370
     5
100
AcDbLine
 10
6159.917676803936
 20
4424.999604096284
 30
0.0
 11
6159.917676803936
 21
-4455.0
 31
0.0
  0
LINE
  5
56
330
1F
100
AcDbEntity
  8
F-0_補助線
  6
JWW_HOJO
 62
   120
370
     5
100
AcDbLine
 10
6159.917676803936
 20
-4455.0
 30
0.0
 11
-6140.081333436769
 21
-4455.0
 31
0.0
  0
LINE
  5
57
330
1F
100
AcDbEntity
  8
F-0_補助線
  6
JWW_HOJO
 62
     7
370
     5
100
AcDbLine
 10
1009.918254163524
 20
-3795.000003092998
 30
0.0
 11
1009.918254163524
 21
-4195.000008247994
 31
0.0
  0
LINE
  5
58
330
1F
100
AcDbEntity
  8
F-0_補助線
  6
JWW_HOJO
 62
     7
370
     5
100
AcDbLine
 10
509.9185840832865
 20
-3795.000003092998
 30
0.0
 11
509.9185840832865
 21
-4195.000008247994
 31
0.0
  0
LINE
  5
59
330
1F
100
AcDbEntity
  8
F-1_枠
  6
Continuous
 62
   200
370
     5
100
AcDbLine
 10
5859.917429364118
 20
4174.999769056166
 30
0.0
 11
5859.917429364118
 21
-4205.000164959882
 31
0.0
  0
LINE
  5
5A
330
1F
100
AcDbEntity
  8
F-1_枠
  6
Continuous
 62
   200
370
     5
100
AcDbLine
 10
-5840.081317971782
 20
4174.999769056166
 30
0.0
 11
-5840.081317971782
 21
-4205.000164959882
 31
0.0
  0
LINE
  5
5B
330
1F
100
AcDbEntity
  8
F-1_枠
  6
Continuous
 62
   200
370
     5
100
AcDbLine
 10
5859.917429364118
 20
-4205.000002577499
 30
0.0
 11
-5840.081085996952
 21
-4205.000002577499
 31
0.0
  0
LINE
  5
5C
330
1F
100
AcDbEntity
  8
F-1_枠
  6
Continuous
 62
   200
370
     5
100
AcDbLine
 10
-5830.081323642278
 20
4174.999769056166
 30
0.0
 11
-5830.081323642278
 21
-4205.000164959882
 31
0.0
  0
LINE
  5
5D
330
1F
100
AcDbEntity
  8
F-1_枠
  6
Continuous
 62
   200
370
     5
100
AcDbLine
 10
-5835.081309208292
 20
4174.999769056166
 30
0.0
 11
-5835.081309208292
 21
-4205.000164959882
 31
0.0
  0
LINE
  5
5E
330
1F
100
AcDbEntity
  8
F-1_枠
  6
Continuous
 62
   200
370
     5
100
AcDbLine
 10
5854.917165428305
 20
4174.999769056166
 30
0.0
 11
5854.917165428305
 21
-4205.000164959882
 31
0.0
  0
LINE
  5
5F
330
1F
100
AcDbEntity
  8
F-1_枠
  6
Continuous
 62
   200
370
     5
100
AcDbLine
 10
5849.917643811961
 20
4174.999769056166
 30
0.0
 11
5849.917643811961
 21
-4205.000164959882
 31
0.0
  0
LINE
  5
60
330
1F
100
AcDbEntity
  8
F-1_枠
  6
Continuous
 62
   200
370
     5
100
AcDbLine
 10
5859.917429364118
 20
-4199.999993814004
 30
0.0
 11
-5840.081085996952
 21
-4199.999993814004
 31
0.0
  0
LINE
  5
61
330
1F
100
AcDbEntity
  8
F-1_枠
  6
Continuous
 62
   200
370
     5
100
AcDbLine
 10
5859.917429364118
 20
-4195.000008247994
 30
0.0
 11
-5840.081085996952
 21
-4195.000008247994
 31
0.0
  0
LINE
  5
62
330
1F
100
AcDbEntity
  8
F-1_枠
  6
Continuous
 62
   200
370
     5
100
AcDbLine
 10
4349.91789125178
 20
-3795.000003092998
 30
0.0
 11
4349.91789125178
 21
-4195.000008247994
 31
0.0
  0
LINE
  5
63
330
1F
100
AcDbEntity
  8
F-1_枠
  6
Continuous
 62
   200
370
     5
100
AcDbLine
 10
2849.917396372143
 20
-3795.000003092998
 30
0.0
 11
2849.917396372143
 21
-4195.000008247994
 31
0.0
  0
LINE
  5
64
330
1F
100
AcDbEntity
  8
F-1_枠
  6
Continuous
 62
   200
370
     5
100
AcDbLine
 10
9.918542843317937
 20
-3795.000003092998
 30
0.0
 11
9.918542843317937
 21
-4195.000008247994
 31
0.0
  0
LINE
  5
65
330
1F
100
AcDbEntity
  8
F-1_枠
  6
Continuous
 62
   200
370
     5
100
AcDbLine
 10
9.918542843317937
 20
-3994.999936078045
 30
0.0
 11
5849.917643811961
 21
-3995.005364289155
 31
0.0
  0
LINE
  5
66
330
1F
100
AcDbEntity
  8
F-1_枠
  6
Continuous
 62
   200
370
     5
100
AcDbLine
 10
-5840.081085996952
 20
4174.999769056166
 30
0.0
 11
5859.917429364118
 21
4174.999769056166
 31
0.0
  0
LINE
  5
67
330
1F
100
AcDbEntity
  8
F-1_枠
  6
Continuous
 62
   200
370
     5
100
AcDbLine
 10
-5840.081085996952
 20
4164.999983504013
 30
0.0
 11
5859.917429364118
 21
4164.999983504013
 31
0.0
  0
LINE
  5
68
330
1F
100
AcDbEntity
  8
F-1_枠
  6
Continuous
 62
   200
370
     5
100
AcDbLine
 10
-5840.081085996952
 20
4169.999505120355
 30
0.0
 11
5859.917429364118
 21
4169.999505120355
 31
0.0
  0
LINE
  5
69
330
1F
100
AcDbEntity
  8
F-0_補助線
  6
JWW_HOJO
 62
     7
370
     5
100
AcDbLine
 10
-5830.081323642278
 20
-3994.99993607839
 30
0.0
 11
9.918542843317937
 21
-3994.99993607839
 31
0.0
  0
LINE
  5
6A
330
1F
100
AcDbEntity
  8
F-0_補助線
  6
JWW_HOJO
 62
     7
370
     5
100
AcDbLine
 10
-5830.081323642278
 20
-3904.99993607839
 30
0.0
 11
9.918542843317937
 21
-3904.99993607839
 31
0.0
  0
LINE
  5
6B
330
1F
100
AcDbEntity
  8
F-0_補助線
  6
JWW_HOJO
 62
     7
370
     5
100
AcDbLine
 10
-5830.081323642278
 20
-4084.99993607839
 30
0.0
 11
9.918542843317937
 21
-4084.99993607839
 31
0.0
  0
LINE
  5
6C
330
1F
100
AcDbEntity
  8
F-0_補助線
  6
JWW_HOJO
 62
     7
370
     5
100
AcDbLine
 10
9.918408067690052
 20
-4139.999739777984
 30
0.0
 11
5849.917509036333
 21
-4140.005167989091
 31
0.0
  0
LINE
  5
6D
330
1F
100
AcDbEntity
  8
F-0_補助線
  6
JWW_HOJO
 62
     7
370
     5
100
AcDbLine
 10
9.918491721641658
 20
-4049.999739778022
 30
0.0
 11
5849.917592690285
 21
-4050.005167989132
 31
0.0
  0
LINE
  5
6E
330
1F
100
AcDbEntity
  8
F-0_補助線
  6
JWW_HOJO
 62
     7
370
     5
100
AcDbLine
 10
9.918593965362561
 20
-3939.99973721807
 30
0.0
 11
5849.917694934006
 21
-3940.005165429179
 31
0.0
  0
LINE
  5
6F
330
1F
100
AcDbEntity
  8
F-0_補助線
  6
JWW_HOJO
 62
     7
370
     5
100
AcDbLine
 10
9.918677619307346
 20
-3849.999737218109
 30
0.0
 11
5849.917778587951
 21
-3850.005165429218
 31
0.0
  0
LINE
  5
70
330
1F
100
AcDbEntity
  8
F-0_補助線
  6
JWW_HOJO
 62
     7
370
     5
100
AcDbLine
 10
2939.917396372143
 20
-3795.000003092998
 30
0.0
 11
2939.917396372143
 21
-4195.000008247994
 31
0.0
  0
LINE
  5
71
330
1F
100
AcDbEntity
  8
F-0_補助線
  6
JWW_HOJO
 62
     7
370
     5
100
AcDbLine
 10
99.91854284331794
 20
-3795.000003092998
 30
0.0
 11
99.91854284331794
 21
-4195.000008247994
 31
0.0
  0
LINE
  5
72
330
1F
100
AcDbEntity
  8
F-0_補助線
  6
JWW_HOJO
 62
     7
370
     5
100
AcDbLine
 10
4439.91789125178
 20
-3795.000003092998
 30
0.0
 11
4439.91789125178
 21
-4195.000008247994
 31
0.0
  0
MTEXT
  5
73
330
1F
100
AcDbEntity
  8
F-A_文字
  6
Continuous
 62
     7
370
     0
100
AcDbMText
 10
4439.91789125178
 20
-3887.143854850754
 30
0.0
 40
45.72
 41
240.0
 46
0.0
 71
     7
 72
     1
  1
{\fＭＳ ゴシック|b0|i0|c128|p49;ＤＡＴＥ}
 73
     1
 44
1.0
  0
MTEXT
  5
74
330
1F
100
AcDbEntity
  8
F-A_文字
  6
Continuous
 62
     7
370
     0
100
AcDbMText
 10
4439.91789125178
 20
-4087.143857410839
 30
0.0
 40
45.72
 41
180.0
 46
0.0
 71
     7
 72
     1
  1
{\fＭＳ ゴシック|b0|i0|c128|p49;ＮＯ．}
 73
     1
 44
1.0
  0
MTEXT
  5
75
330
1F
100
AcDbEntity
  8
F-A_文字
  6
Continuous
 62
     7
370
     0
100
AcDbMText
 10
2939.917396372143
 20
-3887.142460617775
 30
0.0
 40
45.72
 41
300.0
 46
0.0
 71
     7
 72
     1
  1
{\fＭＳ ゴシック|b0|i0|c128|p49;ＳＣＡＬＥ}
 73
     1
 44
1.0
  0
MTEXT
  5
76
330
1F
100
AcDbEntity
  8
F-A_文字
  6
Continuous
 62
     7
370
     0
100
AcDbMText
 10
2939.917396372143
 20
-4087.142463177859
 30
0.0
 40
45.72
 41
240.0
 46
0.0
 71
     7
 72
     1
  1
{\fＭＳ ゴシック|b0|i0|c128|p49;ＦＩＬＥ}
 73
     1
 44
1.0
  0
MTEXT
  5
77
330
1F
100
AcDbEntity
  8
F-A_文字
  6
Continuous
 62
     7
370
     0
100
AcDbMText
 10
99.91854284331794
 20
-3887.139820871936
 30
0.0
 40
45.72
 41
180.0
 46
0.0
 71
     7
 72
     1
  1
{\fＭＳ ゴシック|b0|i0|c128|p49;図面名}
 73
     1
 44
1.0
  0
MTEXT
  5
78
330
1F
100
AcDbEntity
  8
F-A_文字
  6
Continuous
 62
     7
370
     0
100
AcDbMText
 10
1604.917396372136
 20
-4164.281754523929
 30
0.0
 40
101.44125
 41
1065.0
 46
0.0
 71
     7
 72
     1
  1
{\fＭＳ ゴシック|b0|i0|c128|p49;ウッドワン・・・}
 73
     1
 44
1.0
  0
MTEXT
  5
79
330
1F
100
AcDbEntity
  8
F-A_文字
  6
Continuous
 62
     7
370
     0
100
AcDbMText
 10
1394.917396372136
 20
-4096.140669266148
 30
0.0
 40
45.72
 41
120.0
 46
0.0
 71
     7
 72
     1
  1
{\fＭＳ ゴシック|b0|i0|c128|p49;株式}
 73
     1
 44
1.0
  0
MTEXT
  5
7A
330
1F
100
AcDbEntity
  8
F-A_文字
  6
Continuous
 62
     7
370
     0
100
AcDbMText
 10
1394.917396372136
 20
-4168.140669266188
 30
0.0
 40
45.72
 41
120.0
 46
0.0
 71
     7
 72
     1
  1
{\fＭＳ ゴシック|b0|i0|c128|p49;会社}
 73
     1
 44
1.0
  0
LINE
  5
7B
330
1F
100
AcDbEntity
  8
F-1_枠
  6
Continuous
 62
   200
370
     5
100
AcDbLine
 10
5859.917429364118
 20
-3795.000003092998
 30
0.0
 11
-5840.081085996952
 21
-3795.000003092998
 31
0.0
  0
LINE
  5
7C
330
1F
100
AcDbEntity
  8
F-1_枠
  6
Continuous
 62
   200
370
     5
100
AcDbLine
 10
5859.917429364118
 20
-3790.000017526988
 30
0.0
 11
-5840.081085996952
 21
-3790.000017526988
 31
0.0
  0
LINE
  5
7D
330
1F
100
AcDbEntity
  8
F-0_補助線
  6
JWW_HOJO
 62
     7
370
     5
100
AcDbLine
 10
-5087.628710189612
 20
-3795.000003093
 30
0.0
 11
-5087.628710189612
 21
-4205.000164959882
 31
0.0
  0
LINE
  5
7E
330
1F
100
AcDbEntity
  8
F-0_補助線
  6
JWW_HOJO
 62
     7
370
     5
100
AcDbLine
 10
-50.08145715668206
 20
-3795.000003092998
 30
0.0
 11
-50.08145715668206
 21
-4195.000008247994
 31
0.0
  0
MTEXT
  5
7F
330
1F
100
AcDbEntity
  8
F-0_補助線
  6
Continuous
 62
     7
370
     0
100
AcDbMText
 10
509.9185840832865
 20
-3951.497291872503
 30
0.0
 40
68.58000000000001
 41
360.0
 46
0.0
 71
     7
 72
     1
  1
{\fＭＳ ゴシック|b0|i0|c128|p49;DOORETUS}
 73
     1
 44
1.0
  0
MTEXT
  5
80
330
1F
100
AcDbEntity
  8
F-0_補助線
  6
Continuous
 62
     7
370
     0
100
AcDbMText
 10
1110.209427605312
 20
-3946.734791872503
 30
0.0
 40
78.105
 41
615.0
 46
0.0
 71
     7
 72
     1
  1
{\fＭＳ ゴシック|b0|i0|c128|p49;建具納まり図}
 73
     1
 44
1.0
  0
MTEXT
  5
81
330
1F
100
AcDbEntity
  8
0-B_寸法
  6
Continuous
 62
     7
370
     5
100
AcDbMText
 10
4278.667643811961
 20
3554.775383504014
 30
0.0
 40
63.55080000000001
 41
1042.5
 46
0.0
 71
     7
 72
     1
  1
{\fＭＳ ゴシック|b0|i0|c128|p49;上吊軸固定/フリーオープン}
 73
     1
 44
1.0
  0
LINE
  5
82
330
1F
100
AcDbEntity
  8
0-B_寸法
  6
Continuous
 62
    92
370
     5
100
AcDbLine
 10
5369.917643811961
 20
3684.999983504013
 30
0.0
 11
4229.917643811961
 21
3684.999983504013
 31
0.0
  0
LINE
  5
83
330
1F
100
AcDbEntity
  8
0-B_寸法
  6
Continuous
 62
    92
370
     5
100
AcDbLine
 10
5369.917643811961
 20
3540.999983504013
 30
0.0
 11
4229.917643811961
 21
3540.999983504013
 31
0.0
  0
LINE
  5
84
330
1F
100
AcDbEntity
  8
0-B_寸法
  6
JWW_HOJO
 62
   120
370
     5
100
AcDbLine
 10
4799.917643811961
 20
3684.999983504013
 30
0.0
 11
4799.917643811961
 21
2718.999983504013
 31
0.0
  0
LINE
  5
85
330
1F
100
AcDbEntity
  8
0-B_寸法
  6
JWW_HOJO
 62
   120
370
     5
100
AcDbLine
 10
4259.917643811961
 20
3684.999983504013
 30
0.0
 11
4259.917643811961
 21
2718.999983504013
 31
0.0
  0
LINE
  5
86
330
1F
100
AcDbEntity
  8
0-B_寸法
  6
JWW_HOJO
 62
   120
370
     5
100
AcDbLine
 10
5339.917643811961
 20
3684.999983504013
 30
0.0
 11
5339.917643811961
 21
2718.999983504013
 31
0.0
  0
LINE
  5
87
330
1F
100
AcDbEntity
  8
0-B_寸法
  6
Continuous
 62
    92
370
     5
100
AcDbLine
 10
4229.917643811961
 20
3684.999983504013
 30
0.0
 11
4229.917643811961
 21
2718.999983504013
 31
0.0
  0
LINE
  5
88
330
1F
100
AcDbEntity
  8
0-B_寸法
  6
Continuous
 62
    92
370
     5
100
AcDbLine
 10
5369.917643811961
 20
2718.999983504013
 30
0.0
 11
4229.917643811961
 21
2718.999983504013
 31
0.0
  0
LINE
  5
89
330
1F
100
AcDbEntity
  8
0-B_寸法
  6
Continuous
 62
    92
370
     5
100
AcDbLine
 10
5369.917643811961
 20
3684.999983504013
 30
0.0
 11
5369.917643811961
 21
2718.999983504013
 31
0.0
  0
ELLIPSE
  5
8A
330
1F
100
AcDbEntity
  8
0-B_寸法
  6
Continuous
 62
    92
370
     5
100
AcDbEllipse
 10
4724.517918944775
 20
2927.884230441197
 30
0.0
 11
-17.7763823922528
 21
100.8148742797557
 31
0.0
210
0.0
220
0.0
230
1.0
 40
0.4000000000000001
 41
1.850633272656679
 42
2.442876790075129
  0
ELLIPSE
  5
8B
330
1F
100
AcDbEntity
  8
0-B_寸法
  6
Continuous
 62
    92
370
     5
100
AcDbEllipse
 10
4724.517918944775
 20
2927.884230441197
 30
0.0
 11
-17.7763823922528
 21
100.8148742797557
 31
0.0
210
0.0
220
0.0
230
1.0
 40
0.4000000000000001
 41
3.840308517104466
 42
4.432552034522944
  0
ELLIPSE
  5
8C
330
1F
100
AcDbEntity
  8
0-B_寸法
  6
Continuous
 62
    92
370
     5
100
AcDbEllipse
 10
4724.098172894875
 20
2930.264728582853
 30
0.0
 11
-14.67024424252691
 21
83.19908946199426
 31
0.0
210
0.0
220
0.0
230
1.0
 40
0.5
 41
4.340591432030095
 42
8.225779182329084
  0
LINE
  5
8D
330
1F
100
AcDbEntity
  8
0-B_寸法
  6
Continuous
 62
    92
370
     5
100
AcDbLine
 10
4764.067802717541
 20
2855.267181117928
 30
0.0
 11
4712.189678628006
 21
2846.1196681324
 31
0.0
  0
LINE
  5
8E
330
1F
100
AcDbEntity
  8
0-B_寸法
  6
Continuous
 62
    92
370
     5
100
AcDbLine
 10
4766.255769756144
 20
2842.858603429974
 30
0.0
 11
4714.377645666609
 21
2833.711090444447
 31
0.0
  0
ELLIPSE
  5
8F
330
1F
100
AcDbEntity
  8
0-B_寸法
  6
Continuous
 62
    92
370
     5
100
AcDbEllipse
 10
4740.316707711377
 20
2838.28484693721
 30
0.0
 11
-7.622927487939132
 21
43.23177007461331
 31
0.0
210
0.0
220
0.0
230
1.0
 40
0.6000000000000001
 41
1.570796326794897
 42
4.71238898038469
  0
ELLIPSE
  5
90
330
1F
100
AcDbEntity
  8
0-B_寸法
  6
Continuous
 62
    92
370
     5
100
AcDbEllipse
 10
4878.978687882654
 20
2963.935065931004
 30
0.0
 11
26.49533313827761
 21
98.88192943551533
 31
0.0
210
0.0
220
0.0
230
0.9999999999999999
 40
0.4
 41
1.850633272656679
 42
2.442876790075129
  0
ELLIPSE
  5
91
330
1F
100
AcDbEntity
  8
0-B_寸法
  6
Continuous
 62
    92
370
     5
100
AcDbEllipse
 10
4878.978687882654
 20
2963.935065931004
 30
0.0
 11
26.49533313827761
 21
98.88192943551533
 31
0.0
210
0.0
220
0.0
230
0.9999999999999999
 40
0.4
 41
3.840308517104466
 42
4.432552034522944
  0
ELLIPSE
  5
92
330
1F
100
AcDbEntity
  8
0-B_寸法
  6
Continuous
 62
    92
370
     5
100
AcDbEllipse
 10
4879.604310755758
 20
2966.269922279796
 30
0.0
 11
21.86569797210526
 21
81.6038957748525
 31
0.0
210
0.0
220
0.0
230
1.0
 40
0.5
 41
4.340591432030095
 42
8.225779182329084
  0
LINE
  5
93
330
1F
100
AcDbEntity
  8
0-B_寸法
  6
Continuous
 62
    92
370
     5
100
AcDbLine
 10
4884.13376436456
 20
2881.40716552561
 30
0.0
 11
4833.25031048817
 21
2895.041345899896
 31
0.0
  0
LINE
  5
94
330
1F
100
AcDbEntity
  8
0-B_寸法
  6
Continuous
 62
    92
370
     5
100
AcDbLine
 10
4880.872644396272
 20
2869.236500114368
 30
0.0
 11
4829.989190519882
 21
2882.870680488653
 31
0.0
  0
ELLIPSE
  5
95
330
1F
100
AcDbEntity
  8
0-B_寸法
  6
Continuous
 62
    92
370
     5
100
AcDbEllipse
 10
4855.430917458078
 20
2876.053590301512
 30
0.0
 11
11.36181697857171
 21
42.40287823032828
 31
0.0
210
0.0
220
0.0
230
0.9999999999999999
 40
0.6
 41
1.570796326794897
 42
4.71238898038469
  0
LINE
  5
96
330
1F
100
AcDbEntity
  8
0-B_寸法
  6
Continuous
 62
    40
370
     5
100
AcDbLine
 10
4439.917643811961
 20
3385.504011182749
 30
0.0
 11
4259.917643811961
 21
3385.504011182749
 31
0.0
  0
LINE
  5
97
330
1F
100
AcDbEntity
  8
0-B_寸法
  6
Continuous
 62
    40
370
     5
100
AcDbLine
 10
4439.917643811961
 20
3439.504011182748
 30
0.0
 11
4259.917643811961
 21
3439.504011182748
 31
0.0
  0
LINE
  5
98
330
1F
100
AcDbEntity
  8
0-B_寸法
  6
Continuous
 62
    40
370
     5
100
AcDbLine
 10
4439.917643811961
 20
3439.504011182748
 30
0.0
 11
4439.917643811961
 21
3385.504011182749
 31
0.0
  0
LINE
  5
99
330
1F
100
AcDbEntity
  8
0-B_寸法
  6
Continuous
 62
    40
370
     5
100
AcDbLine
 10
5159.917643811961
 20
3385.504011182749
 30
0.0
 11
5339.917643811961
 21
3385.504011182749
 31
0.0
  0
LINE
  5
9A
330
1F
100
AcDbEntity
  8
0-B_寸法
  6
Continuous
 62
    40
370
     5
100
AcDbLine
 10
5159.917643811961
 20
3439.504011182748
 30
0.0
 11
5339.917643811961
 21
3439.504011182748
 31
0.0
  0
LINE
  5
9B
330
1F
100
AcDbEntity
  8
0-B_寸法
  6
Continuous
 62
    40
370
     5
100
AcDbLine
 10
5159.917643811961
 20
3439.504011182748
 30
0.0
 11
5159.917643811961
 21
3385.504011182749
 31
0.0
  0
LINE
  5
9C
330
1F
100
AcDbEntity
  8
0-B_寸法
  6
JWW_DASHED2
 62
     7
370
     5
100
AcDbLine
 10
5159.917643811961
 20
3385.504011182749
 30
0.0
 11
4439.917643811961
 21
3385.504011182749
 31
0.0
  0
LINE
  5
9D
330
1F
100
AcDbEntity
  8
0-B_寸法
  6
Continuous
 62
    40
370
     5
100
AcDbLine
 10
4973.567931338146
 20
3385.504011182749
 30
0.0
 11
5066.742787575054
 21
3037.770713718684
 31
0.0
  0
LINE
  5
9E
330
1F
100
AcDbEntity
  8
0-B_寸法
  6
Continuous
 62
    40
370
     5
100
AcDbLine
 10
5159.917643811961
 20
3385.504011182749
 30
0.0
 11
5066.742787575054
 21
3037.770713718684
 31
0.0
  0
LINE
  5
9F
330
1F
100
AcDbEntity
  8
0-A_文字
  6
Continuous
 62
    92
370
     5
100
AcDbLine
 10
-5659.999495325865
 20
3730.00018145587
 30
0.0
 11
-5659.999495325865
 21
4000.00018145587
 31
0.0
  0
MTEXT
  5
A0
330
1F
100
AcDbEntity
  8
F-A_文字
  6
Continuous
 62
     7
370
     0
100
AcDbMText
 10
3689.917643811962
 20
-3946.903115907308
 30
0.0
 40
76.19999999999999
 41
150.0
 46
0.0
 71
     7
 72
     1
  1
{\fＭＳ ゴシック|b0|i0|c128|p49;1/5}
 73
     1
 44
1.0
  0
MTEXT
  5
A1
330
1F
100
AcDbEntity
  8
0-A_文字
  6
Continuous
 62
    92
370
     5
100
AcDbMText
 10
-5592.499495325865
 20
3758.959004985282
 30
0.0
 40
147.9176470588235
 41
3300.0
 46
0.0
 71
     7
 72
     1
  1
{\fＭＳ ゴシック|b0|i0|c128|p49;クローゼットドア　調整枠　間口３尺}
 73
     1
 44
1.0
  0
LINE
  5
A2
330
1F
100
AcDbEntity
  8
0-A_文字
  6
Continuous
 62
    92
370
     5
100
AcDbLine
 10
-2235.714285714285
 20
3730.00018145587
 30
0.0
 11
-2235.714285714285
 21
4000.00018145587
 31
0.0
  0
LINE
  5
A3
330
1F
100
AcDbEntity
  8
0-A_文字
  6
Continuous
 62
    92
370
     5
100
AcDbLine
 10
-5659.999495325865
 20
4000.00018145587
 30
0.0
 11
-2235.714285714285
 21
4000.00018145587
 31
0.0
  0
LINE
  5
A4
330
1F
100
AcDbEntity
  8
0-A_文字
  6
Continuous
 62
    92
370
     5
100
AcDbLine
 10
-5659.999495325865
 20
3730.00018145587
 30
0.0
 11
-2235.714285714285
 21
3730.00018145587
 31
0.0
  0
MTEXT
  5
A5
330
1F
100
AcDbEntity
  8
F-A_文字
  6
Continuous
 62
     7
370
     0
100
AcDbMText
 10
-5080.081323642278
 20
-4045.06637357839
 30
0.0
 40
79.86712499999996
 41
4192.5
 46
0.0
 71
     7
 72
     1
  1
{\fＭＳ ゴシック|b0|i0|c128|p49;ドレタス　クローゼットドア  調整枠　３方枠＋埋め込みレール　枠外H2,047　枠外W724}
 73
     1
 44
1.0
  0
MTEXT
  5
A6
330
1F
100
AcDbEntity
  8
F-A_文字
  6
Continuous
 62
     7
370
     5
100
AcDbMText
 10
5096.16770014406
 20
-4147.857012699984
 30
0.0
 40
74.295
 41
97.5
 46
0.0
 71
     7
 72
     1
  1
{\fＭＳ ゴシック|b0|i0|c128|p49;01}
 73
     1
 44
1.0
  0
LINE
  5
A7
330
1F
100
AcDbEntity
  8
0-B_寸法
  6
Continuous
 62
   120
370
     5
100
AcDbLine
 10
-2842.290383651204
 20
1806.945146596495
 30
0.0
 11
-2842.290383651204
 21
1986.945146596495
 31
0.0
  0
LWPOLYLINE
  5
A8
330
1F
100
AcDbEntity
  8
0-B_寸法
  6
Continuous
 62
     7
370
     5
100
AcDbPolyline
 90
        4
 70
     1
 43
3.0
 10
-2840.790383651205
 20
1806.945146596495
 42
0.4142135623731
 10
-2842.290383651204
 20
1808.445146596495
 42
0.4142135623731
 10
-2843.790383651204
 20
1806.945146596495
 42
0.4142135623731
 10
-2842.290383651204
 20
1805.445146596495
 42
0.4142135623731
  0
LINE
  5
A9
330
1F
100
AcDbEntity
  8
0-B_寸法
  6
Continuous
 62
   120
370
     5
100
AcDbLine
 10
-3022.290383651204
 20
1806.945146596495
 30
0.0
 11
-3022.290383651204
 21
1986.945146596495
 31
0.0
  0
LINE
  5
AA
330
1F
100
AcDbEntity
  8
0-B_寸法
  6
Continuous
 62
   120
370
     5
100
AcDbLine
 10
-2902.290383651204
 20
1806.945146596495
 30
0.0
 11
-2902.290383651204
 21
1986.945146596495
 31
0.0
  0
LINE
  5
AB
330
1F
100
AcDbEntity
  8
0-B_寸法
  6
Continuous
 62
   120
370
     5
100
AcDbLine
 10
-2956.290383651207
 20
1806.945146596495
 30
0.0
 11
-2956.290383651207
 21
1986.945146596495
 31
0.0
  0
LINE
  5
AC
330
1F
100
AcDbEntity
  8
0-B_寸法
  6
Continuous
 62
   120
370
     5
100
AcDbLine
 10
-2992.290383651204
 20
1806.945146596495
 30
0.0
 11
-2992.290383651204
 21
1986.945146596495
 31
0.0
  0
LINE
  5
AD
330
1F
100
AcDbEntity
  8
0-B_寸法
  6
Continuous
 62
   120
370
     5
100
AcDbLine
 10
-3127.739205479867
 20
1866.945146596495
 30
0.0
 11
-3067.290383651204
 21
1866.945146596495
 31
0.0
  0
MTEXT
  5
AE
330
1F
100
AcDbEntity
  8
0-B_寸法
  6
Continuous
 62
     7
370
   211
100
AcDbMText
 10
-3112.290383651205
 20
1856.235146596497
 30
0.0
 40
68.5800000000026
 41
45.00000000000171
 46
0.0
 71
     7
 72
     1
  1
{\fＭＳ ゴシック|b0|i0|c128|p49;5}
 73
     1
 44
1.0
  0
LINE
  5
AF
330
1F
100
AcDbEntity
  8
0-B_寸法
  6
Continuous
 62
   120
370
     5
100
AcDbLine
 10
-3007.290383651204
 20
1806.945146596495
 30
0.0
 11
-3067.290383651204
 21
1866.945146596495
 31
0.0
  0
LINE
  5
B0
330
1F
100
AcDbEntity
  8
0-B_寸法
  6
Continuous
 62
   120
370
     5
100
AcDbLine
 10
-3119.536923506379
 20
1716.945146596495
 30
0.0
 11
-3064.290383651205
 21
1716.945146596495
 31
0.0
  0
MTEXT
  5
B1
330
1F
100
AcDbEntity
  8
0-B_寸法
  6
Continuous
 62
     7
370
   211
100
AcDbMText
 10
-3109.290383651206
 20
1706.235146596497
 30
0.0
 40
68.5800000000026
 41
45.00000000000171
 46
0.0
 71
     7
 72
     1
  1
{\fＭＳ ゴシック|b0|i0|c128|p49;6}
 73
     1
 44
1.0
  0
MTEXT
  5
B2
330
1F
100
AcDbEntity
  8
0-B_寸法
  6
Continuous
 62
     7
370
   211
100
AcDbMText
 10
-2951.790383651206
 20
1796.235146596497
 30
0.0
 40
68.5800000000026
 41
45.00000000000171
 46
0.0
 71
     7
 72
     1
  1
{\fＭＳ ゴシック|b0|i0|c128|p49;9}
 73
     1
 44
1.0
  0
LWPOLYLINE
  5
B3
330
1F
100
AcDbEntity
  8
0-B_寸法
  6
Continuous
 62
     7
370
     5
100
AcDbPolyline
 90
        4
 70
     1
 43
3.0
 10
-2900.790383651205
 20
1806.945146596495
 42
0.4142135623731
 10
-2902.290383651204
 20
1808.445146596495
 42
0.4142135623731
 10
-2903.790383651204
 20
1806.945146596495
 42
0.4142135623731
 10
-2902.290383651204
 20
1805.445146596495
 42
0.4142135623731
  0
LWPOLYLINE
  5
B4
330
1F
100
AcDbEntity
  8
0-B_寸法
  6
Continuous
 62
     7
370
     5
100
AcDbPolyline
 90
        4
 70
     1
 43
3.0
 10
-2954.790383651207
 20
1806.945146596495
 42
0.4142135623731
 10
-2956.290383651207
 20
1808.445146596495
 42
0.4142135623731
 10
-2957.790383651207
 20
1806.945146596495
 42
0.4142135623731
 10
-2956.290383651207
 20
1805.445146596495
 42
0.4142135623731
  0
LWPOLYLINE
  5
B5
330
1F
100
AcDbEntity
  8
0-B_寸法
  6
Continuous
 62
     7
370
     5
100
AcDbPolyline
 90
        4
 70
     1
 43
3.0
 10
-2990.790383651205
 20
1806.945146596495
 42
0.4142135623731
 10
-2992.290383651204
 20
1808.445146596495
 42
0.4142135623731
 10
-2993.790383651204
 20
1806.945146596495
 42
0.4142135623731
 10
-2992.290383651204
 20
1805.445146596495
 42
0.4142135623731
  0
LWPOLYLINE
  5
B6
330
1F
100
AcDbEntity
  8
0-B_寸法
  6
Continuous
 62
     7
370
     5
100
AcDbPolyline
 90
        4
 70
     1
 43
3.0
 10
-3020.790383651205
 20
1806.945146596495
 42
0.4142135623731
 10
-3022.290383651204
 20
1808.445146596495
 42
0.4142135623731
 10
-3023.790383651204
 20
1806.945146596495
 42
0.4142135623731
 10
-3022.290383651204
 20
1805.445146596495
 42
0.4142135623731
  0
LINE
  5
B7
330
1F
100
AcDbEntity
  8
0-B_寸法
  6
Continuous
 62
   120
370
     5
100
AcDbLine
 10
-3022.290383651204
 20
1806.945146596495
 30
0.0
 11
-2842.290383651204
 21
1806.945146596495
 31
0.0
  0
LINE
  5
B8
330
1F
100
AcDbEntity
  8
0-B_寸法
  6
Continuous
 62
   120
370
     5
100
AcDbLine
 10
-2974.290383651205
 20
1806.945146596495
 30
0.0
 11
-3064.290383651205
 21
1716.945146596495
 31
0.0
  0
MTEXT
  5
B9
330
1F
100
AcDbEntity
  8
0-B_寸法
  6
Continuous
 62
     7
370
   211
100
AcDbMText
 10
-2891.040383651205
 20
1799.092646596496
 30
0.0
 40
74.29500000000066
 41
97.50000000000085
 46
0.0
 71
     7
 72
     1
  1
{\fＭＳ ゴシック|b0|i0|c128|p49;10}
 73
     1
 44
1.0
  0
LINE
  5
BA
330
1F
100
AcDbEntity
  8
0-0_補助線
  6
JWW_HOJO
 62
   120
370
     5
100
AcDbLine
 10
1921.709418396942
 20
2781.945146596495
 30
0.0
 11
-3622.290185699349
 21
2781.945146596495
 31
0.0
  0
LINE
  5
BB
330
1F
100
AcDbEntity
  8
0-0_補助線
  6
JWW_HOJO
 62
   120
370
     5
100
AcDbLine
 10
1921.709418396942
 20
3141.945146596495
 30
0.0
 11
-3622.290185699349
 21
3141.945146596495
 31
0.0
  0
LINE
  5
BC
330
1F
100
AcDbEntity
  8
0-0_補助線
  6
JWW_HOJO
 62
   120
370
     5
100
AcDbLine
 10
1921.709418396942
 20
2961.945146596495
 30
0.0
 11
-3622.290185699349
 21
2961.945146596495
 31
0.0
  0
LINE
  5
BD
330
1F
100
AcDbEntity
  8
0-1_通り芯
  6
JWW_CENTER1
 62
   120
370
     5
100
AcDbLine
 10
1921.709418396942
 20
2361.945146596495
 30
0.0
 11
-3622.290185699349
 21
2361.945146596495
 31
0.0
  0
LINE
  5
BE
330
1F
100
AcDbEntity
  8
0-C_ハッチ
  6
Continuous
 62
   120
370
     5
100
AcDbLine
 10
-3022.2903836512
 20
2387.264773392186
 30
0.0
 11
-2842.290383651203
 21
2567.264773392183
 31
0.0
  0
LINE
  5
BF
330
1F
100
AcDbEntity
  8
0-C_ハッチ
  6
Continuous
 62
   120
370
     5
100
AcDbLine
 10
-3022.290383651209
 20
2327.867803772476
 30
0.0
 11
-2842.290383651217
 21
2507.867803772467
 31
0.0
  0
LINE
  5
C0
330
1F
100
AcDbEntity
  8
0-C_ハッチ
  6
Continuous
 62
   120
370
     5
100
AcDbLine
 10
-3022.290383651203
 20
2268.470834152834
 30
0.0
 11
-2873.192366891958
 21
2417.568850912079
 31
0.0
  0
LINE
  5
C1
330
1F
100
AcDbEntity
  8
0-C_ハッチ
  6
Continuous
 62
   120
370
     5
100
AcDbLine
 10
-3022.290383651199
 20
2209.073864533191
 30
0.0
 11
-2878.165362872378
 21
2353.198885312012
 31
0.0
  0
ARC
  5
C2
330
1F
100
AcDbEntity
  8
0-4_枠
  6
Continuous
 62
    92
370
     5
100
AcDbCircle
 10
-2572.290383651203
 20
2361.945146596495
 30
0.0
 40
306.0000000000022
100
AcDbArc
 50
151.9275130641473
 51
208.0724869358527
  0
LINE
  5
C3
330
1F
100
AcDbEntity
  8
0-0_補助線
  6
Continuous
 62
   120
370
     5
100
AcDbLine
 10
-2842.290383651204
 20
2324.359196304034
 30
0.0
 11
-2857.290383651204
 21
2324.359196304034
 31
0.0
  0
LWPOLYLINE
  5
C4
330
1F
100
AcDbEntity
  8
0-0_補助線
  6
Continuous
 62
     7
370
     5
100
AcDbPolyline
 90
        4
 70
     1
 43
3.0
 10
-2840.790383651205
 20
2324.359196304034
 42
0.4142135623731
 10
-2842.290383651204
 20
2325.859196304034
 42
0.4142135623731
 10
-2843.790383651204
 20
2324.359196304034
 42
0.4142135623731
 10
-2842.290383651204
 20
2322.859196304034
 42
0.4142135623731
  0
LWPOLYLINE
  5
C5
330
1F
100
AcDbEntity
  8
0-0_補助線
  6
Continuous
 62
     7
370
     5
100
AcDbPolyline
 90
        4
 70
     1
 43
3.0
 10
-2855.790383651205
 20
2324.359196304034
 42
0.4142135623731
 10
-2857.290383651204
 20
2325.859196304034
 42
0.4142135623731
 10
-2858.790383651204
 20
2324.359196304034
 42
0.4142135623731
 10
-2857.290383651204
 20
2322.859196304034
 42
0.4142135623731
  0
LINE
  5
C6
330
1F
100
AcDbEntity
  8
0-0_補助線
  6
Continuous
 62
   120
370
     5
100
AcDbLine
 10
-2857.290383651204
 20
2324.359196304034
 30
0.0
 11
-2878.290383651206
 21
2324.359196304034
 31
0.0
  0
LWPOLYLINE
  5
C7
330
1F
100
AcDbEntity
  8
0-0_補助線
  6
Continuous
 62
     7
370
     5
100
AcDbPolyline
 90
        4
 70
     1
 43
3.0
 10
-2876.790383651206
 20
2324.359196304034
 42
0.4142135623731
 10
-2878.290383651206
 20
2325.859196304034
 42
0.4142135623731
 10
-2879.790383651206
 20
2324.359196304034
 42
0.4142135623731
 10
-2878.290383651206
 20
2322.859196304034
 42
0.4142135623731
  0
LINE
  5
C8
330
1F
100
AcDbEntity
  8
0-0_補助線
  6
Continuous
 62
   120
370
     5
100
AcDbLine
 10
-2878.290383651206
 20
2324.359196304034
 30
0.0
 11
-2878.290383651206
 21
2405.688459527219
 31
0.0
  0
MTEXT
  5
C9
330
1F
100
AcDbEntity
  8
0-0_補助線
  6
Continuous
 62
     7
370
   211
100
AcDbMText
 10
-2831.903928738855
 20
2325.079196304034
 30
0.0
 40
91.43999999999912
 41
179.9999999999983
 46
0.0
 71
     7
 72
     1
  1
{\fＭＳ ゴシック|b0|i0|c128|p49;2.5}
 73
     1
 44
1.0
  0
LINE
  5
CA
330
1F
100
AcDbEntity
  8
0-7_金物
  6
Continuous
 62
     7
370
     5
100
AcDbLine
 10
1339.709279830636
 20
2271.945220828442
 30
0.0
 11
1339.709279830636
 21
2451.945072364548
 31
0.0
  0
LINE
  5
CB
330
1F
100
AcDbEntity
  8
0-7_金物
  6
Continuous
 62
     7
370
     5
100
AcDbLine
 10
1351.709616348796
 20
2451.945072364548
 30
0.0
 11
1339.709279830636
 21
2451.945072364548
 31
0.0
  0
LINE
  5
CC
330
1F
100
AcDbEntity
  8
0-7_金物
  6
Continuous
 62
     7
370
     5
100
AcDbLine
 10
1351.709616348796
 20
2271.945220828442
 30
0.0
 11
1339.709279830636
 21
2271.945220828442
 31
0.0
  0
LINE
  5
CD
330
1F
100
AcDbEntity
  8
0-7_金物
  6
Continuous
 62
     7
370
     5
100
AcDbLine
 10
1339.709279830636
 20
2301.945319804372
 30
0.0
 11
1327.709685631946
 21
2301.945319804372
 31
0.0
  0
LINE
  5
CE
330
1F
100
AcDbEntity
  8
0-7_金物
  6
Continuous
 62
     7
370
     5
100
AcDbLine
 10
1339.709279830636
 20
2421.944973388619
 30
0.0
 11
1327.709685631946
 21
2421.944973388619
 31
0.0
  0
LINE
  5
CF
330
1F
100
AcDbEntity
  8
0-7_金物
  6
Continuous
 62
     7
370
     5
100
AcDbLine
 10
1327.709685631946
 20
2301.945319804372
 30
0.0
 11
1327.709685631946
 21
2421.944973388619
 31
0.0
  0
LINE
  5
D0
330
1F
100
AcDbEntity
  8
0-7_金物
  6
Continuous
 62
     7
370
     5
100
AcDbLine
 10
1327.709685631946
 20
2415.945547449009
 30
0.0
 11
1321.709616348796
 21
2415.945547449009
 31
0.0
  0
LINE
  5
D1
330
1F
100
AcDbEntity
  8
0-7_金物
  6
Continuous
 62
     7
370
     5
100
AcDbLine
 10
1327.709685631946
 20
2307.94548806345
 30
0.0
 11
1321.709616348796
 21
2307.94548806345
 31
0.0
  0
LINE
  5
D2
330
1F
100
AcDbEntity
  8
0-7_金物
  6
Continuous
 62
     7
370
     5
100
AcDbLine
 10
1351.709616348796
 20
2271.945220828442
 30
0.0
 11
1351.709616348796
 21
2451.945072364548
 31
0.0
  0
LINE
  5
D3
330
1F
100
AcDbEntity
  8
0-7_金物
  6
Continuous
 62
     7
370
     5
100
AcDbLine
 10
-3040.290047133048
 20
2271.945220828442
 30
0.0
 11
-3040.290047133048
 21
2451.945072364548
 31
0.0
  0
LINE
  5
D4
330
1F
100
AcDbEntity
  8
0-7_金物
  6
Continuous
 62
     7
370
     5
100
AcDbLine
 10
-3052.290383651206
 20
2451.945072364548
 30
0.0
 11
-3040.290047133048
 21
2451.945072364548
 31
0.0
  0
LINE
  5
D5
330
1F
100
AcDbEntity
  8
0-7_金物
  6
Continuous
 62
     7
370
     5
100
AcDbLine
 10
-3052.290383651206
 20
2271.945220828442
 30
0.0
 11
-3040.290047133048
 21
2271.945220828442
 31
0.0
  0
LINE
  5
D6
330
1F
100
AcDbEntity
  8
0-7_金物
  6
Continuous
 62
     7
370
     5
100
AcDbLine
 10
-3040.290047133048
 20
2301.945319804372
 30
0.0
 11
-3028.290452934356
 21
2301.945319804372
 31
0.0
  0
LINE
  5
D7
330
1F
100
AcDbEntity
  8
0-7_金物
  6
Continuous
 62
     7
370
     5
100
AcDbLine
 10
-3040.290047133048
 20
2421.944973388619
 30
0.0
 11
-3028.290452934356
 21
2421.944973388619
 31
0.0
  0
LINE
  5
D8
330
1F
100
AcDbEntity
  8
0-7_金物
  6
Continuous
 62
     7
370
     5
100
AcDbLine
 10
-3028.290452934356
 20
2301.945319804372
 30
0.0
 11
-3028.290452934356
 21
2421.944973388619
 31
0.0
  0
LINE
  5
D9
330
1F
100
AcDbEntity
  8
0-7_金物
  6
Continuous
 62
     7
370
     5
100
AcDbLine
 10
-3028.290452934356
 20
2415.945547449009
 30
0.0
 11
-3022.290383651206
 21
2415.945547449009
 31
0.0
  0
LINE
  5
DA
330
1F
100
AcDbEntity
  8
0-7_金物
  6
Continuous
 62
     7
370
     5
100
AcDbLine
 10
-3028.290452934356
 20
2307.94548806345
 30
0.0
 11
-3022.290383651206
 21
2307.94548806345
 31
0.0
  0
LINE
  5
DB
330
1F
100
AcDbEntity
  8
0-7_金物
  6
Continuous
 62
     7
370
     5
100
AcDbLine
 10
-3052.290383651206
 20
2271.945220828442
 30
0.0
 11
-3052.290383651206
 21
2451.945072364548
 31
0.0
  0
MTEXT
  5
DC
330
1F
100
AcDbEntity
  8
0-0_補助線
  6
Continuous
 62
     7
370
   211
100
AcDbMText
 10
-3035.695605342552
 20
2325.079196304035
 30
0.0
 40
91.44000000000129
 41
180.0000000000026
 46
0.0
 71
     7
 72
     1
  1
{\fＭＳ ゴシック|b0|i0|c128|p49;3.5}
 73
     1
 44
1.0
  0
LWPOLYLINE
  5
DD
330
1F
100
AcDbEntity
  8
0-B_寸法
  6
Continuous
 62
     7
370
     5
100
AcDbPolyline
 90
        4
 70
     1
 43
3.0
 10
-2840.790383651205
 20
2961.945146596495
 42
0.4142135623731
 10
-2842.290383651204
 20
2963.445146596495
 42
0.4142135623731
 10
-2843.790383651204
 20
2961.945146596495
 42
0.4142135623731
 10
-2842.290383651204
 20
2960.445146596495
 42
0.4142135623731
  0
LINE
  5
DE
330
1F
100
AcDbEntity
  8
0-B_寸法
  6
Continuous
 62
   120
370
     5
100
AcDbLine
 10
-2842.290383651204
 20
2961.945146596495
 30
0.0
 11
-2842.290383651204
 21
2781.945146596495
 31
0.0
  0
LINE
  5
DF
330
1F
100
AcDbEntity
  8
0-B_寸法
  6
Continuous
 62
   120
370
     5
100
AcDbLine
 10
-3052.290383651206
 20
3141.945146596495
 30
0.0
 11
1351.709616348796
 21
3141.945146596495
 31
0.0
  0
LWPOLYLINE
  5
E0
330
1F
100
AcDbEntity
  8
0-B_寸法
  6
Continuous
 62
     7
370
     5
100
AcDbPolyline
 90
        4
 70
     1
 43
3.0
 10
-3050.790383651206
 20
3141.945146596495
 42
0.4142135623731
 10
-3052.290383651206
 20
3143.445146596495
 42
0.4142135623731
 10
-3053.790383651206
 20
3141.945146596495
 42
0.4142135623731
 10
-3052.290383651206
 20
3140.445146596495
 42
0.4142135623731
  0
LWPOLYLINE
  5
E1
330
1F
100
AcDbEntity
  8
0-B_寸法
  6
Continuous
 62
     7
370
     5
100
AcDbPolyline
 90
        4
 70
     1
 43
3.0
 10
1353.209616348795
 20
3141.945146596495
 42
0.4142135623731
 10
1351.709616348796
 20
3143.445146596495
 42
0.4142135623731
 10
1350.209616348796
 20
3141.945146596495
 42
0.4142135623731
 10
1351.709616348796
 20
3140.445146596495
 42
0.4142135623731
  0
LINE
  5
E2
330
1F
100
AcDbEntity
  8
0-B_寸法
  6
Continuous
 62
   120
370
     5
100
AcDbLine
 10
-3052.290383651206
 20
3141.945146596495
 30
0.0
 11
-3052.290383651206
 21
2781.945146596495
 31
0.0
  0
LINE
  5
E3
330
1F
100
AcDbEntity
  8
0-B_寸法
  6
Continuous
 62
   120
370
     5
100
AcDbLine
 10
1351.709616348796
 20
3141.945146596495
 30
0.0
 11
1351.709616348796
 21
2781.945146596495
 31
0.0
  0
MTEXT
  5
E4
330
1F
100
AcDbEntity
  8
0-B_寸法
  6
Continuous
 62
     7
370
   211
100
AcDbMText
 10
-1180.290383651205
 20
3142.665146596495
 30
0.0
 40
91.44000000000013
 41
660.0000000000009
 46
0.0
 71
     7
 72
     1
  1
{\fＭＳ ゴシック|b0|i0|c128|p49;ＲＯＷ＝734}
 73
     1
 44
1.0
  0
ARC
  5
E5
330
1F
100
AcDbEntity
  8
0-6_扉
  6
JWW_DASHED2
 62
    40
370
     5
100
AcDbCircle
 10
860.6262562384438
 20
2557.712520566675
 30
0.0
 40
18.0
100
AcDbArc
 50
85.6539792783598
 51
175.65397927836
  0
LINE
  5
E6
330
1F
100
AcDbEntity
  8
0-6_扉
  6
JWW_DASHED2
 62
    40
370
     5
100
AcDbLine
 10
951.731502940678
 20
2568.840594224116
 30
0.0
 11
861.9902900236378
 21
2575.660763150084
 31
0.0
  0
ARC
  5
E7
330
1F
100
AcDbEntity
  8
0-6_扉
  6
JWW_DASHED2
 62
    40
370
     5
100
AcDbCircle
 10
950.3674691554835
 20
2550.892351640707
 30
0.0
 40
18.0
100
AcDbArc
 50
355.6539792783599
 51
85.6539792783597
  0
ARC
  5
E8
330
1F
100
AcDbEntity
  8
0-6_扉
  6
JWW_DASHED2
 62
    40
370
     5
100
AcDbCircle
 10
517.3990718492428
 20
2557.712520566678
 30
0.0
 40
18.0
100
AcDbArc
 50
4.346020721638975
 51
94.34602072163908
  0
LINE
  5
E9
330
1F
100
AcDbEntity
  8
0-6_扉
  6
JWW_DASHED2
 62
    40
370
     5
100
AcDbLine
 10
426.2938251470099
 20
2568.84059422412
 30
0.0
 11
516.0350380640479
 21
2575.660763150086
 31
0.0
  0
ARC
  5
EA
330
1F
100
AcDbEntity
  8
0-6_扉
  6
JWW_DASHED2
 62
    40
370
     5
100
AcDbCircle
 10
427.6578589322031
 20
2550.892351640711
 30
0.0
 40
18.0
100
AcDbArc
 50
94.34602072163908
 51
184.3460207216391
  0
LINE
  5
EB
330
1F
100
AcDbEntity
  8
0-6_扉
  6
JWW_DASHED2
 62
    40
370
     5
100
AcDbLine
 10
968.3157117388907
 20
2549.528317855515
 30
0.0
 11
934.6801958631718
 21
2106.945146596496
 31
0.0
  0
LINE
  5
EC
330
1F
100
AcDbEntity
  8
0-6_扉
  6
JWW_DASHED2
 62
    40
370
     5
100
AcDbLine
 10
409.7096163487971
 20
2549.52831785552
 30
0.0
 11
443.3451322245088
 21
2106.945146596496
 31
0.0
  0
LINE
  5
ED
330
1F
100
AcDbEntity
  8
0-6_扉
  6
JWW_DASHED2
 62
    40
370
     5
100
AcDbLine
 10
535.34731443265
 20
2559.076554351872
 30
0.0
 11
569.7084789120904
 21
2106.945146596496
 31
0.0
  0
LINE
  5
EE
330
1F
100
AcDbEntity
  8
0-6_扉
  6
JWW_DASHED2
 62
    40
370
     5
100
AcDbLine
 10
842.6780136550374
 20
2559.076554351871
 30
0.0
 11
808.3168491755885
 21
2106.945146596496
 31
0.0
  0
LINE
  5
EF
330
1F
100
AcDbEntity
  8
0-1_通り芯
  6
JWW_CENTER1
 62
   120
370
     5
100
AcDbLine
 10
409.7096163487959
 20
2781.945146596495
 30
0.0
 11
409.7096163487959
 21
2549.52831785552
 31
0.0
  0
LINE
  5
F0
330
1F
100
AcDbEntity
  8
0-B_寸法
  6
Continuous
 62
   120
370
     5
100
AcDbLine
 10
-2842.290383651204
 20
2961.945146596495
 30
0.0
 11
409.7096163487959
 21
2961.945146596495
 31
0.0
  0
LWPOLYLINE
  5
F1
330
1F
100
AcDbEntity
  8
0-B_寸法
  6
Continuous
 62
     7
370
     5
100
AcDbPolyline
 90
        4
 70
     1
 43
3.0
 10
411.2096163487959
 20
2961.945146596495
 42
0.4142135623731
 10
409.7096163487959
 20
2963.445146596495
 42
0.4142135623731
 10
408.2096163487959
 20
2961.945146596495
 42
0.4142135623731
 10
409.7096163487959
 20
2960.445146596495
 42
0.4142135623731
  0
LINE
  5
F2
330
1F
100
AcDbEntity
  8
0-B_寸法
  6
Continuous
 62
   120
370
     5
100
AcDbLine
 10
409.7096163487959
 20
2961.945146596495
 30
0.0
 11
409.7096163487959
 21
2781.945146596495
 31
0.0
  0
MTEXT
  5
F3
330
1F
100
AcDbEntity
  8
0-B_寸法
  6
Continuous
 62
     7
370
   211
100
AcDbMText
 10
-1344.39196935868
 20
2962.665146596495
 30
0.0
 40
91.44000000000015
 41
1020.000000000002
 46
0.0
 71
     7
 72
     1
  1
{\fＭＳ ゴシック|b0|i0|c128|p49;有効開口寸法＝542}
 73
     1
 44
1.0
  0
LINE
  5
F4
330
1F
100
AcDbEntity
  8
0-0_補助線
  6
JWW_HOJO
 62
     7
370
     5
100
AcDbLine
 10
-850.2903836512041
 20
906.9451465964949
 30
0.0
 11
-850.2903836512041
 21
3321.945146596495
 31
0.0
  0
LINE
  5
F5
330
1F
100
AcDbEntity
  8
0-0_補助線
  6
JWW_HOJO
 62
   120
370
     5
100
AcDbLine
 10
-3622.290185699349
 20
1086.945146596495
 30
0.0
 11
-3622.290185699349
 21
3141.945146596495
 31
0.0
  0
LINE
  5
F6
330
1F
100
AcDbEntity
  8
0-0_補助線
  6
JWW_HOJO
 62
   120
370
     5
100
AcDbLine
 10
1921.709418396942
 20
1086.945146596495
 30
0.0
 11
1921.709418396942
 21
3141.945146596495
 31
0.0
  0
LINE
  5
F7
330
1F
100
AcDbEntity
  8
0-0_補助線
  6
JWW_HOJO
 62
   120
370
     5
100
AcDbLine
 10
1921.709418396942
 20
1446.945146596495
 30
0.0
 11
-3622.290185699349
 21
1446.945146596495
 31
0.0
  0
LINE
  5
F8
330
1F
100
AcDbEntity
  8
0-0_補助線
  6
JWW_HOJO
 62
   120
370
     5
100
AcDbLine
 10
1921.709418396942
 20
1266.945146596495
 30
0.0
 11
-3622.290185699349
 21
1266.945146596495
 31
0.0
  0
LINE
  5
F9
330
1F
100
AcDbEntity
  8
0-0_補助線
  6
JWW_HOJO
 62
   120
370
     5
100
AcDbLine
 10
1921.709418396942
 20
1086.945146596495
 30
0.0
 11
-3622.290185699349
 21
1086.945146596495
 31
0.0
  0
LINE
  5
FA
330
1F
100
AcDbEntity
  8
0-0_補助線
  6
JWW_HOJO
 62
     7
370
     5
100
AcDbLine
 10
-2842.290383651204
 20
906.9451465964949
 30
0.0
 11
-2842.290383651204
 21
3321.945146596495
 31
0.0
  0
LINE
  5
FB
330
1F
100
AcDbEntity
  8
0-0_補助線
  6
JWW_HOJO
 62
     7
370
     5
100
AcDbLine
 10
1141.709616348796
 20
906.9451465964949
 30
0.0
 11
1141.709616348796
 21
3321.945146596495
 31
0.0
  0
LINE
  5
FC
330
1F
100
AcDbEntity
  8
0-0_補助線
  6
JWW_HOJO
 62
   120
370
     5
100
AcDbLine
 10
1921.709418396942
 20
1626.945146596495
 30
0.0
 11
-3622.290185699349
 21
1626.945146596495
 31
0.0
  0
LINE
  5
FD
330
1F
100
AcDbEntity
  8
0-0_補助線
  6
JWW_HOJO
 62
   120
370
     5
100
AcDbLine
 10
1921.709418396942
 20
1806.945146596495
 30
0.0
 11
-3622.290185699349
 21
1806.945146596495
 31
0.0
  0
LINE
  5
FE
330
1F
100
AcDbEntity
  8
0-B_寸法
  6
Continuous
 62
   120
370
     5
100
AcDbLine
 10
-2857.290383651204
 20
1626.945146596495
 30
0.0
 11
-853.2903836512048
 21
1626.945146596495
 31
0.0
  0
LWPOLYLINE
  5
FF
330
1F
100
AcDbEntity
  8
0-B_寸法
  6
Continuous
 62
     7
370
     5
100
AcDbPolyline
 90
        4
 70
     1
 43
3.0
 10
-2855.790383651205
 20
1626.945146596495
 42
0.4142135623731
 10
-2857.290383651204
 20
1628.445146596495
 42
0.4142135623731
 10
-2858.790383651204
 20
1626.945146596495
 42
0.4142135623731
 10
-2857.290383651204
 20
1625.445146596495
 42
0.4142135623731
  0
LWPOLYLINE
  5
100
330
1F
100
AcDbEntity
  8
0-B_寸法
  6
Continuous
 62
     7
370
     5
100
AcDbPolyline
 90
        4
 70
     1
 43
3.0
 10
-851.7903836512048
 20
1626.945146596495
 42
0.4142135623731
 10
-853.2903836512048
 20
1628.445146596495
 42
0.4142135623731
 10
-854.7903836512048
 20
1626.945146596495
 42
0.4142135623731
 10
-853.2903836512048
 20
1625.445146596495
 42
0.4142135623731
  0
LINE
  5
101
330
1F
100
AcDbEntity
  8
0-B_寸法
  6
Continuous
 62
   120
370
     5
100
AcDbLine
 10
-2857.290383651204
 20
1626.945146596495
 30
0.0
 11
-2857.290383651204
 21
1806.945146596495
 31
0.0
  0
LINE
  5
102
330
1F
100
AcDbEntity
  8
0-B_寸法
  6
Continuous
 62
   120
370
     5
100
AcDbLine
 10
-853.2903836512048
 20
1626.945146596495
 30
0.0
 11
-853.2903836512048
 21
1806.945146596495
 31
0.0
  0
LINE
  5
103
330
1F
100
AcDbEntity
  8
0-B_寸法
  6
Continuous
 62
   120
370
     5
100
AcDbLine
 10
-847.2903836512044
 20
1626.945146596495
 30
0.0
 11
1156.709616348799
 21
1626.945146596495
 31
0.0
  0
LWPOLYLINE
  5
104
330
1F
100
AcDbEntity
  8
0-B_寸法
  6
Continuous
 62
     7
370
     5
100
AcDbPolyline
 90
        4
 70
     1
 43
3.0
 10
-845.7903836512043
 20
1626.945146596495
 42
0.4142135623731
 10
-847.2903836512044
 20
1628.445146596495
 42
0.4142135623731
 10
-848.7903836512044
 20
1626.945146596495
 42
0.4142135623731
 10
-847.2903836512044
 20
1625.445146596495
 42
0.4142135623731
  0
LWPOLYLINE
  5
105
330
1F
100
AcDbEntity
  8
0-B_寸法
  6
Continuous
 62
     7
370
     5
100
AcDbPolyline
 90
        4
 70
     1
 43
3.0
 10
1158.209616348799
 20
1626.945146596495
 42
0.4142135623731
 10
1156.709616348799
 20
1628.445146596495
 42
0.4142135623731
 10
1155.209616348799
 20
1626.945146596495
 42
0.4142135623731
 10
1156.709616348799
 20
1625.445146596495
 42
0.4142135623731
  0
LINE
  5
106
330
1F
100
AcDbEntity
  8
0-B_寸法
  6
Continuous
 62
   120
370
     5
100
AcDbLine
 10
-847.2903836512044
 20
1626.945146596495
 30
0.0
 11
-847.2903836512044
 21
1806.945146596495
 31
0.0
  0
LINE
  5
107
330
1F
100
AcDbEntity
  8
0-B_寸法
  6
Continuous
 62
   120
370
     5
100
AcDbLine
 10
1156.709616348799
 20
1626.945146596495
 30
0.0
 11
1156.709616348799
 21
1806.945146596495
 31
0.0
  0
LINE
  5
108
330
1F
100
AcDbEntity
  8
0-B_寸法
  6
Continuous
 62
   120
370
     5
100
AcDbLine
 10
-2857.290383651204
 20
1446.945146596495
 30
0.0
 11
1156.709616348799
 21
1446.945146596495
 31
0.0
  0
LWPOLYLINE
  5
109
330
1F
100
AcDbEntity
  8
0-B_寸法
  6
Continuous
 62
     7
370
     5
100
AcDbPolyline
 90
        4
 70
     1
 43
3.0
 10
-2855.790383651205
 20
1446.945146596495
 42
0.4142135623731
 10
-2857.290383651204
 20
1448.445146596495
 42
0.4142135623731
 10
-2858.790383651204
 20
1446.945146596495
 42
0.4142135623731
 10
-2857.290383651204
 20
1445.445146596495
 42
0.4142135623731
  0
LWPOLYLINE
  5
10A
330
1F
100
AcDbEntity
  8
0-B_寸法
  6
Continuous
 62
     7
370
     5
100
AcDbPolyline
 90
        4
 70
     1
 43
3.0
 10
1158.209616348799
 20
1446.945146596495
 42
0.4142135623731
 10
1156.709616348799
 20
1448.445146596495
 42
0.4142135623731
 10
1155.209616348799
 20
1446.945146596495
 42
0.4142135623731
 10
1156.709616348799
 20
1445.445146596495
 42
0.4142135623731
  0
LINE
  5
10B
330
1F
100
AcDbEntity
  8
0-B_寸法
  6
Continuous
 62
   120
370
     5
100
AcDbLine
 10
-2857.290383651204
 20
1446.945146596495
 30
0.0
 11
-2857.290383651204
 21
1626.945146596495
 31
0.0
  0
LINE
  5
10C
330
1F
100
AcDbEntity
  8
0-B_寸法
  6
Continuous
 62
   120
370
     5
100
AcDbLine
 10
1156.709616348799
 20
1446.945146596495
 30
0.0
 11
1156.709616348799
 21
1626.945146596495
 31
0.0
  0
LINE
  5
10D
330
1F
100
AcDbEntity
  8
0-B_寸法
  6
Continuous
 62
   120
370
     5
100
AcDbLine
 10
-3022.290383651204
 20
1266.945146596495
 30
0.0
 11
-2842.290383651204
 21
1266.945146596495
 31
0.0
  0
LWPOLYLINE
  5
10E
330
1F
100
AcDbEntity
  8
0-B_寸法
  6
Continuous
 62
     7
370
     5
100
AcDbPolyline
 90
        4
 70
     1
 43
3.0
 10
-3020.790383651205
 20
1266.945146596495
 42
0.4142135623731
 10
-3022.290383651204
 20
1268.445146596495
 42
0.4142135623731
 10
-3023.790383651204
 20
1266.945146596495
 42
0.4142135623731
 10
-3022.290383651204
 20
1265.445146596495
 42
0.4142135623731
  0
LWPOLYLINE
  5
10F
330
1F
100
AcDbEntity
  8
0-B_寸法
  6
Continuous
 62
     7
370
     5
100
AcDbPolyline
 90
        4
 70
     1
 43
3.0
 10
-2840.790383651205
 20
1266.945146596495
 42
0.4142135623731
 10
-2842.290383651204
 20
1268.445146596495
 42
0.4142135623731
 10
-2843.790383651204
 20
1266.945146596495
 42
0.4142135623731
 10
-2842.290383651204
 20
1265.445146596495
 42
0.4142135623731
  0
LINE
  5
110
330
1F
100
AcDbEntity
  8
0-B_寸法
  6
Continuous
 62
   120
370
     5
100
AcDbLine
 10
-2842.290383651204
 20
1266.945146596495
 30
0.0
 11
-2842.290383651204
 21
1626.945146596495
 31
0.0
  0
MTEXT
  5
111
330
1F
100
AcDbEntity
  8
0-B_寸法
  6
Continuous
 62
     7
370
   211
100
AcDbMText
 10
-2992.290383651205
 20
1267.665146596496
 30
0.0
 40
91.4400000000013
 41
120.0000000000017
 46
0.0
 71
     7
 72
     1
  1
{\fＭＳ ゴシック|b0|i0|c128|p49;30}
 73
     1
 44
1.0
  0
LINE
  5
112
330
1F
100
AcDbEntity
  8
0-B_寸法
  6
Continuous
 62
   120
370
     5
100
AcDbLine
 10
-2842.290383651204
 20
1266.945146596495
 30
0.0
 11
1141.709616348796
 21
1266.945146596495
 31
0.0
  0
LWPOLYLINE
  5
113
330
1F
100
AcDbEntity
  8
0-B_寸法
  6
Continuous
 62
     7
370
     5
100
AcDbPolyline
 90
        4
 70
     1
 43
3.0
 10
1143.209616348795
 20
1266.945146596495
 42
0.4142135623731
 10
1141.709616348796
 20
1268.445146596495
 42
0.4142135623731
 10
1140.209616348796
 20
1266.945146596495
 42
0.4142135623731
 10
1141.709616348796
 20
1265.445146596495
 42
0.4142135623731
  0
LINE
  5
114
330
1F
100
AcDbEntity
  8
0-B_寸法
  6
Continuous
 62
   120
370
     5
100
AcDbLine
 10
1141.709616348796
 20
1266.945146596495
 30
0.0
 11
1141.709616348796
 21
1626.945146596495
 31
0.0
  0
LINE
  5
115
330
1F
100
AcDbEntity
  8
0-B_寸法
  6
Continuous
 62
   120
370
     5
100
AcDbLine
 10
1141.709616348796
 20
1266.945146596495
 30
0.0
 11
1321.709616348796
 21
1266.945146596495
 31
0.0
  0
LWPOLYLINE
  5
116
330
1F
100
AcDbEntity
  8
0-B_寸法
  6
Continuous
 62
     7
370
     5
100
AcDbPolyline
 90
        4
 70
     1
 43
3.0
 10
1323.209616348795
 20
1266.945146596495
 42
0.4142135623731
 10
1321.709616348796
 20
1268.445146596495
 42
0.4142135623731
 10
1320.209616348796
 20
1266.945146596495
 42
0.4142135623731
 10
1321.709616348796
 20
1265.445146596495
 42
0.4142135623731
  0
MTEXT
  5
117
330
1F
100
AcDbEntity
  8
0-B_寸法
  6
Continuous
 62
     7
370
   211
100
AcDbMText
 10
1171.709616348796
 20
1267.665146596495
 30
0.0
 40
91.43999999999967
 41
119.9999999999996
 46
0.0
 71
     7
 72
     1
  1
{\fＭＳ ゴシック|b0|i0|c128|p49;30}
 73
     1
 44
1.0
  0
LINE
  5
118
330
1F
100
AcDbEntity
  8
0-B_寸法
  6
Continuous
 62
   120
370
     5
100
AcDbLine
 10
-3022.290383651204
 20
1086.945146596495
 30
0.0
 11
1321.709616348796
 21
1086.945146596495
 31
0.0
  0
LWPOLYLINE
  5
119
330
1F
100
AcDbEntity
  8
0-B_寸法
  6
Continuous
 62
     7
370
     5
100
AcDbPolyline
 90
        4
 70
     1
 43
3.0
 10
-3020.790383651205
 20
1086.945146596495
 42
0.4142135623731
 10
-3022.290383651204
 20
1088.445146596495
 42
0.4142135623731
 10
-3023.790383651204
 20
1086.945146596495
 42
0.4142135623731
 10
-3022.290383651204
 20
1085.445146596495
 42
0.4142135623731
  0
LWPOLYLINE
  5
11A
330
1F
100
AcDbEntity
  8
0-B_寸法
  6
Continuous
 62
     7
370
     5
100
AcDbPolyline
 90
        4
 70
     1
 43
3.0
 10
1323.209616348795
 20
1086.945146596495
 42
0.4142135623731
 10
1321.709616348796
 20
1088.445146596495
 42
0.4142135623731
 10
1320.209616348796
 20
1086.945146596495
 42
0.4142135623731
 10
1321.709616348796
 20
1085.445146596495
 42
0.4142135623731
  0
LINE
  5
11B
330
1F
100
AcDbEntity
  8
0-B_寸法
  6
Continuous
 62
   120
370
     5
100
AcDbLine
 10
-3022.290383651204
 20
1086.945146596495
 30
0.0
 11
-3022.290383651204
 21
1266.945146596495
 31
0.0
  0
LINE
  5
11C
330
1F
100
AcDbEntity
  8
0-B_寸法
  6
Continuous
 62
   120
370
     5
100
AcDbLine
 10
1321.709616348796
 20
1086.945146596495
 30
0.0
 11
1321.709616348796
 21
1266.945146596495
 31
0.0
  0
MTEXT
  5
11D
330
1F
100
AcDbEntity
  8
0-B_寸法
  6
Continuous
 62
     7
370
   211
100
AcDbMText
 10
-2125.290383651204
 20
1627.665146596495
 30
0.0
 40
91.43999999999986
 41
539.9999999999991
 46
0.0
 71
     7
 72
     1
  1
{\fＭＳ ゴシック|b0|i0|c128|p49;ＤＷ＝334}
 73
     1
 44
1.0
  0
MTEXT
  5
11E
330
1F
100
AcDbEntity
  8
0-B_寸法
  6
Continuous
 62
     7
370
   211
100
AcDbMText
 10
-115.2903836512024
 20
1627.665146596495
 30
0.0
 40
91.43999999999986
 41
539.9999999999991
 46
0.0
 71
     7
 72
     1
  1
{\fＭＳ ゴシック|b0|i0|c128|p49;ＤＷ＝334}
 73
     1
 44
1.0
  0
MTEXT
  5
11F
330
1F
100
AcDbEntity
  8
0-B_寸法
  6
Continuous
 62
     7
370
   211
100
AcDbMText
 10
-1300.290383651203
 20
1447.665146596495
 30
0.0
 40
91.44000000000001
 41
900.0
 46
0.0
 71
     7
 72
     1
  1
{\fＭＳ ゴシック|b0|i0|c128|p49;折戸：ＤＷ＝669}
 73
     1
 44
1.0
  0
MTEXT
  5
120
330
1F
100
AcDbEntity
  8
0-B_寸法
  6
Continuous
 62
     7
370
   211
100
AcDbMText
 10
-1120.290383651204
 20
1267.665146596495
 30
0.0
 40
91.43999999999986
 41
539.9999999999991
 46
0.0
 71
     7
 72
     1
  1
{\fＭＳ ゴシック|b0|i0|c128|p49;枠内＝664}
 73
     1
 44
1.0
  0
MTEXT
  5
121
330
1F
100
AcDbEntity
  8
0-B_寸法
  6
Continuous
 62
     7
370
   211
100
AcDbMText
 10
-1120.290383651204
 20
1087.665146596495
 30
0.0
 40
91.43999999999986
 41
539.9999999999991
 46
0.0
 71
     7
 72
     1
  1
{\fＭＳ ゴシック|b0|i0|c128|p49;枠外＝724}
 73
     1
 44
1.0
  0
LINE
  5
122
330
1F
100
AcDbEntity
  8
0-4_枠
  6
Continuous
 62
    92
370
     5
100
AcDbLine
 10
-2956.290383651206
 20
2190.946220485324
 30
0.0
 11
-2902.290383651204
 21
2190.946220485324
 31
0.0
  0
LINE
  5
123
330
1F
100
AcDbEntity
  8
0-4_枠
  6
Continuous
 62
    92
370
     5
100
AcDbLine
 10
-3022.290383651204
 20
2172.946220485324
 30
0.0
 11
-2992.290383651204
 21
2172.946220485324
 31
0.0
  0
LINE
  5
124
330
1F
100
AcDbEntity
  8
0-4_枠
  6
Continuous
 62
    92
370
     5
100
AcDbLine
 10
-2992.290383651204
 20
2130.946220485324
 30
0.0
 11
-2992.290383651204
 21
2172.946220485324
 31
0.0
  0
LINE
  5
125
330
1F
100
AcDbEntity
  8
0-4_枠
  6
Continuous
 62
    92
370
     5
100
AcDbLine
 10
-2956.290383651206
 20
2130.946220485324
 30
0.0
 11
-2956.290383651206
 21
2190.946220485324
 31
0.0
  0
LINE
  5
126
330
1F
100
AcDbEntity
  8
0-4_枠
  6
Continuous
 62
    92
370
     5
100
AcDbLine
 10
-2992.290383651204
 20
2130.946220485324
 30
0.0
 11
-2956.290383651206
 21
2130.946220485324
 31
0.0
  0
LINE
  5
127
330
1F
100
AcDbEntity
  8
0-4_枠
  6
Continuous
 62
    92
370
     5
100
AcDbLine
 10
-2902.290383651204
 20
2130.946220485324
 30
0.0
 11
-2902.290383651204
 21
2190.946220485324
 31
0.0
  0
LINE
  5
128
330
1F
100
AcDbEntity
  8
0-4_枠
  6
Continuous
 62
    92
370
     5
100
AcDbLine
 10
-2902.290383651204
 20
2130.946220485324
 30
0.0
 11
-2886.878340684083
 21
2130.946220485324
 31
0.0
  0
LINE
  5
129
330
1F
100
AcDbEntity
  8
0-4_枠
  6
Continuous
 62
    92
370
     5
100
AcDbLine
 10
-2886.878340684083
 20
2130.946220485324
 30
0.0
 11
-2842.290383651204
 21
2130.946220485324
 31
0.0
  0
LINE
  5
12A
330
1F
100
AcDbEntity
  8
0-4_枠
  6
Continuous
 62
    92
370
     5
100
AcDbLine
 10
-2842.290383651204
 20
2130.946220485324
 30
0.0
 11
-2842.290383651204
 21
2217.945146596495
 31
0.0
  0
LINE
  5
12B
330
1F
100
AcDbEntity
  8
0-4_枠
  6
Continuous
 62
    92
370
     5
100
AcDbLine
 10
-3022.290383651204
 20
2172.946220485324
 30
0.0
 11
-3022.290383651204
 21
2592.946220485324
 31
0.0
  0
LINE
  5
12C
330
1F
100
AcDbEntity
  8
0-C_ハッチ
  6
Continuous
 62
   120
370
     5
100
AcDbLine
 10
-3022.29038365122
 20
2565.455682251162
 30
0.0
 11
-2994.799845417057
 21
2592.946220485324
 31
0.0
  0
LINE
  5
12D
330
1F
100
AcDbEntity
  8
0-C_ハッチ
  6
Continuous
 62
   120
370
     5
100
AcDbLine
 10
-3022.290383651214
 20
2446.661743011819
 30
0.0
 11
-2876.005906177708
 21
2592.946220485324
 31
0.0
  0
LINE
  5
12E
330
1F
100
AcDbEntity
  8
0-C_ハッチ
  6
Continuous
 62
   120
370
     5
100
AcDbLine
 10
-3022.290383651203
 20
2506.058712631534
 30
0.0
 11
-2935.402875797412
 21
2592.946220485324
 31
0.0
  0
LINE
  5
12F
330
1F
100
AcDbEntity
  8
0-4_枠
  6
Continuous
 62
    92
370
     5
100
AcDbLine
 10
-2842.290383651204
 20
2505.945146596495
 30
0.0
 11
-2842.290383651204
 21
2592.946220485324
 31
0.0
  0
LINE
  5
130
330
1F
100
AcDbEntity
  8
0-4_枠
  6
Continuous
 62
    92
370
     5
100
AcDbLine
 10
-3022.290383651204
 20
2592.946220485324
 30
0.0
 11
-2842.290383651204
 21
2592.946220485324
 31
0.0
  0
LINE
  5
131
330
1F
100
AcDbEntity
  8
0-C_ハッチ
  6
Continuous
 62
   120
370
     5
100
AcDbLine
 10
-2999.021058079363
 20
2172.946220485325
 30
0.0
 11
-2871.956987787571
 21
2300.010290777117
 31
0.0
  0
LINE
  5
132
330
1F
100
AcDbEntity
  8
0-C_ハッチ
  6
Continuous
 62
   120
370
     5
100
AcDbLine
 10
-2921.624088459716
 20
2190.946220485324
 30
0.0
 11
-2858.60537424508
 21
2253.96493469996
 31
0.0
  0
LINE
  5
133
330
1F
100
AcDbEntity
  8
0-C_ハッチ
  6
Continuous
 62
   120
370
     5
100
AcDbLine
 10
-2981.624088459716
 20
2130.946220485324
 30
0.0
 11
-2956.290383651206
 21
2156.279925293837
 31
0.0
  0
LINE
  5
134
330
1F
100
AcDbEntity
  8
0-C_ハッチ
  6
Continuous
 62
   120
370
     5
100
AcDbLine
 10
-2902.290383651204
 20
2150.882955674134
 30
0.0
 11
-2842.290383651207
 21
2210.882955674132
 31
0.0
  0
LINE
  5
135
330
1F
100
AcDbEntity
  8
0-C_ハッチ
  6
Continuous
 62
   120
370
     5
100
AcDbLine
 10
-2862.830149220367
 20
2130.946220485324
 30
0.0
 11
-2842.290383651211
 21
2151.485986054481
 31
0.0
  0
LWPOLYLINE
  5
136
330
1F
100
AcDbEntity
  8
0-B_寸法
  6
Continuous
 62
     7
370
     5
100
AcDbPolyline
 90
        4
 70
     1
 43
3.0
 10
-2411.589056229453
 20
2592.946220485324
 42
0.4142135623731
 10
-2413.089056229453
 20
2594.446220485324
 42
0.4142135623731
 10
-2414.589056229453
 20
2592.946220485324
 42
0.4142135623731
 10
-2413.089056229453
 20
2591.446220485324
 42
0.4142135623731
  0
LINE
  5
137
330
1F
100
AcDbEntity
  8
0-B_寸法
  6
Continuous
 62
   120
370
     5
100
AcDbLine
 10
-2413.089056229453
 20
2592.946220485324
 30
0.0
 11
-2531.864625011126
 21
2592.946220485324
 31
0.0
  0
LWPOLYLINE
  5
138
330
1F
100
AcDbEntity
  8
0-B_寸法
  6
Continuous
 62
     7
370
     5
100
AcDbPolyline
 90
        4
 70
     1
 43
3.0
 10
-2411.589056229453
 20
2130.946220485324
 42
0.4142135623731
 10
-2413.089056229453
 20
2132.446220485324
 42
0.4142135623731
 10
-2414.589056229453
 20
2130.946220485324
 42
0.4142135623731
 10
-2413.089056229453
 20
2129.446220485325
 42
0.4142135623731
  0
LINE
  5
139
330
1F
100
AcDbEntity
  8
0-B_寸法
  6
Continuous
 62
   120
370
     5
100
AcDbLine
 10
-2413.089056229453
 20
2130.946220485324
 30
0.0
 11
-2531.864625011126
 21
2130.946220485324
 31
0.0
  0
LINE
  5
13A
330
1F
100
AcDbEntity
  8
0-B_寸法
  6
Continuous
 62
   120
370
     5
100
AcDbLine
 10
-2413.089056229453
 20
2592.946220485324
 30
0.0
 11
-2413.089056229453
 21
2130.946220485324
 31
0.0
  0
MTEXT
  5
13B
330
1F
100
AcDbEntity
  8
0-B_寸法
  6
Continuous
 62
     7
370
   211
100
AcDbMText
 10
-2428.089056229452
 20
2287.665146596491
 30
0.0
 40
91.44
 41
120.0
 46
0.0
 71
     7
 72
     1
  1
{\fＭＳ ゴシック|b0|i0|c128|p49;77}
 11
6.123031769111886E-17
 21
1.0
 31
0.0
 73
     1
 44
1.0
  0
ARC
  5
13C
330
1F
100
AcDbEntity
  8
0-4_枠
  6
Continuous
 62
    92
370
     5
100
AcDbCircle
 10
871.7096163487943
 20
2361.945146596495
 30
0.0
 40
306.0000000000022
100
AcDbArc
 50
331.9275130641473
 51
28.07248693585271
  0
LINE
  5
13D
330
1F
100
AcDbEntity
  8
0-4_枠
  6
Continuous
 62
    92
370
     5
100
AcDbLine
 10
1255.709616348797
 20
2190.946220485324
 30
0.0
 11
1201.709616348796
 21
2190.946220485324
 31
0.0
  0
LINE
  5
13E
330
1F
100
AcDbEntity
  8
0-4_枠
  6
Continuous
 62
    92
370
     5
100
AcDbLine
 10
1321.709616348796
 20
2172.946220485324
 30
0.0
 11
1291.709616348796
 21
2172.946220485324
 31
0.0
  0
LINE
  5
13F
330
1F
100
AcDbEntity
  8
0-4_枠
  6
Continuous
 62
    92
370
     5
100
AcDbLine
 10
1291.709616348796
 20
2130.946220485324
 30
0.0
 11
1291.709616348796
 21
2172.946220485324
 31
0.0
  0
LINE
  5
140
330
1F
100
AcDbEntity
  8
0-4_枠
  6
Continuous
 62
    92
370
     5
100
AcDbLine
 10
1255.709616348797
 20
2130.946220485324
 30
0.0
 11
1255.709616348797
 21
2190.946220485324
 31
0.0
  0
LINE
  5
141
330
1F
100
AcDbEntity
  8
0-4_枠
  6
Continuous
 62
    92
370
     5
100
AcDbLine
 10
1291.709616348796
 20
2130.946220485324
 30
0.0
 11
1255.709616348797
 21
2130.946220485324
 31
0.0
  0
LINE
  5
142
330
1F
100
AcDbEntity
  8
0-4_枠
  6
Continuous
 62
    92
370
     5
100
AcDbLine
 10
1201.709616348796
 20
2130.946220485324
 30
0.0
 11
1201.709616348796
 21
2190.946220485324
 31
0.0
  0
LINE
  5
143
330
1F
100
AcDbEntity
  8
0-4_枠
  6
Continuous
 62
    92
370
     5
100
AcDbLine
 10
1201.709616348796
 20
2130.946220485324
 30
0.0
 11
1186.297573381674
 21
2130.946220485324
 31
0.0
  0
LINE
  5
144
330
1F
100
AcDbEntity
  8
0-4_枠
  6
Continuous
 62
    92
370
     5
100
AcDbLine
 10
1186.297573381674
 20
2130.946220485324
 30
0.0
 11
1141.709616348796
 21
2130.946220485324
 31
0.0
  0
LINE
  5
145
330
1F
100
AcDbEntity
  8
0-4_枠
  6
Continuous
 62
    92
370
     5
100
AcDbLine
 10
1141.709616348796
 20
2130.946220485324
 30
0.0
 11
1141.709616348796
 21
2217.945146596495
 31
0.0
  0
LINE
  5
146
330
1F
100
AcDbEntity
  8
0-4_枠
  6
Continuous
 62
    92
370
     5
100
AcDbLine
 10
1321.709616348796
 20
2172.946220485324
 30
0.0
 11
1321.709616348796
 21
2592.946220485324
 31
0.0
  0
LINE
  5
147
330
1F
100
AcDbEntity
  8
0-4_枠
  6
Continuous
 62
    92
370
     5
100
AcDbLine
 10
1141.709616348796
 20
2505.945146596495
 30
0.0
 11
1141.709616348796
 21
2592.946220485324
 31
0.0
  0
LINE
  5
148
330
1F
100
AcDbEntity
  8
0-4_枠
  6
Continuous
 62
    92
370
     5
100
AcDbLine
 10
1321.709616348796
 20
2592.946220485324
 30
0.0
 11
1141.709616348796
 21
2592.946220485324
 31
0.0
  0
LINE
  5
149
330
1F
100
AcDbEntity
  8
0-C_ハッチ
  6
Continuous
 62
   120
370
     5
100
AcDbLine
 10
1270.734857684565
 20
2130.946220485325
 30
0.0
 11
1291.709616348799
 21
2151.920979149559
 31
0.0
  0
LINE
  5
14A
330
1F
100
AcDbEntity
  8
0-C_ハッチ
  6
Continuous
 62
   120
370
     5
100
AcDbLine
 10
1312.734857684551
 20
2172.946220485312
 30
0.0
 11
1321.709616348812
 21
2181.92097914957
 31
0.0
  0
LINE
  5
14B
330
1F
100
AcDbEntity
  8
0-C_ハッチ
  6
Continuous
 62
   120
370
     5
100
AcDbLine
 10
1255.70961634878
 20
2175.317948769242
 30
0.0
 11
1321.709616348796
 21
2241.317948769258
 31
0.0
  0
LINE
  5
14C
330
1F
100
AcDbEntity
  8
0-C_ハッチ
  6
Continuous
 62
   120
370
     5
100
AcDbLine
 10
1151.940918445213
 20
2130.946220485322
 30
0.0
 11
1201.7096163488
 21
2180.714918388909
 31
0.0
  0
LINE
  5
14D
330
1F
100
AcDbEntity
  8
0-C_ハッチ
  6
Continuous
 62
   120
370
     5
100
AcDbLine
 10
1211.940918445213
 20
2190.946220485323
 30
0.0
 11
1321.709616348802
 21
2300.714918388912
 31
0.0
  0
LINE
  5
14E
330
1F
100
AcDbEntity
  8
0-C_ハッチ
  6
Continuous
 62
   120
370
     5
100
AcDbLine
 10
1141.709616348805
 20
2180.111888008561
 30
0.0
 11
1321.709616348804
 21
2360.11188800856
 31
0.0
  0
LINE
  5
14F
330
1F
100
AcDbEntity
  8
0-C_ハッチ
  6
Continuous
 62
   120
370
     5
100
AcDbLine
 10
1159.122276979518
 20
2256.921518258976
 30
0.0
 11
1321.709616348804
 21
2419.508857628262
 31
0.0
  0
LINE
  5
150
330
1F
100
AcDbEntity
  8
0-C_ハッチ
  6
Continuous
 62
   120
370
     5
100
AcDbLine
 10
1176.392957726983
 20
2333.589168626088
 30
0.0
 11
1321.7096163488
 21
2478.905827247905
 31
0.0
  0
LINE
  5
151
330
1F
100
AcDbEntity
  8
0-C_ハッチ
  6
Continuous
 62
   120
370
     5
100
AcDbLine
 10
1176.155270656758
 20
2392.748451175564
 30
0.0
 11
1321.7096163488
 21
2538.302796867607
 31
0.0
  0
LINE
  5
152
330
1F
100
AcDbEntity
  8
0-C_ハッチ
  6
Continuous
 62
   120
370
     5
100
AcDbLine
 10
1166.828926786478
 20
2442.819076924932
 30
0.0
 11
1316.956070346869
 21
2592.946220485323
 31
0.0
  0
LINE
  5
153
330
1F
100
AcDbEntity
  8
0-C_ハッチ
  6
Continuous
 62
   120
370
     5
100
AcDbLine
 10
1151.182064452099
 20
2486.569184210201
 30
0.0
 11
1257.559100727211
 21
2592.946220485312
 31
0.0
  0
LINE
  5
154
330
1F
100
AcDbEntity
  8
0-C_ハッチ
  6
Continuous
 62
   120
370
     5
100
AcDbLine
 10
1141.709616348805
 20
2536.493705726608
 30
0.0
 11
1198.162131107508
 21
2592.946220485312
 31
0.0
  0
LINE
  5
155
330
1F
100
AcDbEntity
  8
0-B_寸法
  6
Continuous
 62
   120
370
     5
100
AcDbLine
 10
-3022.290383651204
 20
1266.945146596495
 30
0.0
 11
-3022.290383651204
 21
1806.945146596495
 31
0.0
  0
LINE
  5
156
330
1F
100
AcDbEntity
  8
0-B_寸法
  6
Continuous
 62
   120
370
     5
100
AcDbLine
 10
1321.709616348796
 20
1266.945146596495
 30
0.0
 11
1321.709616348796
 21
1806.945146596495
 31
0.0
  0
MTEXT
  5
157
330
1F
100
AcDbEntity
  8
0-A_文字
  6
Continuous
 62
     7
370
     5
100
AcDbMText
 10
-3590.223429306712
 20
3310.355192579907
 30
0.0
 40
100.5840000000001
 41
660.0000000000009
 46
0.0
 71
     7
 72
     1
  1
{\fＭＳ ゴシック|b0|i0|c128|p49;■横断面図}
 73
     1
 44
1.0
  0
LINE
  5
158
330
1F
100
AcDbEntity
  8
0-A_文字
  6
JWW_HOJO
 62
   120
370
     5
100
AcDbLine
 10
-850.2903836512032
 20
947.6368213441579
 30
0.0
 11
1559.233425872607
 21
947.6368213441579
 31
0.0
  0
LINE
  5
159
330
1F
100
AcDbEntity
  8
0-A_文字
  6
JWW_HOJO
 62
   120
370
     5
100
AcDbLine
 10
-850.2903836512032
 20
827.6368213441579
 30
0.0
 11
1559.233425872607
 21
827.6368213441579
 31
0.0
  0
LINE
  5
15A
330
1F
100
AcDbEntity
  8
0-A_文字
  6
JWW_HOJO
 62
   120
370
     5
100
AcDbLine
 10
-850.2903836512032
 20
707.6368213441581
 30
0.0
 11
1559.233425872607
 21
707.6368213441581
 31
0.0
  0
MTEXT
  5
15B
330
1F
100
AcDbEntity
  8
0-A_文字
  6
Continuous
 62
     7
370
     5
100
AcDbMText
 10
-850.2903836512016
 20
942.3820486168847
 30
0.0
 40
79.49045454545444
 41
2294.999999999997
 46
0.0
 71
     7
 72
     1
  1
{\fＭＳ ゴシック|b0|i0|c128|p49;※有効開口寸法にはハンドルの突出は含まない。}
 73
     1
 44
1.0
  0
MTEXT
  5
15C
330
1F
100
AcDbEntity
  8
0-A_文字
  6
Continuous
 62
     7
370
     5
100
AcDbMText
 10
-850.2903836512016
 20
822.4301546774908
 30
0.0
 40
79.58666666666659
 41
2819.999999999998
 46
0.0
 71
     7
 72
     1
  1
{\fＭＳ ゴシック|b0|i0|c128|p49;※有効開口寸法は扉の厚さや調整によって若干異なります。}
 73
     1
 44
1.0
  0
MTEXT
  5
15D
330
1F
100
AcDbEntity
  8
0-A_文字
  6
Continuous
 62
     7
370
     0
100
AcDbMText
 10
-850.2903836512032
 20
696.9268213441566
 30
0.0
 40
68.57999999999997
 41
1350.0
 46
0.0
 71
     7
 72
     1
  1
{\fＭＳ ゴシック|b0|i0|c128|p49;※扉厚（　）内はルーバーの場合}
 73
     1
 44
1.0
  0
MTEXT
  5
15E
330
1F
100
AcDbEntity
  8
0-A_文字
  6
Continuous
 62
     7
370
   211
100
AcDbMText
 10
-1882.254410713973
 20
2227.665146596494
 30
0.0
 40
91.44
 41
240.0
 46
0.0
 71
     7
 72
     1
  1
{\fＭＳ ゴシック|b0|i0|c128|p49;(24)}
 11
6.123031769111886E-17
 21
1.0
 31
0.0
 73
     1
 44
1.0
  0
LINE
  5
15F
330
1F
100
AcDbEntity
  8
0-C_ハッチ
  6
JWW_DASHED1
 62
   120
370
     5
100
AcDbLine
 10
-3004.310121492401
 20
2097.94622048533
 30
0.0
 11
-2992.290383651214
 21
2109.965958326519
 31
0.0
  0
LINE
  5
160
330
1F
100
AcDbEntity
  8
0-C_ハッチ
  6
JWW_DASHED1
 62
   120
370
     5
100
AcDbLine
 10
-3046.736528363599
 20
2097.946220485333
 30
0.0
 11
-2992.290383651222
 21
2152.39236519771
 31
0.0
  0
LINE
  5
161
330
1F
100
AcDbEntity
  8
0-C_ハッチ
  6
JWW_DASHED1
 62
   120
370
     5
100
AcDbLine
 10
-3089.162935234794
 20
2097.946220485337
 30
0.0
 11
-3014.162935234783
 21
2172.946220485348
 31
0.0
  0
LINE
  5
162
330
1F
100
AcDbEntity
  8
0-C_ハッチ
  6
JWW_DASHED1
 62
   120
370
     5
100
AcDbLine
 10
-3131.589342106004
 20
2097.946220485329
 30
0.0
 11
-3056.58934210601
 21
2172.946220485322
 31
0.0
  0
LINE
  5
163
330
1F
100
AcDbEntity
  8
0-C_ハッチ
  6
JWW_DASHED1
 62
   120
370
     5
100
AcDbLine
 10
-3174.015748977204
 20
2097.946220485329
 30
0.0
 11
-3099.015748977208
 21
2172.946220485324
 31
0.0
  0
LINE
  5
164
330
1F
100
AcDbEntity
  8
0-C_ハッチ
  6
JWW_DASHED1
 62
   120
370
     5
100
AcDbLine
 10
-3216.442155848399
 20
2097.946220485333
 30
0.0
 11
-3141.442155848404
 21
2172.946220485328
 31
0.0
  0
LINE
  5
165
330
1F
100
AcDbEntity
  8
0-C_ハッチ
  6
JWW_DASHED1
 62
   120
370
     5
100
AcDbLine
 10
-3258.868562719537
 20
2097.94622048534
 30
0.0
 11
-3183.868562719542
 21
2172.946220485336
 31
0.0
  0
LINE
  5
166
330
1F
100
AcDbEntity
  8
0-C_ハッチ
  6
JWW_DASHED1
 62
   120
370
     5
100
AcDbLine
 10
-3301.294969590732
 20
2097.946220485344
 30
0.0
 11
-3226.294969590737
 21
2172.946220485339
 31
0.0
  0
LINE
  5
167
330
1F
100
AcDbEntity
  8
0-C_ハッチ
  6
JWW_DASHED1
 62
   120
370
     5
100
AcDbLine
 10
-3343.721376461946
 20
2097.946220485333
 30
0.0
 11
-3268.721376461936
 21
2172.946220485343
 31
0.0
  0
LINE
  5
168
330
1F
100
AcDbEntity
  8
0-C_ハッチ
  6
JWW_DASHED1
 62
   120
370
     5
100
AcDbLine
 10
-3386.147783333142
 20
2097.946220485336
 30
0.0
 11
-3311.147783333131
 21
2172.946220485347
 31
0.0
  0
LINE
  5
169
330
1F
100
AcDbEntity
  8
0-C_ハッチ
  6
JWW_DASHED1
 62
   120
370
     5
100
AcDbLine
 10
-3428.574190204337
 20
2097.946220485339
 30
0.0
 11
-3353.574190204342
 21
2172.946220485335
 31
0.0
  0
LINE
  5
16A
330
1F
100
AcDbEntity
  8
0-C_ハッチ
  6
JWW_DASHED1
 62
   120
370
     5
100
AcDbLine
 10
-3471.000597075549
 20
2097.946220485328
 30
0.0
 11
-3396.000597075556
 21
2172.946220485323
 31
0.0
  0
LINE
  5
16B
330
1F
100
AcDbEntity
  8
0-C_ハッチ
  6
JWW_DASHED1
 62
   120
370
     5
100
AcDbLine
 10
-3513.427003946746
 20
2097.946220485331
 30
0.0
 11
-3438.427003946751
 21
2172.946220485327
 31
0.0
  0
LINE
  5
16C
330
1F
100
AcDbEntity
  8
0-C_ハッチ
  6
JWW_DASHED1
 62
   120
370
     5
100
AcDbLine
 10
-3555.853410817942
 20
2097.946220485335
 30
0.0
 11
-3480.853410817946
 21
2172.94622048533
 31
0.0
  0
LINE
  5
16D
330
1F
100
AcDbEntity
  8
0-3_仕上げ
  6
Continuous
 62
    40
370
     5
100
AcDbLine
 10
-2992.290383651222
 20
2172.946220485324
 30
0.0
 11
-2992.290383651222
 21
2097.946220485324
 31
0.0
  0
LINE
  5
16E
330
1F
100
AcDbEntity
  8
0-C_ハッチ
  6
JWW_DASHED1
 62
   120
370
     5
100
AcDbLine
 10
1794.836866813352
 20
2097.946220485337
 30
0.0
 11
1869.836866813363
 21
2172.946220485348
 31
0.0
  0
LINE
  5
16F
330
1F
100
AcDbEntity
  8
0-C_ハッチ
  6
JWW_DASHED1
 62
   120
370
     5
100
AcDbLine
 10
1752.410459942144
 20
2097.946220485329
 30
0.0
 11
1827.410459942137
 21
2172.946220485323
 31
0.0
  0
LINE
  5
170
330
1F
100
AcDbEntity
  8
0-C_ハッチ
  6
JWW_DASHED1
 62
   120
370
     5
100
AcDbLine
 10
1709.984053070944
 20
2097.946220485329
 30
0.0
 11
1784.984053070939
 21
2172.946220485324
 31
0.0
  0
LINE
  5
171
330
1F
100
AcDbEntity
  8
0-C_ハッチ
  6
JWW_DASHED1
 62
   120
370
     5
100
AcDbLine
 10
1667.557646199748
 20
2097.946220485333
 30
0.0
 11
1742.557646199742
 21
2172.946220485328
 31
0.0
  0
LINE
  5
172
330
1F
100
AcDbEntity
  8
0-C_ハッチ
  6
JWW_DASHED1
 62
   120
370
     5
100
AcDbLine
 10
1625.13123932861
 20
2097.946220485341
 30
0.0
 11
1700.131239328605
 21
2172.946220485336
 31
0.0
  0
LINE
  5
173
330
1F
100
AcDbEntity
  8
0-C_ハッチ
  6
JWW_DASHED1
 62
   120
370
     5
100
AcDbLine
 10
1582.704832457414
 20
2097.946220485344
 30
0.0
 11
1657.704832457409
 21
2172.94622048534
 31
0.0
  0
LINE
  5
174
330
1F
100
AcDbEntity
  8
0-C_ハッチ
  6
JWW_DASHED1
 62
   120
370
     5
100
AcDbLine
 10
1540.278425586202
 20
2097.946220485333
 30
0.0
 11
1615.278425586212
 21
2172.946220485343
 31
0.0
  0
LINE
  5
175
330
1F
100
AcDbEntity
  8
0-C_ハッチ
  6
JWW_DASHED1
 62
   120
370
     5
100
AcDbLine
 10
1497.852018715005
 20
2097.946220485336
 30
0.0
 11
1572.852018715017
 21
2172.946220485347
 31
0.0
  0
LINE
  5
176
330
1F
100
AcDbEntity
  8
0-C_ハッチ
  6
JWW_DASHED1
 62
   120
370
     5
100
AcDbLine
 10
1455.425611843809
 20
2097.94622048534
 30
0.0
 11
1530.425611843804
 21
2172.946220485335
 31
0.0
  0
LINE
  5
177
330
1F
100
AcDbEntity
  8
0-C_ハッチ
  6
JWW_DASHED1
 62
   120
370
     5
100
AcDbLine
 10
1412.999204972597
 20
2097.946220485328
 30
0.0
 11
1487.999204972592
 21
2172.946220485323
 31
0.0
  0
LINE
  5
178
330
1F
100
AcDbEntity
  8
0-C_ハッチ
  6
JWW_DASHED1
 62
   120
370
     5
100
AcDbLine
 10
1370.5727981014
 20
2097.946220485331
 30
0.0
 11
1445.572798101395
 21
2172.946220485327
 31
0.0
  0
LINE
  5
179
330
1F
100
AcDbEntity
  8
0-C_ハッチ
  6
JWW_DASHED1
 62
   120
370
     5
100
AcDbLine
 10
1328.146391230204
 20
2097.946220485335
 30
0.0
 11
1403.1463912302
 21
2172.94622048533
 31
0.0
  0
LINE
  5
17A
330
1F
100
AcDbEntity
  8
0-C_ハッチ
  6
JWW_DASHED1
 62
   120
370
     5
100
AcDbLine
 10
1291.709616348778
 20
2103.935852475054
 30
0.0
 11
1360.719984359062
 21
2172.946220485338
 31
0.0
  0
LINE
  5
17B
330
1F
100
AcDbEntity
  8
0-C_ハッチ
  6
JWW_DASHED1
 62
   120
370
     5
100
AcDbLine
 10
1291.709616348782
 20
2146.362259346259
 30
0.0
 11
1318.293577487865
 21
2172.946220485342
 31
0.0
  0
LINE
  5
17C
330
1F
100
AcDbEntity
  8
0-3_仕上げ
  6
Continuous
 62
    40
370
     5
100
AcDbLine
 10
1291.709616348796
 20
2097.946220485324
 30
0.0
 11
1291.709616348796
 21
2172.946220485324
 31
0.0
  0
LINE
  5
17D
330
1F
100
AcDbEntity
  8
0-3_仕上げ
  6
Continuous
 62
    40
370
     5
100
AcDbLine
 10
1291.709616348796
 20
2097.946220485324
 30
0.0
 11
1921.709418396942
 21
2097.946220485324
 31
0.0
  0
LINE
  5
17E
330
1F
100
AcDbEntity
  8
0-3_仕上げ
  6
Continuous
 62
    40
370
     5
100
AcDbLine
 10
1291.709616348796
 20
2172.946220485324
 30
0.0
 11
1921.709418396942
 21
2172.946220485324
 31
0.0
  0
LINE
  5
17F
330
1F
100
AcDbEntity
  8
0-C_ハッチ
  6
JWW_DASHED1
 62
   120
370
     5
100
AcDbLine
 10
1879.689680555745
 20
2097.94622048533
 30
0.0
 11
1921.709418396942
 21
2139.965958326527
 31
0.0
  0
LINE
  5
180
330
1F
100
AcDbEntity
  8
0-C_ハッチ
  6
JWW_DASHED1
 62
   120
370
     5
100
AcDbLine
 10
1837.263273684549
 20
2097.946220485333
 30
0.0
 11
1912.263273684539
 21
2172.946220485324
 31
0.0
  0
LINE
  5
181
330
1F
100
AcDbEntity
  8
0-3_仕上げ
  6
Continuous
 62
    40
370
     5
100
AcDbLine
 10
-3622.290185699349
 20
2097.946220485324
 30
0.0
 11
-2992.290383651204
 21
2097.946220485324
 31
0.0
  0
LINE
  5
182
330
1F
100
AcDbEntity
  8
0-3_仕上げ
  6
Continuous
 62
    40
370
     5
100
AcDbLine
 10
-3622.290185699349
 20
2172.946220485324
 30
0.0
 11
-2992.290383651204
 21
2172.946220485324
 31
0.0
  0
LINE
  5
183
330
1F
100
AcDbEntity
  8
0-C_ハッチ
  6
JWW_DASHED1
 62
   120
370
     5
100
AcDbLine
 10
-3622.290185699349
 20
2116.362259346276
 30
0.0
 11
-3565.706224560281
 21
2172.946220485342
 31
0.0
  0
LINE
  5
184
330
1F
100
AcDbEntity
  8
0-C_ハッチ
  6
JWW_DASHED1
 62
   120
370
     5
100
AcDbLine
 10
-3598.2798176891
 20
2097.946220485324
 30
0.0
 11
-3523.279817689086
 21
2172.946220485338
 31
0.0
  0
MTEXT
  5
185
330
1F
100
AcDbEntity
  8
0-3_仕上げ
  6
Continuous
 62
     7
370
   211
100
AcDbMText
 10
-2719.290185699338
 20
-2901.781431134909
 30
0.0
 40
91.44000000000129
 41
120.0000000000017
 46
0.0
 71
     7
 72
     1
  1
{\fＭＳ ゴシック|b0|i0|c128|p49;32}
 73
     1
 44
1.0
  0
MTEXT
  5
186
330
1F
100
AcDbEntity
  8
0-A_文字
  6
Continuous
 62
     7
370
     5
100
AcDbMText
 10
-3610.290185699359
 20
198.8080100182982
 30
0.0
 40
91.43999999999987
 41
599.9999999999991
 46
0.0
 71
     7
 72
     1
  1
{\fＭＳ ゴシック|b0|i0|c128|p49;■縦断面図}
 73
     1
 44
1.0
  0
MTEXT
  5
187
330
1F
100
AcDbEntity
  8
0-A_文字
  6
Continuous
 62
     7
370
     5
100
AcDbMText
 10
-3610.290185699359
 20
50.28774485085495
 30
0.0
 40
91.43999999999997
 41
1799.999999999999
 46
0.0
 71
     7
 72
     1
  1
{\fＭＳ ゴシック|b0|i0|c128|p49;　[３方枠＋レール(レール埋込)]}
 73
     1
 44
1.0
  0
MTEXT
  5
188
330
1F
100
AcDbEntity
  8
0-B_寸法
  6
Continuous
 62
     7
370
   211
100
AcDbMText
 10
-1506.546978151944
 20
-260.0312686803293
 30
0.0
 40
91.44000000000129
 41
60.00000000000085
 46
0.0
 71
     7
 72
     1
  1
{\fＭＳ ゴシック|b0|i0|c128|p49;8}
 11
6.123031769111886E-17
 21
1.0
 31
0.0
 73
     1
 44
1.0
  0
MTEXT
  5
189
330
1F
100
AcDbEntity
  8
0-B_寸法
  6
Continuous
 62
     7
370
   211
100
AcDbMText
 10
-2068.290185699342
 20
-304.7257350667988
 30
0.0
 40
91.43999999999805
 41
59.99999999999872
 46
0.0
 71
     7
 72
     1
  1
{\fＭＳ ゴシック|b0|i0|c128|p49;8}
 11
6.123031769111886E-17
 21
1.0
 31
0.0
 73
     1
 44
1.0
  0
MTEXT
  5
18A
330
1F
100
AcDbEntity
  8
0-B_寸法
  6
Continuous
 62
     7
370
   211
100
AcDbMText
 10
-2068.290185699342
 20
-390.2791294241523
 30
0.0
 40
91.43999999999805
 41
59.99999999999872
 46
0.0
 71
     7
 72
     1
  1
{\fＭＳ ゴシック|b0|i0|c128|p49;9}
 11
6.123031769111886E-17
 21
1.0
 31
0.0
 73
     1
 44
1.0
  0
MTEXT
  5
18B
330
1F
100
AcDbEntity
  8
0-B_寸法
  6
Continuous
 62
     7
370
     0
100
AcDbMText
 10
-1693.289492867841
 20
-480.2790725129938
 30
0.0
 40
91.43999999999966
 41
119.9999999999996
 46
0.0
 71
     7
 72
     1
  1
{\fＭＳ ゴシック|b0|i0|c128|p49;36}
 11
6.123031769111886E-17
 21
1.0
 31
0.0
 73
     1
 44
1.0
  0
MTEXT
  5
18C
330
1F
100
AcDbEntity
  8
0-B_寸法
  6
Continuous
 62
     7
370
   211
100
AcDbMText
 10
-2068.290185699342
 20
-498.279129424153
 30
0.0
 40
91.44000000000129
 41
60.00000000000085
 46
0.0
 71
     7
 72
     1
  1
{\fＭＳ ゴシック|b0|i0|c128|p49;9}
 11
6.123031769111886E-17
 21
1.0
 31
0.0
 73
     1
 44
1.0
  0
MTEXT
  5
18D
330
1F
100
AcDbEntity
  8
0-B_寸法
  6
Continuous
 62
     7
370
   211
100
AcDbMText
 10
-2068.290185699342
 20
-665.9420510715972
 30
0.0
 40
91.44000000000031
 41
120.0000000000004
 46
0.0
 71
     7
 72
     1
  1
{\fＭＳ ゴシック|b0|i0|c128|p49;10}
 11
6.123031769111886E-17
 21
1.0
 31
0.0
 73
     1
 44
1.0
  0
MTEXT
  5
18E
330
1F
100
AcDbEntity
  8
0-B_寸法
  6
Continuous
 62
     7
370
     0
100
AcDbMText
 10
-1872.717968279647
 20
-751.2353149736211
 30
0.0
 40
91.44000000000023
 41
180.0000000000004
 46
0.0
 71
     7
 72
     1
  1
{\fＭＳ ゴシック|b0|i0|c128|p49;7.5}
 11
6.123031769111886E-17
 21
1.0
 31
0.0
 73
     1
 44
1.0
  0
MTEXT
  5
18F
330
1F
100
AcDbEntity
  8
0-B_寸法
  6
Continuous
 62
     7
370
     0
100
AcDbMText
 10
-2719.290735015766
 20
-808.7618943247838
 30
0.0
 40
91.4400000000013
 41
120.0000000000017
 46
0.0
 71
     7
 72
     1
  1
{\fＭＳ ゴシック|b0|i0|c128|p49;77}
 73
     1
 44
1.0
  0
MTEXT
  5
190
330
1F
100
AcDbEntity
  8
0-B_寸法
  6
Continuous
 62
     7
370
     0
100
AcDbMText
 10
-1872.756680946749
 20
-3191.41173001837
 30
0.0
 40
91.4400000000013
 41
180.0000000000026
 46
0.0
 71
     7
 72
     1
  1
{\fＭＳ ゴシック|b0|i0|c128|p49;8.5}
 11
6.123031769111886E-17
 21
1.0
 31
0.0
 73
     1
 44
1.0
  0
MTEXT
  5
191
330
1F
100
AcDbEntity
  8
0-B_寸法
  6
Continuous
 62
     7
370
     0
100
AcDbMText
 10
-1693.289492867841
 20
-3446.060221697336
 30
0.0
 40
91.43999999999805
 41
119.9999999999974
 46
0.0
 71
     7
 72
     1
  1
{\fＭＳ ゴシック|b0|i0|c128|p49;12}
 11
6.123031769111886E-17
 21
1.0
 31
0.0
 73
     1
 44
1.0
  0
LINE
  5
192
330
1F
100
AcDbEntity
  8
0-3_仕上げ
  6
Continuous
 62
     7
370
     5
100
AcDbLine
 10
-2584.289843613787
 20
-3238.000113874911
 30
0.0
 11
-2068.290185699343
 21
-3238.000113874911
 31
0.0
  0
LINE
  5
193
330
1F
100
AcDbEntity
  8
0-3_仕上げ
  6
Continuous
 62
     7
370
     5
100
AcDbLine
 10
-2584.289843613787
 20
-3250.000264813205
 30
0.0
 11
-2068.290185699343
 21
-3250.000264813205
 31
0.0
  0
LINE
  5
194
330
1F
100
AcDbEntity
  8
0-3_仕上げ
  6
Continuous
 62
     7
370
     5
100
AcDbLine
 10
-2584.289843613787
 20
-3262.00023017163
 30
0.0
 11
-2068.290185699343
 21
-3262.00023017163
 31
0.0
  0
LINE
  5
195
330
1F
100
AcDbEntity
  8
0-3_仕上げ
  6
Continuous
 62
     7
370
     5
100
AcDbLine
 10
-2584.289843613787
 20
-3274.000195530055
 30
0.0
 11
-2068.290185699343
 21
-3274.000195530055
 31
0.0
  0
LINE
  5
196
330
1F
100
AcDbEntity
  8
0-3_仕上げ
  6
Continuous
 62
     7
370
     5
100
AcDbLine
 10
-2584.289843613787
 20
-3286.000346468346
 30
0.0
 11
-2068.290185699343
 21
-3286.000346468346
 31
0.0
  0
LINE
  5
197
330
1F
100
AcDbEntity
  8
0-3_仕上げ
  6
Continuous
 62
    40
370
     5
100
AcDbLine
 10
-2068.290185699343
 20
-3226.000334096355
 30
0.0
 11
-2584.289843613787
 21
-3226.000334096355
 31
0.0
  0
LINE
  5
198
330
1F
100
AcDbEntity
  8
0-0_補助線
  6
JWW_HOJO
 62
   120
370
     5
100
AcDbLine
 10
-1708.290185699342
 20
2.00007402574073
 30
0.0
 11
-3622.290185699349
 21
2.00007402574073
 31
0.0
  0
LINE
  5
199
330
1F
100
AcDbEntity
  8
0-1_通り芯
  6
JWW_CENTER1
 62
   120
370
     5
100
AcDbLine
 10
-2659.290185699337
 20
-3519.904954945129
 30
0.0
 11
-2659.290185699337
 21
2.00007402574073
 31
0.0
  0
LINE
  5
19A
330
1F
100
AcDbEntity
  8
0-0_補助線
  6
JWW_HOJO
 62
   120
370
     5
100
AcDbLine
 10
-2068.290185699343
 20
2.00007402574073
 30
0.0
 11
-2068.290185699343
 21
-3297.99994082065
 31
0.0
  0
LINE
  5
19B
330
1F
100
AcDbEntity
  8
0-0_補助線
  6
JWW_HOJO
 62
   120
370
     5
100
AcDbLine
 10
-3262.290185699348
 20
2.00007402574073
 30
0.0
 11
-3262.290185699348
 21
-3297.99994082065
 31
0.0
  0
LINE
  5
19C
330
1F
100
AcDbEntity
  8
0-0_補助線
  6
JWW_HOJO
 62
   120
370
     5
100
AcDbLine
 10
-3622.290185699349
 20
2.00007402574073
 30
0.0
 11
-3622.290185699349
 21
-3297.99994082065
 31
0.0
  0
LINE
  5
19D
330
1F
100
AcDbEntity
  8
0-0_補助線
  6
JWW_HOJO
 62
   120
370
     5
100
AcDbLine
 10
-1708.290185699342
 20
2.00007402574073
 30
0.0
 11
-1708.290185699342
 21
-3297.99994082065
 31
0.0
  0
LINE
  5
19E
330
1F
100
AcDbEntity
  8
0-B_寸法
  6
Continuous
 62
   120
370
     5
100
AcDbLine
 10
-2068.290185699343
 20
-3174.999460993514
 30
0.0
 11
-1858.290185699342
 21
-3174.999460993514
 31
0.0
  0
LWPOLYLINE
  5
19F
330
1F
100
AcDbEntity
  8
0-B_寸法
  6
Continuous
 62
     7
370
     5
100
AcDbPolyline
 90
        4
 70
     1
 43
3.0
 10
-3620.790185699349
 20
-3297.99994082065
 42
0.4142135623731
 10
-3622.290185699349
 20
-3296.49994082065
 42
0.4142135623731
 10
-3623.790185699349
 20
-3297.99994082065
 42
0.4142135623731
 10
-3622.290185699349
 20
-3299.49994082065
 42
0.4142135623731
  0
LINE
  5
1A0
330
1F
100
AcDbEntity
  8
0-B_寸法
  6
Continuous
 62
   120
370
     5
100
AcDbLine
 10
-3622.290185699349
 20
-3297.99994082065
 30
0.0
 11
-3262.290185699348
 21
-3297.99994082065
 31
0.0
  0
LINE
  5
1A1
330
1F
100
AcDbEntity
  8
0-B_寸法
  6
Continuous
 62
   120
370
     5
100
AcDbLine
 10
-2068.290185699343
 20
-3297.999941026771
 30
0.0
 11
-1498.290185699342
 21
-3297.999941026771
 31
0.0
  0
LWPOLYLINE
  5
1A2
330
1F
100
AcDbEntity
  8
0-B_寸法
  6
Continuous
 62
     7
370
     5
100
AcDbPolyline
 90
        4
 70
     1
 43
3.0
 10
-1496.790185699342
 20
-3297.999941026771
 42
0.4142135623731
 10
-1498.290185699342
 20
-3296.499941026771
 42
0.4142135623731
 10
-1499.790185699342
 20
-3297.999941026771
 42
0.4142135623731
 10
-1498.290185699342
 20
-3299.499941026771
 42
0.4142135623731
  0
LWPOLYLINE
  5
1A3
330
1F
100
AcDbEntity
  8
0-B_寸法
  6
Continuous
 62
     7
370
     5
100
AcDbPolyline
 90
        4
 70
     1
 43
3.0
 10
-1856.790185699342
 20
-3174.999460993514
 42
0.4142135623731
 10
-1858.290185699342
 20
-3173.499460993514
 42
0.4142135623731
 10
-1859.790185699342
 20
-3174.999460993514
 42
0.4142135623731
 10
-1858.290185699342
 20
-3176.499460993514
 42
0.4142135623731
  0
LWPOLYLINE
  5
1A4
330
1F
100
AcDbEntity
  8
0-B_寸法
  6
Continuous
 62
     7
370
     5
100
AcDbPolyline
 90
        4
 70
     1
 43
3.0
 10
-1856.790185699342
 20
-3225.999592136621
 42
0.4142135623731
 10
-1858.290185699342
 20
-3224.499592136621
 42
0.4142135623731
 10
-1859.790185699342
 20
-3225.999592136621
 42
0.4142135623731
 10
-1858.290185699342
 20
-3227.49959213662
 42
0.4142135623731
  0
LINE
  5
1A5
330
1F
100
AcDbEntity
  8
0-B_寸法
  6
Continuous
 62
   120
370
     5
100
AcDbLine
 10
-1858.290185699342
 20
-3225.999592136621
 30
0.0
 11
-1858.290185699342
 21
-513.998946318683
 31
0.0
  0
LINE
  5
1A6
330
1F
100
AcDbEntity
  8
0-B_寸法
  6
Continuous
 62
   120
370
     5
100
AcDbLine
 10
-2068.290185699343
 20
-3225.999592136621
 30
0.0
 11
-1678.290185699342
 21
-3225.999592136621
 31
0.0
  0
LINE
  5
1A7
330
1F
100
AcDbEntity
  8
0-B_寸法
  6
Continuous
 62
   120
370
     5
100
AcDbLine
 10
-1678.290185699342
 20
-3297.999569867039
 30
0.0
 11
-1678.290185699342
 21
-297.9995698670362
 31
0.0
  0
LINE
  5
1A8
330
1F
100
AcDbEntity
  8
0-B_寸法
  6
Continuous
 62
   120
370
     5
100
AcDbLine
 10
-1858.290185699342
 20
-3297.999569867039
 30
0.0
 11
-1678.290185699342
 21
-3297.999569867039
 31
0.0
  0
LWPOLYLINE
  5
1A9
330
1F
100
AcDbEntity
  8
0-B_寸法
  6
Continuous
 62
     7
370
     5
100
AcDbPolyline
 90
        4
 70
     1
 43
3.0
 10
-1676.790185699342
 20
-3297.999569867039
 42
0.4142135623731
 10
-1678.290185699342
 20
-3296.499569867039
 42
0.4142135623731
 10
-1679.790185699342
 20
-3297.999569867039
 42
0.4142135623731
 10
-1678.290185699342
 20
-3299.499569867039
 42
0.4142135623731
  0
LWPOLYLINE
  5
1AA
330
1F
100
AcDbEntity
  8
0-B_寸法
  6
Continuous
 62
     7
370
     5
100
AcDbPolyline
 90
        4
 70
     1
 43
3.0
 10
-1676.790185699342
 20
-3225.999592136621
 42
0.4142135623731
 10
-1678.290185699342
 20
-3224.499592136621
 42
0.4142135623731
 10
-1679.790185699342
 20
-3225.999592136621
 42
0.4142135623731
 10
-1678.290185699342
 20
-3227.49959213662
 42
0.4142135623731
  0
LWPOLYLINE
  5
1AB
330
1F
100
AcDbEntity
  8
0-B_寸法
  6
Continuous
 62
     7
370
     5
100
AcDbPolyline
 90
        4
 70
     1
 43
3.0
 10
-1496.790185699342
 20
-297.9995698670362
 42
0.4142135623731
 10
-1498.290185699342
 20
-296.4995698670362
 42
0.4142135623731
 10
-1499.790185699342
 20
-297.9995698670362
 42
0.4142135623731
 10
-1498.290185699342
 20
-299.4995698670362
 42
0.4142135623731
  0
LWPOLYLINE
  5
1AC
330
1F
100
AcDbEntity
  8
0-B_寸法
  6
Continuous
 62
     7
370
     5
100
AcDbPolyline
 90
        4
 70
     1
 43
3.0
 10
-1856.790185699342
 20
-513.998946318683
 42
0.4142135623731
 10
-1858.290185699342
 20
-512.498946318683
 42
0.4142135623731
 10
-1859.790185699342
 20
-513.998946318683
 42
0.4142135623731
 10
-1858.290185699342
 20
-515.4989463186831
 42
0.4142135623731
  0
LWPOLYLINE
  5
1AD
330
1F
100
AcDbEntity
  8
0-B_寸法
  6
Continuous
 62
     7
370
     5
100
AcDbPolyline
 90
        4
 70
     1
 43
3.0
 10
-1856.790185699342
 20
-558.9990947825768
 42
0.4142135623731
 10
-1858.290185699342
 20
-557.4990947825768
 42
0.4142135623731
 10
-1859.790185699342
 20
-558.9990947825768
 42
0.4142135623731
 10
-1858.290185699342
 20
-560.4990947825769
 42
0.4142135623731
  0
LINE
  5
1AE
330
1F
100
AcDbEntity
  8
0-B_寸法
  6
Continuous
 62
   120
370
     5
100
AcDbLine
 10
-2068.290185699343
 20
-558.9990947825768
 30
0.0
 11
-1858.290185699342
 21
-558.9990947825768
 31
0.0
  0
LINE
  5
1AF
330
1F
100
AcDbEntity
  8
0-B_寸法
  6
Continuous
 62
   120
370
     5
100
AcDbLine
 10
-1858.290185699342
 20
-513.99857515895
 30
0.0
 11
-1678.290185699342
 21
-513.99857515895
 31
0.0
  0
LWPOLYLINE
  5
1B0
330
1F
100
AcDbEntity
  8
0-B_寸法
  6
Continuous
 62
     7
370
     5
100
AcDbPolyline
 90
        4
 70
     1
 43
3.0
 10
-1676.790185699342
 20
-513.99857515895
 42
0.4142135623731
 10
-1678.290185699342
 20
-512.49857515895
 42
0.4142135623731
 10
-1679.790185699342
 20
-513.99857515895
 42
0.4142135623731
 10
-1678.290185699342
 20
-515.49857515895
 42
0.4142135623731
  0
LWPOLYLINE
  5
1B1
330
1F
100
AcDbEntity
  8
0-B_寸法
  6
Continuous
 62
     7
370
     5
100
AcDbPolyline
 90
        4
 70
     1
 43
3.0
 10
-1676.790185699342
 20
-297.9995698670362
 42
0.4142135623731
 10
-1678.290185699342
 20
-296.4995698670362
 42
0.4142135623731
 10
-1679.790185699342
 20
-297.9995698670362
 42
0.4142135623731
 10
-1678.290185699342
 20
-299.4995698670362
 42
0.4142135623731
  0
LINE
  5
1B2
330
1F
100
AcDbEntity
  8
0-0_補助線
  6
JWW_HOJO
 62
   120
370
     5
100
AcDbLine
 10
-1858.290185699342
 20
-3297.99994082065
 30
0.0
 11
-3622.290185699349
 21
-3297.99994082065
 31
0.0
  0
LINE
  5
1B3
330
1F
100
AcDbEntity
  8
0-3_仕上げ
  6
Continuous
 62
   120
370
     5
100
AcDbLine
 10
-2755.289740307671
 20
-2902.501431134912
 30
0.0
 11
-2563.290631091031
 21
-2902.501431134912
 31
0.0
  0
LWPOLYLINE
  5
1B4
330
1F
100
AcDbEntity
  8
0-3_仕上げ
  6
Continuous
 62
     7
370
     5
100
AcDbPolyline
 90
        4
 70
     1
 43
3.0
 10
-2753.789740307671
 20
-2902.501431134912
 42
0.4142135623731
 10
-2755.289740307671
 20
-2901.001431134912
 42
0.4142135623731
 10
-2756.789740307671
 20
-2902.501431134912
 42
0.4142135623731
 10
-2755.289740307671
 20
-2904.001431134912
 42
0.4142135623731
  0
LWPOLYLINE
  5
1B5
330
1F
100
AcDbEntity
  8
0-3_仕上げ
  6
Continuous
 62
     7
370
     5
100
AcDbPolyline
 90
        4
 70
     1
 43
3.0
 10
-2561.790631091031
 20
-2902.501431134912
 42
0.4142135623731
 10
-2563.290631091031
 20
-2901.001431134912
 42
0.4142135623731
 10
-2564.790631091031
 20
-2902.501431134912
 42
0.4142135623731
 10
-2563.290631091031
 20
-2904.001431134912
 42
0.4142135623731
  0
LINE
  5
1B6
330
1F
100
AcDbEntity
  8
0-3_仕上げ
  6
Continuous
 62
   120
370
     5
100
AcDbLine
 10
-2755.289740307671
 20
-2902.501431134912
 30
0.0
 11
-2755.289740307671
 21
-3011.209140508179
 31
0.0
  0
LINE
  5
1B7
330
1F
100
AcDbEntity
  8
0-3_仕上げ
  6
Continuous
 62
   120
370
     5
100
AcDbLine
 10
-2563.290631091031
 20
-2902.501431134912
 30
0.0
 11
-2563.290631091031
 21
-3011.209140508179
 31
0.0
  0
LINE
  5
1B8
330
1F
100
AcDbEntity
  8
0-3_仕上げ
  6
Continuous
 62
    40
370
     5
100
AcDbLine
 10
-3250.290185699359
 20
-3298.000311826771
 30
0.0
 11
-1905.804206155207
 21
-3298.000311826771
 31
0.0
  0
LINE
  5
1B9
330
1F
100
AcDbEntity
  8
0-3_仕上げ
  6
Continuous
 62
     7
370
     5
100
AcDbLine
 10
-3250.290185699359
 20
-3238.000113874911
 30
0.0
 11
-2734.289843613787
 21
-3238.000113874911
 31
0.0
  0
LINE
  5
1BA
330
1F
100
AcDbEntity
  8
0-3_仕上げ
  6
Continuous
 62
     7
370
     5
100
AcDbLine
 10
-3250.290185699359
 20
-3250.000264813205
 30
0.0
 11
-2734.289843613787
 21
-3250.000264813205
 31
0.0
  0
LINE
  5
1BB
330
1F
100
AcDbEntity
  8
0-3_仕上げ
  6
Continuous
 62
     7
370
     5
100
AcDbLine
 10
-3250.290185699359
 20
-3262.00023017163
 30
0.0
 11
-2734.289843613787
 21
-3262.00023017163
 31
0.0
  0
LINE
  5
1BC
330
1F
100
AcDbEntity
  8
0-3_仕上げ
  6
Continuous
 62
     7
370
     5
100
AcDbLine
 10
-3250.290185699359
 20
-3274.000195530055
 30
0.0
 11
-2734.289843613787
 21
-3274.000195530055
 31
0.0
  0
LINE
  5
1BD
330
1F
100
AcDbEntity
  8
0-3_仕上げ
  6
Continuous
 62
     7
370
     5
100
AcDbLine
 10
-3250.290185699359
 20
-3286.000346468346
 30
0.0
 11
-2734.289843613787
 21
-3286.000346468346
 31
0.0
  0
LINE
  5
1BE
330
1F
100
AcDbEntity
  8
0-3_仕上げ
  6
Continuous
 62
    40
370
     5
100
AcDbLine
 10
-3250.290185699359
 20
-3226.000334096355
 30
0.0
 11
-2734.289843613787
 21
-3226.000334096355
 31
0.0
  0
LINE
  5
1BF
330
1F
100
AcDbEntity
  8
0-3_仕上げ
  6
Continuous
 62
    40
370
     5
100
AcDbLine
 10
-2734.290185699337
 20
-3298.000497406637
 30
0.0
 11
-2734.290185699337
 21
-3226.000705256087
 31
0.0
  0
LINE
  5
1C0
330
1F
100
AcDbEntity
  8
0-3_仕上げ
  6
Continuous
 62
    40
370
     5
100
AcDbLine
 10
-2584.290185699337
 20
-3298.000497406637
 30
0.0
 11
-2584.290185699337
 21
-3226.000705256087
 31
0.0
  0
LINE
  5
1C1
330
1F
100
AcDbEntity
  8
0-C_ハッチ
  6
Continuous
 62
   120
370
     5
100
AcDbLine
 10
-2728.290185699343
 20
-3276.120416773786
 30
0.0
 11
-2719.290185699337
 21
-3267.120416773787
 31
0.0
  0
LINE
  5
1C2
330
1F
100
AcDbEntity
  8
0-7_金物
  6
Continuous
 62
    92
370
     5
100
AcDbLine
 10
-2719.290185699337
 20
-3268.000705102476
 30
0.0
 11
-2599.290185699337
 21
-3268.000705102476
 31
0.0
  0
LINE
  5
1C3
330
1F
100
AcDbEntity
  8
0-7_金物
  6
Continuous
 62
    92
370
     5
100
AcDbLine
 10
-2719.290185699337
 20
-3256.000705102477
 30
0.0
 11
-2719.290185699337
 21
-3268.000705102476
 31
0.0
  0
LINE
  5
1C4
330
1F
100
AcDbEntity
  8
0-7_金物
  6
Continuous
 62
    92
370
     5
100
AcDbLine
 10
-2719.290185699337
 20
-3256.000705102477
 30
0.0
 11
-2728.290244019408
 21
-3256.000705102477
 31
0.0
  0
LINE
  5
1C5
330
1F
100
AcDbEntity
  8
0-7_金物
  6
Continuous
 62
    92
370
     5
100
AcDbLine
 10
-2599.290185699337
 20
-3256.000705102477
 30
0.0
 11
-2590.479270379692
 21
-3256.000705102477
 31
0.0
  0
LINE
  5
1C6
330
1F
100
AcDbEntity
  8
0-7_金物
  6
Continuous
 62
    92
370
     5
100
AcDbLine
 10
-2599.290185699337
 20
-3256.000705102477
 30
0.0
 11
-2599.290185699337
 21
-3268.000705102476
 31
0.0
  0
LINE
  5
1C7
330
1F
100
AcDbEntity
  8
0-7_金物
  6
Continuous
 62
    92
370
     5
100
AcDbLine
 10
-2590.479328699784
 20
-3256.000482772178
 30
0.0
 11
-2590.479328699784
 21
-3298.000705102476
 31
0.0
  0
LINE
  5
1C8
330
1F
100
AcDbEntity
  8
0-7_金物
  6
Continuous
 62
    92
370
     5
100
AcDbLine
 10
-2728.290185699343
 20
-3256.000482772178
 30
0.0
 11
-2728.290185699343
 21
-3298.000705102476
 31
0.0
  0
LINE
  5
1C9
330
1F
100
AcDbEntity
  8
0-7_金物
  6
Continuous
 62
    92
370
     5
100
AcDbLine
 10
-2728.290185699343
 20
-3298.000705102476
 30
0.0
 11
-2590.479328699784
 21
-3298.000705102476
 31
0.0
  0
LINE
  5
1CA
330
1F
100
AcDbEntity
  8
0-C_ハッチ
  6
Continuous
 62
   120
370
     5
100
AcDbLine
 10
-2597.435409291738
 20
-3298.000705102476
 30
0.0
 11
-2590.479328699784
 21
-3291.044624510505
 31
0.0
  0
LINE
  5
1CB
330
1F
100
AcDbEntity
  8
0-C_ハッチ
  6
Continuous
 62
   120
370
     5
100
AcDbLine
 10
-2724.714629905311
 20
-3298.000705102476
 30
0.0
 11
-2694.714629905311
 21
-3268.000705102476
 31
0.0
  0
LINE
  5
1CC
330
1F
100
AcDbEntity
  8
0-C_ハッチ
  6
Continuous
 62
   120
370
     5
100
AcDbLine
 10
-2648.347097537189
 20
-3298.000705102476
 30
0.0
 11
-2618.347097537189
 21
-3268.000705102476
 31
0.0
  0
LINE
  5
1CD
330
1F
100
AcDbEntity
  8
0-C_ハッチ
  6
Continuous
 62
   120
370
     5
100
AcDbLine
 10
-2673.802941659914
 20
-3298.000705102476
 30
0.0
 11
-2643.802941659887
 21
-3268.000705102476
 31
0.0
  0
LINE
  5
1CE
330
1F
100
AcDbEntity
  8
0-C_ハッチ
  6
Continuous
 62
   120
370
     5
100
AcDbLine
 10
-2699.258785782612
 20
-3298.000705102476
 30
0.0
 11
-2669.258785782612
 21
-3268.000705102473
 31
0.0
  0
LINE
  5
1CF
330
1F
100
AcDbEntity
  8
0-C_ハッチ
  6
Continuous
 62
   120
370
     5
100
AcDbLine
 10
-2622.891253414463
 20
-3298.000705102476
 30
0.0
 11
-2590.479328699784
 21
-3265.588780387787
 31
0.0
  0
LINE
  5
1D0
330
1F
100
AcDbEntity
  8
0-7_金物
  6
Continuous
 62
     7
370
     5
100
AcDbLine
 10
-2617.289550088307
 20
-3229.367745736701
 30
0.0
 11
-2701.290421076482
 21
-3229.367745736701
 31
0.0
  0
LINE
  5
1D1
330
1F
100
AcDbEntity
  8
0-7_金物
  6
Continuous
 62
     7
370
     5
100
AcDbLine
 10
-2650.290104353507
 20
-3175.000705102475
 30
0.0
 11
-2650.290104353507
 21
-3229.367745736701
 31
0.0
  0
LINE
  5
1D2
330
1F
100
AcDbEntity
  8
0-7_金物
  6
Continuous
 62
     7
370
     5
100
AcDbLine
 10
-2668.289866811283
 20
-3175.000705102475
 30
0.0
 11
-2668.289866811283
 21
-3229.367745736701
 31
0.0
  0
LINE
  5
1D3
330
1F
100
AcDbEntity
  8
0-7_金物
  6
Continuous
 62
     7
370
     5
100
AcDbLine
 10
-2635.290797185007
 20
-3241.3677457367
 30
0.0
 11
-2683.290658618707
 21
-3241.3677457367
 31
0.0
  0
LINE
  5
1D4
330
1F
100
AcDbEntity
  8
0-7_金物
  6
Continuous
 62
     7
370
     5
100
AcDbLine
 10
-2650.290104353507
 20
-3246.065143329607
 30
0.0
 11
-2668.289866811283
 21
-3246.065143329607
 31
0.0
  0
LINE
  5
1D5
330
1F
100
AcDbEntity
  8
0-7_金物
  6
Continuous
 62
     7
370
     5
100
AcDbLine
 10
-2650.290104353507
 20
-3241.3677457367
 30
0.0
 11
-2650.290104353507
 21
-3246.065143329607
 31
0.0
  0
LINE
  5
1D6
330
1F
100
AcDbEntity
  8
0-7_金物
  6
Continuous
 62
     7
370
     5
100
AcDbLine
 10
-2668.289866811283
 20
-3241.3677457367
 30
0.0
 11
-2668.289866811283
 21
-3246.065143329607
 31
0.0
  0
LINE
  5
1D7
330
1F
100
AcDbEntity
  8
0-7_金物
  6
Continuous
 62
     7
370
     5
100
AcDbLine
 10
-2635.290797185007
 20
-3241.3677457367
 30
0.0
 11
-2635.290797185007
 21
-3253.367745736703
 31
0.0
  0
LINE
  5
1D8
330
1F
100
AcDbEntity
  8
0-7_金物
  6
Continuous
 62
     7
370
     5
100
AcDbLine
 10
-2617.289550088307
 20
-3229.367745736701
 30
0.0
 11
-2617.289550088307
 21
-3253.367745736703
 31
0.0
  0
LINE
  5
1D9
330
1F
100
AcDbEntity
  8
0-7_金物
  6
Continuous
 62
     7
370
     5
100
AcDbLine
 10
-2683.290658618707
 20
-3241.3677457367
 30
0.0
 11
-2683.290658618707
 21
-3253.367745736703
 31
0.0
  0
LINE
  5
1DA
330
1F
100
AcDbEntity
  8
0-7_金物
  6
Continuous
 62
     7
370
     5
100
AcDbLine
 10
-2701.290421076482
 20
-3229.367745736701
 30
0.0
 11
-2701.290421076482
 21
-3253.367745736703
 31
0.0
  0
LINE
  5
1DB
330
1F
100
AcDbEntity
  8
0-7_金物
  6
Continuous
 62
     7
370
     5
100
AcDbLine
 10
-2701.290421076482
 20
-3253.367745736703
 30
0.0
 11
-2617.289550088307
 21
-3253.367745736703
 31
0.0
  0
LINE
  5
1DC
330
1F
100
AcDbEntity
  8
0-7_金物
  6
Continuous
 62
     7
370
     5
100
AcDbLine
 10
-2710.290185699359
 20
-3260.800705102476
 30
0.0
 11
-2698.290185699343
 21
-3260.800705102476
 31
0.0
  0
LINE
  5
1DD
330
1F
100
AcDbEntity
  8
0-7_金物
  6
Continuous
 62
     7
370
     5
100
AcDbLine
 10
-2692.290185699348
 20
-3260.800705102476
 30
0.0
 11
-2661.090185699349
 21
-3260.800705102476
 31
0.0
  0
LINE
  5
1DE
330
1F
100
AcDbEntity
  8
0-7_金物
  6
Continuous
 62
     7
370
     5
100
AcDbLine
 10
-2661.090185699349
 20
-3260.800705102476
 30
0.0
 11
-2659.290185699337
 21
-3262.600705102478
 31
0.0
  0
LINE
  5
1DF
330
1F
100
AcDbEntity
  8
0-7_金物
  6
Continuous
 62
     7
370
     5
100
AcDbLine
 10
-2659.290185699337
 20
-3262.600705102478
 30
0.0
 11
-2657.490185699352
 21
-3260.800705102476
 31
0.0
  0
LINE
  5
1E0
330
1F
100
AcDbEntity
  8
0-7_金物
  6
Continuous
 62
     7
370
     5
100
AcDbLine
 10
-2657.490185699352
 20
-3260.800705102476
 30
0.0
 11
-2626.290185699354
 21
-3260.800705102476
 31
0.0
  0
LINE
  5
1E1
330
1F
100
AcDbEntity
  8
0-7_金物
  6
Continuous
 62
     7
370
     5
100
AcDbLine
 10
-2620.290185699359
 20
-3260.800705102476
 30
0.0
 11
-2608.290185699343
 21
-3260.800705102476
 31
0.0
  0
LINE
  5
1E2
330
1F
100
AcDbEntity
  8
0-7_金物
  6
Continuous
 62
     7
370
     5
100
AcDbLine
 10
-2565.090185699355
 20
-3226.000705102477
 30
0.0
 11
-2601.090185699349
 21
-3226.000705102477
 31
0.0
  0
LINE
  5
1E3
330
1F
100
AcDbEntity
  8
0-7_金物
  6
Continuous
 62
     7
370
     5
100
AcDbLine
 10
-2717.490185699352
 20
-3226.000705102477
 30
0.0
 11
-2753.490185699347
 21
-3226.000705102477
 31
0.0
  0
LINE
  5
1E4
330
1F
100
AcDbEntity
  8
0-7_金物
  6
Continuous
 62
     7
370
     5
100
AcDbLine
 10
-2717.490185699352
 20
-3218.800705102477
 30
0.0
 11
-2753.490185699347
 21
-3222.400705102476
 31
0.0
  0
ARC
  5
1E5
330
1F
100
AcDbEntity
  8
0-7_金物
  6
Continuous
 62
     7
370
     5
100
AcDbCircle
 10
-2753.490185699347
 20
-3224.200705102478
 30
0.0
 40
1.8
100
AcDbArc
 50
90.0
 51
270.0
  0
ARC
  5
1E6
330
1F
100
AcDbEntity
  8
0-7_金物
  6
Continuous
 62
     7
370
     5
100
AcDbCircle
 10
-2565.090185699355
 20
-3224.200705102478
 30
0.0
 40
1.8
100
AcDbArc
 50
270.0
 51
89.99999999999997
  0
LINE
  5
1E7
330
1F
100
AcDbEntity
  8
0-7_金物
  6
Continuous
 62
     7
370
     5
100
AcDbLine
 10
-2565.090185699355
 20
-3222.400705102476
 30
0.0
 11
-2601.090185699349
 21
-3218.800705102477
 31
0.0
  0
LINE
  5
1E8
330
1F
100
AcDbEntity
  8
0-7_金物
  6
Continuous
 62
     7
370
     5
100
AcDbLine
 10
-2695.890185699345
 20
-3218.800705102477
 30
0.0
 11
-2717.490185699352
 21
-3218.800705102477
 31
0.0
  0
ARC
  5
1E9
330
1F
100
AcDbEntity
  8
0-7_金物
  6
Continuous
 62
     7
370
     5
100
AcDbCircle
 10
-2695.890185699345
 20
-3222.400705102476
 30
0.0
 40
3.600000000000001
100
AcDbArc
 50
0.0
 51
90.0
  0
ARC
  5
1EA
330
1F
100
AcDbEntity
  8
0-7_金物
  6
Continuous
 62
     7
370
     5
100
AcDbCircle
 10
-2695.890185699345
 20
-3222.400705102476
 30
0.0
 40
3.600000000000001
100
AcDbArc
 50
270.0
 51
0.0
  0
ARC
  5
1EB
330
1F
100
AcDbEntity
  8
0-7_金物
  6
Continuous
 62
     7
370
     5
100
AcDbCircle
 10
-2622.690185699357
 20
-3222.400705102476
 30
0.0
 40
3.600000000000001
100
AcDbArc
 50
180.0
 51
270.0
  0
LINE
  5
1EC
330
1F
100
AcDbEntity
  8
0-7_金物
  6
Continuous
 62
     7
370
     5
100
AcDbLine
 10
-2622.690185699357
 20
-3218.800705102477
 30
0.0
 11
-2601.090185699349
 21
-3218.800705102477
 31
0.0
  0
ARC
  5
1ED
330
1F
100
AcDbEntity
  8
0-7_金物
  6
Continuous
 62
     7
370
     5
100
AcDbCircle
 10
-2622.690185699357
 20
-3222.400705102476
 30
0.0
 40
3.600000000000001
100
AcDbArc
 50
90.0
 51
180.0
  0
LINE
  5
1EE
330
1F
100
AcDbEntity
  8
0-7_金物
  6
Continuous
 62
     7
370
     5
100
AcDbLine
 10
-2601.090185699349
 20
-3259.000705102477
 30
0.0
 11
-2601.090185699349
 21
-3226.000705102477
 31
0.0
  0
ARC
  5
1EF
330
1F
100
AcDbEntity
  8
0-7_金物
  6
Continuous
 62
     7
370
     5
100
AcDbCircle
 10
-2610.090185699355
 20
-3259.000705102477
 30
0.0
 40
9.000000000000002
100
AcDbArc
 50
270.0
 51
0.0
  0
LINE
  5
1F0
330
1F
100
AcDbEntity
  8
0-7_金物
  6
Continuous
 62
     7
370
     5
100
AcDbLine
 10
-2717.490185699352
 20
-3259.000705102477
 30
0.0
 11
-2717.490185699352
 21
-3226.000705102477
 31
0.0
  0
LINE
  5
1F1
330
1F
100
AcDbEntity
  8
0-7_金物
  6
Continuous
 62
     7
370
     5
100
AcDbLine
 10
-2708.490185699347
 20
-3268.000705102476
 30
0.0
 11
-2610.090185699355
 21
-3268.000705102476
 31
0.0
  0
ARC
  5
1F2
330
1F
100
AcDbEntity
  8
0-7_金物
  6
Continuous
 62
     7
370
     5
100
AcDbCircle
 10
-2708.490185699347
 20
-3259.000705102477
 30
0.0
 40
9.000000000000002
100
AcDbArc
 50
180.0
 51
270.0
  0
LINE
  5
1F3
330
1F
100
AcDbEntity
  8
0-7_金物
  6
Continuous
 62
     7
370
     5
100
AcDbLine
 10
-2707.290185699348
 20
-3226.000705102477
 30
0.0
 11
-2695.890185699345
 21
-3226.000705102477
 31
0.0
  0
LINE
  5
1F4
330
1F
100
AcDbEntity
  8
0-7_金物
  6
Continuous
 62
     7
370
     5
100
AcDbLine
 10
-2710.290185699359
 20
-3229.000705102477
 30
0.0
 11
-2710.290185699359
 21
-3260.800705102476
 31
0.0
  0
ARC
  5
1F5
330
1F
100
AcDbEntity
  8
0-7_金物
  6
Continuous
 62
     7
370
     5
100
AcDbCircle
 10
-2707.290185699348
 20
-3229.000705102477
 30
0.0
 40
3.0
100
AcDbArc
 50
90.0
 51
180.0
  0
LINE
  5
1F6
330
1F
100
AcDbEntity
  8
0-7_金物
  6
Continuous
 62
     7
370
     5
100
AcDbLine
 10
-2611.290185699354
 20
-3226.000705102477
 30
0.0
 11
-2622.690185699357
 21
-3226.000705102477
 31
0.0
  0
LINE
  5
1F7
330
1F
100
AcDbEntity
  8
0-7_金物
  6
Continuous
 62
     7
370
     5
100
AcDbLine
 10
-2608.290185699343
 20
-3229.000705102477
 30
0.0
 11
-2608.290185699343
 21
-3260.800705102476
 31
0.0
  0
ARC
  5
1F8
330
1F
100
AcDbEntity
  8
0-7_金物
  6
Continuous
 62
     7
370
     5
100
AcDbCircle
 10
-2611.290185699354
 20
-3229.000705102477
 30
0.0
 40
3.0
100
AcDbArc
 50
0.0
 51
90.0
  0
LINE
  5
1F9
330
1F
100
AcDbEntity
  8
0-7_金物
  6
Continuous
 62
     7
370
     5
100
AcDbLine
 10
-2698.290185699343
 20
-3256.000705102477
 30
0.0
 11
-2698.290185699343
 21
-3260.800705102476
 31
0.0
  0
ARC
  5
1FA
330
1F
100
AcDbEntity
  8
0-7_金物
  6
Continuous
 62
     7
370
     5
100
AcDbCircle
 10
-2697.090185699344
 20
-3256.000705102477
 30
0.0
 40
1.2
100
AcDbArc
 50
90.0
 51
180.0
  0
LINE
  5
1FB
330
1F
100
AcDbEntity
  8
0-7_金物
  6
Continuous
 62
     7
370
     5
100
AcDbLine
 10
-2693.490185699347
 20
-3254.800705102478
 30
0.0
 11
-2697.090185699344
 21
-3254.800705102478
 31
0.0
  0
LINE
  5
1FC
330
1F
100
AcDbEntity
  8
0-7_金物
  6
Continuous
 62
     7
370
     5
100
AcDbLine
 10
-2692.290185699348
 20
-3256.000705102477
 30
0.0
 11
-2692.290185699348
 21
-3260.800705102476
 31
0.0
  0
ARC
  5
1FD
330
1F
100
AcDbEntity
  8
0-7_金物
  6
Continuous
 62
     7
370
     5
100
AcDbCircle
 10
-2693.490185699347
 20
-3256.000705102477
 30
0.0
 40
1.2
100
AcDbArc
 50
0.0
 51
90.0
  0
LINE
  5
1FE
330
1F
100
AcDbEntity
  8
0-7_金物
  6
Continuous
 62
     7
370
     5
100
AcDbLine
 10
-2626.290185699354
 20
-3256.000705102477
 30
0.0
 11
-2626.290185699354
 21
-3260.800705102476
 31
0.0
  0
ARC
  5
1FF
330
1F
100
AcDbEntity
  8
0-7_金物
  6
Continuous
 62
     7
370
     5
100
AcDbCircle
 10
-2625.090185699355
 20
-3256.000705102477
 30
0.0
 40
1.2
100
AcDbArc
 50
90.0
 51
180.0
  0
LINE
  5
200
330
1F
100
AcDbEntity
  8
0-7_金物
  6
Continuous
 62
     7
370
     5
100
AcDbLine
 10
-2621.490185699358
 20
-3254.800705102478
 30
0.0
 11
-2625.090185699355
 21
-3254.800705102478
 31
0.0
  0
LINE
  5
201
330
1F
100
AcDbEntity
  8
0-7_金物
  6
Continuous
 62
     7
370
     5
100
AcDbLine
 10
-2620.290185699359
 20
-3256.000705102477
 30
0.0
 11
-2620.290185699359
 21
-3260.800705102476
 31
0.0
  0
ARC
  5
202
330
1F
100
AcDbEntity
  8
0-7_金物
  6
Continuous
 62
     7
370
     5
100
AcDbCircle
 10
-2621.490185699358
 20
-3256.000705102477
 30
0.0
 40
1.2
100
AcDbArc
 50
0.0
 51
90.0
  0
ARC
  5
203
330
1F
100
AcDbEntity
  8
0-7_金物
  6
JWW_DASHED1
 62
     7
370
     5
100
AcDbCircle
 10
-2753.490185699347
 20
-3224.200705102478
 30
0.0
 40
1.8
100
AcDbArc
 50
270.0
 51
90.0
  0
ARC
  5
204
330
1F
100
AcDbEntity
  8
0-7_金物
  6
JWW_DASHED1
 62
     7
370
     5
100
AcDbCircle
 10
-2565.090185699355
 20
-3224.200705102478
 30
0.0
 40
1.8
100
AcDbArc
 50
90.0
 51
270.0
  0
LINE
  5
205
330
1F
100
AcDbEntity
  8
0-B_寸法
  6
Continuous
 62
   120
370
     5
100
AcDbLine
 10
-3622.290185699349
 20
-249.8536340398266
 30
0.0
 11
-2950.290139922981
 21
-249.8536340398266
 31
0.0
  0
LINE
  5
206
330
1F
100
AcDbEntity
  8
0-B_寸法
  6
Continuous
 62
   120
370
     5
100
AcDbLine
 10
-1498.290185699342
 20
-249.9995550206484
 30
0.0
 11
-2068.290185699343
 21
-249.9995550206484
 31
0.0
  0
LWPOLYLINE
  5
207
330
1F
100
AcDbEntity
  8
0-B_寸法
  6
Continuous
 62
     7
370
     5
100
AcDbPolyline
 90
        4
 70
     1
 43
3.0
 10
-3620.790185699349
 20
-249.8536340398266
 42
0.4142135623731
 10
-3622.290185699349
 20
-248.3536340398266
 42
0.4142135623731
 10
-3623.790185699349
 20
-249.8536340398266
 42
0.4142135623731
 10
-3622.290185699349
 20
-251.3536340398266
 42
0.4142135623731
  0
LINE
  5
208
330
1F
100
AcDbEntity
  8
0-B_寸法
  6
Continuous
 62
   120
370
     5
100
AcDbLine
 10
-3622.290185699349
 20
-249.8536340398266
 30
0.0
 11
-3622.290185699349
 21
-3297.99994082065
 31
0.0
  0
LWPOLYLINE
  5
209
330
1F
100
AcDbEntity
  8
0-B_寸法
  6
Continuous
 62
     7
370
     5
100
AcDbPolyline
 90
        4
 70
     1
 43
3.0
 10
-1496.790185699342
 20
-249.9995550206484
 42
0.4142135623731
 10
-1498.290185699342
 20
-248.4995550206483
 42
0.4142135623731
 10
-1499.790185699342
 20
-249.9995550206484
 42
0.4142135623731
 10
-1498.290185699342
 20
-251.4995550206484
 42
0.4142135623731
  0
LINE
  5
20A
330
1F
100
AcDbEntity
  8
0-B_寸法
  6
Continuous
 62
   120
370
     5
100
AcDbLine
 10
-1498.290185699342
 20
-249.9995550206484
 30
0.0
 11
-1498.290185699342
 21
-3297.999941026771
 31
0.0
  0
LINE
  5
20B
330
1F
100
AcDbEntity
  8
0-B_寸法
  6
Continuous
 62
   120
370
     5
100
AcDbLine
 10
-2068.290185699343
 20
-297.9991294241532
 30
0.0
 11
-2068.290185699343
 21
-513.998946318683
 31
0.0
  0
LWPOLYLINE
  5
20C
330
1F
100
AcDbEntity
  8
0-B_寸法
  6
Continuous
 62
     7
370
     5
100
AcDbPolyline
 90
        4
 70
     1
 43
3.0
 10
-2066.790185699343
 20
-297.9991294241532
 42
0.4142135623731
 10
-2068.290185699343
 20
-296.4991294241532
 42
0.4142135623731
 10
-2069.790185699343
 20
-297.9991294241532
 42
0.4142135623731
 10
-2068.290185699343
 20
-299.4991294241532
 42
0.4142135623731
  0
LWPOLYLINE
  5
20D
330
1F
100
AcDbEntity
  8
0-B_寸法
  6
Continuous
 62
     7
370
     5
100
AcDbPolyline
 90
        4
 70
     1
 43
3.0
 10
-2066.790185699343
 20
-399.9991294241525
 42
0.4142135623731
 10
-2068.290185699343
 20
-398.4991294241525
 42
0.4142135623731
 10
-2069.790185699343
 20
-399.9991294241525
 42
0.4142135623731
 10
-2068.290185699343
 20
-401.4991294241525
 42
0.4142135623731
  0
LWPOLYLINE
  5
20E
330
1F
100
AcDbEntity
  8
0-B_寸法
  6
Continuous
 62
     7
370
     5
100
AcDbPolyline
 90
        4
 70
     1
 43
3.0
 10
-2066.790185699343
 20
-453.9991294241524
 42
0.4142135623731
 10
-2068.290185699343
 20
-452.4991294241524
 42
0.4142135623731
 10
-2069.790185699343
 20
-453.9991294241524
 42
0.4142135623731
 10
-2068.290185699343
 20
-455.4991294241524
 42
0.4142135623731
  0
LWPOLYLINE
  5
20F
330
1F
100
AcDbEntity
  8
0-B_寸法
  6
Continuous
 62
     7
370
     5
100
AcDbPolyline
 90
        4
 70
     1
 43
3.0
 10
-2066.790185699343
 20
-513.998946318683
 42
0.4142135623731
 10
-2068.290185699343
 20
-512.498946318683
 42
0.4142135623731
 10
-2069.790185699343
 20
-513.998946318683
 42
0.4142135623731
 10
-2068.290185699343
 20
-515.4989463186831
 42
0.4142135623731
  0
LWPOLYLINE
  5
210
330
1F
100
AcDbEntity
  8
0-B_寸法
  6
Continuous
 62
     7
370
     5
100
AcDbPolyline
 90
        4
 70
     1
 43
3.0
 10
-2066.790185699343
 20
-345.9991294241518
 42
0.4142135623731
 10
-2068.290185699343
 20
-344.4991294241517
 42
0.4142135623731
 10
-2069.790185699343
 20
-345.9991294241518
 42
0.4142135623731
 10
-2068.290185699343
 20
-347.4991294241518
 42
0.4142135623731
  0
LINE
  5
211
330
1F
100
AcDbEntity
  8
0-B_寸法
  6
Continuous
 62
   120
370
     5
100
AcDbLine
 10
-2179.784486291173
 20
-453.9991294241524
 30
0.0
 11
-2200.29023147571
 21
-453.9991294241524
 31
0.0
  0
LINE
  5
212
330
1F
100
AcDbEntity
  8
0-B_寸法
  6
Continuous
 62
   120
370
     5
100
AcDbLine
 10
-2068.290185699343
 20
-453.9991294241524
 30
0.0
 11
-2080.82247582136
 21
-453.9991294241524
 31
0.0
  0
LINE
  5
213
330
1F
100
AcDbEntity
  8
0-B_寸法
  6
Continuous
 62
   120
370
     5
100
AcDbLine
 10
-2068.290185699343
 20
-399.9991294241525
 30
0.0
 11
-2200.29023147571
 21
-399.9991294241525
 31
0.0
  0
LINE
  5
214
330
1F
100
AcDbEntity
  8
0-B_寸法
  6
Continuous
 62
   120
370
     5
100
AcDbLine
 10
-2179.784486291173
 20
-345.9991294241518
 30
0.0
 11
-2200.29023147571
 21
-345.9991294241518
 31
0.0
  0
LINE
  5
215
330
1F
100
AcDbEntity
  8
0-B_寸法
  6
Continuous
 62
   120
370
     5
100
AcDbLine
 10
-2068.290185699343
 20
-345.9991294241518
 30
0.0
 11
-2080.82247582136
 21
-345.9991294241518
 31
0.0
  0
LINE
  5
216
330
1F
100
AcDbEntity
  8
0-B_寸法
  6
Continuous
 62
   120
370
     5
100
AcDbLine
 10
-2200.29023147571
 20
-297.9995698670362
 30
0.0
 11
-1498.290185699342
 21
-297.9995698670362
 31
0.0
  0
LINE
  5
217
330
1F
100
AcDbEntity
  8
0-B_寸法
  6
Continuous
 62
   120
370
     5
100
AcDbLine
 10
-2200.29023147571
 20
-513.998946318683
 30
0.0
 11
-1858.290185699342
 21
-513.998946318683
 31
0.0
  0
LINE
  5
218
330
1F
100
AcDbEntity
  8
0-4_枠
  6
Continuous
 62
    92
370
     5
100
AcDbLine
 10
-2890.290185699359
 20
-513.9993719151794
 30
0.0
 11
-2743.290861973637
 21
-513.9993719151794
 31
0.0
  0
LINE
  5
219
330
1F
100
AcDbEntity
  8
0-4_枠
  6
Continuous
 62
    92
370
     5
100
AcDbLine
 10
-2743.290861973637
 20
-513.9993719151794
 30
0.0
 11
-2743.290861973637
 21
-393.9989141515075
 31
0.0
  0
LINE
  5
21A
330
1F
100
AcDbEntity
  8
0-4_枠
  6
Continuous
 62
    92
370
     5
100
AcDbLine
 10
-2743.290861973637
 20
-393.9989141515075
 30
0.0
 11
-2575.290609130734
 21
-393.9989141515075
 31
0.0
  0
LINE
  5
21B
330
1F
100
AcDbEntity
  8
0-4_枠
  6
Continuous
 62
    92
370
     5
100
AcDbLine
 10
-2575.290609130734
 20
-393.9989141515075
 30
0.0
 11
-2575.290609130734
 21
-513.9993719151794
 31
0.0
  0
LINE
  5
21C
330
1F
100
AcDbEntity
  8
0-7_金物
  6
Continuous
 62
     7
370
     5
100
AcDbLine
 10
-2725.469998130684
 20
-500.7871221593193
 30
0.0
 11
-2725.469998130684
 21
-434.7871221593201
 31
0.0
  0
LINE
  5
21D
330
1F
100
AcDbEntity
  8
0-7_金物
  6
Continuous
 62
     7
370
     5
100
AcDbLine
 10
-2725.469998130684
 20
-434.7871221593201
 30
0.0
 11
-2689.290832290535
 21
-434.7871221593201
 31
0.0
  0
LINE
  5
21E
330
1F
100
AcDbEntity
  8
0-7_金物
  6
Continuous
 62
     7
370
     5
100
AcDbLine
 10
-2689.290832290535
 20
-513.9993719151794
 30
0.0
 11
-2689.290832290535
 21
-417.9989141515082
 31
0.0
  0
LINE
  5
21F
330
1F
100
AcDbEntity
  8
0-7_金物
  6
Continuous
 62
     7
370
     5
100
AcDbLine
 10
-2689.290832290535
 20
-417.9989141515082
 30
0.0
 11
-2629.289144286995
 21
-417.9989141515082
 31
0.0
  0
LINE
  5
220
330
1F
100
AcDbEntity
  8
0-7_金物
  6
Continuous
 62
     7
370
     5
100
AcDbLine
 10
-2629.289144286995
 20
-417.9989141515082
 30
0.0
 11
-2629.289144286995
 21
-513.9993719151794
 31
0.0
  0
LINE
  5
221
330
1F
100
AcDbEntity
  8
0-7_金物
  6
Continuous
 62
     7
370
     5
100
AcDbLine
 10
-2593.470750579708
 20
-434.7871221593201
 30
0.0
 11
-2593.470750579708
 21
-500.7871221593193
 31
0.0
  0
LINE
  5
222
330
1F
100
AcDbEntity
  8
0-7_金物
  6
Continuous
 62
     7
370
     5
100
AcDbLine
 10
-2629.289144286995
 20
-434.7871221593201
 30
0.0
 11
-2593.470750579708
 21
-434.7871221593201
 31
0.0
  0
LINE
  5
223
330
1F
100
AcDbEntity
  8
0-7_金物
  6
Continuous
 62
     7
370
     5
100
AcDbLine
 10
-2575.290609130734
 20
-513.9993719151794
 30
0.0
 11
-2557.290838012586
 21
-513.9993719151794
 31
0.0
  0
LINE
  5
224
330
1F
100
AcDbEntity
  8
0-7_金物
  6
Continuous
 62
     7
370
     5
100
AcDbLine
 10
-2594.294725189083
 20
-519.9994634679131
 30
0.0
 11
-2594.294725189083
 21
-513.9993719151794
 31
0.0
  0
LINE
  5
225
330
1F
100
AcDbEntity
  8
0-7_金物
  6
Continuous
 62
     7
370
     5
100
AcDbLine
 10
-2587.290941009396
 20
-513.9993719151794
 30
0.0
 11
-2594.294725189083
 21
-513.9993719151794
 31
0.0
  0
LINE
  5
226
330
1F
100
AcDbEntity
  8
0-7_金物
  6
Continuous
 62
     7
370
     5
100
AcDbLine
 10
-2743.290861973637
 20
-513.9993719151794
 30
0.0
 11
-2761.28913999546
 21
-513.9993719151794
 31
0.0
  0
LINE
  5
227
330
1F
100
AcDbEntity
  8
0-7_金物
  6
Continuous
 62
     7
370
     5
100
AcDbLine
 10
-2723.504338035463
 20
-519.9994634679131
 30
0.0
 11
-2723.504338035463
 21
-513.9993719151794
 31
0.0
  0
LINE
  5
228
330
1F
100
AcDbEntity
  8
0-7_金物
  6
Continuous
 62
     7
370
     5
100
AcDbLine
 10
-2723.504338035463
 20
-513.9993719151794
 30
0.0
 11
-2731.291268596523
 21
-513.9993719151794
 31
0.0
  0
LINE
  5
229
330
1F
100
AcDbEntity
  8
0-7_金物
  6
Continuous
 62
     7
370
     5
100
AcDbLine
 10
-2557.290838012586
 20
-513.9993719151794
 30
0.0
 11
-2557.290838012586
 21
-519.9994634679131
 31
0.0
  0
LINE
  5
22A
330
1F
100
AcDbEntity
  8
0-7_金物
  6
Continuous
 62
     7
370
     5
100
AcDbLine
 10
-2723.504338035463
 20
-519.9994634679131
 30
0.0
 11
-2761.28913999546
 21
-519.9994634679131
 31
0.0
  0
LINE
  5
22B
330
1F
100
AcDbEntity
  8
0-7_金物
  6
Continuous
 62
     7
370
     5
100
AcDbLine
 10
-2761.28913999546
 20
-513.9993719151794
 30
0.0
 11
-2761.28913999546
 21
-519.9994634679131
 31
0.0
  0
LINE
  5
22C
330
1F
100
AcDbEntity
  8
0-7_金物
  6
Continuous
 62
     7
370
     5
100
AcDbLine
 10
-2647.290391692995
 20
-558.9994634679138
 30
0.0
 11
-2671.291072616468
 21
-558.9994634679138
 31
0.0
  0
LINE
  5
22D
330
1F
100
AcDbEntity
  8
0-7_金物
  6
Continuous
 62
     7
370
     5
100
AcDbLine
 10
-2647.290391692995
 20
-513.9993719151794
 30
0.0
 11
-2647.290391692995
 21
-558.9994634679138
 31
0.0
  0
LINE
  5
22E
330
1F
100
AcDbEntity
  8
0-7_金物
  6
Continuous
 62
     7
370
     5
100
AcDbLine
 10
-2671.291072616468
 20
-558.9994634679138
 30
0.0
 11
-2671.291072616468
 21
-513.9993719151794
 31
0.0
  0
LINE
  5
22F
330
1F
100
AcDbEntity
  8
0-7_金物
  6
Continuous
 62
     7
370
     5
100
AcDbLine
 10
-2689.290832290535
 20
-500.7871221593193
 30
0.0
 11
-2725.469998130684
 21
-500.7871221593193
 31
0.0
  0
LINE
  5
230
330
1F
100
AcDbEntity
  8
0-7_金物
  6
Continuous
 62
     7
370
     5
100
AcDbLine
 10
-2593.470750579708
 20
-500.7871221593193
 30
0.0
 11
-2629.289144286995
 21
-500.7871221593193
 31
0.0
  0
LINE
  5
231
330
1F
100
AcDbEntity
  8
0-7_金物
  6
Continuous
 62
     7
370
     5
100
AcDbLine
 10
-2629.289144286995
 20
-513.9993719151794
 30
0.0
 11
-2689.290832290535
 21
-513.9993719151794
 31
0.0
  0
LINE
  5
232
330
1F
100
AcDbEntity
  8
0-7_金物
  6
Continuous
 62
     7
370
     5
100
AcDbLine
 10
-2594.294725189083
 20
-519.9994634679131
 30
0.0
 11
-2557.290838012586
 21
-519.9994634679131
 31
0.0
  0
LINE
  5
233
330
1F
100
AcDbEntity
  8
0-4_枠
  6
Continuous
 62
    92
370
     5
100
AcDbLine
 10
-2890.290185699359
 20
-297.9995550206482
 30
0.0
 11
-2470.290185699359
 21
-297.9995550206482
 31
0.0
  0
LINE
  5
234
330
1F
100
AcDbEntity
  8
0-4_枠
  6
Continuous
 62
    92
370
     5
100
AcDbLine
 10
-2428.290185699343
 20
-513.9993719151794
 30
0.0
 11
-2575.290609130734
 21
-513.9993719151794
 31
0.0
  0
LINE
  5
235
330
1F
100
AcDbEntity
  8
0-B_寸法
  6
Continuous
 62
   120
370
     5
100
AcDbLine
 10
-2428.290185699343
 20
-809.4818943247847
 30
0.0
 11
-2890.290185699359
 21
-809.4818943247847
 31
0.0
  0
LWPOLYLINE
  5
236
330
1F
100
AcDbEntity
  8
0-B_寸法
  6
Continuous
 62
     7
370
     5
100
AcDbPolyline
 90
        4
 70
     1
 43
3.0
 10
-2888.790185699359
 20
-809.4818943247847
 42
0.4142135623731
 10
-2890.290185699359
 20
-807.9818943247847
 42
0.4142135623731
 10
-2891.790185699359
 20
-809.4818943247847
 42
0.4142135623731
 10
-2890.290185699359
 20
-810.9818943247848
 42
0.4142135623731
  0
LINE
  5
237
330
1F
100
AcDbEntity
  8
0-B_寸法
  6
Continuous
 62
   120
370
     5
100
AcDbLine
 10
-2890.290185699359
 20
-809.4818943247847
 30
0.0
 11
-2890.290185699359
 21
-655.7709469028887
 31
0.0
  0
LWPOLYLINE
  5
238
330
1F
100
AcDbEntity
  8
0-B_寸法
  6
Continuous
 62
     7
370
     5
100
AcDbPolyline
 90
        4
 70
     1
 43
3.0
 10
-2426.790185699343
 20
-809.4818943247847
 42
0.4142135623731
 10
-2428.290185699343
 20
-807.9818943247847
 42
0.4142135623731
 10
-2429.790185699343
 20
-809.4818943247847
 42
0.4142135623731
 10
-2428.290185699343
 20
-810.9818943247848
 42
0.4142135623731
  0
LINE
  5
239
330
1F
100
AcDbEntity
  8
0-B_寸法
  6
Continuous
 62
   120
370
     5
100
AcDbLine
 10
-2428.290185699343
 20
-809.4818943247847
 30
0.0
 11
-2428.290185699343
 21
-655.7709469028887
 31
0.0
  0
LINE
  5
23A
330
1F
100
AcDbEntity
  8
0-7_金物
  6
Continuous
 62
     7
370
     5
100
AcDbLine
 10
-2587.290941009396
 20
-513.9993719151794
 30
0.0
 11
-2587.290941009396
 21
-405.9992803624451
 31
0.0
  0
LINE
  5
23B
330
1F
100
AcDbEntity
  8
0-7_金物
  6
Continuous
 62
     7
370
     5
100
AcDbLine
 10
-2575.290609131416
 20
-513.9993719151794
 30
0.0
 11
-2575.290609131416
 21
-393.9989141524441
 31
0.0
  0
LINE
  5
23C
330
1F
100
AcDbEntity
  8
0-7_金物
  6
Continuous
 62
     7
370
     5
100
AcDbLine
 10
-2731.291268596523
 20
-513.9993719151794
 30
0.0
 11
-2731.291268596523
 21
-405.9992803624451
 31
0.0
  0
LINE
  5
23D
330
1F
100
AcDbEntity
  8
0-7_金物
  6
Continuous
 62
     7
370
     5
100
AcDbLine
 10
-2743.291600474531
 20
-513.9993719151794
 30
0.0
 11
-2743.291600474531
 21
-393.9989141524441
 31
0.0
  0
LINE
  5
23E
330
1F
100
AcDbEntity
  8
0-7_金物
  6
Continuous
 62
     7
370
     5
100
AcDbLine
 10
-2587.290941009396
 20
-405.9992803624451
 30
0.0
 11
-2731.291268596523
 21
-405.9992803624451
 31
0.0
  0
LINE
  5
23F
330
1F
100
AcDbEntity
  8
0-7_金物
  6
Continuous
 62
     7
370
     5
100
AcDbLine
 10
-2575.290609131416
 20
-393.9989141524441
 30
0.0
 11
-2743.291600474531
 21
-393.9989141524441
 31
0.0
  0
LINE
  5
240
330
1F
100
AcDbEntity
  8
0-7_金物
  6
Continuous
 62
     7
370
     5
100
AcDbLine
 10
-2569.289882430921
 20
-261.853971640536
 30
0.0
 11
-2749.289745101814
 21
-261.853971640536
 31
0.0
  0
LINE
  5
241
330
1F
100
AcDbEntity
  8
0-7_金物
  6
Continuous
 62
     7
370
     5
100
AcDbLine
 10
-2749.289745101814
 20
-249.8536340398266
 30
0.0
 11
-2749.289745101814
 21
-261.853971640536
 31
0.0
  0
LINE
  5
242
330
1F
100
AcDbEntity
  8
0-7_金物
  6
Continuous
 62
     7
370
     5
100
AcDbLine
 10
-2569.289882430921
 20
-249.8536340398266
 30
0.0
 11
-2569.289882430921
 21
-261.853971640536
 31
0.0
  0
LINE
  5
243
330
1F
100
AcDbEntity
  8
0-7_金物
  6
Continuous
 62
     7
370
     5
100
AcDbLine
 10
-2569.289882430921
 20
-249.8536340398266
 30
0.0
 11
-2749.289745101814
 21
-249.8536340398266
 31
0.0
  0
LINE
  5
244
330
1F
100
AcDbEntity
  8
0-7_金物
  6
Continuous
 62
     7
370
     5
100
AcDbLine
 10
-2599.289985427731
 20
-261.853971640536
 30
0.0
 11
-2599.289985427731
 21
-273.8535653752756
 31
0.0
  0
LINE
  5
245
330
1F
100
AcDbEntity
  8
0-7_金物
  6
Continuous
 62
     7
370
     5
100
AcDbLine
 10
-2719.289642104977
 20
-261.853971640536
 30
0.0
 11
-2719.289642104977
 21
-273.8535653752756
 31
0.0
  0
LINE
  5
246
330
1F
100
AcDbEntity
  8
0-7_金物
  6
Continuous
 62
     7
370
     5
100
AcDbLine
 10
-2599.289985427731
 20
-273.8535653752756
 30
0.0
 11
-2719.289642104977
 21
-273.8535653752756
 31
0.0
  0
LINE
  5
247
330
1F
100
AcDbEntity
  8
0-7_金物
  6
Continuous
 62
     7
370
     5
100
AcDbLine
 10
-2605.290151367062
 20
-273.8535653752756
 30
0.0
 11
-2605.290151367062
 21
-297.9995550206525
 31
0.0
  0
LINE
  5
248
330
1F
100
AcDbEntity
  8
0-7_金物
  6
Continuous
 62
     7
370
     5
100
AcDbLine
 10
-2713.290220031613
 20
-297.9995550206525
 30
0.0
 11
-2713.290220031613
 21
-273.8535653752756
 31
0.0
  0
LINE
  5
249
330
1F
100
AcDbEntity
  8
0-4_枠
  6
Continuous
 62
    92
370
     5
100
AcDbLine
 10
-2470.290185699359
 20
-297.9995550206482
 30
0.0
 11
-2470.290185699359
 21
-345.9995550206489
 31
0.0
  0
LINE
  5
24A
330
1F
100
AcDbEntity
  8
0-4_枠
  6
Continuous
 62
    92
370
     5
100
AcDbLine
 10
-2428.290185699343
 20
-345.9995550206489
 30
0.0
 11
-2470.290185699359
 21
-345.9995550206489
 31
0.0
  0
LINE
  5
24B
330
1F
100
AcDbEntity
  8
0-4_枠
  6
Continuous
 62
    92
370
     5
100
AcDbLine
 10
-2428.290185699343
 20
-345.9995550206489
 30
0.0
 11
-2428.290185699343
 21
-399.9995550206475
 31
0.0
  0
LINE
  5
24C
330
1F
100
AcDbEntity
  8
0-4_枠
  6
Continuous
 62
    92
370
     5
100
AcDbLine
 10
-2428.290185699343
 20
-399.9995550206475
 30
0.0
 11
-2488.290185699343
 21
-399.9995550206475
 31
0.0
  0
LINE
  5
24D
330
1F
100
AcDbEntity
  8
0-4_枠
  6
Continuous
 62
    92
370
     5
100
AcDbLine
 10
-2488.290185699343
 20
-399.9995550206475
 30
0.0
 11
-2488.290185699343
 21
-453.9995550206474
 31
0.0
  0
LINE
  5
24E
330
1F
100
AcDbEntity
  8
0-4_枠
  6
Continuous
 62
    92
370
     5
100
AcDbLine
 10
-2428.290185699343
 20
-453.9995550206474
 30
0.0
 11
-2488.290185699343
 21
-453.9995550206474
 31
0.0
  0
LINE
  5
24F
330
1F
100
AcDbEntity
  8
0-C_ハッチ
  6
Continuous
 62
   120
370
     5
100
AcDbLine
 10
-2431.390379493832
 20
-513.9993719151882
 30
0.0
 11
-2428.290185699343
 21
-510.8991781207024
 31
0.0
  0
LINE
  5
250
330
1F
100
AcDbEntity
  8
0-C_ハッチ
  6
Continuous
 62
   120
370
     5
100
AcDbLine
 10
-2490.787349113452
 20
-513.9993719151678
 30
0.0
 11
-2430.787532218937
 21
-453.9995550206393
 31
0.0
  0
LINE
  5
251
330
1F
100
AcDbEntity
  8
0-C_ハッチ
  6
Continuous
 62
   120
370
     5
100
AcDbLine
 10
-2550.184318733181
 20
-513.9993719151848
 30
0.0
 11
-2488.290185699343
 21
-452.1052388813682
 31
0.0
  0
LINE
  5
252
330
1F
100
AcDbEntity
  8
0-C_ハッチ
  6
Continuous
 62
   120
370
     5
100
AcDbLine
 10
-2436.184501838633
 20
-399.9995550206475
 30
0.0
 11
-2428.290185699343
 21
-392.1052388813601
 31
0.0
  0
LINE
  5
253
330
1F
100
AcDbEntity
  8
0-C_ハッチ
  6
Continuous
 62
   120
370
     5
100
AcDbLine
 10
-2575.290609130734
 20
-479.7086926931107
 30
0.0
 11
-2441.581471458275
 21
-345.9995550206489
 31
0.0
  0
LINE
  5
254
330
1F
100
AcDbEntity
  8
0-C_ハッチ
  6
Continuous
 62
   120
370
     5
100
AcDbLine
 10
-2575.290609130734
 20
-420.3117230734088
 30
0.0
 11
-2470.290185699359
 21
-315.3112996420103
 31
0.0
  0
LINE
  5
255
330
1F
100
AcDbEntity
  8
0-C_ハッチ
  6
Continuous
 62
   120
370
     5
100
AcDbLine
 10
-2608.374769828506
 20
-393.9989141515164
 30
0.0
 11
-2512.375410697641
 21
-297.999555020655
 31
0.0
  0
LINE
  5
256
330
1F
100
AcDbEntity
  8
0-C_ハッチ
  6
Continuous
 62
   120
370
     5
100
AcDbLine
 10
-2787.772197211797
 20
-513.999371915176
 30
0.0
 11
-2743.291600474531
 21
-469.5187751779113
 31
0.0
  0
LINE
  5
257
330
1F
100
AcDbEntity
  8
0-C_ハッチ
  6
Continuous
 62
   120
370
     5
100
AcDbLine
 10
-2667.771739448126
 20
-393.9989141515007
 30
0.0
 11
-2571.772380317288
 21
-297.9995550206525
 31
0.0
  0
LINE
  5
258
330
1F
100
AcDbEntity
  8
0-C_ハッチ
  6
Continuous
 62
   120
370
     5
100
AcDbLine
 10
-2847.169166831527
 20
-513.9993719151828
 30
0.0
 11
-2743.291600474531
 21
-410.1218055581937
 31
0.0
  0
LINE
  5
259
330
1F
100
AcDbEntity
  8
0-C_ハッチ
  6
Continuous
 62
   120
370
     5
100
AcDbLine
 10
-2727.168709067855
 20
-393.9989141515164
 30
0.0
 11
-2631.16934993699
 21
-297.9995550206482
 31
0.0
  0
LINE
  5
25A
330
1F
100
AcDbEntity
  8
0-C_ハッチ
  6
Continuous
 62
   120
370
     5
100
AcDbLine
 10
-2890.290185699359
 20
-497.7234211633713
 30
0.0
 11
-2690.566319556637
 21
-297.9995550206495
 31
0.0
  0
LINE
  5
25B
330
1F
100
AcDbEntity
  8
0-C_ハッチ
  6
Continuous
 62
   120
370
     5
100
AcDbLine
 10
-2890.290185699332
 20
-438.3264515436579
 30
0.0
 11
-2749.963289176339
 21
-297.9995550206495
 31
0.0
  0
LINE
  5
25C
330
1F
100
AcDbEntity
  8
0-C_ハッチ
  6
Continuous
 62
   120
370
     5
100
AcDbLine
 10
-2890.290185699359
 20
-378.9294819240243
 30
0.0
 11
-2809.360258795986
 21
-297.9995550206448
 31
0.0
  0
LINE
  5
25D
330
1F
100
AcDbEntity
  8
0-C_ハッチ
  6
Continuous
 62
   120
370
     5
100
AcDbLine
 10
-2890.290185699359
 20
-319.532512304319
 30
0.0
 11
-2868.757228415688
 21
-297.9995550206456
 31
0.0
  0
LINE
  5
25E
330
1F
100
AcDbEntity
  8
0-0_補助線
  6
JWW_HOJO
 62
   120
370
     5
100
AcDbLine
 10
-2888.975953721719
 20
-1797.999673791762
 30
0.0
 11
-2429.604417676955
 21
-1797.999673791762
 31
0.0
  0
LINE
  5
25F
330
1F
100
AcDbEntity
  8
0-0_補助線
  6
JWW_HOJO
 62
   120
370
     5
100
AcDbLine
 10
-2888.975953721719
 20
-1917.999673791762
 30
0.0
 11
-2429.604417676955
 21
-1917.999673791762
 31
0.0
  0
MTEXT
  5
260
330
1F
100
AcDbEntity
  8
0-B_寸法
  6
Continuous
 62
     7
370
   211
100
AcDbMText
 10
-3637.290185699353
 20
-2178.206787533295
 30
0.0
 40
91.4399999999998
 41
779.9999999999983
 46
0.0
 71
     7
 72
     1
  1
{\fＭＳ ゴシック|b0|i0|c128|p49;ＲＯＨ＝2,055}
 11
6.123031769111886E-17
 21
1.0
 31
0.0
 73
     1
 44
1.0
  0
MTEXT
  5
261
330
1F
100
AcDbEntity
  8
0-B_寸法
  6
Continuous
 62
     7
370
     0
100
AcDbMText
 10
-1873.289492867842
 20
-2211.279277888047
 30
0.0
 40
91.44000000000014
 41
660.0000000000009
 46
0.0
 71
     7
 72
     1
  1
{\fＭＳ ゴシック|b0|i0|c128|p49;ＤＨ＝1,983}
 11
6.123031769111886E-17
 21
1.0
 31
0.0
 73
     1
 44
1.0
  0
MTEXT
  5
262
330
1F
100
AcDbEntity
  8
0-B_寸法
  6
Continuous
 62
     7
370
     0
100
AcDbMText
 10
-1693.289492867841
 20
-2211.279277888047
 30
0.0
 40
91.44000000000014
 41
660.0000000000009
 46
0.0
 71
     7
 72
     1
  1
{\fＭＳ ゴシック|b0|i0|c128|p49;枠内＝1,999}
 11
6.123031769111886E-17
 21
1.0
 31
0.0
 73
     1
 44
1.0
  0
MTEXT
  5
263
330
1F
100
AcDbEntity
  8
0-B_寸法
  6
Continuous
 62
     7
370
     0
100
AcDbMText
 10
-1513.290977506793
 20
-2211.279277888047
 30
0.0
 40
91.44000000000014
 41
660.0000000000009
 46
0.0
 71
     7
 72
     1
  1
{\fＭＳ ゴシック|b0|i0|c128|p49;枠外＝2,047}
 11
6.123031769111886E-17
 21
1.0
 31
0.0
 73
     1
 44
1.0
  0
MTEXT
  5
264
330
1F
100
AcDbEntity
  8
0-A_文字
  6
Continuous
 62
     7
370
   211
100
AcDbMText
 10
-2777.890912204296
 20
-1324.495058745641
 30
0.0
 40
91.43999999999967
 41
239.9999999999991
 46
0.0
 71
     7
 72
     1
  1
{\fＭＳ ゴシック|b0|i0|c128|p49;(24)}
 73
     1
 44
1.0
  0
MTEXT
  5
265
330
1F
100
AcDbEntity
  8
0-A_文字
  6
Continuous
 62
     7
370
     0
100
AcDbMText
 10
-2656.262827027139
 20
-3666.907689124321
 30
0.0
 40
68.58000000000003
 41
1350.0
 46
0.0
 71
     7
 72
     1
  1
{\fＭＳ ゴシック|b0|i0|c128|p49;※扉厚（　）内はルーバーの場合}
 73
     1
 44
1.0
  0
LINE
  5
266
330
1F
100
AcDbEntity
  8
0-3_仕上げ
  6
Continuous
 62
    40
370
     5
100
AcDbLine
 10
-2395.290185699359
 20
-345.9995550206489
 30
0.0
 11
-2470.290185699359
 21
-345.9995550206489
 31
0.0
  0
LINE
  5
267
330
1F
100
AcDbEntity
  8
0-3_仕上げ
  6
Continuous
 62
   120
370
     5
100
AcDbLine
 10
-2470.290185699359
 20
-117.8536340398273
 30
0.0
 11
-2470.290185699359
 21
-297.8536340398273
 31
0.0
  0
LINE
  5
268
330
1F
100
AcDbEntity
  8
0-C_ハッチ
  6
JWW_DASHED1
 62
   120
370
     5
100
AcDbLine
 10
-2421.219137952366
 20
-345.9995550206502
 30
0.0
 11
-2395.290185699359
 21
-320.0706027676452
 31
0.0
  0
LINE
  5
269
330
1F
100
AcDbEntity
  8
0-C_ハッチ
  6
JWW_DASHED1
 62
   120
370
     5
100
AcDbLine
 10
-2463.645544823566
 20
-345.9995550206489
 30
0.0
 11
-2395.290185699359
 21
-277.6441958964486
 31
0.0
  0
LINE
  5
26A
330
1F
100
AcDbEntity
  8
0-C_ハッチ
  6
JWW_DASHED1
 62
   120
370
     5
100
AcDbLine
 10
-2470.290185699359
 20
-310.2177890252486
 30
0.0
 11
-2395.290185699359
 21
-235.217789025252
 31
0.0
  0
LINE
  5
26B
330
1F
100
AcDbEntity
  8
0-C_ハッチ
  6
JWW_DASHED1
 62
   120
370
     5
100
AcDbLine
 10
-2470.290185699359
 20
-267.791382154052
 30
0.0
 11
-2395.290185699359
 21
-192.7913821540392
 31
0.0
  0
LINE
  5
26C
330
1F
100
AcDbEntity
  8
0-C_ハッチ
  6
JWW_DASHED1
 62
   120
370
     5
100
AcDbLine
 10
-2470.290185699359
 20
-225.3649752828554
 30
0.0
 11
-2395.290185699359
 21
-150.3649752828439
 31
0.0
  0
LINE
  5
26D
330
1F
100
AcDbEntity
  8
0-C_ハッチ
  6
JWW_DASHED1
 62
   120
370
     5
100
AcDbLine
 10
-2470.290185699332
 20
-182.9385684116895
 30
0.0
 11
-2395.290185699359
 21
-107.9385684116963
 31
0.0
  0
LINE
  5
26E
330
1F
100
AcDbEntity
  8
0-C_ハッチ
  6
JWW_DASHED1
 62
   120
370
     5
100
AcDbLine
 10
-2470.290185699359
 20
-140.5121615404937
 30
0.0
 11
-2395.290185699359
 21
-65.51216154049968
 31
0.0
  0
LINE
  5
26F
330
1F
100
AcDbEntity
  8
0-3_仕上げ
  6
Continuous
 62
   120
370
     5
100
AcDbLine
 10
-2890.290185699359
 20
-69.8536340398266
 30
0.0
 11
-2470.290185699359
 21
-69.8536340398266
 31
0.0
  0
LINE
  5
270
330
1F
100
AcDbEntity
  8
0-3_仕上げ
  6
Continuous
 62
   120
370
     5
100
AcDbLine
 10
-2890.290185699359
 20
-249.8536340398266
 30
0.0
 11
-2890.290185699359
 21
-69.8536340398266
 31
0.0
  0
LINE
  5
271
330
1F
100
AcDbEntity
  8
0-3_仕上げ
  6
Continuous
 62
   120
370
     5
100
AcDbLine
 10
-2470.290185699359
 20
-249.8536340398266
 30
0.0
 11
-2890.290185699359
 21
-249.8536340398266
 31
0.0
  0
LINE
  5
272
330
1F
100
AcDbEntity
  8
0-3_仕上げ
  6
Continuous
 62
   120
370
     5
100
AcDbLine
 10
-2890.290185699359
 20
-249.8536340398266
 30
0.0
 11
-2470.290185699359
 21
-69.8536340398266
 31
0.0
  0
LINE
  5
273
330
1F
100
AcDbEntity
  8
0-3_仕上げ
  6
Continuous
 62
    40
370
     5
100
AcDbLine
 10
-2395.290185699359
 20
-345.9995550206489
 30
0.0
 11
-2395.290185699359
 21
2.00007402574073
 31
0.0
  0
LINE
  5
274
330
1F
100
AcDbEntity
  8
0-3_仕上げ
  6
Continuous
 62
    40
370
     5
100
AcDbLine
 10
-2470.290185699359
 20
-345.9995550206489
 30
0.0
 11
-2470.290185699359
 21
2.00007402574073
 31
0.0
  0
LINE
  5
275
330
1F
100
AcDbEntity
  8
0-C_ハッチ
  6
JWW_DASHED1
 62
   120
370
     5
100
AcDbLine
 10
-2470.290185699332
 20
-98.08575466929284
 30
0.0
 11
-2395.290185699359
 21
-23.08575466929071
 31
0.0
  0
LINE
  5
276
330
1F
100
AcDbEntity
  8
0-C_ハッチ
  6
JWW_DASHED1
 62
   120
370
     5
100
AcDbLine
 10
-2470.290185699359
 20
-55.65934779809368
 30
0.0
 11
-2412.630763875488
 21
2.00007402574073
 31
0.0
  0
LINE
  5
277
330
1F
100
AcDbEntity
  8
0-4_枠
  6
Continuous
 62
    92
370
     5
100
AcDbLine
 10
-2890.290185699359
 20
-297.9995550206482
 30
0.0
 11
-2890.290185699359
 21
-1797.999673791762
 31
0.0
  0
LINE
  5
278
330
1F
100
AcDbEntity
  8
0-4_枠
  6
Continuous
 62
    92
370
     5
100
AcDbLine
 10
-2890.290185699359
 20
-1917.999673791762
 30
0.0
 11
-2890.290185699359
 21
-3226.000334096355
 31
0.0
  0
LINE
  5
279
330
1F
100
AcDbEntity
  8
0-4_枠
  6
Continuous
 62
    92
370
     5
100
AcDbLine
 10
-2428.290185699343
 20
-3225.999592136621
 30
0.0
 11
-2428.290185699343
 21
-1917.999673791762
 31
0.0
  0
LINE
  5
27A
330
1F
100
AcDbEntity
  8
0-4_枠
  6
Continuous
 62
    92
370
     5
100
AcDbLine
 10
-2428.290185699343
 20
-1797.999673791762
 30
0.0
 11
-2428.290185699343
 21
-453.9995550206474
 31
0.0
  0
LINE
  5
27B
330
1F
100
AcDbEntity
  8
0-A_文字
  6
JWW_HOJO
 62
   120
370
     5
100
AcDbLine
 10
-2656.262827027139
 20
-3656.197689124322
 30
0.0
 11
-246.7390175033282
 21
-3656.197689124322
 31
0.0
  0
LINE
  5
27C
330
1F
100
AcDbEntity
  8
1-E
  6
JWW_DASHED1
 62
   120
370
     5
100
AcDbLine
 10
823.7810733981541
 20
-2857.680265755126
 30
0.0
 11
898.7810733981541
 21
-2782.680265755127
 31
0.0
  0
LINE
  5
27D
330
1F
100
AcDbEntity
  8
1-E
  6
JWW_DASHED1
 62
   120
370
     5
100
AcDbLine
 10
781.3546665269541
 20
-2857.680265755123
 30
0.0
 11
856.3546665269541
 21
-2782.680265755126
 31
0.0
  0
LINE
  5
27E
330
1F
100
AcDbEntity
  8
1-E
  6
JWW_DASHED1
 62
   120
370
     5
100
AcDbLine
 10
738.9282596557541
 20
-2857.68026575512
 30
0.0
 11
813.9282596557541
 21
-2782.680265755123
 31
0.0
  0
LINE
  5
27F
330
1F
100
AcDbEntity
  8
1-E
  6
JWW_DASHED1
 62
   120
370
     5
100
AcDbLine
 10
696.5018527846087
 20
-2857.680265755127
 30
0.0
 11
771.5018527846223
 21
-2782.680265755113
 31
0.0
  0
LINE
  5
280
330
1F
100
AcDbEntity
  8
1-E
  6
JWW_DASHED1
 62
   120
370
     5
100
AcDbLine
 10
654.075445913395
 20
-2857.680265755134
 30
0.0
 11
729.0754459134087
 21
-2782.680265755123
 31
0.0
  0
LINE
  5
281
330
1F
100
AcDbEntity
  8
1-E
  6
JWW_DASHED1
 62
   120
370
     5
100
AcDbLine
 10
611.6490390422089
 20
-2857.680265755133
 30
0.0
 11
686.6490390422086
 21
-2782.68026575512
 31
0.0
  0
LINE
  5
282
330
1F
100
AcDbEntity
  8
1-E
  6
JWW_DASHED1
 62
   120
370
     5
100
AcDbLine
 10
569.2226321709952
 20
-2857.680265755134
 30
0.0
 11
644.222632170995
 21
-2782.68026575514
 31
0.0
  0
LINE
  5
283
330
1F
100
AcDbEntity
  8
1-E
  6
JWW_DASHED1
 62
   120
370
     5
100
AcDbLine
 10
526.7962252998088
 20
-2857.680265755133
 30
0.0
 11
601.7962252997952
 21
-2782.680265755137
 31
0.0
  0
LINE
  5
284
330
1F
100
AcDbEntity
  8
1-E
  6
JWW_DASHED1
 62
   120
370
     5
100
AcDbLine
 10
484.3698184286088
 20
-2857.680265755127
 30
0.0
 11
559.3698184285952
 21
-2782.680265755133
 31
0.0
  0
LINE
  5
285
330
1F
100
AcDbEntity
  8
1-E
  6
JWW_DASHED1
 62
   120
370
     5
100
AcDbLine
 10
441.9434115574088
 20
-2857.680265755127
 30
0.0
 11
516.9434115574088
 21
-2782.68026575513
 31
0.0
  0
LINE
  5
286
330
1F
100
AcDbEntity
  8
1-E
  6
JWW_DASHED1
 62
   120
370
     5
100
AcDbLine
 10
399.5170046862634
 20
-2857.680265755119
 30
0.0
 11
474.5170046862634
 21
-2782.680265755123
 31
0.0
  0
LINE
  5
287
330
1F
100
AcDbEntity
  8
1-E
  6
Continuous
 62
    40
370
     5
100
AcDbLine
 10
270.9866567927613
 20
-2857.680265755133
 30
0.0
 11
270.9866567927613
 21
-2782.68026575513
 31
0.0
  0
LINE
  5
288
330
1F
100
AcDbEntity
  8
1-E
  6
JWW_DASHED1
 62
   120
370
     5
100
AcDbLine
 10
357.0905978150633
 20
-2857.680265755133
 30
0.0
 11
432.0905978150633
 21
-2782.68026575512
 31
0.0
  0
LINE
  5
289
330
1F
100
AcDbEntity
  8
1-E
  6
JWW_DASHED1
 62
   120
370
     5
100
AcDbLine
 10
314.6641909438633
 20
-2857.68026575513
 30
0.0
 11
389.6641909438633
 21
-2782.68026575512
 31
0.0
  0
LINE
  5
28A
330
1F
100
AcDbEntity
  8
1-E
  6
JWW_DASHED1
 62
   120
370
     5
100
AcDbLine
 10
272.2377840726497
 20
-2857.680265755141
 30
0.0
 11
347.2377840726633
 21
-2782.68026575513
 31
0.0
  0
LINE
  5
28B
330
1F
100
AcDbEntity
  8
1-E
  6
JWW_DASHED1
 62
   120
370
     5
100
AcDbLine
 10
270.9866567927613
 20
-2816.504986163822
 30
0.0
 11
304.8113772014497
 21
-2782.680265755141
 31
0.0
  0
MTEXT
  5
28C
330
1F
100
AcDbEntity
  8
1-E
  6
Continuous
 62
     7
370
     0
100
AcDbMText
 10
-585.295540949905
 20
36.08525395679286
 30
0.0
 40
91.43999999999997
 41
1440.0
 46
0.0
 71
     7
 72
     1
  1
{\fＭＳ ゴシック|b0|i0|c128|p49;竪枠下端形状図（S＝1/3）}
 73
     1
 44
1.0
  0
LINE
  5
28D
330
1F
100
AcDbEntity
  8
1-E
  6
Continuous
 62
    92
370
     5
100
AcDbLine
 10
1127.539139885384
 20
200.3652539567932
 30
0.0
 11
3113.208501555962
 21
200.3652539567932
 31
0.0
  0
LINE
  5
28E
330
1F
100
AcDbEntity
  8
1-E
  6
Continuous
 62
    92
370
     5
100
AcDbLine
 10
1127.539139885384
 20
20.36525395679149
 30
0.0
 11
3113.208501555962
 21
20.36525395679149
 31
0.0
  0
LINE
  5
28F
330
1F
100
AcDbEntity
  8
1-E
  6
Continuous
 62
    92
370
     5
100
AcDbLine
 10
-858.1302217851966
 20
20.3652539567932
 30
0.0
 11
1127.539139885384
 21
20.3652539567932
 31
0.0
  0
LINE
  5
290
330
1F
100
AcDbEntity
  8
1-E
  6
Continuous
 62
    92
370
     5
100
AcDbLine
 10
-858.1302217851966
 20
200.3652539567932
 30
0.0
 11
1127.539139885384
 21
200.3652539567932
 31
0.0
  0
MTEXT
  5
291
330
1F
100
AcDbEntity
  8
1-E
  6
Continuous
 62
     7
370
     5
100
AcDbMText
 10
1460.373820720674
 20
36.08525395679117
 30
0.0
 40
91.44
 41
1320.0
 46
0.0
 71
     7
 72
     1
  1
{\fＭＳ ゴシック|b0|i0|c128|p49;レール拡大図（S＝1/2）}
 73
     1
 44
1.0
  0
LINE
  5
292
330
1F
100
AcDbEntity
  8
1-E
  6
Continuous
 62
    92
370
     5
100
AcDbLine
 10
-858.1302217851966
 20
200.3652539567932
 30
0.0
 11
-858.1302217851966
 21
-3404.565202715166
 31
0.0
  0
LINE
  5
293
330
1F
100
AcDbEntity
  8
1-E
  6
Continuous
 62
    92
370
     5
100
AcDbLine
 10
-858.1302217851966
 20
-3404.565202715166
 30
0.0
 11
3113.208501555962
 21
-3404.565202715166
 31
0.0
  0
MTEXT
  5
294
330
1F
100
AcDbEntity
  8
1-E
  6
Continuous
 62
     7
370
   211
100
AcDbMText
 10
-44.89376124197534
 20
-243.7021483349468
 30
0.0
 40
68.58
 41
90.0
 46
0.0
 71
     7
 72
     1
  1
{\fＭＳ ゴシック|b0|i0|c128|p49;77}
 73
     1
 44
1.0
  0
LINE
  5
295
330
1F
100
AcDbEntity
  8
1-E
  6
Continuous
 62
    92
370
     5
100
AcDbLine
 10
-858.1302217851966
 20
-1784.565202715166
 30
0.0
 11
1127.539139885384
 21
-1784.565202715166
 31
0.0
  0
LINE
  5
296
330
1F
100
AcDbEntity
  8
1-E
  6
Continuous
 62
    92
370
     5
100
AcDbLine
 10
-858.1302217851966
 20
-1964.565202715166
 30
0.0
 11
1127.539139885384
 21
-1964.565202715166
 31
0.0
  0
LINE
  5
297
330
1F
100
AcDbEntity
  8
1-E
  6
Continuous
 62
    92
370
     5
100
AcDbLine
 10
1127.539139885384
 20
200.3652539567932
 30
0.0
 11
1127.539139885384
 21
-3404.565202715166
 31
0.0
  0
LINE
  5
298
330
1F
100
AcDbEntity
  8
1-E
  6
Continuous
 62
    92
370
     5
100
AcDbLine
 10
3113.208501555962
 20
200.3652539567932
 30
0.0
 11
3113.208501555962
 21
-3404.565202715166
 31
0.0
  0
MTEXT
  5
299
330
1F
100
AcDbEntity
  8
1-E
  6
Continuous
 62
     7
370
     0
100
AcDbMText
 10
1988.844155079399
 20
-406.3031884988466
 30
0.0
 40
91.43999999999998
 41
120.0
 46
0.0
 71
     7
 72
     1
  1
{\fＭＳ ゴシック|b0|i0|c128|p49;32}
 73
     1
 44
1.0
  0
MTEXT
  5
29A
330
1F
100
AcDbEntity
  8
1-E
  6
Continuous
 62
     7
370
   211
100
AcDbMText
 10
1573.163039551694
 20
-526.3032785669424
 30
0.0
 40
91.43999999999998
 41
240.0
 46
0.0
 71
     7
 72
     1
  1
{\fＭＳ ゴシック|b0|i0|c128|p49;10.5}
 73
     1
 44
1.0
  0
LINE
  5
29B
330
1F
100
AcDbEntity
  8
1-E
  6
JWW_HOJO
 62
   120
370
     5
100
AcDbLine
 10
-42.57144551907416
 20
-2914.680265755132
 30
0.0
 11
-42.57144551907416
 21
-2302.680265755131
 31
0.0
  0
LINE
  5
29C
330
1F
100
AcDbEntity
  8
1-E
  6
JWW_HOJO
 62
   120
370
     5
100
AcDbLine
 10
948.2681890114964
 20
-3214.680265755132
 30
0.0
 11
948.2681890114964
 21
-2302.680265755131
 31
0.0
  0
LINE
  5
29D
330
1F
100
AcDbEntity
  8
1-E
  6
JWW_HOJO
 62
   120
370
     5
100
AcDbLine
 10
-157.198099559068
 20
-3064.680265755132
 30
0.0
 11
948.2681890114964
 21
-3064.680265755132
 31
0.0
  0
LINE
  5
29E
330
1F
100
AcDbEntity
  8
1-E
  6
JWW_HOJO
 62
   120
370
     5
100
AcDbLine
 10
-42.57144551907416
 20
-2914.680265755132
 30
0.0
 11
948.2681890114964
 21
-2914.680265755132
 31
0.0
  0
LINE
  5
29F
330
1F
100
AcDbEntity
  8
1-E
  6
JWW_HOJO
 62
   120
370
     5
100
AcDbLine
 10
-157.198099559068
 20
-3214.680265755132
 30
0.0
 11
948.2681890114964
 21
-3214.680265755132
 31
0.0
  0
LINE
  5
2A0
330
1F
100
AcDbEntity
  8
1-E
  6
JWW_HOJO
 62
   120
370
     5
100
AcDbLine
 10
-157.198099559068
 20
-2362.680265755131
 30
0.0
 11
-157.198099559068
 21
-3214.680265755132
 31
0.0
  0
LINE
  5
2A1
330
1F
100
AcDbEntity
  8
1-E
  6
Continuous
 62
   120
370
     5
100
AcDbLine
 10
120.9875475761241
 20
-3064.680265755132
 30
0.0
 11
300.9866567927613
 21
-3064.680265755132
 31
0.0
  0
LWPOLYLINE
  5
2A2
330
1F
100
AcDbEntity
  8
1-E
  6
Continuous
 62
     7
370
     5
100
AcDbPolyline
 90
        4
 70
     1
 43
3.0
 10
122.4875475761241
 20
-3064.680265755132
 42
0.4142135623731
 10
120.9875475761241
 20
-3063.180265755132
 42
0.4142135623731
 10
119.4875475761241
 20
-3064.680265755132
 42
0.4142135623731
 10
120.9875475761241
 20
-3066.180265755132
 42
0.4142135623731
  0
LWPOLYLINE
  5
2A3
330
1F
100
AcDbEntity
  8
1-E
  6
Continuous
 62
     7
370
     5
100
AcDbPolyline
 90
        4
 70
     1
 43
3.0
 10
182.4866567927615
 20
-3064.680265755132
 42
0.4142135623731
 10
180.9866567927615
 20
-3063.180265755132
 42
0.4142135623731
 10
179.4866567927615
 20
-3064.680265755132
 42
0.4142135623731
 10
180.9866567927615
 20
-3066.180265755132
 42
0.4142135623731
  0
LINE
  5
2A4
330
1F
100
AcDbEntity
  8
1-E
  6
Continuous
 62
   120
370
     5
100
AcDbLine
 10
120.9875475761241
 20
-3214.680265755132
 30
0.0
 11
120.9875475761241
 21
-2914.680265755132
 31
0.0
  0
LINE
  5
2A5
330
1F
100
AcDbEntity
  8
1-E
  6
Continuous
 62
   120
370
     5
100
AcDbLine
 10
180.9866567927615
 20
-3064.680265755132
 30
0.0
 11
180.9866567927615
 21
-2914.680265755132
 31
0.0
  0
LWPOLYLINE
  5
2A6
330
1F
100
AcDbEntity
  8
1-E
  6
Continuous
 62
     7
370
     5
100
AcDbPolyline
 90
        4
 70
     1
 43
3.0
 10
236.4866567927531
 20
-3064.680265755132
 42
0.4142135623731
 10
234.9866567927531
 20
-3063.180265755132
 42
0.4142135623731
 10
233.4866567927531
 20
-3064.680265755132
 42
0.4142135623731
 10
234.9866567927531
 20
-3066.180265755132
 42
0.4142135623731
  0
LINE
  5
2A7
330
1F
100
AcDbEntity
  8
1-E
  6
Continuous
 62
   120
370
     5
100
AcDbLine
 10
234.9866567927531
 20
-3064.680265755132
 30
0.0
 11
234.9866567927531
 21
-2914.680265755132
 31
0.0
  0
LWPOLYLINE
  5
2A8
330
1F
100
AcDbEntity
  8
1-E
  6
Continuous
 62
     7
370
     5
100
AcDbPolyline
 90
        4
 70
     1
 43
3.0
 10
272.4866567927613
 20
-3064.680265755132
 42
0.4142135623731
 10
270.9866567927613
 20
-3063.180265755132
 42
0.4142135623731
 10
269.4866567927613
 20
-3064.680265755132
 42
0.4142135623731
 10
270.9866567927613
 20
-3066.180265755132
 42
0.4142135623731
  0
LINE
  5
2A9
330
1F
100
AcDbEntity
  8
1-E
  6
Continuous
 62
   120
370
     5
100
AcDbLine
 10
270.9866567927613
 20
-3064.680265755132
 30
0.0
 11
270.9866567927613
 21
-2914.680265755132
 31
0.0
  0
LWPOLYLINE
  5
2AA
330
1F
100
AcDbEntity
  8
1-E
  6
Continuous
 62
     7
370
     5
100
AcDbPolyline
 90
        4
 70
     1
 43
3.0
 10
302.4866567927613
 20
-3064.680265755132
 42
0.4142135623731
 10
300.9866567927613
 20
-3063.180265755132
 42
0.4142135623731
 10
299.4866567927613
 20
-3064.680265755132
 42
0.4142135623731
 10
300.9866567927613
 20
-3066.180265755132
 42
0.4142135623731
  0
LINE
  5
2AB
330
1F
100
AcDbEntity
  8
1-E
  6
Continuous
 62
   120
370
     5
100
AcDbLine
 10
300.9866567927613
 20
-3214.680265755132
 30
0.0
 11
300.9866567927613
 21
-2914.680265755132
 31
0.0
  0
LINE
  5
2AC
330
1F
100
AcDbEntity
  8
1-E
  6
Continuous
 62
   120
370
     5
100
AcDbLine
 10
120.9875475761241
 20
-3214.680265755132
 30
0.0
 11
300.9866567927613
 21
-3214.680265755132
 31
0.0
  0
LWPOLYLINE
  5
2AD
330
1F
100
AcDbEntity
  8
1-E
  6
Continuous
 62
     7
370
     5
100
AcDbPolyline
 90
        4
 70
     1
 43
3.0
 10
122.4875475761241
 20
-3214.680265755132
 42
0.4142135623731
 10
120.9875475761241
 20
-3213.180265755132
 42
0.4142135623731
 10
119.4875475761241
 20
-3214.680265755132
 42
0.4142135623731
 10
120.9875475761241
 20
-3216.180265755132
 42
0.4142135623731
  0
LWPOLYLINE
  5
2AE
330
1F
100
AcDbEntity
  8
1-E
  6
Continuous
 62
     7
370
     5
100
AcDbPolyline
 90
        4
 70
     1
 43
3.0
 10
302.4866567927613
 20
-3214.680265755132
 42
0.4142135623731
 10
300.9866567927613
 20
-3213.180265755132
 42
0.4142135623731
 10
299.4866567927613
 20
-3214.680265755132
 42
0.4142135623731
 10
300.9866567927613
 20
-3216.180265755132
 42
0.4142135623731
  0
LINE
  5
2AF
330
1F
100
AcDbEntity
  8
1-E
  6
Continuous
 62
   120
370
     5
100
AcDbLine
 10
252.9866567927504
 20
-3064.680265755132
 30
0.0
 11
342.9866567927504
 21
-3154.680265755132
 31
0.0
  0
LINE
  5
2B0
330
1F
100
AcDbEntity
  8
1-E
  6
Continuous
 62
   120
370
     5
100
AcDbLine
 10
342.9866567927504
 20
-3154.680265755132
 30
0.0
 11
399.5055880257726
 21
-3154.680265755132
 31
0.0
  0
LINE
  5
2B1
330
1F
100
AcDbEntity
  8
1-E
  6
Continuous
 62
   120
370
     5
100
AcDbLine
 10
285.9866567927613
 20
-3064.680265755132
 30
0.0
 11
345.9866567927613
 21
-3004.680265755132
 31
0.0
  0
LINE
  5
2B2
330
1F
100
AcDbEntity
  8
1-E
  6
Continuous
 62
   120
370
     5
100
AcDbLine
 10
345.9866567927613
 20
-3004.680265755132
 30
0.0
 11
401.6423406103333
 21
-3004.680265755132
 31
0.0
  0
LINE
  5
2B3
330
1F
100
AcDbEntity
  8
1-E
  6
JWW_HOJO
 62
   120
370
     5
100
AcDbLine
 10
948.2681890114964
 20
-2302.680265755131
 30
0.0
 11
-42.57144551907416
 21
-2302.680265755131
 31
0.0
  0
LINE
  5
2B4
330
1F
100
AcDbEntity
  8
1-E
  6
Continuous
 62
    92
370
     5
100
AcDbLine
 10
300.9866567927613
 20
-2362.680265755131
 30
0.0
 11
120.9875475761241
 21
-2362.680265755131
 31
0.0
  0
LINE
  5
2B5
330
1F
100
AcDbEntity
  8
1-E
  6
Continuous
 62
    92
370
     5
100
AcDbLine
 10
120.9875475761241
 20
-2449.67855347156
 30
0.0
 11
120.9875475761241
 21
-2362.680265755131
 31
0.0
  0
LINE
  5
2B6
330
1F
100
AcDbEntity
  8
1-E
  6
Continuous
 62
   120
370
     5
100
AcDbLine
 10
-301.5427750716885
 20
-2362.680265755131
 30
0.0
 11
-42.57144551907416
 21
-2362.680265755131
 31
0.0
  0
LINE
  5
2B7
330
1F
100
AcDbEntity
  8
1-E
  6
Continuous
 62
   120
370
     5
100
AcDbLine
 10
300.9866567927613
 20
-2467.687223762945
 30
0.0
 11
195.9803030059179
 21
-2362.680265755131
 31
0.0
  0
LINE
  5
2B8
330
1F
100
AcDbEntity
  8
1-E
  6
Continuous
 62
   120
370
     5
100
AcDbLine
 10
300.9866567927613
 20
-2510.11375063161
 30
0.0
 11
153.553865835202
 21
-2362.680265755131
 31
0.0
  0
LINE
  5
2B9
330
1F
100
AcDbEntity
  8
1-E
  6
Continuous
 62
   120
370
     5
100
AcDbLine
 10
300.9866567927613
 20
-2552.540277500276
 30
0.0
 11
122.057972248836
 21
-2373.610108317419
 31
0.0
  0
LINE
  5
2BA
330
1F
100
AcDbEntity
  8
1-E
  6
Continuous
 62
   120
370
     5
100
AcDbLine
 10
300.9866567927613
 20
-2425.260696894279
 30
0.0
 11
238.4064939282691
 21
-2362.680265755131
 31
0.0
  0
LINE
  5
2BB
330
1F
100
AcDbEntity
  8
1-E
  6
Continuous
 62
   120
370
     5
100
AcDbLine
 10
300.9866567927613
 20
-2382.834170025613
 30
0.0
 11
280.8330913515467
 21
-2362.680265755131
 31
0.0
  0
LINE
  5
2BC
330
1F
100
AcDbEntity
  8
1-E
  6
Continuous
 62
    92
370
     5
100
AcDbLine
 10
300.9866567927613
 20
-2782.68026575513
 30
0.0
 11
300.9866567927613
 21
-2362.680265755131
 31
0.0
  0
LINE
  5
2BD
330
1F
100
AcDbEntity
  8
1-E
  6
Continuous
 62
   120
370
     5
100
AcDbLine
 10
-493.8060299691092
 20
-2668.680265755146
 30
0.0
 11
156.9870724916613
 21
-2668.680265755146
 31
0.0
  0
LINE
  5
2BE
330
1F
100
AcDbEntity
  8
1-E
  6
Continuous
 62
   120
370
     5
100
AcDbLine
 10
-301.5427750716885
 20
-2824.680265755132
 30
0.0
 11
-301.5427750716885
 21
-2362.680265755131
 31
0.0
  0
LINE
  5
2BF
330
1F
100
AcDbEntity
  8
1-E
  6
Continuous
 62
   120
370
     5
100
AcDbLine
 10
-157.1980995833378
 20
-2824.680265755132
 30
0.0
 11
-157.1980995833378
 21
-2362.680265755131
 31
0.0
  0
LWPOLYLINE
  5
2C0
330
1F
100
AcDbEntity
  8
1-E
  6
Continuous
 62
     7
370
     5
100
AcDbPolyline
 90
        4
 70
     1
 43
3.0
 10
-300.0427750716885
 20
-2824.680265755132
 42
0.4142135623731
 10
-301.5427750716885
 20
-2823.180265755132
 42
0.4142135623731
 10
-303.0427750716886
 20
-2824.680265755132
 42
0.4142135623731
 10
-301.5427750716885
 20
-2826.180265755132
 42
0.4142135623731
  0
LWPOLYLINE
  5
2C1
330
1F
100
AcDbEntity
  8
1-E
  6
Continuous
 62
     7
370
     5
100
AcDbPolyline
 90
        4
 70
     1
 43
3.0
 10
-155.6980995833378
 20
-2824.680265755132
 42
0.4142135623731
 10
-157.1980995833378
 20
-2823.180265755132
 42
0.4142135623731
 10
-158.6980995833378
 20
-2824.680265755132
 42
0.4142135623731
 10
-157.1980995833378
 20
-2826.180265755132
 42
0.4142135623731
  0
LINE
  5
2C2
330
1F
100
AcDbEntity
  8
1-E
  6
Continuous
 62
   120
370
     5
100
AcDbLine
 10
-301.5427750716885
 20
-2824.680265755132
 30
0.0
 11
-42.57144551907416
 21
-2824.680265755132
 31
0.0
  0
LINE
  5
2C3
330
1F
100
AcDbEntity
  8
1-E
  6
Continuous
 62
   120
370
     5
100
AcDbLine
 10
234.141801611486
 20
-2782.68026575513
 30
0.0
 11
145.9220585030612
 21
-2694.461367291238
 31
0.0
  0
LINE
  5
2C4
330
1F
100
AcDbEntity
  8
1-E
  6
Continuous
 62
   120
370
     5
100
AcDbLine
 10
270.9866567927613
 20
-2819.524768171763
 30
0.0
 11
234.9866567927531
 21
-2783.525112847479
 31
0.0
  0
LINE
  5
2C5
330
1F
100
AcDbEntity
  8
1-E
  6
Continuous
 62
   120
370
     5
100
AcDbLine
 10
148.8630604426275
 20
-2824.680265755132
 30
0.0
 11
120.9875475761241
 21
-2796.804952331356
 31
0.0
  0
LINE
  5
2C6
330
1F
100
AcDbEntity
  8
1-E
  6
Continuous
 62
   120
370
     5
100
AcDbLine
 10
180.9866567927615
 20
-2814.378040849702
 30
0.0
 11
120.9875475761241
 21
-2754.37916778216
 31
0.0
  0
LINE
  5
2C7
330
1F
100
AcDbEntity
  8
1-E
  6
Continuous
 62
   120
370
     5
100
AcDbLine
 10
191.7158855937446
 20
-2782.68026575513
 30
0.0
 11
130.7015401331232
 21
-2721.666633470504
 31
0.0
  0
LINE
  5
2C8
330
1F
100
AcDbEntity
  8
1-E
  6
Continuous
 62
   120
370
     5
100
AcDbLine
 10
276.5687167250464
 20
-2782.68026575513
 30
0.0
 11
156.9870724916613
 21
-2663.099854411169
 31
0.0
  0
LINE
  5
2C9
330
1F
100
AcDbEntity
  8
1-E
  6
Continuous
 62
    92
370
     5
100
AcDbLine
 10
270.9866567927613
 20
-2782.68026575513
 30
0.0
 11
300.9866567927613
 21
-2782.68026575513
 31
0.0
  0
LINE
  5
2CA
330
1F
100
AcDbEntity
  8
1-E
  6
Continuous
 62
    92
370
     5
100
AcDbLine
 10
120.9866567927615
 20
-2824.680265755132
 30
0.0
 11
180.9866567927615
 21
-2824.680265755132
 31
0.0
  0
LINE
  5
2CB
330
1F
100
AcDbEntity
  8
1-E
  6
Continuous
 62
    92
370
     5
100
AcDbLine
 10
120.9866567927615
 20
-2824.680265755132
 30
0.0
 11
120.9866567927615
 21
-2737.680265755131
 31
0.0
  0
LINE
  5
2CC
330
1F
100
AcDbEntity
  8
1-E
  6
Continuous
 62
    92
370
     5
100
AcDbLine
 10
270.9866567927613
 20
-2782.68026575513
 30
0.0
 11
270.9866567927613
 21
-2824.680265755132
 31
0.0
  0
LINE
  5
2CD
330
1F
100
AcDbEntity
  8
1-E
  6
Continuous
 62
    92
370
     5
100
AcDbLine
 10
234.9866567927531
 20
-2824.680265755132
 30
0.0
 11
270.9866567927613
 21
-2824.680265755132
 31
0.0
  0
LINE
  5
2CE
330
1F
100
AcDbEntity
  8
1-E
  6
Continuous
 62
    92
370
     5
100
AcDbLine
 10
234.9866567927531
 20
-2782.68026575513
 30
0.0
 11
234.9866567927531
 21
-2824.680265755132
 31
0.0
  0
LINE
  5
2CF
330
1F
100
AcDbEntity
  8
1-E
  6
Continuous
 62
    92
370
     5
100
AcDbLine
 10
234.9866567927531
 20
-2782.68026575513
 30
0.0
 11
180.9866567927615
 21
-2782.68026575513
 31
0.0
  0
LINE
  5
2D0
330
1F
100
AcDbEntity
  8
1-E
  6
Continuous
 62
    92
370
     5
100
AcDbLine
 10
180.9866567927615
 20
-2782.68026575513
 30
0.0
 11
180.9866567927615
 21
-2824.680265755132
 31
0.0
  0
LWPOLYLINE
  5
2D1
330
1F
100
AcDbEntity
  8
1-E
  6
Continuous
 62
     7
370
     5
100
AcDbPolyline
 90
        4
 70
     1
 43
3.0
 10
-300.0427750716885
 20
-2362.680265755131
 42
0.4142135623731
 10
-301.5427750716885
 20
-2361.180265755131
 42
0.4142135623731
 10
-303.0427750716886
 20
-2362.680265755131
 42
0.4142135623731
 10
-301.5427750716885
 20
-2364.180265755131
 42
0.4142135623731
  0
LWPOLYLINE
  5
2D2
330
1F
100
AcDbEntity
  8
1-E
  6
Continuous
 62
     7
370
     5
100
AcDbPolyline
 90
        4
 70
     1
 43
3.0
 10
-155.6980995833378
 20
-2362.680265755131
 42
0.4142135623731
 10
-157.1980995833378
 20
-2361.180265755131
 42
0.4142135623731
 10
-158.6980995833378
 20
-2362.680265755131
 42
0.4142135623731
 10
-157.1980995833378
 20
-2364.180265755131
 42
0.4142135623731
  0
LWPOLYLINE
  5
2D3
330
1F
100
AcDbEntity
  8
1-E
  6
Continuous
 62
     7
370
     5
100
AcDbPolyline
 90
        4
 70
     1
 43
3.0
 10
-155.6980995833378
 20
-2518.680265755132
 42
0.4142135623731
 10
-157.1980995833378
 20
-2517.180265755132
 42
0.4142135623731
 10
-158.6980995833378
 20
-2518.680265755132
 42
0.4142135623731
 10
-157.1980995833378
 20
-2520.180265755132
 42
0.4142135623731
  0
LWPOLYLINE
  5
2D4
330
1F
100
AcDbEntity
  8
1-E
  6
Continuous
 62
     7
370
     5
100
AcDbPolyline
 90
        4
 70
     1
 43
3.0
 10
-155.6980995833378
 20
-2668.680265755132
 42
0.4142135623731
 10
-157.1980995833378
 20
-2667.180265755132
 42
0.4142135623731
 10
-158.6980995833378
 20
-2668.680265755132
 42
0.4142135623731
 10
-157.1980995833378
 20
-2670.180265755132
 42
0.4142135623731
  0
LINE
  5
2D5
330
1F
100
AcDbEntity
  8
1-E
  6
Continuous
 62
   120
370
     5
100
AcDbLine
 10
-157.1980995833378
 20
-2518.680265755132
 30
0.0
 11
-42.57144551907416
 21
-2518.680265755132
 31
0.0
  0
LINE
  5
2D6
330
1F
100
AcDbEntity
  8
1-E
  6
Continuous
 62
   120
370
     5
100
AcDbLine
 10
-157.1980995833378
 20
-2668.680265755132
 30
0.0
 11
-42.57144551907416
 21
-2668.680265755132
 31
0.0
  0
LINE
  5
2D7
330
1F
100
AcDbEntity
  8
1-E
  6
Continuous
 62
   120
370
     5
100
AcDbLine
 10
300.9866567927613
 20
-2637.393331237607
 30
0.0
 11
132.9863994553357
 21
-2469.392331580723
 31
0.0
  0
LINE
  5
2D8
330
1F
100
AcDbEntity
  8
1-E
  6
Continuous
 62
   120
370
     5
100
AcDbLine
 10
300.9866567927613
 20
-2594.966804368942
 30
0.0
 11
120.9875475761241
 21
-2414.966210513367
 31
0.0
  0
LINE
  5
2D9
330
1F
100
AcDbEntity
  8
1-E
  6
Continuous
 62
   120
370
     5
100
AcDbLine
 10
300.9866567927613
 20
-2679.819858106273
 30
0.0
 11
156.9870724916613
 21
-2535.819531485707
 31
0.0
  0
LINE
  5
2DA
330
1F
100
AcDbEntity
  8
1-E
  6
Continuous
 62
   120
370
     5
100
AcDbLine
 10
300.9866567927613
 20
-2764.672169524135
 30
0.0
 11
156.9870724916613
 21
-2620.674069861973
 31
0.0
  0
LINE
  5
2DB
330
1F
100
AcDbEntity
  8
1-E
  6
Continuous
 62
   120
370
     5
100
AcDbLine
 10
300.9866567927613
 20
-2722.246384974938
 30
0.0
 11
156.9870724916613
 21
-2578.246058354373
 31
0.0
  0
LINE
  5
2DC
330
1F
100
AcDbEntity
  8
1-E
  6
Continuous
 62
    92
370
     5
100
AcDbLine
 10
120.9875475761241
 20
-2812.680196471981
 30
0.0
 11
120.9875475761241
 21
-2737.676979754287
 31
0.0
  0
LINE
  5
2DD
330
1F
100
AcDbEntity
  8
1-E
  6
Continuous
 62
    92
370
     5
100
AcDbLine
 10
156.9870724916613
 20
-2514.631506913282
 30
0.0
 11
156.9870724916613
 21
-2672.724768632032
 31
0.0
  0
ARC
  5
2DE
330
1F
100
AcDbEntity
  8
1-E
  6
Continuous
 62
    92
370
     5
100
AcDbCircle
 10
-479.0129473035263
 20
-2362.677969513579
 30
0.0
 40
707.5483889193149
100
AcDbArc
 50
327.9947052001953
 51
334.0110321044921
  0
ARC
  5
2DF
330
1F
100
AcDbEntity
  8
1-E
  6
Continuous
 62
    92
370
     5
100
AcDbCircle
 10
-479.0129473035263
 20
-2824.677563712268
 30
0.0
 40
707.5483889193149
100
AcDbArc
 50
25.9889678955078
 51
32.00529479980467
  0
LINE
  5
2E0
330
1F
100
AcDbEntity
  8
1-E
  6
Continuous
 62
     7
370
     5
100
AcDbLine
 10
312.9869933109105
 20
-2624.10289792099
 30
0.0
 11
312.9869933109105
 21
-2564.102699969132
 31
0.0
  0
LINE
  5
2E1
330
1F
100
AcDbEntity
  8
1-E
  6
Continuous
 62
     7
370
     5
100
AcDbLine
 10
300.9866567927613
 20
-2564.102699969132
 30
0.0
 11
318.9871615699988
 21
-2564.102699969132
 31
0.0
  0
LINE
  5
2E2
330
1F
100
AcDbEntity
  8
1-E
  6
Continuous
 62
     7
370
     5
100
AcDbLine
 10
318.9871615699988
 20
-2624.10289792099
 30
0.0
 11
300.9866567927613
 21
-2624.10289792099
 31
0.0
  0
LINE
  5
2E3
330
1F
100
AcDbEntity
  8
1-E
  6
Continuous
 62
     7
370
     5
100
AcDbLine
 10
318.9871615699988
 20
-2534.102600993202
 30
0.0
 11
330.986755768686
 21
-2534.102600993202
 31
0.0
  0
LINE
  5
2E4
330
1F
100
AcDbEntity
  8
1-E
  6
Continuous
 62
     7
370
     5
100
AcDbLine
 10
318.9871615699988
 20
-2654.10299689692
 30
0.0
 11
318.9871615699988
 21
-2534.102600993202
 31
0.0
  0
LINE
  5
2E5
330
1F
100
AcDbEntity
  8
1-E
  6
Continuous
 62
     7
370
     5
100
AcDbLine
 10
330.986755768686
 20
-2654.10299689692
 30
0.0
 11
318.9871615699988
 21
-2654.10299689692
 31
0.0
  0
LINE
  5
2E6
330
1F
100
AcDbEntity
  8
1-E
  6
Continuous
 62
   120
370
     5
100
AcDbLine
 10
-493.8060299691092
 20
-2518.680265755146
 30
0.0
 11
156.9870724916613
 21
-2518.680265755146
 31
0.0
  0
MTEXT
  5
2E7
330
1F
100
AcDbEntity
  8
1-E
  6
Continuous
 62
     7
370
   211
100
AcDbMText
 10
1988.844155079399
 20
-526.3032785669424
 30
0.0
 40
91.43999999999998
 41
120.0
 46
0.0
 71
     7
 72
     1
  1
{\fＭＳ ゴシック|b0|i0|c128|p49;11}
 73
     1
 44
1.0
  0
MTEXT
  5
2E8
330
1F
100
AcDbEntity
  8
1-E
  6
Continuous
 62
     7
370
   211
100
AcDbMText
 10
2290.09624556438
 20
-526.3032785669424
 30
0.0
 40
91.43999999999998
 41
240.0
 46
0.0
 71
     7
 72
     1
  1
{\fＭＳ ゴシック|b0|i0|c128|p49;10.5}
 73
     1
 44
1.0
  0
MTEXT
  5
2E9
330
1F
100
AcDbEntity
  8
1-E
  6
Continuous
 62
     7
370
   211
100
AcDbMText
 10
2204.244650453923
 20
-646.3032785669424
 30
0.0
 40
91.43999999999998
 41
180.0
 46
0.0
 71
     7
 72
     1
  1
{\fＭＳ ゴシック|b0|i0|c128|p49;6.3}
 73
     1
 44
1.0
  0
MTEXT
  5
2EA
330
1F
100
AcDbEntity
  8
1-E
  6
Continuous
 62
     7
370
   211
100
AcDbMText
 10
1710.689896156353
 20
-649.0108550119822
 30
0.0
 40
91.43999999999998
 41
180.0
 46
0.0
 71
     7
 72
     1
  1
{\fＭＳ ゴシック|b0|i0|c128|p49;6.3}
 73
     1
 44
1.0
  0
MTEXT
  5
2EB
330
1F
100
AcDbEntity
  8
1-E
  6
Continuous
 62
     7
370
     0
100
AcDbMText
 10
2882.757416255156
 20
-830.8872271618978
 30
0.0
 40
91.43999999999998
 41
180.0
 46
0.0
 71
     7
 72
     1
  1
{\fＭＳ ゴシック|b0|i0|c128|p49;1.2}
 11
6.123031769111886E-17
 21
1.0
 31
0.0
 73
     1
 44
1.0
  0
MTEXT
  5
2EC
330
1F
100
AcDbEntity
  8
1-E
  6
Continuous
 62
     7
370
     0
100
AcDbMText
 10
2880.23643660458
 20
-930.9021601104519
 30
0.0
 40
91.44000000000064
 41
60.00000000000043
 46
0.0
 71
     7
 72
     1
  1
{\fＭＳ ゴシック|b0|i0|c128|p49;7}
 11
6.123031769111886E-17
 21
1.0
 31
0.0
 73
     1
 44
1.0
  0
MTEXT
  5
2ED
330
1F
100
AcDbEntity
  8
1-E
  6
Continuous
 62
     7
370
     0
100
AcDbMText
 10
2881.496926429875
 20
-1020.902160110452
 30
0.0
 40
91.44000000000064
 41
60.00000000000043
 46
0.0
 71
     7
 72
     1
  1
{\fＭＳ ゴシック|b0|i0|c128|p49;5}
 11
6.123031769111886E-17
 21
1.0
 31
0.0
 73
     1
 44
1.0
  0
MTEXT
  5
2EE
330
1F
100
AcDbEntity
  8
1-E
  6
Continuous
 62
     7
370
     0
100
AcDbMText
 10
1988.844227979474
 20
-1198.49705111763
 30
0.0
 40
91.44
 41
120.0
 46
0.0
 71
     7
 72
     1
  1
{\fＭＳ ゴシック|b0|i0|c128|p49;23}
 73
     1
 44
1.0
  0
MTEXT
  5
2EF
330
1F
100
AcDbEntity
  8
1-E
  6
Continuous
 62
     7
370
     0
100
AcDbMText
 10
2329.735740926019
 20
-1199.960679704666
 30
0.0
 40
91.44
 41
600.0
 46
0.0
 71
     7
 72
     1
  1
{\fＭＳ ゴシック|b0|i0|c128|p49;下地ベース}
 73
     1
 44
1.0
  0
LINE
  5
2F0
330
1F
100
AcDbEntity
  8
1-E
  6
Continuous
 62
    92
370
     5
100
AcDbLine
 10
115.107113045393
 20
-1231.824859316163
 30
0.0
 11
115.107113045393
 21
-1181.825374815791
 31
0.0
  0
LINE
  5
2F1
330
1F
100
AcDbEntity
  8
1-E
  6
Continuous
 62
    92
370
     5
100
AcDbLine
 10
-114.8931508904197
 20
-1231.824859316163
 30
0.0
 11
-114.8931508904197
 21
-1181.825374815791
 31
0.0
  0
LINE
  5
2F2
330
1F
100
AcDbEntity
  8
1-E
  6
Continuous
 62
    92
370
     5
100
AcDbLine
 10
-99.89384372191935
 20
-1251.825172739938
 30
0.0
 11
100.1063212379687
 21
-1251.825172739938
 31
0.0
  0
LINE
  5
2F3
330
1F
100
AcDbEntity
  8
1-E
  6
Continuous
 62
    92
370
     5
100
AcDbLine
 10
-114.8931508904197
 20
-1231.824859316163
 30
0.0
 11
-99.89384372191935
 21
-1231.824859316163
 31
0.0
  0
LINE
  5
2F4
330
1F
100
AcDbEntity
  8
1-E
  6
Continuous
 62
    92
370
     5
100
AcDbLine
 10
-99.89384372191935
 20
-1251.825172739938
 30
0.0
 11
-99.89384372191935
 21
-1231.824859316163
 31
0.0
  0
LINE
  5
2F5
330
1F
100
AcDbEntity
  8
1-E
  6
Continuous
 62
    92
370
     5
100
AcDbLine
 10
100.1063212379687
 20
-1251.825172739938
 30
0.0
 11
100.1063212379687
 21
-1231.824859316163
 31
0.0
  0
LINE
  5
2F6
330
1F
100
AcDbEntity
  8
1-E
  6
Continuous
 62
    92
370
     5
100
AcDbLine
 10
115.107113045393
 20
-1231.824859316163
 30
0.0
 11
100.1063212379687
 21
-1231.824859316163
 31
0.0
  0
LINE
  5
2F7
330
1F
100
AcDbEntity
  8
1-E
  6
JWW_HOJO
 62
   120
370
     5
100
AcDbLine
 10
-443.0633686607042
 20
-1379.33482701702
 30
0.0
 11
700.1067666138874
 21
-1379.33482701702
 31
0.0
  0
LINE
  5
2F8
330
1F
100
AcDbEntity
  8
1-E
  6
JWW_HOJO
 62
   120
370
     5
100
AcDbLine
 10
-443.0633686607042
 20
-1559.33482701702
 30
0.0
 11
880.1067666138874
 21
-1559.33482701702
 31
0.0
  0
LINE
  5
2F9
330
1F
100
AcDbEntity
  8
1-E
  6
JWW_HOJO
 62
   120
370
     5
100
AcDbLine
 10
-459.8942891136074
 20
-391.5341981349476
 30
0.0
 11
700.1067666138874
 21
-391.5341981349476
 31
0.0
  0
LINE
  5
2FA
330
1F
100
AcDbEntity
  8
1-E
  6
JWW_HOJO
 62
   120
370
     5
100
AcDbLine
 10
-459.8942891136074
 20
-247.992148334947
 30
0.0
 11
880.1067666138874
 21
-247.992148334947
 31
0.0
  0
LINE
  5
2FB
330
1F
100
AcDbEntity
  8
1-E
  6
JWW_HOJO
 62
   120
370
     5
100
AcDbLine
 10
-459.8942891136074
 20
-441.5341981349465
 30
0.0
 11
700.1067666138874
 21
-441.5341981349465
 31
0.0
  0
LINE
  5
2FC
330
1F
100
AcDbEntity
  8
1-E
  6
JWW_HOJO
 62
   120
370
     5
100
AcDbLine
 10
880.1067666138874
 20
-1559.33482701702
 30
0.0
 11
880.1067666138874
 21
-247.992148334947
 31
0.0
  0
LINE
  5
2FD
330
1F
100
AcDbEntity
  8
1-E
  6
Continuous
 62
   120
370
     5
100
AcDbLine
 10
700.1067666138874
 20
-1181.825374815791
 30
0.0
 11
700.1067666138874
 21
-1251.825172739938
 31
0.0
  0
LWPOLYLINE
  5
2FE
330
1F
100
AcDbEntity
  8
1-E
  6
Continuous
 62
     7
370
     5
100
AcDbPolyline
 90
        4
 70
     1
 43
3.0
 10
701.6067666138874
 20
-1181.825374815791
 42
0.4142135623731
 10
700.1067666138874
 20
-1180.325374815791
 42
0.4142135623731
 10
698.6067666138874
 20
-1181.825374815791
 42
0.4142135623731
 10
700.1067666138874
 20
-1183.325374815791
 42
0.4142135623731
  0
LWPOLYLINE
  5
2FF
330
1F
100
AcDbEntity
  8
1-E
  6
Continuous
 62
     7
370
     5
100
AcDbPolyline
 90
        4
 70
     1
 43
3.0
 10
701.6067666138874
 20
-1251.825172739938
 42
0.4142135623731
 10
700.1067666138874
 20
-1250.325172739938
 42
0.4142135623731
 10
698.6067666138874
 20
-1251.825172739938
 42
0.4142135623731
 10
700.1067666138874
 20
-1253.325172739938
 42
0.4142135623731
  0
LINE
  5
300
330
1F
100
AcDbEntity
  8
1-E
  6
Continuous
 62
   120
370
     5
100
AcDbLine
 10
700.1067666138874
 20
-1181.825374815791
 30
0.0
 11
508.3734589776153
 21
-1181.825374815791
 31
0.0
  0
LINE
  5
301
330
1F
100
AcDbEntity
  8
1-E
  6
Continuous
 62
   120
370
     5
100
AcDbLine
 10
700.1067666138874
 20
-1251.825172739938
 30
0.0
 11
508.3734589776153
 21
-1251.825172739938
 31
0.0
  0
MTEXT
  5
302
330
1F
100
AcDbEntity
  8
1-E
  6
Continuous
 62
     7
370
   211
100
AcDbMText
 10
685.1067666138877
 20
-1250.035273777864
 30
0.0
 40
68.58
 41
45.0
 46
0.0
 71
     7
 72
     1
  1
{\fＭＳ ゴシック|b0|i0|c128|p49;7}
 11
6.123031769111886E-17
 21
1.0
 31
0.0
 73
     1
 44
1.0
  0
LINE
  5
303
330
1F
100
AcDbEntity
  8
1-E
  6
JWW_HOJO
 62
   120
370
     5
100
AcDbLine
 10
700.1067666138874
 20
-1379.33482701702
 30
0.0
 11
700.1067666138874
 21
-441.5341981349465
 31
0.0
  0
MTEXT
  5
304
330
1F
100
AcDbEntity
  8
1-E
  6
Continuous
 62
     7
370
     0
100
AcDbMText
 10
1851.838474685872
 20
-1318.317469751744
 30
0.0
 40
91.44
 41
60.0
 46
0.0
 71
     7
 72
     1
  1
{\fＭＳ ゴシック|b0|i0|c128|p49;1}
 73
     1
 44
1.0
  0
LINE
  5
305
330
1F
100
AcDbEntity
  8
1-E
  6
Continuous
 62
     7
370
     5
100
AcDbLine
 10
2149.449945669624
 20
-982.6541004393871
 30
0.0
 11
2276.124510422081
 21
-1125.339660921864
 31
0.0
  0
LINE
  5
306
330
1F
100
AcDbEntity
  8
1-E
  6
Continuous
 62
    40
370
     5
100
AcDbLine
 10
1508.844155079399
 20
-1014.122160110452
 30
0.0
 11
2588.844155079399
 21
-1014.122160110452
 31
0.0
  0
LINE
  5
307
330
1F
100
AcDbEntity
  8
1-E
  6
JWW_HOJO
 62
   120
370
     5
100
AcDbLine
 10
1508.844155079399
 20
-1193.610184508687
 30
0.0
 11
2588.844155079399
 21
-1193.610184508687
 31
0.0
  0
LINE
  5
308
330
1F
100
AcDbEntity
  8
1-E
  6
Continuous
 62
   120
370
     5
100
AcDbLine
 10
2618.844155079399
 20
-1014.122160110452
 30
0.0
 11
2888.844155079399
 21
-1014.122160110452
 31
0.0
  0
LWPOLYLINE
  5
309
330
1F
100
AcDbEntity
  8
1-E
  6
Continuous
 62
     7
370
     5
100
AcDbPolyline
 90
        4
 70
     1
 43
3.0
 10
2890.344155079399
 20
-1014.122160110452
 42
0.4142135623731
 10
2888.844155079399
 20
-1012.622160110452
 42
0.4142135623731
 10
2887.344155079399
 20
-1014.122160110452
 42
0.4142135623731
 10
2888.844155079399
 20
-1015.622160110452
 42
0.4142135623731
  0
LINE
  5
30A
330
1F
100
AcDbEntity
  8
1-E
  6
Continuous
 62
   120
370
     5
100
AcDbLine
 10
1861.344155079399
 20
-1073.610184508513
 30
0.0
 11
1861.344155079399
 21
-1193.610184508513
 31
0.0
  0
LWPOLYLINE
  5
30B
330
1F
100
AcDbEntity
  8
1-E
  6
Continuous
 62
     7
370
     5
100
AcDbPolyline
 90
        4
 70
     1
 43
3.0
 10
1862.844155079399
 20
-1193.610184508513
 42
0.4142135623731
 10
1861.344155079399
 20
-1192.110184508513
 42
0.4142135623731
 10
1859.844155079399
 20
-1193.610184508513
 42
0.4142135623731
 10
1861.344155079399
 20
-1195.110184508513
 42
0.4142135623731
  0
MTEXT
  5
30C
330
1F
100
AcDbEntity
  8
1-E
  6
Continuous
 62
     7
370
     0
100
AcDbMText
 10
2202.303925488234
 20
-1318.317469751744
 30
0.0
 40
91.44
 41
60.0
 46
0.0
 71
     7
 72
     1
  1
{\fＭＳ ゴシック|b0|i0|c128|p49;1}
 73
     1
 44
1.0
  0
LINE
  5
30D
330
1F
100
AcDbEntity
  8
1-E
  6
Continuous
 62
   120
370
     5
100
AcDbLine
 10
2236.344155079399
 20
-1073.610184508513
 30
0.0
 11
2236.344155079399
 21
-1193.610184508513
 31
0.0
  0
LWPOLYLINE
  5
30E
330
1F
100
AcDbEntity
  8
1-E
  6
Continuous
 62
     7
370
     5
100
AcDbPolyline
 90
        4
 70
     1
 43
3.0
 10
2237.844155079399
 20
-1193.610184508513
 42
0.4142135623731
 10
2236.344155079399
 20
-1192.110184508513
 42
0.4142135623731
 10
2234.844155079399
 20
-1193.610184508513
 42
0.4142135623731
 10
2236.344155079399
 20
-1195.110184508513
 42
0.4142135623731
  0
MTEXT
  5
30F
330
1F
100
AcDbEntity
  8
1-E
  6
Continuous
 62
     7
370
   211
100
AcDbMText
 10
-294.8935467941331
 20
-1555.04482701702
 30
0.0
 40
68.58
 41
90.0
 46
0.0
 71
     7
 72
     1
  1
{\fＭＳ ゴシック|b0|i0|c128|p49;27}
 73
     1
 44
1.0
  0
LINE
  5
310
330
1F
100
AcDbEntity
  8
1-E
  6
Continuous
 62
   120
370
     5
100
AcDbLine
 10
1861.344155079399
 20
-1193.610184508513
 30
0.0
 11
2236.344155079399
 21
-1193.610184508513
 31
0.0
  0
LINE
  5
311
330
1F
100
AcDbEntity
  8
1-E
  6
Continuous
 62
   120
370
     5
100
AcDbLine
 10
2221.344155079399
 20
-1073.610184508513
 30
0.0
 11
2221.344155079399
 21
-1193.610184508513
 31
0.0
  0
LWPOLYLINE
  5
312
330
1F
100
AcDbEntity
  8
1-E
  6
Continuous
 62
     7
370
     5
100
AcDbPolyline
 90
        4
 70
     1
 43
3.0
 10
2222.844155079399
 20
-1193.610184508513
 42
0.4142135623731
 10
2221.344155079399
 20
-1192.110184508513
 42
0.4142135623731
 10
2219.844155079399
 20
-1193.610184508513
 42
0.4142135623731
 10
2221.344155079399
 20
-1195.110184508513
 42
0.4142135623731
  0
LINE
  5
313
330
1F
100
AcDbEntity
  8
1-E
  6
Continuous
 62
   120
370
     5
100
AcDbLine
 10
1876.344300879562
 20
-1073.610184508513
 30
0.0
 11
1876.344300879562
 21
-1193.610184508513
 31
0.0
  0
LWPOLYLINE
  5
314
330
1F
100
AcDbEntity
  8
1-E
  6
Continuous
 62
     7
370
     5
100
AcDbPolyline
 90
        4
 70
     1
 43
3.0
 10
1877.844300879562
 20
-1193.610184508513
 42
0.4142135623731
 10
1876.344300879562
 20
-1192.110184508513
 42
0.4142135623731
 10
1874.844300879562
 20
-1193.610184508513
 42
0.4142135623731
 10
1876.344300879562
 20
-1195.110184508513
 42
0.4142135623731
  0
MTEXT
  5
315
330
1F
100
AcDbEntity
  8
1-E
  6
Continuous
 62
     7
370
   211
100
AcDbMText
 10
-44.89301892251333
 20
-1555.04482701702
 30
0.0
 40
68.58
 41
90.0
 46
0.0
 71
     7
 72
     1
  1
{\fＭＳ ゴシック|b0|i0|c128|p49;23}
 73
     1
 44
1.0
  0
LINE
  5
316
330
1F
100
AcDbEntity
  8
1-E
  6
Continuous
 62
   120
370
     5
100
AcDbLine
 10
2618.844155079399
 20
-939.1221601104521
 30
0.0
 11
2888.844155079399
 21
-939.1221601104521
 31
0.0
  0
LWPOLYLINE
  5
317
330
1F
100
AcDbEntity
  8
1-E
  6
Continuous
 62
     7
370
     5
100
AcDbPolyline
 90
        4
 70
     1
 43
3.0
 10
2890.344155079399
 20
-939.1221601104521
 42
0.4142135623731
 10
2888.844155079399
 20
-937.6221601104521
 42
0.4142135623731
 10
2887.344155079399
 20
-939.1221601104521
 42
0.4142135623731
 10
2888.844155079399
 20
-940.6221601104522
 42
0.4142135623731
  0
LINE
  5
318
330
1F
100
AcDbEntity
  8
1-E
  6
Continuous
 62
   120
370
     5
100
AcDbLine
 10
1808.844155079399
 20
-752.2822231581156
 30
0.0
 11
1808.844155079399
 21
-392.2822231581156
 31
0.0
  0
LWPOLYLINE
  5
319
330
1F
100
AcDbEntity
  8
1-E
  6
Continuous
 62
     7
370
     5
100
AcDbPolyline
 90
        4
 70
     1
 43
3.0
 10
1810.344155079399
 20
-632.2822231581156
 42
0.4142135623731
 10
1808.844155079399
 20
-630.7822231581156
 42
0.4142135623731
 10
1807.344155079399
 20
-632.2822231581156
 42
0.4142135623731
 10
1808.844155079399
 20
-633.7822231581157
 42
0.4142135623731
  0
LWPOLYLINE
  5
31A
330
1F
100
AcDbEntity
  8
1-E
  6
Continuous
 62
     7
370
     5
100
AcDbPolyline
 90
        4
 70
     1
 43
3.0
 10
1810.344155079399
 20
-512.2822231581156
 42
0.4142135623731
 10
1808.844155079399
 20
-510.7822231581156
 42
0.4142135623731
 10
1807.344155079399
 20
-512.2822231581156
 42
0.4142135623731
 10
1808.844155079399
 20
-513.7822231581157
 42
0.4142135623731
  0
LWPOLYLINE
  5
31B
330
1F
100
AcDbEntity
  8
1-E
  6
Continuous
 62
     7
370
     5
100
AcDbPolyline
 90
        4
 70
     1
 43
3.0
 10
1810.344155079399
 20
-392.2822231581156
 42
0.4142135623731
 10
1808.844155079399
 20
-390.7822231581156
 42
0.4142135623731
 10
1807.344155079399
 20
-392.2822231581156
 42
0.4142135623731
 10
1808.844155079399
 20
-393.7822231581156
 42
0.4142135623731
  0
MTEXT
  5
31C
330
1F
100
AcDbEntity
  8
1-E
  6
Continuous
 62
     7
370
   211
100
AcDbMText
 10
205.1067666296464
 20
-1555.04482701702
 30
0.0
 40
68.58
 41
90.0
 46
0.0
 71
     7
 72
     1
  1
{\fＭＳ ゴシック|b0|i0|c128|p49;27}
 73
     1
 44
1.0
  0
LINE
  5
31D
330
1F
100
AcDbEntity
  8
1-E
  6
JWW_HOJO
 62
   120
370
     5
100
AcDbLine
 10
1508.844155079399
 20
-392.2822231581156
 30
0.0
 11
1508.844155079399
 21
-1193.610184508687
 31
0.0
  0
LINE
  5
31E
330
1F
100
AcDbEntity
  8
1-E
  6
JWW_HOJO
 62
   120
370
     5
100
AcDbLine
 10
1808.844155079399
 20
-632.2822231581156
 30
0.0
 11
2288.844155079399
 21
-632.2822231581156
 31
0.0
  0
LINE
  5
31F
330
1F
100
AcDbEntity
  8
1-E
  6
JWW_HOJO
 62
   120
370
     5
100
AcDbLine
 10
1808.844155079399
 20
-512.2822231581156
 30
0.0
 11
2288.844155079399
 21
-512.2822231581156
 31
0.0
  0
LINE
  5
320
330
1F
100
AcDbEntity
  8
1-E
  6
Continuous
 62
   120
370
     5
100
AcDbLine
 10
1808.844155079399
 20
-512.2822231581156
 30
0.0
 11
2288.844155079399
 21
-512.2822231581156
 31
0.0
  0
LINE
  5
321
330
1F
100
AcDbEntity
  8
1-E
  6
Continuous
 62
   120
370
     5
100
AcDbLine
 10
1808.844155079399
 20
-392.2822231581156
 30
0.0
 11
2288.844155079399
 21
-392.2822231581156
 31
0.0
  0
LWPOLYLINE
  5
322
330
1F
100
AcDbEntity
  8
1-E
  6
Continuous
 62
     7
370
     5
100
AcDbPolyline
 90
        4
 70
     1
 43
3.0
 10
2290.344155079399
 20
-632.2822231581156
 42
0.4142135623731
 10
2288.844155079399
 20
-630.7822231581156
 42
0.4142135623731
 10
2287.344155079399
 20
-632.2822231581156
 42
0.4142135623731
 10
2288.844155079399
 20
-633.7822231581157
 42
0.4142135623731
  0
LWPOLYLINE
  5
323
330
1F
100
AcDbEntity
  8
1-E
  6
Continuous
 62
     7
370
     5
100
AcDbPolyline
 90
        4
 70
     1
 43
3.0
 10
2290.344155079399
 20
-512.2822231581156
 42
0.4142135623731
 10
2288.844155079399
 20
-510.7822231581156
 42
0.4142135623731
 10
2287.344155079399
 20
-512.2822231581156
 42
0.4142135623731
 10
2288.844155079399
 20
-513.7822231581157
 42
0.4142135623731
  0
LWPOLYLINE
  5
324
330
1F
100
AcDbEntity
  8
1-E
  6
Continuous
 62
     7
370
     5
100
AcDbPolyline
 90
        4
 70
     1
 43
3.0
 10
2290.344155079399
 20
-392.2822231581156
 42
0.4142135623731
 10
2288.844155079399
 20
-390.7822231581156
 42
0.4142135623731
 10
2287.344155079399
 20
-392.2822231581156
 42
0.4142135623731
 10
2288.844155079399
 20
-393.7822231581156
 42
0.4142135623731
  0
LINE
  5
325
330
1F
100
AcDbEntity
  8
1-E
  6
Continuous
 62
   120
370
     5
100
AcDbLine
 10
2288.844155079399
 20
-752.2822231581156
 30
0.0
 11
2288.844155079399
 21
-392.2822231581156
 31
0.0
  0
MTEXT
  5
326
330
1F
100
AcDbEntity
  8
1-E
  6
Continuous
 62
     7
370
   211
100
AcDbMText
 10
2003.844155079399
 20
-1764.467876345044
 30
0.0
 40
68.58
 41
90.0
 46
0.0
 71
     7
 72
     1
  1
{\fＭＳ ゴシック|b0|i0|c128|p49;32}
 73
     1
 44
1.0
  0
LINE
  5
327
330
1F
100
AcDbEntity
  8
1-E
  6
JWW_HOJO
 62
   120
370
     5
100
AcDbLine
 10
1508.844155079399
 20
-392.2822231581156
 30
0.0
 11
2588.844155079399
 21
-392.2822231581156
 31
0.0
  0
LINE
  5
328
330
1F
100
AcDbEntity
  8
1-E
  6
JWW_HOJO
 62
   120
370
     5
100
AcDbLine
 10
2588.844155079399
 20
-392.2822231581156
 30
0.0
 11
2588.844155079399
 21
-1193.610184508687
 31
0.0
  0
LINE
  5
329
330
1F
100
AcDbEntity
  8
1-E
  6
Continuous
 62
   120
370
     5
100
AcDbLine
 10
2618.844155079399
 20
-834.1221601104521
 30
0.0
 11
2888.844155079399
 21
-834.1221601104521
 31
0.0
  0
LWPOLYLINE
  5
32A
330
1F
100
AcDbEntity
  8
1-E
  6
Continuous
 62
     7
370
     5
100
AcDbPolyline
 90
        4
 70
     1
 43
3.0
 10
2890.344155079399
 20
-834.1221601104521
 42
0.4142135623731
 10
2888.844155079399
 20
-832.6221601104521
 42
0.4142135623731
 10
2887.344155079399
 20
-834.1221601104521
 42
0.4142135623731
 10
2888.844155079399
 20
-835.6221601104522
 42
0.4142135623731
  0
LWPOLYLINE
  5
32B
330
1F
100
AcDbEntity
  8
1-E
  6
Continuous
 62
     7
370
     5
100
AcDbPolyline
 90
        4
 70
     1
 43
3.0
 10
1967.844155079399
 20
-512.2822231581156
 42
0.4142135623731
 10
1966.344155079399
 20
-510.7822231581156
 42
0.4142135623731
 10
1964.844155079399
 20
-512.2822231581156
 42
0.4142135623731
 10
1966.344155079399
 20
-513.7822231581157
 42
0.4142135623731
  0
LINE
  5
32C
330
1F
100
AcDbEntity
  8
1-E
  6
Continuous
 62
   120
370
     5
100
AcDbLine
 10
1966.344155079399
 20
-512.2822231581156
 30
0.0
 11
1966.344155079399
 21
-752.2822231581156
 31
0.0
  0
LWPOLYLINE
  5
32D
330
1F
100
AcDbEntity
  8
1-E
  6
Continuous
 62
     7
370
     5
100
AcDbPolyline
 90
        4
 70
     1
 43
3.0
 10
2132.844155079399
 20
-512.2822231581156
 42
0.4142135623731
 10
2131.344155079399
 20
-510.7822231581156
 42
0.4142135623731
 10
2129.844155079399
 20
-512.2822231581156
 42
0.4142135623731
 10
2131.344155079399
 20
-513.7822231581157
 42
0.4142135623731
  0
LINE
  5
32E
330
1F
100
AcDbEntity
  8
1-E
  6
Continuous
 62
   120
370
     5
100
AcDbLine
 10
2131.344155079399
 20
-512.2822231581156
 30
0.0
 11
2131.344155079399
 21
-752.2822231581156
 31
0.0
  0
MTEXT
  5
32F
330
1F
100
AcDbEntity
  8
1-E
  6
Continuous
 62
     7
370
   211
100
AcDbMText
 10
2003.844155079399
 20
-1923.930164335515
 30
0.0
 40
68.58
 41
90.0
 46
0.0
 71
     7
 72
     1
  1
{\fＭＳ ゴシック|b0|i0|c128|p49;11}
 73
     1
 44
1.0
  0
LINE
  5
330
330
1F
100
AcDbEntity
  8
1-E
  6
Continuous
 62
    40
370
     5
100
AcDbLine
 10
1861.559659606467
 20
-834.1221601104521
 30
0.0
 11
1508.844155079399
 21
-834.1221601104521
 31
0.0
  0
LINE
  5
331
330
1F
100
AcDbEntity
  8
1-E
  6
Continuous
 62
    40
370
     5
100
AcDbLine
 10
2236.12865055233
 20
-834.1221601104521
 30
0.0
 11
2588.844155079399
 21
-834.1221601104521
 31
0.0
  0
MTEXT
  5
332
330
1F
100
AcDbEntity
  8
1-E
  6
Continuous
 62
     7
370
     5
100
AcDbMText
 10
-735.295540949905
 20
-1948.845202715165
 30
0.0
 40
91.43999999999997
 41
1740.0
 46
0.0
 71
     7
 72
     1
  1
{\fＭＳ ゴシック|b0|i0|c128|p49;レール埋込時 フロアー貼込位置}
 73
     1
 44
1.0
  0
MTEXT
  5
333
330
1F
100
AcDbEntity
  8
1-E
  6
Continuous
 62
     7
370
   211
100
AcDbMText
 10
1575.992429340473
 20
-2060.086971205946
 30
0.0
 40
68.57999999999998
 41
135.0
 46
0.0
 71
     7
 72
     1
  1
{\fＭＳ ゴシック|b0|i0|c128|p49;1.2}
 11
6.123031769111886E-17
 21
1.0
 31
0.0
 73
     1
 44
1.0
  0
MTEXT
  5
334
330
1F
100
AcDbEntity
  8
1-E
  6
Continuous
 62
     7
370
   211
100
AcDbMText
 10
1575.992429340473
 20
-2172.110280268266
 30
0.0
 40
68.58
 41
45.0
 46
0.0
 71
     7
 72
     1
  1
{\fＭＳ ゴシック|b0|i0|c128|p49;7}
 11
6.123031769111886E-17
 21
1.0
 31
0.0
 73
     1
 44
1.0
  0
LINE
  5
335
330
1F
100
AcDbEntity
  8
1-E
  6
Continuous
 62
     7
370
     5
100
AcDbLine
 10
1861.344155079399
 20
-870.1221601104501
 30
0.0
 11
1508.844155079399
 21
-870.1221601104501
 31
0.0
  0
LINE
  5
336
330
1F
100
AcDbEntity
  8
1-E
  6
Continuous
 62
     7
370
     5
100
AcDbLine
 10
1861.344155079399
 20
-906.1221601104514
 30
0.0
 11
1508.844155079399
 21
-906.1221601104514
 31
0.0
  0
LINE
  5
337
330
1F
100
AcDbEntity
  8
1-E
  6
Continuous
 62
     7
370
     5
100
AcDbLine
 10
1861.344155079399
 20
-942.1221601104494
 30
0.0
 11
1508.844155079399
 21
-942.1221601104494
 31
0.0
  0
LINE
  5
338
330
1F
100
AcDbEntity
  8
1-E
  6
Continuous
 62
     7
370
     5
100
AcDbLine
 10
1861.344155079399
 20
-978.1221601104507
 30
0.0
 11
1508.844155079399
 21
-978.1221601104507
 31
0.0
  0
LINE
  5
339
330
1F
100
AcDbEntity
  8
1-E
  6
Continuous
 62
     7
370
     5
100
AcDbLine
 10
2588.844155079399
 20
-870.5501303484018
 30
0.0
 11
2236.344155079399
 21
-870.5501303484018
 31
0.0
  0
LINE
  5
33A
330
1F
100
AcDbEntity
  8
1-E
  6
Continuous
 62
     7
370
     5
100
AcDbLine
 10
2588.844155079399
 20
-906.5501303484032
 30
0.0
 11
2236.344155079399
 21
-906.5501303484032
 31
0.0
  0
LINE
  5
33B
330
1F
100
AcDbEntity
  8
1-E
  6
Continuous
 62
     7
370
     5
100
AcDbLine
 10
2588.844155079399
 20
-942.5501303484011
 30
0.0
 11
2236.344155079399
 21
-942.5501303484011
 31
0.0
  0
LINE
  5
33C
330
1F
100
AcDbEntity
  8
1-E
  6
Continuous
 62
     7
370
     5
100
AcDbLine
 10
2588.844155079399
 20
-978.5501303484025
 30
0.0
 11
2236.344155079399
 21
-978.5501303484025
 31
0.0
  0
LINE
  5
33D
330
1F
100
AcDbEntity
  8
1-E
  6
Continuous
 62
   120
370
     5
100
AcDbLine
 10
2888.844155079399
 20
-1014.122160110452
 30
0.0
 11
2888.844155079399
 21
-816.1221601104514
 31
0.0
  0
LINE
  5
33E
330
1F
100
AcDbEntity
  8
1-E
  6
Continuous
 62
   120
370
     5
100
AcDbLine
 10
2618.844155079399
 20
-816.1221601104514
 30
0.0
 11
2888.844155079399
 21
-816.1221601104514
 31
0.0
  0
LWPOLYLINE
  5
33F
330
1F
100
AcDbEntity
  8
1-E
  6
Continuous
 62
     7
370
     5
100
AcDbPolyline
 90
        4
 70
     1
 43
3.0
 10
2890.344155079399
 20
-816.1221601104514
 42
0.4142135623731
 10
2888.844155079399
 20
-814.6221601104514
 42
0.4142135623731
 10
2887.344155079399
 20
-816.1221601104514
 42
0.4142135623731
 10
2888.844155079399
 20
-817.6221601104515
 42
0.4142135623731
  0
LINE
  5
340
330
1F
100
AcDbEntity
  8
1-E
  6
Continuous
 62
   120
370
     5
100
AcDbLine
 10
2194.344155079396
 20
-632.2822231581156
 30
0.0
 11
2288.844155079399
 21
-632.2822231581156
 31
0.0
  0
LWPOLYLINE
  5
341
330
1F
100
AcDbEntity
  8
1-E
  6
Continuous
 62
     7
370
     5
100
AcDbPolyline
 90
        4
 70
     1
 43
3.0
 10
2195.844155079396
 20
-632.2822231581156
 42
0.4142135623731
 10
2194.344155079396
 20
-630.7822231581156
 42
0.4142135623731
 10
2192.844155079396
 20
-632.2822231581156
 42
0.4142135623731
 10
2194.344155079396
 20
-633.7822231581157
 42
0.4142135623731
  0
LINE
  5
342
330
1F
100
AcDbEntity
  8
1-E
  6
Continuous
 62
   120
370
     5
100
AcDbLine
 10
2194.344155079396
 20
-632.2822231581156
 30
0.0
 11
2194.344155079396
 21
-752.2822231581156
 31
0.0
  0
LINE
  5
343
330
1F
100
AcDbEntity
  8
1-E
  6
Continuous
 62
   120
370
     5
100
AcDbLine
 10
1808.844155079399
 20
-632.2822231581156
 30
0.0
 11
1903.344155079401
 21
-632.2822231581156
 31
0.0
  0
LINE
  5
344
330
1F
100
AcDbEntity
  8
1-E
  6
Continuous
 62
   120
370
     5
100
AcDbLine
 10
1903.344155079401
 20
-632.2822231581156
 30
0.0
 11
1903.344155079401
 21
-752.2822231581156
 31
0.0
  0
LWPOLYLINE
  5
345
330
1F
100
AcDbEntity
  8
1-E
  6
Continuous
 62
     7
370
     5
100
AcDbPolyline
 90
        4
 70
     1
 43
3.0
 10
1904.844155079401
 20
-632.2822231581156
 42
0.4142135623731
 10
1903.344155079401
 20
-630.7822231581156
 42
0.4142135623731
 10
1901.844155079402
 20
-632.2822231581156
 42
0.4142135623731
 10
1903.344155079401
 20
-633.7822231581157
 42
0.4142135623731
  0
MTEXT
  5
346
330
1F
100
AcDbEntity
  8
1-E
  6
Continuous
 62
     7
370
   211
100
AcDbMText
 10
1419.549459096479
 20
-2208.110280268266
 30
0.0
 40
68.57999999999998
 41
135.0
 46
0.0
 71
     7
 72
     1
  1
{\fＭＳ ゴシック|b0|i0|c128|p49;8.2}
 11
6.123031769111886E-17
 21
1.0
 31
0.0
 73
     1
 44
1.0
  0
MTEXT
  5
347
330
1F
100
AcDbEntity
  8
1-E
  6
Continuous
 62
     7
370
     5
100
AcDbMText
 10
-532.2081513721782
 20
-2241.439083674889
 30
0.0
 40
91.44
 41
360.0
 46
0.0
 71
     7
 72
     1
  1
{\fＭＳ ゴシック|b0|i0|c128|p49;収納側}
 73
     1
 44
1.0
  0
MTEXT
  5
348
330
1F
100
AcDbEntity
  8
1-E
  6
Continuous
 62
     7
370
   211
100
AcDbMText
 10
1958.844155079399
 20
-2398.006629078716
 30
0.0
 40
68.58
 41
180.0
 46
0.0
 71
     7
 72
     1
  1
{\fＭＳ ゴシック|b0|i0|c128|p49;19.4}
 73
     1
 44
1.0
  0
LINE
  5
349
330
1F
100
AcDbEntity
  8
1-E
  6
Continuous
 62
   120
370
     5
100
AcDbLine
 10
1876.344155079399
 20
-959.4214392887252
 30
0.0
 11
1898.844155079399
 21
-936.9214392887218
 31
0.0
  0
LINE
  5
34A
330
1F
100
AcDbEntity
  8
1-E
  6
Continuous
 62
    92
370
     5
100
AcDbLine
 10
1898.844155079399
 20
-939.1221601104521
 30
0.0
 11
2198.844155079399
 21
-939.1221601104521
 31
0.0
  0
LINE
  5
34B
330
1F
100
AcDbEntity
  8
1-E
  6
Continuous
 62
    92
370
     5
100
AcDbLine
 10
1898.844155079399
 20
-909.1221601104487
 30
0.0
 11
1898.844155079399
 21
-939.1221601104521
 31
0.0
  0
LINE
  5
34C
330
1F
100
AcDbEntity
  8
1-E
  6
Continuous
 62
    92
370
     5
100
AcDbLine
 10
1898.844155079399
 20
-909.1221601104487
 30
0.0
 11
1876.344009279235
 21
-909.1221601104487
 31
0.0
  0
LINE
  5
34D
330
1F
100
AcDbEntity
  8
1-E
  6
Continuous
 62
    92
370
     5
100
AcDbLine
 10
2198.844155079399
 20
-909.1221601104487
 30
0.0
 11
2220.871443378513
 21
-909.1221601104487
 31
0.0
  0
LINE
  5
34E
330
1F
100
AcDbEntity
  8
1-E
  6
Continuous
 62
    92
370
     5
100
AcDbLine
 10
2198.844155079399
 20
-909.1221601104487
 30
0.0
 11
2198.844155079399
 21
-939.1221601104521
 31
0.0
  0
LINE
  5
34F
330
1F
100
AcDbEntity
  8
1-E
  6
Continuous
 62
    92
370
     5
100
AcDbLine
 10
2220.871297578336
 20
-909.1216042847034
 30
0.0
 11
2220.871297578336
 21
-1014.122160110452
 31
0.0
  0
LINE
  5
350
330
1F
100
AcDbEntity
  8
1-E
  6
Continuous
 62
    92
370
     5
100
AcDbLine
 10
1876.344155079399
 20
-909.1216042847034
 30
0.0
 11
1876.344155079399
 21
-1014.122160110452
 31
0.0
  0
LINE
  5
351
330
1F
100
AcDbEntity
  8
1-E
  6
Continuous
 62
    92
370
     5
100
AcDbLine
 10
1876.344155079399
 20
-1014.122160110452
 30
0.0
 11
2220.871297578336
 21
-1014.122160110452
 31
0.0
  0
LINE
  5
352
330
1F
100
AcDbEntity
  8
1-E
  6
Continuous
 62
   120
370
     5
100
AcDbLine
 10
2203.481096098424
 20
-1014.122160110452
 30
0.0
 11
2220.871297578336
 21
-996.7319586305236
 31
0.0
  0
LINE
  5
353
330
1F
100
AcDbEntity
  8
1-E
  6
Continuous
 62
   120
370
     5
100
AcDbLine
 10
1885.283044564479
 20
-1014.122160110452
 30
0.0
 11
1960.283044564479
 21
-939.1221601104521
 31
0.0
  0
LINE
  5
354
330
1F
100
AcDbEntity
  8
1-E
  6
Continuous
 62
   120
370
     5
100
AcDbLine
 10
2076.201875484824
 20
-1014.122160110452
 30
0.0
 11
2151.201875484824
 21
-939.1221601104521
 31
0.0
  0
LINE
  5
355
330
1F
100
AcDbEntity
  8
1-E
  6
Continuous
 62
   120
370
     5
100
AcDbLine
 10
2012.562265178024
 20
-1014.122160110452
 30
0.0
 11
2087.562265178024
 21
-939.1221601104453
 31
0.0
  0
LINE
  5
356
330
1F
100
AcDbEntity
  8
1-E
  6
Continuous
 62
   120
370
     5
100
AcDbLine
 10
1948.922654871224
 20
-1014.122160110452
 30
0.0
 11
2023.922654871224
 21
-939.1221601104419
 31
0.0
  0
LINE
  5
357
330
1F
100
AcDbEntity
  8
1-E
  6
Continuous
 62
   120
370
     5
100
AcDbLine
 10
2139.841485791624
 20
-1014.122160110452
 30
0.0
 11
2220.871297578336
 21
-933.0923483237236
 31
0.0
  0
LINE
  5
358
330
1F
100
AcDbEntity
  8
1-E
  6
JWW_HOJO
 62
   120
370
     5
100
AcDbLine
 10
2048.844155079399
 20
-819.6331525231235
 30
0.0
 11
2048.844155079399
 21
-973.8409357067635
 31
0.0
  0
LINE
  5
359
330
1F
100
AcDbEntity
  8
1-E
  6
Continuous
 62
     7
370
     5
100
AcDbLine
 10
1921.344155079399
 20
-921.1221601104514
 30
0.0
 11
1951.344155079399
 21
-921.1221601104514
 31
0.0
  0
LINE
  5
35A
330
1F
100
AcDbEntity
  8
1-E
  6
Continuous
 62
     7
370
     5
100
AcDbLine
 10
1966.344155079399
 20
-921.1221601104514
 30
0.0
 11
2044.344155079396
 21
-921.1221601104514
 31
0.0
  0
LINE
  5
35B
330
1F
100
AcDbEntity
  8
1-E
  6
Continuous
 62
     7
370
     5
100
AcDbLine
 10
2044.344155079396
 20
-921.1221601104514
 30
0.0
 11
2048.844155079399
 21
-925.6221601104507
 31
0.0
  0
LINE
  5
35C
330
1F
100
AcDbEntity
  8
1-E
  6
Continuous
 62
     7
370
     5
100
AcDbLine
 10
2048.844155079399
 20
-925.6221601104507
 30
0.0
 11
2053.344155079401
 21
-921.1221601104514
 31
0.0
  0
LINE
  5
35D
330
1F
100
AcDbEntity
  8
1-E
  6
Continuous
 62
     7
370
     5
100
AcDbLine
 10
2053.344155079401
 20
-921.1221601104514
 30
0.0
 11
2131.344155079399
 21
-921.1221601104514
 31
0.0
  0
LINE
  5
35E
330
1F
100
AcDbEntity
  8
1-E
  6
Continuous
 62
     7
370
     5
100
AcDbLine
 10
2146.344155079399
 20
-921.1221601104514
 30
0.0
 11
2176.344155079399
 21
-921.1221601104514
 31
0.0
  0
LINE
  5
35F
330
1F
100
AcDbEntity
  8
1-E
  6
Continuous
 62
     7
370
     5
100
AcDbLine
 10
2284.344155079396
 20
-834.1221601104521
 30
0.0
 11
2194.344155079396
 21
-834.1221601104521
 31
0.0
  0
LINE
  5
360
330
1F
100
AcDbEntity
  8
1-E
  6
Continuous
 62
     7
370
     5
100
AcDbLine
 10
1903.344155079401
 20
-834.1221601104521
 30
0.0
 11
1813.344155079401
 21
-834.1221601104521
 31
0.0
  0
LINE
  5
361
330
1F
100
AcDbEntity
  8
1-E
  6
Continuous
 62
     7
370
     5
100
AcDbLine
 10
1903.344155079401
 20
-816.1221601104514
 30
0.0
 11
1813.344155079401
 21
-825.1221601104501
 31
0.0
  0
ARC
  5
362
330
1F
100
AcDbEntity
  8
1-E
  6
Continuous
 62
     7
370
     5
100
AcDbCircle
 10
1813.344155079401
 20
-829.6221601104494
 30
0.0
 40
4.500000000000001
100
AcDbArc
 50
90.0
 51
270.0
  0
ARC
  5
363
330
1F
100
AcDbEntity
  8
1-E
  6
Continuous
 62
     7
370
     5
100
AcDbCircle
 10
2284.344155079396
 20
-829.6221601104494
 30
0.0
 40
4.500000000000001
100
AcDbArc
 50
270.0
 51
89.99999999999997
  0
LINE
  5
364
330
1F
100
AcDbEntity
  8
1-E
  6
Continuous
 62
     7
370
     5
100
AcDbLine
 10
2284.344155079396
 20
-825.1221601104501
 30
0.0
 11
2194.344155079396
 21
-816.1221601104514
 31
0.0
  0
LINE
  5
365
330
1F
100
AcDbEntity
  8
1-E
  6
Continuous
 62
     7
370
     5
100
AcDbLine
 10
1957.344155079393
 20
-816.1221601104514
 30
0.0
 11
1903.344155079401
 21
-816.1221601104514
 31
0.0
  0
ARC
  5
366
330
1F
100
AcDbEntity
  8
1-E
  6
Continuous
 62
     7
370
     5
100
AcDbCircle
 10
1957.344155079393
 20
-825.1221601104501
 30
0.0
 40
9.000000000000002
100
AcDbArc
 50
0.0
 51
90.0
  0
ARC
  5
367
330
1F
100
AcDbEntity
  8
1-E
  6
Continuous
 62
     7
370
     5
100
AcDbCircle
 10
1957.344155079393
 20
-825.1221601104501
 30
0.0
 40
9.000000000000002
100
AcDbArc
 50
270.0
 51
0.0
  0
ARC
  5
368
330
1F
100
AcDbEntity
  8
1-E
  6
Continuous
 62
     7
370
     5
100
AcDbCircle
 10
2140.344155079404
 20
-825.1221601104501
 30
0.0
 40
9.000000000000002
100
AcDbArc
 50
180.0
 51
270.0
  0
LINE
  5
369
330
1F
100
AcDbEntity
  8
1-E
  6
Continuous
 62
     7
370
     5
100
AcDbLine
 10
2140.344155079404
 20
-816.1221601104514
 30
0.0
 11
2194.344155079396
 21
-816.1221601104514
 31
0.0
  0
ARC
  5
36A
330
1F
100
AcDbEntity
  8
1-E
  6
Continuous
 62
     7
370
     5
100
AcDbCircle
 10
2140.344155079404
 20
-825.1221601104501
 30
0.0
 40
9.000000000000002
100
AcDbArc
 50
90.0
 51
180.0
  0
LINE
  5
36B
330
1F
100
AcDbEntity
  8
1-E
  6
Continuous
 62
     7
370
     5
100
AcDbLine
 10
2194.344155079396
 20
-916.6221601104521
 30
0.0
 11
2194.344155079396
 21
-834.1221601104521
 31
0.0
  0
ARC
  5
36C
330
1F
100
AcDbEntity
  8
1-E
  6
Continuous
 62
     7
370
     5
100
AcDbCircle
 10
2171.844155079396
 20
-916.6221601104521
 30
0.0
 40
22.5
100
AcDbArc
 50
270.0
 51
0.0
  0
LINE
  5
36D
330
1F
100
AcDbEntity
  8
1-E
  6
Continuous
 62
     7
370
     5
100
AcDbLine
 10
1903.344155079401
 20
-916.6221601104521
 30
0.0
 11
1903.344155079401
 21
-834.1221601104521
 31
0.0
  0
LINE
  5
36E
330
1F
100
AcDbEntity
  8
1-E
  6
Continuous
 62
     7
370
     5
100
AcDbLine
 10
1925.844155079401
 20
-939.1221601104521
 30
0.0
 11
2171.844155079396
 21
-939.1221601104521
 31
0.0
  0
ARC
  5
36F
330
1F
100
AcDbEntity
  8
1-E
  6
Continuous
 62
     7
370
     5
100
AcDbCircle
 10
1925.844155079401
 20
-916.6221601104521
 30
0.0
 40
22.5
100
AcDbArc
 50
180.0
 51
270.0
  0
LINE
  5
370
330
1F
100
AcDbEntity
  8
1-E
  6
Continuous
 62
     7
370
     5
100
AcDbLine
 10
1928.844155079399
 20
-834.1221601104521
 30
0.0
 11
1957.344155079393
 21
-834.1221601104521
 31
0.0
  0
LINE
  5
371
330
1F
100
AcDbEntity
  8
1-E
  6
Continuous
 62
     7
370
     5
100
AcDbLine
 10
1921.344155079399
 20
-841.6221601104521
 30
0.0
 11
1921.344155079399
 21
-921.1221601104514
 31
0.0
  0
ARC
  5
372
330
1F
100
AcDbEntity
  8
1-E
  6
Continuous
 62
     7
370
     5
100
AcDbCircle
 10
1928.844155079399
 20
-841.6221601104521
 30
0.0
 40
7.5
100
AcDbArc
 50
90.0
 51
180.0
  0
LINE
  5
373
330
1F
100
AcDbEntity
  8
1-E
  6
Continuous
 62
     7
370
     5
100
AcDbLine
 10
2168.844155079399
 20
-834.1221601104521
 30
0.0
 11
2140.344155079404
 21
-834.1221601104521
 31
0.0
  0
LINE
  5
374
330
1F
100
AcDbEntity
  8
1-E
  6
Continuous
 62
     7
370
     5
100
AcDbLine
 10
2176.344155079399
 20
-841.6221601104521
 30
0.0
 11
2176.344155079399
 21
-921.1221601104514
 31
0.0
  0
ARC
  5
375
330
1F
100
AcDbEntity
  8
1-E
  6
Continuous
 62
     7
370
     5
100
AcDbCircle
 10
2168.844155079399
 20
-841.6221601104521
 30
0.0
 40
7.5
100
AcDbArc
 50
0.0
 51
90.0
  0
LINE
  5
376
330
1F
100
AcDbEntity
  8
1-E
  6
Continuous
 62
     7
370
     5
100
AcDbLine
 10
1951.344155079399
 20
-909.1221601104521
 30
0.0
 11
1951.344155079399
 21
-921.1221601104514
 31
0.0
  0
ARC
  5
377
330
1F
100
AcDbEntity
  8
1-E
  6
Continuous
 62
     7
370
     5
100
AcDbCircle
 10
1954.344155079396
 20
-909.1221601104521
 30
0.0
 40
3.0
100
AcDbArc
 50
90.0
 51
180.0
  0
LINE
  5
378
330
1F
100
AcDbEntity
  8
1-E
  6
Continuous
 62
     7
370
     5
100
AcDbLine
 10
1963.344155079401
 20
-906.1221601104514
 30
0.0
 11
1954.344155079396
 21
-906.1221601104514
 31
0.0
  0
LINE
  5
379
330
1F
100
AcDbEntity
  8
1-E
  6
Continuous
 62
     7
370
     5
100
AcDbLine
 10
1966.344155079399
 20
-909.1221601104521
 30
0.0
 11
1966.344155079399
 21
-921.1221601104514
 31
0.0
  0
ARC
  5
37A
330
1F
100
AcDbEntity
  8
1-E
  6
Continuous
 62
     7
370
     5
100
AcDbCircle
 10
1963.344155079401
 20
-909.1221601104521
 30
0.0
 40
3.0
100
AcDbArc
 50
0.0
 51
90.0
  0
LINE
  5
37B
330
1F
100
AcDbEntity
  8
1-E
  6
Continuous
 62
     7
370
     5
100
AcDbLine
 10
2131.344155079399
 20
-909.1221601104521
 30
0.0
 11
2131.344155079399
 21
-921.1221601104514
 31
0.0
  0
ARC
  5
37C
330
1F
100
AcDbEntity
  8
1-E
  6
Continuous
 62
     7
370
     5
100
AcDbCircle
 10
2134.344155079396
 20
-909.1221601104521
 30
0.0
 40
3.0
100
AcDbArc
 50
90.0
 51
180.0
  0
LINE
  5
37D
330
1F
100
AcDbEntity
  8
1-E
  6
Continuous
 62
     7
370
     5
100
AcDbLine
 10
2143.344155079401
 20
-906.1221601104514
 30
0.0
 11
2134.344155079396
 21
-906.1221601104514
 31
0.0
  0
LINE
  5
37E
330
1F
100
AcDbEntity
  8
1-E
  6
Continuous
 62
     7
370
     5
100
AcDbLine
 10
2146.344155079399
 20
-909.1221601104521
 30
0.0
 11
2146.344155079399
 21
-921.1221601104514
 31
0.0
  0
ARC
  5
37F
330
1F
100
AcDbEntity
  8
1-E
  6
Continuous
 62
     7
370
     5
100
AcDbCircle
 10
2143.344155079401
 20
-909.1221601104521
 30
0.0
 40
3.0
100
AcDbArc
 50
0.0
 51
90.0
  0
ARC
  5
380
330
1F
100
AcDbEntity
  8
1-E
  6
JWW_DASHED1
 62
     7
370
     5
100
AcDbCircle
 10
1813.344155079401
 20
-829.6221601104494
 30
0.0
 40
4.500000000000001
100
AcDbArc
 50
270.0
 51
90.0
  0
ARC
  5
381
330
1F
100
AcDbEntity
  8
1-E
  6
JWW_DASHED1
 62
     7
370
     5
100
AcDbCircle
 10
2284.344155079396
 20
-829.6221601104494
 30
0.0
 40
4.500000000000001
100
AcDbArc
 50
90.0
 51
270.0
  0
LINE
  5
382
330
1F
100
AcDbEntity
  8
1-E
  6
Continuous
 62
    40
370
     5
100
AcDbLine
 10
2236.344155079399
 20
-834.1221601104521
 30
0.0
 11
2236.344155079399
 21
-1014.122160110452
 31
0.0
  0
LINE
  5
383
330
1F
100
AcDbEntity
  8
1-E
  6
Continuous
 62
    40
370
     5
100
AcDbLine
 10
1861.344155079399
 20
-834.1221601104521
 30
0.0
 11
1861.344155079399
 21
-1014.122160110452
 31
0.0
  0
LINE
  5
384
330
1F
100
AcDbEntity
  8
1-E
  6
Continuous
 62
     7
370
     5
100
AcDbLine
 10
2276.124510422081
 20
-1125.339660921864
 30
0.0
 11
2342.67713489903
 21
-1125.339660921864
 31
0.0
  0
INSERT
  5
385
330
1F
100
AcDbEntity
  8
1-E
  6
Continuous
 62
     7
370
     5
100
AcDbBlockReference
  2
01@@SfigorgFlag@@4
 10
2048.844155079399
 20
-2128.669511037496
 30
0.0
 41
30.0
 42
30.0
  0
LWPOLYLINE
  5
386
330
1F
100
AcDbEntity
  8
1-E
  6
Continuous
 62
     7
370
     5
100
AcDbPolyline
 90
        4
 70
     1
 43
3.0
 10
1810.344155079401
 20
-2081.900280268263
 42
0.4142135623731
 10
1808.844155079401
 20
-2080.400280268263
 42
0.4142135623731
 10
1807.344155079401
 20
-2081.900280268263
 42
0.4142135623731
 10
1808.844155079401
 20
-2083.400280268263
 42
0.4142135623731
  0
LWPOLYLINE
  5
387
330
1F
100
AcDbEntity
  8
1-E
  6
Continuous
 62
     7
370
     5
100
AcDbPolyline
 90
        4
 70
     1
 43
3.0
 10
2290.344155079397
 20
-2081.900280268263
 42
0.4142135623731
 10
2288.844155079397
 20
-2080.400280268263
 42
0.4142135623731
 10
2287.344155079397
 20
-2081.900280268263
 42
0.4142135623731
 10
2288.844155079397
 20
-2083.400280268263
 42
0.4142135623731
  0
LWPOLYLINE
  5
388
330
1F
100
AcDbEntity
  8
1-E
  6
Continuous
 62
     7
370
     5
100
AcDbPolyline
 90
        4
 70
     1
 43
3.0
 10
1967.844155079394
 20
-2077.400280268264
 42
0.4142135623731
 10
1966.344155079394
 20
-2075.900280268264
 42
0.4142135623731
 10
1964.844155079394
 20
-2077.400280268264
 42
0.4142135623731
 10
1966.344155079394
 20
-2078.900280268264
 42
0.4142135623731
  0
LWPOLYLINE
  5
389
330
1F
100
AcDbEntity
  8
1-E
  6
Continuous
 62
     7
370
     5
100
AcDbPolyline
 90
        4
 70
     1
 43
3.0
 10
2132.844155079405
 20
-2077.400280268264
 42
0.4142135623731
 10
2131.344155079405
 20
-2075.900280268264
 42
0.4142135623731
 10
2129.844155079405
 20
-2077.400280268264
 42
0.4142135623731
 10
2131.344155079405
 20
-2078.900280268264
 42
0.4142135623731
  0
LINE
  5
38A
330
1F
100
AcDbEntity
  8
1-E
  6
Continuous
 62
   120
370
     5
100
AcDbLine
 10
1966.344155079394
 20
-1928.220164335515
 30
0.0
 11
2131.344155079405
 21
-1928.220164335515
 31
0.0
  0
LWPOLYLINE
  5
38B
330
1F
100
AcDbEntity
  8
1-E
  6
Continuous
 62
     7
370
     5
100
AcDbPolyline
 90
        4
 70
     1
 43
3.0
 10
1967.844155079394
 20
-1928.220164335515
 42
0.4142135623731
 10
1966.344155079394
 20
-1926.720164335515
 42
0.4142135623731
 10
1964.844155079394
 20
-1928.220164335515
 42
0.4142135623731
 10
1966.344155079394
 20
-1929.720164335515
 42
0.4142135623731
  0
LWPOLYLINE
  5
38C
330
1F
100
AcDbEntity
  8
1-E
  6
Continuous
 62
     7
370
     5
100
AcDbPolyline
 90
        4
 70
     1
 43
3.0
 10
2132.844155079405
 20
-1928.220164335515
 42
0.4142135623731
 10
2131.344155079405
 20
-1926.720164335515
 42
0.4142135623731
 10
2129.844155079405
 20
-1928.220164335515
 42
0.4142135623731
 10
2131.344155079405
 20
-1929.720164335515
 42
0.4142135623731
  0
LINE
  5
38D
330
1F
100
AcDbEntity
  8
1-E
  6
Continuous
 62
   120
370
     5
100
AcDbLine
 10
1966.344155079394
 20
-1928.220164335515
 30
0.0
 11
1966.344155079394
 21
-2014.084473253462
 31
0.0
  0
LINE
  5
38E
330
1F
100
AcDbEntity
  8
1-E
  6
Continuous
 62
   120
370
     5
100
AcDbLine
 10
2131.344155079405
 20
-1928.220164335515
 30
0.0
 11
2131.344155079405
 21
-2014.084473253462
 31
0.0
  0
MTEXT
  5
38F
330
1F
100
AcDbEntity
  8
1-E
  6
Continuous
 62
     7
370
   211
100
AcDbMText
 10
-172.1980995833383
 20
-2514.960265755131
 30
0.0
 40
91.44000000000065
 41
120.0000000000009
 46
0.0
 71
     7
 72
     1
  1
{\fＭＳ ゴシック|b0|i0|c128|p49;26}
 11
6.123031769111886E-17
 21
1.0
 31
0.0
 73
     1
 44
1.0
  0
LINE
  5
390
330
1F
100
AcDbEntity
  8
1-E
  6
Continuous
 62
   120
370
     5
100
AcDbLine
 10
1808.844155079401
 20
-1768.757876345044
 30
0.0
 11
2288.844155079397
 21
-1768.757876345044
 31
0.0
  0
LWPOLYLINE
  5
391
330
1F
100
AcDbEntity
  8
1-E
  6
Continuous
 62
     7
370
     5
100
AcDbPolyline
 90
        4
 70
     1
 43
3.0
 10
1810.344155079401
 20
-1768.757876345044
 42
0.4142135623731
 10
1808.844155079401
 20
-1767.257876345044
 42
0.4142135623731
 10
1807.344155079401
 20
-1768.757876345044
 42
0.4142135623731
 10
1808.844155079401
 20
-1770.257876345044
 42
0.4142135623731
  0
LWPOLYLINE
  5
392
330
1F
100
AcDbEntity
  8
1-E
  6
Continuous
 62
     7
370
     5
100
AcDbPolyline
 90
        4
 70
     1
 43
3.0
 10
2290.344155079397
 20
-1768.757876345044
 42
0.4142135623731
 10
2288.844155079397
 20
-1767.257876345044
 42
0.4142135623731
 10
2287.344155079397
 20
-1768.757876345044
 42
0.4142135623731
 10
2288.844155079397
 20
-1770.257876345044
 42
0.4142135623731
  0
LINE
  5
393
330
1F
100
AcDbEntity
  8
1-E
  6
Continuous
 62
   120
370
     5
100
AcDbLine
 10
1808.844155079401
 20
-1768.757876345044
 30
0.0
 11
1808.844155079401
 21
-2014.084473253462
 31
0.0
  0
LINE
  5
394
330
1F
100
AcDbEntity
  8
1-E
  6
Continuous
 62
   120
370
     5
100
AcDbLine
 10
2288.844155079397
 20
-1768.757876345044
 30
0.0
 11
2288.844155079397
 21
-2014.084473253462
 31
0.0
  0
MTEXT
  5
395
330
1F
100
AcDbEntity
  8
1-E
  6
Continuous
 62
     7
370
   211
100
AcDbMText
 10
2003.607726328867
 20
-2607.676425215755
 30
0.0
 40
68.58
 41
90.0
 46
0.0
 71
     7
 72
     1
  1
{\fＭＳ ゴシック|b0|i0|c128|p49;23}
 73
     1
 44
1.0
  0
LWPOLYLINE
  5
396
330
1F
100
AcDbEntity
  8
1-E
  6
Continuous
 62
     7
370
     5
100
AcDbPolyline
 90
        4
 70
     1
 43
3.0
 10
1592.492429340473
 20
-2068.400280268265
 42
0.4142135623731
 10
1590.992429340473
 20
-2066.900280268265
 42
0.4142135623731
 10
1589.492429340473
 20
-2068.400280268265
 42
0.4142135623731
 10
1590.992429340473
 20
-2069.900280268265
 42
0.4142135623731
  0
LWPOLYLINE
  5
397
330
1F
100
AcDbEntity
  8
1-E
  6
Continuous
 62
     7
370
     5
100
AcDbPolyline
 90
        4
 70
     1
 43
3.0
 10
1592.492429340473
 20
-2086.400280268266
 42
0.4142135623731
 10
1590.992429340473
 20
-2084.900280268266
 42
0.4142135623731
 10
1589.492429340473
 20
-2086.400280268266
 42
0.4142135623731
 10
1590.992429340473
 20
-2087.900280268266
 42
0.4142135623731
  0
LINE
  5
398
330
1F
100
AcDbEntity
  8
1-E
  6
Continuous
 62
   120
370
     5
100
AcDbLine
 10
1590.992429340473
 20
-2068.400280268265
 30
0.0
 11
1721.833281024964
 21
-2068.400280268265
 31
0.0
  0
LINE
  5
399
330
1F
100
AcDbEntity
  8
1-E
  6
Continuous
 62
   120
370
     5
100
AcDbLine
 10
1590.992429340473
 20
-2086.400280268266
 30
0.0
 11
1721.833281024964
 21
-2086.400280268266
 31
0.0
  0
LINE
  5
39A
330
1F
100
AcDbEntity
  8
1-E
  6
Continuous
 62
   120
370
     5
100
AcDbLine
 10
1590.992429340473
 20
-2086.400280268266
 30
0.0
 11
1590.992429340473
 21
-2191.400280268266
 31
0.0
  0
LWPOLYLINE
  5
39B
330
1F
100
AcDbEntity
  8
1-E
  6
Continuous
 62
     7
370
     5
100
AcDbPolyline
 90
        4
 70
     1
 43
3.0
 10
1592.492429340473
 20
-2191.400280268266
 42
0.4142135623731
 10
1590.992429340473
 20
-2189.900280268266
 42
0.4142135623731
 10
1589.492429340473
 20
-2191.400280268266
 42
0.4142135623731
 10
1590.992429340473
 20
-2192.900280268266
 42
0.4142135623731
  0
LINE
  5
39C
330
1F
100
AcDbEntity
  8
1-E
  6
Continuous
 62
   120
370
     5
100
AcDbLine
 10
1590.992429340473
 20
-2191.400280268266
 30
0.0
 11
1721.833281024964
 21
-2191.400280268266
 31
0.0
  0
MTEXT
  5
39D
330
1F
100
AcDbEntity
  8
1-E
  6
Continuous
 62
     7
370
   211
100
AcDbMText
 10
-172.1980995833383
 20
-2667.960265755132
 30
0.0
 40
91.44000000000065
 41
120.0000000000009
 46
0.0
 71
     7
 72
     1
  1
{\fＭＳ ゴシック|b0|i0|c128|p49;25}
 11
6.123031769111886E-17
 21
1.0
 31
0.0
 73
     1
 44
1.0
  0
LINE
  5
39E
330
1F
100
AcDbEntity
  8
1-E
  6
Continuous
 62
   120
370
     5
100
AcDbLine
 10
1903.344155079401
 20
-2402.296629078716
 30
0.0
 11
2194.344155079396
 21
-2402.296629078716
 31
0.0
  0
LWPOLYLINE
  5
39F
330
1F
100
AcDbEntity
  8
1-E
  6
Continuous
 62
     7
370
     5
100
AcDbPolyline
 90
        4
 70
     1
 43
3.0
 10
1904.844155079401
 20
-2402.296629078716
 42
0.4142135623731
 10
1903.344155079401
 20
-2400.796629078716
 42
0.4142135623731
 10
1901.844155079402
 20
-2402.296629078716
 42
0.4142135623731
 10
1903.344155079401
 20
-2403.796629078716
 42
0.4142135623731
  0
LWPOLYLINE
  5
3A0
330
1F
100
AcDbEntity
  8
1-E
  6
Continuous
 62
     7
370
     5
100
AcDbPolyline
 90
        4
 70
     1
 43
3.0
 10
2195.844155079396
 20
-2402.296629078716
 42
0.4142135623731
 10
2194.344155079396
 20
-2400.796629078716
 42
0.4142135623731
 10
2192.844155079396
 20
-2402.296629078716
 42
0.4142135623731
 10
2194.344155079396
 20
-2403.796629078716
 42
0.4142135623731
  0
LINE
  5
3A1
330
1F
100
AcDbEntity
  8
1-E
  6
Continuous
 62
   120
370
     5
100
AcDbLine
 10
1903.344155079401
 20
-2402.296629078716
 30
0.0
 11
1903.344155079401
 21
-2274.680547010566
 31
0.0
  0
LINE
  5
3A2
330
1F
100
AcDbEntity
  8
1-E
  6
Continuous
 62
   120
370
     5
100
AcDbLine
 10
2194.344155079396
 20
-2402.296629078716
 30
0.0
 11
2194.344155079396
 21
-2274.680547010566
 31
0.0
  0
MTEXT
  5
3A3
330
1F
100
AcDbEntity
  8
1-E
  6
Continuous
 62
     7
370
   211
100
AcDbMText
 10
-316.542775071689
 20
-2668.382373348566
 30
0.0
 40
91.44000000000065
 41
120.0000000000009
 46
0.0
 71
     7
 72
     1
  1
{\fＭＳ ゴシック|b0|i0|c128|p49;77}
 11
6.123031769111886E-17
 21
1.0
 31
0.0
 73
     1
 44
1.0
  0
MTEXT
  5
3A4
330
1F
100
AcDbEntity
  8
1-E
  6
Continuous
 62
     7
370
   211
100
AcDbMText
 10
1726.959490980929
 20
-2769.623660873526
 30
0.0
 40
68.57999999999998
 41
135.0
 46
0.0
 71
     7
 72
     1
  1
{\fＭＳ ゴシック|b0|i0|c128|p49;1.5}
 73
     1
 44
1.0
  0
LINE
  5
3A5
330
1F
100
AcDbEntity
  8
1-E
  6
Continuous
 62
   120
370
     5
100
AcDbLine
 10
1590.992429340473
 20
-1901.912435643958
 30
0.0
 11
1590.992429340473
 21
-2086.400280268266
 31
0.0
  0
LINE
  5
3A6
330
1F
100
AcDbEntity
  8
1-E
  6
JWW_HOJO
 62
   120
370
     5
100
AcDbLine
 10
2048.844155079399
 20
-2071.911272680937
 30
0.0
 11
2048.844155079399
 21
-2226.119055864578
 31
0.0
  0
LINE
  5
3A7
330
1F
100
AcDbEntity
  8
1-E
  6
Continuous
 62
   120
370
     5
100
AcDbLine
 10
1876.344155079399
 20
-3000.906861804463
 30
0.0
 11
1898.844155079399
 21
-2978.40686180446
 31
0.0
  0
LINE
  5
3A8
330
1F
100
AcDbEntity
  8
1-E
  6
Continuous
 62
    92
370
     5
100
AcDbLine
 10
1898.844155079399
 20
-2950.607582626187
 30
0.0
 11
1898.844155079399
 21
-2980.60758262619
 31
0.0
  0
LINE
  5
3A9
330
1F
100
AcDbEntity
  8
1-E
  6
Continuous
 62
    92
370
     5
100
AcDbLine
 10
1898.844155079399
 20
-2950.607582626187
 30
0.0
 11
1876.344009279235
 21
-2950.607582626187
 31
0.0
  0
LINE
  5
3AA
330
1F
100
AcDbEntity
  8
1-E
  6
Continuous
 62
    92
370
     5
100
AcDbLine
 10
1876.344155079399
 20
-2950.607026800441
 30
0.0
 11
1876.344155079399
 21
-3055.60758262619
 31
0.0
  0
LINE
  5
3AB
330
1F
100
AcDbEntity
  8
1-E
  6
Continuous
 62
    92
370
     5
100
AcDbLine
 10
1898.844155079399
 20
-2980.60758262619
 30
0.0
 11
2198.844155079399
 21
-2980.60758262619
 31
0.0
  0
LINE
  5
3AC
330
1F
100
AcDbEntity
  8
1-E
  6
Continuous
 62
   120
370
     5
100
AcDbLine
 10
1885.283044564479
 20
-3055.60758262619
 30
0.0
 11
1960.283044564479
 21
-2980.60758262619
 31
0.0
  0
LINE
  5
3AD
330
1F
100
AcDbEntity
  8
1-E
  6
Continuous
 62
   120
370
     5
100
AcDbLine
 10
1948.922654871224
 20
-3055.60758262619
 30
0.0
 11
2023.922654871224
 21
-2980.60758262618
 31
0.0
  0
LINE
  5
3AE
330
1F
100
AcDbEntity
  8
1-E
  6
Continuous
 62
   120
370
     5
100
AcDbLine
 10
2012.562265178024
 20
-3055.60758262619
 30
0.0
 11
2087.562265178024
 21
-2980.607582626183
 31
0.0
  0
LINE
  5
3AF
330
1F
100
AcDbEntity
  8
1-E
  6
Continuous
 62
   120
370
     5
100
AcDbLine
 10
2076.201875484824
 20
-3055.60758262619
 30
0.0
 11
2151.201875484824
 21
-2980.60758262619
 31
0.0
  0
LINE
  5
3B0
330
1F
100
AcDbEntity
  8
1-E
  6
Continuous
 62
   120
370
     5
100
AcDbLine
 10
2139.841485791624
 20
-3055.60758262619
 30
0.0
 11
2220.871297578336
 21
-2974.577770839462
 31
0.0
  0
LINE
  5
3B1
330
1F
100
AcDbEntity
  8
1-E
  6
Continuous
 62
   120
370
     5
100
AcDbLine
 10
2203.481096098424
 20
-3055.60758262619
 30
0.0
 11
2220.871297578336
 21
-3038.217381146262
 31
0.0
  0
LINE
  5
3B2
330
1F
100
AcDbEntity
  8
1-E
  6
Continuous
 62
    92
370
     5
100
AcDbLine
 10
2198.844155079399
 20
-2950.607582626187
 30
0.0
 11
2198.844155079399
 21
-2980.60758262619
 31
0.0
  0
LINE
  5
3B3
330
1F
100
AcDbEntity
  8
1-E
  6
Continuous
 62
    92
370
     5
100
AcDbLine
 10
2198.844155079399
 20
-2950.607582626187
 30
0.0
 11
2220.871443378513
 21
-2950.607582626187
 31
0.0
  0
LINE
  5
3B4
330
1F
100
AcDbEntity
  8
1-E
  6
Continuous
 62
    92
370
     5
100
AcDbLine
 10
2220.871297578336
 20
-2950.607026800441
 30
0.0
 11
2220.871297578336
 21
-3055.60758262619
 31
0.0
  0
LINE
  5
3B5
330
1F
100
AcDbEntity
  8
1-E
  6
Continuous
 62
    92
370
     5
100
AcDbLine
 10
1876.344155079399
 20
-3055.60758262619
 30
0.0
 11
2220.871297578336
 21
-3055.60758262619
 31
0.0
  0
LWPOLYLINE
  5
3B6
330
1F
100
AcDbEntity
  8
1-E
  6
Continuous
 62
     7
370
     5
100
AcDbPolyline
 90
        4
 70
     1
 43
3.0
 10
1877.844155079399
 20
-2773.913660873526
 42
0.4142135623731
 10
1876.344155079399
 20
-2772.413660873526
 42
0.4142135623731
 10
1874.844155079399
 20
-2773.913660873526
 42
0.4142135623731
 10
1876.344155079399
 20
-2775.413660873526
 42
0.4142135623731
  0
LWPOLYLINE
  5
3B7
330
1F
100
AcDbEntity
  8
1-E
  6
Continuous
 62
     7
370
     5
100
AcDbPolyline
 90
        4
 70
     1
 43
3.0
 10
1900.344155079399
 20
-2773.913660873526
 42
0.4142135623731
 10
1898.844155079399
 20
-2772.413660873526
 42
0.4142135623731
 10
1897.344155079399
 20
-2773.913660873526
 42
0.4142135623731
 10
1898.844155079399
 20
-2775.413660873526
 42
0.4142135623731
  0
LINE
  5
3B8
330
1F
100
AcDbEntity
  8
1-E
  6
Continuous
 62
   120
370
     5
100
AcDbLine
 10
1876.344155079399
 20
-2773.913660873526
 30
0.0
 11
1876.344155079399
 21
-2878.426012602427
 31
0.0
  0
LINE
  5
3B9
330
1F
100
AcDbEntity
  8
1-E
  6
Continuous
 62
   120
370
     5
100
AcDbLine
 10
1898.844155079399
 20
-2773.913660873526
 30
0.0
 11
1898.844155079399
 21
-2878.426012602427
 31
0.0
  0
LINE
  5
3BA
330
1F
100
AcDbEntity
  8
1-E
  6
Continuous
 62
   120
370
     5
100
AcDbLine
 10
1898.844155079399
 20
-2773.913660873526
 30
0.0
 11
2198.844155079399
 21
-2773.913660873526
 31
0.0
  0
LWPOLYLINE
  5
3BB
330
1F
100
AcDbEntity
  8
1-E
  6
Continuous
 62
     7
370
     5
100
AcDbPolyline
 90
        4
 70
     1
 43
3.0
 10
2200.344155079399
 20
-2773.913660873526
 42
0.4142135623731
 10
2198.844155079399
 20
-2772.413660873526
 42
0.4142135623731
 10
2197.344155079399
 20
-2773.913660873526
 42
0.4142135623731
 10
2198.844155079399
 20
-2775.413660873526
 42
0.4142135623731
  0
LINE
  5
3BC
330
1F
100
AcDbEntity
  8
1-E
  6
Continuous
 62
   120
370
     5
100
AcDbLine
 10
2198.844155079399
 20
-2773.913660873526
 30
0.0
 11
2198.844155079399
 21
-2878.426012602427
 31
0.0
  0
MTEXT
  5
3BD
330
1F
100
AcDbEntity
  8
1-E
  6
Continuous
 62
     7
370
   211
100
AcDbMText
 10
2003.844155079399
 20
-2769.623660873526
 30
0.0
 40
68.58
 41
90.0
 46
0.0
 71
     7
 72
     1
  1
{\fＭＳ ゴシック|b0|i0|c128|p49;20}
 73
     1
 44
1.0
  0
LWPOLYLINE
  5
3BE
330
1F
100
AcDbEntity
  8
1-E
  6
Continuous
 62
     7
370
     5
100
AcDbPolyline
 90
        4
 70
     1
 43
3.0
 10
2222.371297578336
 20
-2773.913660873526
 42
0.4142135623731
 10
2220.871297578336
 20
-2772.413660873526
 42
0.4142135623731
 10
2219.371297578336
 20
-2773.913660873526
 42
0.4142135623731
 10
2220.871297578336
 20
-2775.413660873526
 42
0.4142135623731
  0
LINE
  5
3BF
330
1F
100
AcDbEntity
  8
1-E
  6
Continuous
 62
   120
370
     5
100
AcDbLine
 10
2220.871297578336
 20
-2773.913660873526
 30
0.0
 11
2220.871297578336
 21
-2878.426012602427
 31
0.0
  0
LWPOLYLINE
  5
3C0
330
1F
100
AcDbEntity
  8
1-E
  6
Continuous
 62
     7
370
     5
100
AcDbPolyline
 90
        4
 70
     1
 43
3.0
 10
1592.492429340473
 20
-2950.607026800441
 42
0.4142135623731
 10
1590.992429340473
 20
-2949.107026800441
 42
0.4142135623731
 10
1589.492429340473
 20
-2950.607026800441
 42
0.4142135623731
 10
1590.992429340473
 20
-2952.107026800441
 42
0.4142135623731
  0
LWPOLYLINE
  5
3C1
330
1F
100
AcDbEntity
  8
1-E
  6
Continuous
 62
     7
370
     5
100
AcDbPolyline
 90
        4
 70
     1
 43
3.0
 10
1592.492429340473
 20
-2980.607582626183
 42
0.4142135623731
 10
1590.992429340473
 20
-2979.107582626183
 42
0.4142135623731
 10
1589.492429340473
 20
-2980.607582626183
 42
0.4142135623731
 10
1590.992429340473
 20
-2982.107582626183
 42
0.4142135623731
  0
LINE
  5
3C2
330
1F
100
AcDbEntity
  8
1-E
  6
Continuous
 62
   120
370
     5
100
AcDbLine
 10
1590.992429340473
 20
-2950.607026800441
 30
0.0
 11
1721.833281024964
 21
-2950.607026800441
 31
0.0
  0
LINE
  5
3C3
330
1F
100
AcDbEntity
  8
1-E
  6
Continuous
 62
   120
370
     5
100
AcDbLine
 10
1590.992429340473
 20
-2980.607582626183
 30
0.0
 11
1721.833281024964
 21
-2980.607582626183
 31
0.0
  0
LINE
  5
3C4
330
1F
100
AcDbEntity
  8
1-E
  6
Continuous
 62
   120
370
     5
100
AcDbLine
 10
1590.992429340473
 20
-2980.607582626183
 30
0.0
 11
1590.992429340473
 21
-3055.60758262619
 31
0.0
  0
LWPOLYLINE
  5
3C5
330
1F
100
AcDbEntity
  8
1-E
  6
Continuous
 62
     7
370
     5
100
AcDbPolyline
 90
        4
 70
     1
 43
3.0
 10
1592.492429340473
 20
-3055.60758262619
 42
0.4142135623731
 10
1590.992429340473
 20
-3054.10758262619
 42
0.4142135623731
 10
1589.492429340473
 20
-3055.60758262619
 42
0.4142135623731
 10
1590.992429340473
 20
-3057.10758262619
 42
0.4142135623731
  0
LINE
  5
3C6
330
1F
100
AcDbEntity
  8
1-E
  6
Continuous
 62
   120
370
     5
100
AcDbLine
 10
1590.992429340473
 20
-3055.60758262619
 30
0.0
 11
1721.833281024964
 21
-3055.60758262619
 31
0.0
  0
MTEXT
  5
3C7
330
1F
100
AcDbEntity
  8
1-E
  6
Continuous
 62
     7
370
   211
100
AcDbMText
 10
2247.711302550159
 20
-2769.623660873526
 30
0.0
 40
68.57999999999998
 41
135.0
 46
0.0
 71
     7
 72
     1
  1
{\fＭＳ ゴシック|b0|i0|c128|p49;1.5}
 73
     1
 44
1.0
  0
LINE
  5
3C8
330
1F
100
AcDbEntity
  8
1-E
  6
Continuous
 62
   120
370
     5
100
AcDbLine
 10
1434.549459096479
 20
-3055.60758262619
 30
0.0
 11
1434.549459096479
 21
-2950.607026800441
 31
0.0
  0
LWPOLYLINE
  5
3C9
330
1F
100
AcDbEntity
  8
1-E
  6
Continuous
 62
     7
370
     5
100
AcDbPolyline
 90
        4
 70
     1
 43
3.0
 10
1436.049459096479
 20
-3055.60758262619
 42
0.4142135623731
 10
1434.549459096479
 20
-3054.10758262619
 42
0.4142135623731
 10
1433.049459096479
 20
-3055.60758262619
 42
0.4142135623731
 10
1434.549459096479
 20
-3057.10758262619
 42
0.4142135623731
  0
LWPOLYLINE
  5
3CA
330
1F
100
AcDbEntity
  8
1-E
  6
Continuous
 62
     7
370
     5
100
AcDbPolyline
 90
        4
 70
     1
 43
3.0
 10
1436.049459096479
 20
-2950.607026800441
 42
0.4142135623731
 10
1434.549459096479
 20
-2949.107026800441
 42
0.4142135623731
 10
1433.049459096479
 20
-2950.607026800441
 42
0.4142135623731
 10
1434.549459096479
 20
-2952.107026800441
 42
0.4142135623731
  0
LINE
  5
3CB
330
1F
100
AcDbEntity
  8
1-E
  6
Continuous
 62
   120
370
     5
100
AcDbLine
 10
1434.549459096479
 20
-3055.60758262619
 30
0.0
 11
1590.992429340473
 21
-3055.60758262619
 31
0.0
  0
LINE
  5
3CC
330
1F
100
AcDbEntity
  8
1-E
  6
Continuous
 62
   120
370
     5
100
AcDbLine
 10
1434.549459096479
 20
-2950.607026800441
 30
0.0
 11
1590.992429340473
 21
-2950.607026800441
 31
0.0
  0
MTEXT
  5
3CD
330
1F
100
AcDbEntity
  8
1-E
  6
Continuous
 62
     7
370
   211
100
AcDbMText
 10
-172.1980995833383
 20
-2820.960265755129
 30
0.0
 40
91.44000000000065
 41
120.0000000000009
 46
0.0
 71
     7
 72
     1
  1
{\fＭＳ ゴシック|b0|i0|c128|p49;26}
 11
6.123031769111886E-17
 21
1.0
 31
0.0
 73
     1
 44
1.0
  0
LWPOLYLINE
  5
3CE
330
1F
100
AcDbEntity
  8
1-E
  6
Continuous
 62
     7
370
     5
100
AcDbPolyline
 90
        4
 70
     1
 43
3.0
 10
1436.049459096479
 20
-2191.400280268266
 42
0.4142135623731
 10
1434.549459096479
 20
-2189.900280268266
 42
0.4142135623731
 10
1433.049459096479
 20
-2191.400280268266
 42
0.4142135623731
 10
1434.549459096479
 20
-2192.900280268266
 42
0.4142135623731
  0
LINE
  5
3CF
330
1F
100
AcDbEntity
  8
1-E
  6
Continuous
 62
   120
370
     5
100
AcDbLine
 10
1434.549459096479
 20
-2191.400280268266
 30
0.0
 11
1590.992429340473
 21
-2191.400280268266
 31
0.0
  0
LINE
  5
3D0
330
1F
100
AcDbEntity
  8
1-E
  6
Continuous
 62
   120
370
     5
100
AcDbLine
 10
1434.549459096479
 20
-2191.400280268266
 30
0.0
 11
1434.549459096479
 21
-2068.400280268265
 31
0.0
  0
LWPOLYLINE
  5
3D1
330
1F
100
AcDbEntity
  8
1-E
  6
Continuous
 62
     7
370
     5
100
AcDbPolyline
 90
        4
 70
     1
 43
3.0
 10
1436.049459096479
 20
-2068.400280268265
 42
0.4142135623731
 10
1434.549459096479
 20
-2066.900280268265
 42
0.4142135623731
 10
1433.049459096479
 20
-2068.400280268265
 42
0.4142135623731
 10
1434.549459096479
 20
-2069.900280268265
 42
0.4142135623731
  0
LINE
  5
3D2
330
1F
100
AcDbEntity
  8
1-E
  6
Continuous
 62
   120
370
     5
100
AcDbLine
 10
1434.549459096479
 20
-2068.400280268265
 30
0.0
 11
1590.992429340473
 21
-2068.400280268265
 31
0.0
  0
MTEXT
  5
3D3
330
1F
100
AcDbEntity
  8
1-E
  6
Continuous
 62
     7
370
   211
100
AcDbMText
 10
1575.992429340473
 20
-2949.738177967032
 30
0.0
 40
68.58
 41
45.0
 46
0.0
 71
     7
 72
     1
  1
{\fＭＳ ゴシック|b0|i0|c128|p49;2}
 11
6.123031769111886E-17
 21
1.0
 31
0.0
 73
     1
 44
1.0
  0
MTEXT
  5
3D4
330
1F
100
AcDbEntity
  8
1-E
  6
Continuous
 62
     7
370
   211
100
AcDbMText
 10
338.4866567927611
 20
-3018.960265755132
 30
0.0
 40
91.44000000000065
 41
60.00000000000043
 46
0.0
 71
     7
 72
     1
  1
{\fＭＳ ゴシック|b0|i0|c128|p49;5}
 73
     1
 44
1.0
  0
LINE
  5
3D5
330
1F
100
AcDbEntity
  8
1-E
  6
Continuous
 62
   120
370
     5
100
AcDbLine
 10
1590.992429340473
 20
-2884.085730391352
 30
0.0
 11
1590.992429340473
 21
-2980.607582626183
 31
0.0
  0
LINE
  5
3D6
330
1F
100
AcDbEntity
  8
1-E
  6
Continuous
 62
   120
370
     5
100
AcDbLine
 10
1876.344155079399
 20
-2611.966425215754
 30
0.0
 11
2220.871297578336
 21
-2611.966425215754
 31
0.0
  0
LWPOLYLINE
  5
3D7
330
1F
100
AcDbEntity
  8
1-E
  6
Continuous
 62
     7
370
     5
100
AcDbPolyline
 90
        4
 70
     1
 43
3.0
 10
1877.844155079399
 20
-2611.966425215754
 42
0.4142135623731
 10
1876.344155079399
 20
-2610.466425215754
 42
0.4142135623731
 10
1874.844155079399
 20
-2611.966425215754
 42
0.4142135623731
 10
1876.344155079399
 20
-2613.466425215754
 42
0.4142135623731
  0
LWPOLYLINE
  5
3D8
330
1F
100
AcDbEntity
  8
1-E
  6
Continuous
 62
     7
370
     5
100
AcDbPolyline
 90
        4
 70
     1
 43
3.0
 10
2222.371297578336
 20
-2611.966425215754
 42
0.4142135623731
 10
2220.871297578336
 20
-2610.466425215754
 42
0.4142135623731
 10
2219.371297578336
 20
-2611.966425215754
 42
0.4142135623731
 10
2220.871297578336
 20
-2613.466425215754
 42
0.4142135623731
  0
LINE
  5
3D9
330
1F
100
AcDbEntity
  8
1-E
  6
Continuous
 62
   120
370
     5
100
AcDbLine
 10
1876.344155079399
 20
-2611.966425215754
 30
0.0
 11
1876.344155079399
 21
-2773.913660873526
 31
0.0
  0
LINE
  5
3DA
330
1F
100
AcDbEntity
  8
1-E
  6
Continuous
 62
   120
370
     5
100
AcDbLine
 10
2220.871297578336
 20
-2611.966425215754
 30
0.0
 11
2220.871297578336
 21
-2773.913660873526
 31
0.0
  0
MTEXT
  5
3DB
330
1F
100
AcDbEntity
  8
1-E
  6
Continuous
 62
     7
370
   211
100
AcDbMText
 10
1419.549459096479
 20
-3036.317304713316
 30
0.0
 40
68.58
 41
45.0
 46
0.0
 71
     7
 72
     1
  1
{\fＭＳ ゴシック|b0|i0|c128|p49;7}
 11
6.123031769111886E-17
 21
1.0
 31
0.0
 73
     1
 44
1.0
  0
LINE
  5
3DC
330
1F
100
AcDbEntity
  8
1-E
  6
Continuous
 62
   120
370
     5
100
AcDbLine
 10
1711.942073301864
 20
-2773.913660873526
 30
0.0
 11
1898.844155079399
 21
-2773.913660873526
 31
0.0
  0
LINE
  5
3DD
330
1F
100
AcDbEntity
  8
1-E
  6
Continuous
 62
   120
370
     5
100
AcDbLine
 10
2198.844155079399
 20
-2773.913660873526
 30
0.0
 11
2392.153219034693
 21
-2773.913660873526
 31
0.0
  0
MTEXT
  5
3DE
330
1F
100
AcDbEntity
  8
1-E
  6
Continuous
 62
     7
370
   211
100
AcDbMText
 10
1575.992429340473
 20
-3051.317582626187
 30
0.0
 40
68.58
 41
45.0
 46
0.0
 71
     7
 72
     1
  1
{\fＭＳ ゴシック|b0|i0|c128|p49;5}
 11
6.123031769111886E-17
 21
1.0
 31
0.0
 73
     1
 44
1.0
  0
MTEXT
  5
3DF
330
1F
100
AcDbEntity
  8
1-E
  6
Continuous
 62
     7
370
   211
100
AcDbMText
 10
12.23754757612411
 20
-3078.960265755132
 30
0.0
 40
91.44000000000017
 41
120.0000000000002
 46
0.0
 71
     7
 72
     1
  1
{\fＭＳ ゴシック|b0|i0|c128|p49;10}
 73
     1
 44
1.0
  0
LINE
  5
3E0
330
1F
100
AcDbEntity
  8
1-E
  6
Continuous
 62
   120
370
     5
100
AcDbLine
 10
-384.8939426978474
 20
-247.992148334947
 30
0.0
 11
385.1064202138988
 21
-247.992148334947
 31
0.0
  0
LWPOLYLINE
  5
3E1
330
1F
100
AcDbEntity
  8
1-E
  6
Continuous
 62
     7
370
     5
100
AcDbPolyline
 90
        4
 70
     1
 43
3.0
 10
-383.3939426978474
 20
-247.992148334947
 42
0.4142135623731
 10
-384.8939426978474
 20
-246.492148334947
 42
0.4142135623731
 10
-386.3939426978474
 20
-247.992148334947
 42
0.4142135623731
 10
-384.8939426978474
 20
-249.492148334947
 42
0.4142135623731
  0
LWPOLYLINE
  5
3E2
330
1F
100
AcDbEntity
  8
1-E
  6
Continuous
 62
     7
370
     5
100
AcDbPolyline
 90
        4
 70
     1
 43
3.0
 10
386.6064202138988
 20
-247.992148334947
 42
0.4142135623731
 10
385.1064202138988
 20
-246.492148334947
 42
0.4142135623731
 10
383.6064202138988
 20
-247.992148334947
 42
0.4142135623731
 10
385.1064202138988
 20
-249.492148334947
 42
0.4142135623731
  0
LINE
  5
3E3
330
1F
100
AcDbEntity
  8
1-E
  6
Continuous
 62
   120
370
     5
100
AcDbLine
 10
-384.8939426978474
 20
-247.992148334947
 30
0.0
 11
-384.8939426978474
 21
-391.5341981349476
 31
0.0
  0
LINE
  5
3E4
330
1F
100
AcDbEntity
  8
1-E
  6
Continuous
 62
   120
370
     5
100
AcDbLine
 10
385.1064202138988
 20
-247.992148334947
 30
0.0
 11
385.1064202138988
 21
-391.5341981349476
 31
0.0
  0
MTEXT
  5
3E5
330
1F
100
AcDbEntity
  8
1-E
  6
Continuous
 62
     7
370
   211
100
AcDbMText
 10
177.9866567927502
 20
-3078.960265755133
 30
0.0
 40
91.43999999999969
 41
59.99999999999979
 46
0.0
 71
     7
 72
     1
  1
{\fＭＳ ゴシック|b0|i0|c128|p49;9}
 73
     1
 44
1.0
  0
LINE
  5
3E6
330
1F
100
AcDbEntity
  8
1-E
  6
Continuous
 62
    92
370
     5
100
AcDbLine
 10
-384.8939426978474
 20
-441.5341981349465
 30
0.0
 11
-384.8939426978474
 21
-1181.825374815791
 31
0.0
  0
LINE
  5
3E7
330
1F
100
AcDbEntity
  8
1-E
  6
Continuous
 62
    92
370
     5
100
AcDbLine
 10
-384.8939426978474
 20
-1181.825374815791
 30
0.0
 11
-114.8931508904197
 21
-1181.825374815791
 31
0.0
  0
LINE
  5
3E8
330
1F
100
AcDbEntity
  8
1-E
  6
Continuous
 62
    92
370
     5
100
AcDbLine
 10
115.107113045393
 20
-1181.825374815791
 30
0.0
 11
385.1064202138988
 21
-1181.825374815791
 31
0.0
  0
LINE
  5
3E9
330
1F
100
AcDbEntity
  8
1-E
  6
Continuous
 62
    92
370
     5
100
AcDbLine
 10
385.1064202138988
 20
-441.5341981349465
 30
0.0
 11
385.1064202138988
 21
-1181.825374815791
 31
0.0
  0
LINE
  5
3EA
330
1F
100
AcDbEntity
  8
1-E
  6
Continuous
 62
   120
370
     5
100
AcDbLine
 10
-384.8939426978474
 20
-1559.33482701702
 30
0.0
 11
-114.8931508904197
 21
-1559.33482701702
 31
0.0
  0
LWPOLYLINE
  5
3EB
330
1F
100
AcDbEntity
  8
1-E
  6
Continuous
 62
     7
370
     5
100
AcDbPolyline
 90
        4
 70
     1
 43
3.0
 10
-383.3939426978474
 20
-1559.33482701702
 42
0.4142135623731
 10
-384.8939426978474
 20
-1557.83482701702
 42
0.4142135623731
 10
-386.3939426978474
 20
-1559.33482701702
 42
0.4142135623731
 10
-384.8939426978474
 20
-1560.83482701702
 42
0.4142135623731
  0
LWPOLYLINE
  5
3EC
330
1F
100
AcDbEntity
  8
1-E
  6
Continuous
 62
     7
370
     5
100
AcDbPolyline
 90
        4
 70
     1
 43
3.0
 10
-113.3931508904197
 20
-1559.33482701702
 42
0.4142135623731
 10
-114.8931508904197
 20
-1557.83482701702
 42
0.4142135623731
 10
-116.3931508904197
 20
-1559.33482701702
 42
0.4142135623731
 10
-114.8931508904197
 20
-1560.83482701702
 42
0.4142135623731
  0
LINE
  5
3ED
330
1F
100
AcDbEntity
  8
1-E
  6
Continuous
 62
   120
370
     5
100
AcDbLine
 10
-384.8939426978474
 20
-1559.33482701702
 30
0.0
 11
-384.8939426978474
 21
-1379.33482701702
 31
0.0
  0
LINE
  5
3EE
330
1F
100
AcDbEntity
  8
1-E
  6
Continuous
 62
   120
370
     5
100
AcDbLine
 10
-114.8931508904197
 20
-1559.33482701702
 30
0.0
 11
-114.8931508904197
 21
-1379.33482701702
 31
0.0
  0
MTEXT
  5
3EF
330
1F
100
AcDbEntity
  8
1-E
  6
Continuous
 62
     7
370
     5
100
AcDbMText
 10
-516.990760067833
 20
-3123.960265755132
 30
0.0
 40
91.44000000000001
 41
360.0
 46
0.0
 71
     7
 72
     1
  1
{\fＭＳ ゴシック|b0|i0|c128|p49;室内側}
 73
     1
 44
1.0
  0
LINE
  5
3F0
330
1F
100
AcDbEntity
  8
1-E
  6
Continuous
 62
   120
370
     5
100
AcDbLine
 10
-114.8931508904197
 20
-1559.33482701702
 30
0.0
 11
115.107113045393
 21
-1559.33482701702
 31
0.0
  0
LWPOLYLINE
  5
3F1
330
1F
100
AcDbEntity
  8
1-E
  6
Continuous
 62
     7
370
     5
100
AcDbPolyline
 90
        4
 70
     1
 43
3.0
 10
116.607113045393
 20
-1559.33482701702
 42
0.4142135623731
 10
115.107113045393
 20
-1557.83482701702
 42
0.4142135623731
 10
113.607113045393
 20
-1559.33482701702
 42
0.4142135623731
 10
115.107113045393
 20
-1560.83482701702
 42
0.4142135623731
  0
LINE
  5
3F2
330
1F
100
AcDbEntity
  8
1-E
  6
Continuous
 62
   120
370
     5
100
AcDbLine
 10
115.107113045393
 20
-1559.33482701702
 30
0.0
 11
115.107113045393
 21
-1379.33482701702
 31
0.0
  0
MTEXT
  5
3F3
330
1F
100
AcDbEntity
  8
1-E
  6
Continuous
 62
     7
370
   211
100
AcDbMText
 10
335.4866567927502
 20
-3168.960265755132
 30
0.0
 40
91.44000000000065
 41
60.00000000000043
 46
0.0
 71
     7
 72
     1
  1
{\fＭＳ ゴシック|b0|i0|c128|p49;6}
 73
     1
 44
1.0
  0
LINE
  5
3F4
330
1F
100
AcDbEntity
  8
1-E
  6
Continuous
 62
   120
370
     5
100
AcDbLine
 10
115.107113045393
 20
-1559.33482701702
 30
0.0
 11
385.1064202138988
 21
-1559.33482701702
 31
0.0
  0
LWPOLYLINE
  5
3F5
330
1F
100
AcDbEntity
  8
1-E
  6
Continuous
 62
     7
370
     5
100
AcDbPolyline
 90
        4
 70
     1
 43
3.0
 10
386.6064202138988
 20
-1559.33482701702
 42
0.4142135623731
 10
385.1064202138988
 20
-1557.83482701702
 42
0.4142135623731
 10
383.6064202138988
 20
-1559.33482701702
 42
0.4142135623731
 10
385.1064202138988
 20
-1560.83482701702
 42
0.4142135623731
  0
LINE
  5
3F6
330
1F
100
AcDbEntity
  8
1-E
  6
Continuous
 62
   120
370
     5
100
AcDbLine
 10
385.1064202138988
 20
-1559.33482701702
 30
0.0
 11
385.1064202138988
 21
-1379.33482701702
 31
0.0
  0
MTEXT
  5
3F7
330
1F
100
AcDbEntity
  8
1-E
  6
Continuous
 62
     7
370
   211
100
AcDbMText
 10
150.987102184436
 20
-3213.960265755133
 30
0.0
 40
91.43999999999969
 41
119.9999999999996
 46
0.0
 71
     7
 72
     1
  1
{\fＭＳ ゴシック|b0|i0|c128|p49;30}
 73
     1
 44
1.0
  0
LINE
  5
3F8
330
1F
100
AcDbEntity
  8
1-E
  6
Continuous
 62
    92
370
     5
100
AcDbLine
 10
330.986755768686
 20
-2465.102353553378
 30
0.0
 11
330.986755768686
 21
-2782.68026575513
 31
0.0
  0
LINE
  5
3F9
330
1F
100
AcDbEntity
  8
1-E
  6
Continuous
 62
    40
370
     5
100
AcDbLine
 10
270.9866567927613
 20
-2857.680265755133
 30
0.0
 11
948.2681890114964
 21
-2857.680265755133
 31
0.0
  0
LINE
  5
3FA
330
1F
100
AcDbEntity
  8
1-E
  6
Continuous
 62
    40
370
     5
100
AcDbLine
 10
270.9866567927613
 20
-2782.68026575513
 30
0.0
 11
948.2681890114964
 21
-2782.68026575513
 31
0.0
  0
LINE
  5
3FB
330
1F
100
AcDbEntity
  8
1-E
  6
JWW_DASHED1
 62
   120
370
     5
100
AcDbLine
 10
908.6338871405542
 20
-2857.680265755133
 30
0.0
 11
948.2681890114964
 21
-2818.045963884169
 31
0.0
  0
LINE
  5
3FC
330
1F
100
AcDbEntity
  8
1-E
  6
JWW_DASHED1
 62
   120
370
     5
100
AcDbLine
 10
866.2074802693542
 20
-2857.680265755127
 30
0.0
 11
941.2074802693559
 21
-2782.68026575513
 31
0.0
  0
MTEXT
  5
3FD
330
1F
100
AcDbEntity
  8
0-B_寸法
  6
Continuous
 62
     7
370
   211
100
AcDbMText
 10
-2046.47996874411
 20
2287.665146596495
 30
0.0
 40
91.44
 41
120.0
 46
0.0
 71
     7
 72
     1
  1
{\fＭＳ ゴシック|b0|i0|c128|p49;20}
 11
6.123031769111886E-17
 21
1.0
 31
0.0
 73
     1
 44
1.0
  0
MTEXT
  5
3FE
330
1F
100
AcDbEntity
  8
0-B_寸法
  6
Continuous
 62
     7
370
     0
100
AcDbMText
 10
-2723.040740273346
 20
-1160.269884247784
 30
0.0
 40
91.4400000000005
 41
120.0000000000007
 46
0.0
 71
     7
 72
     1
  1
{\fＭＳ ゴシック|b0|i0|c128|p49;20}
 11
0.9999999999914964
 21
4.124000465782628E-6
 31
0.0
 73
     1
 44
1.0
  0
MTEXT
  5
3FF
330
1F
100
AcDbEntity
  8
F-A_文字
  6
Continuous
 62
     7
370
     0
100
AcDbMText
 10
4938.667793092893
 20
-3938.071010139966
 30
0.0
 40
78.86699999999999
 41
517.5
 46
0.0
 71
     7
 72
     1
  1
{\fＭＳ ゴシック|b0|i0|c128|p49;2024.04.01}
 73
     1
 44
1.0
  0
LINE
  5
400
330
1F
100
AcDbEntity
  8
0-6_扉
  6
Continuous
 62
   200
370
     5
100
AcDbLine
 10
-2857.290383651204
 20
2421.945146596495
 30
0.0
 11
-853.2903836512048
 21
2421.945146596495
 31
0.0
  0
LINE
  5
401
330
1F
100
AcDbEntity
  8
0-6_扉
  6
Continuous
 62
   200
370
     5
100
AcDbLine
 10
-847.2903836512
 20
2421.945146596495
 30
0.0
 11
1156.709616348799
 21
2421.945146596495
 31
0.0
  0
LINE
  5
402
330
1F
100
AcDbEntity
  8
0-0_補助線
  6
Continuous
 62
   120
370
     5
100
AcDbLine
 10
-2842.290383651204
 20
2324.359196304034
 30
0.0
 11
-2842.290383651204
 21
2402.688459527219
 31
0.0
  0
LINE
  5
403
330
1F
100
AcDbEntity
  8
0-0_補助線
  6
Continuous
 62
   120
370
     5
100
AcDbLine
 10
-2857.290383651204
 20
2324.359196304034
 30
0.0
 11
-2857.290383651204
 21
2402.688459527219
 31
0.0
  0
LWPOLYLINE
  5
404
330
1F
100
AcDbEntity
  8
0-B_寸法
  6
Continuous
 62
     7
370
     5
100
AcDbPolyline
 90
        4
 70
     1
 43
3.0
 10
-2029.979968744111
 20
2421.945146596495
 42
0.4142135623731
 10
-2031.479968744111
 20
2423.445146596495
 42
0.4142135623731
 10
-2032.97996874411
 20
2421.945146596495
 42
0.4142135623731
 10
-2031.479968744111
 20
2420.445146596495
 42
0.4142135623731
  0
CIRCLE
  5
405
330
1F
100
AcDbEntity
  8
0-7_金物
  6
Continuous
 62
     7
370
     5
100
AcDbCircle
 10
-850.2903836512016
 20
2451.945146596472
 30
0.0
 40
21.00000000000001
  0
CIRCLE
  5
406
330
1F
100
AcDbEntity
  8
0-7_金物
  6
Continuous
 62
     7
370
     5
100
AcDbCircle
 10
-850.2903836512016
 20
2451.945146596472
 30
0.0
 40
30.0
  0
LINE
  5
407
330
1F
100
AcDbEntity
  8
0-6_扉
  6
Continuous
 62
   200
370
     5
100
AcDbLine
 10
-2857.290383651204
 20
2301.945146596495
 30
0.0
 11
-853.2903836512048
 21
2301.945146596495
 31
0.0
  0
LINE
  5
408
330
1F
100
AcDbEntity
  8
0-6_扉
  6
Continuous
 62
   200
370
     5
100
AcDbLine
 10
-847.2903836512
 20
2301.945146596495
 30
0.0
 11
1156.709616348799
 21
2301.945146596495
 31
0.0
  0
LWPOLYLINE
  5
409
330
1F
100
AcDbEntity
  8
0-B_寸法
  6
Continuous
 62
     7
370
     5
100
AcDbPolyline
 90
        4
 70
     1
 43
3.0
 10
-2029.979968744111
 20
2301.945146596495
 42
0.4142135623731
 10
-2031.479968744111
 20
2303.445146596495
 42
0.4142135623731
 10
-2032.97996874411
 20
2301.945146596495
 42
0.4142135623731
 10
-2031.479968744111
 20
2300.445146596495
 42
0.4142135623731
  0
LINE
  5
40A
330
1F
100
AcDbEntity
  8
0-6_扉
  6
Continuous
 62
   200
370
     5
100
AcDbLine
 10
-2857.290383651204
 20
2421.945146596495
 30
0.0
 11
-2857.290383651204
 21
2301.945146596495
 31
0.0
  0
LINE
  5
40B
330
1F
100
AcDbEntity
  8
0-6_扉
  6
Continuous
 62
   200
370
     5
100
AcDbLine
 10
-853.2903836512048
 20
2421.945146596495
 30
0.0
 11
-853.2903836512048
 21
2301.945146596495
 31
0.0
  0
LINE
  5
40C
330
1F
100
AcDbEntity
  8
0-6_扉
  6
Continuous
 62
   200
370
     5
100
AcDbLine
 10
1156.709616348799
 20
2421.945146596495
 30
0.0
 11
1156.709616348799
 21
2301.945146596495
 31
0.0
  0
LINE
  5
40D
330
1F
100
AcDbEntity
  8
0-6_扉
  6
Continuous
 62
   200
370
     5
100
AcDbLine
 10
-847.2903836512044
 20
2421.945146596495
 30
0.0
 11
-847.2903836512044
 21
2301.945146596495
 31
0.0
  0
LINE
  5
40E
330
1F
100
AcDbEntity
  8
0-B_寸法
  6
Continuous
 62
   120
370
     5
100
AcDbLine
 10
-2031.479968744111
 20
2421.945146596495
 30
0.0
 11
-2031.479968744111
 21
2301.945146596495
 31
0.0
  0
LWPOLYLINE
  5
40F
330
1F
100
AcDbEntity
  8
0-B_寸法
  6
Continuous
 62
     7
370
     5
100
AcDbPolyline
 90
        4
 70
     1
 43
3.0
 10
-2597.790185699338
 20
-1160.989500715855
 42
0.4142135623731
 10
-2599.290185699337
 20
-1159.489500715855
 42
0.4142135623731
 10
-2600.790185699337
 20
-1160.989500715855
 42
0.4142135623731
 10
-2599.290185699337
 20
-1162.489500715855
 42
0.4142135623731
  0
LINE
  5
410
330
1F
100
AcDbEntity
  8
0-B_寸法
  6
Continuous
 62
   120
370
     5
100
AcDbLine
 10
-2599.290185699337
 20
-1076.752572136883
 30
0.0
 11
-2599.290185699337
 21
-1160.989500715855
 31
0.0
  0
LINE
  5
411
330
1F
100
AcDbEntity
  8
0-6_扉
  6
Continuous
 62
   200
370
     5
100
AcDbLine
 10
-2599.290185699337
 20
-3175.000334096354
 30
0.0
 11
-2599.290185699337
 21
-1917.999673791762
 31
0.0
  0
LINE
  5
412
330
1F
100
AcDbEntity
  8
0-6_扉
  6
Continuous
 62
   200
370
     5
100
AcDbLine
 10
-2599.290185699337
 20
-558.9994634679138
 30
0.0
 11
-2599.290185699337
 21
-1797.999673791762
 31
0.0
  0
LWPOLYLINE
  5
413
330
1F
100
AcDbEntity
  8
0-B_寸法
  6
Continuous
 62
     7
370
     5
100
AcDbPolyline
 90
        4
 70
     1
 43
3.0
 10
-2717.790185699338
 20
-1160.989500715855
 42
0.4142135623731
 10
-2719.290185699337
 20
-1159.489500715855
 42
0.4142135623731
 10
-2720.790185699337
 20
-1160.989500715855
 42
0.4142135623731
 10
-2719.290185699337
 20
-1162.489500715855
 42
0.4142135623731
  0
LINE
  5
414
330
1F
100
AcDbEntity
  8
0-B_寸法
  6
Continuous
 62
   120
370
     5
100
AcDbLine
 10
-2719.290185699337
 20
-1076.752572136883
 30
0.0
 11
-2719.290185699337
 21
-1160.989500715855
 31
0.0
  0
LINE
  5
415
330
1F
100
AcDbEntity
  8
0-6_扉
  6
Continuous
 62
   200
370
     5
100
AcDbLine
 10
-2719.290185699337
 20
-3175.000334096354
 30
0.0
 11
-2719.290185699337
 21
-1917.999673791762
 31
0.0
  0
LINE
  5
416
330
1F
100
AcDbEntity
  8
0-6_扉
  6
Continuous
 62
   200
370
     5
100
AcDbLine
 10
-2719.290185699337
 20
-558.9994634679138
 30
0.0
 11
-2719.290185699337
 21
-1797.999673791762
 31
0.0
  0
LINE
  5
417
330
1F
100
AcDbEntity
  8
0-6_扉
  6
Continuous
 62
   200
370
     5
100
AcDbLine
 10
-2599.290185699337
 20
-3175.000334096354
 30
0.0
 11
-2719.290185699337
 21
-3175.000334096354
 31
0.0
  0
LINE
  5
418
330
1F
100
AcDbEntity
  8
0-6_扉
  6
Continuous
 62
   200
370
     5
100
AcDbLine
 10
-2719.290185699337
 20
-558.9994634679138
 30
0.0
 11
-2599.290185699337
 21
-558.9994634679138
 31
0.0
  0
LINE
  5
419
330
1F
100
AcDbEntity
  8
0-B_寸法
  6
Continuous
 62
   120
370
     5
100
AcDbLine
 10
-2719.290185699337
 20
-1160.989500715855
 30
0.0
 11
-2599.290185699337
 21
-1160.989500715855
 31
0.0
  0
ENDSEC
  0
SECTION
  2
OBJECTS
  0
DICTIONARY
  5
C
330
0
100
AcDbDictionary
281
     1
  3
ACAD_GROUP
350
D
  3
ACAD_LAYOUT
350
1A
  3
ACAD_MATERIAL
350
3B
  3
ACAD_MLEADERSTYLE
350
442
  3
ACAD_MLINESTYLE
350
17
  3
ACAD_PLOTSETTINGS
350
19
  3
ACAD_PLOTSTYLENAME
350
E
  3
ACAD_TABLESTYLE
350
441
  3
ACAD_VISUALSTYLE
350
2A
  0
DICTIONARY
  5
D
102
{ACAD_REACTORS
330
C
102
}
330
C
100
AcDbDictionary
281
     1
  0
DICTIONARY
  5
1A
102
{ACAD_REACTORS
330
C
102
}
330
C
100
AcDbDictionary
281
     1
  3
Layout1
350
1E
  3
Layout2
350
26
  3
Model
350
22
  0
DICTIONARY
  5
3B
102
{ACAD_REACTORS
330
C
102
}
330
C
100
AcDbDictionary
281
     1
  3
ByBlock
350
3D
  3
ByLayer
350
3C
  3
Global
350
3E
  0
DICTIONARY
  5
442
102
{ACAD_REACTORS
330
C
102
}
330
C
100
AcDbDictionary
281
     1
  0
DICTIONARY
  5
17
102
{ACAD_REACTORS
330
C
102
}
330
C
100
AcDbDictionary
281
     1
  3
Standard
350
18
  0
DICTIONARY
  5
19
102
{ACAD_REACTORS
330
C
102
}
330
C
100
AcDbDictionary
281
     1
  0
ACDBDICTIONARYWDFLT
  5
E
102
{ACAD_REACTORS
330
C
102
}
330
C
100
AcDbDictionary
281
     1
  3
Normal
350
F
100
AcDbDictionaryWithDefault
340
F
  0
DICTIONARY
  5
441
102
{ACAD_REACTORS
330
C
102
}
330
C
100
AcDbDictionary
281
     1
  0
DICTIONARY
  5
2A
102
{ACAD_REACTORS
330
C
102
}
330
C
100
AcDbDictionary
281
     1
  3
2dWireframe
350
2F
  3
3D Hidden
350
31
  3
3dWireframe
350
30
  3
Basic
350
32
  3
Brighten
350
36
  3
ColorChange
350
3A
  3
Conceptual
350
34
  3
Dim
350
35
  3
Facepattern
350
39
  3
Flat
350
2B
  3
FlatWithEdges
350
2C
  3
Gouraud
350
2D
  3
GouraudWithEdges
350
2E
  3
Linepattern
350
38
  3
Realistic
350
33
  3
Thicken
350
37
  0
LAYOUT
  5
1E
102
{ACAD_REACTORS
330
1A
102
}
330
1A
100
AcDbPlotSettings
  1

  2
none_device
  4

  6

 40
0.0
 41
0.0
 42
0.0
 43
0.0
 44
0.0
 45
0.0
 46
0.0
 47
0.0
 48
0.0
 49
0.0
140
0.0
141
0.0
142
1.0
143
1.0
 70
   688
 72
     0
 73
     0
 74
     5
  7

 75
    16
 76
     0
 77
     5
 78
   300
147
1.0
148
0.0
149
0.0
100
AcDbLayout
  1
Layout1
 70
     1
 71
     1
 10
0.0
 20
0.0
 11
420.0
 21
297.0
 12
0.0
 22
0.0
 32
0.0
 14
1.000000000000000E+20
 24
1.000000000000000E+20
 34
1.000000000000000E+20
 15
-1.000000000000000E+20
 25
-1.000000000000000E+20
 35
-1.000000000000000E+20
146
0.0
 13
0.0
 23
0.0
 33
0.0
 16
1.0
 26
0.0
 36
0.0
 17
0.0
 27
1.0
 37
0.0
 76
     0
330
1B
  0
LAYOUT
  5
26
102
{ACAD_REACTORS
330
1A
102
}
330
1A
100
AcDbPlotSettings
  1

  2
none_device
  4

  6

 40
0.0
 41
0.0
 42
0.0
 43
0.0
 44
0.0
 45
0.0
 46
0.0
 47
0.0
 48
0.0
 49
0.0
140
0.0
141
0.0
142
1.0
143
1.0
 70
   688
 72
     0
 73
     0
 74
     5
  7

 75
    16
 76
     0
 77
     5
 78
   300
147
1.0
148
0.0
149
0.0
100
AcDbLayout
  1
Layout2
 70
     1
 71
     2
 10
0.0
 20
0.0
 11
0.0
 21
0.0
 12
0.0
 22
0.0
 32
0.0
 14
0.0
 24
0.0
 34
0.0
 15
0.0
 25
0.0
 35
0.0
146
0.0
 13
0.0
 23
0.0
 33
0.0
 16
1.0
 26
0.0
 36
0.0
 17
0.0
 27
1.0
 37
0.0
 76
     0
330
23
  0
LAYOUT
  5
22
102
{ACAD_REACTORS
330
1A
102
}
330
1A
100
AcDbPlotSettings
  1

  2
none_device
  4

  6

 40
0.0
 41
0.0
 42
0.0
 43
0.0
 44
0.0
 45
0.0
 46
0.0
 47
0.0
 48
0.0
 49
0.0
140
0.0
141
0.0
142
1.0
143
1.0
 70
  1712
 72
     0
 73
     0
 74
     0
  7

 75
     0
 76
     0
 77
     5
 78
   300
147
1.0
148
0.0
149
0.0
100
AcDbLayout
  1
Model
 70
     1
 71
     0
 10
-6300.0
 20
-4455.0
 11
6300.0
 21
4455.0
 12
0.0
 22
0.0
 32
0.0
 14
-6300.0
 24
-4455.0
 34
0.0
 15
6300.0
 25
4455.0
 35
0.0
146
0.0
 13
0.0
 23
0.0
 33
0.0
 16
1.0
 26
0.0
 36
0.0
 17
0.0
 27
1.0
 37
0.0
 76
     0
330
1F
331
29
  0
MATERIAL
  5
3D
102
{ACAD_REACTORS
330
3B
102
}
330
3B
100
AcDbMaterial
  1
ByBlock
 72
     1
 94
      127
  0
MATERIAL
  5
3C
102
{ACAD_REACTORS
330
3B
102
}
330
3B
100
AcDbMaterial
  1
ByLayer
 72
     1
 94
      127
  0
MATERIAL
  5
3E
102
{ACAD_REACTORS
330
3B
102
}
330
3B
100
AcDbMaterial
  1
Global
 72
     1
 94
      127
  0
MLINESTYLE
  5
18
102
{ACAD_REACTORS
330
17
102
}
330
17
100
AcDbMlineStyle
  2
Standard
 70
     0
  3

 62
   256
 51
90.0
 52
90.0
 71
     2
 49
0.5
 62
   256
  6
BYLAYER
 49
-0.5
 62
   256
  6
BYLAYER
  0
ACDBPLACEHOLDER
  5
F
102
{ACAD_REACTORS
330
E
102
}
330
E
  0
VISUALSTYLE
  5
2F
102
{ACAD_REACTORS
330
2A
102
}
330
2A
100
AcDbVisualStyle
  2
2dWireframe
 70
     4
177
     2
291
     0
 71
     0
176
     1
 72
     2
176
     1
 73
     0
176
     1
 90
        0
176
     1
 40
-0.6
176
     1
 41
-30.0
176
     1
 62
     5
 63
     7
421
 16777215
176
     1
 74
     1
176
     1
 91
        4
176
     1
 64
     7
176
     1
 65
   257
176
     1
 75
     1
176
     1
175
     1
176
     1
 42
1.0
176
     1
 92
        0
176
     1
 66
   257
176
     1
 43
1.0
176
     1
 76
     1
176
     1
 77
     6
176
     1
 78
     2
176
     1
 67
     7
176
     1
 79
     5
176
     1
170
     0
176
     1
171
     0
176
     1
290
     0
176
     1
 93
        1
176
     1
 44
0.0
176
     1
173
     0
176
     1
  0
VISUALSTYLE
  5
31
102
{ACAD_REACTORS
330
2A
102
}
330
2A
100
AcDbVisualStyle
  2
3D Hidden
 70
     6
177
     2
291
     0
 71
     1
176
     1
 72
     2
176
     1
 73
     2
176
     1
 90
        0
176
     1
 40
-0.6
176
     1
 41
-30.0
176
     1
 62
     5
 63
     7
421
 16777215
176
     1
 74
     2
176
     1
 91
        2
176
     1
 64
     7
176
     1
 65
   257
176
     1
 75
     2
176
     1
175
     1
176
     1
 42
40.0
176
     1
 92
        0
176
     1
 66
   257
176
     1
 43
1.0
176
     1
 76
     1
176
     1
 77
     6
176
     1
 78
     2
176
     1
 67
     7
176
     1
 79
     3
176
     1
170
     0
176
     1
171
     0
176
     1
290
     0
176
     1
 93
        1
176
     1
 44
0.0
176
     1
173
     0
176
     1
  0
VISUALSTYLE
  5
30
102
{ACAD_REACTORS
330
2A
102
}
330
2A
100
AcDbVisualStyle
  2
3dWireframe
 70
     5
177
     2
291
     0
 71
     0
176
     1
 72
     2
176
     1
 73
     0
176
     1
 90
        0
176
     1
 40
-0.6
176
     1
 41
-30.0
176
     1
 62
     5
 63
     7
421
 16777215
176
     1
 74
     1
176
     1
 91
        4
176
     1
 64
     7
176
     1
 65
   257
176
     1
 75
     1
176
     1
175
     1
176
     1
 42
1.0
176
     1
 92
        0
176
     1
 66
   257
176
     1
 43
1.0
176
     1
 76
     1
176
     1
 77
     6
176
     1
 78
     2
176
     1
 67
     7
176
     1
 79
     5
176
     1
170
     0
176
     1
171
     0
176
     1
290
     0
176
     1
 93
        1
176
     1
 44
0.0
176
     1
173
     0
176
     1
  0
VISUALSTYLE
  5
32
102
{ACAD_REACTORS
330
2A
102
}
330
2A
100
AcDbVisualStyle
  2
Basic
 70
     7
177
     2
291
     1
 71
     1
176
     1
 72
     0
176
     1
 73
     1
176
     1
 90
        0
176
     1
 40
-0.6
176
     1
 41
-30.0
176
     1
 62
     5
 63
     7
421
 16777215
176
     1
 74
     0
176
     1
 91
        4
176
     1
 64
     7
176
     1
 65
   257
176
     1
 75
     1
176
     1
175
     1
176
     1
 42
1.0
176
     1
 92
        8
176
     1
 66
     7
176
     1
 43
1.0
176
     1
 76
     1
176
     1
 77
     6
176
     1
 78
     2
176
     1
 67
     7
176
     1
 79
     5
176
     1
170
     0
176
     1
171
     0
176
     1
290
     0
176
     1
 93
        1
176
     1
 44
0.0
176
     1
173
     0
176
     1
  0
VISUALSTYLE
  5
36
102
{ACAD_REACTORS
330
2A
102
}
330
2A
100
AcDbVisualStyle
  2
Brighten
 70
    12
177
     2
291
     1
 71
     2
176
     1
 72
     2
176
     1
 73
     0
176
     1
 90
        0
176
     1
 40
-0.6
176
     1
 41
-30.0
176
     1
 62
     5
 63
     7
421
 16777215
176
     1
 74
     1
176
     1
 91
        4
176
     1
 64
     7
176
     1
 65
   257
176
     1
 75
     1
176
     1
175
     1
176
     1
 42
1.0
176
     1
 92
        8
176
     1
 66
     7
176
     1
 43
1.0
176
     1
 76
     1
176
     1
 77
     6
176
     1
 78
     2
176
     1
 67
     7
176
     1
 79
     5
176
     1
170
     0
176
     1
171
     0
176
     1
290
     0
176
     1
 93
        1
176
     1
 44
50.0
176
     1
173
     0
176
     1
  0
VISUALSTYLE
  5
3A
102
{ACAD_REACTORS
330
2A
102
}
330
2A
100
AcDbVisualStyle
  2
ColorChange
 70
    16
177
     2
291
     1
 71
     2
176
     1
 72
     2
176
     1
 73
     3
176
     1
 90
        0
176
     1
 40
-0.6
176
     1
 41
-30.0
176
     1
 62
     5
 63
     8
421
  8421504
176
     1
 74
     1
176
     1
 91
        4
176
     1
 64
     7
176
     1
 65
   257
176
     1
 75
     1
176
     1
175
     1
176
     1
 42
1.0
176
     1
 92
        8
176
     1
 66
     8
424
  8421504
176
     1
 43
1.0
176
     1
 76
     1
176
     1
 77
     6
176
     1
 78
     2
176
     1
 67
     7
176
     1
 79
     5
176
     1
170
     0
176
     1
171
     0
176
     1
290
     0
176
     1
 93
        1
176
     1
 44
0.0
176
     1
173
     0
176
     1
  0
VISUALSTYLE
  5
34
102
{ACAD_REACTORS
330
2A
102
}
330
2A
100
AcDbVisualStyle
  2
Conceptual
 70
     9
177
     2
291
     0
 71
     3
176
     1
 72
     2
176
     1
 73
     0
176
     1
 90
        0
176
     1
 40
-0.6
176
     1
 41
-30.0
176
     1
 62
     5
 63
     7
421
 16777215
176
     1
 74
     2
176
     1
 91
        2
176
     1
 64
     7
176
     1
 65
   257
176
     1
 75
     1
176
     1
175
     1
176
     1
 42
40.0
176
     1
 92
        8
176
     1
 66
     7
176
     1
 43
1.0
176
     1
 76
     1
176
     1
 77
     6
176
     1
 78
     2
176
     1
 67
     7
176
     1
 79
     3
176
     1
170
     0
176
     1
171
     0
176
     1
290
     0
176
     1
 93
        1
176
     1
 44
0.0
176
     1
173
     0
176
     1
  0
VISUALSTYLE
  5
35
102
{ACAD_REACTORS
330
2A
102
}
330
2A
100
AcDbVisualStyle
  2
Dim
 70
    11
177
     2
291
     1
 71
     2
176
     1
 72
     2
176
     1
 73
     0
176
     1
 90
        0
176
     1
 40
-0.6
176
     1
 41
-30.0
176
     1
 62
     5
 63
     7
421
 16777215
176
     1
 74
     1
176
     1
 91
        4
176
     1
 64
     7
176
     1
 65
   257
176
     1
 75
     1
176
     1
175
     1
176
     1
 42
1.0
176
     1
 92
        8
176
     1
 66
     7
176
     1
 43
1.0
176
     1
 76
     1
176
     1
 77
     6
176
     1
 78
     2
176
     1
 67
     7
176
     1
 79
     5
176
     1
170
     0
176
     1
171
     0
176
     1
290
     0
176
     1
 93
        1
176
     1
 44
-50.0
176
     1
173
     0
176
     1
  0
VISUALSTYLE
  5
39
102
{ACAD_REACTORS
330
2A
102
}
330
2A
100
AcDbVisualStyle
  2
Facepattern
 70
    15
177
     2
291
     1
 71
     2
176
     1
 72
     2
176
     1
 73
     0
176
     1
 90
        0
176
     1
 40
-0.6
176
     1
 41
-30.0
176
     1
 62
     5
 63
     7
421
 16777215
176
     1
 74
     1
176
     1
 91
        4
176
     1
 64
     7
176
     1
 65
   257
176
     1
 75
     1
176
     1
175
     1
176
     1
 42
1.0
176
     1
 92
        8
176
     1
 66
     7
176
     1
 43
1.0
176
     1
 76
     1
176
     1
 77
     6
176
     1
 78
     2
176
     1
 67
     7
176
     1
 79
     5
176
     1
170
     0
176
     1
171
     0
176
     1
290
     0
176
     1
 93
        1
176
     1
 44
0.0
176
     1
173
     0
176
     1
  0
VISUALSTYLE
  5
2B
102
{ACAD_REACTORS
330
2A
102
}
330
2A
100
AcDbVisualStyle
  2
Flat
 70
     0
177
     2
291
     1
 71
     2
176
     1
 72
     1
176
     1
 73
     1
176
     1
 90
        2
176
     1
 40
-0.6
176
     1
 41
30.0
176
     1
 62
     5
 63
     7
421
 16777215
176
     1
 74
     0
176
     1
 91
        4
176
     1
 64
     7
176
     1
 65
   257
176
     1
 75
     1
176
     1
175
     1
176
     1
 42
1.0
176
     1
 92
        8
176
     1
 66
     7
176
     1
 43
1.0
176
     1
 76
     1
176
     1
 77
     6
176
     1
 78
     2
176
     1
 67
     7
176
     1
 79
     5
176
     1
170
     0
176
     1
171
     0
176
     1
290
     0
176
     1
 93
       13
176
     1
 44
0.0
176
     1
173
     0
176
     1
  0
VISUALSTYLE
  5
2C
102
{ACAD_REACTORS
330
2A
102
}
330
2A
100
AcDbVisualStyle
  2
FlatWithEdges
 70
     1
177
     2
291
     1
 71
     2
176
     1
 72
     1
176
     1
 73
     1
176
     1
 90
        2
176
     1
 40
-0.6
176
     1
 41
30.0
176
     1
 62
     5
 63
     7
421
 16777215
176
     1
 74
     1
176
     1
 91
        4
176
     1
 64
     7
176
     1
 65
   257
176
     1
 75
     1
176
     1
175
     1
176
     1
 42
1.0
176
     1
 92
        0
176
     1
 66
   257
176
     1
 43
1.0
176
     1
 76
     1
176
     1
 77
     6
176
     1
 78
     2
176
     1
 67
     7
176
     1
 79
     5
176
     1
170
     0
176
     1
171
     0
176
     1
290
     0
176
     1
 93
       13
176
     1
 44
0.0
176
     1
173
     0
176
     1
  0
VISUALSTYLE
  5
2D
102
{ACAD_REACTORS
330
2A
102
}
330
2A
100
AcDbVisualStyle
  2
Gouraud
 70
     2
177
     2
291
     1
 71
     2
176
     1
 72
     2
176
     1
 73
     1
176
     1
 90
        2
176
     1
 40
-0.6
176
     1
 41
30.0
176
     1
 62
     5
 63
     7
421
 16777215
176
     1
 74
     0
176
     1
 91
        4
176
     1
 64
     7
176
     1
 65
   257
176
     1
 75
     1
176
     1
175
     1
176
     1
 42
1.0
176
     1
 92
        0
176
     1
 66
     7
176
     1
 43
1.0
176
     1
 76
     1
176
     1
 77
     6
176
     1
 78
     2
176
     1
 67
     7
176
     1
 79
     5
176
     1
170
     0
176
     1
171
     0
176
     1
290
     0
176
     1
 93
       13
176
     1
 44
0.0
176
     1
173
     0
176
     1
  0
VISUALSTYLE
  5
2E
102
{ACAD_REACTORS
330
2A
102
}
330
2A
100
AcDbVisualStyle
  2
GouraudWithEdges
 70
     3
177
     2
291
     1
 71
     2
176
     1
 72
     2
176
     1
 73
     1
176
     1
 90
        2
176
     1
 40
-0.6
176
     1
 41
30.0
176
     1
 62
     5
 63
     7
421
 16777215
176
     1
 74
     1
176
     1
 91
        4
176
     1
 64
     7
176
     1
 65
   257
176
     1
 75
     1
176
     1
175
     1
176
     1
 42
1.0
176
     1
 92
        0
176
     1
 66
   257
176
     1
 43
1.0
176
     1
 76
     1
176
     1
 77
     6
176
     1
 78
     2
176
     1
 67
     7
176
     1
 79
     5
176
     1
170
     0
176
     1
171
     0
176
     1
290
     0
176
     1
 93
       13
176
     1
 44
0.0
176
     1
173
     0
176
     1
  0
VISUALSTYLE
  5
38
102
{ACAD_REACTORS
330
2A
102
}
330
2A
100
AcDbVisualStyle
  2
Linepattern
 70
    14
177
     2
291
     1
 71
     2
176
     1
 72
     2
176
     1
 73
     0
176
     1
 90
        0
176
     1
 40
-0.6
176
     1
 41
-30.0
176
     1
 62
     5
 63
     7
421
 16777215
176
     1
 74
     1
176
     1
 91
        4
176
     1
 64
     7
176
     1
 65
   257
176
     1
 75
     7
176
     1
175
     7
176
     1
 42
1.0
176
     1
 92
        8
176
     1
 66
     7
176
     1
 43
1.0
176
     1
 76
     1
176
     1
 77
     6
176
     1
 78
     2
176
     1
 67
     7
176
     1
 79
     5
176
     1
170
     0
176
     1
171
     0
176
     1
290
     0
176
     1
 93
        1
176
     1
 44
0.0
176
     1
173
     0
176
     1
  0
VISUALSTYLE
  5
33
102
{ACAD_REACTORS
330
2A
102
}
330
2A
100
AcDbVisualStyle
  2
Realistic
 70
     8
177
     2
291
     0
 71
     2
176
     1
 72
     2
176
     1
 73
     0
176
     1
 90
        0
176
     1
 40
-0.6
176
     1
 41
-30.0
176
     1
 62
     5
 63
     7
421
 16777215
176
     1
 74
     1
176
     1
 91
        0
176
     1
 64
     7
176
     1
 65
   257
176
     1
 75
     1
176
     1
175
     1
176
     1
 42
1.0
176
     1
 92
        8
176
     1
 66
     8
424
  7895160
176
     1
 43
1.0
176
     1
 76
     1
176
     1
 77
     6
176
     1
 78
     2
176
     1
 67
     7
176
     1
 79
     5
176
     1
170
     0
176
     1
171
     0
176
     1
290
     0
176
     1
 93
       13
176
     1
 44
0.0
176
     1
173
     0
176
     1
  0
VISUALSTYLE
  5
37
102
{ACAD_REACTORS
330
2A
102
}
330
2A
100
AcDbVisualStyle
  2
Thicken
 70
    13
177
     2
291
     1
 71
     2
176
     1
 72
     2
176
     1
 73
     0
176
     1
 90
        0
176
     1
 40
-0.6
176
     1
 41
-30.0
176
     1
 62
     5
 63
     7
421
 16777215
176
     1
 74
     1
176
     1
 91
        4
176
     1
 64
     7
176
     1
 65
   257
176
     1
 75
     1
176
     1
175
     1
176
     1
 42
1.0
176
     1
 92
       12
176
     1
 66
     7
176
     1
 43
1.0
176
     1
 76
     1
176
     1
 77
     6
176
     1
 78
     2
176
     1
 67
     7
176
     1
 79
     5
176
     1
170
     0
176
     1
171
     0
176
     1
290
     0
176
     1
 93
        1
176
     1
 44
0.0
176
     1
173
     0
176
     1
  0
ENDSEC
  0
EOF
