  0
SECTION
  2
HEADER
  9
$ACADVER
  1
AC1024
  9
$ACADMAINTVER
 70
     6
  9
$DWGCODEPAGE
  3
ANSI_932
  9
$INSBASE
 10
0.0
 20
0.0
 30
0.0
  9
$EXTMIN
 10
-6300.0
 20
-4455.0
 30
0.0
  9
$EXTMAX
 10
6300.0
 20
4455.0
 30
0.0
  9
$LIMMIN
 10
-6300.0
 20
-4455.0
  9
$LIMMAX
 10
6300.0
 20
4455.0
  9
$ORTHOMODE
 70
     0
  9
$REGENMODE
 70
     1
  9
$FILLMODE
 70
     1
  9
$QTEXTMODE
 70
     0
  9
$MIRRTEXT
 70
     1
  9
$LTSCALE
 40
30.0
  9
$ATTMODE
 70
     1
  9
$TEXTSIZE
 40
2.5
  9
$TRACEWID
 40
1.0
  9
$TEXTSTYLE
  7
Standard
  9
$CLAYER
  8
0
  9
$CELTYPE
  6
ByLayer
  9
$CECOLOR
 62
   256
  9
$CELTSCALE
 40
1.0
  9
$DISPSILH
 70
     0
  9
$DIMSCALE
 40
1.0
  9
$DIMASZ
 40
2.5
  9
$DIMEXO
 40
0.625
  9
$DIMDLI
 40
3.75
  9
$DIMRND
 40
0.0
  9
$DIMDLE
 40
0.0
  9
$DIMEXE
 40
1.25
  9
$DIMTP
 40
0.0
  9
$DIMTM
 40
0.0
  9
$DIMTXT
 40
2.5
  9
$DIMCEN
 40
2.5
  9
$DIMTSZ
 40
0.0
  9
$DIMTOL
 70
     0
  9
$DIMLIM
 70
     0
  9
$DIMTIH
 70
     0
  9
$DIMTOH
 70
     0
  9
$DIMSE1
 70
     0
  9
$DIMSE2
 70
     0
  9
$DIMTAD
 70
     1
  9
$DIMZIN
 70
     8
  9
$DIMBLK
  1

  9
$DIMASO
 70
     1
  9
$DIMSHO
 70
     1
  9
$DIMPOST
  1

  9
$DIMAPOST
  1

  9
$DIMALT
 70
     0
  9
$DIMALTD
 70
     3
  9
$DIMALTF
 40
0.03937007874016
  9
$DIMLFAC
 40
1.0
  9
$DIMTOFL
 70
     1
  9
$DIMTVP
 40
0.0
  9
$DIMTIX
 70
     0
  9
$DIMSOXD
 70
     0
  9
$DIMSAH
 70
     0
  9
$DIMBLK1
  1

  9
$DIMBLK2
  1

  9
$DIMSTYLE
  2
ISO-25
  9
$DIMCLRD
 70
     0
  9
$DIMCLRE
 70
     0
  9
$DIMCLRT
 70
     0
  9
$DIMTFAC
 40
1.0
  9
$DIMGAP
 40
0.625
  9
$DIMJUST
 70
     0
  9
$DIMSD1
 70
     0
  9
$DIMSD2
 70
     0
  9
$DIMTOLJ
 70
     0
  9
$DIMTZIN
 70
     8
  9
$DIMALTZ
 70
     0
  9
$DIMALTTZ
 70
     0
  9
$DIMUPT
 70
     0
  9
$DIMDEC
 70
     2
  9
$DIMTDEC
 70
     2
  9
$DIMALTU
 70
     2
  9
$DIMALTTD
 70
     3
  9
$DIMTXSTY
  7
Standard
  9
$DIMAUNIT
 70
     0
  9
$DIMADEC
 70
     0
  9
$DIMALTRND
 40
0.0
  9
$DIMAZIN
 70
     0
  9
$DIMDSEP
 70
    44
  9
$DIMATFIT
 70
     3
  9
$DIMFRAC
 70
     0
  9
$DIMLDRBLK
  1

  9
$DIMLUNIT
 70
     2
  9
$DIMLWD
 70
    -2
  9
$DIMLWE
 70
    -2
  9
$DIMTMOVE
 70
     0
  9
$DIMFXL
 40
1.0
  9
$DIMFXLON
 70
     0
  9
$DIMJOGANG
 40
0.7853981633974483
  9
$DIMTFILL
 70
     0
  9
$DIMTFILLCLR
 70
     0
  9
$DIMARCSYM
 70
     0
  9
$DIMLTYPE
  6

  9
$DIMLTEX1
  6

  9
$DIMLTEX2
  6

  9
$DIMTXTDIRECTION
 70
     0
  9
$LUNITS
 70
     2
  9
$LUPREC
 70
     4
  9
$SKETCHINC
 40
1.0
  9
$FILLETRAD
 40
10.0
  9
$AUNITS
 70
     0
  9
$AUPREC
 70
     0
  9
$MENU
  1
.
  9
$ELEVATION
 40
0.0
  9
$PELEVATION
 40
0.0
  9
$THICKNESS
 40
0.0
  9
$LIMCHECK
 70
     0
  9
$CHAMFERA
 40
10.0
  9
$CHAMFERB
 40
10.0
  9
$CHAMFERC
 40
20.0
  9
$CHAMFERD
 40
0.0
  9
$SKPOLY
 70
     0
  9
$TDCREATE
 40
2460327.689843495
  9
$TDUCREATE
 40
2460327.314843495
  9
$TDUPDATE
 40
2460327.689843507
  9
$TDUUPDATE
 40
2460327.314843507
  9
$TDINDWG
 40
0.0000000116
  9
$TDUSRTIMER
 40
0.0000000116
  9
$USRTIMER
 70
     1
  9
$ANGBASE
 50
0.0
  9
$ANGDIR
 70
     0
  9
$PDMODE
 70
     0
  9
$PDSIZE
 40
0.0
  9
$PLINEWID
 40
0.0
  9
$SPLFRAME
 70
     0
  9
$SPLINETYPE
 70
     6
  9
$SPLINESEGS
 70
     8
  9
$HANDSEED
  5
4E0
  9
$SURFTAB1
 70
     6
  9
$SURFTAB2
 70
     6
  9
$SURFTYPE
 70
     6
  9
$SURFU
 70
     6
  9
$SURFV
 70
     6
  9
$UCSBASE
  2

  9
$UCSNAME
  2

  9
$UCSORG
 10
0.0
 20
0.0
 30
0.0
  9
$UCSXDIR
 10
1.0
 20
0.0
 30
0.0
  9
$UCSYDIR
 10
0.0
 20
1.0
 30
0.0
  9
$UCSORTHOREF
  2

  9
$UCSORTHOVIEW
 70
     0
  9
$UCSORGTOP
 10
0.0
 20
0.0
 30
0.0
  9
$UCSORGBOTTOM
 10
0.0
 20
0.0
 30
0.0
  9
$UCSORGLEFT
 10
0.0
 20
0.0
 30
0.0
  9
$UCSORGRIGHT
 10
0.0
 20
0.0
 30
0.0
  9
$UCSORGFRONT
 10
0.0
 20
0.0
 30
0.0
  9
$UCSORGBACK
 10
0.0
 20
0.0
 30
0.0
  9
$PUCSBASE
  2

  9
$PUCSNAME
  2

  9
$PUCSORG
 10
0.0
 20
0.0
 30
0.0
  9
$PUCSXDIR
 10
1.0
 20
0.0
 30
0.0
  9
$PUCSYDIR
 10
0.0
 20
1.0
 30
0.0
  9
$PUCSORTHOREF
  2

  9
$PUCSORTHOVIEW
 70
     0
  9
$PUCSORGTOP
 10
0.0
 20
0.0
 30
0.0
  9
$PUCSORGBOTTOM
 10
0.0
 20
0.0
 30
0.0
  9
$PUCSORGLEFT
 10
0.0
 20
0.0
 30
0.0
  9
$PUCSORGRIGHT
 10
0.0
 20
0.0
 30
0.0
  9
$PUCSORGFRONT
 10
0.0
 20
0.0
 30
0.0
  9
$PUCSORGBACK
 10
0.0
 20
0.0
 30
0.0
  9
$USERI1
 70
     0
  9
$USERI2
 70
     0
  9
$USERI3
 70
     0
  9
$USERI4
 70
     0
  9
$USERI5
 70
     0
  9
$USERR1
 40
0.0
  9
$USERR2
 40
0.0
  9
$USERR3
 40
0.0
  9
$USERR4
 40
0.0
  9
$USERR5
 40
0.0
  9
$WORLDVIEW
 70
     1
  9
$SHADEDGE
 70
     3
  9
$SHADEDIF
 70
    70
  9
$TILEMODE
 70
     1
  9
$MAXACTVP
 70
    64
  9
$PINSBASE
 10
0.0
 20
0.0
 30
0.0
  9
$PLIMCHECK
 70
     0
  9
$PEXTMIN
 10
1.000000000000000E+20
 20
1.000000000000000E+20
 30
1.000000000000000E+20
  9
$PEXTMAX
 10
-1.000000000000000E+20
 20
-1.000000000000000E+20
 30
-1.000000000000000E+20
  9
$PLIMMIN
 10
0.0
 20
0.0
  9
$PLIMMAX
 10
420.0
 20
297.0
  9
$UNITMODE
 70
     0
  9
$VISRETAIN
 70
     1
  9
$PLINEGEN
 70
     0
  9
$PSLTSCALE
 70
     1
  9
$TREEDEPTH
 70
  3020
  9
$CMLSTYLE
  2
Standard
  9
$CMLJUST
 70
     0
  9
$CMLSCALE
 40
20.0
  9
$PROXYGRAPHICS
 70
     1
  9
$MEASUREMENT
 70
     1
  9
$CELWEIGHT
370
    -1
  9
$ENDCAPS
280
     0
  9
$JOINSTYLE
280
     0
  9
$LWDISPLAY
290
     0
  9
$INSUNITS
 70
     4
  9
$HYPERLINKBASE
  1

  9
$STYLESHEET
  1

  9
$XEDIT
290
     1
  9
$CEPSNTYPE
380
     0
  9
$PSTYLEMODE
290
     1
  9
$FINGERPRINTGUID
  2
{3F1F75D6-F0FA-4B36-922C-98C0A3CAF8AD}
  9
$VERSIONGUID
  2
{FAEB1C32-E019-11D5-929B-00C0DF256EC4}
  9
$EXTNAMES
290
     1
  9
$PSVPSCALE
 40
0.0
  9
$OLESTARTUP
290
     0
  9
$SORTENTS
280
   127
  9
$INDEXCTL
280
     0
  9
$HIDETEXT
280
     1
  9
$XCLIPFRAME
280
     2
  9
$HALOGAP
280
     0
  9
$OBSCOLOR
 70
   257
  9
$OBSLTYPE
280
     0
  9
$INTERSECTIONDISPLAY
280
     0
  9
$INTERSECTIONCOLOR
 70
   257
  9
$DIMASSOC
280
     2
  9
$PROJECTNAME
  1

  9
$CAMERADISPLAY
290
     0
  9
$LENSLENGTH
 40
50.0
  9
$CAMERAHEIGHT
 40
0.0
  9
$STEPSPERSEC
 40
2.0
  9
$STEPSIZE
 40
6.0
  9
$3DDWFPREC
 40
2.0
  9
$PSOLWIDTH
 40
5.0
  9
$PSOLHEIGHT
 40
80.0
  9
$LOFTANG1
 40
1.570796326794897
  9
$LOFTANG2
 40
1.570796326794897
  9
$LOFTMAG1
 40
0.0
  9
$LOFTMAG2
 40
0.0
  9
$LOFTPARAM
 70
     7
  9
$LOFTNORMALS
280
     1
  9
$LATITUDE
 40
37.795
  9
$LONGITUDE
 40
-122.394
  9
$NORTHDIRECTION
 40
0.0
  9
$TIMEZONE
 70
 -8000
  9
$LIGHTGLYPHDISPLAY
280
     1
  9
$TILEMODELIGHTSYNCH
280
     1
  9
$SOLIDHIST
280
     1
  9
$SHOWHIST
280
     1
  9
$DWFFRAME
280
     2
  9
$DGNFRAME
280
     2
  9
$REALWORLDSCALE
290
     1
  9
$INTERFERECOLOR
 62
   256
  9
$CSHADOW
280
     0
  9
$SHADOWPLANELOCATION
 40
0.0
  0
ENDSEC
  0
SECTION
  2
CLASSES
  0
CLASS
  1
ACDBDICTIONARYWDFLT
  2
AcDbDictionaryWithDefault
  3
ObjectDBX Classes
 90
        0
 91
        4
280
     0
281
     0
  0
CLASS
  1
VISUALSTYLE
  2
AcDbVisualStyle
  3
ObjectDBX Classes
 90
     4095
 91
        4
280
     0
281
     0
  0
CLASS
  1
MATERIAL
  2
AcDbMaterial
  3
ObjectDBX Classes
 90
     1153
 91
        4
280
     0
281
     0
  0
ENDSEC
  0
SECTION
  2
TABLES
  0
TABLE
  2
VPORT
  5
8
330
0
100
AcDbSymbolTable
 70
     1
  0
VPORT
  5
29
330
8
100
AcDbSymbolTableRecord
100
AcDbViewportTableRecord
  2
*Active
 70
     0
 10
0.0
 20
0.0
 11
1.0
 21
1.0
 12
0.0
 22
0.0
 13
0.0
 23
0.0
 14
10.0
 24
10.0
 15
10.0
 25
10.0
 16
0.0
 26
0.0
 36
1.0
 17
0.0
 27
0.0
 37
0.0
 40
9801.0
 41
1.414141414141414
 42
50.0
 43
0.0
 44
0.0
 50
0.0
 51
0.0
 71
     0
 72
 10000
 73
     1
 74
     3
 75
     0
 76
     0
 77
     0
 78
     0
281
     0
 65
     1
110
0.0
120
0.0
130
0.0
111
1.0
121
0.0
131
0.0
112
0.0
122
1.0
132
0.0
 79
     0
146
0.0
 60
     3
 61
     5
292
     1
282
     1
141
0.0
142
0.0
 63
   250
  0
ENDTAB
  0
TABLE
  2
LTYPE
  5
5
330
0
100
AcDbSymbolTable
 70
     5
  0
LTYPE
  5
14
330
5
100
AcDbSymbolTableRecord
100
AcDbLinetypeTableRecord
  2
ByBlock
 70
     0
  3

 72
    65
 73
     0
 40
0.0
  0
LTYPE
  5
15
330
5
100
AcDbSymbolTableRecord
100
AcDbLinetypeTableRecord
  2
ByLayer
 70
     0
  3

 72
    65
 73
     0
 40
0.0
  0
LTYPE
  5
16
330
5
100
AcDbSymbolTableRecord
100
AcDbLinetypeTableRecord
  2
Continuous
 70
     0
  3
Solid line
 72
    65
 73
     0
 40
0.0
  0
LTYPE
  5
3F
330
5
100
AcDbSymbolTableRecord
100
AcDbLinetypeTableRecord
  2
JWW_HOJO
 70
     0
  3
  -   -   -   -   -   -   -   - 
 72
    65
 73
     2
 40
1.693333333333333
 49
-1.27
 74
     0
 49
0.4233333333333333
 74
     0
  0
LTYPE
  5
40
330
5
100
AcDbSymbolTableRecord
100
AcDbLinetypeTableRecord
  2
JWW_DASHED2
 70
     0
  3
--    ----    ----    ----    --
 72
    65
 73
     2
 40
3.386666666666667
 49
1.693333333333333
 74
     0
 49
-1.693333333333333
 74
     0
  0
LTYPE
  5
41
330
5
100
AcDbSymbolTableRecord
100
AcDbLinetypeTableRecord
  2
JWW_CENTER1
 70
     0
  3
-----  --  ----------  --  -----
 72
    65
 73
     4
 40
6.773333333333333
 49
4.233333333333333
 74
     0
 49
-0.8466666666666667
 74
     0
 49
0.8466666666666667
 74
     0
 49
-0.8466666666666667
 74
     0
  0
LTYPE
  5
42
330
5
100
AcDbSymbolTableRecord
100
AcDbLinetypeTableRecord
  2
JWW_DASHED1
 70
     0
  3
-  --  --  --  --  --  --  --  -
 72
    65
 73
     2
 40
1.693333333333333
 49
0.8466666666666667
 74
     0
 49
-0.8466666666666667
 74
     0
  0
ENDTAB
  0
TABLE
  2
LAYER
  5
2
330
0
100
AcDbSymbolTable
 70
    16
  0
LAYER
  5
10
330
2
100
AcDbSymbolTableRecord
100
AcDbLayerTableRecord
  2
0
 70
     0
 62
     7
  6
Continuous
370
    -3
390
F
347
3E
  0
LAYER
  5
43
330
2
100
AcDbSymbolTableRecord
100
AcDbLayerTableRecord
  2
F-0_補助線
 70
     0
 62
     7
  6
Continuous
370
    -3
390
F
347
3E
  0
LAYER
  5
44
330
2
100
AcDbSymbolTableRecord
100
AcDbLayerTableRecord
  2
F-1_枠
 70
     0
 62
     7
  6
Continuous
370
    -3
390
F
347
3E
  0
LAYER
  5
45
330
2
100
AcDbSymbolTableRecord
100
AcDbLayerTableRecord
  2
F-A_文字
 70
     0
 62
     7
  6
Continuous
370
    -3
390
F
347
3E
  0
LAYER
  5
46
330
2
100
AcDbSymbolTableRecord
100
AcDbLayerTableRecord
  2
0-A_文字
 70
     0
 62
     7
  6
Continuous
370
    -3
390
F
347
3E
  0
LAYER
  5
47
330
2
100
AcDbSymbolTableRecord
100
AcDbLayerTableRecord
  2
戸当り
 70
     0
 62
     7
  6
Continuous
370
    -3
390
F
347
3E
  0
LAYER
  5
48
330
2
100
AcDbSymbolTableRecord
100
AcDbLayerTableRecord
  2
0-0_補助線
 70
     0
 62
     7
  6
Continuous
370
    -3
390
F
347
3E
  0
LAYER
  5
49
330
2
100
AcDbSymbolTableRecord
100
AcDbLayerTableRecord
  2
0-3_仕上げ
 70
     0
 62
     7
  6
Continuous
370
    -3
390
F
347
3E
  0
LAYER
  5
4A
330
2
100
AcDbSymbolTableRecord
100
AcDbLayerTableRecord
  2
0-1_通り芯
 70
     0
 62
     7
  6
Continuous
370
    -3
390
F
347
3E
  0
LAYER
  5
4B
330
2
100
AcDbSymbolTableRecord
100
AcDbLayerTableRecord
  2
0-7_金物
 70
     0
 62
     7
  6
Continuous
370
    -3
390
F
347
3E
  0
LAYER
  5
4C
330
2
100
AcDbSymbolTableRecord
100
AcDbLayerTableRecord
  2
0-B_寸法
 70
     0
 62
     7
  6
Continuous
370
    -3
390
F
347
3E
  0
LAYER
  5
4D
330
2
100
AcDbSymbolTableRecord
100
AcDbLayerTableRecord
  2
0-6_扉
 70
     0
 62
     7
  6
Continuous
370
    -3
390
F
347
3E
  0
LAYER
  5
4E
330
2
100
AcDbSymbolTableRecord
100
AcDbLayerTableRecord
  2
0-C_ハッチ
 70
     0
 62
     7
  6
Continuous
370
    -3
390
F
347
3E
  0
LAYER
  5
4F
330
2
100
AcDbSymbolTableRecord
100
AcDbLayerTableRecord
  2
0-4_枠
 70
     0
 62
     7
  6
Continuous
370
    -3
390
F
347
3E
  0
LAYER
  5
50
330
2
100
AcDbSymbolTableRecord
100
AcDbLayerTableRecord
  2
1-E
 70
     0
 62
     7
  6
Continuous
370
    -3
390
F
347
3E
  0
LAYER
  5
51
330
2
100
AcDbSymbolTableRecord
100
AcDbLayerTableRecord
  2
1-7_金物
 70
     0
 62
     7
  6
Continuous
370
    -3
390
F
347
3E
  0
ENDTAB
  0
TABLE
  2
STYLE
  5
3
330
0
100
AcDbSymbolTable
 70
     1
  0
STYLE
  5
11
330
3
100
AcDbSymbolTableRecord
100
AcDbTextStyleTableRecord
  2
Standard
 70
     0
 40
0.0
 41
1.0
 50
0.0
 71
     0
 42
2.5
  3
txt
  4

  0
ENDTAB
  0
TABLE
  2
VIEW
  5
6
330
0
100
AcDbSymbolTable
 70
     0
  0
ENDTAB
  0
TABLE
  2
UCS
  5
7
330
0
100
AcDbSymbolTable
 70
     0
  0
ENDTAB
  0
TABLE
  2
APPID
  5
9
330
0
100
AcDbSymbolTable
 70
     1
  0
APPID
  5
12
330
9
100
AcDbSymbolTableRecord
100
AcDbRegAppTableRecord
  2
ACAD
 70
     0
  0
ENDTAB
  0
TABLE
  2
DIMSTYLE
  5
A
330
0
100
AcDbSymbolTable
 70
     1
100
AcDbDimStyleTable
  0
DIMSTYLE
105
27
330
A
100
AcDbSymbolTableRecord
100
AcDbDimStyleTableRecord
  2
ISO-25
 70
     0
 41
2.5
 42
0.625
 43
3.75
 44
1.25
 73
     0
 74
     0
 77
     1
 78
     8
140
2.5
141
2.5
143
0.03937007874016
147
0.625
171
     3
172
     1
178
     0
271
     2
272
     2
274
     3
278
    44
283
     0
284
     8
340
11
  0
ENDTAB
  0
TABLE
  2
BLOCK_RECORD
  5
1
330
0
100
AcDbSymbolTable
 70
     1
  0
BLOCK_RECORD
  5
1F
330
1
100
AcDbSymbolTableRecord
100
AcDbBlockTableRecord
  2
*Model_Space
340
22
 70
     0
280
     1
281
     0
  0
BLOCK_RECORD
  5
1B
330
1
100
AcDbSymbolTableRecord
100
AcDbBlockTableRecord
  2
*Paper_Space
340
1E
 70
     0
280
     1
281
     0
  0
BLOCK_RECORD
  5
23
330
1
100
AcDbSymbolTableRecord
100
AcDbBlockTableRecord
  2
*Paper_Space0
340
26
 70
     0
280
     1
281
     0
  0
ENDTAB
  0
ENDSEC
  0
SECTION
  2
BLOCKS
  0
BLOCK
  5
20
330
1F
100
AcDbEntity
  8
0
100
AcDbBlockBegin
  2
*Model_Space
 70
     0
 10
0.0
 20
0.0
 30
0.0
  3
*Model_Space
  1

  0
ENDBLK
  5
21
330
1F
100
AcDbEntity
  8
0
100
AcDbBlockEnd
  0
BLOCK
  5
1C
330
1B
100
AcDbEntity
 67
     1
  8
0
100
AcDbBlockBegin
  2
*Paper_Space
 70
     0
 10
0.0
 20
0.0
 30
0.0
  3
*Paper_Space
  1

  0
ENDBLK
  5
1D
330
1B
100
AcDbEntity
 67
     1
  8
0
100
AcDbBlockEnd
  0
BLOCK
  5
24
330
23
100
AcDbEntity
  8
0
100
AcDbBlockBegin
  2
*Paper_Space0
 70
     0
 10
0.0
 20
0.0
 30
0.0
  3
*Paper_Space0
  1

  0
ENDBLK
  5
25
330
23
100
AcDbEntity
  8
0
100
AcDbBlockEnd
  0
ENDSEC
  0
SECTION
  2
ENTITIES
  0
LINE
  5
52
330
1F
100
AcDbEntity
  8
F-0_補助線
  6
JWW_HOJO
 62
   120
370
     5
100
AcDbLine
 10
-6140.081333436773
 20
-4455.0
 30
0.0
 11
-6140.081333436773
 21
4424.999604096284
 31
0.0
  0
LINE
  5
53
330
1F
100
AcDbEntity
  8
F-0_補助線
  6
JWW_HOJO
 62
   120
370
     5
100
AcDbLine
 10
-6140.081333436773
 20
4424.999604096284
 30
0.0
 11
6159.917676803936
 21
4424.999604096284
 31
0.0
  0
LINE
  5
54
330
1F
100
AcDbEntity
  8
F-0_補助線
  6
JWW_HOJO
 62
   120
370
     5
100
AcDbLine
 10
6159.917676803936
 20
4424.999604096284
 30
0.0
 11
6159.917676803936
 21
-4455.0
 31
0.0
  0
LINE
  5
55
330
1F
100
AcDbEntity
  8
F-0_補助線
  6
JWW_HOJO
 62
   120
370
     5
100
AcDbLine
 10
6159.917676803936
 20
-4455.0
 30
0.0
 11
-6140.081333436773
 21
-4455.0
 31
0.0
  0
LINE
  5
56
330
1F
100
AcDbEntity
  8
F-0_補助線
  6
JWW_HOJO
 62
     7
370
     9
100
AcDbLine
 10
1009.918254163524
 20
-3795.000003092998
 30
0.0
 11
1009.918254163524
 21
-4195.000008247994
 31
0.0
  0
LINE
  5
57
330
1F
100
AcDbEntity
  8
F-0_補助線
  6
JWW_HOJO
 62
     7
370
     9
100
AcDbLine
 10
509.9185840832865
 20
-3795.000003092998
 30
0.0
 11
509.9185840832865
 21
-4195.000008247994
 31
0.0
  0
LINE
  5
58
330
1F
100
AcDbEntity
  8
F-1_枠
  6
Continuous
 62
   200
370
    20
100
AcDbLine
 10
5859.917429364118
 20
4174.999769056166
 30
0.0
 11
5859.917429364118
 21
-4205.000164959882
 31
0.0
  0
LINE
  5
59
330
1F
100
AcDbEntity
  8
F-1_枠
  6
Continuous
 62
   200
370
    20
100
AcDbLine
 10
-5840.081317971782
 20
4174.999769056166
 30
0.0
 11
-5840.081317971782
 21
-4205.000164959882
 31
0.0
  0
LINE
  5
5A
330
1F
100
AcDbEntity
  8
F-1_枠
  6
Continuous
 62
   200
370
    20
100
AcDbLine
 10
5859.917429364118
 20
-4205.000002577498
 30
0.0
 11
-5840.081085996952
 21
-4205.000002577498
 31
0.0
  0
LINE
  5
5B
330
1F
100
AcDbEntity
  8
F-1_枠
  6
Continuous
 62
   200
370
    20
100
AcDbLine
 10
-5830.081323642278
 20
4174.999769056166
 30
0.0
 11
-5830.081323642278
 21
-4205.000164959882
 31
0.0
  0
LINE
  5
5C
330
1F
100
AcDbEntity
  8
F-1_枠
  6
Continuous
 62
   200
370
    20
100
AcDbLine
 10
-5835.081309208292
 20
4174.999769056166
 30
0.0
 11
-5835.081309208292
 21
-4205.000164959882
 31
0.0
  0
LINE
  5
5D
330
1F
100
AcDbEntity
  8
F-1_枠
  6
Continuous
 62
   200
370
    20
100
AcDbLine
 10
5854.917165428305
 20
4174.999769056166
 30
0.0
 11
5854.917165428305
 21
-4205.000164959882
 31
0.0
  0
LINE
  5
5E
330
1F
100
AcDbEntity
  8
F-1_枠
  6
Continuous
 62
   200
370
    20
100
AcDbLine
 10
5849.917643811961
 20
4174.999769056166
 30
0.0
 11
5849.917643811961
 21
-4205.000164959882
 31
0.0
  0
LINE
  5
5F
330
1F
100
AcDbEntity
  8
F-1_枠
  6
Continuous
 62
   200
370
    20
100
AcDbLine
 10
5859.917429364118
 20
-4199.999993814004
 30
0.0
 11
-5840.081085996952
 21
-4199.999993814004
 31
0.0
  0
LINE
  5
60
330
1F
100
AcDbEntity
  8
F-1_枠
  6
Continuous
 62
   200
370
    20
100
AcDbLine
 10
5859.917429364118
 20
-4195.000008247994
 30
0.0
 11
-5840.081085996952
 21
-4195.000008247994
 31
0.0
  0
LINE
  5
61
330
1F
100
AcDbEntity
  8
F-1_枠
  6
Continuous
 62
   200
370
    20
100
AcDbLine
 10
4349.917891251784
 20
-3795.000003092998
 30
0.0
 11
4349.917891251784
 21
-4195.000008247994
 31
0.0
  0
LINE
  5
62
330
1F
100
AcDbEntity
  8
F-1_枠
  6
Continuous
 62
   200
370
    20
100
AcDbLine
 10
2849.91739637214
 20
-3795.000003092998
 30
0.0
 11
2849.91739637214
 21
-4195.000008247994
 31
0.0
  0
LINE
  5
63
330
1F
100
AcDbEntity
  8
F-1_枠
  6
Continuous
 62
   200
370
    20
100
AcDbLine
 10
9.918542843317937
 20
-3795.000003092998
 30
0.0
 11
9.918542843317937
 21
-4195.000008247994
 31
0.0
  0
LINE
  5
64
330
1F
100
AcDbEntity
  8
F-1_枠
  6
Continuous
 62
   200
370
    20
100
AcDbLine
 10
9.918542843317937
 20
-3994.999936078046
 30
0.0
 11
5849.917643811961
 21
-3995.005364289155
 31
0.0
  0
LINE
  5
65
330
1F
100
AcDbEntity
  8
F-1_枠
  6
Continuous
 62
   200
370
    20
100
AcDbLine
 10
-5840.081085996952
 20
4174.999769056166
 30
0.0
 11
5859.917429364118
 21
4174.999769056166
 31
0.0
  0
LINE
  5
66
330
1F
100
AcDbEntity
  8
F-1_枠
  6
Continuous
 62
   200
370
    20
100
AcDbLine
 10
-5840.081085996952
 20
4164.999983504013
 30
0.0
 11
5859.917429364118
 21
4164.999983504013
 31
0.0
  0
LINE
  5
67
330
1F
100
AcDbEntity
  8
F-1_枠
  6
Continuous
 62
   200
370
    20
100
AcDbLine
 10
-5840.081085996952
 20
4169.999505120355
 30
0.0
 11
5859.917429364118
 21
4169.999505120355
 31
0.0
  0
LINE
  5
68
330
1F
100
AcDbEntity
  8
F-0_補助線
  6
JWW_HOJO
 62
     7
370
     9
100
AcDbLine
 10
-5830.081323642278
 20
-3994.99993607839
 30
0.0
 11
9.918542843317937
 21
-3994.99993607839
 31
0.0
  0
LINE
  5
69
330
1F
100
AcDbEntity
  8
F-0_補助線
  6
JWW_HOJO
 62
     7
370
     9
100
AcDbLine
 10
-5830.081323642278
 20
-3904.99993607839
 30
0.0
 11
9.918542843317937
 21
-3904.99993607839
 31
0.0
  0
LINE
  5
6A
330
1F
100
AcDbEntity
  8
F-0_補助線
  6
JWW_HOJO
 62
     7
370
     9
100
AcDbLine
 10
-5830.081323642278
 20
-4084.99993607839
 30
0.0
 11
9.918542843317937
 21
-4084.99993607839
 31
0.0
  0
LINE
  5
6B
330
1F
100
AcDbEntity
  8
F-0_補助線
  6
JWW_HOJO
 62
     7
370
     9
100
AcDbLine
 10
9.918408067690052
 20
-4139.999739777983
 30
0.0
 11
5849.917509036333
 21
-4140.005167989091
 31
0.0
  0
LINE
  5
6C
330
1F
100
AcDbEntity
  8
F-0_補助線
  6
JWW_HOJO
 62
     7
370
     9
100
AcDbLine
 10
9.918491721641658
 20
-4049.999739778022
 30
0.0
 11
5849.917592690285
 21
-4050.005167989131
 31
0.0
  0
LINE
  5
6D
330
1F
100
AcDbEntity
  8
F-0_補助線
  6
JWW_HOJO
 62
     7
370
     9
100
AcDbLine
 10
9.91859396535915
 20
-3939.99973721807
 30
0.0
 11
5849.917694934006
 21
-3940.005165429179
 31
0.0
  0
LINE
  5
6E
330
1F
100
AcDbEntity
  8
F-0_補助線
  6
JWW_HOJO
 62
     7
370
     9
100
AcDbLine
 10
9.918677619310756
 20
-3849.999737218109
 30
0.0
 11
5849.917778587951
 21
-3850.005165429218
 31
0.0
  0
LINE
  5
6F
330
1F
100
AcDbEntity
  8
F-0_補助線
  6
JWW_HOJO
 62
     7
370
     9
100
AcDbLine
 10
2939.91739637214
 20
-3795.000003092998
 30
0.0
 11
2939.91739637214
 21
-4195.000008247994
 31
0.0
  0
LINE
  5
70
330
1F
100
AcDbEntity
  8
F-0_補助線
  6
JWW_HOJO
 62
     7
370
     9
100
AcDbLine
 10
99.91854284331794
 20
-3795.000003092998
 30
0.0
 11
99.91854284331794
 21
-4195.000008247994
 31
0.0
  0
LINE
  5
71
330
1F
100
AcDbEntity
  8
F-0_補助線
  6
JWW_HOJO
 62
     7
370
     9
100
AcDbLine
 10
4439.917891251784
 20
-3795.000003092998
 30
0.0
 11
4439.917891251784
 21
-4195.000008247994
 31
0.0
  0
MTEXT
  5
72
330
1F
100
AcDbEntity
  8
F-A_文字
  6
Continuous
 62
     7
370
     0
100
AcDbMText
 10
4439.917891251784
 20
-3887.143854850754
 30
0.0
 40
45.72
 41
240.0
 46
0.0
 71
     7
 72
     1
  1
{\fＭＳ ゴシック|b0|i0|c128|p49;ＤＡＴＥ}
 73
     1
 44
1.0
  0
MTEXT
  5
73
330
1F
100
AcDbEntity
  8
F-A_文字
  6
Continuous
 62
     7
370
     0
100
AcDbMText
 10
4439.917891251784
 20
-4087.143857410839
 30
0.0
 40
45.72
 41
180.0
 46
0.0
 71
     7
 72
     1
  1
{\fＭＳ ゴシック|b0|i0|c128|p49;ＮＯ．}
 73
     1
 44
1.0
  0
MTEXT
  5
74
330
1F
100
AcDbEntity
  8
F-A_文字
  6
Continuous
 62
     7
370
     0
100
AcDbMText
 10
2939.91739637214
 20
-3887.142460617774
 30
0.0
 40
45.72
 41
300.0
 46
0.0
 71
     7
 72
     1
  1
{\fＭＳ ゴシック|b0|i0|c128|p49;ＳＣＡＬＥ}
 73
     1
 44
1.0
  0
MTEXT
  5
75
330
1F
100
AcDbEntity
  8
F-A_文字
  6
Continuous
 62
     7
370
     0
100
AcDbMText
 10
2939.91739637214
 20
-4087.14246317786
 30
0.0
 40
45.72
 41
240.0
 46
0.0
 71
     7
 72
     1
  1
{\fＭＳ ゴシック|b0|i0|c128|p49;ＦＩＬＥ}
 73
     1
 44
1.0
  0
MTEXT
  5
76
330
1F
100
AcDbEntity
  8
F-A_文字
  6
Continuous
 62
     7
370
     0
100
AcDbMText
 10
99.91854284331794
 20
-3887.139820871936
 30
0.0
 40
45.72
 41
180.0
 46
0.0
 71
     7
 72
     1
  1
{\fＭＳ ゴシック|b0|i0|c128|p49;図面名}
 73
     1
 44
1.0
  0
MTEXT
  5
77
330
1F
100
AcDbEntity
  8
F-A_文字
  6
Continuous
 62
     7
370
     0
100
AcDbMText
 10
1604.917396372136
 20
-4164.281754523929
 30
0.0
 40
101.44125
 41
1065.0
 46
0.0
 71
     7
 72
     1
  1
{\fＭＳ ゴシック|b0|i0|c128|p49;ウッドワン・・・}
 73
     1
 44
1.0
  0
MTEXT
  5
78
330
1F
100
AcDbEntity
  8
F-A_文字
  6
Continuous
 62
     7
370
     0
100
AcDbMText
 10
1394.917396372136
 20
-4096.140669266149
 30
0.0
 40
45.72
 41
120.0
 46
0.0
 71
     7
 72
     1
  1
{\fＭＳ ゴシック|b0|i0|c128|p49;株式}
 73
     1
 44
1.0
  0
MTEXT
  5
79
330
1F
100
AcDbEntity
  8
F-A_文字
  6
Continuous
 62
     7
370
     0
100
AcDbMText
 10
1394.917396372136
 20
-4168.140669266187
 30
0.0
 40
45.72
 41
120.0
 46
0.0
 71
     7
 72
     1
  1
{\fＭＳ ゴシック|b0|i0|c128|p49;会社}
 73
     1
 44
1.0
  0
LINE
  5
7A
330
1F
100
AcDbEntity
  8
F-1_枠
  6
Continuous
 62
   200
370
    20
100
AcDbLine
 10
5859.917429364118
 20
-3795.000003092998
 30
0.0
 11
-5840.081085996952
 21
-3795.000003092998
 31
0.0
  0
LINE
  5
7B
330
1F
100
AcDbEntity
  8
F-1_枠
  6
Continuous
 62
   200
370
    20
100
AcDbLine
 10
5859.917429364118
 20
-3790.000017526987
 30
0.0
 11
-5840.081085996952
 21
-3790.000017526987
 31
0.0
  0
LINE
  5
7C
330
1F
100
AcDbEntity
  8
F-0_補助線
  6
JWW_HOJO
 62
     7
370
     9
100
AcDbLine
 10
-5087.628710189612
 20
-3795.000003092999
 30
0.0
 11
-5087.628710189612
 21
-4205.000164959882
 31
0.0
  0
LINE
  5
7D
330
1F
100
AcDbEntity
  8
F-0_補助線
  6
JWW_HOJO
 62
     7
370
     9
100
AcDbLine
 10
-50.08145715668206
 20
-3795.000003092998
 30
0.0
 11
-50.08145715668206
 21
-4195.000008247994
 31
0.0
  0
MTEXT
  5
7E
330
1F
100
AcDbEntity
  8
F-0_補助線
  6
Continuous
 62
     7
370
     0
100
AcDbMText
 10
509.9185840832865
 20
-3946.496666872503
 30
0.0
 40
78.58125
 41
412.5
 46
0.0
 71
     7
 72
     1
  1
{\fＭＳ ゴシック|b0|i0|c128|p49;DOORETUS}
 73
     1
 44
1.0
  0
MTEXT
  5
7F
330
1F
100
AcDbEntity
  8
F-0_補助線
  6
Continuous
 62
     7
370
     0
100
AcDbMText
 10
1110.209427605312
 20
-3946.734791872504
 30
0.0
 40
78.105
 41
615.0
 46
0.0
 71
     7
 72
     1
  1
{\fＭＳ ゴシック|b0|i0|c128|p49;建具納まり図}
 73
     1
 44
1.0
  0
MTEXT
  5
80
330
1F
100
AcDbEntity
  8
F-A_文字
  6
Continuous
 62
     7
370
     9
100
AcDbMText
 10
5096.167700144057
 20
-4147.857012699985
 30
0.0
 40
74.295
 41
97.5
 46
0.0
 71
     7
 72
     1
  1
{\fＭＳ ゴシック|b0|i0|c128|p49;03}
 73
     1
 44
1.0
  0
MTEXT
  5
81
330
1F
100
AcDbEntity
  8
0-A_文字
  6
Continuous
 62
     7
370
     9
100
AcDbMText
 10
4278.667643811961
 20
3554.775383504014
 30
0.0
 40
63.55080000000001
 41
1042.5
 46
0.0
 71
     7
 72
     1
  1
{\fＭＳ ゴシック|b0|i0|c128|p49;上吊軸固定/フリーオープン}
 73
     1
 44
1.0
  0
LINE
  5
82
330
1F
100
AcDbEntity
  8
0-A_文字
  6
Continuous
 62
    92
370
    13
100
AcDbLine
 10
-5659.999495325865
 20
3730.000181455871
 30
0.0
 11
-5659.999495325865
 21
4000.000181455871
 31
0.0
  0
ELLIPSE
  5
83
330
1F
100
AcDbEntity
  8
戸当り
  6
Continuous
 62
    92
370
    13
100
AcDbEllipse
 10
4855.430917458078
 20
2876.053590301512
 30
0.0
 11
11.36181697857171
 21
42.40287823032828
 31
0.0
210
0.0
220
0.0
230
0.9999999999999999
 40
0.6
 41
1.570796326794897
 42
4.71238898038469
  0
LINE
  5
84
330
1F
100
AcDbEntity
  8
戸当り
  6
Continuous
 62
    92
370
    13
100
AcDbLine
 10
4880.872644396272
 20
2869.236500114368
 30
0.0
 11
4829.989190519878
 21
2882.870680488654
 31
0.0
  0
LINE
  5
85
330
1F
100
AcDbEntity
  8
戸当り
  6
Continuous
 62
    92
370
    13
100
AcDbLine
 10
4884.133764364564
 20
2881.407165525611
 30
0.0
 11
4833.25031048817
 21
2895.041345899896
 31
0.0
  0
ELLIPSE
  5
86
330
1F
100
AcDbEntity
  8
戸当り
  6
Continuous
 62
    92
370
    13
100
AcDbEllipse
 10
4879.604310755758
 20
2966.269922279796
 30
0.0
 11
21.86569797210526
 21
81.6038957748525
 31
0.0
210
0.0
220
0.0
230
1.0
 40
0.5
 41
4.340591432030095
 42
8.225779182329084
  0
ELLIPSE
  5
87
330
1F
100
AcDbEntity
  8
戸当り
  6
Continuous
 62
    92
370
    13
100
AcDbEllipse
 10
4878.978687882654
 20
2963.935065931004
 30
0.0
 11
26.49533313827761
 21
98.88192943551533
 31
0.0
210
0.0
220
0.0
230
0.9999999999999999
 40
0.4
 41
3.840308517104466
 42
4.432552034522944
  0
ELLIPSE
  5
88
330
1F
100
AcDbEntity
  8
戸当り
  6
Continuous
 62
    92
370
    13
100
AcDbEllipse
 10
4878.978687882654
 20
2963.935065931004
 30
0.0
 11
26.49533313827761
 21
98.88192943551533
 31
0.0
210
0.0
220
0.0
230
0.9999999999999999
 40
0.4
 41
1.850633272656679
 42
2.442876790075129
  0
ELLIPSE
  5
89
330
1F
100
AcDbEntity
  8
戸当り
  6
Continuous
 62
    92
370
    13
100
AcDbEllipse
 10
4740.316707711373
 20
2838.28484693721
 30
0.0
 11
-7.622927487939132
 21
43.23177007461331
 31
0.0
210
0.0
220
0.0
230
1.0
 40
0.6000000000000001
 41
1.570796326794897
 42
4.71238898038469
  0
LINE
  5
8A
330
1F
100
AcDbEntity
  8
戸当り
  6
Continuous
 62
    92
370
    13
100
AcDbLine
 10
4766.255769756144
 20
2842.858603429974
 30
0.0
 11
4714.377645666606
 21
2833.711090444447
 31
0.0
  0
LINE
  5
8B
330
1F
100
AcDbEntity
  8
戸当り
  6
Continuous
 62
    92
370
    13
100
AcDbLine
 10
4764.067802717541
 20
2855.267181117928
 30
0.0
 11
4712.189678628002
 21
2846.1196681324
 31
0.0
  0
ELLIPSE
  5
8C
330
1F
100
AcDbEntity
  8
戸当り
  6
Continuous
 62
    92
370
    13
100
AcDbEllipse
 10
4724.098172894875
 20
2930.264728582853
 30
0.0
 11
-14.67024424252691
 21
83.19908946199426
 31
0.0
210
0.0
220
0.0
230
1.0
 40
0.5
 41
4.340591432030095
 42
8.225779182329084
  0
ELLIPSE
  5
8D
330
1F
100
AcDbEntity
  8
戸当り
  6
Continuous
 62
    92
370
    13
100
AcDbEllipse
 10
4724.517918944779
 20
2927.884230441197
 30
0.0
 11
-17.7763823922528
 21
100.8148742797557
 31
0.0
210
0.0
220
0.0
230
1.0
 40
0.4000000000000001
 41
3.840308517104466
 42
4.432552034522944
  0
ELLIPSE
  5
8E
330
1F
100
AcDbEntity
  8
戸当り
  6
Continuous
 62
    92
370
    13
100
AcDbEllipse
 10
4724.517918944779
 20
2927.884230441197
 30
0.0
 11
-17.7763823922528
 21
100.8148742797557
 31
0.0
210
0.0
220
0.0
230
1.0
 40
0.4000000000000001
 41
1.850633272656679
 42
2.442876790075129
  0
LINE
  5
8F
330
1F
100
AcDbEntity
  8
0-A_文字
  6
Continuous
 62
    92
370
    13
100
AcDbLine
 10
5369.917643811961
 20
3684.999983504013
 30
0.0
 11
5369.917643811961
 21
2718.999983504013
 31
0.0
  0
LINE
  5
90
330
1F
100
AcDbEntity
  8
0-A_文字
  6
Continuous
 62
    92
370
    13
100
AcDbLine
 10
5369.917643811961
 20
2718.999983504013
 30
0.0
 11
4229.917643811961
 21
2718.999983504013
 31
0.0
  0
LINE
  5
91
330
1F
100
AcDbEntity
  8
0-A_文字
  6
Continuous
 62
    92
370
    13
100
AcDbLine
 10
4229.917643811961
 20
3684.999983504013
 30
0.0
 11
4229.917643811961
 21
2718.999983504013
 31
0.0
  0
LINE
  5
92
330
1F
100
AcDbEntity
  8
0-0_補助線
  6
JWW_HOJO
 62
   120
370
     5
100
AcDbLine
 10
5339.917643811961
 20
3684.999983504013
 30
0.0
 11
5339.917643811961
 21
2718.999983504013
 31
0.0
  0
LINE
  5
93
330
1F
100
AcDbEntity
  8
0-0_補助線
  6
JWW_HOJO
 62
   120
370
     5
100
AcDbLine
 10
4259.917643811961
 20
3684.999983504013
 30
0.0
 11
4259.917643811961
 21
2718.999983504013
 31
0.0
  0
LINE
  5
94
330
1F
100
AcDbEntity
  8
0-0_補助線
  6
JWW_HOJO
 62
   120
370
     5
100
AcDbLine
 10
4799.917643811961
 20
3684.999983504013
 30
0.0
 11
4799.917643811961
 21
2718.999983504013
 31
0.0
  0
CIRCLE
  5
95
330
1F
100
AcDbEntity
  8
0-0_補助線
  6
JWW_HOJO
 62
   120
370
     5
100
AcDbCircle
 10
5159.917643811961
 20
3385.504011182749
 30
0.0
 40
240.0
  0
CIRCLE
  5
96
330
1F
100
AcDbEntity
  8
0-0_補助線
  6
JWW_HOJO
 62
   120
370
     5
100
AcDbCircle
 10
4799.917643811961
 20
3385.504011182749
 30
0.0
 40
240.0
  0
CIRCLE
  5
97
330
1F
100
AcDbEntity
  8
0-0_補助線
  6
JWW_HOJO
 62
   120
370
     5
100
AcDbCircle
 10
4444.047372024825
 20
3385.504011182749
 30
0.0
 40
240.0
  0
LINE
  5
98
330
1F
100
AcDbEntity
  8
戸当り
  6
Continuous
 62
    40
370
    15
100
AcDbLine
 10
4502.034214636565
 20
3153.681812873372
 30
0.0
 11
4564.150785461171
 21
3385.504011182749
 31
0.0
  0
LINE
  5
99
330
1F
100
AcDbEntity
  8
戸当り
  6
Continuous
 62
    40
370
    15
100
AcDbLine
 10
4502.034214636565
 20
3153.681812873372
 30
0.0
 11
4439.917643811961
 21
3385.504011182749
 31
0.0
  0
LINE
  5
9A
330
1F
100
AcDbEntity
  8
戸当り
  6
Continuous
 62
    40
370
    15
100
AcDbLine
 10
5035.684502162752
 20
3385.504011182749
 30
0.0
 11
5097.801072987355
 21
3153.681812873372
 31
0.0
  0
LINE
  5
9B
330
1F
100
AcDbEntity
  8
戸当り
  6
Continuous
 62
    40
370
    15
100
AcDbLine
 10
5159.917643811961
 20
3385.504011182749
 30
0.0
 11
5097.801072987355
 21
3153.681812873372
 31
0.0
  0
LINE
  5
9C
330
1F
100
AcDbEntity
  8
戸当り
  6
JWW_DASHED2
 62
     7
370
     9
100
AcDbLine
 10
5159.917643811961
 20
3385.504011182749
 30
0.0
 11
4439.917643811961
 21
3385.504011182749
 31
0.0
  0
LINE
  5
9D
330
1F
100
AcDbEntity
  8
戸当り
  6
Continuous
 62
    40
370
    15
100
AcDbLine
 10
5159.917643811961
 20
3439.504011182748
 30
0.0
 11
5159.917643811961
 21
3385.504011182749
 31
0.0
  0
LINE
  5
9E
330
1F
100
AcDbEntity
  8
戸当り
  6
Continuous
 62
    40
370
    15
100
AcDbLine
 10
5159.917643811961
 20
3439.504011182748
 30
0.0
 11
5339.917643811961
 21
3439.504011182748
 31
0.0
  0
LINE
  5
9F
330
1F
100
AcDbEntity
  8
戸当り
  6
Continuous
 62
    40
370
    15
100
AcDbLine
 10
5159.917643811961
 20
3385.504011182749
 30
0.0
 11
5339.917643811961
 21
3385.504011182749
 31
0.0
  0
LINE
  5
A0
330
1F
100
AcDbEntity
  8
戸当り
  6
Continuous
 62
    40
370
    15
100
AcDbLine
 10
4439.917643811961
 20
3439.504011182748
 30
0.0
 11
4439.917643811961
 21
3385.504011182749
 31
0.0
  0
LINE
  5
A1
330
1F
100
AcDbEntity
  8
戸当り
  6
Continuous
 62
    40
370
    15
100
AcDbLine
 10
4439.917643811961
 20
3439.504011182748
 30
0.0
 11
4259.917643811961
 21
3439.504011182748
 31
0.0
  0
LINE
  5
A2
330
1F
100
AcDbEntity
  8
戸当り
  6
Continuous
 62
    40
370
    15
100
AcDbLine
 10
4439.917643811961
 20
3385.504011182749
 30
0.0
 11
4259.917643811961
 21
3385.504011182749
 31
0.0
  0
LINE
  5
A3
330
1F
100
AcDbEntity
  8
0-A_文字
  6
Continuous
 62
    92
370
    13
100
AcDbLine
 10
5369.917643811961
 20
3540.999983504013
 30
0.0
 11
4229.917643811961
 21
3540.999983504013
 31
0.0
  0
LINE
  5
A4
330
1F
100
AcDbEntity
  8
0-A_文字
  6
Continuous
 62
    92
370
    13
100
AcDbLine
 10
5369.917643811961
 20
3684.999983504013
 30
0.0
 11
4229.917643811961
 21
3684.999983504013
 31
0.0
  0
MTEXT
  5
A5
330
1F
100
AcDbEntity
  8
F-A_文字
  6
Continuous
 62
     7
370
     0
100
AcDbMText
 10
3689.917643811962
 20
-3946.903115907308
 30
0.0
 40
76.19999999999999
 41
150.0
 46
0.0
 71
     7
 72
     1
  1
{\fＭＳ ゴシック|b0|i0|c128|p49;1/5}
 73
     1
 44
1.0
  0
MTEXT
  5
A6
330
1F
100
AcDbEntity
  8
0-A_文字
  6
Continuous
 62
    92
370
    13
100
AcDbMText
 10
-5592.499495325861
 20
3758.959004985283
 30
0.0
 40
147.9176470588235
 41
3300.0
 46
0.0
 71
     7
 72
     1
  1
{\fＭＳ ゴシック|b0|i0|c128|p49;クローゼットドア　調整枠　間口６尺}
 73
     1
 44
1.0
  0
LINE
  5
A7
330
1F
100
AcDbEntity
  8
0-A_文字
  6
Continuous
 62
    92
370
    13
100
AcDbLine
 10
-5659.999495325865
 20
3730.000181455871
 30
0.0
 11
-2235.714285714285
 21
3730.000181455871
 31
0.0
  0
LINE
  5
A8
330
1F
100
AcDbEntity
  8
0-A_文字
  6
Continuous
 62
    92
370
    13
100
AcDbLine
 10
-5659.999495325865
 20
4000.000181455871
 30
0.0
 11
-2235.714285714285
 21
4000.000181455871
 31
0.0
  0
LINE
  5
A9
330
1F
100
AcDbEntity
  8
0-A_文字
  6
Continuous
 62
    92
370
    13
100
AcDbLine
 10
-2235.714285714285
 20
3730.000181455871
 30
0.0
 11
-2235.714285714285
 21
4000.000181455871
 31
0.0
  0
MTEXT
  5
AA
330
1F
100
AcDbEntity
  8
F-A_文字
  6
Continuous
 62
     7
370
     0
100
AcDbMText
 10
-5080.081323642278
 20
-4045.06820530916
 30
0.0
 40
79.8634615384615
 41
4087.5
 46
0.0
 71
     7
 72
     1
  1
{\fＭＳ ゴシック|b0|i0|c128|p49;ドレタス　クローゼットドア  調整枠　３方枠下レール無し　枠外H2,339　枠外W1,635}
 73
     1
 44
1.0
  0
LINE
  5
AB
330
1F
100
AcDbEntity
  8
0-3_仕上げ
  6
Continuous
 62
    40
370
    15
100
AcDbLine
 10
-2762.081209716868
 20
2097.946220486015
 30
0.0
 11
-2132.081407668726
 21
2097.946220486015
 31
0.0
  0
LINE
  5
AC
330
1F
100
AcDbEntity
  8
0-0_補助線
  6
JWW_HOJO
 62
   120
370
     5
100
AcDbLine
 10
2781.918394379421
 20
2781.945146597183
 30
0.0
 11
-2762.081209716868
 21
2781.945146597183
 31
0.0
  0
LINE
  5
AD
330
1F
100
AcDbEntity
  8
0-0_補助線
  6
JWW_HOJO
 62
   120
370
     5
100
AcDbLine
 10
2781.918394379421
 20
3141.945146597182
 30
0.0
 11
-2762.081209716868
 21
3141.945146597182
 31
0.0
  0
LINE
  5
AE
330
1F
100
AcDbEntity
  8
0-0_補助線
  6
JWW_HOJO
 62
   120
370
     5
100
AcDbLine
 10
2781.918394379421
 20
2961.945146597182
 30
0.0
 11
-2762.081209716868
 21
2961.945146597182
 31
0.0
  0
LINE
  5
AF
330
1F
100
AcDbEntity
  8
0-1_通り芯
  6
JWW_CENTER1
 62
   120
370
     5
100
AcDbLine
 10
2781.918394379421
 20
2361.945146597183
 30
0.0
 11
-2762.081209716868
 21
2361.945146597183
 31
0.0
  0
LINE
  5
B0
330
1F
100
AcDbEntity
  8
0-0_補助線
  6
Continuous
 62
   120
370
     5
100
AcDbLine
 10
-1982.081407668727
 20
2324.359196304722
 30
0.0
 11
-1997.081407668727
 21
2324.359196304722
 31
0.0
  0
LWPOLYLINE
  5
B1
330
1F
100
AcDbEntity
  8
0-0_補助線
  6
Continuous
 62
     7
370
     9
100
AcDbPolyline
 90
        4
 70
     1
 43
3.0
 10
-1980.581407668727
 20
2324.359196304722
 42
0.4142135623731
 10
-1982.081407668727
 20
2325.859196304722
 42
0.4142135623731
 10
-1983.581407668727
 20
2324.359196304722
 42
0.4142135623731
 10
-1982.081407668727
 20
2322.859196304722
 42
0.4142135623731
  0
LWPOLYLINE
  5
B2
330
1F
100
AcDbEntity
  8
0-0_補助線
  6
Continuous
 62
     7
370
     9
100
AcDbPolyline
 90
        4
 70
     1
 43
3.0
 10
-1995.581407668727
 20
2324.359196304722
 42
0.4142135623731
 10
-1997.081407668727
 20
2325.859196304722
 42
0.4142135623731
 10
-1998.581407668727
 20
2324.359196304722
 42
0.4142135623731
 10
-1997.081407668727
 20
2322.859196304722
 42
0.4142135623731
  0
LINE
  5
B3
330
1F
100
AcDbEntity
  8
0-0_補助線
  6
Continuous
 62
   120
370
     5
100
AcDbLine
 10
-1997.081407668727
 20
2324.359196304722
 30
0.0
 11
-2018.081407668726
 21
2324.359196304722
 31
0.0
  0
LWPOLYLINE
  5
B4
330
1F
100
AcDbEntity
  8
0-0_補助線
  6
Continuous
 62
     7
370
     9
100
AcDbPolyline
 90
        4
 70
     1
 43
3.0
 10
-2016.581407668726
 20
2324.359196304722
 42
0.4142135623731
 10
-2018.081407668726
 20
2325.859196304722
 42
0.4142135623731
 10
-2019.581407668725
 20
2324.359196304722
 42
0.4142135623731
 10
-2018.081407668726
 20
2322.859196304722
 42
0.4142135623731
  0
LINE
  5
B5
330
1F
100
AcDbEntity
  8
0-0_補助線
  6
Continuous
 62
   120
370
     5
100
AcDbLine
 10
-2018.081407668726
 20
2324.359196304722
 30
0.0
 11
-2018.081407668726
 21
2405.688459527907
 31
0.0
  0
MTEXT
  5
B6
330
1F
100
AcDbEntity
  8
0-0_補助線
  6
Continuous
 62
     7
370
   211
100
AcDbMText
 10
-1971.694952756376
 20
2325.079196304722
 30
0.0
 40
91.43999999999912
 41
179.9999999999983
 46
0.0
 71
     7
 72
     1
  1
{\fＭＳ ゴシック|b0|i0|c128|p49;2.5}
 73
     1
 44
1.0
  0
LINE
  5
B7
330
1F
100
AcDbEntity
  8
0-7_金物
  6
Continuous
 62
     7
370
     9
100
AcDbLine
 10
2199.918255813116
 20
2271.94522082913
 30
0.0
 11
2199.918255813116
 21
2451.945072365236
 31
0.0
  0
LINE
  5
B8
330
1F
100
AcDbEntity
  8
0-7_金物
  6
Continuous
 62
     7
370
     9
100
AcDbLine
 10
2211.918592331276
 20
2451.945072365236
 30
0.0
 11
2199.918255813116
 21
2451.945072365236
 31
0.0
  0
LINE
  5
B9
330
1F
100
AcDbEntity
  8
0-7_金物
  6
Continuous
 62
     7
370
     9
100
AcDbLine
 10
2211.918592331276
 20
2271.94522082913
 30
0.0
 11
2199.918255813116
 21
2271.94522082913
 31
0.0
  0
LINE
  5
BA
330
1F
100
AcDbEntity
  8
0-7_金物
  6
Continuous
 62
     7
370
     9
100
AcDbLine
 10
2199.918255813116
 20
2301.945319805061
 30
0.0
 11
2187.918661614426
 21
2301.945319805061
 31
0.0
  0
LINE
  5
BB
330
1F
100
AcDbEntity
  8
0-7_金物
  6
Continuous
 62
     7
370
     9
100
AcDbLine
 10
2199.918255813116
 20
2421.944973389308
 30
0.0
 11
2187.918661614426
 21
2421.944973389308
 31
0.0
  0
LINE
  5
BC
330
1F
100
AcDbEntity
  8
0-7_金物
  6
Continuous
 62
     7
370
     9
100
AcDbLine
 10
2187.918661614426
 20
2301.945319805061
 30
0.0
 11
2187.918661614426
 21
2421.944973389308
 31
0.0
  0
LINE
  5
BD
330
1F
100
AcDbEntity
  8
0-7_金物
  6
Continuous
 62
     7
370
     9
100
AcDbLine
 10
2187.918661614426
 20
2415.945547449699
 30
0.0
 11
2181.918592331276
 21
2415.945547449699
 31
0.0
  0
LINE
  5
BE
330
1F
100
AcDbEntity
  8
0-7_金物
  6
Continuous
 62
     7
370
     9
100
AcDbLine
 10
2187.918661614426
 20
2307.945488064139
 30
0.0
 11
2181.918592331276
 21
2307.945488064139
 31
0.0
  0
LINE
  5
BF
330
1F
100
AcDbEntity
  8
0-7_金物
  6
Continuous
 62
     7
370
     9
100
AcDbLine
 10
2211.918592331276
 20
2271.94522082913
 30
0.0
 11
2211.918592331276
 21
2451.945072365236
 31
0.0
  0
LINE
  5
C0
330
1F
100
AcDbEntity
  8
0-7_金物
  6
Continuous
 62
     7
370
     9
100
AcDbLine
 10
-2180.081071150568
 20
2271.94522082913
 30
0.0
 11
-2180.081071150568
 21
2451.945072365236
 31
0.0
  0
LINE
  5
C1
330
1F
100
AcDbEntity
  8
0-7_金物
  6
Continuous
 62
     7
370
     9
100
AcDbLine
 10
-2192.081407668727
 20
2451.945072365236
 30
0.0
 11
-2180.081071150568
 21
2451.945072365236
 31
0.0
  0
LINE
  5
C2
330
1F
100
AcDbEntity
  8
0-7_金物
  6
Continuous
 62
     7
370
     9
100
AcDbLine
 10
-2192.081407668727
 20
2271.94522082913
 30
0.0
 11
-2180.081071150568
 21
2271.94522082913
 31
0.0
  0
LINE
  5
C3
330
1F
100
AcDbEntity
  8
0-7_金物
  6
Continuous
 62
     7
370
     9
100
AcDbLine
 10
-2180.081071150568
 20
2301.945319805061
 30
0.0
 11
-2168.081476951877
 21
2301.945319805061
 31
0.0
  0
LINE
  5
C4
330
1F
100
AcDbEntity
  8
0-7_金物
  6
Continuous
 62
     7
370
     9
100
AcDbLine
 10
-2180.081071150568
 20
2421.944973389308
 30
0.0
 11
-2168.081476951877
 21
2421.944973389308
 31
0.0
  0
LINE
  5
C5
330
1F
100
AcDbEntity
  8
0-7_金物
  6
Continuous
 62
     7
370
     9
100
AcDbLine
 10
-2168.081476951877
 20
2301.945319805061
 30
0.0
 11
-2168.081476951877
 21
2421.944973389308
 31
0.0
  0
LINE
  5
C6
330
1F
100
AcDbEntity
  8
0-7_金物
  6
Continuous
 62
     7
370
     9
100
AcDbLine
 10
-2168.081476951877
 20
2415.945547449699
 30
0.0
 11
-2162.081407668727
 21
2415.945547449699
 31
0.0
  0
LINE
  5
C7
330
1F
100
AcDbEntity
  8
0-7_金物
  6
Continuous
 62
     7
370
     9
100
AcDbLine
 10
-2168.081476951877
 20
2307.945488064139
 30
0.0
 11
-2162.081407668727
 21
2307.945488064139
 31
0.0
  0
LINE
  5
C8
330
1F
100
AcDbEntity
  8
0-7_金物
  6
Continuous
 62
     7
370
     9
100
AcDbLine
 10
-2192.081407668727
 20
2271.94522082913
 30
0.0
 11
-2192.081407668727
 21
2451.945072365236
 31
0.0
  0
MTEXT
  5
C9
330
1F
100
AcDbEntity
  8
0-0_補助線
  6
Continuous
 62
     7
370
   211
100
AcDbMText
 10
-2175.486629360072
 20
2325.079196304722
 30
0.0
 40
91.43999999999912
 41
179.9999999999983
 46
0.0
 71
     7
 72
     1
  1
{\fＭＳ ゴシック|b0|i0|c128|p49;3.5}
 73
     1
 44
1.0
  0
LINE
  5
CA
330
1F
100
AcDbEntity
  8
0-B_寸法
  6
Continuous
 62
   120
370
     5
100
AcDbLine
 10
-2192.081407668727
 20
3141.945146597182
 30
0.0
 11
2211.918592331276
 21
3141.945146597182
 31
0.0
  0
LWPOLYLINE
  5
CB
330
1F
100
AcDbEntity
  8
0-B_寸法
  6
Continuous
 62
     7
370
     9
100
AcDbPolyline
 90
        4
 70
     1
 43
3.0
 10
-2190.581407668727
 20
3141.945146597182
 42
0.4142135623731
 10
-2192.081407668727
 20
3143.445146597182
 42
0.4142135623731
 10
-2193.581407668727
 20
3141.945146597182
 42
0.4142135623731
 10
-2192.081407668727
 20
3140.445146597182
 42
0.4142135623731
  0
LWPOLYLINE
  5
CC
330
1F
100
AcDbEntity
  8
0-B_寸法
  6
Continuous
 62
     7
370
     9
100
AcDbPolyline
 90
        4
 70
     1
 43
3.0
 10
2213.418592331276
 20
3141.945146597182
 42
0.4142135623731
 10
2211.918592331276
 20
3143.445146597182
 42
0.4142135623731
 10
2210.418592331276
 20
3141.945146597182
 42
0.4142135623731
 10
2211.918592331276
 20
3140.445146597182
 42
0.4142135623731
  0
LINE
  5
CD
330
1F
100
AcDbEntity
  8
0-B_寸法
  6
Continuous
 62
   120
370
     5
100
AcDbLine
 10
-2192.081407668727
 20
3141.945146597182
 30
0.0
 11
-2192.081407668727
 21
2781.945146597183
 31
0.0
  0
LINE
  5
CE
330
1F
100
AcDbEntity
  8
0-B_寸法
  6
Continuous
 62
   120
370
     5
100
AcDbLine
 10
2211.918592331276
 20
3141.945146597182
 30
0.0
 11
2211.918592331276
 21
2781.945146597183
 31
0.0
  0
ARC
  5
CF
330
1F
100
AcDbEntity
  8
0-6_扉
  6
JWW_DASHED2
 62
    40
370
    15
100
AcDbCircle
 10
1720.835232220923
 20
2557.712520567362
 30
0.0
 40
18.0
100
AcDbArc
 50
85.6539792783598
 51
175.65397927836
  0
LINE
  5
D0
330
1F
100
AcDbEntity
  8
0-6_扉
  6
JWW_DASHED2
 62
    40
370
    15
100
AcDbLine
 10
1811.940478923157
 20
2568.840594224804
 30
0.0
 11
1722.199266006118
 21
2575.660763150771
 31
0.0
  0
ARC
  5
D1
330
1F
100
AcDbEntity
  8
0-6_扉
  6
JWW_DASHED2
 62
    40
370
    15
100
AcDbCircle
 10
1810.576445137963
 20
2550.892351641395
 30
0.0
 40
18.0
100
AcDbArc
 50
355.6539792783599
 51
85.6539792783597
  0
ARC
  5
D2
330
1F
100
AcDbEntity
  8
0-6_扉
  6
JWW_DASHED2
 62
    40
370
    15
100
AcDbCircle
 10
1377.608047831722
 20
2557.712520567366
 30
0.0
 40
18.0
100
AcDbArc
 50
4.346020721638975
 51
94.34602072163908
  0
LINE
  5
D3
330
1F
100
AcDbEntity
  8
0-6_扉
  6
JWW_DASHED2
 62
    40
370
    15
100
AcDbLine
 10
1286.50280112949
 20
2568.840594224808
 30
0.0
 11
1376.244014046528
 21
2575.660763150775
 31
0.0
  0
ARC
  5
D4
330
1F
100
AcDbEntity
  8
0-6_扉
  6
JWW_DASHED2
 62
    40
370
    15
100
AcDbCircle
 10
1287.866834914682
 20
2550.892351641399
 30
0.0
 40
18.0
100
AcDbArc
 50
94.34602072163908
 51
184.3460207216391
  0
LINE
  5
D5
330
1F
100
AcDbEntity
  8
0-6_扉
  6
JWW_DASHED2
 62
    40
370
    15
100
AcDbLine
 10
1828.52468772137
 20
2549.528317856203
 30
0.0
 11
1794.889171845651
 21
2106.945146597183
 31
0.0
  0
LINE
  5
D6
330
1F
100
AcDbEntity
  8
0-6_扉
  6
JWW_DASHED2
 62
    40
370
    15
100
AcDbLine
 10
1269.918592331277
 20
2549.528317856209
 30
0.0
 11
1303.554108206988
 21
2106.945146597183
 31
0.0
  0
LINE
  5
D7
330
1F
100
AcDbEntity
  8
0-6_扉
  6
JWW_DASHED2
 62
    40
370
    15
100
AcDbLine
 10
1395.556290415129
 20
2559.076554352562
 30
0.0
 11
1429.917454894569
 21
2106.945146597183
 31
0.0
  0
LINE
  5
D8
330
1F
100
AcDbEntity
  8
0-6_扉
  6
JWW_DASHED2
 62
    40
370
    15
100
AcDbLine
 10
1702.886989637516
 20
2559.076554352559
 30
0.0
 11
1668.525825158068
 21
2106.945146597183
 31
0.0
  0
LINE
  5
D9
330
1F
100
AcDbEntity
  8
0-1_通り芯
  6
JWW_CENTER1
 62
   120
370
     5
100
AcDbLine
 10
1269.918592331275
 20
2781.945146597183
 30
0.0
 11
1269.918592331275
 21
2549.528317856209
 31
0.0
  0
LWPOLYLINE
  5
DA
330
1F
100
AcDbEntity
  8
0-B_寸法
  6
Continuous
 62
     7
370
     9
100
AcDbPolyline
 90
        4
 70
     1
 43
3.0
 10
1271.418592331275
 20
2961.945146597182
 42
0.4142135623731
 10
1269.918592331275
 20
2963.445146597182
 42
0.4142135623731
 10
1268.418592331275
 20
2961.945146597182
 42
0.4142135623731
 10
1269.918592331275
 20
2960.445146597182
 42
0.4142135623731
  0
LINE
  5
DB
330
1F
100
AcDbEntity
  8
0-B_寸法
  6
Continuous
 62
   120
370
     5
100
AcDbLine
 10
1269.918592331275
 20
2961.945146597182
 30
0.0
 11
1269.918592331275
 21
2781.945146597183
 31
0.0
  0
ARC
  5
DC
330
1F
100
AcDbEntity
  8
0-6_扉
  6
JWW_DASHED2
 62
    40
370
    15
100
AcDbCircle
 10
-1700.998047558375
 20
2557.712520567362
 30
0.0
 40
18.0
100
AcDbArc
 50
4.346020721640005
 51
94.34602072164022
  0
LINE
  5
DD
330
1F
100
AcDbEntity
  8
0-6_扉
  6
JWW_DASHED2
 62
    40
370
    15
100
AcDbLine
 10
-1792.103294260609
 20
2568.840594224804
 30
0.0
 11
-1702.362081343568
 21
2575.660763150771
 31
0.0
  0
ARC
  5
DE
330
1F
100
AcDbEntity
  8
0-6_扉
  6
JWW_DASHED2
 62
    40
370
    15
100
AcDbCircle
 10
-1790.739260475413
 20
2550.892351641395
 30
0.0
 40
18.0
100
AcDbArc
 50
94.3460207216403
 51
184.3460207216401
  0
ARC
  5
DF
330
1F
100
AcDbEntity
  8
0-6_扉
  6
JWW_DASHED2
 62
    40
370
    15
100
AcDbCircle
 10
-1357.770863169173
 20
2557.712520567366
 30
0.0
 40
18.0
100
AcDbArc
 50
85.65397927836092
 51
175.653979278361
  0
LINE
  5
E0
330
1F
100
AcDbEntity
  8
0-6_扉
  6
JWW_DASHED2
 62
    40
370
    15
100
AcDbLine
 10
-1266.665616466939
 20
2568.840594224808
 30
0.0
 11
-1356.406829383977
 21
2575.660763150775
 31
0.0
  0
ARC
  5
E1
330
1F
100
AcDbEntity
  8
0-6_扉
  6
JWW_DASHED2
 62
    40
370
    15
100
AcDbCircle
 10
-1268.029650252132
 20
2550.892351641399
 30
0.0
 40
18.0
100
AcDbArc
 50
355.653979278361
 51
85.65397927836094
  0
LINE
  5
E2
330
1F
100
AcDbEntity
  8
0-6_扉
  6
JWW_DASHED2
 62
    40
370
    15
100
AcDbLine
 10
-1808.687503058821
 20
2549.528317856203
 30
0.0
 11
-1775.051987183101
 21
2106.945146597183
 31
0.0
  0
LINE
  5
E3
330
1F
100
AcDbEntity
  8
0-6_扉
  6
JWW_DASHED2
 62
    40
370
    15
100
AcDbLine
 10
-1250.081407668727
 20
2549.528317856209
 30
0.0
 11
-1283.716923544438
 21
2106.945146597183
 31
0.0
  0
LINE
  5
E4
330
1F
100
AcDbEntity
  8
0-6_扉
  6
JWW_DASHED2
 62
    40
370
    15
100
AcDbLine
 10
-1375.719105752579
 20
2559.076554352562
 30
0.0
 11
-1410.080270232019
 21
2106.945146597183
 31
0.0
  0
LINE
  5
E5
330
1F
100
AcDbEntity
  8
0-6_扉
  6
JWW_DASHED2
 62
    40
370
    15
100
AcDbLine
 10
-1683.049804974966
 20
2559.076554352559
 30
0.0
 11
-1648.688640495519
 21
2106.945146597183
 31
0.0
  0
LINE
  5
E6
330
1F
100
AcDbEntity
  8
0-1_通り芯
  6
JWW_CENTER1
 62
   120
370
     5
100
AcDbLine
 10
-1250.081407668727
 20
2781.945146597183
 30
0.0
 11
-1250.081407668727
 21
2549.528317856209
 31
0.0
  0
LWPOLYLINE
  5
E7
330
1F
100
AcDbEntity
  8
0-B_寸法
  6
Continuous
 62
     7
370
     9
100
AcDbPolyline
 90
        4
 70
     1
 43
3.0
 10
-1248.581407668727
 20
2961.945146597182
 42
0.4142135623731
 10
-1250.081407668727
 20
2963.445146597182
 42
0.4142135623731
 10
-1251.581407668727
 20
2961.945146597182
 42
0.4142135623731
 10
-1250.081407668727
 20
2960.445146597182
 42
0.4142135623731
  0
LINE
  5
E8
330
1F
100
AcDbEntity
  8
0-B_寸法
  6
Continuous
 62
   120
370
     5
100
AcDbLine
 10
-1250.081407668727
 20
2961.945146597182
 30
0.0
 11
-1250.081407668727
 21
2781.945146597183
 31
0.0
  0
LINE
  5
E9
330
1F
100
AcDbEntity
  8
0-B_寸法
  6
Continuous
 62
   120
370
     5
100
AcDbLine
 10
-1250.081407668727
 20
2961.945146597182
 30
0.0
 11
1269.918592331275
 21
2961.945146597182
 31
0.0
  0
MTEXT
  5
EA
330
1F
100
AcDbEntity
  8
0-B_寸法
  6
Continuous
 62
     7
370
   211
100
AcDbMText
 10
-380.0814076687274
 20
3142.665146597182
 30
0.0
 40
91.44000000000041
 41
780.0000000000034
 46
0.0
 71
     7
 72
     1
  1
{\fＭＳ ゴシック|b0|i0|c128|p49;ＲＯＷ＝1,645}
 73
     1
 44
1.0
  0
MTEXT
  5
EB
330
1F
100
AcDbEntity
  8
0-B_寸法
  6
Continuous
 62
     7
370
   211
100
AcDbMText
 10
-544.1829933761996
 20
2962.665146597182
 30
0.0
 40
91.43999999999993
 41
1139.999999999999
 46
0.0
 71
     7
 72
     1
  1
{\fＭＳ ゴシック|b0|i0|c128|p49;有効開口寸法＝1,331}
 73
     1
 44
1.0
  0
LINE
  5
EC
330
1F
100
AcDbEntity
  8
0-0_補助線
  6
JWW_HOJO
 62
     7
370
     9
100
AcDbLine
 10
9.918592331274283
 20
906.9451465971828
 30
0.0
 11
9.918592331274283
 21
3321.945146597182
 31
0.0
  0
LINE
  5
ED
330
1F
100
AcDbEntity
  8
0-0_補助線
  6
JWW_HOJO
 62
   120
370
     5
100
AcDbLine
 10
-2762.081209716868
 20
1086.945146597183
 30
0.0
 11
-2762.081209716868
 21
3141.945146597182
 31
0.0
  0
LINE
  5
EE
330
1F
100
AcDbEntity
  8
0-0_補助線
  6
JWW_HOJO
 62
   120
370
     5
100
AcDbLine
 10
2781.918394379421
 20
1086.945146597183
 30
0.0
 11
2781.918394379421
 21
3141.945146597182
 31
0.0
  0
LINE
  5
EF
330
1F
100
AcDbEntity
  8
0-0_補助線
  6
JWW_HOJO
 62
   120
370
     5
100
AcDbLine
 10
2781.918394379421
 20
1446.945146597183
 30
0.0
 11
-2762.081209716868
 21
1446.945146597183
 31
0.0
  0
LINE
  5
F0
330
1F
100
AcDbEntity
  8
0-0_補助線
  6
JWW_HOJO
 62
   120
370
     5
100
AcDbLine
 10
2781.918394379421
 20
1266.945146597183
 30
0.0
 11
-2762.081209716868
 21
1266.945146597183
 31
0.0
  0
LINE
  5
F1
330
1F
100
AcDbEntity
  8
0-0_補助線
  6
JWW_HOJO
 62
   120
370
     5
100
AcDbLine
 10
2781.918394379421
 20
1086.945146597183
 30
0.0
 11
-2762.081209716868
 21
1086.945146597183
 31
0.0
  0
LINE
  5
F2
330
1F
100
AcDbEntity
  8
0-0_補助線
  6
JWW_HOJO
 62
     7
370
     9
100
AcDbLine
 10
-1982.081407668727
 20
906.9451465971828
 30
0.0
 11
-1982.081407668727
 21
3321.945146597182
 31
0.0
  0
LINE
  5
F3
330
1F
100
AcDbEntity
  8
0-0_補助線
  6
JWW_HOJO
 62
     7
370
     9
100
AcDbLine
 10
2001.918592331276
 20
906.9451465971828
 30
0.0
 11
2001.918592331276
 21
3321.945146597182
 31
0.0
  0
LINE
  5
F4
330
1F
100
AcDbEntity
  8
0-0_補助線
  6
JWW_HOJO
 62
   120
370
     5
100
AcDbLine
 10
2781.918394379421
 20
1626.945146597183
 30
0.0
 11
-2762.081209716868
 21
1626.945146597183
 31
0.0
  0
LINE
  5
F5
330
1F
100
AcDbEntity
  8
0-0_補助線
  6
JWW_HOJO
 62
   120
370
     5
100
AcDbLine
 10
2781.918394379421
 20
1806.945146597183
 30
0.0
 11
-2762.081209716868
 21
1806.945146597183
 31
0.0
  0
LINE
  5
F6
330
1F
100
AcDbEntity
  8
0-B_寸法
  6
Continuous
 62
   120
370
     5
100
AcDbLine
 10
-2162.081407668727
 20
1266.945146597183
 30
0.0
 11
-1982.081407668727
 21
1266.945146597183
 31
0.0
  0
LWPOLYLINE
  5
F7
330
1F
100
AcDbEntity
  8
0-B_寸法
  6
Continuous
 62
     7
370
     9
100
AcDbPolyline
 90
        4
 70
     1
 43
3.0
 10
-2160.581407668727
 20
1266.945146597183
 42
0.4142135623731
 10
-2162.081407668727
 20
1268.445146597183
 42
0.4142135623731
 10
-2163.581407668727
 20
1266.945146597183
 42
0.4142135623731
 10
-2162.081407668727
 20
1265.445146597183
 42
0.4142135623731
  0
LWPOLYLINE
  5
F8
330
1F
100
AcDbEntity
  8
0-B_寸法
  6
Continuous
 62
     7
370
     9
100
AcDbPolyline
 90
        4
 70
     1
 43
3.0
 10
-1980.581407668727
 20
1266.945146597183
 42
0.4142135623731
 10
-1982.081407668727
 20
1268.445146597183
 42
0.4142135623731
 10
-1983.581407668727
 20
1266.945146597183
 42
0.4142135623731
 10
-1982.081407668727
 20
1265.445146597183
 42
0.4142135623731
  0
LINE
  5
F9
330
1F
100
AcDbEntity
  8
0-B_寸法
  6
Continuous
 62
   120
370
     5
100
AcDbLine
 10
-1982.081407668727
 20
1266.945146597183
 30
0.0
 11
-1982.081407668727
 21
1626.945146597183
 31
0.0
  0
MTEXT
  5
FA
330
1F
100
AcDbEntity
  8
0-B_寸法
  6
Continuous
 62
     7
370
   211
100
AcDbMText
 10
-2132.081407668727
 20
1267.665146597184
 30
0.0
 40
91.4400000000013
 41
120.0000000000017
 46
0.0
 71
     7
 72
     1
  1
{\fＭＳ ゴシック|b0|i0|c128|p49;30}
 73
     1
 44
1.0
  0
LINE
  5
FB
330
1F
100
AcDbEntity
  8
0-B_寸法
  6
Continuous
 62
   120
370
     5
100
AcDbLine
 10
-1982.081407668727
 20
1266.945146597183
 30
0.0
 11
2001.918592331276
 21
1266.945146597183
 31
0.0
  0
LWPOLYLINE
  5
FC
330
1F
100
AcDbEntity
  8
0-B_寸法
  6
Continuous
 62
     7
370
     9
100
AcDbPolyline
 90
        4
 70
     1
 43
3.0
 10
2003.418592331276
 20
1266.945146597183
 42
0.4142135623731
 10
2001.918592331276
 20
1268.445146597183
 42
0.4142135623731
 10
2000.418592331276
 20
1266.945146597183
 42
0.4142135623731
 10
2001.918592331276
 20
1265.445146597183
 42
0.4142135623731
  0
LINE
  5
FD
330
1F
100
AcDbEntity
  8
0-B_寸法
  6
Continuous
 62
   120
370
     5
100
AcDbLine
 10
2001.918592331276
 20
1266.945146597183
 30
0.0
 11
2001.918592331276
 21
1626.945146597183
 31
0.0
  0
LINE
  5
FE
330
1F
100
AcDbEntity
  8
0-B_寸法
  6
Continuous
 62
   120
370
     5
100
AcDbLine
 10
2001.918592331276
 20
1266.945146597183
 30
0.0
 11
2181.918592331276
 21
1266.945146597183
 31
0.0
  0
LWPOLYLINE
  5
FF
330
1F
100
AcDbEntity
  8
0-B_寸法
  6
Continuous
 62
     7
370
     9
100
AcDbPolyline
 90
        4
 70
     1
 43
3.0
 10
2183.418592331276
 20
1266.945146597183
 42
0.4142135623731
 10
2181.918592331276
 20
1268.445146597183
 42
0.4142135623731
 10
2180.418592331276
 20
1266.945146597183
 42
0.4142135623731
 10
2181.918592331276
 20
1265.445146597183
 42
0.4142135623731
  0
MTEXT
  5
100
330
1F
100
AcDbEntity
  8
0-B_寸法
  6
Continuous
 62
     7
370
   211
100
AcDbMText
 10
2031.918592331276
 20
1267.665146597183
 30
0.0
 40
91.43999999999967
 41
119.9999999999996
 46
0.0
 71
     7
 72
     1
  1
{\fＭＳ ゴシック|b0|i0|c128|p49;30}
 73
     1
 44
1.0
  0
LINE
  5
101
330
1F
100
AcDbEntity
  8
0-B_寸法
  6
Continuous
 62
   120
370
     5
100
AcDbLine
 10
-2162.081407668727
 20
1086.945146597183
 30
0.0
 11
2181.918592331276
 21
1086.945146597183
 31
0.0
  0
LWPOLYLINE
  5
102
330
1F
100
AcDbEntity
  8
0-B_寸法
  6
Continuous
 62
     7
370
     9
100
AcDbPolyline
 90
        4
 70
     1
 43
3.0
 10
-2160.581407668727
 20
1086.945146597183
 42
0.4142135623731
 10
-2162.081407668727
 20
1088.445146597183
 42
0.4142135623731
 10
-2163.581407668727
 20
1086.945146597183
 42
0.4142135623731
 10
-2162.081407668727
 20
1085.445146597183
 42
0.4142135623731
  0
LWPOLYLINE
  5
103
330
1F
100
AcDbEntity
  8
0-B_寸法
  6
Continuous
 62
     7
370
     9
100
AcDbPolyline
 90
        4
 70
     1
 43
3.0
 10
2183.418592331276
 20
1086.945146597183
 42
0.4142135623731
 10
2181.918592331276
 20
1088.445146597183
 42
0.4142135623731
 10
2180.418592331276
 20
1086.945146597183
 42
0.4142135623731
 10
2181.918592331276
 20
1085.445146597183
 42
0.4142135623731
  0
LINE
  5
104
330
1F
100
AcDbEntity
  8
0-B_寸法
  6
Continuous
 62
   120
370
     5
100
AcDbLine
 10
-2162.081407668727
 20
1086.945146597183
 30
0.0
 11
-2162.081407668727
 21
1266.945146597183
 31
0.0
  0
LINE
  5
105
330
1F
100
AcDbEntity
  8
0-B_寸法
  6
Continuous
 62
   120
370
     5
100
AcDbLine
 10
2181.918592331276
 20
1086.945146597183
 30
0.0
 11
2181.918592331276
 21
1266.945146597183
 31
0.0
  0
LINE
  5
106
330
1F
100
AcDbEntity
  8
0-0_補助線
  6
JWW_HOJO
 62
     7
370
     9
100
AcDbLine
 10
-996.5814076687252
 20
906.9451465971828
 30
0.0
 11
-996.5814076687252
 21
3321.945146597182
 31
0.0
  0
LINE
  5
107
330
1F
100
AcDbEntity
  8
0-0_補助線
  6
JWW_HOJO
 62
     7
370
     9
100
AcDbLine
 10
1016.418592331275
 20
906.9451465971828
 30
0.0
 11
1016.418592331275
 21
3321.945146597182
 31
0.0
  0
LINE
  5
108
330
1F
100
AcDbEntity
  8
0-B_寸法
  6
Continuous
 62
   120
370
     5
100
AcDbLine
 10
-1997.081407668727
 20
1626.945146597183
 30
0.0
 11
-999.5814076687259
 21
1626.945146597183
 31
0.0
  0
LWPOLYLINE
  5
109
330
1F
100
AcDbEntity
  8
0-B_寸法
  6
Continuous
 62
     7
370
     9
100
AcDbPolyline
 90
        4
 70
     1
 43
3.0
 10
-1995.581407668727
 20
1626.945146597183
 42
0.4142135623731
 10
-1997.081407668727
 20
1628.445146597183
 42
0.4142135623731
 10
-1998.581407668727
 20
1626.945146597183
 42
0.4142135623731
 10
-1997.081407668727
 20
1625.445146597183
 42
0.4142135623731
  0
LWPOLYLINE
  5
10A
330
1F
100
AcDbEntity
  8
0-B_寸法
  6
Continuous
 62
     7
370
     9
100
AcDbPolyline
 90
        4
 70
     1
 43
3.0
 10
-998.081407668726
 20
1626.945146597183
 42
0.4142135623731
 10
-999.5814076687259
 20
1628.445146597183
 42
0.4142135623731
 10
-1001.081407668726
 20
1626.945146597183
 42
0.4142135623731
 10
-999.5814076687259
 20
1625.445146597183
 42
0.4142135623731
  0
LINE
  5
10B
330
1F
100
AcDbEntity
  8
0-B_寸法
  6
Continuous
 62
   120
370
     5
100
AcDbLine
 10
-1997.081407668727
 20
1446.945146597183
 30
0.0
 11
-1997.081407668727
 21
1806.945146597183
 31
0.0
  0
LINE
  5
10C
330
1F
100
AcDbEntity
  8
0-B_寸法
  6
Continuous
 62
   120
370
     5
100
AcDbLine
 10
-999.5814076687259
 20
1626.945146597183
 30
0.0
 11
-999.5814076687259
 21
1806.945146597183
 31
0.0
  0
LINE
  5
10D
330
1F
100
AcDbEntity
  8
0-B_寸法
  6
Continuous
 62
   120
370
     5
100
AcDbLine
 10
-993.5814076687254
 20
1626.945146597183
 30
0.0
 11
3.918592331274624
 21
1626.945146597183
 31
0.0
  0
LWPOLYLINE
  5
10E
330
1F
100
AcDbEntity
  8
0-B_寸法
  6
Continuous
 62
     7
370
     9
100
AcDbPolyline
 90
        4
 70
     1
 43
3.0
 10
-992.0814076687254
 20
1626.945146597183
 42
0.4142135623731
 10
-993.5814076687254
 20
1628.445146597183
 42
0.4142135623731
 10
-995.0814076687253
 20
1626.945146597183
 42
0.4142135623731
 10
-993.5814076687254
 20
1625.445146597183
 42
0.4142135623731
  0
LWPOLYLINE
  5
10F
330
1F
100
AcDbEntity
  8
0-B_寸法
  6
Continuous
 62
     7
370
     9
100
AcDbPolyline
 90
        4
 70
     1
 43
3.0
 10
5.418592331274624
 20
1626.945146597183
 42
0.4142135623731
 10
3.918592331274624
 20
1628.445146597183
 42
0.4142135623731
 10
2.418592331274624
 20
1626.945146597183
 42
0.4142135623731
 10
3.918592331274624
 20
1625.445146597183
 42
0.4142135623731
  0
LINE
  5
110
330
1F
100
AcDbEntity
  8
0-B_寸法
  6
Continuous
 62
   120
370
     5
100
AcDbLine
 10
-993.5814076687254
 20
1626.945146597183
 30
0.0
 11
-993.5814076687254
 21
1806.945146597183
 31
0.0
  0
LINE
  5
111
330
1F
100
AcDbEntity
  8
0-B_寸法
  6
Continuous
 62
   120
370
     5
100
AcDbLine
 10
3.918592331274624
 20
1446.945146597183
 30
0.0
 11
3.918592331274624
 21
1806.945146597183
 31
0.0
  0
LINE
  5
112
330
1F
100
AcDbEntity
  8
0-B_寸法
  6
Continuous
 62
   120
370
     5
100
AcDbLine
 10
15.91859233127565
 20
1626.945146597183
 30
0.0
 11
1013.418592331275
 21
1626.945146597183
 31
0.0
  0
LWPOLYLINE
  5
113
330
1F
100
AcDbEntity
  8
0-B_寸法
  6
Continuous
 62
     7
370
     9
100
AcDbPolyline
 90
        4
 70
     1
 43
3.0
 10
17.41859233127565
 20
1626.945146597183
 42
0.4142135623731
 10
15.91859233127565
 20
1628.445146597183
 42
0.4142135623731
 10
14.41859233127565
 20
1626.945146597183
 42
0.4142135623731
 10
15.91859233127565
 20
1625.445146597183
 42
0.4142135623731
  0
LWPOLYLINE
  5
114
330
1F
100
AcDbEntity
  8
0-B_寸法
  6
Continuous
 62
     7
370
     9
100
AcDbPolyline
 90
        4
 70
     1
 43
3.0
 10
1014.918592331275
 20
1626.945146597183
 42
0.4142135623731
 10
1013.418592331275
 20
1628.445146597183
 42
0.4142135623731
 10
1011.918592331275
 20
1626.945146597183
 42
0.4142135623731
 10
1013.418592331275
 20
1625.445146597183
 42
0.4142135623731
  0
LINE
  5
115
330
1F
100
AcDbEntity
  8
0-B_寸法
  6
Continuous
 62
   120
370
     5
100
AcDbLine
 10
15.91859233127565
 20
1446.945146597183
 30
0.0
 11
15.91859233127565
 21
1806.945146597183
 31
0.0
  0
LINE
  5
116
330
1F
100
AcDbEntity
  8
0-B_寸法
  6
Continuous
 62
   120
370
     5
100
AcDbLine
 10
1013.418592331275
 20
1626.945146597183
 30
0.0
 11
1013.418592331275
 21
1806.945146597183
 31
0.0
  0
LINE
  5
117
330
1F
100
AcDbEntity
  8
0-B_寸法
  6
Continuous
 62
   120
370
     5
100
AcDbLine
 10
1019.418592331276
 20
1626.945146597183
 30
0.0
 11
2016.918592331279
 21
1626.945146597183
 31
0.0
  0
LWPOLYLINE
  5
118
330
1F
100
AcDbEntity
  8
0-B_寸法
  6
Continuous
 62
     7
370
     9
100
AcDbPolyline
 90
        4
 70
     1
 43
3.0
 10
1020.918592331276
 20
1626.945146597183
 42
0.4142135623731
 10
1019.418592331276
 20
1628.445146597183
 42
0.4142135623731
 10
1017.918592331276
 20
1626.945146597183
 42
0.4142135623731
 10
1019.418592331276
 20
1625.445146597183
 42
0.4142135623731
  0
LWPOLYLINE
  5
119
330
1F
100
AcDbEntity
  8
0-B_寸法
  6
Continuous
 62
     7
370
     9
100
AcDbPolyline
 90
        4
 70
     1
 43
3.0
 10
2018.418592331279
 20
1626.945146597183
 42
0.4142135623731
 10
2016.918592331279
 20
1628.445146597183
 42
0.4142135623731
 10
2015.418592331279
 20
1626.945146597183
 42
0.4142135623731
 10
2016.918592331279
 20
1625.445146597183
 42
0.4142135623731
  0
LINE
  5
11A
330
1F
100
AcDbEntity
  8
0-B_寸法
  6
Continuous
 62
   120
370
     5
100
AcDbLine
 10
1019.418592331276
 20
1626.945146597183
 30
0.0
 11
1019.418592331276
 21
1806.945146597183
 31
0.0
  0
LINE
  5
11B
330
1F
100
AcDbEntity
  8
0-B_寸法
  6
Continuous
 62
   120
370
     5
100
AcDbLine
 10
2016.918592331279
 20
1446.945146597183
 30
0.0
 11
2016.918592331279
 21
1806.945146597183
 31
0.0
  0
LINE
  5
11C
330
1F
100
AcDbEntity
  8
0-B_寸法
  6
Continuous
 62
   120
370
     5
100
AcDbLine
 10
-1997.081407668727
 20
1446.945146597183
 30
0.0
 11
3.918592331274624
 21
1446.945146597183
 31
0.0
  0
LWPOLYLINE
  5
11D
330
1F
100
AcDbEntity
  8
0-B_寸法
  6
Continuous
 62
     7
370
     9
100
AcDbPolyline
 90
        4
 70
     1
 43
3.0
 10
-1995.581407668727
 20
1446.945146597183
 42
0.4142135623731
 10
-1997.081407668727
 20
1448.445146597183
 42
0.4142135623731
 10
-1998.581407668727
 20
1446.945146597183
 42
0.4142135623731
 10
-1997.081407668727
 20
1445.445146597183
 42
0.4142135623731
  0
LWPOLYLINE
  5
11E
330
1F
100
AcDbEntity
  8
0-B_寸法
  6
Continuous
 62
     7
370
     9
100
AcDbPolyline
 90
        4
 70
     1
 43
3.0
 10
5.418592331274624
 20
1446.945146597183
 42
0.4142135623731
 10
3.918592331274624
 20
1448.445146597183
 42
0.4142135623731
 10
2.418592331274624
 20
1446.945146597183
 42
0.4142135623731
 10
3.918592331274624
 20
1445.445146597183
 42
0.4142135623731
  0
LINE
  5
11F
330
1F
100
AcDbEntity
  8
0-B_寸法
  6
Continuous
 62
   120
370
     5
100
AcDbLine
 10
3.918592331274624
 20
1446.945146597183
 30
0.0
 11
15.91859233127565
 21
1446.945146597183
 31
0.0
  0
LWPOLYLINE
  5
120
330
1F
100
AcDbEntity
  8
0-B_寸法
  6
Continuous
 62
     7
370
     9
100
AcDbPolyline
 90
        4
 70
     1
 43
3.0
 10
17.41859233127565
 20
1446.945146597183
 42
0.4142135623731
 10
15.91859233127565
 20
1448.445146597183
 42
0.4142135623731
 10
14.41859233127565
 20
1446.945146597183
 42
0.4142135623731
 10
15.91859233127565
 20
1445.445146597183
 42
0.4142135623731
  0
LINE
  5
121
330
1F
100
AcDbEntity
  8
0-B_寸法
  6
Continuous
 62
   120
370
     5
100
AcDbLine
 10
15.91859233127565
 20
1446.945146597183
 30
0.0
 11
2016.918592331279
 21
1446.945146597183
 31
0.0
  0
LWPOLYLINE
  5
122
330
1F
100
AcDbEntity
  8
0-B_寸法
  6
Continuous
 62
     7
370
     9
100
AcDbPolyline
 90
        4
 70
     1
 43
3.0
 10
2018.418592331279
 20
1446.945146597183
 42
0.4142135623731
 10
2016.918592331279
 20
1448.445146597183
 42
0.4142135623731
 10
2015.418592331279
 20
1446.945146597183
 42
0.4142135623731
 10
2016.918592331279
 20
1445.445146597183
 42
0.4142135623731
  0
MTEXT
  5
123
330
1F
100
AcDbEntity
  8
0-B_寸法
  6
Continuous
 62
     7
370
   211
100
AcDbMText
 10
-1768.331407668725
 20
1627.665146597183
 30
0.0
 40
91.43999999999986
 41
539.9999999999991
 46
0.0
 71
     7
 72
     1
  1
{\fＭＳ ゴシック|b0|i0|c128|p49;ＤＷ＝394}
 73
     1
 44
1.0
  0
MTEXT
  5
124
330
1F
100
AcDbEntity
  8
0-B_寸法
  6
Continuous
 62
     7
370
   211
100
AcDbMText
 10
-764.8314076687254
 20
1627.665146597183
 30
0.0
 40
91.43999999999986
 41
539.9999999999991
 46
0.0
 71
     7
 72
     1
  1
{\fＭＳ ゴシック|b0|i0|c128|p49;ＤＷ＝394}
 73
     1
 44
1.0
  0
MTEXT
  5
125
330
1F
100
AcDbEntity
  8
0-B_寸法
  6
Continuous
 62
     7
370
   211
100
AcDbMText
 10
244.6685923312756
 20
1627.665146597183
 30
0.0
 40
91.43999999999986
 41
539.9999999999991
 46
0.0
 71
     7
 72
     1
  1
{\fＭＳ ゴシック|b0|i0|c128|p49;ＤＷ＝394}
 73
     1
 44
1.0
  0
MTEXT
  5
126
330
1F
100
AcDbEntity
  8
0-B_寸法
  6
Continuous
 62
     7
370
   211
100
AcDbMText
 10
1248.168592331277
 20
1627.665146597183
 30
0.0
 40
91.43999999999986
 41
539.9999999999991
 46
0.0
 71
     7
 72
     1
  1
{\fＭＳ ゴシック|b0|i0|c128|p49;ＤＷ＝394}
 73
     1
 44
1.0
  0
MTEXT
  5
127
330
1F
100
AcDbEntity
  8
0-B_寸法
  6
Continuous
 62
     7
370
   211
100
AcDbMText
 10
-1446.581407668725
 20
1447.665146597183
 30
0.0
 40
91.44000000000001
 41
900.0
 46
0.0
 71
     7
 72
     1
  1
{\fＭＳ ゴシック|b0|i0|c128|p49;折戸：ＤＷ＝789}
 73
     1
 44
1.0
  0
MTEXT
  5
128
330
1F
100
AcDbEntity
  8
0-B_寸法
  6
Continuous
 62
     7
370
   211
100
AcDbMText
 10
566.4185923312772
 20
1447.665146597183
 30
0.0
 40
91.44000000000001
 41
900.0
 46
0.0
 71
     7
 72
     1
  1
{\fＭＳ ゴシック|b0|i0|c128|p49;折戸：ＤＷ＝789}
 73
     1
 44
1.0
  0
MTEXT
  5
129
330
1F
100
AcDbEntity
  8
0-B_寸法
  6
Continuous
 62
     7
370
   211
100
AcDbMText
 10
-320.0814076687266
 20
1267.665146597183
 30
0.0
 40
91.44000000000024
 41
660.0000000000017
 46
0.0
 71
     7
 72
     1
  1
{\fＭＳ ゴシック|b0|i0|c128|p49;枠内＝1,575}
 73
     1
 44
1.0
  0
MTEXT
  5
12A
330
1F
100
AcDbEntity
  8
0-B_寸法
  6
Continuous
 62
     7
370
   211
100
AcDbMText
 10
-320.0814076687266
 20
1087.665146597183
 30
0.0
 40
91.44000000000024
 41
660.0000000000017
 46
0.0
 71
     7
 72
     1
  1
{\fＭＳ ゴシック|b0|i0|c128|p49;枠外＝1,635}
 73
     1
 44
1.0
  0
MTEXT
  5
12B
330
1F
100
AcDbEntity
  8
0-B_寸法
  6
Continuous
 62
     7
370
   211
100
AcDbMText
 10
39.91859233127343
 20
1447.665146597184
 30
0.0
 40
91.4400000000013
 41
60.00000000000085
 46
0.0
 71
     7
 72
     1
  1
{\fＭＳ ゴシック|b0|i0|c128|p49;2}
 73
     1
 44
1.0
  0
LINE
  5
12C
330
1F
100
AcDbEntity
  8
0-0_補助線
  6
JWW_HOJO
 62
   120
370
     5
100
AcDbLine
 10
2781.918394379421
 20
1986.945146597183
 30
0.0
 11
-2762.081209716868
 21
1986.945146597183
 31
0.0
  0
LINE
  5
12D
330
1F
100
AcDbEntity
  8
0-C_ハッチ
  6
Continuous
 62
   120
370
     5
100
AcDbLine
 10
-2162.081407668722
 20
2387.264773392874
 30
0.0
 11
-1982.081407668726
 21
2567.264773392871
 31
0.0
  0
LINE
  5
12E
330
1F
100
AcDbEntity
  8
0-C_ハッチ
  6
Continuous
 62
   120
370
     5
100
AcDbLine
 10
-2162.081407668728
 20
2327.867803773166
 30
0.0
 11
-1982.08140766874
 21
2507.867803773155
 31
0.0
  0
LINE
  5
12F
330
1F
100
AcDbEntity
  8
0-C_ハッチ
  6
Continuous
 62
   120
370
     5
100
AcDbLine
 10
-2162.081407668726
 20
2268.470834153522
 30
0.0
 11
-2012.98339090948
 21
2417.568850912767
 31
0.0
  0
LINE
  5
130
330
1F
100
AcDbEntity
  8
0-C_ハッチ
  6
Continuous
 62
   120
370
     5
100
AcDbLine
 10
-2162.08140766872
 20
2209.073864533879
 30
0.0
 11
-2017.956386889899
 21
2353.1988853127
 31
0.0
  0
ARC
  5
131
330
1F
100
AcDbEntity
  8
0-4_枠
  6
Continuous
 62
    92
370
    13
100
AcDbCircle
 10
-1712.081407668723
 20
2361.945146597183
 30
0.0
 40
306.0000000000022
100
AcDbArc
 50
151.9275130641473
 51
208.0724869358527
  0
LINE
  5
132
330
1F
100
AcDbEntity
  8
0-4_枠
  6
Continuous
 62
    92
370
    13
100
AcDbLine
 10
-2096.081407668725
 20
2190.946220486012
 30
0.0
 11
-2042.081407668726
 21
2190.946220486012
 31
0.0
  0
LINE
  5
133
330
1F
100
AcDbEntity
  8
0-4_枠
  6
Continuous
 62
    92
370
    13
100
AcDbLine
 10
-2162.081407668726
 20
2172.946220486015
 30
0.0
 11
-2132.081407668726
 21
2172.946220486015
 31
0.0
  0
LINE
  5
134
330
1F
100
AcDbEntity
  8
0-4_枠
  6
Continuous
 62
    92
370
    13
100
AcDbLine
 10
-2132.081407668726
 20
2130.946220486012
 30
0.0
 11
-2132.081407668726
 21
2172.946220486015
 31
0.0
  0
LINE
  5
135
330
1F
100
AcDbEntity
  8
0-4_枠
  6
Continuous
 62
    92
370
    13
100
AcDbLine
 10
-2096.081407668725
 20
2130.946220486012
 30
0.0
 11
-2096.081407668725
 21
2190.946220486012
 31
0.0
  0
LINE
  5
136
330
1F
100
AcDbEntity
  8
0-4_枠
  6
Continuous
 62
    92
370
    13
100
AcDbLine
 10
-2132.081407668726
 20
2130.946220486012
 30
0.0
 11
-2096.081407668725
 21
2130.946220486012
 31
0.0
  0
LINE
  5
137
330
1F
100
AcDbEntity
  8
0-4_枠
  6
Continuous
 62
    92
370
    13
100
AcDbLine
 10
-2042.081407668726
 20
2130.946220486012
 30
0.0
 11
-2042.081407668726
 21
2190.946220486012
 31
0.0
  0
LINE
  5
138
330
1F
100
AcDbEntity
  8
0-4_枠
  6
Continuous
 62
    92
370
    13
100
AcDbLine
 10
-2042.081407668726
 20
2130.946220486012
 30
0.0
 11
-2026.669364701604
 21
2130.946220486012
 31
0.0
  0
LINE
  5
139
330
1F
100
AcDbEntity
  8
0-4_枠
  6
Continuous
 62
    92
370
    13
100
AcDbLine
 10
-2026.669364701604
 20
2130.946220486012
 30
0.0
 11
-1982.081407668726
 21
2130.946220486012
 31
0.0
  0
LINE
  5
13A
330
1F
100
AcDbEntity
  8
0-4_枠
  6
Continuous
 62
    92
370
    13
100
AcDbLine
 10
-1982.081407668726
 20
2130.946220486012
 30
0.0
 11
-1982.081407668726
 21
2217.945146597184
 31
0.0
  0
LINE
  5
13B
330
1F
100
AcDbEntity
  8
0-4_枠
  6
Continuous
 62
    92
370
    13
100
AcDbLine
 10
-2162.081407668726
 20
2172.946220486015
 30
0.0
 11
-2162.081407668726
 21
2592.946220486011
 31
0.0
  0
LINE
  5
13C
330
1F
100
AcDbEntity
  8
0-C_ハッチ
  6
Continuous
 62
   120
370
     5
100
AcDbLine
 10
-2162.08140766874
 20
2565.45568225185
 30
0.0
 11
-2134.59086943458
 21
2592.946220486011
 31
0.0
  0
LINE
  5
13D
330
1F
100
AcDbEntity
  8
0-C_ハッチ
  6
Continuous
 62
   120
370
     5
100
AcDbLine
 10
-2162.081407668735
 20
2446.661743012508
 30
0.0
 11
-2015.796930195231
 21
2592.946220486011
 31
0.0
  0
LINE
  5
13E
330
1F
100
AcDbEntity
  8
0-C_ハッチ
  6
Continuous
 62
   120
370
     5
100
AcDbLine
 10
-2162.081407668724
 20
2506.058712632223
 30
0.0
 11
-2075.193899814934
 21
2592.946220486011
 31
0.0
  0
LINE
  5
13F
330
1F
100
AcDbEntity
  8
0-4_枠
  6
Continuous
 62
    92
370
    13
100
AcDbLine
 10
-1982.081407668726
 20
2505.945146597185
 30
0.0
 11
-1982.081407668726
 21
2592.946220486011
 31
0.0
  0
LINE
  5
140
330
1F
100
AcDbEntity
  8
0-4_枠
  6
Continuous
 62
    92
370
    13
100
AcDbLine
 10
-2162.081407668726
 20
2592.946220486011
 30
0.0
 11
-1982.081407668726
 21
2592.946220486011
 31
0.0
  0
LINE
  5
141
330
1F
100
AcDbEntity
  8
0-C_ハッチ
  6
Continuous
 62
   120
370
     5
100
AcDbLine
 10
-2138.812082096885
 20
2172.946220486015
 30
0.0
 11
-2011.748011805093
 21
2300.010290777805
 31
0.0
  0
LINE
  5
142
330
1F
100
AcDbEntity
  8
0-C_ハッチ
  6
Continuous
 62
   120
370
     5
100
AcDbLine
 10
-2061.415112477238
 20
2190.946220486012
 30
0.0
 11
-1998.396398262602
 21
2253.964934700648
 31
0.0
  0
LINE
  5
143
330
1F
100
AcDbEntity
  8
0-C_ハッチ
  6
Continuous
 62
   120
370
     5
100
AcDbLine
 10
-2121.415112477238
 20
2130.946220486012
 30
0.0
 11
-2096.081407668725
 21
2156.279925294524
 31
0.0
  0
LINE
  5
144
330
1F
100
AcDbEntity
  8
0-C_ハッチ
  6
Continuous
 62
   120
370
     5
100
AcDbLine
 10
-2042.081407668726
 20
2150.882955674822
 30
0.0
 11
-1982.081407668728
 21
2210.88295567482
 31
0.0
  0
LINE
  5
145
330
1F
100
AcDbEntity
  8
0-C_ハッチ
  6
Continuous
 62
   120
370
     5
100
AcDbLine
 10
-2002.621173237889
 20
2130.946220486012
 30
0.0
 11
-1982.081407668733
 21
2151.485986055169
 31
0.0
  0
ARC
  5
146
330
1F
100
AcDbEntity
  8
0-4_枠
  6
Continuous
 62
    92
370
    13
100
AcDbCircle
 10
1731.918592331273
 20
2361.945146597183
 30
0.0
 40
306.0000000000022
100
AcDbArc
 50
331.9275130641473
 51
28.07248693585271
  0
LINE
  5
147
330
1F
100
AcDbEntity
  8
0-4_枠
  6
Continuous
 62
    92
370
    13
100
AcDbLine
 10
2115.918592331275
 20
2190.946220486012
 30
0.0
 11
2061.918592331276
 21
2190.946220486012
 31
0.0
  0
LINE
  5
148
330
1F
100
AcDbEntity
  8
0-4_枠
  6
Continuous
 62
    92
370
    13
100
AcDbLine
 10
2181.918592331276
 20
2172.946220486015
 30
0.0
 11
2151.918592331276
 21
2172.946220486015
 31
0.0
  0
LINE
  5
149
330
1F
100
AcDbEntity
  8
0-4_枠
  6
Continuous
 62
    92
370
    13
100
AcDbLine
 10
2151.918592331276
 20
2130.946220486012
 30
0.0
 11
2151.918592331276
 21
2172.946220486015
 31
0.0
  0
LINE
  5
14A
330
1F
100
AcDbEntity
  8
0-4_枠
  6
Continuous
 62
    92
370
    13
100
AcDbLine
 10
2115.918592331275
 20
2130.946220486012
 30
0.0
 11
2115.918592331275
 21
2190.946220486012
 31
0.0
  0
LINE
  5
14B
330
1F
100
AcDbEntity
  8
0-4_枠
  6
Continuous
 62
    92
370
    13
100
AcDbLine
 10
2151.918592331276
 20
2130.946220486012
 30
0.0
 11
2115.918592331275
 21
2130.946220486012
 31
0.0
  0
LINE
  5
14C
330
1F
100
AcDbEntity
  8
0-4_枠
  6
Continuous
 62
    92
370
    13
100
AcDbLine
 10
2061.918592331276
 20
2130.946220486012
 30
0.0
 11
2061.918592331276
 21
2190.946220486012
 31
0.0
  0
LINE
  5
14D
330
1F
100
AcDbEntity
  8
0-4_枠
  6
Continuous
 62
    92
370
    13
100
AcDbLine
 10
2061.918592331276
 20
2130.946220486012
 30
0.0
 11
2046.506549364153
 21
2130.946220486012
 31
0.0
  0
LINE
  5
14E
330
1F
100
AcDbEntity
  8
0-4_枠
  6
Continuous
 62
    92
370
    13
100
AcDbLine
 10
2046.506549364153
 20
2130.946220486012
 30
0.0
 11
2001.918592331276
 21
2130.946220486012
 31
0.0
  0
LINE
  5
14F
330
1F
100
AcDbEntity
  8
0-4_枠
  6
Continuous
 62
    92
370
    13
100
AcDbLine
 10
2001.918592331276
 20
2130.946220486012
 30
0.0
 11
2001.918592331276
 21
2217.945146597184
 31
0.0
  0
LINE
  5
150
330
1F
100
AcDbEntity
  8
0-4_枠
  6
Continuous
 62
    92
370
    13
100
AcDbLine
 10
2181.918592331276
 20
2172.946220486015
 30
0.0
 11
2181.918592331276
 21
2592.946220486011
 31
0.0
  0
LINE
  5
151
330
1F
100
AcDbEntity
  8
0-4_枠
  6
Continuous
 62
    92
370
    13
100
AcDbLine
 10
2001.918592331276
 20
2505.945146597185
 30
0.0
 11
2001.918592331276
 21
2592.946220486011
 31
0.0
  0
LINE
  5
152
330
1F
100
AcDbEntity
  8
0-4_枠
  6
Continuous
 62
    92
370
    13
100
AcDbLine
 10
2181.918592331276
 20
2592.946220486011
 30
0.0
 11
2001.918592331276
 21
2592.946220486011
 31
0.0
  0
LINE
  5
153
330
1F
100
AcDbEntity
  8
0-C_ハッチ
  6
Continuous
 62
   120
370
     5
100
AcDbLine
 10
2130.943833667043
 20
2130.946220486015
 30
0.0
 11
2151.918592331279
 21
2151.920979150248
 31
0.0
  0
LINE
  5
154
330
1F
100
AcDbEntity
  8
0-C_ハッチ
  6
Continuous
 62
   120
370
     5
100
AcDbLine
 10
2172.943833667032
 20
2172.946220486001
 30
0.0
 11
2181.91859233129
 21
2181.920979150259
 31
0.0
  0
LINE
  5
155
330
1F
100
AcDbEntity
  8
0-C_ハッチ
  6
Continuous
 62
   120
370
     5
100
AcDbLine
 10
2115.918592331258
 20
2175.317948769933
 30
0.0
 11
2181.918592331276
 21
2241.317948769948
 31
0.0
  0
LINE
  5
156
330
1F
100
AcDbEntity
  8
0-C_ハッチ
  6
Continuous
 62
   120
370
     5
100
AcDbLine
 10
2012.149894427691
 20
2130.946220486012
 30
0.0
 11
2061.918592331279
 21
2180.714918389597
 31
0.0
  0
LINE
  5
157
330
1F
100
AcDbEntity
  8
0-C_ハッチ
  6
Continuous
 62
   120
370
     5
100
AcDbLine
 10
2072.149894427694
 20
2190.946220486012
 30
0.0
 11
2181.918592331283
 21
2300.714918389602
 31
0.0
  0
LINE
  5
158
330
1F
100
AcDbEntity
  8
0-C_ハッチ
  6
Continuous
 62
   120
370
     5
100
AcDbLine
 10
2001.918592331283
 20
2180.11188800925
 30
0.0
 11
2181.918592331283
 21
2360.111888009249
 31
0.0
  0
LINE
  5
159
330
1F
100
AcDbEntity
  8
0-C_ハッチ
  6
Continuous
 62
   120
370
     5
100
AcDbLine
 10
2019.331252961996
 20
2256.921518259664
 30
0.0
 11
2181.918592331283
 21
2419.508857628951
 31
0.0
  0
LINE
  5
15A
330
1F
100
AcDbEntity
  8
0-C_ハッチ
  6
Continuous
 62
   120
370
     5
100
AcDbLine
 10
2036.601933709461
 20
2333.589168626776
 30
0.0
 11
2181.918592331279
 21
2478.905827248594
 31
0.0
  0
LINE
  5
15B
330
1F
100
AcDbEntity
  8
0-C_ハッチ
  6
Continuous
 62
   120
370
     5
100
AcDbLine
 10
2036.364246639236
 20
2392.748451176252
 30
0.0
 11
2181.918592331279
 21
2538.302796868296
 31
0.0
  0
LINE
  5
15C
330
1F
100
AcDbEntity
  8
0-C_ハッチ
  6
Continuous
 62
   120
370
     5
100
AcDbLine
 10
2027.037902768956
 20
2442.81907692562
 30
0.0
 11
2177.165046329348
 21
2592.946220486011
 31
0.0
  0
LINE
  5
15D
330
1F
100
AcDbEntity
  8
0-C_ハッチ
  6
Continuous
 62
   120
370
     5
100
AcDbLine
 10
2011.391040434577
 20
2486.569184210888
 30
0.0
 11
2117.76807670969
 21
2592.946220486001
 31
0.0
  0
LINE
  5
15E
330
1F
100
AcDbEntity
  8
0-C_ハッチ
  6
Continuous
 62
   120
370
     5
100
AcDbLine
 10
2001.918592331283
 20
2536.493705727296
 30
0.0
 11
2058.371107089988
 21
2592.946220486001
 31
0.0
  0
LINE
  5
15F
330
1F
100
AcDbEntity
  8
0-B_寸法
  6
Continuous
 62
   120
370
     5
100
AcDbLine
 10
2181.918592331276
 20
1266.945146597183
 30
0.0
 11
2181.918592331276
 21
1806.945146597183
 31
0.0
  0
LINE
  5
160
330
1F
100
AcDbEntity
  8
0-B_寸法
  6
Continuous
 62
   120
370
     5
100
AcDbLine
 10
-2162.081407668727
 20
1266.945146597183
 30
0.0
 11
-2162.081407668727
 21
1806.945146597183
 31
0.0
  0
LINE
  5
161
330
1F
100
AcDbEntity
  8
0-B_寸法
  6
Continuous
 62
   120
370
     5
100
AcDbLine
 10
-2162.081407668727
 20
1806.945146597183
 30
0.0
 11
-1982.081407668727
 21
1806.945146597183
 31
0.0
  0
LWPOLYLINE
  5
162
330
1F
100
AcDbEntity
  8
0-B_寸法
  6
Continuous
 62
     7
370
     9
100
AcDbPolyline
 90
        4
 70
     1
 43
3.0
 10
-2160.581407668727
 20
1806.945146597183
 42
0.4142135623731
 10
-2162.081407668727
 20
1808.445146597183
 42
0.4142135623731
 10
-2163.581407668727
 20
1806.945146597183
 42
0.4142135623731
 10
-2162.081407668727
 20
1805.445146597183
 42
0.4142135623731
  0
LWPOLYLINE
  5
163
330
1F
100
AcDbEntity
  8
0-B_寸法
  6
Continuous
 62
     7
370
     9
100
AcDbPolyline
 90
        4
 70
     1
 43
3.0
 10
-2130.581407668727
 20
1806.945146597183
 42
0.4142135623731
 10
-2132.081407668727
 20
1808.445146597183
 42
0.4142135623731
 10
-2133.581407668727
 20
1806.945146597183
 42
0.4142135623731
 10
-2132.081407668727
 20
1805.445146597183
 42
0.4142135623731
  0
LWPOLYLINE
  5
164
330
1F
100
AcDbEntity
  8
0-B_寸法
  6
Continuous
 62
     7
370
     9
100
AcDbPolyline
 90
        4
 70
     1
 43
3.0
 10
-2094.58140766873
 20
1806.945146597183
 42
0.4142135623731
 10
-2096.08140766873
 20
1808.445146597183
 42
0.4142135623731
 10
-2097.58140766873
 20
1806.945146597183
 42
0.4142135623731
 10
-2096.08140766873
 20
1805.445146597183
 42
0.4142135623731
  0
LINE
  5
165
330
1F
100
AcDbEntity
  8
0-B_寸法
  6
Continuous
 62
   120
370
     5
100
AcDbLine
 10
-2096.08140766873
 20
1806.945146597183
 30
0.0
 11
-2096.08140766873
 21
1986.945146597183
 31
0.0
  0
LWPOLYLINE
  5
166
330
1F
100
AcDbEntity
  8
0-B_寸法
  6
Continuous
 62
     7
370
     9
100
AcDbPolyline
 90
        4
 70
     1
 43
3.0
 10
-2040.581407668727
 20
1806.945146597183
 42
0.4142135623731
 10
-2042.081407668727
 20
1808.445146597183
 42
0.4142135623731
 10
-2043.581407668727
 20
1806.945146597183
 42
0.4142135623731
 10
-2042.081407668727
 20
1805.445146597183
 42
0.4142135623731
  0
LINE
  5
167
330
1F
100
AcDbEntity
  8
0-B_寸法
  6
Continuous
 62
   120
370
     5
100
AcDbLine
 10
-2042.081407668727
 20
1806.945146597183
 30
0.0
 11
-2042.081407668727
 21
1986.945146597183
 31
0.0
  0
LWPOLYLINE
  5
168
330
1F
100
AcDbEntity
  8
0-B_寸法
  6
Continuous
 62
     7
370
     9
100
AcDbPolyline
 90
        4
 70
     1
 43
3.0
 10
-1980.581407668727
 20
1806.945146597183
 42
0.4142135623731
 10
-1982.081407668727
 20
1808.445146597183
 42
0.4142135623731
 10
-1983.581407668727
 20
1806.945146597183
 42
0.4142135623731
 10
-1982.081407668727
 20
1805.445146597183
 42
0.4142135623731
  0
LINE
  5
169
330
1F
100
AcDbEntity
  8
0-B_寸法
  6
Continuous
 62
   120
370
     5
100
AcDbLine
 10
-1982.081407668727
 20
1806.945146597183
 30
0.0
 11
-1982.081407668727
 21
1986.945146597183
 31
0.0
  0
MTEXT
  5
16A
330
1F
100
AcDbEntity
  8
0-B_寸法
  6
Continuous
 62
     7
370
   211
100
AcDbMText
 10
-2091.58140766873
 20
1796.235146597185
 30
0.0
 40
68.5800000000026
 41
45.00000000000171
 46
0.0
 71
     7
 72
     1
  1
{\fＭＳ ゴシック|b0|i0|c128|p49;9}
 73
     1
 44
1.0
  0
LINE
  5
16B
330
1F
100
AcDbEntity
  8
0-B_寸法
  6
Continuous
 62
   120
370
     5
100
AcDbLine
 10
-2114.081407668729
 20
1806.945146597183
 30
0.0
 11
-2204.081407668731
 21
1716.945146597183
 31
0.0
  0
MTEXT
  5
16C
330
1F
100
AcDbEntity
  8
0-B_寸法
  6
Continuous
 62
     7
370
   211
100
AcDbMText
 10
-2249.081407668732
 20
1706.235146597185
 30
0.0
 40
68.5800000000026
 41
45.00000000000171
 46
0.0
 71
     7
 72
     1
  1
{\fＭＳ ゴシック|b0|i0|c128|p49;6}
 73
     1
 44
1.0
  0
LINE
  5
16D
330
1F
100
AcDbEntity
  8
0-B_寸法
  6
Continuous
 62
   120
370
     5
100
AcDbLine
 10
-2259.327947523906
 20
1716.945146597183
 30
0.0
 11
-2204.081407668731
 21
1716.945146597183
 31
0.0
  0
LINE
  5
16E
330
1F
100
AcDbEntity
  8
0-B_寸法
  6
Continuous
 62
   120
370
     5
100
AcDbLine
 10
-2147.081407668727
 20
1806.945146597183
 30
0.0
 11
-2207.081407668728
 21
1866.945146597183
 31
0.0
  0
MTEXT
  5
16F
330
1F
100
AcDbEntity
  8
0-B_寸法
  6
Continuous
 62
     7
370
   211
100
AcDbMText
 10
-2252.081407668729
 20
1856.235146597185
 30
0.0
 40
68.5800000000026
 41
45.00000000000171
 46
0.0
 71
     7
 72
     1
  1
{\fＭＳ ゴシック|b0|i0|c128|p49;5}
 73
     1
 44
1.0
  0
LINE
  5
170
330
1F
100
AcDbEntity
  8
0-B_寸法
  6
Continuous
 62
   120
370
     5
100
AcDbLine
 10
-2267.530229497392
 20
1866.945146597183
 30
0.0
 11
-2207.081407668728
 21
1866.945146597183
 31
0.0
  0
MTEXT
  5
171
330
1F
100
AcDbEntity
  8
0-B_寸法
  6
Continuous
 62
     7
370
   211
100
AcDbMText
 10
-2030.831407668727
 20
1799.092646597184
 30
0.0
 40
74.29500000000066
 41
97.50000000000085
 46
0.0
 71
     7
 72
     1
  1
{\fＭＳ ゴシック|b0|i0|c128|p49;10}
 73
     1
 44
1.0
  0
LINE
  5
172
330
1F
100
AcDbEntity
  8
0-B_寸法
  6
Continuous
 62
   120
370
     5
100
AcDbLine
 10
-2162.081407668727
 20
1806.945146597183
 30
0.0
 11
-2162.081407668727
 21
1986.945146597183
 31
0.0
  0
LINE
  5
173
330
1F
100
AcDbEntity
  8
0-B_寸法
  6
Continuous
 62
   120
370
     5
100
AcDbLine
 10
-2132.081407668727
 20
1806.945146597183
 30
0.0
 11
-2132.081407668727
 21
1986.945146597183
 31
0.0
  0
LWPOLYLINE
  5
174
330
1F
100
AcDbEntity
  8
0-3_仕上げ
  6
Continuous
 62
     7
370
     9
100
AcDbPolyline
 90
        4
 70
     1
 43
3.0
 10
-1565.414763801667
 20
2592.946220486011
 42
0.4142135623731
 10
-1566.914763801667
 20
2594.446220486011
 42
0.4142135623731
 10
-1568.414763801667
 20
2592.946220486011
 42
0.4142135623731
 10
-1566.914763801667
 20
2591.446220486011
 42
0.4142135623731
  0
LINE
  5
175
330
1F
100
AcDbEntity
  8
0-3_仕上げ
  6
Continuous
 62
   120
370
     5
100
AcDbLine
 10
-1566.914763801667
 20
2592.946220486011
 30
0.0
 11
-1730.146509341325
 21
2592.946220486011
 31
0.0
  0
LWPOLYLINE
  5
176
330
1F
100
AcDbEntity
  8
0-3_仕上げ
  6
Continuous
 62
     7
370
     9
100
AcDbPolyline
 90
        4
 70
     1
 43
3.0
 10
-1565.414763801667
 20
2130.946220486012
 42
0.4142135623731
 10
-1566.914763801667
 20
2132.446220486012
 42
0.4142135623731
 10
-1568.414763801667
 20
2130.946220486012
 42
0.4142135623731
 10
-1566.914763801667
 20
2129.446220486012
 42
0.4142135623731
  0
LINE
  5
177
330
1F
100
AcDbEntity
  8
0-3_仕上げ
  6
Continuous
 62
   120
370
     5
100
AcDbLine
 10
-1566.914763801667
 20
2130.946220486012
 30
0.0
 11
-1730.146509341325
 21
2130.946220486012
 31
0.0
  0
LINE
  5
178
330
1F
100
AcDbEntity
  8
0-3_仕上げ
  6
Continuous
 62
   120
370
     5
100
AcDbLine
 10
-1566.914763801667
 20
2592.946220486011
 30
0.0
 11
-1566.914763801667
 21
2130.946220486012
 31
0.0
  0
MTEXT
  5
179
330
1F
100
AcDbEntity
  8
0-3_仕上げ
  6
Continuous
 62
     7
370
   211
100
AcDbMText
 10
-1581.914763801666
 20
2287.665022877265
 30
0.0
 40
91.44
 41
120.0
 46
0.0
 71
     7
 72
     1
  1
{\fＭＳ ゴシック|b0|i0|c128|p49;77}
 11
6.123031769111886E-17
 21
1.0
 31
0.0
 73
     1
 44
1.0
  0
MTEXT
  5
17A
330
1F
100
AcDbEntity
  8
0-A_文字
  6
Continuous
 62
     7
370
     9
100
AcDbMText
 10
-2728.614622951318
 20
3310.355192580588
 30
0.0
 40
100.5839999999995
 41
659.9999999999966
 46
0.0
 71
     7
 72
     1
  1
{\fＭＳ ゴシック|b0|i0|c128|p49;■横断面図}
 73
     1
 44
1.0
  0
LINE
  5
17B
330
1F
100
AcDbEntity
  8
0-A_文字
  6
JWW_HOJO
 62
   120
370
     5
100
AcDbLine
 10
9.918592331275988
 20
947.6368213448457
 30
0.0
 11
2419.442401855085
 21
947.6368213448457
 31
0.0
  0
LINE
  5
17C
330
1F
100
AcDbEntity
  8
0-A_文字
  6
JWW_HOJO
 62
   120
370
     5
100
AcDbLine
 10
9.918592331275988
 20
827.6368213448457
 30
0.0
 11
2419.442401855085
 21
827.6368213448457
 31
0.0
  0
LINE
  5
17D
330
1F
100
AcDbEntity
  8
0-A_文字
  6
JWW_HOJO
 62
   120
370
     5
100
AcDbLine
 10
9.918592331275988
 20
707.6368213448461
 30
0.0
 11
2419.442401855085
 21
707.6368213448461
 31
0.0
  0
MTEXT
  5
17E
330
1F
100
AcDbEntity
  8
0-A_文字
  6
Continuous
 62
     7
370
     9
100
AcDbMText
 10
9.918592331275136
 20
942.3820486175729
 30
0.0
 40
79.49045454545461
 41
2295.000000000002
 46
0.0
 71
     7
 72
     1
  1
{\fＭＳ ゴシック|b0|i0|c128|p49;※有効開口寸法にはハンドルの突出は含まない。}
 73
     1
 44
1.0
  0
MTEXT
  5
17F
330
1F
100
AcDbEntity
  8
0-A_文字
  6
Continuous
 62
     7
370
     9
100
AcDbMText
 10
9.918592331275136
 20
822.4301546781788
 30
0.0
 40
79.58666666666667
 41
2820.000000000001
 46
0.0
 71
     7
 72
     1
  1
{\fＭＳ ゴシック|b0|i0|c128|p49;※有効開口寸法は扉の厚さや調整によって若干異なります。}
 73
     1
 44
1.0
  0
MTEXT
  5
180
330
1F
100
AcDbEntity
  8
0-A_文字
  6
Continuous
 62
     7
370
     0
100
AcDbMText
 10
9.918592331275988
 20
696.926821344847
 30
0.0
 40
68.58000000000003
 41
1350.0
 46
0.0
 71
     7
 72
     1
  1
{\fＭＳ ゴシック|b0|i0|c128|p49;※扉厚（　）内はルーバーの場合}
 73
     1
 44
1.0
  0
MTEXT
  5
181
330
1F
100
AcDbEntity
  8
0-A_文字
  6
Continuous
 62
     7
370
   211
100
AcDbMText
 10
-1022.045434731497
 20
2227.665146597182
 30
0.0
 40
91.44
 41
240.0
 46
0.0
 71
     7
 72
     1
  1
{\fＭＳ ゴシック|b0|i0|c128|p49;(24)}
 11
6.123031769111886E-17
 21
1.0
 31
0.0
 73
     1
 44
1.0
  0
LINE
  5
182
330
1F
100
AcDbEntity
  8
0-C_ハッチ
  6
JWW_DASHED1
 62
   120
370
     5
100
AcDbLine
 10
-2144.101145509922
 20
2097.946220486022
 30
0.0
 11
-2132.081407668733
 21
2109.965958327212
 31
0.0
  0
LINE
  5
183
330
1F
100
AcDbEntity
  8
0-C_ハッチ
  6
JWW_DASHED1
 62
   120
370
     5
100
AcDbLine
 10
-2186.527552381118
 20
2097.946220486025
 30
0.0
 11
-2132.081407668742
 21
2152.392365198401
 31
0.0
  0
LINE
  5
184
330
1F
100
AcDbEntity
  8
0-C_ハッチ
  6
JWW_DASHED1
 62
   120
370
     5
100
AcDbLine
 10
-2228.953959252316
 20
2097.946220486029
 30
0.0
 11
-2153.953959252305
 21
2172.946220486039
 31
0.0
  0
LINE
  5
185
330
1F
100
AcDbEntity
  8
0-C_ハッチ
  6
JWW_DASHED1
 62
   120
370
     5
100
AcDbLine
 10
-2271.380366123525
 20
2097.946220486022
 30
0.0
 11
-2196.38036612353
 21
2172.946220486015
 31
0.0
  0
LINE
  5
186
330
1F
100
AcDbEntity
  8
0-C_ハッチ
  6
JWW_DASHED1
 62
   120
370
     5
100
AcDbLine
 10
-2313.806772994723
 20
2097.946220486022
 30
0.0
 11
-2238.80677299473
 21
2172.946220486015
 31
0.0
  0
LINE
  5
187
330
1F
100
AcDbEntity
  8
0-C_ハッチ
  6
JWW_DASHED1
 62
   120
370
     5
100
AcDbLine
 10
-2356.233179865921
 20
2097.946220486024
 30
0.0
 11
-2281.233179865925
 21
2172.946220486018
 31
0.0
  0
LINE
  5
188
330
1F
100
AcDbEntity
  8
0-C_ハッチ
  6
JWW_DASHED1
 62
   120
370
     5
100
AcDbLine
 10
-2398.659586737057
 20
2097.946220486032
 30
0.0
 11
-2323.659586737062
 21
2172.946220486029
 31
0.0
  0
LINE
  5
189
330
1F
100
AcDbEntity
  8
0-C_ハッチ
  6
JWW_DASHED1
 62
   120
370
     5
100
AcDbLine
 10
-2441.085993608254
 20
2097.946220486036
 30
0.0
 11
-2366.08599360826
 21
2172.946220486029
 31
0.0
  0
LINE
  5
18A
330
1F
100
AcDbEntity
  8
0-C_ハッチ
  6
JWW_DASHED1
 62
   120
370
     5
100
AcDbLine
 10
-2483.512400479468
 20
2097.946220486024
 30
0.0
 11
-2408.512400479455
 21
2172.946220486036
 31
0.0
  0
LINE
  5
18B
330
1F
100
AcDbEntity
  8
0-C_ハッチ
  6
JWW_DASHED1
 62
   120
370
     5
100
AcDbLine
 10
-2525.938807350662
 20
2097.946220486029
 30
0.0
 11
-2450.93880735065
 21
2172.946220486039
 31
0.0
  0
LINE
  5
18C
330
1F
100
AcDbEntity
  8
0-C_ハッチ
  6
JWW_DASHED1
 62
   120
370
     5
100
AcDbLine
 10
-2568.36521422186
 20
2097.946220486029
 30
0.0
 11
-2493.365214221864
 21
2172.946220486029
 31
0.0
  0
LINE
  5
18D
330
1F
100
AcDbEntity
  8
0-C_ハッチ
  6
JWW_DASHED1
 62
   120
370
     5
100
AcDbLine
 10
-2610.791621093071
 20
2097.946220486018
 30
0.0
 11
-2535.791621093076
 21
2172.946220486015
 31
0.0
  0
LINE
  5
18E
330
1F
100
AcDbEntity
  8
0-C_ハッチ
  6
JWW_DASHED1
 62
   120
370
     5
100
AcDbLine
 10
-2653.218027964268
 20
2097.946220486022
 30
0.0
 11
-2578.218027964273
 21
2172.946220486018
 31
0.0
  0
LINE
  5
18F
330
1F
100
AcDbEntity
  8
0-C_ハッチ
  6
JWW_DASHED1
 62
   120
370
     5
100
AcDbLine
 10
-2695.644434835464
 20
2097.946220486029
 30
0.0
 11
-2620.644434835468
 21
2172.946220486022
 31
0.0
  0
LINE
  5
190
330
1F
100
AcDbEntity
  8
0-3_仕上げ
  6
Continuous
 62
    40
370
    15
100
AcDbLine
 10
-2132.081407668742
 20
2172.946220486015
 30
0.0
 11
-2132.081407668742
 21
2097.946220486015
 31
0.0
  0
LINE
  5
191
330
1F
100
AcDbEntity
  8
0-C_ハッチ
  6
JWW_DASHED1
 62
   120
370
     5
100
AcDbLine
 10
-2738.070841706621
 20
2097.946220486015
 30
0.0
 11
-2663.070841706607
 21
2172.946220486029
 31
0.0
  0
LINE
  5
192
330
1F
100
AcDbEntity
  8
0-C_ハッチ
  6
JWW_DASHED1
 62
   120
370
     5
100
AcDbLine
 10
-2762.081209716868
 20
2116.362259346971
 30
0.0
 11
-2705.497248577803
 21
2172.946220486036
 31
0.0
  0
LINE
  5
193
330
1F
100
AcDbEntity
  8
0-3_仕上げ
  6
Continuous
 62
    40
370
    15
100
AcDbLine
 10
-2762.081209716868
 20
2172.946220486015
 30
0.0
 11
-2132.081407668726
 21
2172.946220486015
 31
0.0
  0
LINE
  5
194
330
1F
100
AcDbEntity
  8
0-C_ハッチ
  6
JWW_DASHED1
 62
   120
370
     5
100
AcDbLine
 10
2655.045842795831
 20
2097.946220486028
 30
0.0
 11
2730.045842795841
 21
2172.946220486039
 31
0.0
  0
LINE
  5
195
330
1F
100
AcDbEntity
  8
0-C_ハッチ
  6
JWW_DASHED1
 62
   120
370
     5
100
AcDbLine
 10
2612.619435924623
 20
2097.946220486018
 30
0.0
 11
2687.619435924616
 21
2172.946220486014
 31
0.0
  0
LINE
  5
196
330
1F
100
AcDbEntity
  8
0-C_ハッチ
  6
JWW_DASHED1
 62
   120
370
     5
100
AcDbLine
 10
2570.193029053423
 20
2097.946220486018
 30
0.0
 11
2645.193029053417
 21
2172.946220486015
 31
0.0
  0
LINE
  5
197
330
1F
100
AcDbEntity
  8
0-C_ハッチ
  6
JWW_DASHED1
 62
   120
370
     5
100
AcDbLine
 10
2527.766622182226
 20
2097.946220486022
 30
0.0
 11
2602.766622182221
 21
2172.946220486018
 31
0.0
  0
LINE
  5
198
330
1F
100
AcDbEntity
  8
0-C_ハッチ
  6
JWW_DASHED1
 62
   120
370
     5
100
AcDbLine
 10
2485.340215311089
 20
2097.946220486032
 30
0.0
 11
2560.340215311085
 21
2172.946220486028
 31
0.0
  0
LINE
  5
199
330
1F
100
AcDbEntity
  8
0-C_ハッチ
  6
JWW_DASHED1
 62
   120
370
     5
100
AcDbLine
 10
2442.913808439892
 20
2097.946220486033
 30
0.0
 11
2517.913808439887
 21
2172.946220486032
 31
0.0
  0
LINE
  5
19A
330
1F
100
AcDbEntity
  8
0-C_ハッチ
  6
JWW_DASHED1
 62
   120
370
     5
100
AcDbLine
 10
2400.487401568681
 20
2097.946220486022
 30
0.0
 11
2475.487401568692
 21
2172.946220486033
 31
0.0
  0
LINE
  5
19B
330
1F
100
AcDbEntity
  8
0-C_ハッチ
  6
JWW_DASHED1
 62
   120
370
     5
100
AcDbLine
 10
2358.060994697485
 20
2097.946220486025
 30
0.0
 11
2433.060994697496
 21
2172.946220486039
 31
0.0
  0
LINE
  5
19C
330
1F
100
AcDbEntity
  8
0-C_ハッチ
  6
JWW_DASHED1
 62
   120
370
     5
100
AcDbLine
 10
2315.634587826287
 20
2097.946220486032
 30
0.0
 11
2390.634587826285
 21
2172.946220486025
 31
0.0
  0
LINE
  5
19D
330
1F
100
AcDbEntity
  8
0-C_ハッチ
  6
JWW_DASHED1
 62
   120
370
     5
100
AcDbLine
 10
2273.208180955075
 20
2097.946220486018
 30
0.0
 11
2348.208180955072
 21
2172.946220486014
 31
0.0
  0
LINE
  5
19E
330
1F
100
AcDbEntity
  8
0-C_ハッチ
  6
JWW_DASHED1
 62
   120
370
     5
100
AcDbLine
 10
2230.78177408388
 20
2097.946220486022
 30
0.0
 11
2305.781774083875
 21
2172.946220486018
 31
0.0
  0
LINE
  5
19F
330
1F
100
AcDbEntity
  8
0-C_ハッチ
  6
JWW_DASHED1
 62
   120
370
     5
100
AcDbLine
 10
2188.355367212685
 20
2097.946220486025
 30
0.0
 11
2263.355367212678
 21
2172.946220486019
 31
0.0
  0
LINE
  5
1A0
330
1F
100
AcDbEntity
  8
0-C_ハッチ
  6
JWW_DASHED1
 62
   120
370
     5
100
AcDbLine
 10
2151.918592331256
 20
2103.935852475743
 30
0.0
 11
2220.928960341542
 21
2172.946220486029
 31
0.0
  0
LINE
  5
1A1
330
1F
100
AcDbEntity
  8
0-C_ハッチ
  6
JWW_DASHED1
 62
   120
370
     5
100
AcDbLine
 10
2151.918592331263
 20
2146.362259346949
 30
0.0
 11
2178.502553470346
 21
2172.946220486032
 31
0.0
  0
LINE
  5
1A2
330
1F
100
AcDbEntity
  8
0-3_仕上げ
  6
Continuous
 62
    40
370
    15
100
AcDbLine
 10
2151.918592331276
 20
2097.946220486015
 30
0.0
 11
2151.918592331276
 21
2172.946220486015
 31
0.0
  0
LINE
  5
1A3
330
1F
100
AcDbEntity
  8
0-3_仕上げ
  6
Continuous
 62
    40
370
    15
100
AcDbLine
 10
2151.918592331276
 20
2097.946220486015
 30
0.0
 11
2781.918394379421
 21
2097.946220486015
 31
0.0
  0
LINE
  5
1A4
330
1F
100
AcDbEntity
  8
0-C_ハッチ
  6
JWW_DASHED1
 62
   120
370
     5
100
AcDbLine
 10
2697.472249667027
 20
2097.946220486025
 30
0.0
 11
2772.472249667017
 21
2172.946220486015
 31
0.0
  0
LINE
  5
1A5
330
1F
100
AcDbEntity
  8
0-C_ハッチ
  6
JWW_DASHED1
 62
   120
370
     5
100
AcDbLine
 10
2739.898656538224
 20
2097.946220486019
 30
0.0
 11
2781.918394379421
 21
2139.965958327222
 31
0.0
  0
LINE
  5
1A6
330
1F
100
AcDbEntity
  8
0-3_仕上げ
  6
Continuous
 62
    40
370
    15
100
AcDbLine
 10
2151.918592331276
 20
2172.946220486015
 30
0.0
 11
2781.918394379421
 21
2172.946220486015
 31
0.0
  0
MTEXT
  5
1A7
330
1F
100
AcDbEntity
  8
0-A_文字
  6
Continuous
 62
     7
370
     9
100
AcDbMText
 10
-3723.293247834947
 20
75.26729168917777
 30
0.0
 40
91.43999999999981
 41
1079.999999999997
 46
0.0
 71
     7
 72
     1
  1
{\fＭＳ ゴシック|b0|i0|c128|p49;■縦断面図[３方枠]}
 73
     1
 44
1.0
  0
LINE
  5
1A8
330
1F
100
AcDbEntity
  8
0-0_補助線
  6
JWW_HOJO
 62
   120
370
     5
100
AcDbLine
 10
-3873.293144576042
 20
-3381.830573242647
 30
0.0
 11
-3873.292404101924
 21
-81.83026804190177
 31
0.0
  0
LINE
  5
1A9
330
1F
100
AcDbEntity
  8
0-0_補助線
  6
JWW_HOJO
 62
   120
370
     5
100
AcDbLine
 10
-3873.292404101924
 20
-81.83026804190177
 30
0.0
 11
-1647.293124380471
 21
-81.83026804190177
 31
0.0
  0
LINE
  5
1AA
330
1F
100
AcDbEntity
  8
0-B_寸法
  6
Continuous
 62
   120
370
     5
100
AcDbLine
 10
-2409.293467205761
 20
-381.8302682480238
 30
0.0
 11
-1647.293182180682
 21
-381.8302682480238
 31
0.0
  0
LINE
  5
1AB
330
1F
100
AcDbEntity
  8
0-B_寸法
  6
Continuous
 62
   120
370
     5
100
AcDbLine
 10
-2409.293467205761
 20
-597.8296446996728
 30
0.0
 11
-2067.293182180679
 21
-597.8296446996728
 31
0.0
  0
LINE
  5
1AC
330
1F
100
AcDbEntity
  8
0-0_補助線
  6
JWW_HOJO
 62
   120
370
     5
100
AcDbLine
 10
-3513.293144576047
 20
-3381.830654021633
 30
0.0
 11
-3513.292404101913
 21
-81.83026804190177
 31
0.0
  0
LINE
  5
1AD
330
1F
100
AcDbEntity
  8
0-0_補助線
  6
JWW_HOJO
 62
   120
370
     5
100
AcDbLine
 10
-2277.293144576033
 20
-3381.830654021633
 30
0.0
 11
-2277.292404101899
 21
-81.83026804190177
 31
0.0
  0
LINE
  5
1AE
330
1F
100
AcDbEntity
  8
0-1_通り芯
  6
JWW_CENTER1
 62
   120
370
     5
100
AcDbLine
 10
-2895.292506046921
 20
-3465.66099608928
 30
0.0
 11
-2895.292506046921
 21
-111.8302680419026
 31
0.0
  0
LINE
  5
1AF
330
1F
100
AcDbEntity
  8
0-0_補助線
  6
JWW_HOJO
 62
   120
370
     5
100
AcDbLine
 10
-3513.292825102736
 20
-1965.830426403386
 30
0.0
 11
-2277.292825102719
 21
-1965.830426403386
 31
0.0
  0
LINE
  5
1B0
330
1F
100
AcDbEntity
  8
0-0_補助線
  6
JWW_HOJO
 62
   120
370
     5
100
AcDbLine
 10
-3513.29279802873
 20
-1845.830426403386
 30
0.0
 11
-2277.292798028715
 21
-1845.830426403386
 31
0.0
  0
LINE
  5
1B1
330
1F
100
AcDbEntity
  8
0-7_金物
  6
Continuous
 62
     7
370
     9
100
AcDbLine
 10
-2904.291837959403
 20
-3241.084446877945
 30
0.0
 11
-2904.291837959403
 21
-3309.831047477342
 31
0.0
  0
LINE
  5
1B2
330
1F
100
AcDbEntity
  8
0-7_金物
  6
Continuous
 62
     7
370
     9
100
AcDbLine
 10
-2886.292075501628
 20
-3241.084446877945
 30
0.0
 11
-2886.292075501628
 21
-3309.831047477342
 31
0.0
  0
LINE
  5
1B3
330
1F
100
AcDbEntity
  8
0-7_金物
  6
Continuous
 62
     7
370
     9
100
AcDbLine
 10
-2949.292540379196
 20
-381.8302534016358
 30
0.0
 11
-2949.292540379196
 21
-375.6842637562592
 31
0.0
  0
LINE
  5
1B4
330
1F
100
AcDbEntity
  8
0-7_金物
  6
Continuous
 62
     7
370
     9
100
AcDbLine
 10
-2841.292471714646
 20
-375.6842637562592
 30
0.0
 11
-2841.292471714646
 21
-381.8302534016358
 31
0.0
  0
LINE
  5
1B5
330
1F
100
AcDbEntity
  8
0-7_金物
  6
Continuous
 62
     7
370
     9
100
AcDbLine
 10
-2835.292305775315
 20
-375.6842637562592
 30
0.0
 11
-2955.291962452561
 21
-375.6842637562592
 31
0.0
  0
LINE
  5
1B6
330
1F
100
AcDbEntity
  8
0-7_金物
  6
Continuous
 62
     7
370
     9
100
AcDbLine
 10
-2955.291962452561
 20
-363.6846700215187
 30
0.0
 11
-2955.291962452561
 21
-375.6842637562592
 31
0.0
  0
LINE
  5
1B7
330
1F
100
AcDbEntity
  8
0-7_金物
  6
Continuous
 62
     7
370
     9
100
AcDbLine
 10
-2835.292305775315
 20
-363.6846700215187
 30
0.0
 11
-2835.292305775315
 21
-375.6842637562592
 31
0.0
  0
LINE
  5
1B8
330
1F
100
AcDbEntity
  8
0-7_金物
  6
Continuous
 62
     7
370
     9
100
AcDbLine
 10
-2805.292202778487
 20
-351.6843324208094
 30
0.0
 11
-2985.292065449384
 21
-351.6843324208094
 31
0.0
  0
LINE
  5
1B9
330
1F
100
AcDbEntity
  8
0-7_金物
  6
Continuous
 62
     7
370
     9
100
AcDbLine
 10
-2805.292202778487
 20
-351.6843324208094
 30
0.0
 11
-2805.292202778487
 21
-363.6846700215187
 31
0.0
  0
LINE
  5
1BA
330
1F
100
AcDbEntity
  8
0-7_金物
  6
Continuous
 62
     7
370
     9
100
AcDbLine
 10
-2985.292065449384
 20
-351.6843324208094
 30
0.0
 11
-2985.292065449384
 21
-363.6846700215187
 31
0.0
  0
LINE
  5
1BB
330
1F
100
AcDbEntity
  8
0-7_金物
  6
Continuous
 62
     7
370
     9
100
AcDbLine
 10
-2805.292202778487
 20
-363.6846700215187
 30
0.0
 11
-2985.292065449384
 21
-363.6846700215187
 31
0.0
  0
LINE
  5
1BC
330
1F
100
AcDbEntity
  8
0-C_ハッチ
  6
Continuous
 62
   120
370
     5
100
AcDbLine
 10
-2724.292506046922
 20
-516.8248495731565
 30
0.0
 11
-2859.287087372049
 21
-381.8302682480294
 31
0.0
  0
LINE
  5
1BD
330
1F
100
AcDbEntity
  8
0-4_枠
  6
Continuous
 62
    92
370
    13
100
AcDbLine
 10
-2664.292506046922
 20
-537.8302682480239
 30
0.0
 11
-2724.292506046922
 21
-537.8302682480239
 31
0.0
  0
LINE
  5
1BE
330
1F
100
AcDbEntity
  8
0-4_枠
  6
Continuous
 62
    92
370
    13
100
AcDbLine
 10
-2724.292506046922
 20
-483.8302682480244
 30
0.0
 11
-2724.292506046922
 21
-537.8302682480239
 31
0.0
  0
LINE
  5
1BF
330
1F
100
AcDbEntity
  8
0-4_枠
  6
Continuous
 62
    92
370
    13
100
AcDbLine
 10
-2664.292506046922
 20
-483.8302682480244
 30
0.0
 11
-2724.292506046922
 21
-483.8302682480244
 31
0.0
  0
LINE
  5
1C0
330
1F
100
AcDbEntity
  8
0-C_ハッチ
  6
Continuous
 62
   120
370
     5
100
AcDbLine
 10
-2664.292506046922
 20
-458.0309103338066
 30
0.0
 11
-2692.493148132703
 21
-429.8302682480245
 31
0.0
  0
LINE
  5
1C1
330
1F
100
AcDbEntity
  8
0-4_枠
  6
Continuous
 62
    92
370
    13
100
AcDbLine
 10
-2706.292506046917
 20
-381.8302682480238
 30
0.0
 11
-2706.292506046917
 21
-429.8302682480245
 31
0.0
  0
LINE
  5
1C2
330
1F
100
AcDbEntity
  8
0-4_枠
  6
Continuous
 62
    92
370
    13
100
AcDbLine
 10
-2664.292506046922
 20
-429.8302682480245
 30
0.0
 11
-2664.292506046922
 21
-483.8302682480244
 31
0.0
  0
LINE
  5
1C3
330
1F
100
AcDbEntity
  8
0-4_枠
  6
Continuous
 62
    92
370
    13
100
AcDbLine
 10
-2664.292506046922
 20
-429.8302682480245
 30
0.0
 11
-2706.292506046917
 21
-429.8302682480245
 31
0.0
  0
LINE
  5
1C4
330
1F
100
AcDbEntity
  8
0-3_仕上げ
  6
Continuous
 62
    40
370
    15
100
AcDbLine
 10
-3513.293128449683
 20
-3309.831047477342
 30
0.0
 11
-2277.293128449669
 21
-3309.831047477342
 31
0.0
  0
LINE
  5
1C5
330
1F
100
AcDbEntity
  8
0-3_仕上げ
  6
Continuous
 62
     7
370
     9
100
AcDbLine
 10
-2277.293128449669
 20
-3321.830827255898
 30
0.0
 11
-3513.293128449683
 21
-3321.830827255898
 31
0.0
  0
LINE
  5
1C6
330
1F
100
AcDbEntity
  8
0-3_仕上げ
  6
Continuous
 62
     7
370
     9
100
AcDbLine
 10
-2277.293128449669
 20
-3333.830978194192
 30
0.0
 11
-3513.293128449683
 21
-3333.830978194192
 31
0.0
  0
LINE
  5
1C7
330
1F
100
AcDbEntity
  8
0-3_仕上げ
  6
Continuous
 62
    40
370
    15
100
AcDbLine
 10
-2277.293128449669
 20
-3381.831025207759
 30
0.0
 11
-3513.293128449683
 21
-3381.831025207759
 31
0.0
  0
LINE
  5
1C8
330
1F
100
AcDbEntity
  8
0-3_仕上げ
  6
Continuous
 62
     7
370
     9
100
AcDbLine
 10
-2277.293128449669
 20
-3369.831059849336
 30
0.0
 11
-3513.293128449683
 21
-3369.831059849336
 31
0.0
  0
LINE
  5
1C9
330
1F
100
AcDbEntity
  8
0-3_仕上げ
  6
Continuous
 62
     7
370
     9
100
AcDbLine
 10
-2277.293128449669
 20
-3345.830943552615
 30
0.0
 11
-3513.293128449683
 21
-3345.830943552615
 31
0.0
  0
LINE
  5
1CA
330
1F
100
AcDbEntity
  8
0-3_仕上げ
  6
Continuous
 62
     7
370
     9
100
AcDbLine
 10
-2277.293128449669
 20
-3357.83090891104
 30
0.0
 11
-3513.293128449683
 21
-3357.83090891104
 31
0.0
  0
LINE
  5
1CB
330
1F
100
AcDbEntity
  8
0-C_ハッチ
  6
Continuous
 62
   120
370
     5
100
AcDbLine
 10
-2706.292506046925
 20
-416.0309103338012
 30
0.0
 11
-2740.493148132701
 21
-381.8302682480251
 31
0.0
  0
LINE
  5
1CC
330
1F
100
AcDbEntity
  8
0-C_ハッチ
  6
Continuous
 62
   120
370
     5
100
AcDbLine
 10
-2697.890117752414
 20
-483.8302682480155
 30
0.0
 11
-2799.890117752402
 21
-381.8302682480285
 31
0.0
  0
LINE
  5
1CD
330
1F
100
AcDbEntity
  8
0-C_ハッチ
  6
Continuous
 62
   120
370
     5
100
AcDbLine
 10
-2664.292506046922
 20
-576.8248495731518
 30
0.0
 11
-2703.28708737205
 21
-537.8302682480286
 31
0.0
  0
LINE
  5
1CE
330
1F
100
AcDbEntity
  8
0-C_ハッチ
  6
Continuous
 62
   120
370
     5
100
AcDbLine
 10
-2822.684697860905
 20
-477.8296273788729
 30
0.0
 11
-2918.684056991751
 21
-381.8302682480285
 31
0.0
  0
LINE
  5
1CF
330
1F
100
AcDbEntity
  8
0-C_ハッチ
  6
Continuous
 62
   120
370
     5
100
AcDbLine
 10
-2702.684240097229
 20
-597.8300851425481
 30
0.0
 11
-2811.292929478305
 21
-489.2213957614733
 31
0.0
  0
LINE
  5
1D0
330
1F
100
AcDbEntity
  8
0-C_ハッチ
  6
Continuous
 62
   120
370
     5
100
AcDbLine
 10
-2882.081667480533
 20
-477.8296273788933
 30
0.0
 11
-2978.081026611394
 21
-381.8302682480332
 31
0.0
  0
LINE
  5
1D1
330
1F
100
AcDbEntity
  8
0-C_ハッチ
  6
Continuous
 62
   120
370
     5
100
AcDbLine
 10
-2762.081209716857
 20
-597.8300851425673
 30
0.0
 11
-2811.292929478327
 21
-548.6183653811001
 31
0.0
  0
LINE
  5
1D2
330
1F
100
AcDbEntity
  8
0-C_ハッチ
  6
Continuous
 62
   120
370
     5
100
AcDbLine
 10
-2941.47863710019
 20
-477.8296273788818
 30
0.0
 11
-3037.477996231054
 21
-381.8302682480204
 31
0.0
  0
LINE
  5
1D3
330
1F
100
AcDbEntity
  8
0-C_ハッチ
  6
Continuous
 62
   120
370
     5
100
AcDbLine
 10
-2979.293182321216
 20
-499.4120517775598
 30
0.0
 11
-3096.874965850743
 21
-381.8302682480353
 31
0.0
  0
LINE
  5
1D4
330
1F
100
AcDbEntity
  8
0-C_ハッチ
  6
Continuous
 62
   120
370
     5
100
AcDbLine
 10
-2979.293182321222
 20
-558.8090213972002
 30
0.0
 11
-3126.292506046925
 21
-411.8096976714993
 31
0.0
  0
LINE
  5
1D5
330
1F
100
AcDbEntity
  8
0-C_ハッチ
  6
Continuous
 62
   120
370
     5
100
AcDbLine
 10
-2999.669088195575
 20
-597.8300851425469
 30
0.0
 11
-3126.292506046931
 21
-471.2066672911897
 31
0.0
  0
LINE
  5
1D6
330
1F
100
AcDbEntity
  8
0-C_ハッチ
  6
Continuous
 62
   120
370
     5
100
AcDbLine
 10
-3059.066057815202
 20
-597.8300851425673
 30
0.0
 11
-3126.292506046931
 21
-530.6036369108394
 31
0.0
  0
LINE
  5
1D7
330
1F
100
AcDbEntity
  8
0-C_ハッチ
  6
Continuous
 62
   120
370
     5
100
AcDbLine
 10
-3118.463027434918
 20
-597.8300851425549
 30
0.0
 11
-3126.292506046917
 21
-590.0006065305537
 31
0.0
  0
LINE
  5
1D8
330
1F
100
AcDbEntity
  8
0-4_枠
  6
Continuous
 62
    92
370
    13
100
AcDbLine
 10
-3126.292506046917
 20
-381.8302682480238
 30
0.0
 11
-2706.292506046917
 21
-381.8302682480238
 31
0.0
  0
LINE
  5
1D9
330
1F
100
AcDbEntity
  8
0-4_枠
  6
Continuous
 62
    92
370
    13
100
AcDbLine
 10
-2811.292929478318
 20
-477.8296273788844
 30
0.0
 11
-2811.292929478318
 21
-597.8300851425563
 31
0.0
  0
LINE
  5
1DA
330
1F
100
AcDbEntity
  8
0-4_枠
  6
Continuous
 62
    92
370
    13
100
AcDbLine
 10
-2979.293182321221
 20
-477.8296273788844
 30
0.0
 11
-2811.292929478318
 21
-477.8296273788844
 31
0.0
  0
LINE
  5
1DB
330
1F
100
AcDbEntity
  8
0-4_枠
  6
Continuous
 62
    92
370
    13
100
AcDbLine
 10
-2979.293182321221
 20
-597.8300851425563
 30
0.0
 11
-2979.293182321221
 21
-477.8296273788844
 31
0.0
  0
LINE
  5
1DC
330
1F
100
AcDbEntity
  8
0-4_枠
  6
Continuous
 62
    92
370
    13
100
AcDbLine
 10
-2664.292506046922
 20
-597.8300851425563
 30
0.0
 11
-2811.292929478318
 21
-597.8300851425563
 31
0.0
  0
LINE
  5
1DD
330
1F
100
AcDbEntity
  8
0-4_枠
  6
Continuous
 62
    92
370
    13
100
AcDbLine
 10
-3126.292506046917
 20
-597.8300851425563
 30
0.0
 11
-2979.293182321221
 21
-597.8300851425563
 31
0.0
  0
LINE
  5
1DE
330
1F
100
AcDbEntity
  8
0-B_寸法
  6
Continuous
 62
   120
370
     5
100
AcDbLine
 10
-2664.292506046922
 20
-893.3126075521603
 30
0.0
 11
-2664.292506046922
 21
-739.6016601302656
 31
0.0
  0
LWPOLYLINE
  5
1DF
330
1F
100
AcDbEntity
  8
0-B_寸法
  6
Continuous
 62
     7
370
     9
100
AcDbPolyline
 90
        4
 70
     1
 43
3.0
 10
-2662.792506046922
 20
-893.3126075521603
 42
0.4142135623731
 10
-2664.292506046922
 20
-891.8126075521603
 42
0.4142135623731
 10
-2665.792506046922
 20
-893.3126075521603
 42
0.4142135623731
 10
-2664.292506046922
 20
-894.8126075521603
 42
0.4142135623731
  0
LINE
  5
1E0
330
1F
100
AcDbEntity
  8
0-B_寸法
  6
Continuous
 62
   120
370
     5
100
AcDbLine
 10
-3126.292506046917
 20
-893.3126075521603
 30
0.0
 11
-3126.292506046917
 21
-739.6016601302656
 31
0.0
  0
LWPOLYLINE
  5
1E1
330
1F
100
AcDbEntity
  8
0-B_寸法
  6
Continuous
 62
     7
370
     9
100
AcDbPolyline
 90
        4
 70
     1
 43
3.0
 10
-3124.792506046917
 20
-893.3126075521603
 42
0.4142135623731
 10
-3126.292506046917
 20
-891.8126075521603
 42
0.4142135623731
 10
-3127.792506046917
 20
-893.3126075521603
 42
0.4142135623731
 10
-3126.292506046917
 20
-894.8126075521603
 42
0.4142135623731
  0
LINE
  5
1E2
330
1F
100
AcDbEntity
  8
0-B_寸法
  6
Continuous
 62
   120
370
     5
100
AcDbLine
 10
-2664.292506046922
 20
-893.3126075521603
 30
0.0
 11
-3126.292506046917
 21
-893.3126075521603
 31
0.0
  0
LINE
  5
1E3
330
1F
100
AcDbEntity
  8
0-7_金物
  6
Continuous
 62
     7
370
     9
100
AcDbLine
 10
-2830.296496220258
 20
-603.8301618489028
 30
0.0
 11
-2793.292609043743
 21
-603.8301618489028
 31
0.0
  0
LINE
  5
1E4
330
1F
100
AcDbEntity
  8
0-7_金物
  6
Continuous
 62
     7
370
     9
100
AcDbLine
 10
-2865.290915318159
 20
-597.8300702961691
 30
0.0
 11
-2925.2926033217
 21
-597.8300702961691
 31
0.0
  0
LINE
  5
1E5
330
1F
100
AcDbEntity
  8
0-7_金物
  6
Continuous
 62
     7
370
     9
100
AcDbLine
 10
-2829.472521610883
 20
-584.617820540309
 30
0.0
 11
-2865.290915318159
 21
-584.617820540309
 31
0.0
  0
LINE
  5
1E6
330
1F
100
AcDbEntity
  8
0-7_金物
  6
Continuous
 62
     7
370
     9
100
AcDbLine
 10
-2925.2926033217
 20
-584.617820540309
 30
0.0
 11
-2961.471769161848
 21
-584.617820540309
 31
0.0
  0
LINE
  5
1E7
330
1F
100
AcDbEntity
  8
0-7_金物
  6
Continuous
 62
     7
370
     9
100
AcDbLine
 10
-2907.292843647625
 20
-642.8301618489014
 30
0.0
 11
-2907.292843647625
 21
-597.8300702961691
 31
0.0
  0
LINE
  5
1E8
330
1F
100
AcDbEntity
  8
0-7_金物
  6
Continuous
 62
     7
370
     9
100
AcDbLine
 10
-2883.292162724164
 20
-597.8300702961691
 30
0.0
 11
-2883.292162724164
 21
-642.8301618489014
 31
0.0
  0
LINE
  5
1E9
330
1F
100
AcDbEntity
  8
0-7_金物
  6
Continuous
 62
     7
370
     9
100
AcDbLine
 10
-2883.292162724164
 20
-642.8301618489014
 30
0.0
 11
-2907.292843647625
 21
-642.8301618489014
 31
0.0
  0
LINE
  5
1EA
330
1F
100
AcDbEntity
  8
0-7_金物
  6
Continuous
 62
     7
370
     9
100
AcDbLine
 10
-2997.290911026625
 20
-597.8300702961691
 30
0.0
 11
-2997.290911026625
 21
-603.8301618489028
 31
0.0
  0
LINE
  5
1EB
330
1F
100
AcDbEntity
  8
0-7_金物
  6
Continuous
 62
     7
370
     9
100
AcDbLine
 10
-2959.506109066633
 20
-603.8301618489028
 30
0.0
 11
-2997.290911026625
 21
-603.8301618489028
 31
0.0
  0
LINE
  5
1EC
330
1F
100
AcDbEntity
  8
0-7_金物
  6
Continuous
 62
     7
370
     9
100
AcDbLine
 10
-2793.292609043743
 20
-597.8300702961691
 30
0.0
 11
-2793.292609043743
 21
-603.8301618489028
 31
0.0
  0
LINE
  5
1ED
330
1F
100
AcDbEntity
  8
0-7_金物
  6
Continuous
 62
     7
370
     9
100
AcDbLine
 10
-2959.506109066633
 20
-597.8300702961691
 30
0.0
 11
-2967.293039627702
 21
-597.8300702961691
 31
0.0
  0
LINE
  5
1EE
330
1F
100
AcDbEntity
  8
0-7_金物
  6
Continuous
 62
     7
370
     9
100
AcDbLine
 10
-2959.506109066633
 20
-603.8301618489028
 30
0.0
 11
-2959.506109066633
 21
-597.8300702961691
 31
0.0
  0
LINE
  5
1EF
330
1F
100
AcDbEntity
  8
0-7_金物
  6
Continuous
 62
     7
370
     9
100
AcDbLine
 10
-2979.292633004815
 20
-597.8300702961691
 30
0.0
 11
-2997.290911026625
 21
-597.8300702961691
 31
0.0
  0
LINE
  5
1F0
330
1F
100
AcDbEntity
  8
0-7_金物
  6
Continuous
 62
     7
370
     9
100
AcDbLine
 10
-2823.29271204057
 20
-597.8300702961691
 30
0.0
 11
-2830.296496220258
 21
-597.8300702961691
 31
0.0
  0
LINE
  5
1F1
330
1F
100
AcDbEntity
  8
0-7_金物
  6
Continuous
 62
     7
370
     9
100
AcDbLine
 10
-2830.296496220258
 20
-603.8301618489028
 30
0.0
 11
-2830.296496220258
 21
-597.8300702961691
 31
0.0
  0
LINE
  5
1F2
330
1F
100
AcDbEntity
  8
0-7_金物
  6
Continuous
 62
     7
370
     9
100
AcDbLine
 10
-2811.292380161908
 20
-597.8300702961691
 30
0.0
 11
-2793.292609043743
 21
-597.8300702961691
 31
0.0
  0
LINE
  5
1F3
330
1F
100
AcDbEntity
  8
0-7_金物
  6
Continuous
 62
     7
370
     9
100
AcDbLine
 10
-2865.290915318159
 20
-518.6178205403077
 30
0.0
 11
-2829.472521610883
 21
-518.6178205403077
 31
0.0
  0
LINE
  5
1F4
330
1F
100
AcDbEntity
  8
0-7_金物
  6
Continuous
 62
     7
370
     9
100
AcDbLine
 10
-2829.472521610883
 20
-518.6178205403077
 30
0.0
 11
-2829.472521610883
 21
-584.617820540309
 31
0.0
  0
LINE
  5
1F5
330
1F
100
AcDbEntity
  8
0-7_金物
  6
Continuous
 62
     7
370
     9
100
AcDbLine
 10
-2865.290915318159
 20
-501.8296125324958
 30
0.0
 11
-2865.290915318159
 21
-597.8300702961691
 31
0.0
  0
LINE
  5
1F6
330
1F
100
AcDbEntity
  8
0-7_金物
  6
Continuous
 62
     7
370
     9
100
AcDbLine
 10
-2925.2926033217
 20
-501.8296125324958
 30
0.0
 11
-2865.290915318159
 21
-501.8296125324958
 31
0.0
  0
LINE
  5
1F7
330
1F
100
AcDbEntity
  8
0-7_金物
  6
Continuous
 62
     7
370
     9
100
AcDbLine
 10
-2925.2926033217
 20
-597.8300702961691
 30
0.0
 11
-2925.2926033217
 21
-501.8296125324958
 31
0.0
  0
LINE
  5
1F8
330
1F
100
AcDbEntity
  8
0-7_金物
  6
Continuous
 62
     7
370
     9
100
AcDbLine
 10
-2961.471769161848
 20
-518.6178205403077
 30
0.0
 11
-2925.2926033217
 21
-518.6178205403077
 31
0.0
  0
LINE
  5
1F9
330
1F
100
AcDbEntity
  8
0-7_金物
  6
Continuous
 62
     7
370
     9
100
AcDbLine
 10
-2961.471769161848
 20
-584.617820540309
 30
0.0
 11
-2961.471769161848
 21
-518.6178205403077
 31
0.0
  0
LINE
  5
1FA
330
1F
100
AcDbEntity
  8
0-7_金物
  6
Continuous
 62
     7
370
     9
100
AcDbLine
 10
-2967.293039627702
 20
-597.8300702961691
 30
0.0
 11
-2967.293039627702
 21
-489.8299787434327
 31
0.0
  0
LINE
  5
1FB
330
1F
100
AcDbEntity
  8
0-7_金物
  6
Continuous
 62
     7
370
     9
100
AcDbLine
 10
-2967.293039627702
 20
-489.8299787434327
 30
0.0
 11
-2823.29271204057
 21
-489.8299787434327
 31
0.0
  0
LINE
  5
1FC
330
1F
100
AcDbEntity
  8
0-7_金物
  6
Continuous
 62
     7
370
     9
100
AcDbLine
 10
-2823.29271204057
 20
-489.8299787434327
 30
0.0
 11
-2823.29271204057
 21
-597.8300702961691
 31
0.0
  0
LINE
  5
1FD
330
1F
100
AcDbEntity
  8
0-0_補助線
  6
JWW_HOJO
 62
   120
370
     5
100
AcDbLine
 10
-1647.292383906338
 20
-3381.830654048024
 30
0.0
 11
-1647.293124380471
 21
-81.83026804190177
 31
0.0
  0
LINE
  5
1FE
330
1F
100
AcDbEntity
  8
0-0_補助線
  6
JWW_HOJO
 62
   120
370
     5
100
AcDbLine
 10
-2067.292383906342
 20
-3381.830654021633
 30
0.0
 11
-2067.293124380476
 21
-81.83026804190177
 31
0.0
  0
LINE
  5
1FF
330
1F
100
AcDbEntity
  8
0-0_補助線
  6
JWW_HOJO
 62
   120
370
     5
100
AcDbLine
 10
-1857.292383906338
 20
-3381.830654021633
 30
0.0
 11
-1857.293124380471
 21
-81.83026804190177
 31
0.0
  0
LINE
  5
200
330
1F
100
AcDbEntity
  8
0-0_補助線
  6
JWW_HOJO
 62
   120
370
     5
100
AcDbLine
 10
-3723.292507372022
 20
-3381.830654021633
 30
0.0
 11
-3723.293247846164
 21
-81.83026804190177
 31
0.0
  0
LINE
  5
201
330
1F
100
AcDbEntity
  8
0-B_寸法
  6
Continuous
 62
   120
370
     5
100
AcDbLine
 10
-3873.293305646332
 20
-351.8302682480243
 30
0.0
 11
-3873.293305646332
 21
-3381.830654048024
 31
0.0
  0
LWPOLYLINE
  5
202
330
1F
100
AcDbEntity
  8
0-B_寸法
  6
Continuous
 62
     7
370
     9
100
AcDbPolyline
 90
        4
 70
     1
 43
3.0
 10
-3871.793305646332
 20
-351.8302682480243
 42
0.4142135623731
 10
-3873.293305646332
 20
-350.3302682480243
 42
0.4142135623731
 10
-3874.793305646333
 20
-351.8302682480243
 42
0.4142135623731
 10
-3873.293305646332
 20
-353.3302682480243
 42
0.4142135623731
  0
LINE
  5
203
330
1F
100
AcDbEntity
  8
0-B_寸法
  6
Continuous
 62
   120
370
     5
100
AcDbLine
 10
-3873.293305646332
 20
-351.8302682480243
 30
0.0
 11
-3186.293100124748
 21
-351.8302682480243
 31
0.0
  0
LINE
  5
204
330
1F
100
AcDbEntity
  8
0-0_補助線
  6
JWW_HOJO
 62
   120
370
     5
100
AcDbLine
 10
-3873.29250737203
 20
-3381.830654021633
 30
0.0
 11
-1647.292383906338
 21
-3381.830654021633
 31
0.0
  0
LWPOLYLINE
  5
205
330
1F
100
AcDbEntity
  8
0-B_寸法
  6
Continuous
 62
     7
370
     9
100
AcDbPolyline
 90
        4
 70
     1
 43
3.0
 10
-3871.793305646332
 20
-3381.830654048024
 42
0.4142135623731
 10
-3873.293305646332
 20
-3380.330654048024
 42
0.4142135623731
 10
-3874.793305646333
 20
-3381.830654048024
 42
0.4142135623731
 10
-3873.293305646332
 20
-3383.330654048024
 42
0.4142135623731
  0
LINE
  5
206
330
1F
100
AcDbEntity
  8
0-B_寸法
  6
Continuous
 62
   120
370
     5
100
AcDbLine
 10
-3873.293305646332
 20
-3381.830654048024
 30
0.0
 11
-3513.293305646332
 21
-3381.830654048024
 31
0.0
  0
LINE
  5
207
330
1F
100
AcDbEntity
  8
0-B_寸法
  6
Continuous
 62
   120
370
     5
100
AcDbLine
 10
-2067.293182180679
 20
-3309.830676317608
 30
0.0
 11
-2067.293182180679
 21
-597.8296446996728
 31
0.0
  0
LWPOLYLINE
  5
208
330
1F
100
AcDbEntity
  8
0-B_寸法
  6
Continuous
 62
     7
370
     9
100
AcDbPolyline
 90
        4
 70
     1
 43
3.0
 10
-2065.793182180679
 20
-3309.830676317608
 42
0.4142135623731
 10
-2067.293182180679
 20
-3308.330676317608
 42
0.4142135623731
 10
-2068.793182180679
 20
-3309.830676317608
 42
0.4142135623731
 10
-2067.293182180679
 20
-3311.330676317608
 42
0.4142135623731
  0
LINE
  5
209
330
1F
100
AcDbEntity
  8
0-B_寸法
  6
Continuous
 62
   120
370
     5
100
AcDbLine
 10
-1647.293182180682
 20
-3381.830654048024
 30
0.0
 11
-1647.293182180682
 21
-351.8302682480243
 31
0.0
  0
LWPOLYLINE
  5
20A
330
1F
100
AcDbEntity
  8
0-B_寸法
  6
Continuous
 62
     7
370
     9
100
AcDbPolyline
 90
        4
 70
     1
 43
3.0
 10
-1645.793182180682
 20
-351.8302682480243
 42
0.4142135623731
 10
-1647.293182180682
 20
-350.3302682480243
 42
0.4142135623731
 10
-1648.793182180682
 20
-351.8302682480243
 42
0.4142135623731
 10
-1647.293182180682
 20
-353.3302682480243
 42
0.4142135623731
  0
LINE
  5
20B
330
1F
100
AcDbEntity
  8
0-B_寸法
  6
Continuous
 62
   120
370
     5
100
AcDbLine
 10
-1647.293182180682
 20
-351.8302682480243
 30
0.0
 11
-2277.293182180679
 21
-351.8302682480243
 31
0.0
  0
LINE
  5
20C
330
1F
100
AcDbEntity
  8
0-B_寸法
  6
Continuous
 62
   120
370
     5
100
AcDbLine
 10
-1857.293182180679
 20
-3309.830676317608
 30
0.0
 11
-1857.293182180679
 21
-381.8302682480238
 31
0.0
  0
LWPOLYLINE
  5
20D
330
1F
100
AcDbEntity
  8
0-B_寸法
  6
Continuous
 62
     7
370
     9
100
AcDbPolyline
 90
        4
 70
     1
 43
3.0
 10
-1645.792383906338
 20
-3381.830654048024
 42
0.4142135623731
 10
-1647.292383906338
 20
-3380.330654048024
 42
0.4142135623731
 10
-1648.792383906338
 20
-3381.830654048024
 42
0.4142135623731
 10
-1647.292383906338
 20
-3383.330654048024
 42
0.4142135623731
  0
LINE
  5
20E
330
1F
100
AcDbEntity
  8
0-B_寸法
  6
Continuous
 62
   120
370
     5
100
AcDbLine
 10
-2277.293305646313
 20
-3381.830654048024
 30
0.0
 11
-1647.292383906338
 21
-3381.830654048024
 31
0.0
  0
LINE
  5
20F
330
1F
100
AcDbEntity
  8
0-B_寸法
  6
Continuous
 62
   120
370
     5
100
AcDbLine
 10
-2277.293305646313
 20
-3240.831047477341
 30
0.0
 11
-2067.293182180679
 21
-3240.831047477341
 31
0.0
  0
LWPOLYLINE
  5
210
330
1F
100
AcDbEntity
  8
0-B_寸法
  6
Continuous
 62
     7
370
     9
100
AcDbPolyline
 90
        4
 70
     1
 43
3.0
 10
-2065.793182180679
 20
-3240.831047477341
 42
0.4142135623731
 10
-2067.293182180679
 20
-3239.331047477341
 42
0.4142135623731
 10
-2068.793182180679
 20
-3240.831047477341
 42
0.4142135623731
 10
-2067.293182180679
 20
-3242.331047477341
 42
0.4142135623731
  0
LWPOLYLINE
  5
211
330
1F
100
AcDbEntity
  8
0-B_寸法
  6
Continuous
 62
     7
370
     9
100
AcDbPolyline
 90
        4
 70
     1
 43
3.0
 10
-1855.793182180679
 20
-3309.830676317608
 42
0.4142135623731
 10
-1857.293182180679
 20
-3308.330676317608
 42
0.4142135623731
 10
-1858.793182180679
 20
-3309.830676317608
 42
0.4142135623731
 10
-1857.293182180679
 20
-3311.330676317608
 42
0.4142135623731
  0
LINE
  5
212
330
1F
100
AcDbEntity
  8
0-B_寸法
  6
Continuous
 62
   120
370
     5
100
AcDbLine
 10
-2277.293305646313
 20
-3309.830676317608
 30
0.0
 11
-1647.293182180682
 21
-3309.830676317608
 31
0.0
  0
LWPOLYLINE
  5
213
330
1F
100
AcDbEntity
  8
0-B_寸法
  6
Continuous
 62
     7
370
     9
100
AcDbPolyline
 90
        4
 70
     1
 43
3.0
 10
-1645.793182180682
 20
-3309.830676317608
 42
0.4142135623731
 10
-1647.293182180682
 20
-3308.330676317608
 42
0.4142135623731
 10
-1648.793182180682
 20
-3309.830676317608
 42
0.4142135623731
 10
-1647.293182180682
 20
-3311.330676317608
 42
0.4142135623731
  0
LINE
  5
214
330
1F
100
AcDbEntity
  8
0-B_寸法
  6
Continuous
 62
   120
370
     5
100
AcDbLine
 10
-2277.293305646313
 20
-642.8297931635666
 30
0.0
 11
-2067.293182180679
 21
-642.8297931635666
 31
0.0
  0
LWPOLYLINE
  5
215
330
1F
100
AcDbEntity
  8
0-B_寸法
  6
Continuous
 62
     7
370
     9
100
AcDbPolyline
 90
        4
 70
     1
 43
3.0
 10
-2065.793182180679
 20
-642.8297931635666
 42
0.4142135623731
 10
-2067.293182180679
 20
-641.3297931635666
 42
0.4142135623731
 10
-2068.793182180679
 20
-642.8297931635666
 42
0.4142135623731
 10
-2067.293182180679
 20
-644.3297931635666
 42
0.4142135623731
  0
LWPOLYLINE
  5
216
330
1F
100
AcDbEntity
  8
0-B_寸法
  6
Continuous
 62
     7
370
     9
100
AcDbPolyline
 90
        4
 70
     1
 43
3.0
 10
-2065.793182180679
 20
-597.8296446996728
 42
0.4142135623731
 10
-2067.293182180679
 20
-596.3296446996728
 42
0.4142135623731
 10
-2068.793182180679
 20
-597.8296446996728
 42
0.4142135623731
 10
-2067.293182180679
 20
-599.3296446996728
 42
0.4142135623731
  0
LWPOLYLINE
  5
217
330
1F
100
AcDbEntity
  8
0-B_寸法
  6
Continuous
 62
     7
370
     9
100
AcDbPolyline
 90
        4
 70
     1
 43
3.0
 10
-1855.793182180679
 20
-381.8302682480238
 42
0.4142135623731
 10
-1857.293182180679
 20
-380.3302682480238
 42
0.4142135623731
 10
-1858.793182180679
 20
-381.8302682480238
 42
0.4142135623731
 10
-1857.293182180679
 20
-383.3302682480239
 42
0.4142135623731
  0
LWPOLYLINE
  5
218
330
1F
100
AcDbEntity
  8
0-B_寸法
  6
Continuous
 62
     7
370
     9
100
AcDbPolyline
 90
        4
 70
     1
 43
3.0
 10
-1855.793182180679
 20
-597.8292735399397
 42
0.4142135623731
 10
-1857.293182180679
 20
-596.3292735399397
 42
0.4142135623731
 10
-1858.793182180679
 20
-597.8292735399397
 42
0.4142135623731
 10
-1857.293182180679
 20
-599.3292735399397
 42
0.4142135623731
  0
LINE
  5
219
330
1F
100
AcDbEntity
  8
0-B_寸法
  6
Continuous
 62
   120
370
     5
100
AcDbLine
 10
-2067.293182180679
 20
-597.8292735399397
 30
0.0
 11
-1857.293182180679
 21
-597.8292735399397
 31
0.0
  0
LWPOLYLINE
  5
21A
330
1F
100
AcDbEntity
  8
0-B_寸法
  6
Continuous
 62
     7
370
     9
100
AcDbPolyline
 90
        4
 70
     1
 43
3.0
 10
-1645.793182180682
 20
-381.8302682480238
 42
0.4142135623731
 10
-1647.293182180682
 20
-380.3302682480238
 42
0.4142135623731
 10
-1648.793182180682
 20
-381.8302682480238
 42
0.4142135623731
 10
-1647.293182180682
 20
-383.3302682480239
 42
0.4142135623731
  0
LINE
  5
21B
330
1F
100
AcDbEntity
  8
0-B_寸法
  6
Continuous
 62
   120
370
     5
100
AcDbLine
 10
-2277.292519884972
 20
-429.8302682480245
 30
0.0
 11
-2289.824810006978
 21
-429.8302682480245
 31
0.0
  0
LINE
  5
21C
330
1F
100
AcDbEntity
  8
0-B_寸法
  6
Continuous
 62
   120
370
     5
100
AcDbLine
 10
-2388.786820476805
 20
-429.8302682480245
 30
0.0
 11
-2409.292565661342
 21
-429.8302682480245
 31
0.0
  0
LINE
  5
21D
330
1F
100
AcDbEntity
  8
0-B_寸法
  6
Continuous
 62
   120
370
     5
100
AcDbLine
 10
-2277.292519884972
 20
-483.8302682480231
 30
0.0
 11
-2409.292565661342
 21
-483.8302682480231
 31
0.0
  0
LINE
  5
21E
330
1F
100
AcDbEntity
  8
0-B_寸法
  6
Continuous
 62
   120
370
     5
100
AcDbLine
 10
-2277.292519884972
 20
-537.8302682480239
 30
0.0
 11
-2289.824810006978
 21
-537.8302682480239
 31
0.0
  0
LINE
  5
21F
330
1F
100
AcDbEntity
  8
0-B_寸法
  6
Continuous
 62
   120
370
     5
100
AcDbLine
 10
-2388.786820476805
 20
-537.8302682480239
 30
0.0
 11
-2409.292565661342
 21
-537.8302682480239
 31
0.0
  0
LWPOLYLINE
  5
220
330
1F
100
AcDbEntity
  8
0-B_寸法
  6
Continuous
 62
     7
370
     9
100
AcDbPolyline
 90
        4
 70
     1
 43
3.0
 10
-2275.792519884973
 20
-429.8302682480245
 42
0.4142135623731
 10
-2277.292519884972
 20
-428.3302682480245
 42
0.4142135623731
 10
-2278.792519884972
 20
-429.8302682480245
 42
0.4142135623731
 10
-2277.292519884972
 20
-431.3302682480245
 42
0.4142135623731
  0
LWPOLYLINE
  5
221
330
1F
100
AcDbEntity
  8
0-B_寸法
  6
Continuous
 62
     7
370
     9
100
AcDbPolyline
 90
        4
 70
     1
 43
3.0
 10
-2275.792519884973
 20
-597.8300851425563
 42
0.4142135623731
 10
-2277.292519884972
 20
-596.3300851425563
 42
0.4142135623731
 10
-2278.792519884972
 20
-597.8300851425563
 42
0.4142135623731
 10
-2277.292519884972
 20
-599.3300851425563
 42
0.4142135623731
  0
LWPOLYLINE
  5
222
330
1F
100
AcDbEntity
  8
0-B_寸法
  6
Continuous
 62
     7
370
     9
100
AcDbPolyline
 90
        4
 70
     1
 43
3.0
 10
-2275.792519884973
 20
-537.8302682480239
 42
0.4142135623731
 10
-2277.292519884972
 20
-536.3302682480239
 42
0.4142135623731
 10
-2278.792519884972
 20
-537.8302682480239
 42
0.4142135623731
 10
-2277.292519884972
 20
-539.3302682480239
 42
0.4142135623731
  0
LWPOLYLINE
  5
223
330
1F
100
AcDbEntity
  8
0-B_寸法
  6
Continuous
 62
     7
370
     9
100
AcDbPolyline
 90
        4
 70
     1
 43
3.0
 10
-2275.792519884973
 20
-483.8302682480231
 42
0.4142135623731
 10
-2277.292519884972
 20
-482.3302682480231
 42
0.4142135623731
 10
-2278.792519884972
 20
-483.8302682480231
 42
0.4142135623731
 10
-2277.292519884972
 20
-485.3302682480232
 42
0.4142135623731
  0
LWPOLYLINE
  5
224
330
1F
100
AcDbEntity
  8
0-B_寸法
  6
Continuous
 62
     7
370
     9
100
AcDbPolyline
 90
        4
 70
     1
 43
3.0
 10
-2275.792519884973
 20
-381.8302682480238
 42
0.4142135623731
 10
-2277.292519884972
 20
-380.3302682480238
 42
0.4142135623731
 10
-2278.792519884972
 20
-381.8302682480238
 42
0.4142135623731
 10
-2277.292519884972
 20
-383.3302682480239
 42
0.4142135623731
  0
LINE
  5
225
330
1F
100
AcDbEntity
  8
0-B_寸法
  6
Continuous
 62
   120
370
     5
100
AcDbLine
 10
-2277.292519884972
 20
-381.8302682480238
 30
0.0
 11
-2277.292519884972
 21
-597.8300851425563
 31
0.0
  0
MTEXT
  5
226
330
1F
100
AcDbEntity
  8
0-B_寸法
  6
Continuous
 62
     7
370
   211
100
AcDbMText
 10
-1662.293182180678
 20
-360.546968654093
 30
0.0
 40
91.43999999999805
 41
59.99999999999872
 46
0.0
 71
     7
 72
     1
  1
{\fＭＳ ゴシック|b0|i0|c128|p49;5}
 11
6.123031769111886E-17
 21
1.0
 31
0.0
 73
     1
 44
1.0
  0
MTEXT
  5
227
330
1F
100
AcDbEntity
  8
0-B_寸法
  6
Continuous
 62
     7
370
   211
100
AcDbMText
 10
-2277.292519884972
 20
-388.5568738906703
 30
0.0
 40
91.43999999999805
 41
59.99999999999872
 46
0.0
 71
     7
 72
     1
  1
{\fＭＳ ゴシック|b0|i0|c128|p49;8}
 11
6.123031769111886E-17
 21
1.0
 31
0.0
 73
     1
 44
1.0
  0
MTEXT
  5
228
330
1F
100
AcDbEntity
  8
0-B_寸法
  6
Continuous
 62
     7
370
   211
100
AcDbMText
 10
-2277.292519884972
 20
-474.1102682480243
 30
0.0
 40
91.44000000000129
 41
60.00000000000085
 46
0.0
 71
     7
 72
     1
  1
{\fＭＳ ゴシック|b0|i0|c128|p49;9}
 11
6.123031769111886E-17
 21
1.0
 31
0.0
 73
     1
 44
1.0
  0
MTEXT
  5
229
330
1F
100
AcDbEntity
  8
0-B_寸法
  6
Continuous
 62
     7
370
     0
100
AcDbMText
 10
-1872.292489349178
 20
-560.3597708939815
 30
0.0
 40
91.43999999999966
 41
119.9999999999996
 46
0.0
 71
     7
 72
     1
  1
{\fＭＳ ゴシック|b0|i0|c128|p49;36}
 11
6.123031769111886E-17
 21
1.0
 31
0.0
 73
     1
 44
1.0
  0
MTEXT
  5
22A
330
1F
100
AcDbEntity
  8
0-B_寸法
  6
Continuous
 62
     7
370
   211
100
AcDbMText
 10
-2277.292519884972
 20
-582.1102682480248
 30
0.0
 40
91.43999999999805
 41
59.99999999999872
 46
0.0
 71
     7
 72
     1
  1
{\fＭＳ ゴシック|b0|i0|c128|p49;9}
 11
6.123031769111886E-17
 21
1.0
 31
0.0
 73
     1
 44
1.0
  0
MTEXT
  5
22B
330
1F
100
AcDbEntity
  8
0-B_寸法
  6
Continuous
 62
     7
370
   211
100
AcDbMText
 10
-2277.292519884972
 20
-749.7731898954695
 30
0.0
 40
91.43999999999966
 41
119.9999999999996
 46
0.0
 71
     7
 72
     1
  1
{\fＭＳ ゴシック|b0|i0|c128|p49;10}
 11
6.123031769111886E-17
 21
1.0
 31
0.0
 73
     1
 44
1.0
  0
MTEXT
  5
22C
330
1F
100
AcDbEntity
  8
0-B_寸法
  6
Continuous
 62
     7
370
     0
100
AcDbMText
 10
-2081.720964760982
 20
-854.3905626640749
 30
0.0
 40
91.44000000000021
 41
180.0000000000004
 46
0.0
 71
     7
 72
     1
  1
{\fＭＳ ゴシック|b0|i0|c128|p49;7.5}
 11
6.123031769111886E-17
 21
1.0
 31
0.0
 73
     1
 44
1.0
  0
MTEXT
  5
22D
330
1F
100
AcDbEntity
  8
0-B_寸法
  6
Continuous
 62
     7
370
     0
100
AcDbMText
 10
-2955.293055363322
 20
-892.5926075521608
 30
0.0
 40
91.43999999999805
 41
119.9999999999974
 46
0.0
 71
     7
 72
     1
  1
{\fＭＳ ゴシック|b0|i0|c128|p49;77}
 73
     1
 44
1.0
  0
MTEXT
  5
22E
330
1F
100
AcDbEntity
  8
0-B_寸法
  6
Continuous
 62
     7
370
     0
100
AcDbMText
 10
-2081.759677428089
 20
-3240.455817066662
 30
0.0
 40
91.44000000000129
 41
240.0000000000034
 46
0.0
 71
     7
 72
     1
  1
{\fＭＳ ゴシック|b0|i0|c128|p49;11.5}
 11
6.123031769111886E-17
 21
1.0
 31
0.0
 73
     1
 44
1.0
  0
MTEXT
  5
22F
330
1F
100
AcDbEntity
  8
0-B_寸法
  6
Continuous
 62
     7
370
   211
100
AcDbMText
 10
-1656.841281969684
 20
-3530.257137882883
 30
0.0
 40
91.44000000000129
 41
120.0000000000017
 46
0.0
 71
     7
 72
     1
  1
{\fＭＳ ゴシック|b0|i0|c128|p49;12}
 11
6.123031769111886E-17
 21
1.0
 31
0.0
 73
     1
 44
1.0
  0
MTEXT
  5
230
330
1F
100
AcDbEntity
  8
0-B_寸法
  6
Continuous
 62
     7
370
     0
100
AcDbMText
 10
-2082.292489349177
 20
-2250.110426403386
 30
0.0
 40
91.44000000000011
 41
660.0000000000009
 46
0.0
 71
     7
 72
     1
  1
{\fＭＳ ゴシック|b0|i0|c128|p49;ＤＨ＝2,284}
 11
6.123031769111886E-17
 21
1.0
 31
0.0
 73
     1
 44
1.0
  0
MTEXT
  5
231
330
1F
100
AcDbEntity
  8
0-B_寸法
  6
Continuous
 62
     7
370
     0
100
AcDbMText
 10
-1662.293973988109
 20
-2250.110426403388
 30
0.0
 40
91.44000000000014
 41
660.0000000000009
 46
0.0
 71
     7
 72
     1
  1
{\fＭＳ ゴシック|b0|i0|c128|p49;枠外＝2,339}
 11
6.123031769111886E-17
 21
1.0
 31
0.0
 73
     1
 44
1.0
  0
MTEXT
  5
232
330
1F
100
AcDbEntity
  8
0-B_寸法
  6
Continuous
 62
     7
370
   211
100
AcDbMText
 10
-3888.293305646332
 20
-2310.110426403388
 30
0.0
 40
91.4400000000003
 41
780.0000000000025
 46
0.0
 71
     7
 72
     1
  1
{\fＭＳ ゴシック|b0|i0|c128|p49;ＲＯＨ＝2,356}
 11
6.123031769111886E-17
 21
1.0
 31
0.0
 73
     1
 44
1.0
  0
MTEXT
  5
233
330
1F
100
AcDbEntity
  8
0-B_寸法
  6
Continuous
 62
     7
370
     0
100
AcDbMText
 10
-1872.292489349178
 20
-2250.110426403388
 30
0.0
 40
91.44000000000014
 41
660.0000000000009
 46
0.0
 71
     7
 72
     1
  1
{\fＭＳ ゴシック|b0|i0|c128|p49;枠内＝2,303}
 11
6.123031769111886E-17
 21
1.0
 31
0.0
 73
     1
 44
1.0
  0
MTEXT
  5
234
330
1F
100
AcDbEntity
  8
0-A_文字
  6
Continuous
 62
     7
370
   211
100
AcDbMText
 10
-3015.292506046922
 20
-1370.204740793288
 30
0.0
 40
91.44000000000129
 41
240.0000000000034
 46
0.0
 71
     7
 72
     1
  1
{\fＭＳ ゴシック|b0|i0|c128|p49;(24)}
 73
     1
 44
1.0
  0
MTEXT
  5
235
330
1F
100
AcDbEntity
  8
0-A_文字
  6
Continuous
 62
     7
370
     0
100
AcDbMText
 10
-2893.664420869761
 20
-3678.738031499191
 30
0.0
 40
68.57999999999998
 41
1350.0
 46
0.0
 71
     7
 72
     1
  1
{\fＭＳ ゴシック|b0|i0|c128|p49;※扉厚（　）内はルーバーの場合}
 73
     1
 44
1.0
  0
LINE
  5
236
330
1F
100
AcDbEntity
  8
0-3_仕上げ
  6
Continuous
 62
   120
370
     5
100
AcDbLine
 10
-2706.292506046931
 20
-351.6843472672025
 30
0.0
 11
-3126.292506046931
 21
-351.6843472672025
 31
0.0
  0
LINE
  5
237
330
1F
100
AcDbEntity
  8
0-3_仕上げ
  6
Continuous
 62
   120
370
     5
100
AcDbLine
 10
-2706.292506046931
 20
-171.6843472672025
 30
0.0
 11
-2706.292506046931
 21
-351.6843472672025
 31
0.0
  0
LINE
  5
238
330
1F
100
AcDbEntity
  8
0-3_仕上げ
  6
Continuous
 62
   120
370
     5
100
AcDbLine
 10
-3126.292506046931
 20
-351.6843472672025
 30
0.0
 11
-3126.292506046931
 21
-171.6843472672025
 31
0.0
  0
LINE
  5
239
330
1F
100
AcDbEntity
  8
0-3_仕上げ
  6
Continuous
 62
   120
370
     5
100
AcDbLine
 10
-3126.292506046931
 20
-171.6843472672025
 30
0.0
 11
-2706.292506046931
 21
-351.6843472672025
 31
0.0
  0
LINE
  5
23A
330
1F
100
AcDbEntity
  8
0-3_仕上げ
  6
Continuous
 62
   120
370
     5
100
AcDbLine
 10
-3126.292506046931
 20
-171.6843472672025
 30
0.0
 11
-2706.292506046931
 21
-171.6843472672025
 31
0.0
  0
LINE
  5
23B
330
1F
100
AcDbEntity
  8
0-3_仕上げ
  6
Continuous
 62
    40
370
    15
100
AcDbLine
 10
-2631.292506046917
 20
-429.8302682480245
 30
0.0
 11
-2706.292506046917
 21
-429.8302682480245
 31
0.0
  0
LINE
  5
23C
330
1F
100
AcDbEntity
  8
0-C_ハッチ
  6
JWW_DASHED1
 62
   120
370
     5
100
AcDbLine
 10
-2631.292506046917
 20
-221.046062235464
 30
0.0
 11
-2706.292506046911
 21
-146.0460622354674
 31
0.0
  0
LINE
  5
23D
330
1F
100
AcDbEntity
  8
0-C_ハッチ
  6
JWW_DASHED1
 62
   120
370
     5
100
AcDbLine
 10
-2631.292506046917
 20
-263.472469106661
 30
0.0
 11
-2706.292506046917
 21
-188.4724691066644
 31
0.0
  0
LINE
  5
23E
330
1F
100
AcDbEntity
  8
0-C_ハッチ
  6
JWW_DASHED1
 62
   120
370
     5
100
AcDbLine
 10
-2631.292506046925
 20
-305.8988759778576
 30
0.0
 11
-2706.292506046917
 21
-230.898875977861
 31
0.0
  0
LINE
  5
23F
330
1F
100
AcDbEntity
  8
0-C_ハッチ
  6
JWW_DASHED1
 62
   120
370
     5
100
AcDbLine
 10
-2631.292506046925
 20
-348.3252828490542
 30
0.0
 11
-2706.292506046922
 21
-273.3252828490577
 31
0.0
  0
LINE
  5
240
330
1F
100
AcDbEntity
  8
0-C_ハッチ
  6
JWW_DASHED1
 62
   120
370
     5
100
AcDbLine
 10
-2631.292506046931
 20
-390.7516897202509
 30
0.0
 11
-2706.292506046925
 21
-315.7516897202551
 31
0.0
  0
LINE
  5
241
330
1F
100
AcDbEntity
  8
0-C_ハッチ
  6
JWW_DASHED1
 62
   120
370
     5
100
AcDbLine
 10
-2634.640334390342
 20
-429.8302682480394
 30
0.0
 11
-2706.292506046925
 21
-358.1780965914538
 31
0.0
  0
LINE
  5
242
330
1F
100
AcDbEntity
  8
0-C_ハッチ
  6
JWW_DASHED1
 62
   120
370
     5
100
AcDbLine
 10
-2677.066741261548
 20
-429.8302682480335
 30
0.0
 11
-2706.292506046931
 21
-400.6045034626504
 31
0.0
  0
LINE
  5
243
330
1F
100
AcDbEntity
  8
0-3_仕上げ
  6
Continuous
 62
    40
370
    15
100
AcDbLine
 10
-2631.292506046917
 20
-429.8302682480245
 30
0.0
 11
-2631.292506046917
 21
-81.83026804190177
 31
0.0
  0
LINE
  5
244
330
1F
100
AcDbEntity
  8
0-3_仕上げ
  6
Continuous
 62
    40
370
    15
100
AcDbLine
 10
-2706.292506046917
 20
-429.8302682480245
 30
0.0
 11
-2706.292506046917
 21
-81.83026804190177
 31
0.0
  0
LINE
  5
245
330
1F
100
AcDbEntity
  8
0-C_ハッチ
  6
JWW_DASHED1
 62
   120
370
     5
100
AcDbLine
 10
-2631.292506046911
 20
-136.1932484931219
 30
0.0
 11
-2685.655486498153
 21
-81.83026804190177
 31
0.0
  0
LINE
  5
246
330
1F
100
AcDbEntity
  8
0-C_ハッチ
  6
JWW_DASHED1
 62
   120
370
     5
100
AcDbLine
 10
-2631.292506046911
 20
-178.6196553642674
 30
0.0
 11
-2706.292506046917
 21
-103.619655364264
 31
0.0
  0
LINE
  5
247
330
1F
100
AcDbEntity
  8
0-4_枠
  6
Continuous
 62
    92
370
    13
100
AcDbLine
 10
-3126.292506046917
 20
-381.8302682480238
 30
0.0
 11
-3126.292506046917
 21
-1846.976324929081
 31
0.0
  0
LINE
  5
248
330
1F
100
AcDbEntity
  8
0-4_枠
  6
Continuous
 62
    92
370
    13
100
AcDbLine
 10
-3126.292506046917
 20
-1965.830426403386
 30
0.0
 11
-3126.292506046917
 21
-3309.831047477342
 31
0.0
  0
LINE
  5
249
330
1F
100
AcDbEntity
  8
0-4_枠
  6
Continuous
 62
    92
370
    13
100
AcDbLine
 10
-2664.292506046922
 20
-3309.831047477342
 30
0.0
 11
-2664.292506046922
 21
-1965.830426403386
 31
0.0
  0
LINE
  5
24A
330
1F
100
AcDbEntity
  8
0-4_枠
  6
Continuous
 62
    92
370
    13
100
AcDbLine
 10
-2664.292506046922
 20
-1845.830426403386
 30
0.0
 11
-2664.292506046922
 21
-537.8302682480239
 31
0.0
  0
LINE
  5
24B
330
1F
100
AcDbEntity
  8
0-A_文字
  6
JWW_HOJO
 62
   120
370
     5
100
AcDbLine
 10
-2893.664420869761
 20
-3668.028031499188
 30
0.0
 11
-484.1406113459513
 21
-3668.028031499188
 31
0.0
  0
MTEXT
  5
24C
330
1F
100
AcDbEntity
  8
1-E
  6
Continuous
 62
     7
370
     9
100
AcDbMText
 10
677.5536790820674
 20
-243.9803453458871
 30
0.0
 40
91.43999999999997
 41
2280.0
 46
0.0
 71
     7
 72
     1
  1
{\fＭＳ ゴシック|b0|i0|c128|p49;■ガイドランナーの取り付け(ＳＡ調整枠)}
 73
     1
 44
1.0
  0
MTEXT
  5
24D
330
1F
100
AcDbEntity
  8
1-E
  6
Continuous
 62
     7
370
     9
100
AcDbMText
 10
1376.634869145888
 20
-465.0132092194674
 30
0.0
 40
91.43999999999994
 41
959.9999999999993
 46
0.0
 71
     7
 72
     1
  1
{\fＭＳ ゴシック|b0|i0|c128|p49;下固定ストッパー}
 73
     1
 44
1.0
  0
MTEXT
  5
24E
330
1F
100
AcDbEntity
  8
1-E
  6
Continuous
 62
     7
370
     9
100
AcDbMText
 10
3145.434869145889
 20
-465.0132092194674
 30
0.0
 40
91.43999999999998
 41
2160.0
 46
0.0
 71
     7
 72
     1
  1
{\fＭＳ ゴシック|b0|i0|c128|p49;ストライク(可動側受け金具)の取り付け}
 73
     1
 44
1.0
  0
MTEXT
  5
24F
330
1F
100
AcDbEntity
  8
1-E
  6
Continuous
 62
     7
370
     0
100
AcDbMText
 10
-1040.599811689402
 20
-468.7748321817234
 30
0.0
 40
91.44000000000008
 41
1440.000000000001
 46
0.0
 71
     7
 72
     1
  1
{\fＭＳ ゴシック|b0|i0|c128|p49;竪枠下端形状図（S＝1/3）}
 73
     1
 44
1.0
  0
MTEXT
  5
250
330
1F
100
AcDbEntity
  8
1-E
  6
Continuous
 62
     7
370
     9
100
AcDbMText
 10
785.6882555678459
 20
-699.6919363741633
 30
0.0
 40
64.00799999999998
 41
1932.0
 46
0.0
 71
     7
 72
     1
  1
{\fＭＳ ゴシック|b0|i0|c128|p49;竪枠の後ろ面から１㎜外側に取り付けてください。}
 73
     1
 44
1.0
  0
LINE
  5
251
330
1F
100
AcDbEntity
  8
1-E
  6
Continuous
 62
   120
370
     5
100
AcDbLine
 10
4000.248424414048
 20
-2742.826220652518
 30
0.0
 11
4000.248424414048
 21
-2979.826220652511
 31
0.0
  0
LINE
  5
252
330
1F
100
AcDbEntity
  8
1-E
  6
Continuous
 62
   120
370
     5
100
AcDbLine
 10
4000.248424414048
 20
-2979.826220652511
 30
0.0
 11
4000.248424414048
 21
-3092.326220652511
 31
0.0
  0
LINE
  5
253
330
1F
100
AcDbEntity
  8
1-E
  6
Continuous
 62
   120
370
     5
100
AcDbLine
 10
4000.248424414048
 20
-2979.826220652511
 30
0.0
 11
4099.078353406693
 21
-2979.826220652511
 31
0.0
  0
LWPOLYLINE
  5
254
330
1F
100
AcDbEntity
  8
1-E
  6
Continuous
 62
     7
370
     9
100
AcDbPolyline
 90
        4
 70
     1
 43
3.0
 10
4001.748424414048
 20
-2979.826220652511
 42
0.4142135623731
 10
4000.248424414048
 20
-2978.326220652511
 42
0.4142135623731
 10
3998.748424414047
 20
-2979.826220652511
 42
0.4142135623731
 10
4000.248424414048
 20
-2981.326220652511
 42
0.4142135623731
  0
LINE
  5
255
330
1F
100
AcDbEntity
  8
1-E
  6
Continuous
 62
   120
370
     5
100
AcDbLine
 10
4000.248424414048
 20
-2630.326220652518
 30
0.0
 11
4000.248424414048
 21
-2742.826220652518
 31
0.0
  0
LINE
  5
256
330
1F
100
AcDbEntity
  8
1-E
  6
Continuous
 62
   120
370
     5
100
AcDbLine
 10
4000.248424414048
 20
-2742.826220652518
 30
0.0
 11
4099.078353406693
 21
-2742.826220652518
 31
0.0
  0
LWPOLYLINE
  5
257
330
1F
100
AcDbEntity
  8
1-E
  6
Continuous
 62
     7
370
     9
100
AcDbPolyline
 90
        4
 70
     1
 43
3.0
 10
4001.748424414048
 20
-2742.826220652518
 42
0.4142135623731
 10
4000.248424414048
 20
-2741.326220652519
 42
0.4142135623731
 10
3998.748424414047
 20
-2742.826220652518
 42
0.4142135623731
 10
4000.248424414048
 20
-2744.326220652518
 42
0.4142135623731
  0
LINE
  5
258
330
1F
100
AcDbEntity
  8
1-E
  6
Continuous
 62
   120
370
     5
100
AcDbLine
 10
3802.588566428757
 20
-2630.326220652518
 30
0.0
 11
3802.588566428757
 21
-3092.326220652511
 31
0.0
  0
LWPOLYLINE
  5
259
330
1F
100
AcDbEntity
  8
1-E
  6
Continuous
 62
     7
370
     9
100
AcDbPolyline
 90
        4
 70
     1
 43
3.0
 10
3804.088566428757
 20
-3092.326220652511
 42
0.4142135623731
 10
3802.588566428757
 20
-3090.826220652511
 42
0.4142135623731
 10
3801.088566428757
 20
-3092.326220652511
 42
0.4142135623731
 10
3802.588566428757
 20
-3093.826220652511
 42
0.4142135623731
  0
LINE
  5
25A
330
1F
100
AcDbEntity
  8
1-E
  6
Continuous
 62
   120
370
     5
100
AcDbLine
 10
3802.588566428757
 20
-3092.326220652511
 30
0.0
 11
3898.870707375649
 21
-3092.326220652511
 31
0.0
  0
LINE
  5
25B
330
1F
100
AcDbEntity
  8
1-E
  6
Continuous
 62
   120
370
     5
100
AcDbLine
 10
3901.418495421402
 20
-2861.32729454134
 30
0.0
 11
3901.418495421402
 21
-3092.326220652511
 31
0.0
  0
LWPOLYLINE
  5
25C
330
1F
100
AcDbEntity
  8
1-E
  6
Continuous
 62
     7
370
     9
100
AcDbPolyline
 90
        4
 70
     1
 43
3.0
 10
3902.918495421402
 20
-3092.326220652511
 42
0.4142135623731
 10
3901.418495421402
 20
-3090.826220652511
 42
0.4142135623731
 10
3899.918495421402
 20
-3092.326220652511
 42
0.4142135623731
 10
3901.418495421402
 20
-3093.826220652511
 42
0.4142135623731
  0
LINE
  5
25D
330
1F
100
AcDbEntity
  8
1-E
  6
Continuous
 62
   120
370
     5
100
AcDbLine
 10
3898.870707375649
 20
-3092.326220652511
 30
0.0
 11
4458.260422012103
 21
-3092.326220652511
 31
0.0
  0
LWPOLYLINE
  5
25E
330
1F
100
AcDbEntity
  8
1-E
  6
Continuous
 62
     7
370
     9
100
AcDbPolyline
 90
        4
 70
     1
 43
3.0
 10
4001.748424414048
 20
-3092.326220652511
 42
0.4142135623731
 10
4000.248424414048
 20
-3090.826220652511
 42
0.4142135623731
 10
3998.748424414047
 20
-3092.326220652511
 42
0.4142135623731
 10
4000.248424414048
 20
-3093.826220652511
 42
0.4142135623731
  0
LWPOLYLINE
  5
25F
330
1F
100
AcDbEntity
  8
1-E
  6
Continuous
 62
     7
370
     9
100
AcDbPolyline
 90
        4
 70
     1
 43
3.0
 10
3804.088566428757
 20
-2630.326220652518
 42
0.4142135623731
 10
3802.588566428757
 20
-2628.826220652519
 42
0.4142135623731
 10
3801.088566428757
 20
-2630.326220652518
 42
0.4142135623731
 10
3802.588566428757
 20
-2631.826220652518
 42
0.4142135623731
  0
LINE
  5
260
330
1F
100
AcDbEntity
  8
1-E
  6
Continuous
 62
   120
370
     5
100
AcDbLine
 10
3802.588566428757
 20
-2630.326220652518
 30
0.0
 11
3898.870707375649
 21
-2630.326220652518
 31
0.0
  0
LINE
  5
261
330
1F
100
AcDbEntity
  8
1-E
  6
Continuous
 62
   120
370
     5
100
AcDbLine
 10
3901.418495421402
 20
-2630.326220652518
 30
0.0
 11
3901.418495421402
 21
-2861.32729454134
 31
0.0
  0
LWPOLYLINE
  5
262
330
1F
100
AcDbEntity
  8
1-E
  6
Continuous
 62
     7
370
     9
100
AcDbPolyline
 90
        4
 70
     1
 43
3.0
 10
3902.918495421402
 20
-2630.326220652518
 42
0.4142135623731
 10
3901.418495421402
 20
-2628.826220652519
 42
0.4142135623731
 10
3899.918495421402
 20
-2630.326220652518
 42
0.4142135623731
 10
3901.418495421402
 20
-2631.826220652518
 42
0.4142135623731
  0
LINE
  5
263
330
1F
100
AcDbEntity
  8
1-E
  6
Continuous
 62
   120
370
     5
100
AcDbLine
 10
3898.870707375649
 20
-2630.326220652518
 30
0.0
 11
4458.260422012103
 21
-2630.326220652518
 31
0.0
  0
LWPOLYLINE
  5
264
330
1F
100
AcDbEntity
  8
1-E
  6
Continuous
 62
     7
370
     9
100
AcDbPolyline
 90
        4
 70
     1
 43
3.0
 10
4001.748424414048
 20
-2630.326220652518
 42
0.4142135623731
 10
4000.248424414048
 20
-2628.826220652519
 42
0.4142135623731
 10
3998.748424414047
 20
-2630.326220652518
 42
0.4142135623731
 10
4000.248424414048
 20
-2631.826220652518
 42
0.4142135623731
  0
LINE
  5
265
330
1F
100
AcDbEntity
  8
1-E
  6
Continuous
 62
   120
370
     5
100
AcDbLine
 10
4563.171401841557
 20
-3032.326220652511
 30
0.0
 11
4658.02798755508
 21
-2937.469634938989
 31
0.0
  0
LINE
  5
266
330
1F
100
AcDbEntity
  8
1-E
  6
Continuous
 62
    92
370
    13
100
AcDbLine
 10
4538.027987555078
 20
-3032.326220652511
 30
0.0
 11
4538.027987555078
 21
-3092.326220652511
 31
0.0
  0
LINE
  5
267
330
1F
100
AcDbEntity
  8
1-E
  6
Continuous
 62
    92
370
    13
100
AcDbLine
 10
4592.02798755508
 20
-3032.326220652511
 30
0.0
 11
4592.02798755508
 21
-3092.326220652511
 31
0.0
  0
LINE
  5
268
330
1F
100
AcDbEntity
  8
1-E
  6
Continuous
 62
    92
370
    13
100
AcDbLine
 10
4592.02798755508
 20
-3032.326220652511
 30
0.0
 11
4538.027987555078
 21
-3032.326220652511
 31
0.0
  0
LINE
  5
269
330
1F
100
AcDbEntity
  8
1-E
  6
Continuous
 62
   120
370
     5
100
AcDbLine
 10
4478.027987555095
 20
-2642.293877981635
 30
0.0
 11
4489.995644884208
 21
-2630.326220652518
 31
0.0
  0
LINE
  5
26A
330
1F
100
AcDbEntity
  8
1-E
  6
Continuous
 62
   120
370
     5
100
AcDbLine
 10
4478.027987555078
 20
-2701.690847601296
 30
0.0
 11
4549.392614503862
 21
-2630.326220652514
 31
0.0
  0
LINE
  5
26B
330
1F
100
AcDbEntity
  8
1-E
  6
Continuous
 62
   120
370
     5
100
AcDbLine
 10
4491.939562561487
 20
-2747.176242214591
 30
0.0
 11
4608.789584123553
 21
-2630.326220652522
 31
0.0
  0
LINE
  5
26C
330
1F
100
AcDbEntity
  8
1-E
  6
Continuous
 62
   120
370
     5
100
AcDbLine
 10
4506.154506764689
 20
-2792.358267631036
 30
0.0
 11
4658.02798755509
 21
-2640.484786840638
 31
0.0
  0
LINE
  5
26D
330
1F
100
AcDbEntity
  8
1-E
  6
Continuous
 62
   120
370
     5
100
AcDbLine
 10
4513.556881621468
 20
-2844.35286239396
 30
0.0
 11
4658.02798755509
 21
-2699.88175646034
 31
0.0
  0
LINE
  5
26E
330
1F
100
AcDbEntity
  8
1-E
  6
Continuous
 62
   120
370
     5
100
AcDbLine
 10
4510.652067656933
 20
-2906.65464597814
 30
0.0
 11
4658.02798755509
 21
-2759.278726079984
 31
0.0
  0
LINE
  5
26F
330
1F
100
AcDbEntity
  8
1-E
  6
Continuous
 62
   120
370
     5
100
AcDbLine
 10
4484.741080034824
 20
-2991.962603219894
 30
0.0
 11
4658.027987555095
 21
-2818.675695699626
 31
0.0
  0
LINE
  5
270
330
1F
100
AcDbEntity
  8
1-E
  6
Continuous
 62
   120
370
     5
100
AcDbLine
 10
4478.027987555088
 20
-3058.072665319336
 30
0.0
 11
4658.027987555095
 21
-2878.07266531933
 31
0.0
  0
LINE
  5
271
330
1F
100
AcDbEntity
  8
1-E
  6
Continuous
 62
   120
370
     5
100
AcDbLine
 10
4503.171401841571
 20
-3092.326220652497
 30
0.0
 11
4538.02798755508
 21
-3057.469634938991
 31
0.0
  0
LINE
  5
272
330
1F
100
AcDbEntity
  8
1-E
  6
Continuous
 62
   120
370
     5
100
AcDbLine
 10
4592.0279875551
 20
-3062.86660455867
 30
0.0
 11
4658.027987555095
 21
-2996.866604558677
 31
0.0
  0
LINE
  5
273
330
1F
100
AcDbEntity
  8
1-E
  6
Continuous
 62
   120
370
     5
100
AcDbLine
 10
4621.965341080911
 20
-3092.32622065251
 30
0.0
 11
4628.027987555088
 21
-3086.263574178333
 31
0.0
  0
LINE
  5
274
330
1F
100
AcDbEntity
  8
1-E
  6
Continuous
 62
    92
370
    13
100
AcDbLine
 10
4478.027987555078
 20
-3092.326220652511
 30
0.0
 11
4478.027987555078
 21
-3005.326220652511
 31
0.0
  0
LINE
  5
275
330
1F
100
AcDbEntity
  8
1-E
  6
Continuous
 62
    92
370
    13
100
AcDbLine
 10
4478.027987555078
 20
-2717.326220652511
 30
0.0
 11
4478.027987555078
 21
-2630.326220652511
 31
0.0
  0
ARC
  5
276
330
1F
100
AcDbEntity
  8
1-E
  6
Continuous
 62
    92
370
    13
100
AcDbCircle
 10
4208.02798755508
 20
-2861.326220652511
 30
0.0
 40
305.9999999999982
100
AcDbArc
 50
331.9275130641468
 51
28.07248693585302
  0
LINE
  5
277
330
1F
100
AcDbEntity
  8
1-E
  6
Continuous
 62
    92
370
    13
100
AcDbLine
 10
4592.02798755508
 20
-3092.326220652511
 30
0.0
 11
4628.027987555078
 21
-3092.326220652511
 31
0.0
  0
LINE
  5
278
330
1F
100
AcDbEntity
  8
1-E
  6
Continuous
 62
    92
370
    13
100
AcDbLine
 10
4628.027987555078
 20
-3050.326220652511
 30
0.0
 11
4628.027987555078
 21
-3092.326220652511
 31
0.0
  0
LINE
  5
279
330
1F
100
AcDbEntity
  8
1-E
  6
Continuous
 62
    92
370
    13
100
AcDbLine
 10
4658.027987555079
 20
-2630.326220652511
 30
0.0
 11
4658.027987555079
 21
-3050.326220652511
 31
0.0
  0
LINE
  5
27A
330
1F
100
AcDbEntity
  8
1-E
  6
Continuous
 62
    92
370
    13
100
AcDbLine
 10
4478.02887833844
 20
-3092.326220652511
 30
0.0
 11
4538.027987555078
 21
-3092.326220652511
 31
0.0
  0
LINE
  5
27B
330
1F
100
AcDbEntity
  8
1-E
  6
Continuous
 62
    92
370
    13
100
AcDbLine
 10
4658.027987555079
 20
-2630.326220652511
 30
0.0
 11
4478.027987555078
 21
-2630.326220652511
 31
0.0
  0
LINE
  5
27C
330
1F
100
AcDbEntity
  8
1-E
  6
JWW_HOJO
 62
   120
370
     5
100
AcDbLine
 10
3382.352064732193
 20
-2928.159211047712
 30
0.0
 11
5052.370697017256
 21
-2928.159211047712
 31
0.0
  0
LINE
  5
27D
330
1F
100
AcDbEntity
  8
1-E
  6
Continuous
 62
   120
370
     5
100
AcDbLine
 10
3901.418495421402
 20
-2861.32729454134
 30
0.0
 11
3919.360102069181
 21
-2861.32729454134
 31
0.0
  0
MTEXT
  5
27E
330
1F
100
AcDbEntity
  8
1-E
  6
Continuous
 62
     7
370
     9
100
AcDbMText
 10
3103.230961599619
 20
-699.6919363741633
 30
0.0
 40
64.00799999999998
 41
2100.0
 46
0.0
 71
     7
 72
     1
  1
{\fＭＳ ゴシック|b0|i0|c128|p49;扉を吊った後ストライクを取り付ける際は、下図のよう}
 73
     1
 44
1.0
  0
LINE
  5
27F
330
1F
100
AcDbEntity
  8
1-E
  6
Continuous
 62
   120
370
     5
100
AcDbLine
 10
4415.026997519246
 20
-2409.474543265751
 30
0.0
 11
4415.026997519246
 21
-2508.47454326575
 31
0.0
  0
LINE
  5
280
330
1F
100
AcDbEntity
  8
1-E
  6
Continuous
 62
   120
370
     5
100
AcDbLine
 10
4514.026576871255
 20
-2409.474543265751
 30
0.0
 11
4514.026576871255
 21
-2508.47454326575
 31
0.0
  0
LWPOLYLINE
  5
281
330
1F
100
AcDbEntity
  8
1-E
  6
Continuous
 62
     7
370
     9
100
AcDbPolyline
 90
        4
 70
     1
 43
3.0
 10
4416.526997519246
 20
-2409.474543265751
 42
0.4142135623731
 10
4415.026997519246
 20
-2407.974543265751
 42
0.4142135623731
 10
4413.526997519246
 20
-2409.474543265751
 42
0.4142135623731
 10
4415.026997519246
 20
-2410.974543265751
 42
0.4142135623731
  0
LWPOLYLINE
  5
282
330
1F
100
AcDbEntity
  8
1-E
  6
Continuous
 62
     7
370
     9
100
AcDbPolyline
 90
        4
 70
     1
 43
3.0
 10
4515.526576871255
 20
-2409.474543265751
 42
0.4142135623731
 10
4514.026576871255
 20
-2407.974543265751
 42
0.4142135623731
 10
4512.526576871255
 20
-2409.474543265751
 42
0.4142135623731
 10
4514.026576871255
 20
-2410.974543265751
 42
0.4142135623731
  0
LINE
  5
283
330
1F
100
AcDbEntity
  8
1-E
  6
Continuous
 62
   120
370
     5
100
AcDbLine
 10
4514.026576871255
 20
-2409.474543265751
 30
0.0
 11
4415.026997519246
 21
-2409.474543265751
 31
0.0
  0
MTEXT
  5
284
330
1F
100
AcDbEntity
  8
1-E
  6
Continuous
 62
     7
370
     9
100
AcDbMText
 10
785.6882555678467
 20
-822.0919363741647
 30
0.0
 40
64.00799999999997
 41
1806.0
 46
0.0
 71
     7
 72
     1
  1
{\fＭＳ ゴシック|b0|i0|c128|p49;ストッパー側面は竪枠から7.5㎜離して下さい。}
 73
     1
 44
1.0
  0
LINE
  5
285
330
1F
100
AcDbEntity
  8
1-E
  6
Continuous
 62
   120
370
     5
100
AcDbLine
 10
4478.027690350775
 20
-2508.47454326575
 30
0.0
 11
4251.908868498616
 21
-2508.47454326575
 31
0.0
  0
MTEXT
  5
286
330
1F
100
AcDbEntity
  8
1-E
  6
Continuous
 62
     7
370
     9
100
AcDbMText
 10
3103.230961599619
 20
-822.0919363741612
 30
0.0
 40
64.00799999999998
 41
2100.0
 46
0.0
 71
     7
 72
     1
  1
{\fＭＳ ゴシック|b0|i0|c128|p49;に下用ガイド軸とストライクの位置決め溝をそろえて、}
 73
     1
 44
1.0
  0
LINE
  5
287
330
1F
100
AcDbEntity
  8
1-E
  6
Continuous
 62
   120
370
     5
100
AcDbLine
 10
4514.026576871255
 20
-2508.47454326575
 30
0.0
 11
4514.026576871255
 21
-2575.97454326575
 31
0.0
  0
LWPOLYLINE
  5
288
330
1F
100
AcDbEntity
  8
1-E
  6
Continuous
 62
     7
370
     9
100
AcDbPolyline
 90
        4
 70
     1
 43
3.0
 10
4515.526576871255
 20
-2508.47454326575
 42
0.4142135623731
 10
4514.026576871255
 20
-2506.97454326575
 42
0.4142135623731
 10
4512.526576871255
 20
-2508.47454326575
 42
0.4142135623731
 10
4514.026576871255
 20
-2509.97454326575
 42
0.4142135623731
  0
LINE
  5
289
330
1F
100
AcDbEntity
  8
1-E
  6
Continuous
 62
   120
370
     5
100
AcDbLine
 10
4478.027690350775
 20
-2508.47454326575
 30
0.0
 11
4514.026576871255
 21
-2508.47454326575
 31
0.0
  0
LINE
  5
28A
330
1F
100
AcDbEntity
  8
1-E
  6
Continuous
 62
   120
370
     5
100
AcDbLine
 10
4415.026997519246
 20
-2508.47454326575
 30
0.0
 11
4415.026997519246
 21
-2575.97454326575
 31
0.0
  0
LINE
  5
28B
330
1F
100
AcDbEntity
  8
1-E
  6
Continuous
 62
   120
370
     5
100
AcDbLine
 10
4478.027690350775
 20
-2508.47454326575
 30
0.0
 11
4478.027690350775
 21
-2575.97454326575
 31
0.0
  0
LWPOLYLINE
  5
28C
330
1F
100
AcDbEntity
  8
1-E
  6
Continuous
 62
     7
370
     9
100
AcDbPolyline
 90
        4
 70
     1
 43
3.0
 10
4416.526997519246
 20
-2508.47454326575
 42
0.4142135623731
 10
4415.026997519246
 20
-2506.97454326575
 42
0.4142135623731
 10
4413.526997519246
 20
-2508.47454326575
 42
0.4142135623731
 10
4415.026997519246
 20
-2509.97454326575
 42
0.4142135623731
  0
LWPOLYLINE
  5
28D
330
1F
100
AcDbEntity
  8
1-E
  6
Continuous
 62
     7
370
     9
100
AcDbPolyline
 90
        4
 70
     1
 43
3.0
 10
4479.527690350776
 20
-2508.47454326575
 42
0.4142135623731
 10
4478.027690350775
 20
-2506.97454326575
 42
0.4142135623731
 10
4476.527690350775
 20
-2508.47454326575
 42
0.4142135623731
 10
4478.027690350775
 20
-2509.97454326575
 42
0.4142135623731
  0
MTEXT
  5
28E
330
1F
100
AcDbEntity
  8
1-E
  6
Continuous
 62
     7
370
     9
100
AcDbMText
 10
3103.230961599617
 20
-944.4919363741619
 30
0.0
 40
64.00800000000004
 41
1512.000000000001
 46
0.0
 71
     7
 72
     1
  1
{\fＭＳ ゴシック|b0|i0|c128|p49;床に付属のビスで取り付けてください。}
 73
     1
 44
1.0
  0
LWPOLYLINE
  5
28F
330
1F
100
AcDbEntity
  8
1-E
  6
Continuous
 62
     7
370
     9
100
AcDbPolyline
 90
        4
 70
     1
 43
3.0
 10
3902.918495421402
 20
-2861.32729454134
 42
0.4142135623731
 10
3901.418495421402
 20
-2859.827294541341
 42
0.4142135623731
 10
3899.918495421402
 20
-2861.32729454134
 42
0.4142135623731
 10
3901.418495421402
 20
-2862.82729454134
 42
0.4142135623731
  0
LINE
  5
290
330
1F
100
AcDbEntity
  8
1-E
  6
JWW_CENTER1
 62
   120
370
     5
100
AcDbLine
 10
4059.259425062962
 20
-2861.32729454134
 30
0.0
 11
4702.163750018505
 21
-2861.32729454134
 31
0.0
  0
LWPOLYLINE
  5
291
330
1F
100
AcDbEntity
  8
1-E
  6
Continuous
 62
     7
370
     9
100
AcDbPolyline
 90
        4
 70
     1
 43
3.0
 10
4143.526997519247
 20
-2973.82729454134
 42
0.4142135623731
 10
4142.026997519247
 20
-2972.327294541341
 42
0.4142135623731
 10
4140.526997519247
 20
-2973.82729454134
 42
0.4142135623731
 10
4142.026997519247
 20
-2975.32729454134
 42
0.4142135623731
  0
LWPOLYLINE
  5
292
330
1F
100
AcDbEntity
  8
1-E
  6
Continuous
 62
     7
370
     9
100
AcDbPolyline
 90
        4
 70
     1
 43
3.0
 10
4143.526997519247
 20
-2748.827294541341
 42
0.4142135623731
 10
4142.026997519247
 20
-2747.327294541341
 42
0.4142135623731
 10
4140.526997519247
 20
-2748.827294541341
 42
0.4142135623731
 10
4142.026997519247
 20
-2750.327294541341
 42
0.4142135623731
  0
LINE
  5
293
330
1F
100
AcDbEntity
  8
1-E
  6
JWW_CENTER1
 62
   120
370
     5
100
AcDbLine
 10
4209.070095503805
 20
-2786.32729454134
 30
0.0
 11
4275.722888671086
 21
-2786.32729454134
 31
0.0
  0
LINE
  5
294
330
1F
100
AcDbEntity
  8
1-E
  6
JWW_CENTER1
 62
   120
370
     5
100
AcDbLine
 10
4209.070095503805
 20
-2936.32729454134
 30
0.0
 11
4275.722888671086
 21
-2936.32729454134
 31
0.0
  0
LINE
  5
295
330
1F
100
AcDbEntity
  8
1-E
  6
JWW_CENTER1
 62
   120
370
     5
100
AcDbLine
 10
4370.026997519246
 20
-2827.918319903822
 30
0.0
 11
4370.026997519246
 21
-2894.571113071102
 31
0.0
  0
LINE
  5
296
330
1F
100
AcDbEntity
  8
1-E
  6
JWW_CENTER1
 62
   120
370
     5
100
AcDbLine
 10
4241.026997519246
 20
-2901.021383377614
 30
0.0
 11
4241.026997519246
 21
-2966.240783143448
 31
0.0
  0
LINE
  5
297
330
1F
100
AcDbEntity
  8
1-E
  6
JWW_CENTER1
 62
   120
370
     5
100
AcDbLine
 10
4241.026997519246
 20
-2753.381863028583
 30
0.0
 11
4241.026997519246
 21
-2819.317959495141
 31
0.0
  0
ARC
  5
298
330
1F
100
AcDbEntity
  8
1-E
  6
Continuous
 62
     7
370
     9
100
AcDbCircle
 10
4237.468123016201
 20
-2918.32729454134
 30
0.0
 40
30.0
100
AcDbArc
 50
90.0
 51
134.9999999999995
  0
LINE
  5
299
330
1F
100
AcDbEntity
  8
1-E
  6
Continuous
 62
     7
370
     9
100
AcDbLine
 10
4216.254919580603
 20
-2897.114091105743
 30
0.0
 11
4143.784356832124
 21
-2969.584653854221
 31
0.0
  0
LINE
  5
29A
330
1F
100
AcDbEntity
  8
1-E
  6
Continuous
 62
     7
370
     9
100
AcDbLine
 10
4237.468123016201
 20
-2888.32729454134
 30
0.0
 11
4292.026997519247
 21
-2888.32729454134
 31
0.0
  0
ARC
  5
29B
330
1F
100
AcDbEntity
  8
1-E
  6
Continuous
 62
     7
370
     9
100
AcDbCircle
 10
4237.468123016201
 20
-2804.32729454134
 30
0.0
 40
30.0
100
AcDbArc
 50
225.0000000000006
 51
270.0
  0
LINE
  5
29C
330
1F
100
AcDbEntity
  8
1-E
  6
Continuous
 62
     7
370
     9
100
AcDbLine
 10
4237.468123016201
 20
-2834.32729454134
 30
0.0
 11
4292.026997519247
 21
-2834.32729454134
 31
0.0
  0
LINE
  5
29D
330
1F
100
AcDbEntity
  8
1-E
  6
Continuous
 62
     7
370
     9
100
AcDbLine
 10
4216.254919580603
 20
-2825.540497976936
 30
0.0
 11
4143.784356832124
 21
-2753.069935228461
 31
0.0
  0
ARC
  5
29E
330
1F
100
AcDbEntity
  8
1-E
  6
Continuous
 62
     7
370
     9
100
AcDbCircle
 10
4342.600590648052
 20
-2772.827294541341
 30
0.0
 40
30.0
100
AcDbArc
 50
45.00000000000006
 51
90.00000000000006
  0
LINE
  5
29F
330
1F
100
AcDbEntity
  8
1-E
  6
Continuous
 62
     7
370
     9
100
AcDbLine
 10
4342.600590648052
 20
-2742.827294541341
 30
0.0
 11
4148.026997519245
 21
-2742.827294541341
 31
0.0
  0
LINE
  5
2A0
330
1F
100
AcDbEntity
  8
1-E
  6
Continuous
 62
     7
370
     9
100
AcDbLine
 10
4363.813794083651
 20
-2751.614091105744
 30
0.0
 11
4406.240200954844
 21
-2794.040497976937
 31
0.0
  0
ARC
  5
2A1
330
1F
100
AcDbEntity
  8
1-E
  6
Continuous
 62
     7
370
     9
100
AcDbCircle
 10
4385.026997519246
 20
-2815.253701412535
 30
0.0
 40
30.0
100
AcDbArc
 50
0.0000000000000127
 51
45.00000000000001
  0
LINE
  5
2A2
330
1F
100
AcDbEntity
  8
1-E
  6
Continuous
 62
     7
370
     9
100
AcDbLine
 10
4415.026997519246
 20
-2815.253701412535
 30
0.0
 11
4415.026997519246
 21
-2907.400887670147
 31
0.0
  0
ARC
  5
2A3
330
1F
100
AcDbEntity
  8
1-E
  6
Continuous
 62
     7
370
     9
100
AcDbCircle
 10
4385.026997519246
 20
-2907.400887670147
 30
0.0
 40
30.0
100
AcDbArc
 50
314.9999999999999
 51
359.9999999999999
  0
LINE
  5
2A4
330
1F
100
AcDbEntity
  8
1-E
  6
Continuous
 62
     7
370
     9
100
AcDbLine
 10
4406.240200954844
 20
-2928.614091105744
 30
0.0
 11
4363.813794083651
 21
-2971.040497976937
 31
0.0
  0
ARC
  5
2A5
330
1F
100
AcDbEntity
  8
1-E
  6
Continuous
 62
     7
370
     9
100
AcDbCircle
 10
4342.600590648052
 20
-2949.82729454134
 30
0.0
 40
30.0
100
AcDbArc
 50
270.0
 51
315.0
  0
LINE
  5
2A6
330
1F
100
AcDbEntity
  8
1-E
  6
Continuous
 62
     7
370
     9
100
AcDbLine
 10
4342.600590648052
 20
-2979.82729454134
 30
0.0
 11
4148.026997519245
 21
-2979.82729454134
 31
0.0
  0
CIRCLE
  5
2A7
330
1F
100
AcDbEntity
  8
1-E
  6
Continuous
 62
     7
370
     9
100
AcDbCircle
 10
4370.026997519246
 20
-2861.32729454134
 30
0.0
 40
22.5
  0
CIRCLE
  5
2A8
330
1F
100
AcDbEntity
  8
1-E
  6
Continuous
 62
     7
370
     9
100
AcDbCircle
 10
4370.026997519246
 20
-2861.32729454134
 30
0.0
 40
11.7
  0
CIRCLE
  5
2A9
330
1F
100
AcDbEntity
  8
1-E
  6
Continuous
 62
     7
370
     9
100
AcDbCircle
 10
4241.026997519246
 20
-2936.32729454134
 30
0.0
 40
22.5
  0
CIRCLE
  5
2AA
330
1F
100
AcDbEntity
  8
1-E
  6
Continuous
 62
     7
370
     9
100
AcDbCircle
 10
4241.026997519246
 20
-2786.32729454134
 30
0.0
 40
22.5
  0
CIRCLE
  5
2AB
330
1F
100
AcDbEntity
  8
1-E
  6
Continuous
 62
     7
370
     9
100
AcDbCircle
 10
4241.026997519246
 20
-2786.32729454134
 30
0.0
 40
11.7
  0
CIRCLE
  5
2AC
330
1F
100
AcDbEntity
  8
1-E
  6
Continuous
 62
     7
370
     9
100
AcDbCircle
 10
4241.026997519246
 20
-2936.32729454134
 30
0.0
 40
11.7
  0
ARC
  5
2AD
330
1F
100
AcDbEntity
  8
1-E
  6
Continuous
 62
     7
370
     9
100
AcDbCircle
 10
4148.026997519245
 20
-2748.827294541341
 30
0.0
 40
6.0
100
AcDbArc
 50
90.0
 51
224.9999999999913
  0
ARC
  5
2AE
330
1F
100
AcDbEntity
  8
1-E
  6
Continuous
 62
     7
370
     9
100
AcDbCircle
 10
4148.026997519245
 20
-2973.82729454134
 30
0.0
 40
6.0
100
AcDbArc
 50
135.0000000000086
 51
270.0
  0
ARC
  5
2AF
330
1F
100
AcDbEntity
  8
1-E
  6
Continuous
 62
     7
370
     9
100
AcDbCircle
 10
4292.026997519247
 20
-2861.32729454134
 30
0.0
 40
27.00000000000017
100
AcDbArc
 50
270.0
 51
90.0
  0
LINE
  5
2B0
330
1F
100
AcDbEntity
  8
1-E
  6
JWW_CENTER1
 62
   120
370
     5
100
AcDbLine
 10
4283.026997519248
 20
-2798.32599795667
 30
0.0
 11
4283.026997519248
 21
-2924.326651197803
 31
0.0
  0
LINE
  5
2B1
330
1F
100
AcDbEntity
  8
1-E
  6
Continuous
 62
   120
370
     5
100
AcDbLine
 10
4256.806495537462
 20
-1861.546966460824
 30
0.0
 11
4622.744026465097
 21
-1861.546966460824
 31
0.0
  0
LINE
  5
2B2
330
1F
100
AcDbEntity
  8
1-E
  6
Continuous
 62
    92
370
    13
100
AcDbLine
 10
5409.834869145897
 20
-498.7332092194668
 30
0.0
 11
672.2348691458878
 21
-498.7332092194668
 31
0.0
  0
LINE
  5
2B3
330
1F
100
AcDbEntity
  8
1-E
  6
JWW_HOJO
 62
   120
370
     5
100
AcDbLine
 10
3103.23096159962
 20
-580.4959363741652
 30
0.0
 11
5197.244720559622
 21
-580.4959363741652
 31
0.0
  0
LINE
  5
2B4
330
1F
100
AcDbEntity
  8
1-E
  6
JWW_HOJO
 62
   120
370
     5
100
AcDbLine
 10
3103.23096159962
 20
-947.6959363741621
 30
0.0
 11
5197.244720559622
 21
-947.6959363741621
 31
0.0
  0
LINE
  5
2B5
330
1F
100
AcDbEntity
  8
1-E
  6
JWW_HOJO
 62
   120
370
     5
100
AcDbLine
 10
3103.23096159962
 20
-702.895936374163
 30
0.0
 11
5197.244720559622
 21
-702.895936374163
 31
0.0
  0
LINE
  5
2B6
330
1F
100
AcDbEntity
  8
1-E
  6
JWW_HOJO
 62
   120
370
     5
100
AcDbLine
 10
3103.23096159962
 20
-825.295936374162
 30
0.0
 11
5197.244720559622
 21
-825.295936374162
 31
0.0
  0
LINE
  5
2B7
330
1F
100
AcDbEntity
  8
1-E
  6
JWW_HOJO
 62
   120
370
     5
100
AcDbLine
 10
5197.244720559622
 20
-580.4959363741652
 30
0.0
 11
5197.244720559622
 21
-947.6959363741621
 31
0.0
  0
LINE
  5
2B8
330
1F
100
AcDbEntity
  8
1-E
  6
Continuous
 62
   120
370
     5
100
AcDbLine
 10
4461.097345695855
 20
-2081.024348158246
 30
0.0
 11
4519.972091018837
 21
-2081.024348158246
 31
0.0
  0
LINE
  5
2B9
330
1F
100
AcDbEntity
  8
1-E
  6
Continuous
 62
   120
370
     5
100
AcDbLine
 10
4337.265806539285
 20
-1957.192809001672
 30
0.0
 11
4461.097345695855
 21
-2081.024348158246
 31
0.0
  0
LINE
  5
2BA
330
1F
100
AcDbEntity
  8
1-E
  6
Continuous
 62
   120
370
     5
100
AcDbLine
 10
3757.86720780367
 20
-1995.757998774293
 30
0.0
 11
3876.444626062798
 21
-2107.360274782887
 31
0.0
  0
LINE
  5
2BB
330
1F
100
AcDbEntity
  8
1-E
  6
Continuous
 62
    92
370
    13
100
AcDbLine
 10
3041.03486914589
 20
-3381.83065404837
 30
0.0
 11
3041.03486914589
 21
-282.7332092194671
 31
0.0
  0
LINE
  5
2BC
330
1F
100
AcDbEntity
  8
1-E
  6
Continuous
 62
    92
370
    13
100
AcDbLine
 10
672.2348691458878
 20
-282.7332092194671
 30
0.0
 11
5409.834869145897
 21
-282.7332092194671
 31
0.0
  0
LINE
  5
2BD
330
1F
100
AcDbEntity
  8
1-E
  6
Continuous
 62
    92
370
    13
100
AcDbLine
 10
5409.834869145897
 20
-3381.83065404837
 30
0.0
 11
5409.834869145897
 21
-282.7332092194671
 31
0.0
  0
LINE
  5
2BE
330
1F
100
AcDbEntity
  8
1-E
  6
Continuous
 62
    92
370
    13
100
AcDbLine
 10
672.2348691458878
 20
-3381.83065404837
 30
0.0
 11
672.2348691458878
 21
-282.7332092194671
 31
0.0
  0
LINE
  5
2BF
330
1F
100
AcDbEntity
  8
1-E
  6
Continuous
 62
     7
370
     9
100
AcDbLine
 10
3390.425553003358
 20
-3181.247056992253
 30
0.0
 11
3390.425553003358
 21
-2301.311521539421
 31
0.0
  0
LINE
  5
2C0
330
1F
100
AcDbEntity
  8
1-E
  6
Continuous
 62
     7
370
     9
100
AcDbLine
 10
5060.444185288428
 20
-3181.247056992253
 30
0.0
 11
5060.444185288428
 21
-2301.311521539421
 31
0.0
  0
LINE
  5
2C1
330
1F
100
AcDbEntity
  8
1-E
  6
Continuous
 62
     7
370
     9
100
AcDbLine
 10
3390.425553003358
 20
-3181.247056992253
 30
0.0
 11
5060.444185288428
 21
-3181.247056992253
 31
0.0
  0
LINE
  5
2C2
330
1F
100
AcDbEntity
  8
1-E
  6
Continuous
 62
     7
370
     9
100
AcDbLine
 10
5060.444185288428
 20
-2301.311521539421
 30
0.0
 11
3390.425553003358
 21
-2301.311521539421
 31
0.0
  0
LINE
  5
2C3
330
1F
100
AcDbEntity
  8
1-E
  6
JWW_CENTER1
 62
   120
370
     5
100
AcDbLine
 10
3322.834335321306
 20
-2070.824175302663
 30
0.0
 11
5174.50050730471
 21
-1712.664865120113
 31
0.0
  0
LINE
  5
2C4
330
1F
100
AcDbEntity
  8
1-E
  6
Continuous
 62
    40
370
    15
100
AcDbLine
 10
3419.769253463503
 20
-1879.352463035586
 30
0.0
 11
3419.769253463503
 21
-1294.85061242137
 31
0.0
  0
LINE
  5
2C5
330
1F
100
AcDbEntity
  8
1-E
  6
Continuous
 62
    40
370
    15
100
AcDbLine
 10
3662.462448585588
 20
-1922.026839770021
 30
0.0
 11
3662.462448585588
 21
-1316.193050047682
 31
0.0
  0
LINE
  5
2C6
330
1F
100
AcDbEntity
  8
1-E
  6
Continuous
 62
    40
370
    15
100
AcDbLine
 10
3662.462448585588
 20
-1922.026839770021
 30
0.0
 11
3419.769253463503
 21
-1879.352463035586
 31
0.0
  0
LINE
  5
2C7
330
1F
100
AcDbEntity
  8
1-E
  6
Continuous
 62
    40
370
    15
100
AcDbLine
 10
4001.429155203971
 20
-1862.609426227852
 30
0.0
 11
3662.462448585588
 21
-1922.026839770021
 31
0.0
  0
ARC
  5
2C8
330
1F
100
AcDbEntity
  8
1-E
  6
Continuous
 62
     7
370
     9
100
AcDbCircle
 10
4404.722808834478
 20
-1731.944596576719
 30
0.0
 40
30.0
100
AcDbArc
 50
247.1651394203828
 51
5.793612550752308
  0
LINE
  5
2C9
330
1F
100
AcDbEntity
  8
1-E
  6
Continuous
 62
     7
370
     9
100
AcDbLine
 10
4434.569567892679
 20
-1728.916235019399
 30
0.0
 11
4427.536712346071
 21
-1659.602204637714
 31
0.0
  0
ARC
  5
2CA
330
1F
100
AcDbEntity
  8
1-E
  6
Continuous
 62
     7
370
     9
100
AcDbCircle
 10
4397.501745564279
 20
-1427.868104390522
 30
0.0
 40
180.0
100
AcDbArc
 50
0.0
 51
48.66116247688833
  0
LINE
  5
2CB
330
1F
100
AcDbEntity
  8
1-E
  6
Continuous
 62
     7
370
     9
100
AcDbLine
 10
4577.501745564279
 20
-1739.266535433178
 30
0.0
 11
4577.501745564279
 21
-1427.868104390522
 31
0.0
  0
LINE
  5
2CC
330
1F
100
AcDbEntity
  8
1-E
  6
Continuous
 62
     7
370
     9
100
AcDbLine
 10
4312.355107128531
 20
-1848.665294370271
 30
0.0
 11
4306.918711947342
 21
-1887.287974316375
 31
0.0
  0
LINE
  5
2CD
330
1F
100
AcDbEntity
  8
1-E
  6
Continuous
 62
     7
370
     9
100
AcDbLine
 10
4264.837763953536
 20
-1910.378208913474
 30
0.0
 11
4262.585569339055
 21
-1910.775052901017
 31
0.0
  0
LINE
  5
2CE
330
1F
100
AcDbEntity
  8
1-E
  6
Continuous
 62
     7
370
     9
100
AcDbLine
 10
4262.585569339055
 20
-1910.775052901017
 30
0.0
 11
4260.4688056092
 21
-1911.148275222634
 31
0.0
  0
LINE
  5
2CF
330
1F
100
AcDbEntity
  8
1-E
  6
Continuous
 62
     7
370
     9
100
AcDbLine
 10
4260.4688056092
 20
-1911.148275222634
 30
0.0
 11
4258.487735226952
 21
-1911.497350952416
 31
0.0
  0
LINE
  5
2D0
330
1F
100
AcDbEntity
  8
1-E
  6
Continuous
 62
     7
370
     9
100
AcDbLine
 10
4258.487735226952
 20
-1911.497350952416
 30
0.0
 11
4256.642095729335
 21
-1911.822805016273
 31
0.0
  0
LINE
  5
2D1
330
1F
100
AcDbEntity
  8
1-E
  6
Continuous
 62
     7
370
     9
100
AcDbLine
 10
4256.642095729335
 20
-1911.822805016273
 30
0.0
 11
4254.93214957931
 21
-1912.124112488296
 31
0.0
  0
LINE
  5
2D2
330
1F
100
AcDbEntity
  8
1-E
  6
Continuous
 62
     7
370
     9
100
AcDbLine
 10
4254.93214957931
 20
-1912.124112488296
 30
0.0
 11
4253.37311962825
 21
-1912.322534482067
 31
0.0
  0
LINE
  5
2D3
330
1F
100
AcDbEntity
  8
1-E
  6
Continuous
 62
     7
370
     9
100
AcDbLine
 10
4253.37311962825
 20
-1912.322534482067
 30
0.0
 11
4251.493097483564
 21
-1912.539328882669
 31
0.0
  0
LINE
  5
2D4
330
1F
100
AcDbEntity
  8
1-E
  6
Continuous
 62
     7
370
     9
100
AcDbLine
 10
4251.493097483564
 20
-1912.539328882669
 30
0.0
 11
4249.292083145248
 21
-1912.775020616011
 31
0.0
  0
LINE
  5
2D5
330
1F
100
AcDbEntity
  8
1-E
  6
Continuous
 62
     7
370
     9
100
AcDbLine
 10
4249.292083145248
 20
-1912.775020616011
 30
0.0
 11
4246.770076613309
 21
-1913.029609682093
 31
0.0
  0
LINE
  5
2D6
330
1F
100
AcDbEntity
  8
1-E
  6
Continuous
 62
     7
370
     9
100
AcDbLine
 10
4246.770076613309
 20
-1913.029609682093
 30
0.0
 11
4243.9273403507
 21
-1913.303621006825
 31
0.0
  0
LINE
  5
2D7
330
1F
100
AcDbEntity
  8
1-E
  6
Continuous
 62
     7
370
     9
100
AcDbLine
 10
4243.9273403507
 20
-1913.303621006825
 30
0.0
 11
4240.763349431504
 21
-1913.596004738387
 31
0.0
  0
LINE
  5
2D8
330
1F
100
AcDbEntity
  8
1-E
  6
Continuous
 62
     7
370
     9
100
AcDbLine
 10
4240.763349431504
 20
-1913.596004738387
 30
0.0
 11
4237.27862878164
 21
-1913.907285802689
 31
0.0
  0
LINE
  5
2D9
330
1F
100
AcDbEntity
  8
1-E
  6
Continuous
 62
     7
370
     9
100
AcDbLine
 10
4237.27862878164
 20
-1913.907285802689
 30
0.0
 11
4233.472915938144
 21
-1914.237464199731
 31
0.0
  0
LINE
  5
2DA
330
1F
100
AcDbEntity
  8
1-E
  6
Continuous
 62
     7
370
     9
100
AcDbLine
 10
4233.472915938144
 20
-1914.237464199731
 30
0.0
 11
4229.442797268359
 21
-1914.562393337679
 31
0.0
  0
LINE
  5
2DB
330
1F
100
AcDbEntity
  8
1-E
  6
Continuous
 62
     7
370
     9
100
AcDbLine
 10
4229.442797268359
 20
-1914.562393337679
 30
0.0
 11
4225.284596676674
 21
-1914.85687677288
 31
0.0
  0
LINE
  5
2DC
330
1F
100
AcDbEntity
  8
1-E
  6
Continuous
 62
     7
370
     9
100
AcDbLine
 10
4225.284596676674
 20
-1914.85687677288
 30
0.0
 11
4220.99883908899
 21
-1915.12143943124
 31
0.0
  0
LINE
  5
2DD
330
1F
100
AcDbEntity
  8
1-E
  6
Continuous
 62
     7
370
     9
100
AcDbLine
 10
4220.99883908899
 20
-1915.12143943124
 30
0.0
 11
4216.585262042361
 21
-1915.355556386854
 31
0.0
  0
LINE
  5
2DE
330
1F
100
AcDbEntity
  8
1-E
  6
Continuous
 62
     7
370
     9
100
AcDbLine
 10
4216.585262042361
 20
-1915.355556386854
 30
0.0
 11
4212.043865536778
 21
-1915.559752565629
 31
0.0
  0
LINE
  5
2DF
330
1F
100
AcDbEntity
  8
1-E
  6
Continuous
 62
     7
370
     9
100
AcDbLine
 10
4212.043865536778
 20
-1915.559752565629
 30
0.0
 11
4207.374649572241
 21
-1915.734027967566
 31
0.0
  0
LINE
  5
2E0
330
1F
100
AcDbEntity
  8
1-E
  6
Continuous
 62
     7
370
     9
100
AcDbLine
 10
4207.374649572241
 20
-1915.734027967566
 30
0.0
 11
4202.577614148751
 21
-1915.877857666755
 31
0.0
  0
LINE
  5
2E1
330
1F
100
AcDbEntity
  8
1-E
  6
Continuous
 62
     7
370
     9
100
AcDbLine
 10
4202.577614148751
 20
-1915.877857666755
 30
0.0
 11
4197.652759266316
 21
-1915.992291515015
 31
0.0
  0
LINE
  5
2E2
330
1F
100
AcDbEntity
  8
1-E
  6
Continuous
 62
     7
370
     9
100
AcDbLine
 10
4197.652759266316
 20
-1915.992291515015
 30
0.0
 11
4192.705595032732
 21
-1916.039534846864
 31
0.0
  0
LINE
  5
2E3
330
1F
100
AcDbEntity
  8
1-E
  6
Continuous
 62
     7
370
     9
100
AcDbLine
 10
4192.705595032732
 20
-1916.039534846864
 30
0.0
 11
4187.842156481702
 21
-1915.983367774553
 31
0.0
  0
LINE
  5
2E4
330
1F
100
AcDbEntity
  8
1-E
  6
Continuous
 62
     7
370
     9
100
AcDbLine
 10
4187.842156481702
 20
-1915.983367774553
 30
0.0
 11
4183.062443613224
 21
-1915.8248401499
 31
0.0
  0
LINE
  5
2E5
330
1F
100
AcDbEntity
  8
1-E
  6
Continuous
 62
     7
370
     9
100
AcDbLine
 10
4183.062443613224
 20
-1915.8248401499
 30
0.0
 11
4178.365931501403
 21
-1915.562377195177
 31
0.0
  0
LINE
  5
2E6
330
1F
100
AcDbEntity
  8
1-E
  6
Continuous
 62
     7
370
     9
100
AcDbLine
 10
4178.365931501403
 20
-1915.562377195177
 30
0.0
 11
4173.753145072134
 21
-1915.197028762202
 31
0.0
  0
LINE
  5
2E7
330
1F
100
AcDbEntity
  8
1-E
  6
Continuous
 62
     7
370
     9
100
AcDbLine
 10
4173.753145072134
 20
-1915.197028762202
 30
0.0
 11
4169.224084325419
 21
-1914.728794850974
 31
0.0
  0
LINE
  5
2E8
330
1F
100
AcDbEntity
  8
1-E
  6
Continuous
 62
     7
370
     9
100
AcDbLine
 10
4169.224084325419
 20
-1914.728794850974
 30
0.0
 11
4164.778224335355
 21
-1914.157150535586
 31
0.0
  0
LINE
  5
2E9
330
1F
100
AcDbEntity
  8
1-E
  6
Continuous
 62
     7
370
     9
100
AcDbLine
 10
4164.778224335355
 20
-1914.157150535586
 30
0.0
 11
4160.416090027849
 21
-1913.482620741946
 31
0.0
  0
LINE
  5
2EA
330
1F
100
AcDbEntity
  8
1-E
  6
Continuous
 62
     7
370
     9
100
AcDbLine
 10
4160.416090027849
 20
-1913.482620741946
 30
0.0
 11
4156.332953841209
 21
-1912.74719954281
 31
0.0
  0
LINE
  5
2EB
330
1F
100
AcDbEntity
  8
1-E
  6
Continuous
 62
     7
370
     9
100
AcDbLine
 10
4156.332953841209
 20
-1912.74719954281
 30
0.0
 11
4152.724088213756
 21
-1911.993405936845
 31
0.0
  0
LINE
  5
2EC
330
1F
100
AcDbEntity
  8
1-E
  6
Continuous
 62
     7
370
     9
100
AcDbLine
 10
4152.724088213756
 20
-1911.993405936845
 30
0.0
 11
4149.589230682539
 21
-1911.221764849957
 31
0.0
  0
LINE
  5
2ED
330
1F
100
AcDbEntity
  8
1-E
  6
Continuous
 62
     7
370
     9
100
AcDbLine
 10
4149.589230682539
 20
-1911.221764849957
 30
0.0
 11
4146.928906173463
 21
-1910.432276282147
 31
0.0
  0
LINE
  5
2EE
330
1F
100
AcDbEntity
  8
1-E
  6
Continuous
 62
     7
370
     9
100
AcDbLine
 10
4146.928906173463
 20
-1910.432276282147
 30
0.0
 11
4144.742852223564
 21
-1909.623890381599
 31
0.0
  0
LINE
  5
2EF
330
1F
100
AcDbEntity
  8
1-E
  6
Continuous
 62
     7
370
     9
100
AcDbLine
 10
4144.742852223564
 20
-1909.623890381599
 30
0.0
 11
4143.030806369907
 21
-1908.798181926037
 31
0.0
  0
LINE
  5
2F0
330
1F
100
AcDbEntity
  8
1-E
  6
Continuous
 62
     7
370
     9
100
AcDbLine
 10
4143.030806369907
 20
-1908.798181926037
 30
0.0
 11
4141.793293538378
 21
-1907.953576137736
 31
0.0
  0
LINE
  5
2F1
330
1F
100
AcDbEntity
  8
1-E
  6
Continuous
 62
     7
370
     9
100
AcDbLine
 10
4141.793293538378
 20
-1907.953576137736
 30
0.0
 11
4141.029788803091
 21
-1907.091122868514
 31
0.0
  0
LINE
  5
2F2
330
1F
100
AcDbEntity
  8
1-E
  6
Continuous
 62
     7
370
     9
100
AcDbLine
 10
4141.029788803091
 20
-1907.091122868514
 30
0.0
 11
4140.640818704194
 21
-1906.233393932477
 31
0.0
  0
LINE
  5
2F3
330
1F
100
AcDbEntity
  8
1-E
  6
Continuous
 62
     7
370
     9
100
AcDbLine
 10
4140.640818704194
 20
-1906.233393932477
 30
0.0
 11
4140.526384855932
 21
-1905.402436217823
 31
0.0
  0
LINE
  5
2F4
330
1F
100
AcDbEntity
  8
1-E
  6
Continuous
 62
     7
370
     9
100
AcDbLine
 10
4140.526384855932
 20
-1905.402436217823
 30
0.0
 11
4140.686224795359
 21
-1904.598774650458
 31
0.0
  0
LINE
  5
2F5
330
1F
100
AcDbEntity
  8
1-E
  6
Continuous
 62
     7
370
     9
100
AcDbLine
 10
4140.686224795359
 20
-1904.598774650458
 30
0.0
 11
4141.120600985428
 21
-1903.821359378566
 31
0.0
  0
LINE
  5
2F6
330
1F
100
AcDbEntity
  8
1-E
  6
Continuous
 62
     7
370
     9
100
AcDbLine
 10
4141.120600985428
 20
-1903.821359378566
 30
0.0
 11
4141.829250963178
 21
-1903.071765179876
 31
0.0
  0
LINE
  5
2F7
330
1F
100
AcDbEntity
  8
1-E
  6
Continuous
 62
     7
370
     9
100
AcDbLine
 10
4141.829250963178
 20
-1903.071765179876
 30
0.0
 11
4142.812699654525
 21
-1902.348942202568
 31
0.0
  0
LINE
  5
2F8
330
1F
100
AcDbEntity
  8
1-E
  6
Continuous
 62
     7
370
     9
100
AcDbLine
 10
4142.812699654525
 20
-1902.348942202568
 30
0.0
 11
4144.070159670608
 21
-1901.652890446639
 31
0.0
  0
LINE
  5
2F9
330
1F
100
AcDbEntity
  8
1-E
  6
Continuous
 62
     7
370
     9
100
AcDbLine
 10
4144.070159670608
 20
-1901.652890446639
 30
0.0
 11
4145.602418400293
 21
-1900.984134838003
 31
0.0
  0
LINE
  5
2FA
330
1F
100
AcDbEntity
  8
1-E
  6
Continuous
 62
     7
370
     9
100
AcDbLine
 10
4145.602418400293
 20
-1900.984134838003
 30
0.0
 11
4147.239924774808
 21
-1900.354223746667
 31
0.0
  0
LINE
  5
2FB
330
1F
100
AcDbEntity
  8
1-E
  6
Continuous
 62
     7
370
     9
100
AcDbLine
 10
4147.239924774808
 20
-1900.354223746667
 30
0.0
 11
4148.813915114286
 21
-1899.775230468546
 31
0.0
  0
LINE
  5
2FC
330
1F
100
AcDbEntity
  8
1-E
  6
Continuous
 62
     7
370
     9
100
AcDbLine
 10
4148.813915114286
 20
-1899.775230468546
 30
0.0
 11
4150.324126955764
 21
-1899.247155003642
 31
0.0
  0
LINE
  5
2FD
330
1F
100
AcDbEntity
  8
1-E
  6
Continuous
 62
     7
370
     9
100
AcDbLine
 10
4150.324126955764
 20
-1899.247155003642
 30
0.0
 11
4151.770822762202
 21
-1898.769997351955
 31
0.0
  0
LINE
  5
2FE
330
1F
100
AcDbEntity
  8
1-E
  6
Continuous
 62
     7
370
     9
100
AcDbLine
 10
4151.770822762202
 20
-1898.769997351955
 30
0.0
 11
4153.154002533597
 21
-1898.343757513483
 31
0.0
  0
LINE
  5
2FF
330
1F
100
AcDbEntity
  8
1-E
  6
Continuous
 62
     7
370
     9
100
AcDbLine
 10
4153.154002533597
 20
-1898.343757513483
 30
0.0
 11
4154.473666269952
 21
-1897.968435488228
 31
0.0
  0
LINE
  5
300
330
1F
100
AcDbEntity
  8
1-E
  6
Continuous
 62
     7
370
     9
100
AcDbLine
 10
4154.473666269952
 20
-1897.968435488228
 30
0.0
 11
4155.729551508302
 21
-1897.643506350281
 31
0.0
  0
LINE
  5
301
330
1F
100
AcDbEntity
  8
1-E
  6
Continuous
 62
     7
370
     9
100
AcDbLine
 10
4155.729551508302
 20
-1897.643506350281
 30
0.0
 11
4156.921920711613
 21
-1897.370019951458
 31
0.0
  0
LINE
  5
302
330
1F
100
AcDbEntity
  8
1-E
  6
Continuous
 62
     7
370
     9
100
AcDbLine
 10
4156.921920711613
 20
-1897.370019951458
 30
0.0
 11
4158.040537824645
 21
-1897.13170358857
 31
0.0
  0
LINE
  5
303
330
1F
100
AcDbEntity
  8
1-E
  6
Continuous
 62
     7
370
     9
100
AcDbLine
 10
4158.040537824645
 20
-1897.13170358857
 30
0.0
 11
4159.074904329209
 21
-1896.913334410239
 31
0.0
  0
LINE
  5
304
330
1F
100
AcDbEntity
  8
1-E
  6
Continuous
 62
     7
370
     9
100
AcDbLine
 10
4159.074904329209
 20
-1896.913334410239
 30
0.0
 11
4160.02554515122
 21
-1896.714912416468
 31
0.0
  0
LINE
  5
305
330
1F
100
AcDbEntity
  8
1-E
  6
Continuous
 62
     7
370
     9
100
AcDbLine
 10
4160.02554515122
 20
-1896.714912416468
 30
0.0
 11
4160.891672901809
 21
-1896.536437607256
 31
0.0
  0
LINE
  5
306
330
1F
100
AcDbEntity
  8
1-E
  6
Continuous
 62
     7
370
     9
100
AcDbLine
 10
4160.891672901809
 20
-1896.536437607256
 30
0.0
 11
4161.67407496984
 21
-1896.377909982602
 31
0.0
  0
LINE
  5
307
330
1F
100
AcDbEntity
  8
1-E
  6
Continuous
 62
     7
370
     9
100
AcDbLine
 10
4161.67407496984
 20
-1896.377909982602
 30
0.0
 11
4162.372226429402
 21
-1896.239329542508
 31
0.0
  0
LINE
  5
308
330
1F
100
AcDbEntity
  8
1-E
  6
Continuous
 62
     7
370
     9
100
AcDbLine
 10
4162.372226429402
 20
-1896.239329542508
 30
0.0
 11
4162.986389743457
 21
-1896.120696286974
 31
0.0
  0
LINE
  5
309
330
1F
100
AcDbEntity
  8
1-E
  6
Continuous
 62
     7
370
     9
100
AcDbLine
 10
4162.986389743457
 20
-1896.120696286974
 30
0.0
 11
4163.516302449045
 21
-1896.022010215998
 31
0.0
  0
LINE
  5
30A
330
1F
100
AcDbEntity
  8
1-E
  6
Continuous
 62
     7
370
     9
100
AcDbLine
 10
4163.516302449045
 20
-1896.022010215998
 30
0.0
 11
4166.731736107366
 21
-1895.455090233793
 31
0.0
  0
LINE
  5
30B
330
1F
100
AcDbEntity
  8
1-E
  6
Continuous
 62
     7
370
     9
100
AcDbLine
 10
4166.731736107366
 20
-1895.455090233793
 30
0.0
 11
4170.249264626573
 21
-1894.834627808827
 31
0.0
  0
LINE
  5
30C
330
1F
100
AcDbEntity
  8
1-E
  6
Continuous
 62
     7
370
     9
100
AcDbLine
 10
4170.249264626573
 20
-1894.834627808827
 30
0.0
 11
4174.069675395531
 21
-1894.161672792915
 31
0.0
  0
LINE
  5
30D
330
1F
100
AcDbEntity
  8
1-E
  6
Continuous
 62
     7
370
     9
100
AcDbLine
 10
4174.069675395531
 20
-1894.161672792915
 30
0.0
 11
4178.192181025377
 21
-1893.434650408331
 31
0.0
  0
LINE
  5
30E
330
1F
100
AcDbEntity
  8
1-E
  6
Continuous
 62
     7
370
     9
100
AcDbLine
 10
4178.192181025377
 20
-1893.434650408331
 30
0.0
 11
4182.617568904972
 21
-1892.654610506892
 31
0.0
  0
LINE
  5
30F
330
1F
100
AcDbEntity
  8
1-E
  6
Continuous
 62
     7
370
     9
100
AcDbLine
 10
4063.998666260477
 20
-1888.481604458229
 30
0.0
 11
4070.338060990475
 21
-1887.255404359191
 31
0.0
  0
LINE
  5
310
330
1F
100
AcDbEntity
  8
1-E
  6
Continuous
 62
     7
370
     9
100
AcDbLine
 10
4276.462230153418
 20
-1925.668698046505
 30
0.0
 11
4283.22176392626
 21
-1924.516034085241
 31
0.0
  0
LINE
  5
311
330
1F
100
AcDbEntity
  8
1-E
  6
Continuous
 62
     7
370
     9
100
AcDbLine
 10
4276.462230153418
 20
-1925.668698046505
 30
0.0
 11
4329.051119101297
 21
-1934.873231281171
 31
0.0
  0
LINE
  5
312
330
1F
100
AcDbEntity
  8
1-E
  6
Continuous
 62
     7
370
     9
100
AcDbLine
 10
4283.22176392626
 20
-1924.516034085241
 30
0.0
 11
4335.810652874141
 21
-1933.720567319907
 31
0.0
  0
LINE
  5
313
330
1F
100
AcDbEntity
  8
1-E
  6
Continuous
 62
     7
370
     9
100
AcDbLine
 10
4275.968775702075
 20
-1847.58348969622
 30
0.0
 11
4275.968775702075
 21
-1872.63947688554
 31
0.0
  0
ELLIPSE
  5
314
330
1F
100
AcDbEntity
  8
1-E
  6
Continuous
 62
     7
370
     9
100
AcDbEllipse
 10
4239.071015273819
 20
-1872.63947688554
 30
0.0
 11
36.89776042825396
 21
0.0
 31
0.0
210
0.0
220
0.0
230
1.0
 40
0.5
 41
3.141592653589793
 42
6.283185307179586
  0
LINE
  5
315
330
1F
100
AcDbEntity
  8
1-E
  6
Continuous
 62
     7
370
     9
100
AcDbLine
 10
4202.173254845564
 20
-1847.58348969622
 30
0.0
 11
4202.173254845564
 21
-1872.63947688554
 31
0.0
  0
LINE
  5
316
330
1F
100
AcDbEntity
  8
1-E
  6
Continuous
 62
     7
370
     9
100
AcDbLine
 10
4219.533770875723
 20
-1804.058140436271
 30
0.0
 11
4065.279568051426
 21
-1832.625133354307
 31
0.0
  0
LINE
  5
317
330
1F
100
AcDbEntity
  8
1-E
  6
Continuous
 62
     7
370
     9
100
AcDbLine
 10
4219.533770875723
 20
-1804.058140436271
 30
0.0
 11
4238.054469275801
 21
-1817.287323206163
 31
0.0
  0
LINE
  5
318
330
1F
100
AcDbEntity
  8
1-E
  6
Continuous
 62
     7
370
     9
100
AcDbLine
 10
4218.210695120963
 20
-1681.027055631809
 30
0.0
 11
4219.533770875723
 21
-1804.058140436271
 31
0.0
  0
LINE
  5
319
330
1F
100
AcDbEntity
  8
1-E
  6
Continuous
 62
     7
370
     9
100
AcDbLine
 10
4238.054469275801
 20
-1694.297707548549
 30
0.0
 11
4427.536712346071
 21
-1659.602204637714
 31
0.0
  0
LINE
  5
31A
330
1F
100
AcDbEntity
  8
1-E
  6
Continuous
 62
     7
370
     9
100
AcDbLine
 10
4253.712484228708
 20
-1673.596204457672
 30
0.0
 11
4218.210695120963
 21
-1681.027055631809
 31
0.0
  0
LINE
  5
31B
330
1F
100
AcDbEntity
  8
1-E
  6
Continuous
 62
     7
370
     9
100
AcDbLine
 10
4253.712484228708
 20
-1673.596204457672
 30
0.0
 11
4278.848036476686
 21
-1678.381429048195
 31
0.0
  0
LINE
  5
31C
330
1F
100
AcDbEntity
  8
1-E
  6
Continuous
 62
     7
370
     9
100
AcDbLine
 10
4383.446347970901
 20
-1658.537654893354
 30
0.0
 11
4399.321419787366
 21
-1650.599725290692
 31
0.0
  0
LINE
  5
31D
330
1F
100
AcDbEntity
  8
1-E
  6
Continuous
 62
     7
370
     9
100
AcDbLine
 10
4399.321419787366
 20
-1650.599725290692
 30
0.0
 11
4439.132850611675
 21
-1646.631285415269
 31
0.0
  0
LINE
  5
31E
330
1F
100
AcDbEntity
  8
1-E
  6
Continuous
 62
     7
370
     9
100
AcDbLine
 10
4439.132850611675
 20
-1646.631285415269
 30
0.0
 11
4439.132850611675
 21
-1765.347140582196
 31
0.0
  0
LINE
  5
31F
330
1F
100
AcDbEntity
  8
1-E
  6
Continuous
 62
     7
370
     9
100
AcDbLine
 10
4278.368254195452
 20
-1290.037041831737
 30
0.0
 11
4278.848036476686
 21
-1678.381429048195
 31
0.0
  0
LINE
  5
320
330
1F
100
AcDbEntity
  8
1-E
  6
Continuous
 62
     7
370
     9
100
AcDbLine
 10
4253.712484228708
 20
-1673.596204457672
 30
0.0
 11
4253.712484228708
 21
-1294.214897001412
 31
0.0
  0
LINE
  5
321
330
1F
100
AcDbEntity
  8
1-E
  6
Continuous
 62
     7
370
     9
100
AcDbLine
 10
4383.446347970901
 20
-1272.820690119036
 30
0.0
 11
4383.446347970901
 21
-1658.537654893354
 31
0.0
  0
LINE
  5
322
330
1F
100
AcDbEntity
  8
1-E
  6
Continuous
 62
     7
370
     9
100
AcDbLine
 10
4399.321419787366
 20
-1650.599725290692
 30
0.0
 11
4399.321419787366
 21
-1270.20275706041
 31
0.0
  0
ELLIPSE
  5
323
330
1F
100
AcDbEntity
  8
1-E
  6
Continuous
 62
     7
370
     9
100
AcDbEllipse
 10
4534.00677956969
 20
-1640.184258651484
 30
0.0
 11
2.171034762115338E-15
 21
35.45685934649716
 31
0.0
210
0.0
220
0.0
230
1.0
 40
0.8
 41
0.0
 42
6.283185307179586
  0
ELLIPSE
  5
324
330
1F
100
AcDbEntity
  8
1-E
  6
Continuous
 62
     7
370
     9
100
AcDbEllipse
 10
4534.00677956969
 20
-1640.184258651484
 30
0.0
 11
1.068889043675199E-15
 21
17.45685934649716
 31
0.0
210
0.0
220
0.0
230
1.0
 40
0.5937773382631759
 41
0.0
 42
6.283185307179586
  0
LINE
  5
325
330
1F
100
AcDbEntity
  8
1-E
  6
Continuous
 62
     7
370
     9
100
AcDbLine
 10
4506.685488497859
 20
-1668.922452089816
 30
0.0
 11
4526.104844773658
 21
-1674.237532775878
 31
0.0
  0
ELLIPSE
  5
326
330
1F
100
AcDbEntity
  8
1-E
  6
Continuous
 62
     7
370
     9
100
AcDbEllipse
 10
4511.16724700759
 20
-1633.910964678549
 30
0.0
 11
2.171034762115338E-15
 21
35.45685934649716
 31
0.0
210
0.0
220
0.0
230
1.0
 40
0.8
 41
5.997256757456505
 42
9.266112668701924
  0
ELLIPSE
  5
327
330
1F
100
AcDbEntity
  8
1-E
  6
Continuous
 62
     7
370
     9
100
AcDbEllipse
 10
4144.459241405255
 20
-1705.824094522094
 30
0.0
 11
2.171034762115338E-15
 21
35.45685934649716
 31
0.0
210
0.0
220
0.0
230
1.0
 40
0.8
 41
0.0
 42
6.283185307179586
  0
ELLIPSE
  5
328
330
1F
100
AcDbEntity
  8
1-E
  6
Continuous
 62
     7
370
     9
100
AcDbEllipse
 10
4144.459241405255
 20
-1705.824094522094
 30
0.0
 11
1.068889043675199E-15
 21
17.45685934649716
 31
0.0
210
0.0
220
0.0
230
1.0
 40
0.5937773382631759
 41
0.0
 42
6.283185307179586
  0
LINE
  5
329
330
1F
100
AcDbEntity
  8
1-E
  6
Continuous
 62
     7
370
     9
100
AcDbLine
 10
4117.137950333425
 20
-1734.562287960425
 30
0.0
 11
4136.557306609216
 21
-1739.877368646488
 31
0.0
  0
ELLIPSE
  5
32A
330
1F
100
AcDbEntity
  8
1-E
  6
Continuous
 62
     7
370
     9
100
AcDbEllipse
 10
4121.619708843147
 20
-1699.550800549157
 30
0.0
 11
2.171034762115338E-15
 21
35.45685934649716
 31
0.0
210
0.0
220
0.0
230
1.0
 40
0.8
 41
5.997256757456505
 42
9.266112668701924
  0
LINE
  5
32B
330
1F
100
AcDbEntity
  8
1-E
  6
Continuous
 62
     7
370
     9
100
AcDbLine
 10
4129.62014986851
 20
-1665.533483653503
 30
0.0
 11
4149.039506144301
 21
-1670.848564339568
 31
0.0
  0
LINE
  5
32C
330
1F
100
AcDbEntity
  8
1-E
  6
Continuous
 62
     7
370
     9
100
AcDbLine
 10
4519.167688032946
 20
-1599.893647782895
 30
0.0
 11
4538.587044308744
 21
-1605.208728468958
 31
0.0
  0
LINE
  5
32D
330
1F
100
AcDbEntity
  8
1-E
  6
Continuous
 62
     7
370
     9
100
AcDbLine
 10
4028.562129271415
 20
-1879.943442467424
 30
0.0
 11
4070.338060990475
 21
-1887.255404359191
 31
0.0
  0
LINE
  5
32E
330
1F
100
AcDbEntity
  8
1-E
  6
Continuous
 62
     7
370
     9
100
AcDbLine
 10
4021.7631445846
 20
-1881.089201410233
 30
0.0
 11
4063.998666260477
 21
-1888.481604458229
 31
0.0
  0
LINE
  5
32F
330
1F
100
AcDbEntity
  8
1-E
  6
Continuous
 62
     7
370
     9
100
AcDbLine
 10
4312.355107128531
 20
-1832.118898470907
 30
0.0
 11
4271.700383756735
 21
-1838.969996835785
 31
0.0
  0
LINE
  5
330
330
1F
100
AcDbEntity
  8
1-E
  6
Continuous
 62
     7
370
     9
100
AcDbLine
 10
4312.355107128531
 20
-1832.118898470907
 30
0.0
 11
4306.918711947342
 21
-1870.74157841701
 31
0.0
  0
LINE
  5
331
330
1F
100
AcDbEntity
  8
1-E
  6
Continuous
 62
     7
370
     9
100
AcDbLine
 10
4275.222146830703
 20
-1876.332050912488
 30
0.0
 11
4306.918711947342
 21
-1870.74157841701
 31
0.0
  0
LINE
  5
332
330
1F
100
AcDbEntity
  8
1-E
  6
Continuous
 62
     7
370
     9
100
AcDbLine
 10
4182.619372840336
 20
-1892.664838364158
 30
0.0
 11
4215.554652018282
 21
-1886.855888034757
 31
0.0
  0
LINE
  5
333
330
1F
100
AcDbEntity
  8
1-E
  6
Continuous
 62
     7
370
     9
100
AcDbLine
 10
4159.419449635718
 20
-1913.303114000367
 30
0.0
 11
4306.918711947103
 21
-1887.287974315021
 31
0.0
  0
LINE
  5
334
330
1F
100
AcDbEntity
  8
1-E
  6
Continuous
 62
     7
370
     9
100
AcDbLine
 10
4306.918711947342
 20
-1870.74157841701
 30
0.0
 11
4306.918711947103
 21
-1887.287974315021
 31
0.0
  0
LINE
  5
335
330
1F
100
AcDbEntity
  8
1-E
  6
Continuous
 62
     7
370
     9
100
AcDbLine
 10
4312.355107128531
 20
-1848.665294369292
 30
0.0
 11
4312.355107128531
 21
-1832.118898470907
 31
0.0
  0
LINE
  5
336
330
1F
100
AcDbEntity
  8
1-E
  6
Continuous
 62
     7
370
     9
100
AcDbLine
 10
4402.979890913257
 20
-1886.027420900119
 30
0.0
 11
4264.839015081845
 21
-1910.385304438043
 31
0.0
  0
ELLIPSE
  5
337
330
1F
100
AcDbEntity
  8
1-E
  6
Continuous
 62
     7
370
     9
100
AcDbEllipse
 10
4239.071015273819
 20
-1847.58348969622
 30
0.0
 11
18.52285489353675
 21
0.0
 31
0.0
210
0.0
220
0.0
230
1.0
 40
0.5
 41
3.141592653589793
 42
6.283185307179586
  0
ARC
  5
338
330
1F
100
AcDbEntity
  8
1-E
  6
Continuous
 62
     7
370
     9
100
AcDbCircle
 10
4139.78316585378
 20
-1784.549682740407
 30
0.0
 40
180.0
100
AcDbArc
 50
260.070167268476
 51
279.6772325660855
  0
LINE
  5
339
330
1F
100
AcDbEntity
  8
1-E
  6
Continuous
 62
     7
370
     9
100
AcDbLine
 10
4171.617882130033
 20
-1997.388895381559
 30
0.0
 11
4639.039615433969
 21
-1916.475953291436
 31
0.0
  0
LINE
  5
33A
330
1F
100
AcDbEntity
  8
1-E
  6
Continuous
 62
     7
370
     9
100
AcDbLine
 10
4109.662054751196
 20
-1997.292577477481
 30
0.0
 11
3816.880953219547
 21
-1945.672652286989
 31
0.0
  0
ARC
  5
33B
330
1F
100
AcDbEntity
  8
1-E
  6
Continuous
 62
     7
370
     9
100
AcDbCircle
 10
4140.915624877363
 20
-1820.026635022737
 30
0.0
 40
180.0
100
AcDbArc
 50
260.0010025806856
 51
279.8208509823177
  0
ELLIPSE
  5
33C
330
1F
100
AcDbEntity
  8
1-E
  6
Continuous
 62
     7
370
     9
100
AcDbEllipse
 10
4403.959072794312
 20
-1904.586817053546
 30
0.0
 11
19.86135961083638
 21
0.0
 31
0.0
210
0.0
220
0.0
230
1.0
 40
0.5
 41
0.0
 42
6.283185307179586
  0
ELLIPSE
  5
33D
330
1F
100
AcDbEntity
  8
1-E
  6
Continuous
 62
     7
370
     9
100
AcDbEllipse
 10
4404.718984789941
 20
-1910.159505021516
 30
0.0
 11
13.10465733292201
 21
0.0
 31
0.0
210
0.0
220
0.0
230
1.0
 40
0.4
 41
0.0
 42
6.283185307179586
  0
ELLIPSE
  5
33E
330
1F
100
AcDbEntity
  8
1-E
  6
Continuous
 62
     7
370
     9
100
AcDbEllipse
 10
4081.352683398547
 20
-1920.362906712871
 30
0.0
 11
19.86135961083638
 21
0.0
 31
0.0
210
0.0
220
0.0
230
1.0
 40
0.5
 41
0.0
 42
6.283185307179586
  0
ELLIPSE
  5
33F
330
1F
100
AcDbEntity
  8
1-E
  6
Continuous
 62
     7
370
     9
100
AcDbEllipse
 10
4082.112595394176
 20
-1925.93559468084
 30
0.0
 11
13.10465733292201
 21
0.0
 31
0.0
210
0.0
220
0.0
230
1.0
 40
0.4
 41
0.0
 42
6.283185307179586
  0
LINE
  5
340
330
1F
100
AcDbEntity
  8
1-E
  6
Continuous
 62
     7
370
     9
100
AcDbLine
 10
3834.45855913503
 20
-1913.835641956485
 30
0.0
 11
4108.743605300524
 21
-1961.853223823661
 31
0.0
  0
LINE
  5
341
330
1F
100
AcDbEntity
  8
1-E
  6
Continuous
 62
     7
370
     9
100
AcDbLine
 10
3834.46231870628
 20
-1912.652972492375
 30
0.0
 11
4202.173254845564
 21
-1850.686647686947
 31
0.0
  0
LINE
  5
342
330
1F
100
AcDbEntity
  8
1-E
  6
Continuous
 62
     7
370
     9
100
AcDbLine
 10
4220.548160380285
 20
-1847.58348969622
 30
0.0
 11
4220.548160380285
 21
-1838.073461631167
 31
0.0
  0
LINE
  5
343
330
1F
100
AcDbEntity
  8
1-E
  6
Continuous
 62
     7
370
     9
100
AcDbLine
 10
4257.593870167359
 20
-1847.58348969622
 30
0.0
 11
4257.593870167359
 21
-1831.541302402206
 31
0.0
  0
ELLIPSE
  5
344
330
1F
100
AcDbEntity
  8
1-E
  6
Continuous
 62
     7
370
     9
100
AcDbEllipse
 10
4239.071015273819
 20
-1847.58348969622
 30
0.0
 11
36.89776042825396
 21
0.0
 31
0.0
210
0.0
220
0.0
230
1.0
 40
0.5
 41
2.768968464067914
 42
7.32806629937406
  0
LINE
  5
345
330
1F
100
AcDbEntity
  8
1-E
  6
Continuous
 62
     7
370
     9
100
AcDbLine
 10
4335.810652874141
 20
-1933.720567319907
 30
0.0
 11
4335.810652874141
 21
-1968.966339894188
 31
0.0
  0
LINE
  5
346
330
1F
100
AcDbEntity
  8
1-E
  6
Continuous
 62
     7
370
     9
100
AcDbLine
 10
4329.051119101297
 20
-1934.873231281171
 30
0.0
 11
4329.051119101297
 21
-1970.136447584415
 31
0.0
  0
LINE
  5
347
330
1F
100
AcDbEntity
  8
1-E
  6
Continuous
 62
     7
370
     9
100
AcDbLine
 10
4001.429155203971
 20
-1862.609426227852
 30
0.0
 11
4047.471633471753
 21
-1868.592171477734
 31
0.0
  0
LINE
  5
348
330
1F
100
AcDbEntity
  8
1-E
  6
Continuous
 62
     7
370
     9
100
AcDbLine
 10
4065.279568051426
 20
-1478.036669294103
 30
0.0
 11
4065.279568051426
 21
-1850.619068604255
 31
0.0
  0
ARC
  5
349
330
1F
100
AcDbEntity
  8
1-E
  6
Continuous
 62
     7
370
     9
100
AcDbCircle
 10
4245.279568051426
 20
-1478.036669294103
 30
0.0
 40
180.0
100
AcDbArc
 50
99.36427710995552
 51
180.0
  0
LINE
  5
34A
330
1F
100
AcDbEntity
  8
1-E
  6
Continuous
 62
     7
370
     9
100
AcDbLine
 10
4047.471719036373
 20
-1466.122603395493
 30
0.0
 11
4047.471719036373
 21
-1868.592006817824
 31
0.0
  0
ARC
  5
34B
330
1F
100
AcDbEntity
  8
1-E
  6
Continuous
 62
     7
370
     9
100
AcDbCircle
 10
4227.471719036374
 20
-1466.122603395493
 30
0.0
 40
180.0
100
AcDbArc
 50
100.4830549659711
 51
180.0
  0
LINE
  5
34C
330
1F
100
AcDbEntity
  8
1-E
  6
Continuous
 62
     7
370
     9
100
AcDbLine
 10
4000.859610592217
 20
-1441.523140728148
 30
0.0
 11
4000.859610592217
 21
-1862.535411674619
 31
0.0
  0
ARC
  5
34D
330
1F
100
AcDbEntity
  8
1-E
  6
Continuous
 62
     7
370
     9
100
AcDbCircle
 10
4180.859610592217
 20
-1441.523140728148
 30
0.0
 40
180.0
100
AcDbArc
 50
99.74095296447314
 51
180.0
  0
LINE
  5
34E
330
1F
100
AcDbEntity
  8
1-E
  6
Continuous
 62
     7
370
     9
100
AcDbLine
 10
4406.296169103396
 20
-1249.978729069422
 30
0.0
 11
4194.721668861132
 21
-1289.127026576411
 31
0.0
  0
LINE
  5
34F
330
1F
100
AcDbEntity
  8
1-E
  6
Continuous
 62
     7
370
     9
100
AcDbLine
 10
4619.046219278629
 20
-1426.974305888505
 30
0.0
 11
4619.046219278629
 21
-1767.807490534453
 31
0.0
  0
LINE
  5
350
330
1F
100
AcDbEntity
  8
1-E
  6
Continuous
 62
     7
370
     9
100
AcDbLine
 10
4388.488320088343
 20
-1268.517776426013
 30
0.0
 11
4215.991620244711
 21
-1300.435385196067
 31
0.0
  0
LINE
  5
351
330
1F
100
AcDbEntity
  8
1-E
  6
Continuous
 62
     7
370
     9
100
AcDbLine
 10
4601.238370263583
 20
-1445.513353245093
 30
0.0
 11
4601.238370263583
 21
-1752.609102199513
 31
0.0
  0
ARC
  5
352
330
1F
100
AcDbEntity
  8
1-E
  6
Continuous
 62
     7
370
     9
100
AcDbCircle
 10
4421.238370263583
 20
-1445.513353245093
 30
0.0
 40
180.0
100
AcDbArc
 50
0.0
 51
100.4830549659711
  0
LINE
  5
353
330
1F
100
AcDbEntity
  8
1-E
  6
Continuous
 62
     7
370
     9
100
AcDbLine
 10
4150.4047118525
 20
-1264.118239040645
 30
0.0
 11
4307.528788881516
 21
-1237.144926522368
 31
0.0
  0
ARC
  5
354
330
1F
100
AcDbEntity
  8
1-E
  6
Continuous
 62
     7
370
     9
100
AcDbCircle
 10
4340.278839056757
 20
-1414.140503341449
 30
0.0
 40
180.0
100
AcDbArc
 50
82.78560205276084
 51
100.4830549659711
  0
LINE
  5
355
330
1F
100
AcDbEntity
  8
1-E
  6
Continuous
 62
     7
370
     9
100
AcDbLine
 10
4362.883696199169
 20
-1235.565531876883
 30
0.0
 11
4462.829418693589
 21
-1248.552447850908
 31
0.0
  0
ARC
  5
356
330
1F
100
AcDbEntity
  8
1-E
  6
Continuous
 62
     7
370
     9
100
AcDbCircle
 10
4439.04621927863
 20
-1426.974305888505
 30
0.0
 40
180.0
100
AcDbArc
 50
0.0
 51
82.48094193237357
  0
ARC
  5
357
330
1F
100
AcDbEntity
  8
1-E
  6
Continuous
 62
     7
370
     9
100
AcDbCircle
 10
4439.04621927863
 20
-1426.974305888505
 30
0.0
 40
180.0
100
AcDbArc
 50
82.48094193237357
 51
100.4830549659711
  0
ARC
  5
358
330
1F
100
AcDbEntity
  8
1-E
  6
Continuous
 62
     7
370
     9
100
AcDbCircle
 10
4219.864018025687
 20
-1385.86368458106
 30
0.0
 40
12.0
100
AcDbArc
 50
0.0
 51
139.3154869822215
  0
LINE
  5
359
330
1F
100
AcDbEntity
  8
1-E
  6
Continuous
 62
     7
370
     9
100
AcDbLine
 10
4231.864018025683
 20
-1577.094200185564
 30
0.0
 11
4231.864018025683
 21
-1385.86368458106
 31
0.0
  0
ARC
  5
35A
330
1F
100
AcDbEntity
  8
1-E
  6
Continuous
 62
     7
370
     9
100
AcDbCircle
 10
4219.864018025687
 20
-1577.094200185564
 30
0.0
 40
12.0
100
AcDbArc
 50
226.7801567871272
 51
0.0
  0
LINE
  5
35B
330
1F
100
AcDbEntity
  8
1-E
  6
Continuous
 62
     7
370
     9
100
AcDbLine
 10
4187.18626250869
 20
-1405.467942407943
 30
0.0
 11
4210.76429118645
 21
-1378.040963094822
 31
0.0
  0
LINE
  5
35C
330
1F
100
AcDbEntity
  8
1-E
  6
Continuous
 62
     7
370
     9
100
AcDbLine
 10
4196.0075875247
 20
-1571.142937860812
 30
0.0
 11
4211.646423688046
 21
-1585.838978244614
 31
0.0
  0
ARC
  5
35D
330
1F
100
AcDbEntity
  8
1-E
  6
Continuous
 62
     7
370
     9
100
AcDbCircle
 10
4278.183530901077
 20
-1483.695157270318
 30
0.0
 40
120.0
100
AcDbArc
 50
139.3154869822216
 51
226.7801567871272
  0
ARC
  5
35E
330
1F
100
AcDbEntity
  8
1-E
  6
Continuous
 62
     7
370
     9
100
AcDbCircle
 10
4197.37537228544
 20
-1557.210022624775
 30
0.0
 40
12.0
100
AcDbArc
 50
249.9839863783417
 51
0.0
  0
LINE
  5
35F
330
1F
100
AcDbEntity
  8
1-E
  6
Continuous
 62
     7
370
     9
100
AcDbLine
 10
4209.375372285442
 20
-1557.210022624775
 30
0.0
 11
4209.375372285442
 21
-1379.656613431255
 31
0.0
  0
ARC
  5
360
330
1F
100
AcDbEntity
  8
1-E
  6
Continuous
 62
     7
370
     9
100
AcDbCircle
 10
4340.846961782865
 20
-1449.00271283999
 30
0.0
 40
120.0
100
AcDbArc
 50
313.2198432128728
 51
40.68451301777836
  0
ARC
  5
361
330
1F
100
AcDbEntity
  8
1-E
  6
Continuous
 62
     7
370
     9
100
AcDbCircle
 10
4425.146794633676
 20
-1352.221117197085
 30
0.0
 40
12.0
100
AcDbArc
 50
40.68451301777846
 51
180.0
  0
LINE
  5
362
330
1F
100
AcDbEntity
  8
1-E
  6
Continuous
 62
     7
370
     9
100
AcDbLine
 10
4413.146794633674
 20
-1543.45163280159
 30
0.0
 11
4413.146794633674
 21
-1352.221117197085
 31
0.0
  0
ARC
  5
363
330
1F
100
AcDbEntity
  8
1-E
  6
Continuous
 62
     7
370
     9
100
AcDbCircle
 10
4425.146794633676
 20
-1543.45163280159
 30
0.0
 40
12.0
100
AcDbArc
 50
180.0
 51
313.2198432128728
  0
LINE
  5
364
330
1F
100
AcDbEntity
  8
1-E
  6
Continuous
 62
     7
370
     9
100
AcDbLine
 10
4457.824550150674
 20
-1371.825375023967
 30
0.0
 11
4434.246521472915
 21
-1344.398395710848
 31
0.0
  0
LINE
  5
365
330
1F
100
AcDbEntity
  8
1-E
  6
Continuous
 62
     7
370
     9
100
AcDbLine
 10
4449.003225134664
 20
-1537.500370476836
 30
0.0
 11
4433.364388971311
 21
-1552.196410860639
 31
0.0
  0
ARC
  5
366
330
1F
100
AcDbEntity
  8
1-E
  6
Continuous
 62
     7
370
     9
100
AcDbCircle
 10
4366.827281758287
 20
-1450.052589886342
 30
0.0
 40
120.0
100
AcDbArc
 50
313.2198432128728
 51
40.68451301777836
  0
LINE
  5
367
330
1F
100
AcDbEntity
  8
1-E
  6
Continuous
 62
     7
370
     9
100
AcDbLine
 10
4431.844230175246
 20
-1370.775497977615
 30
0.0
 11
4413.479905675575
 21
-1349.413324106524
 31
0.0
  0
LINE
  5
368
330
1F
100
AcDbEntity
  8
1-E
  6
Continuous
 62
     7
370
     9
100
AcDbLine
 10
4423.022905159234
 20
-1536.450493430485
 30
0.0
 11
4413.332822502323
 21
-1545.556404162007
 31
0.0
  0
LINE
  5
369
330
1F
100
AcDbEntity
  8
1-E
  6
Continuous
 62
     7
370
     9
100
AcDbLine
 10
4065.279568051426
 20
-1850.619068604255
 30
0.0
 11
4282.134448332425
 21
-1810.768035783573
 31
0.0
  0
LINE
  5
36A
330
1F
100
AcDbEntity
  8
1-E
  6
Continuous
 62
     7
370
     9
100
AcDbLine
 10
4047.471719036373
 20
-1868.591512982819
 30
0.0
 11
4309.663704942197
 21
-1822.359984140797
 31
0.0
  0
LINE
  5
36B
330
1F
100
AcDbEntity
  8
1-E
  6
Continuous
 62
     7
370
     9
100
AcDbLine
 10
4238.054469275801
 20
-1694.297707548549
 30
0.0
 11
4238.054469275801
 21
-1817.287323206163
 31
0.0
  0
LINE
  5
36C
330
1F
100
AcDbEntity
  8
1-E
  6
Continuous
 62
     7
370
     9
100
AcDbLine
 10
4393.080516665482
 20
-1759.59341270059
 30
0.0
 11
4238.048125417816
 21
-1694.312773324303
 31
0.0
  0
LINE
  5
36D
330
1F
100
AcDbEntity
  8
1-E
  6
Continuous
 62
     7
370
     9
100
AcDbLine
 10
4393.080516665482
 20
-1857.484920034536
 30
0.0
 11
4238.054469275801
 21
-1792.206951913604
 31
0.0
  0
LINE
  5
36E
330
1F
100
AcDbEntity
  8
1-E
  6
Continuous
 62
     7
370
     9
100
AcDbLine
 10
4434.722808834478
 20
-1731.944596576719
 30
0.0
 11
4434.722808834478
 21
-1829.836103910663
 31
0.0
  0
ARC
  5
36F
330
1F
100
AcDbEntity
  8
1-E
  6
Continuous
 62
     7
370
     9
100
AcDbCircle
 10
4404.722808834478
 20
-1829.836103910663
 30
0.0
 40
30.0
100
AcDbArc
 50
247.1651394203828
 51
0.0
  0
LINE
  5
370
330
1F
100
AcDbEntity
  8
1-E
  6
Continuous
 62
     7
370
     9
100
AcDbLine
 10
4434.722808834478
 20
-1766.178291736783
 30
0.0
 11
4577.501745564279
 21
-1739.266535433178
 31
0.0
  0
LINE
  5
371
330
1F
100
AcDbEntity
  8
1-E
  6
Continuous
 62
     7
370
     9
100
AcDbLine
 10
4601.238370263583
 20
-1752.609102199513
 30
0.0
 11
4434.722808834478
 21
-1784.507279763021
 31
0.0
  0
LINE
  5
372
330
1F
100
AcDbEntity
  8
1-E
  6
Continuous
 62
     7
370
     9
100
AcDbLine
 10
4434.722808834478
 20
-1800.308686315736
 30
0.0
 11
4619.046219278629
 21
-1767.807490534453
 31
0.0
  0
LINE
  5
373
330
1F
100
AcDbEntity
  8
1-E
  6
Continuous
 62
     7
370
     9
100
AcDbLine
 10
4307.817707988299
 20
-1667.23794628559
 30
0.0
 11
4286.185803400187
 21
-1671.765702990587
 31
0.0
  0
LINE
  5
374
330
1F
100
AcDbEntity
  8
1-E
  6
Continuous
 62
     7
370
     9
100
AcDbLine
 10
4379.581309391374
 20
-1652.217164083819
 30
0.0
 11
4357.949404803262
 21
-1656.744920788816
 31
0.0
  0
LINE
  5
375
330
1F
100
AcDbEntity
  8
1-E
  6
Continuous
 62
     7
370
     9
100
AcDbLine
 10
4307.817707988299
 20
-1640.067661174988
 30
0.0
 11
4307.817707988299
 21
-1667.23794628559
 31
0.0
  0
ARC
  5
376
330
1F
100
AcDbEntity
  8
1-E
  6
Continuous
 62
     7
370
     9
100
AcDbCircle
 10
4331.817707988304
 20
-1640.067661174988
 30
0.0
 40
24.0
100
AcDbArc
 50
101.82186584
 51
180.0
  0
LINE
  5
377
330
1F
100
AcDbEntity
  8
1-E
  6
Continuous
 62
     7
370
     9
100
AcDbLine
 10
4329.032534331614
 20
-1616.130534802728
 30
0.0
 11
4326.900837516655
 21
-1616.576718563738
 31
0.0
  0
LINE
  5
378
330
1F
100
AcDbEntity
  8
1-E
  6
Continuous
 62
     7
370
     9
100
AcDbLine
 10
4357.949404803262
 20
-1639.621477413977
 30
0.0
 11
4357.949404803262
 21
-1656.744920788816
 31
0.0
  0
ARC
  5
379
330
1F
100
AcDbEntity
  8
1-E
  6
Continuous
 62
     7
370
     9
100
AcDbCircle
 10
4333.949404803263
 20
-1639.621477413977
 30
0.0
 40
24.0
100
AcDbArc
 50
0.0
 51
101.82186584
  0
LINE
  5
37A
330
1F
100
AcDbEntity
  8
1-E
  6
Continuous
 62
     7
370
     9
100
AcDbLine
 10
4318.480194390915
 20
-1654.947826953249
 30
0.0
 11
4318.480194390915
 21
-1673.967026530669
 31
0.0
  0
ARC
  5
37B
330
1F
100
AcDbEntity
  8
1-E
  6
Continuous
 62
     7
370
     9
100
AcDbCircle
 10
4335.280194390914
 20
-1654.947826953249
 30
0.0
 40
16.8
100
AcDbArc
 50
101.82186584
 51
180.0
  0
LINE
  5
37C
330
1F
100
AcDbEntity
  8
1-E
  6
Continuous
 62
     7
370
     9
100
AcDbLine
 10
4333.330572831235
 20
-1638.191838492666
 30
0.0
 11
4331.83838506076
 21
-1638.504167125374
 31
0.0
  0
LINE
  5
37D
330
1F
100
AcDbEntity
  8
1-E
  6
Continuous
 62
     7
370
     9
100
AcDbLine
 10
4353.572382161381
 20
-1654.635498320542
 30
0.0
 11
4353.572382161381
 21
-1666.621908682929
 31
0.0
  0
ARC
  5
37E
330
1F
100
AcDbEntity
  8
1-E
  6
Continuous
 62
     7
370
     9
100
AcDbCircle
 10
4336.772382161382
 20
-1654.635498320542
 30
0.0
 40
16.8
100
AcDbArc
 50
0.0
 51
101.82186584
  0
LINE
  5
37F
330
1F
100
AcDbEntity
  8
1-E
  6
Continuous
 62
     7
370
     9
100
AcDbLine
 10
4368.714715373064
 20
-1663.45247898943
 30
0.0
 11
4353.572382161381
 21
-1666.621908682929
 31
0.0
  0
LINE
  5
380
330
1F
100
AcDbEntity
  8
1-E
  6
Continuous
 62
     7
370
     9
100
AcDbLine
 10
4318.480194390915
 20
-1673.967026530669
 30
0.0
 11
4303.337861179232
 21
-1677.136456224168
 31
0.0
  0
LINE
  5
381
330
1F
100
AcDbEntity
  8
1-E
  6
Continuous
 62
     7
370
     9
100
AcDbLine
 10
3816.880953219547
 20
-1945.672652286989
 30
0.0
 11
3834.051006612822
 21
-1912.930208643271
 31
0.0
  0
ARC
  5
382
330
1F
100
AcDbEntity
  8
1-E
  6
Continuous
 62
     7
370
     9
100
AcDbCircle
 10
3834.562024336876
 20
-1913.244630152873
 30
0.0
 40
0.6000000000000001
100
AcDbArc
 50
99.56556047057619
 51
260.070167268476
  0
LINE
  5
383
330
1F
100
AcDbEntity
  8
1-E
  6
Continuous
 62
     7
370
     9
100
AcDbLine
 10
4612.345607526933
 20
-1885.355684413617
 30
0.0
 11
4402.979890913257
 21
-1886.027420900119
 31
0.0
  0
LINE
  5
384
330
1F
100
AcDbEntity
  8
1-E
  6
Continuous
 62
     7
370
     9
100
AcDbLine
 10
4612.448391186915
 20
-1886.547143531422
 30
0.0
 11
4170.040748353513
 21
-1961.988344540116
 31
0.0
  0
ARC
  5
385
330
1F
100
AcDbEntity
  8
1-E
  6
Continuous
 62
     7
370
     9
100
AcDbCircle
 10
4612.34753257858
 20
-1885.955681325423
 30
0.0
 40
0.6000000000000001
100
AcDbArc
 50
279.6772325660855
 51
90.18382920651953
  0
LINE
  5
386
330
1F
100
AcDbEntity
  8
1-E
  6
Continuous
 62
     7
370
     9
100
AcDbLine
 10
4639.039615433969
 20
-1916.475953291436
 30
0.0
 11
4612.768170862018
 21
-1885.525489053822
 31
0.0
  0
LINE
  5
387
330
1F
100
AcDbEntity
  8
1-E
  6
Continuous
 62
     7
370
     9
100
AcDbLine
 10
4601.238370263583
 20
-1752.609102199513
 30
0.0
 11
4577.501745564279
 21
-1739.266535433178
 31
0.0
  0
LINE
  5
388
330
1F
100
AcDbEntity
  8
1-E
  6
Continuous
 62
    40
370
    15
100
AcDbLine
 10
4619.046219278629
 20
-1750.244815701523
 30
0.0
 11
4974.616069949872
 21
-1687.332990582001
 31
0.0
  0
MTEXT
  5
389
330
1F
100
AcDbEntity
  8
1-E
  6
Continuous
 62
     7
370
     9
100
AcDbMText
 10
1592.849828228462
 20
-1174.460479414003
 30
0.0
 40
45.71999999999999
 41
300.0
 46
0.0
 71
     7
 72
     1
  1
{\fＭＳ ゴシック|b0|i0|c128|p49;枠センター}
 73
     1
 44
1.0
  0
MTEXT
  5
38A
330
1F
100
AcDbEntity
  8
1-E
  6
Continuous
 62
     7
370
   211
100
AcDbMText
 10
-389.9549445057167
 20
-1253.431408529586
 30
0.0
 40
91.43999999999967
 41
119.9999999999996
 46
0.0
 71
     7
 72
     1
  1
{\fＭＳ ゴシック|b0|i0|c128|p49;77}
 73
     1
 44
1.0
  0
MTEXT
  5
38B
330
1F
100
AcDbEntity
  8
1-E
  6
Continuous
 62
     7
370
     9
100
AcDbMText
 10
2353.172716949918
 20
-1370.808660433818
 30
0.0
 40
45.71999999999999
 41
600.0
 46
0.0
 71
     7
 72
     1
  1
{\fＭＳ ゴシック|b0|i0|c128|p49;取り付けビス(同梱品)}
 73
     1
 44
1.0
  0
MTEXT
  5
38C
330
1F
100
AcDbEntity
  8
1-E
  6
Continuous
 62
     7
370
     9
100
AcDbMText
 10
4651.544026465105
 20
-1898.686966460822
 30
0.0
 40
45.72000000000021
 41
180.0000000000009
 46
0.0
 71
     7
 72
     1
  1
{\fＭＳ ゴシック|b0|i0|c128|p49;ガイド}
 73
     1
 44
1.0
  0
MTEXT
  5
38D
330
1F
100
AcDbEntity
  8
1-E
  6
Continuous
 62
     7
370
   211
100
AcDbMText
 10
1509.064314925294
 20
-1913.887492153802
 30
0.0
 40
54.86399999999981
 41
179.9999999999994
 46
0.0
 71
     7
 72
     1
  1
{\fＭＳ ゴシック|b0|i0|c128|p49;7.5㎜}
 73
     1
 44
1.0
  0
MTEXT
  5
38E
330
1F
100
AcDbEntity
  8
1-E
  6
Continuous
 62
     7
370
     9
100
AcDbMText
 10
4519.972091018837
 20
-2118.164348158245
 30
0.0
 40
45.71999999999998
 41
600.0
 46
0.0
 71
     7
 72
     1
  1
{\fＭＳ ゴシック|b0|i0|c128|p49;ストライクとガイドの}
 73
     1
 44
1.0
  0
MTEXT
  5
38F
330
1F
100
AcDbEntity
  8
1-E
  6
Continuous
 62
     7
370
     9
100
AcDbMText
 10
3890.042902100791
 20
-2147.451989211832
 30
0.0
 40
45.71999999999999
 41
360.0
 46
0.0
 71
     7
 72
     1
  1
{\fＭＳ ゴシック|b0|i0|c128|p49;枠の前面より}
 73
     1
 44
1.0
  0
MTEXT
  5
390
330
1F
100
AcDbEntity
  8
1-E
  6
Continuous
 62
     7
370
     9
100
AcDbMText
 10
4519.972091018837
 20
-2186.192873774435
 30
0.0
 40
45.72
 41
300.0
 46
0.0
 71
     7
 72
     1
  1
{\fＭＳ ゴシック|b0|i0|c128|p49;位置決め溝}
 73
     1
 44
1.0
  0
MTEXT
  5
391
330
1F
100
AcDbEntity
  8
1-E
  6
Continuous
 62
     7
370
     9
100
AcDbMText
 10
3890.042902100793
 20
-2221.968393923255
 30
0.0
 40
45.72
 41
300.0
 46
0.0
 71
     7
 72
     1
  1
{\fＭＳ ゴシック|b0|i0|c128|p49;38.5㎜後ろ}
 73
     1
 44
1.0
  0
MTEXT
  5
392
330
1F
100
AcDbEntity
  8
1-E
  6
Continuous
 62
     7
370
   211
100
AcDbMText
 10
4388.804681070495
 20
-2412.39954326575
 30
0.0
 40
57.15
 41
150.0
 46
0.0
 71
     7
 72
     1
  1
{\fＭＳ ゴシック|b0|i0|c128|p49;16.5}
 73
     1
 44
1.0
  0
MTEXT
  5
393
330
1F
100
AcDbEntity
  8
1-E
  6
Continuous
 62
     7
370
     9
100
AcDbMText
 10
3481.516998757486
 20
-2424.645553863139
 30
0.0
 40
57.15
 41
225.0
 46
0.0
 71
     7
 72
     1
  1
{\fＭＳ ゴシック|b0|i0|c128|p49;平面図}
 73
     1
 44
1.0
  0
MTEXT
  5
394
330
1F
100
AcDbEntity
  8
1-E
  6
Continuous
 62
     7
370
   211
100
AcDbMText
 10
4251.908868498616
 20
-2511.39954326575
 30
0.0
 40
57.15
 41
150.0
 46
0.0
 71
     7
 72
     1
  1
{\fＭＳ ゴシック|b0|i0|c128|p49;10.5}
 73
     1
 44
1.0
  0
MTEXT
  5
395
330
1F
100
AcDbEntity
  8
1-E
  6
Continuous
 62
     7
370
   211
100
AcDbMText
 10
4471.853513723771
 20
-2511.39954326575
 30
0.0
 40
57.15
 41
37.5
 46
0.0
 71
     7
 72
     1
  1
{\fＭＳ ゴシック|b0|i0|c128|p49;6}
 73
     1
 44
1.0
  0
ELLIPSE
  5
396
330
1F
100
AcDbEntity
  8
1-E
  6
Continuous
 62
    40
370
    15
100
AcDbEllipse
 10
1811.027554788678
 20
-2133.891613352302
 30
0.0
 11
346.4597254428591
 21
193.9218368202639
 31
0.0
210
0.0
220
0.0
230
1.0
 40
0.6
 41
0.7737998296751358
 42
2.29283299576993
  0
LINE
  5
397
330
1F
100
AcDbEntity
  8
1-E
  6
Continuous
 62
    40
370
    15
100
AcDbLine
 10
1377.183967277902
 20
-1284.787333010891
 30
0.0
 11
1377.183967277902
 21
-2166.505683180138
 31
0.0
  0
LINE
  5
398
330
1F
100
AcDbEntity
  8
1-E
  6
JWW_HOJO
 62
   120
370
     5
100
AcDbLine
 10
785.6882555678467
 20
-580.4959363741652
 30
0.0
 11
2854.299233007838
 21
-580.4959363741652
 31
0.0
  0
LINE
  5
399
330
1F
100
AcDbEntity
  8
1-E
  6
JWW_HOJO
 62
   120
370
     5
100
AcDbLine
 10
785.6882555678467
 20
-702.8959363741648
 30
0.0
 11
2854.299233007838
 21
-702.8959363741648
 31
0.0
  0
LINE
  5
39A
330
1F
100
AcDbEntity
  8
1-E
  6
JWW_HOJO
 62
   120
370
     5
100
AcDbLine
 10
2854.299233007838
 20
-580.4959363741652
 30
0.0
 11
2854.299233007838
 21
-825.2959363741643
 31
0.0
  0
LINE
  5
39B
330
1F
100
AcDbEntity
  8
1-E
  6
JWW_HOJO
 62
   120
370
     5
100
AcDbLine
 10
785.6882555678467
 20
-580.4959363741652
 30
0.0
 11
785.6882555678467
 21
-825.2959363741643
 31
0.0
  0
LINE
  5
39C
330
1F
100
AcDbEntity
  8
1-E
  6
JWW_HOJO
 62
   120
370
     5
100
AcDbLine
 10
2854.299233007838
 20
-825.2959363741643
 30
0.0
 11
785.6882555678467
 21
-825.2959363741643
 31
0.0
  0
LINE
  5
39D
330
1F
100
AcDbEntity
  8
1-E
  6
Continuous
 62
    40
370
    15
100
AcDbLine
 10
1494.640245042629
 20
-1224.36057502517
 30
0.0
 11
1494.640245042629
 21
-2106.048397265462
 31
0.0
  0
LWPOLYLINE
  5
39E
330
1F
100
AcDbEntity
  8
1-E
  6
Continuous
 62
   120
370
     5
100
AcDbPolyline
 90
        4
 70
     1
 43
3.0
 10
2826.388113789738
 20
-2395.187270723485
 42
0.4142135623731
 10
2824.888113789738
 20
-2393.687270723485
 42
0.4142135623731
 10
2823.388113789738
 20
-2395.187270723485
 42
0.4142135623731
 10
2824.888113789738
 20
-2396.687270723485
 42
0.4142135623731
  0
LINE
  5
39F
330
1F
100
AcDbEntity
  8
1-E
  6
Continuous
 62
   120
370
     5
100
AcDbLine
 10
2824.888113789738
 20
-2395.187270723485
 30
0.0
 11
2850.912708453683
 21
-2379.255087503367
 31
0.0
  0
LWPOLYLINE
  5
3A0
330
1F
100
AcDbEntity
  8
1-E
  6
Continuous
 62
   120
370
     5
100
AcDbPolyline
 90
        4
 70
     1
 43
3.0
 10
2852.412708453683
 20
-2379.255087503367
 42
0.4142135623731
 10
2850.912708453683
 20
-2377.755087503367
 42
0.4142135623731
 10
2849.412708453683
 20
-2379.255087503367
 42
0.4142135623731
 10
2850.912708453683
 20
-2380.755087503367
 42
0.4142135623731
  0
MTEXT
  5
3A1
330
1F
100
AcDbEntity
  8
1-E
  6
Continuous
 62
     7
370
   211
100
AcDbMText
 10
2714.590585455463
 20
-2529.419454052033
 30
0.0
 40
68.58
 41
135.0
 46
0.0
 71
     7
 72
     1
  1
{\fＭＳ ゴシック|b0|i0|c128|p49;1㎜}
 73
     1
 44
1.0
  0
LINE
  5
3A2
330
1F
100
AcDbEntity
  8
1-E
  6
Continuous
 62
    40
370
    15
100
AcDbLine
 10
1291.04449831775
 20
-2098.032665522235
 30
0.0
 11
1291.04449831775
 21
-1225.774748466202
 31
0.0
  0
LINE
  5
3A3
330
1F
100
AcDbEntity
  8
1-E
  6
Continuous
 62
    40
370
    15
100
AcDbLine
 10
1178.036333084998
 20
-2156.199807318776
 30
0.0
 11
1291.044415463561
 21
-2098.032504552198
 31
0.0
  0
LINE
  5
3A4
330
1F
100
AcDbEntity
  8
1-E
  6
Continuous
 62
    40
370
    15
100
AcDbLine
 10
1178.036333084998
 20
-2156.199807318776
 30
0.0
 11
1178.036333084998
 21
-1285.519036159271
 31
0.0
  0
LINE
  5
3A5
330
1F
100
AcDbEntity
  8
1-E
  6
Continuous
 62
    40
370
    15
100
AcDbLine
 10
1178.036333084998
 20
-2156.199807318776
 30
0.0
 11
987.7943419005151
 21
-1962.011588180563
 31
0.0
  0
LINE
  5
3A6
330
1F
100
AcDbEntity
  8
1-E
  6
Continuous
 62
    40
370
    15
100
AcDbLine
 10
987.7943419005151
 20
-1158.049672867885
 30
0.0
 11
987.7943419005151
 21
-1962.011588180563
 31
0.0
  0
LINE
  5
3A7
330
1F
100
AcDbEntity
  8
1-E
  6
Continuous
 62
    40
370
    15
100
AcDbLine
 10
1352.370124549335
 20
-2160.630381574834
 30
0.0
 11
1291.04449831775
 21
-2098.032665522235
 31
0.0
  0
LINE
  5
3A8
330
1F
100
AcDbEntity
  8
1-E
  6
Continuous
 62
    40
370
    15
100
AcDbLine
 10
1377.183967277902
 20
-2166.505683180138
 30
0.0
 11
1352.370124549335
 21
-2160.630381574834
 31
0.0
  0
LINE
  5
3A9
330
1F
100
AcDbEntity
  8
1-E
  6
Continuous
 62
    40
370
    15
100
AcDbLine
 10
1352.370124549335
 20
-1278.422490455694
 30
0.0
 11
1352.370124549335
 21
-2160.630381574834
 31
0.0
  0
MTEXT
  5
3AA
330
1F
100
AcDbEntity
  8
1-E
  6
Continuous
 62
     7
370
   211
100
AcDbMText
 10
3994.54026741691
 20
-2796.06298079319
 30
0.0
 40
57.15
 41
150.0
 46
0.0
 71
     7
 72
     1
  1
{\fＭＳ ゴシック|b0|i0|c128|p49;18.5}
 11
6.123031769111886E-17
 21
1.0
 31
0.0
 73
     1
 44
1.0
  0
MTEXT
  5
3AB
330
1F
100
AcDbEntity
  8
1-E
  6
Continuous
 62
     7
370
   211
100
AcDbMText
 10
3895.418495421404
 20
-2829.75175759693
 30
0.0
 40
57.15
 41
150.0
 46
0.0
 71
     7
 72
     1
  1
{\fＭＳ ゴシック|b0|i0|c128|p49;38.5}
 11
6.123031769111886E-17
 21
1.0
 31
0.0
 73
     1
 44
1.0
  0
LINE
  5
3AC
330
1F
100
AcDbEntity
  8
1-E
  6
Continuous
 62
     7
370
     9
100
AcDbLine
 10
2761.604732812977
 20
-1327.082432766292
 30
0.0
 11
2760.150425580854
 21
-1327.835767062087
 31
0.0
  0
LINE
  5
3AD
330
1F
100
AcDbEntity
  8
1-E
  6
Continuous
 62
   120
370
     5
100
AcDbLine
 10
2850.912708453683
 20
-2379.255087503367
 30
0.0
 11
2702.361519270968
 21
-2251.023645055342
 31
0.0
  0
LINE
  5
3AE
330
1F
100
AcDbEntity
  8
1-E
  6
Continuous
 62
   120
370
     5
100
AcDbLine
 10
2824.888113789738
 20
-2395.187270723485
 30
0.0
 11
2675.146535876796
 21
-2265.928268248571
 31
0.0
  0
LINE
  5
3AF
330
1F
100
AcDbEntity
  8
1-E
  6
JWW_DASHED1
 62
     7
370
     9
100
AcDbLine
 10
2112.858473460441
 20
-1780.552784379503
 30
0.0
 11
2675.146540484429
 21
-2265.928262910804
 31
0.0
  0
LINE
  5
3B0
330
1F
100
AcDbEntity
  8
1-E
  6
Continuous
 62
    40
370
    15
100
AcDbLine
 10
2112.858473460441
 20
-1780.552784379503
 30
0.0
 11
2112.858473460441
 21
-1252.128395317999
 31
0.0
  0
LINE
  5
3B1
330
1F
100
AcDbEntity
  8
1-E
  6
Continuous
 62
    40
370
    15
100
AcDbLine
 10
1377.184094302815
 20
-2166.505929954022
 30
0.0
 11
1494.639392257737
 21
-2106.046740542894
 31
0.0
  0
LINE
  5
3B2
330
1F
100
AcDbEntity
  8
1-E
  6
Continuous
 62
    40
370
    15
100
AcDbLine
 10
1977.686536549928
 20
-1092.49652750121
 30
0.0
 11
1977.686536549928
 21
-1849.904799566
 31
0.0
  0
LINE
  5
3B3
330
1F
100
AcDbEntity
  8
1-E
  6
Continuous
 62
    40
370
    15
100
AcDbLine
 10
1977.686536549928
 20
-1849.827044373767
 30
0.0
 11
2112.858473460441
 21
-1780.552784379503
 31
0.0
  0
LINE
  5
3B4
330
1F
100
AcDbEntity
  8
1-E
  6
JWW_CENTER1
 62
   120
370
     5
100
AcDbLine
 10
1705.988172517287
 20
-1207.322557955015
 30
0.0
 11
1705.988172517287
 21
-1919.827239368856
 31
0.0
  0
LINE
  5
3B5
330
1F
100
AcDbEntity
  8
1-E
  6
JWW_CENTER1
 62
   120
370
     5
100
AcDbLine
 10
1705.988172517287
 20
-1919.827239368856
 30
0.0
 11
2402.241375056173
 21
-2520.843428721574
 31
0.0
  0
LINE
  5
3B6
330
1F
100
AcDbEntity
  8
1-E
  6
Continuous
 62
     7
370
     9
100
AcDbLine
 10
2338.511884820352
 20
-2324.872498098991
 30
0.0
 11
2084.141458146491
 21
-2481.358774041744
 31
0.0
  0
LINE
  5
3B7
330
1F
100
AcDbEntity
  8
1-E
  6
Continuous
 62
     7
370
     9
100
AcDbLine
 10
2084.147098179124
 20
-2475.367942035086
 30
0.0
 11
2084.141458146491
 21
-2481.358774041744
 31
0.0
  0
LINE
  5
3B8
330
1F
100
AcDbEntity
  8
1-E
  6
Continuous
 62
     7
370
     9
100
AcDbLine
 10
2338.511884820352
 20
-2318.87249809899
 30
0.0
 11
2084.147098179124
 21
-2475.367942035086
 31
0.0
  0
LINE
  5
3B9
330
1F
100
AcDbEntity
  8
1-E
  6
Continuous
 62
     7
370
     9
100
AcDbLine
 10
1685.548377824982
 20
-2070.473821289582
 30
0.0
 11
1685.548377824982
 21
-2076.47382128958
 31
0.0
  0
LINE
  5
3BA
330
1F
100
AcDbEntity
  8
1-E
  6
Continuous
 62
     7
370
     9
100
AcDbLine
 10
1925.110684242334
 20
-1925.702270149768
 30
0.0
 11
1685.548377824982
 21
-2070.473821289582
 31
0.0
  0
LINE
  5
3BB
330
1F
100
AcDbEntity
  8
1-E
  6
Continuous
 62
     7
370
     9
100
AcDbLine
 10
1768.842066579193
 20
-2175.278922676748
 30
0.0
 11
1768.842066579192
 21
-2181.278922676742
 31
0.0
  0
LINE
  5
3BC
330
1F
100
AcDbEntity
  8
1-E
  6
Continuous
 62
     7
370
     9
100
AcDbLine
 10
1767.885140362472
 20
-2173.951985985161
 30
0.0
 11
1767.88514036247
 21
-2179.951985985156
 31
0.0
  0
LINE
  5
3BD
330
1F
100
AcDbEntity
  8
1-E
  6
Continuous
 62
     7
370
     9
100
AcDbLine
 10
1770.361890570459
 20
-2176.82384820366
 30
0.0
 11
1770.361890570457
 21
-2182.823848203655
 31
0.0
  0
LINE
  5
3BE
330
1F
100
AcDbEntity
  8
1-E
  6
Continuous
 62
     7
370
     9
100
AcDbLine
 10
1979.549720185285
 20
-2389.315554844155
 30
0.0
 11
1979.549720185281
 21
-2395.315554844155
 31
0.0
  0
LINE
  5
3BF
330
1F
100
AcDbEntity
  8
1-E
  6
Continuous
 62
     7
370
     9
100
AcDbLine
 10
1982.753775238591
 20
-2391.899387009912
 30
0.0
 11
1982.753775238588
 21
-2397.89938700991
 31
0.0
  0
LINE
  5
3C0
330
1F
100
AcDbEntity
  8
1-E
  6
Continuous
 62
     7
370
     9
100
AcDbLine
 10
1985.920075220393
 20
-2393.489782141089
 30
0.0
 11
1985.920075220389
 21
-2399.489782141085
 31
0.0
  0
LINE
  5
3C1
330
1F
100
AcDbEntity
  8
1-E
  6
Continuous
 62
     7
370
     9
100
AcDbLine
 10
1989.603010464881
 20
-2394.472713552905
 30
0.0
 11
1989.603010464879
 21
-2400.472713552903
 31
0.0
  0
LINE
  5
3C2
330
1F
100
AcDbEntity
  8
1-E
  6
Continuous
 62
     7
370
     9
100
AcDbLine
 10
1993.772499175259
 20
-2394.633565558539
 30
0.0
 11
1993.772499175256
 21
-2400.633565558538
 31
0.0
  0
LINE
  5
3C3
330
1F
100
AcDbEntity
  8
1-E
  6
Continuous
 62
     7
370
     9
100
AcDbLine
 10
1997.57205915342
 20
-2393.92175338018
 30
0.0
 11
1997.572059153419
 21
-2399.921753380179
 31
0.0
  0
ARC
  5
3C4
330
1F
100
AcDbEntity
  8
1-E
  6
Continuous
 62
     7
370
     9
100
AcDbCircle
 10
1773.18470589062
 20
-2177.138695169608
 30
0.0
 40
6.0
100
AcDbArc
 50
180.0
 51
224.5510943265451
  0
LINE
  5
3C5
330
1F
100
AcDbEntity
  8
1-E
  6
Continuous
 62
     7
370
     9
100
AcDbLine
 10
1767.184705890619
 20
-2171.13869516961
 30
0.0
 11
1767.184705890619
 21
-2177.138695169608
 31
0.0
  0
LINE
  5
3C6
330
1F
100
AcDbEntity
  8
1-E
  6
Continuous
 62
     7
370
     9
100
AcDbLine
 10
1685.548377824982
 20
-2076.47382128958
 30
0.0
 11
1772.326236843762
 21
-2164.6222350536
 31
0.0
  0
ARC
  5
3C7
330
1F
100
AcDbEntity
  8
1-E
  6
Continuous
 62
     7
370
     9
100
AcDbCircle
 10
1773.18470589062
 20
-2171.13869516961
 30
0.0
 40
6.0
100
AcDbArc
 50
121.6015005399993
 51
224.5510943265456
  0
LINE
  5
3C8
330
1F
100
AcDbEntity
  8
1-E
  6
Continuous
 62
     7
370
     9
100
AcDbLine
 10
1770.040656618759
 20
-2166.02841590365
 30
0.0
 11
1776.00488478448
 21
-2162.358982934193
 31
0.0
  0
LINE
  5
3C9
330
1F
100
AcDbEntity
  8
1-E
  6
Continuous
 62
     7
370
     9
100
AcDbLine
 10
1768.908955171672
 20
-2175.347965390136
 30
0.0
 11
1979.549720185285
 21
-2389.315554844155
 31
0.0
  0
LINE
  5
3CA
330
1F
100
AcDbEntity
  8
1-E
  6
Continuous
 62
     7
370
     9
100
AcDbLine
 10
1768.908955171672
 20
-2181.347965390134
 30
0.0
 11
1979.549720185281
 21
-2395.315554844155
 31
0.0
  0
LINE
  5
3CB
330
1F
100
AcDbEntity
  8
1-E
  6
Continuous
 62
     7
370
     9
100
AcDbLine
 10
2001.985475565428
 20
-2391.908672728753
 30
0.0
 11
2001.985475565428
 21
-2397.909555669082
 31
0.0
  0
LINE
  5
3CC
330
1F
100
AcDbEntity
  8
1-E
  6
Continuous
 62
     7
370
     9
100
AcDbLine
 10
2001.985475565429
 20
-2397.908672728748
 30
0.0
 11
2084.138839513465
 21
-2481.359552933462
 31
0.0
  0
ARC
  5
3CD
330
1F
100
AcDbEntity
  8
1-E
  6
Continuous
 62
     7
370
     9
100
AcDbCircle
 10
1992.376972342126
 20
-2382.687744182574
 30
0.0
 40
18.0
100
AcDbArc
 50
224.5510943265451
 51
302.2629554764407
  0
LINE
  5
3CE
330
1F
100
AcDbEntity
  8
1-E
  6
Continuous
 62
     7
370
     9
100
AcDbLine
 10
2001.985475565428
 20
-2391.908672728753
 30
0.0
 11
2084.147098179124
 21
-2475.367942035086
 31
0.0
  0
ARC
  5
3CF
330
1F
100
AcDbEntity
  8
1-E
  6
Continuous
 62
     7
370
     9
100
AcDbCircle
 10
1992.376972342129
 20
-2376.687744182574
 30
0.0
 40
18.0
100
AcDbArc
 50
224.5510943265456
 51
302.2629554764285
  0
LINE
  5
3D0
330
1F
100
AcDbEntity
  8
1-E
  6
Continuous
 62
     7
370
     9
100
AcDbLine
 10
1685.548377824982
 20
-2070.473821289582
 30
0.0
 11
1776.00488478448
 21
-2162.358982934193
 31
0.0
  0
LINE
  5
3D1
330
1F
100
AcDbEntity
  8
1-E
  6
Continuous
 62
    40
370
    15
100
AcDbLine
 10
1974.595179072141
 20
-1874.754954122466
 30
0.0
 11
1974.759587496249
 21
-1874.748451648669
 31
0.0
  0
LINE
  5
3D2
330
1F
100
AcDbEntity
  8
1-E
  6
Continuous
 62
     7
370
     9
100
AcDbLine
 10
2132.105756063302
 20
-1797.167313958463
 30
0.0
 11
1927.280727951986
 21
-1902.13808361172
 31
0.0
  0
LINE
  5
3D3
330
1F
100
AcDbEntity
  8
1-E
  6
Continuous
 62
     7
370
     9
100
AcDbLine
 10
2150.005381974711
 20
-1501.982494185637
 30
0.0
 11
2150.005381974711
 21
-1635.844700425901
 31
0.0
  0
LINE
  5
3D4
330
1F
100
AcDbEntity
  8
1-E
  6
Continuous
 62
     7
370
     9
100
AcDbLine
 10
2123.983244940545
 20
-1501.756840493323
 30
0.0
 11
2123.983244940545
 21
-1635.844700425901
 31
0.0
  0
ELLIPSE
  5
3D5
330
1F
100
AcDbEntity
  8
1-E
  6
Continuous
 62
     7
370
     9
100
AcDbEllipse
 10
2137.322165708462
 20
-1488.258944643862
 30
0.0
 11
26.15375705822504
 21
0.0
 31
0.0
210
0.0
220
0.0
230
1.0
 40
0.6
 41
3.230595867857267
 42
6.465060446500363
  0
LINE
  5
3D6
330
1F
100
AcDbEntity
  8
1-E
  6
Continuous
 62
     7
370
     9
100
AcDbLine
 10
2150.005381974711
 20
-1534.574434515674
 30
0.0
 11
2123.983244940545
 21
-1547.044783302177
 31
0.0
  0
LINE
  5
3D7
330
1F
100
AcDbEntity
  8
1-E
  6
Continuous
 62
     7
370
     9
100
AcDbLine
 10
2150.005381974711
 20
-1522.410819707405
 30
0.0
 11
2123.983244940545
 21
-1534.881168493909
 31
0.0
  0
LINE
  5
3D8
330
1F
100
AcDbEntity
  8
1-E
  6
Continuous
 62
     7
370
     9
100
AcDbLine
 10
2150.005381974711
 20
-1510.247204899135
 30
0.0
 11
2123.983244940545
 21
-1522.717553685639
 31
0.0
  0
LINE
  5
3D9
330
1F
100
AcDbEntity
  8
1-E
  6
Continuous
 62
     7
370
     9
100
AcDbLine
 10
2150.005381974711
 20
-1558.901664133979
 30
0.0
 11
2123.983244940545
 21
-1571.372012920482
 31
0.0
  0
LINE
  5
3DA
330
1F
100
AcDbEntity
  8
1-E
  6
Continuous
 62
     7
370
     9
100
AcDbLine
 10
2150.005381974711
 20
-1571.065278944016
 30
0.0
 11
2123.983244940545
 21
-1583.535627730517
 31
0.0
  0
LINE
  5
3DB
330
1F
100
AcDbEntity
  8
1-E
  6
Continuous
 62
     7
370
     9
100
AcDbLine
 10
2150.005381974711
 20
-1595.392508564087
 30
0.0
 11
2123.983244940545
 21
-1607.862857350588
 31
0.0
  0
LINE
  5
3DC
330
1F
100
AcDbEntity
  8
1-E
  6
Continuous
 62
     7
370
     9
100
AcDbLine
 10
2150.005381974711
 20
-1583.22889375405
 30
0.0
 11
2123.983244940545
 21
-1595.699242540554
 31
0.0
  0
LINE
  5
3DD
330
1F
100
AcDbEntity
  8
1-E
  6
Continuous
 62
     7
370
     9
100
AcDbLine
 10
2150.005381974711
 20
-1607.556123374122
 30
0.0
 11
2123.983244940545
 21
-1620.026472160626
 31
0.0
  0
LINE
  5
3DE
330
1F
100
AcDbEntity
  8
1-E
  6
Continuous
 62
     7
370
     9
100
AcDbLine
 10
2150.005381974711
 20
-1619.719738184159
 30
0.0
 11
2123.983244940545
 21
-1632.190086970661
 31
0.0
  0
LINE
  5
3DF
330
1F
100
AcDbEntity
  8
1-E
  6
Continuous
 62
     7
370
     9
100
AcDbLine
 10
2150.005381974711
 20
-1546.738049323944
 30
0.0
 11
2123.983244940545
 21
-1559.208398110447
 31
0.0
  0
LINE
  5
3E0
330
1F
100
AcDbEntity
  8
1-E
  6
Continuous
 62
     7
370
     9
100
AcDbLine
 10
2150.005381974711
 20
-1635.844700425901
 30
0.0
 11
2136.994313457629
 21
-1658.380532158248
 31
0.0
  0
LINE
  5
3E1
330
1F
100
AcDbEntity
  8
1-E
  6
Continuous
 62
     7
370
     9
100
AcDbLine
 10
2123.983244940545
 20
-1635.844700425901
 30
0.0
 11
2136.994313457629
 21
-1658.380532158248
 31
0.0
  0
LINE
  5
3E2
330
1F
100
AcDbEntity
  8
1-E
  6
Continuous
 62
     7
370
     9
100
AcDbLine
 10
2136.994313457414
 20
-1489.834131864458
 30
0.0
 11
2145.340243294426
 21
-1495.199372473965
 31
0.0
  0
LINE
  5
3E3
330
1F
100
AcDbEntity
  8
1-E
  6
Continuous
 62
     7
370
     9
100
AcDbLine
 10
2123.952640867652
 20
-1481.450199485326
 30
0.0
 11
2132.298570704664
 21
-1486.815440094833
 31
0.0
  0
LINE
  5
3E4
330
1F
100
AcDbEntity
  8
1-E
  6
Continuous
 62
     7
370
     9
100
AcDbLine
 10
2136.994313457414
 20
-1489.834131864458
 30
0.0
 11
2128.648383620403
 21
-1495.199372473965
 31
0.0
  0
LINE
  5
3E5
330
1F
100
AcDbEntity
  8
1-E
  6
Continuous
 62
     7
370
     9
100
AcDbLine
 10
2150.035986047174
 20
-1481.450199485326
 30
0.0
 11
2141.690056210165
 21
-1486.815440094833
 31
0.0
  0
LINE
  5
3E6
330
1F
100
AcDbEntity
  8
1-E
  6
Continuous
 62
     7
370
     9
100
AcDbLine
 10
2141.690056210165
 20
-1486.815440094833
 30
0.0
 11
2150.035986047174
 21
-1492.18068070434
 31
0.0
  0
LINE
  5
3E7
330
1F
100
AcDbEntity
  8
1-E
  6
Continuous
 62
     7
370
     9
100
AcDbLine
 10
2128.648383620403
 20
-1478.431507715702
 30
0.0
 11
2136.994313457414
 21
-1483.796748325209
 31
0.0
  0
LINE
  5
3E8
330
1F
100
AcDbEntity
  8
1-E
  6
Continuous
 62
     7
370
     9
100
AcDbLine
 10
2132.298570704664
 20
-1486.815440094833
 30
0.0
 11
2123.952640867652
 21
-1492.18068070434
 31
0.0
  0
LINE
  5
3E9
330
1F
100
AcDbEntity
  8
1-E
  6
Continuous
 62
     7
370
     9
100
AcDbLine
 10
2145.340243294426
 20
-1478.431507715702
 30
0.0
 11
2136.994313457414
 21
-1483.796748325209
 31
0.0
  0
LINE
  5
3EA
330
1F
100
AcDbEntity
  8
1-E
  6
Continuous
 62
     7
370
     9
100
AcDbLine
 10
2128.648383620403
 20
-1478.431507715702
 30
0.0
 11
2123.952640867652
 21
-1481.450199485326
 31
0.0
  0
LINE
  5
3EB
330
1F
100
AcDbEntity
  8
1-E
  6
Continuous
 62
     7
370
     9
100
AcDbLine
 10
2145.340243294426
 20
-1478.431507715702
 30
0.0
 11
2150.035986047174
 21
-1481.450199485326
 31
0.0
  0
LINE
  5
3EC
330
1F
100
AcDbEntity
  8
1-E
  6
Continuous
 62
     7
370
     9
100
AcDbLine
 10
2150.035986047174
 20
-1492.18068070434
 30
0.0
 11
2145.340243294426
 21
-1495.199372473965
 31
0.0
  0
LINE
  5
3ED
330
1F
100
AcDbEntity
  8
1-E
  6
Continuous
 62
     7
370
     9
100
AcDbLine
 10
2123.952640867652
 20
-1492.18068070434
 30
0.0
 11
2128.648383620403
 21
-1495.199372473965
 31
0.0
  0
ELLIPSE
  5
3EE
330
1F
100
AcDbEntity
  8
1-E
  6
Continuous
 62
     7
370
     9
100
AcDbEllipse
 10
2136.994313457414
 20
-1486.815440094833
 30
0.0
 11
26.15375705822504
 21
0.0
 31
0.0
210
0.0
220
0.0
230
1.0
 40
0.6
 41
0.0
 42
6.283185307179586
  0
LINE
  5
3EF
330
1F
100
AcDbEntity
  8
1-E
  6
Continuous
 62
     7
370
     9
100
AcDbLine
 10
2454.278894475849
 20
-1768.248533280228
 30
0.0
 11
2454.278894475849
 21
-1902.110739520492
 31
0.0
  0
LINE
  5
3F0
330
1F
100
AcDbEntity
  8
1-E
  6
Continuous
 62
     7
370
     9
100
AcDbLine
 10
2428.256757441685
 20
-1768.022879587913
 30
0.0
 11
2428.256757441685
 21
-1902.110739520492
 31
0.0
  0
ELLIPSE
  5
3F1
330
1F
100
AcDbEntity
  8
1-E
  6
Continuous
 62
     7
370
     9
100
AcDbEllipse
 10
2441.5956782096
 20
-1754.524983738453
 30
0.0
 11
26.15375705822504
 21
0.0
 31
0.0
210
0.0
220
0.0
230
1.0
 40
0.6
 41
3.230595867857267
 42
6.465060446500363
  0
LINE
  5
3F2
330
1F
100
AcDbEntity
  8
1-E
  6
Continuous
 62
     7
370
     9
100
AcDbLine
 10
2454.278894475849
 20
-1800.840473610264
 30
0.0
 11
2428.256757441685
 21
-1813.310822396768
 31
0.0
  0
LINE
  5
3F3
330
1F
100
AcDbEntity
  8
1-E
  6
Continuous
 62
     7
370
     9
100
AcDbLine
 10
2454.278894475849
 20
-1788.676858801996
 30
0.0
 11
2428.256757441685
 21
-1801.147207588499
 31
0.0
  0
LINE
  5
3F4
330
1F
100
AcDbEntity
  8
1-E
  6
Continuous
 62
     7
370
     9
100
AcDbLine
 10
2454.278894475849
 20
-1776.513243993726
 30
0.0
 11
2428.256757441685
 21
-1788.983592780229
 31
0.0
  0
LINE
  5
3F5
330
1F
100
AcDbEntity
  8
1-E
  6
Continuous
 62
     7
370
     9
100
AcDbLine
 10
2454.278894475849
 20
-1825.167703228569
 30
0.0
 11
2428.256757441685
 21
-1837.638052015073
 31
0.0
  0
LINE
  5
3F6
330
1F
100
AcDbEntity
  8
1-E
  6
Continuous
 62
     7
370
     9
100
AcDbLine
 10
2454.278894475849
 20
-1837.331318038606
 30
0.0
 11
2428.256757441685
 21
-1849.801666825108
 31
0.0
  0
LINE
  5
3F7
330
1F
100
AcDbEntity
  8
1-E
  6
Continuous
 62
     7
370
     9
100
AcDbLine
 10
2454.278894475849
 20
-1861.658547658678
 30
0.0
 11
2428.256757441685
 21
-1874.128896445178
 31
0.0
  0
LINE
  5
3F8
330
1F
100
AcDbEntity
  8
1-E
  6
Continuous
 62
     7
370
     9
100
AcDbLine
 10
2454.278894475849
 20
-1849.494932848641
 30
0.0
 11
2428.256757441685
 21
-1861.965281635145
 31
0.0
  0
LINE
  5
3F9
330
1F
100
AcDbEntity
  8
1-E
  6
Continuous
 62
     7
370
     9
100
AcDbLine
 10
2454.278894475849
 20
-1873.822162468713
 30
0.0
 11
2428.256757441685
 21
-1886.292511255216
 31
0.0
  0
LINE
  5
3FA
330
1F
100
AcDbEntity
  8
1-E
  6
Continuous
 62
     7
370
     9
100
AcDbLine
 10
2454.278894475849
 20
-1885.98577727875
 30
0.0
 11
2428.256757441685
 21
-1898.456126065252
 31
0.0
  0
LINE
  5
3FB
330
1F
100
AcDbEntity
  8
1-E
  6
Continuous
 62
     7
370
     9
100
AcDbLine
 10
2454.278894475849
 20
-1813.004088418534
 30
0.0
 11
2428.256757441685
 21
-1825.474437205038
 31
0.0
  0
LINE
  5
3FC
330
1F
100
AcDbEntity
  8
1-E
  6
Continuous
 62
     7
370
     9
100
AcDbLine
 10
2454.278894475849
 20
-1902.110739520492
 30
0.0
 11
2441.267825958766
 21
-1924.646571252838
 31
0.0
  0
LINE
  5
3FD
330
1F
100
AcDbEntity
  8
1-E
  6
Continuous
 62
     7
370
     9
100
AcDbLine
 10
2428.256757441685
 20
-1902.110739520492
 30
0.0
 11
2441.267825958766
 21
-1924.646571252838
 31
0.0
  0
LINE
  5
3FE
330
1F
100
AcDbEntity
  8
1-E
  6
Continuous
 62
     7
370
     9
100
AcDbLine
 10
2441.267825958554
 20
-1756.100170959048
 30
0.0
 11
2449.613755795564
 21
-1761.465411568555
 31
0.0
  0
LINE
  5
3FF
330
1F
100
AcDbEntity
  8
1-E
  6
Continuous
 62
     7
370
     9
100
AcDbLine
 10
2428.226153368791
 20
-1747.716238579917
 30
0.0
 11
2436.572083205803
 21
-1753.081479189424
 31
0.0
  0
LINE
  5
400
330
1F
100
AcDbEntity
  8
1-E
  6
Continuous
 62
     7
370
     9
100
AcDbLine
 10
2441.267825958554
 20
-1756.100170959048
 30
0.0
 11
2432.92189612154
 21
-1761.465411568555
 31
0.0
  0
LINE
  5
401
330
1F
100
AcDbEntity
  8
1-E
  6
Continuous
 62
     7
370
     9
100
AcDbLine
 10
2454.309498548314
 20
-1747.716238579917
 30
0.0
 11
2445.963568711304
 21
-1753.081479189424
 31
0.0
  0
LINE
  5
402
330
1F
100
AcDbEntity
  8
1-E
  6
Continuous
 62
     7
370
     9
100
AcDbLine
 10
2445.963568711304
 20
-1753.081479189424
 30
0.0
 11
2454.309498548314
 21
-1758.446719798931
 31
0.0
  0
LINE
  5
403
330
1F
100
AcDbEntity
  8
1-E
  6
Continuous
 62
     7
370
     9
100
AcDbLine
 10
2432.92189612154
 20
-1744.697546810293
 30
0.0
 11
2441.267825958554
 21
-1750.062787419799
 31
0.0
  0
LINE
  5
404
330
1F
100
AcDbEntity
  8
1-E
  6
Continuous
 62
     7
370
     9
100
AcDbLine
 10
2436.572083205803
 20
-1753.081479189424
 30
0.0
 11
2428.226153368791
 21
-1758.446719798931
 31
0.0
  0
LINE
  5
405
330
1F
100
AcDbEntity
  8
1-E
  6
Continuous
 62
     7
370
     9
100
AcDbLine
 10
2449.613755795564
 20
-1744.697546810293
 30
0.0
 11
2441.267825958554
 21
-1750.062787419799
 31
0.0
  0
LINE
  5
406
330
1F
100
AcDbEntity
  8
1-E
  6
Continuous
 62
     7
370
     9
100
AcDbLine
 10
2432.92189612154
 20
-1744.697546810293
 30
0.0
 11
2428.226153368791
 21
-1747.716238579917
 31
0.0
  0
LINE
  5
407
330
1F
100
AcDbEntity
  8
1-E
  6
Continuous
 62
     7
370
     9
100
AcDbLine
 10
2449.613755795564
 20
-1744.697546810293
 30
0.0
 11
2454.309498548314
 21
-1747.716238579917
 31
0.0
  0
LINE
  5
408
330
1F
100
AcDbEntity
  8
1-E
  6
Continuous
 62
     7
370
     9
100
AcDbLine
 10
2454.309498548314
 20
-1758.446719798931
 30
0.0
 11
2449.613755795564
 21
-1761.465411568555
 31
0.0
  0
LINE
  5
409
330
1F
100
AcDbEntity
  8
1-E
  6
Continuous
 62
     7
370
     9
100
AcDbLine
 10
2428.226153368791
 20
-1758.446719798931
 30
0.0
 11
2432.92189612154
 21
-1761.465411568555
 31
0.0
  0
ELLIPSE
  5
40A
330
1F
100
AcDbEntity
  8
1-E
  6
Continuous
 62
     7
370
     9
100
AcDbEllipse
 10
2441.267825958554
 20
-1753.081479189424
 30
0.0
 11
26.15375705822504
 21
0.0
 31
0.0
210
0.0
220
0.0
230
1.0
 40
0.6
 41
0.0
 42
6.283185307179586
  0
LINE
  5
40B
330
1F
100
AcDbEntity
  8
1-E
  6
Continuous
 62
     7
370
     9
100
AcDbLine
 10
2136.994313457629
 20
-1883.75427949592
 30
0.0
 11
2136.994313457629
 21
-1663.029528827073
 31
0.0
  0
LINE
  5
40C
330
1F
100
AcDbEntity
  8
1-E
  6
Continuous
 62
     7
370
     9
100
AcDbLine
 10
2441.267825958766
 20
-2150.020318590512
 30
0.0
 11
2441.267825958766
 21
-1929.295567921663
 31
0.0
  0
LINE
  5
40D
330
1F
100
AcDbEntity
  8
1-E
  6
Continuous
 62
     7
370
     9
100
AcDbLine
 10
2295.373334743711
 20
-1984.172489586853
 30
0.0
 11
2312.065194417733
 21
-1994.902970805868
 31
0.0
  0
LINE
  5
40E
330
1F
100
AcDbEntity
  8
1-E
  6
Continuous
 62
     7
370
     9
100
AcDbLine
 10
2269.289989564187
 20
-1967.40462482859
 30
0.0
 11
2285.98184923821
 21
-1978.135106047604
 31
0.0
  0
LINE
  5
40F
330
1F
100
AcDbEntity
  8
1-E
  6
Continuous
 62
     7
370
     9
100
AcDbLine
 10
2295.373334743711
 20
-1984.172489586853
 30
0.0
 11
2278.681475069688
 21
-1994.902970805868
 31
0.0
  0
LINE
  5
410
330
1F
100
AcDbEntity
  8
1-E
  6
Continuous
 62
     7
370
     9
100
AcDbLine
 10
2321.456679923231
 20
-1967.40462482859
 30
0.0
 11
2304.764820249211
 21
-1978.135106047604
 31
0.0
  0
LINE
  5
411
330
1F
100
AcDbEntity
  8
1-E
  6
Continuous
 62
     7
370
     9
100
AcDbLine
 10
2304.764820249211
 20
-1978.135106047604
 30
0.0
 11
2321.456679923231
 21
-1988.865587266619
 31
0.0
  0
LINE
  5
412
330
1F
100
AcDbEntity
  8
1-E
  6
Continuous
 62
     7
370
     9
100
AcDbLine
 10
2278.681475069688
 20
-1961.36724128934
 30
0.0
 11
2295.373334743711
 21
-1972.097722508355
 31
0.0
  0
LINE
  5
413
330
1F
100
AcDbEntity
  8
1-E
  6
Continuous
 62
     7
370
     9
100
AcDbLine
 10
2285.98184923821
 20
-1978.135106047604
 30
0.0
 11
2269.289989564187
 21
-1988.865587266619
 31
0.0
  0
LINE
  5
414
330
1F
100
AcDbEntity
  8
1-E
  6
Continuous
 62
     7
370
     9
100
AcDbLine
 10
2312.065194417733
 20
-1961.36724128934
 30
0.0
 11
2295.373334743711
 21
-1972.097722508355
 31
0.0
  0
LINE
  5
415
330
1F
100
AcDbEntity
  8
1-E
  6
Continuous
 62
     7
370
     9
100
AcDbLine
 10
2278.681475069688
 20
-1961.36724128934
 30
0.0
 11
2269.289989564187
 21
-1967.40462482859
 31
0.0
  0
LINE
  5
416
330
1F
100
AcDbEntity
  8
1-E
  6
Continuous
 62
     7
370
     9
100
AcDbLine
 10
2312.065194417733
 20
-1961.36724128934
 30
0.0
 11
2321.456679923231
 21
-1967.40462482859
 31
0.0
  0
LINE
  5
417
330
1F
100
AcDbEntity
  8
1-E
  6
Continuous
 62
     7
370
     9
100
AcDbLine
 10
2321.456679923231
 20
-1988.865587266619
 30
0.0
 11
2312.065194417733
 21
-1994.902970805868
 31
0.0
  0
LINE
  5
418
330
1F
100
AcDbEntity
  8
1-E
  6
Continuous
 62
     7
370
     9
100
AcDbLine
 10
2269.289989564187
 20
-1988.865587266619
 30
0.0
 11
2278.681475069688
 21
-1994.902970805868
 31
0.0
  0
ARC
  5
419
330
1F
100
AcDbEntity
  8
1-E
  6
Continuous
 62
     7
370
     9
100
AcDbCircle
 10
2373.521563424122
 20
-2183.021040483475
 30
0.0
 40
12.0
100
AcDbArc
 50
117.3949267100002
 51
165.5224878140668
  0
LINE
  5
41A
330
1F
100
AcDbEntity
  8
1-E
  6
Continuous
 62
     7
370
     9
100
AcDbLine
 10
2362.551559636594
 20
-2172.156986937136
 30
0.0
 11
2362.551559636594
 21
-2178.156986937137
 31
0.0
  0
LINE
  5
41B
330
1F
100
AcDbEntity
  8
1-E
  6
Continuous
 62
     7
370
     9
100
AcDbLine
 10
2363.752408222285
 20
-2170.05228115039
 30
0.0
 11
2363.752408222285
 21
-2176.052281150391
 31
0.0
  0
LINE
  5
41C
330
1F
100
AcDbEntity
  8
1-E
  6
Continuous
 62
     7
370
     9
100
AcDbLine
 10
2368.000109374268
 20
-2166.366766919528
 30
0.0
 11
2368.000109374268
 21
-2172.36676691953
 31
0.0
  0
LINE
  5
41D
330
1F
100
AcDbEntity
  8
1-E
  6
Continuous
 62
     7
370
     9
100
AcDbLine
 10
2472.453140650375
 20
-2120.52097321282
 30
0.0
 11
2472.453140650375
 21
-2126.520973212823
 31
0.0
  0
LINE
  5
41E
330
1F
100
AcDbEntity
  8
1-E
  6
Continuous
 62
     7
370
     9
100
AcDbLine
 10
2468.142875489567
 20
-2118.220113926938
 30
0.0
 11
2468.142875489567
 21
-2124.22011392694
 31
0.0
  0
LINE
  5
41F
330
1F
100
AcDbEntity
  8
1-E
  6
Continuous
 62
     7
370
     9
100
AcDbLine
 10
2466.516726363111
 20
-2117.863483545539
 30
0.0
 11
2466.516726363111
 21
-2123.86348354554
 31
0.0
  0
LINE
  5
420
330
1F
100
AcDbEntity
  8
1-E
  6
Continuous
 62
     7
370
     9
100
AcDbLine
 10
2463.164357394725
 20
-2117.842274632226
 30
0.0
 11
2463.164357394725
 21
-2123.842274632227
 31
0.0
  0
LINE
  5
421
330
1F
100
AcDbEntity
  8
1-E
  6
Continuous
 62
     7
370
     9
100
AcDbLine
 10
2461.713332020349
 20
-2118.12960380126
 30
0.0
 11
2461.713332020349
 21
-2124.129603801262
 31
0.0
  0
LINE
  5
422
330
1F
100
AcDbEntity
  8
1-E
  6
Continuous
 62
     7
370
     9
100
AcDbLine
 10
2459.2439150971
 20
-2119.08071990668
 30
0.0
 11
2459.2439150971
 21
-2125.08071990668
 31
0.0
  0
ARC
  5
423
330
1F
100
AcDbEntity
  8
1-E
  6
Continuous
 62
     7
370
     9
100
AcDbCircle
 10
2475.648263898133
 20
-2144.815200134155
 30
0.0
 40
12.0
100
AcDbArc
 50
20.75540117989427
 51
50.15987174704777
  0
LINE
  5
424
330
1F
100
AcDbEntity
  8
1-E
  6
Continuous
 62
     7
370
     9
100
AcDbLine
 10
2459.243915097103
 20
-2125.08071990668
 30
0.0
 11
2368.000109374268
 21
-2172.36676691953
 31
0.0
  0
LINE
  5
425
330
1F
100
AcDbEntity
  8
1-E
  6
Continuous
 62
     7
370
     9
100
AcDbLine
 10
2472.453140650375
 20
-2126.520973212821
 30
0.0
 11
2483.336035401552
 21
-2135.601179876353
 31
0.0
  0
ARC
  5
426
330
1F
100
AcDbEntity
  8
1-E
  6
Continuous
 62
     7
370
     9
100
AcDbCircle
 10
2464.765369146957
 20
-2135.734993470626
 30
0.0
 40
12.0
100
AcDbArc
 50
50.15987174704691
 51
117.3949267100002
  0
LINE
  5
427
330
1F
100
AcDbEntity
  8
1-E
  6
Continuous
 62
     7
370
     9
100
AcDbLine
 10
2464.765369146957
 20
-2117.734993470626
 30
0.0
 11
2464.765369146957
 21
-2123.734993470628
 31
0.0
  0
ARC
  5
428
330
1F
100
AcDbEntity
  8
1-E
  6
Continuous
 62
     7
370
     9
100
AcDbCircle
 10
2069.248050922984
 20
-1916.755001388884
 30
0.0
 40
12.0
100
AcDbArc
 50
117.3949267100002
 51
165.5224878140668
  0
LINE
  5
429
330
1F
100
AcDbEntity
  8
1-E
  6
Continuous
 62
     7
370
     9
100
AcDbLine
 10
2058.278047135457
 20
-1905.890947842546
 30
0.0
 11
2058.278047135457
 21
-1911.890947842547
 31
0.0
  0
LINE
  5
42A
330
1F
100
AcDbEntity
  8
1-E
  6
Continuous
 62
     7
370
     9
100
AcDbLine
 10
2059.478895721148
 20
-1903.7862420558
 30
0.0
 11
2059.478895721148
 21
-1909.786242055801
 31
0.0
  0
LINE
  5
42B
330
1F
100
AcDbEntity
  8
1-E
  6
Continuous
 62
     7
370
     9
100
AcDbLine
 10
2063.726596873131
 20
-1900.100727824938
 30
0.0
 11
2063.726596873131
 21
-1906.100727824939
 31
0.0
  0
LINE
  5
42C
330
1F
100
AcDbEntity
  8
1-E
  6
Continuous
 62
     7
370
     9
100
AcDbLine
 10
2168.179628149237
 20
-1854.25493411823
 30
0.0
 11
2168.179628149237
 21
-1860.254934118233
 31
0.0
  0
LINE
  5
42D
330
1F
100
AcDbEntity
  8
1-E
  6
Continuous
 62
     7
370
     9
100
AcDbLine
 10
2163.86936298843
 20
-1851.954074832348
 30
0.0
 11
2163.86936298843
 21
-1857.95407483235
 31
0.0
  0
LINE
  5
42E
330
1F
100
AcDbEntity
  8
1-E
  6
Continuous
 62
     7
370
     9
100
AcDbLine
 10
2162.243213861974
 20
-1851.597444450949
 30
0.0
 11
2162.243213861974
 21
-1857.59744445095
 31
0.0
  0
LINE
  5
42F
330
1F
100
AcDbEntity
  8
1-E
  6
Continuous
 62
     7
370
     9
100
AcDbLine
 10
2158.890844893587
 20
-1851.576235537635
 30
0.0
 11
2158.890844893587
 21
-1857.576235537636
 31
0.0
  0
LINE
  5
430
330
1F
100
AcDbEntity
  8
1-E
  6
Continuous
 62
     7
370
     9
100
AcDbLine
 10
2157.43981951921
 20
-1851.863564706669
 30
0.0
 11
2157.43981951921
 21
-1857.86356470667
 31
0.0
  0
LINE
  5
431
330
1F
100
AcDbEntity
  8
1-E
  6
Continuous
 62
     7
370
     9
100
AcDbLine
 10
2154.970402595963
 20
-1852.81468081209
 30
0.0
 11
2154.970402595963
 21
-1858.81468081209
 31
0.0
  0
ARC
  5
432
330
1F
100
AcDbEntity
  8
1-E
  6
Continuous
 62
     7
370
     9
100
AcDbCircle
 10
2171.374751396996
 20
-1878.549161039564
 30
0.0
 40
12.0
100
AcDbArc
 50
20.75540117989427
 51
50.15987174704777
  0
LINE
  5
433
330
1F
100
AcDbEntity
  8
1-E
  6
Continuous
 62
     7
370
     9
100
AcDbLine
 10
2154.970402595963
 20
-1858.81468081209
 30
0.0
 11
2063.726596873131
 21
-1906.100727824939
 31
0.0
  0
LINE
  5
434
330
1F
100
AcDbEntity
  8
1-E
  6
Continuous
 62
     7
370
     9
100
AcDbLine
 10
2168.179628149237
 20
-1860.254934118231
 30
0.0
 11
2179.062522900414
 21
-1869.335140781763
 31
0.0
  0
ARC
  5
435
330
1F
100
AcDbEntity
  8
1-E
  6
Continuous
 62
     7
370
     9
100
AcDbCircle
 10
2160.491856645817
 20
-1869.468954376036
 30
0.0
 40
12.0
100
AcDbArc
 50
50.15987174704691
 51
117.3949267100002
  0
LINE
  5
436
330
1F
100
AcDbEntity
  8
1-E
  6
Continuous
 62
     7
370
     9
100
AcDbLine
 10
2160.491856645817
 20
-1851.468954376035
 30
0.0
 11
2160.491856645817
 21
-1857.468954376036
 31
0.0
  0
ELLIPSE
  5
437
330
1F
100
AcDbEntity
  8
1-E
  6
Continuous
 62
     7
370
     9
100
AcDbEllipse
 10
1991.122832452291
 20
-2192.171777674193
 30
0.0
 11
79.69551291525261
 21
0.0
 31
0.0
210
0.0
220
0.0
230
1.0
 40
0.7
 41
0.2111186597640594
 42
2.949786527099673
  0
ARC
  5
438
330
1F
100
AcDbEntity
  8
1-E
  6
Continuous
 62
     7
370
     9
100
AcDbCircle
 10
2464.765369146954
 20
-2129.734993470625
 30
0.0
 40
12.0
100
AcDbArc
 50
50.15987174704691
 51
117.3949267100002
  0
LINE
  5
439
330
1F
100
AcDbEntity
  8
1-E
  6
Continuous
 62
     7
370
     9
100
AcDbLine
 10
2459.2439150971
 20
-2119.08071990668
 30
0.0
 11
2368.000109374267
 21
-2166.36676691953
 31
0.0
  0
LINE
  5
43A
330
1F
100
AcDbEntity
  8
1-E
  6
Continuous
 62
     7
370
     9
100
AcDbLine
 10
2472.453140650373
 20
-2120.52097321282
 30
0.0
 11
2483.336035401552
 21
-2129.601179876352
 31
0.0
  0
ARC
  5
43B
330
1F
100
AcDbEntity
  8
1-E
  6
Continuous
 62
     7
370
     9
100
AcDbCircle
 10
2475.648263898133
 20
-2138.815200134155
 30
0.0
 40
12.0
100
AcDbArc
 50
297.3949267103216
 51
50.15987174704777
  0
LINE
  5
43C
330
1F
100
AcDbEntity
  8
1-E
  6
Continuous
 62
     7
370
     9
100
AcDbLine
 10
2481.169717948045
 20
-2149.469473698069
 30
0.0
 11
2389.925912225694
 21
-2196.755520711317
 31
0.0
  0
ARC
  5
43D
330
1F
100
AcDbEntity
  8
1-E
  6
Continuous
 62
     7
370
     9
100
AcDbCircle
 10
2384.404458175778
 20
-2186.101247147404
 30
0.0
 40
12.0
100
AcDbArc
 50
230.159871747048
 51
297.3949267103217
  0
LINE
  5
43E
330
1F
100
AcDbEntity
  8
1-E
  6
Continuous
 62
     7
370
     9
100
AcDbLine
 10
2376.716686672359
 20
-2195.315267405208
 30
0.0
 11
2365.833791920702
 21
-2186.235060741278
 31
0.0
  0
ARC
  5
43F
330
1F
100
AcDbEntity
  8
1-E
  6
Continuous
 62
     7
370
     9
100
AcDbCircle
 10
2373.521563424121
 20
-2177.021040483473
 30
0.0
 40
12.0
100
AcDbArc
 50
117.3949267100002
 51
230.1598717470478
  0
ARC
  5
440
330
1F
100
AcDbEntity
  8
1-E
  6
Continuous
 62
     7
370
     9
100
AcDbCircle
 10
2160.491856645817
 20
-1863.468954376034
 30
0.0
 40
12.0
100
AcDbArc
 50
50.15987174704691
 51
117.3949267100002
  0
LINE
  5
441
330
1F
100
AcDbEntity
  8
1-E
  6
Continuous
 62
     7
370
     9
100
AcDbLine
 10
2154.970402595963
 20
-1852.814680812088
 30
0.0
 11
2063.726596873131
 21
-1900.100727824938
 31
0.0
  0
LINE
  5
442
330
1F
100
AcDbEntity
  8
1-E
  6
Continuous
 62
     7
370
     9
100
AcDbLine
 10
2168.179628149237
 20
-1854.25493411823
 30
0.0
 11
2179.062522900414
 21
-1863.335140781762
 31
0.0
  0
ARC
  5
443
330
1F
100
AcDbEntity
  8
1-E
  6
Continuous
 62
     7
370
     9
100
AcDbCircle
 10
2171.374751396996
 20
-1872.549161039563
 30
0.0
 40
12.0
100
AcDbArc
 50
297.3949267103216
 51
50.15987174704777
  0
LINE
  5
444
330
1F
100
AcDbEntity
  8
1-E
  6
Continuous
 62
     7
370
     9
100
AcDbLine
 10
2176.896205446909
 20
-1883.203434603477
 30
0.0
 11
2085.652399724555
 21
-1930.489481616725
 31
0.0
  0
ARC
  5
445
330
1F
100
AcDbEntity
  8
1-E
  6
Continuous
 62
     7
370
     9
100
AcDbCircle
 10
2080.130945674642
 20
-1919.835208052813
 30
0.0
 40
12.0
100
AcDbArc
 50
230.159871747048
 51
297.3949267103217
  0
LINE
  5
446
330
1F
100
AcDbEntity
  8
1-E
  6
Continuous
 62
     7
370
     9
100
AcDbLine
 10
2072.443174171222
 20
-1929.049228310618
 30
0.0
 11
2061.560279419564
 21
-1919.969021646685
 31
0.0
  0
ARC
  5
447
330
1F
100
AcDbEntity
  8
1-E
  6
Continuous
 62
     7
370
     9
100
AcDbCircle
 10
2069.248050922984
 20
-1910.755001388882
 30
0.0
 40
12.0
100
AcDbArc
 50
117.3949267100002
 51
230.1598717470478
  0
ELLIPSE
  5
448
330
1F
100
AcDbEntity
  8
1-E
  6
Continuous
 62
     7
370
     9
100
AcDbEllipse
 10
2295.373334743711
 20
-1978.135106047604
 30
0.0
 11
45.7135540476191
 21
0.0
 31
0.0
210
0.0
220
0.0
230
1.0
 40
0.7
 41
0.0
 42
6.283185307179586
  0
LINE
  5
449
330
1F
100
AcDbEntity
  8
1-E
  6
Continuous
 62
     7
370
     9
100
AcDbLine
 10
2602.635180195631
 20
-2176.91228816044
 30
0.0
 11
2599.473026517118
 21
-2201.438073348859
 31
0.0
  0
LINE
  5
44A
330
1F
100
AcDbEntity
  8
1-E
  6
Continuous
 62
     7
370
     9
100
AcDbLine
 10
2602.635180195631
 20
-2170.912288160442
 30
0.0
 11
2602.635180195631
 21
-2176.91228816044
 31
0.0
  0
LINE
  5
44B
330
1F
100
AcDbEntity
  8
1-E
  6
Continuous
 62
     7
370
     9
100
AcDbLine
 10
2599.473026517118
 20
-2201.438073348859
 30
0.0
 11
2599.473026517118
 21
-2195.438073348857
 31
0.0
  0
LINE
  5
44C
330
1F
100
AcDbEntity
  8
1-E
  6
Continuous
 62
     7
370
     9
100
AcDbLine
 10
2380.12144934747
 20
-2335.724488272215
 30
0.0
 11
2599.473026517118
 21
-2201.438073348859
 31
0.0
  0
LINE
  5
44D
330
1F
100
AcDbEntity
  8
1-E
  6
Continuous
 62
     7
370
     9
100
AcDbLine
 10
2350.805387156653
 20
-2331.383559580142
 30
0.0
 11
2338.511823294475
 21
-2324.872398088671
 31
0.0
  0
LINE
  5
44E
330
1F
100
AcDbEntity
  8
1-E
  6
Continuous
 62
     7
370
     9
100
AcDbLine
 10
2350.805387156653
 20
-2325.383613464039
 30
0.0
 11
2350.805387156653
 21
-2331.383559580142
 31
0.0
  0
LINE
  5
44F
330
1F
100
AcDbEntity
  8
1-E
  6
Continuous
 62
     7
370
     9
100
AcDbLine
 10
2380.12144934747
 20
-2335.724488272215
 30
0.0
 11
2350.805387156653
 21
-2331.383559580142
 31
0.0
  0
LINE
  5
450
330
1F
100
AcDbEntity
  8
1-E
  6
Continuous
 62
     7
370
     9
100
AcDbLine
 10
2380.12144934747
 20
-2329.724488272213
 30
0.0
 11
2380.12144934747
 21
-2335.724488272215
 31
0.0
  0
LINE
  5
451
330
1F
100
AcDbEntity
  8
1-E
  6
Continuous
 62
     7
370
     9
100
AcDbLine
 10
2338.511884820352
 20
-2318.87249809899
 30
0.0
 11
2338.511884820352
 21
-2324.872498098991
 31
0.0
  0
LINE
  5
452
330
1F
100
AcDbEntity
  8
1-E
  6
Continuous
 62
     7
370
     9
100
AcDbLine
 10
2270.091584472097
 20
-1885.466523399199
 30
0.0
 11
2002.525714411221
 21
-2024.473374482357
 31
0.0
  0
LINE
  5
453
330
1F
100
AcDbEntity
  8
1-E
  6
Continuous
 62
     7
370
     9
100
AcDbLine
 10
2126.848398109515
 20
-2141.448819666776
 30
0.0
 11
2404.544276792096
 21
-1984.829327654171
 31
0.0
  0
LINE
  5
454
330
1F
100
AcDbEntity
  8
1-E
  6
Continuous
 62
     7
370
     9
100
AcDbLine
 10
2299.508899310631
 20
-1900.08437856926
 30
0.0
 11
2010.93105334322
 21
-2050.007452282526
 31
0.0
  0
LINE
  5
455
330
1F
100
AcDbEntity
  8
1-E
  6
Continuous
 62
     7
370
     9
100
AcDbLine
 10
2312.847013075285
 20
-1903.39533205379
 30
0.0
 11
2019.335015797842
 21
-2055.881815054722
 31
0.0
  0
LINE
  5
456
330
1F
100
AcDbEntity
  8
1-E
  6
Continuous
 62
     7
370
     9
100
AcDbLine
 10
1815.504579571987
 20
-2163.579532515632
 30
0.0
 11
1780.964192267395
 21
-2147.084326352897
 31
0.0
  0
LINE
  5
457
330
1F
100
AcDbEntity
  8
1-E
  6
Continuous
 62
     7
370
     9
100
AcDbLine
 10
1955.588932396668
 20
-2310.810817213177
 30
0.0
 11
1815.504579571987
 21
-2163.579532515632
 31
0.0
  0
LINE
  5
458
330
1F
100
AcDbEntity
  8
1-E
  6
Continuous
 62
     7
370
     9
100
AcDbLine
 10
1992.873369892897
 20
-2377.954024674855
 30
0.0
 11
1955.588932396668
 21
-2310.810817213177
 31
0.0
  0
LINE
  5
459
330
1F
100
AcDbEntity
  8
1-E
  6
Continuous
 62
     7
370
     9
100
AcDbLine
 10
1829.209082752884
 20
-2137.860065809132
 30
0.0
 11
1963.651006976916
 21
-2267.387108743003
 31
0.0
  0
LINE
  5
45A
330
1F
100
AcDbEntity
  8
1-E
  6
Continuous
 62
     7
370
     9
100
AcDbLine
 10
1726.471371144706
 20
-2089.010263828743
 30
0.0
 11
1829.209082752884
 21
-2137.860065809132
 31
0.0
  0
LINE
  5
45B
330
1F
100
AcDbEntity
  8
1-E
  6
Continuous
 62
     7
370
     9
100
AcDbLine
 10
2030.220011109397
 20
-2403.332355155952
 30
0.0
 11
1963.651006976916
 21
-2267.387108743003
 31
0.0
  0
LINE
  5
45C
330
1F
100
AcDbEntity
  8
1-E
  6
Continuous
 62
     7
370
     9
100
AcDbLine
 10
2246.294451426492
 20
-2276.875733210825
 30
0.0
 11
2046.165891223641
 21
-2384.539922672057
 31
0.0
  0
LINE
  5
45D
330
1F
100
AcDbEntity
  8
1-E
  6
Continuous
 62
     7
370
     9
100
AcDbLine
 10
2126.834986909779
 20
-2191.562348512193
 30
0.0
 11
1983.757769012388
 21
-2268.534334318101
 31
0.0
  0
LINE
  5
45E
330
1F
100
AcDbEntity
  8
1-E
  6
Continuous
 62
     7
370
     9
100
AcDbLine
 10
1997.462272193285
 20
-2067.228725679174
 30
0.0
 11
1854.385841684756
 21
-2144.185357402234
 31
0.0
  0
LINE
  5
45F
330
1F
100
AcDbEntity
  8
1-E
  6
Continuous
 62
     7
370
     9
100
AcDbLine
 10
1945.80720053707
 20
-1966.955738063069
 30
0.0
 11
1747.074975553469
 21
-2080.297609199472
 31
0.0
  0
LINE
  5
460
330
1F
100
AcDbEntity
  8
1-E
  6
Continuous
 62
     7
370
     9
100
AcDbLine
 10
2004.516489027394
 20
-2062.407346816642
 30
0.0
 11
1954.937761805999
 21
-1961.204059257514
 31
0.0
  0
LINE
  5
461
330
1F
100
AcDbEntity
  8
1-E
  6
Continuous
 62
     7
370
     9
100
AcDbLine
 10
2135.00493376442
 20
-2183.53176948651
 30
0.0
 11
2004.516489027394
 21
-2062.407346816642
 31
0.0
  0
LINE
  5
462
330
1F
100
AcDbEntity
  8
1-E
  6
Continuous
 62
     7
370
     9
100
AcDbLine
 10
2270.841323666897
 20
-2267.774700911395
 30
0.0
 11
2135.00493376442
 21
-2183.53176948651
 31
0.0
  0
LINE
  5
463
330
1F
100
AcDbEntity
  8
1-E
  6
Continuous
 62
     7
370
     9
100
AcDbLine
 10
2290.26699433486
 20
-2269.511090204106
 30
0.0
 11
2338.511884820352
 21
-2318.87249809899
 31
0.0
  0
LINE
  5
464
330
1F
100
AcDbEntity
  8
1-E
  6
Continuous
 62
     7
370
     9
100
AcDbLine
 10
2144.957529007542
 20
-2174.94312860335
 30
0.0
 11
2290.26699433486
 21
-2269.511090204106
 31
0.0
  0
LINE
  5
465
330
1F
100
AcDbEntity
  8
1-E
  6
Continuous
 62
     7
370
     9
100
AcDbLine
 10
2010.206160959895
 20
-2053.896263736601
 30
0.0
 11
2144.957529007542
 21
-2174.94312860335
 31
0.0
  0
LINE
  5
466
330
1F
100
AcDbEntity
  8
1-E
  6
Continuous
 62
     7
370
     9
100
AcDbLine
 10
1958.550301914813
 20
-1953.607725190423
 30
0.0
 11
2010.206160959895
 21
-2053.896263736601
 31
0.0
  0
LINE
  5
467
330
1F
100
AcDbEntity
  8
1-E
  6
Continuous
 62
     7
370
     9
100
AcDbLine
 10
1932.939691718784
 20
-1930.32227431029
 30
0.0
 11
1958.550301914813
 21
-1953.607725190423
 31
0.0
  0
LINE
  5
468
330
1F
100
AcDbEntity
  8
1-E
  6
Continuous
 62
     7
370
     9
100
AcDbLine
 10
2249.958983600215
 20
-2224.661026806489
 30
0.0
 11
2272.500352003705
 21
-2249.853336668427
 31
0.0
  0
LINE
  5
469
330
1F
100
AcDbEntity
  8
1-E
  6
Continuous
 62
     7
370
     9
100
AcDbLine
 10
2146.941748945254
 20
-2160.78902638101
 30
0.0
 11
2249.958983600215
 21
-2224.661026806489
 31
0.0
  0
LINE
  5
46A
330
1F
100
AcDbEntity
  8
1-E
  6
Continuous
 62
     7
370
     9
100
AcDbLine
 10
2460.56660743324
 20
-2064.081532389085
 30
0.0
 11
2223.216108217508
 21
-2200.476377843473
 31
0.0
  0
LINE
  5
46B
330
1F
100
AcDbEntity
  8
1-E
  6
Continuous
 62
     7
370
     9
100
AcDbLine
 10
2447.388867402473
 20
-2035.928246703432
 30
0.0
 11
2185.234044187622
 21
-2182.97370762903
 31
0.0
  0
LINE
  5
46C
330
1F
100
AcDbEntity
  8
1-E
  6
Continuous
 62
     7
370
     9
100
AcDbLine
 10
2400.817965642208
 20
-2017.603739362009
 30
0.0
 11
2146.941748945254
 21
-2160.78902638101
 31
0.0
  0
LINE
  5
46D
330
1F
100
AcDbEntity
  8
1-E
  6
Continuous
 62
     7
370
     9
100
AcDbLine
 10
2285.600140536918
 20
-1887.859573948841
 30
0.0
 11
2002.113378213944
 21
-2035.137708283805
 31
0.0
  0
LINE
  5
46E
330
1F
100
AcDbEntity
  8
1-E
  6
Continuous
 62
     7
370
     9
100
AcDbLine
 10
2350.805387156653
 20
-2325.383613464039
 30
0.0
 11
2338.511884820352
 21
-2318.87249809899
 31
0.0
  0
LINE
  5
46F
330
1F
100
AcDbEntity
  8
1-E
  6
Continuous
 62
     7
370
     9
100
AcDbLine
 10
2380.12144934747
 20
-2329.724488272213
 30
0.0
 11
2350.805387156653
 21
-2325.383613464039
 31
0.0
  0
LINE
  5
470
330
1F
100
AcDbEntity
  8
1-E
  6
Continuous
 62
     7
370
     9
100
AcDbLine
 10
2599.473026517118
 20
-2195.438073348857
 30
0.0
 11
2380.12144934747
 21
-2329.724488272213
 31
0.0
  0
LINE
  5
471
330
1F
100
AcDbEntity
  8
1-E
  6
Continuous
 62
     7
370
     9
100
AcDbLine
 10
2602.635180195631
 20
-2170.912288160442
 30
0.0
 11
2599.473026517118
 21
-2195.438073348857
 31
0.0
  0
LINE
  5
472
330
1F
100
AcDbEntity
  8
1-E
  6
Continuous
 62
     7
370
     9
100
AcDbLine
 10
2460.56660743324
 20
-2051.818738218483
 30
0.0
 11
2602.635180195631
 21
-2170.912288160442
 31
0.0
  0
LINE
  5
473
330
1F
100
AcDbEntity
  8
1-E
  6
Continuous
 62
     7
370
     9
100
AcDbLine
 10
2446.644784925831
 20
-2027.479170496443
 30
0.0
 11
2460.56660743324
 21
-2051.818738218483
 31
0.0
  0
LINE
  5
474
330
1F
100
AcDbEntity
  8
1-E
  6
Continuous
 62
     7
370
     9
100
AcDbLine
 10
2415.293322521131
 20
-2004.315174348608
 30
0.0
 11
2446.644784925831
 21
-2027.479170496443
 31
0.0
  0
LINE
  5
475
330
1F
100
AcDbEntity
  8
1-E
  6
Continuous
 62
     7
370
     9
100
AcDbLine
 10
2408.445401569433
 20
-1982.629107098825
 30
0.0
 11
2415.293322521131
 21
-2004.315174348608
 31
0.0
  0
LINE
  5
476
330
1F
100
AcDbEntity
  8
1-E
  6
Continuous
 62
     7
370
     9
100
AcDbLine
 10
2314.668175235521
 20
-1901.672736792994
 30
0.0
 11
2408.445401569433
 21
-1982.629107098825
 31
0.0
  0
LINE
  5
477
330
1F
100
AcDbEntity
  8
1-E
  6
Continuous
 62
     7
370
     9
100
AcDbLine
 10
2301.584134479589
 20
-1899.006244404479
 30
0.0
 11
2314.668175235521
 21
-1901.672736792994
 31
0.0
  0
LINE
  5
478
330
1F
100
AcDbEntity
  8
1-E
  6
Continuous
 62
     7
370
     9
100
AcDbLine
 10
2291.041784977205
 20
-1888.774519809009
 30
0.0
 11
2301.584134479589
 21
-1899.006244404479
 31
0.0
  0
LINE
  5
479
330
1F
100
AcDbEntity
  8
1-E
  6
Continuous
 62
     7
370
     9
100
AcDbLine
 10
2272.438148283433
 20
-1884.247427534457
 30
0.0
 11
2291.041784977205
 21
-1888.774519809009
 31
0.0
  0
LINE
  5
47A
330
1F
100
AcDbEntity
  8
1-E
  6
Continuous
 62
     7
370
     9
100
AcDbLine
 10
2155.375471069389
 20
-1794.098095392214
 30
0.0
 11
2272.438148283433
 21
-1884.247427534457
 31
0.0
  0
LINE
  5
47B
330
1F
100
AcDbEntity
  8
1-E
  6
Continuous
 62
     7
370
     9
100
AcDbLine
 10
2132.105767966542
 20
-1797.167337184753
 30
0.0
 11
2155.375471069389
 21
-1794.098095392214
 31
0.0
  0
LINE
  5
47C
330
1F
100
AcDbEntity
  8
1-E
  6
Continuous
 62
     7
370
     9
100
AcDbLine
 10
1927.280727951986
 20
-1902.13808361172
 30
0.0
 11
1925.110684242334
 21
-1925.702270149768
 31
0.0
  0
ELLIPSE
  5
47D
330
1F
100
AcDbEntity
  8
1-E
  6
Continuous
 62
     7
370
     9
100
AcDbEllipse
 10
1990.814855244213
 20
-2169.846654195712
 30
0.0
 11
79.69551291525261
 21
0.0
 31
0.0
210
0.0
220
0.0
230
1.0
 40
0.7
 41
0.0
 42
6.283185307179586
  0
MTEXT
  5
47E
330
1F
100
AcDbEntity
  8
1-E
  6
Continuous
 62
     7
370
   211
100
AcDbMText
 10
3796.880409431619
 20
-2907.751220652516
 30
0.0
 40
57.15
 41
75.0
 46
0.0
 71
     7
 72
     1
  1
{\fＭＳ ゴシック|b0|i0|c128|p49;77}
 11
6.123031769111886E-17
 21
1.0
 31
0.0
 73
     1
 44
1.0
  0
LINE
  5
47F
330
1F
100
AcDbEntity
  8
1-E
  6
Continuous
 62
   120
370
     5
100
AcDbLine
 10
2436.869406105302
 20
-1793.313195978632
 30
0.0
 11
2456.182201716428
 21
-1380.019369900524
 31
0.0
  0
LINE
  5
480
330
1F
100
AcDbEntity
  8
1-E
  6
Continuous
 62
   120
370
     5
100
AcDbLine
 10
2140.395197929737
 20
-1547.022112287718
 30
0.0
 11
2456.182201716428
 21
-1380.019369900524
 31
0.0
  0
MTEXT
  5
481
330
1F
100
AcDbEntity
  8
1-E
  6
Continuous
 62
     7
370
   211
100
AcDbMText
 10
3994.24842441405
 20
-2913.75229454134
 30
0.0
 40
57.15
 41
75.0
 46
0.0
 71
     7
 72
     1
  1
{\fＭＳ ゴシック|b0|i0|c128|p49;40}
 11
6.123031769111886E-17
 21
1.0
 31
0.0
 73
     1
 44
1.0
  0
LINE
  5
482
330
1F
100
AcDbEntity
  8
1-E
  6
JWW_CENTER1
 62
   120
370
     5
100
AcDbLine
 10
1926.557966997304
 20
-1902.212134574944
 30
0.0
 11
1619.304282372801
 21
-2079.605132102404
 31
0.0
  0
MTEXT
  5
483
330
1F
100
AcDbEntity
  8
1-E
  6
Continuous
 62
     7
370
   211
100
AcDbMText
 10
3895.418495421404
 20
-3060.751757596926
 30
0.0
 40
57.15
 41
150.0
 46
0.0
 71
     7
 72
     1
  1
{\fＭＳ ゴシック|b0|i0|c128|p49;38.5}
 11
6.123031769111886E-17
 21
1.0
 31
0.0
 73
     1
 44
1.0
  0
CIRCLE
  5
484
330
1F
100
AcDbEntity
  8
1-E
  6
Continuous
 62
     7
370
     9
100
AcDbCircle
 10
1705.988172517287
 20
-1919.827239368857
 30
0.0
 40
12.0
  0
CIRCLE
  5
485
330
1F
100
AcDbEntity
  8
1-E
  6
Continuous
 62
     7
370
     9
100
AcDbCircle
 10
1782.160304274385
 20
-1985.580164018373
 30
0.0
 40
12.0
  0
LINE
  5
486
330
1F
100
AcDbEntity
  8
1-E
  6
Continuous
 62
   120
370
     5
100
AcDbLine
 10
1705.988172517287
 20
-1919.827239368856
 30
0.0
 11
1782.160304274385
 21
-1985.580164018373
 31
0.0
  0
LWPOLYLINE
  5
487
330
1F
100
AcDbEntity
  8
1-E
  6
Continuous
 62
     7
370
     9
100
AcDbPolyline
 90
        4
 70
     1
 43
3.0
 10
-728.2843673199519
 20
-1254.151408529586
 42
0.4142135623731
 10
-729.7843673199519
 20
-1252.651408529586
 42
0.4142135623731
 10
-731.2843673199519
 20
-1254.151408529586
 42
0.4142135623731
 10
-729.7843673199519
 20
-1255.651408529586
 42
0.4142135623731
  0
LINE
  5
488
330
1F
100
AcDbEntity
  8
1-E
  6
Continuous
 62
   120
370
     5
100
AcDbLine
 10
-729.7843673199519
 20
-1254.151408529586
 30
0.0
 11
-729.7843673199519
 21
-1397.693458329587
 31
0.0
  0
LINE
  5
489
330
1F
100
AcDbEntity
  8
1-E
  6
Continuous
 62
    92
370
    13
100
AcDbLine
 10
-729.7843673199519
 20
-1447.693458329586
 30
0.0
 11
-729.7843673199519
 21
-2322.984663878414
 31
0.0
  0
LINE
  5
48A
330
1F
100
AcDbEntity
  8
1-E
  6
Continuous
 62
    92
370
    13
100
AcDbLine
 10
-1313.434492524692
 20
-498.7332092194679
 30
0.0
 11
672.2348691458878
 21
-498.7332092194679
 31
0.0
  0
LINE
  5
48B
330
1F
100
AcDbEntity
  8
1-E
  6
Continuous
 62
    92
370
    13
100
AcDbLine
 10
-1313.434492524692
 20
-282.7332092194671
 30
0.0
 11
672.2348691458878
 21
-282.7332092194671
 31
0.0
  0
MTEXT
  5
48C
330
1F
100
AcDbEntity
  8
1-E
  6
Continuous
 62
     7
370
   211
100
AcDbMText
 10
3994.54026741691
 20
-3093.943110039936
 30
0.0
 40
57.15
 41
150.0
 46
0.0
 71
     7
 72
     1
  1
{\fＭＳ ゴシック|b0|i0|c128|p49;18.5}
 11
6.123031769111886E-17
 21
1.0
 31
0.0
 73
     1
 44
1.0
  0
LINE
  5
48D
330
1F
100
AcDbEntity
  8
1-E
  6
Continuous
 62
    92
370
    13
100
AcDbLine
 10
-1313.434492524692
 20
-282.7332092194671
 30
0.0
 11
-1313.434492524692
 21
-3381.83065404837
 31
0.0
  0
LINE
  5
48E
330
1F
100
AcDbEntity
  8
1-E
  6
Continuous
 62
    92
370
    13
100
AcDbLine
 10
-1313.434492524692
 20
-3381.83065404837
 30
0.0
 11
5409.834869145897
 21
-3381.83065404837
 31
0.0
  0
LWPOLYLINE
  5
48F
330
1F
100
AcDbEntity
  8
1-E
  6
Continuous
 62
     7
370
     9
100
AcDbPolyline
 90
        4
 70
     1
 43
3.0
 10
41.71563268004826
 20
-1254.151408529586
 42
0.4142135623731
 10
40.21563268004826
 20
-1252.651408529586
 42
0.4142135623731
 10
38.71563268004826
 20
-1254.151408529586
 42
0.4142135623731
 10
40.21563268004826
 20
-1255.651408529586
 42
0.4142135623731
  0
LINE
  5
490
330
1F
100
AcDbEntity
  8
1-E
  6
JWW_HOJO
 62
   120
370
     5
100
AcDbLine
 10
-764.7847137357109
 20
-1397.693458329587
 30
0.0
 11
86.42937240014845
 21
-1397.693458329587
 31
0.0
  0
LINE
  5
491
330
1F
100
AcDbEntity
  8
1-E
  6
JWW_HOJO
 62
   120
370
     5
100
AcDbLine
 10
-764.7847137357109
 20
-1447.693458329586
 30
0.0
 11
86.42937240014845
 21
-1447.693458329586
 31
0.0
  0
LINE
  5
492
330
1F
100
AcDbEntity
  8
1-E
  6
Continuous
 62
    92
370
    13
100
AcDbLine
 10
40.21563268004826
 20
-1447.693458329586
 30
0.0
 11
40.21563268004826
 21
-2322.984663878414
 31
0.0
  0
LINE
  5
493
330
1F
100
AcDbEntity
  8
1-E
  6
Continuous
 62
    92
370
    13
100
AcDbLine
 10
-729.7843673199519
 20
-2322.984663878414
 30
0.0
 11
40.21563268004826
 21
-2322.984663878414
 31
0.0
  0
LINE
  5
494
330
1F
100
AcDbEntity
  8
1-E
  6
Continuous
 62
   120
370
     5
100
AcDbLine
 10
40.21563268004826
 20
-1254.151408529586
 30
0.0
 11
40.21563268004826
 21
-1397.693458329587
 31
0.0
  0
LINE
  5
495
330
1F
100
AcDbEntity
  8
1-E
  6
Continuous
 62
   120
370
     5
100
AcDbLine
 10
-729.7843673199519
 20
-1254.151408529586
 30
0.0
 11
40.21563268004826
 21
-1254.151408529586
 31
0.0
  0
MTEXT
  5
496
330
1F
100
AcDbEntity
  8
1-E
  6
Continuous
 62
     7
370
     9
100
AcDbMText
 10
1598.23883428522
 20
-3322.188365094177
 30
0.0
 40
57.15
 41
1425.0
 46
0.0
 71
     7
 72
     1
  1
{\fＭＳ ゴシック|b0|i0|c128|p49;※現場にて左右どちらでも施工可能です。}
 73
     1
 44
1.0
  0
LINE
  5
497
330
1F
100
AcDbEntity
  8
1-E
  6
JWW_DASHED1
 62
   120
370
     5
100
AcDbLine
 10
4792.155402723419
 20
-3125.326468092343
 30
0.0
 11
4717.155155283594
 21
-3050.326220652514
 31
0.0
  0
LINE
  5
498
330
1F
100
AcDbEntity
  8
1-E
  6
JWW_DASHED1
 62
   120
370
     5
100
AcDbLine
 10
4749.728995852219
 20
-3125.326468092349
 30
0.0
 11
4674.728748412394
 21
-3050.326220652518
 31
0.0
  0
LINE
  5
499
330
1F
100
AcDbEntity
  8
1-E
  6
JWW_DASHED1
 62
   120
370
     5
100
AcDbLine
 10
4707.302588981019
 20
-3125.326468092339
 30
0.0
 11
4632.30234154118
 21
-3050.326220652507
 31
0.0
  0
LINE
  5
49A
330
1F
100
AcDbEntity
  8
1-E
  6
JWW_DASHED1
 62
   120
370
     5
100
AcDbLine
 10
4664.876182109819
 20
-3125.326468092343
 30
0.0
 11
4628.026799567391
 21
-3088.477085549912
 31
0.0
  0
LINE
  5
49B
330
1F
100
AcDbEntity
  8
1-E
  6
Continuous
 62
    40
370
    15
100
AcDbLine
 10
4628.026799567391
 20
-3050.326220652511
 30
0.0
 11
4847.300628781879
 21
-3050.326220652511
 31
0.0
  0
LINE
  5
49C
330
1F
100
AcDbEntity
  8
1-E
  6
Continuous
 62
    40
370
    15
100
AcDbLine
 10
4628.026799567391
 20
-3125.326220652511
 30
0.0
 11
4847.300628781879
 21
-3125.326220652511
 31
0.0
  0
LINE
  5
49D
330
1F
100
AcDbEntity
  8
1-E
  6
JWW_DASHED1
 62
   120
370
     5
100
AcDbLine
 10
4847.300628781879
 20
-3095.618880408401
 30
0.0
 11
4802.00796902598
 21
-3050.326220652508
 31
0.0
  0
LINE
  5
49E
330
1F
100
AcDbEntity
  8
1-E
  6
JWW_DASHED1
 62
   120
370
     5
100
AcDbLine
 10
4834.581562154794
 20
-3125.326220652511
 30
0.0
 11
4759.58156215478
 21
-3050.326220652508
 31
0.0
  0
LINE
  5
49F
330
1F
100
AcDbEntity
  8
1-E
  6
Continuous
 62
    92
370
    13
100
AcDbLine
 10
4658.027987555079
 20
-3050.326220652511
 30
0.0
 11
4628.676156209573
 21
-3050.326220652511
 31
0.0
  0
LINE
  5
4A0
330
1F
100
AcDbEntity
  8
1-E
  6
Continuous
 62
    92
370
    13
100
AcDbLine
 10
4628.676156209573
 20
-3050.326220652511
 30
0.0
 11
4628.027987555078
 21
-3050.326220652511
 31
0.0
  0
LINE
  5
4A1
330
1F
100
AcDbEntity
  8
1-E
  6
Continuous
 62
    40
370
    15
100
AcDbLine
 10
4628.676156209573
 20
-3050.326220652511
 30
0.0
 11
4628.676156209573
 21
-3125.326220652511
 31
0.0
  0
LINE
  5
4A2
330
1F
100
AcDbEntity
  8
1-7_金物
  6
Continuous
 62
     7
370
     9
100
AcDbLine
 10
2781.918394379421
 20
2301.945146597183
 30
0.0
 11
-2762.081209716868
 21
2301.945146597183
 31
0.0
  0
LINE
  5
4A3
330
1F
100
AcDbEntity
  8
1-7_金物
  6
Continuous
 62
     7
370
     9
100
AcDbLine
 10
2781.918394379421
 20
2421.945146597183
 30
0.0
 11
-2762.081209716868
 21
2421.945146597183
 31
0.0
  0
MTEXT
  5
4A4
330
1F
100
AcDbEntity
  8
0-B_寸法
  6
Continuous
 62
     7
370
     0
100
AcDbMText
 10
-2962.792511304471
 20
-1205.979581760435
 30
0.0
 40
91.43999999999791
 41
119.9999999999973
 46
0.0
 71
     7
 72
     1
  1
{\fＭＳ ゴシック|b0|i0|c128|p49;20}
 11
0.9999999999914964
 21
4.124000518142506E-6
 31
0.0
 73
     1
 44
1.0
  0
MTEXT
  5
4A5
330
1F
100
AcDbEntity
  8
0-B_寸法
  6
Continuous
 62
     7
370
   211
100
AcDbMText
 10
-1186.270992761634
 20
2287.665146597184
 30
0.0
 40
91.44
 41
120.0
 46
0.0
 71
     7
 72
     1
  1
{\fＭＳ ゴシック|b0|i0|c128|p49;20}
 11
6.123031769111886E-17
 21
1.0
 31
0.0
 73
     1
 44
1.0
  0
MTEXT
  5
4A6
330
1F
100
AcDbEntity
  8
F-A_文字
  6
Continuous
 62
     7
370
     0
100
AcDbMText
 10
4938.667793092893
 20
-3938.071010139966
 30
0.0
 40
78.86699999999999
 41
517.5
 46
0.0
 71
     7
 72
     1
  1
{\fＭＳ ゴシック|b0|i0|c128|p49;2024.04.01}
 73
     1
 44
1.0
  0
LINE
  5
4A7
330
1F
100
AcDbEntity
  8
0-0_補助線
  6
Continuous
 62
   120
370
     5
100
AcDbLine
 10
-1982.081407668727
 20
2324.359196304722
 30
0.0
 11
-1982.081407668727
 21
2402.688459527906
 31
0.0
  0
LINE
  5
4A8
330
1F
100
AcDbEntity
  8
0-0_補助線
  6
Continuous
 62
   120
370
     5
100
AcDbLine
 10
-1997.081407668727
 20
2324.359196304722
 30
0.0
 11
-1997.081407668727
 21
2402.688459527906
 31
0.0
  0
LWPOLYLINE
  5
4A9
330
1F
100
AcDbEntity
  8
0-B_寸法
  6
Continuous
 62
     7
370
     9
100
AcDbPolyline
 90
        4
 70
     1
 43
3.0
 10
-1169.770992761632
 20
2421.945146597183
 42
0.4142135623731
 10
-1171.270992761632
 20
2423.445146597183
 42
0.4142135623731
 10
-1172.770992761632
 20
2421.945146597183
 42
0.4142135623731
 10
-1171.270992761632
 20
2420.445146597183
 42
0.4142135623731
  0
LINE
  5
4AA
330
1F
100
AcDbEntity
  8
0-0_補助線
  6
JWW_HOJO
 62
     7
370
     9
100
AcDbLine
 10
-1528.331407668727
 20
2439.945146597184
 30
0.0
 11
-1528.331407668727
 21
2280.944503253644
 31
0.0
  0
LINE
  5
4AB
330
1F
100
AcDbEntity
  8
0-0_補助線
  6
JWW_HOJO
 62
     7
370
     9
100
AcDbLine
 10
-1468.331407668727
 20
2439.945146597184
 30
0.0
 11
-1468.331407668727
 21
2280.944503253644
 31
0.0
  0
LINE
  5
4AC
330
1F
100
AcDbEntity
  8
0-6_扉
  6
Continuous
 62
   200
370
    20
100
AcDbLine
 10
-1997.081407668727
 20
2421.945146597183
 30
0.0
 11
-1528.331407668727
 21
2421.945146597183
 31
0.0
  0
LINE
  5
4AD
330
1F
100
AcDbEntity
  8
0-6_扉
  6
Continuous
 62
   200
370
    20
100
AcDbLine
 10
-1468.331407668727
 20
2421.945146597183
 30
0.0
 11
-999.5814076687259
 21
2421.945146597183
 31
0.0
  0
LINE
  5
4AE
330
1F
100
AcDbEntity
  8
0-0_補助線
  6
JWW_HOJO
 62
     7
370
     9
100
AcDbLine
 10
-524.8314076687254
 20
2439.945146597184
 30
0.0
 11
-524.8314076687254
 21
2280.944503253644
 31
0.0
  0
LINE
  5
4AF
330
1F
100
AcDbEntity
  8
0-0_補助線
  6
JWW_HOJO
 62
     7
370
     9
100
AcDbLine
 10
-464.8314076687254
 20
2439.945146597184
 30
0.0
 11
-464.8314076687254
 21
2280.944503253644
 31
0.0
  0
LINE
  5
4B0
330
1F
100
AcDbEntity
  8
0-0_補助線
  6
JWW_HOJO
 62
     7
370
     9
100
AcDbLine
 10
484.6685923312774
 20
2439.945146597184
 30
0.0
 11
484.6685923312774
 21
2280.944503253644
 31
0.0
  0
LINE
  5
4B1
330
1F
100
AcDbEntity
  8
0-0_補助線
  6
JWW_HOJO
 62
     7
370
     9
100
AcDbLine
 10
544.6685923312773
 20
2439.945146597184
 30
0.0
 11
544.6685923312773
 21
2280.944503253644
 31
0.0
  0
LINE
  5
4B2
330
1F
100
AcDbEntity
  8
0-0_補助線
  6
JWW_HOJO
 62
     7
370
     9
100
AcDbLine
 10
1488.168592331277
 20
2439.945146597184
 30
0.0
 11
1488.168592331277
 21
2280.944503253644
 31
0.0
  0
LINE
  5
4B3
330
1F
100
AcDbEntity
  8
0-0_補助線
  6
JWW_HOJO
 62
     7
370
     9
100
AcDbLine
 10
1548.168592331277
 20
2439.945146597184
 30
0.0
 11
1548.168592331277
 21
2280.944503253644
 31
0.0
  0
LINE
  5
4B4
330
1F
100
AcDbEntity
  8
0-6_扉
  6
Continuous
 62
   200
370
    20
100
AcDbLine
 10
-993.5814076687254
 20
2421.945146597183
 30
0.0
 11
-524.8314076687254
 21
2421.945146597183
 31
0.0
  0
LINE
  5
4B5
330
1F
100
AcDbEntity
  8
0-6_扉
  6
Continuous
 62
   200
370
    20
100
AcDbLine
 10
-464.8314076687254
 20
2421.945146597183
 30
0.0
 11
3.918592331274624
 21
2421.945146597183
 31
0.0
  0
LINE
  5
4B6
330
1F
100
AcDbEntity
  8
0-6_扉
  6
Continuous
 62
   200
370
    20
100
AcDbLine
 10
15.91859233127906
 20
2421.945146597183
 30
0.0
 11
484.6685923312774
 21
2421.945146597183
 31
0.0
  0
LINE
  5
4B7
330
1F
100
AcDbEntity
  8
0-6_扉
  6
Continuous
 62
   200
370
    20
100
AcDbLine
 10
544.6685923312773
 20
2421.945146597183
 30
0.0
 11
1013.418592331275
 21
2421.945146597183
 31
0.0
  0
LINE
  5
4B8
330
1F
100
AcDbEntity
  8
0-6_扉
  6
Continuous
 62
   200
370
    20
100
AcDbLine
 10
1019.418592331276
 20
2421.945146597183
 30
0.0
 11
1488.168592331277
 21
2421.945146597183
 31
0.0
  0
LINE
  5
4B9
330
1F
100
AcDbEntity
  8
0-6_扉
  6
Continuous
 62
   200
370
    20
100
AcDbLine
 10
1548.168592331277
 20
2421.945146597183
 30
0.0
 11
2016.918592331279
 21
2421.945146597183
 31
0.0
  0
CIRCLE
  5
4BA
330
1F
100
AcDbEntity
  8
0-7_金物
  6
Continuous
 62
     7
370
     9
100
AcDbCircle
 10
-996.5814076687252
 20
2451.945146597159
 30
0.0
 40
21.00000000000001
  0
CIRCLE
  5
4BB
330
1F
100
AcDbEntity
  8
0-7_金物
  6
Continuous
 62
     7
370
     9
100
AcDbCircle
 10
-996.5814076687252
 20
2451.945146597159
 30
0.0
 40
30.0
  0
CIRCLE
  5
4BC
330
1F
100
AcDbEntity
  8
0-7_金物
  6
Continuous
 62
     7
370
     9
100
AcDbCircle
 10
1016.418592331275
 20
2451.945146597159
 30
0.0
 40
21.00000000000001
  0
CIRCLE
  5
4BD
330
1F
100
AcDbEntity
  8
0-7_金物
  6
Continuous
 62
     7
370
     9
100
AcDbCircle
 10
1016.418592331275
 20
2451.945146597159
 30
0.0
 40
30.0
  0
LWPOLYLINE
  5
4BE
330
1F
100
AcDbEntity
  8
0-B_寸法
  6
Continuous
 62
     7
370
     9
100
AcDbPolyline
 90
        4
 70
     1
 43
3.0
 10
-1169.770992761632
 20
2301.945146597183
 42
0.4142135623731
 10
-1171.270992761632
 20
2303.445146597183
 42
0.4142135623731
 10
-1172.770992761632
 20
2301.945146597183
 42
0.4142135623731
 10
-1171.270992761632
 20
2300.445146597183
 42
0.4142135623731
  0
LINE
  5
4BF
330
1F
100
AcDbEntity
  8
0-6_扉
  6
Continuous
 62
   200
370
    20
100
AcDbLine
 10
-1997.081407668727
 20
2301.945146597183
 30
0.0
 11
-1528.331407668727
 21
2301.945146597183
 31
0.0
  0
LINE
  5
4C0
330
1F
100
AcDbEntity
  8
0-6_扉
  6
Continuous
 62
   200
370
    20
100
AcDbLine
 10
-1468.331407668727
 20
2301.945146597183
 30
0.0
 11
-999.5814076687259
 21
2301.945146597183
 31
0.0
  0
LINE
  5
4C1
330
1F
100
AcDbEntity
  8
0-6_扉
  6
Continuous
 62
   200
370
    20
100
AcDbLine
 10
-993.5814076687254
 20
2301.945146597183
 30
0.0
 11
-524.8314076687254
 21
2301.945146597183
 31
0.0
  0
LINE
  5
4C2
330
1F
100
AcDbEntity
  8
0-6_扉
  6
Continuous
 62
   200
370
    20
100
AcDbLine
 10
-464.8314076687254
 20
2301.945146597183
 30
0.0
 11
3.918592331274624
 21
2301.945146597183
 31
0.0
  0
LINE
  5
4C3
330
1F
100
AcDbEntity
  8
0-6_扉
  6
Continuous
 62
   200
370
    20
100
AcDbLine
 10
15.91859233127906
 20
2301.945146597183
 30
0.0
 11
484.6685923312774
 21
2301.945146597183
 31
0.0
  0
LINE
  5
4C4
330
1F
100
AcDbEntity
  8
0-6_扉
  6
Continuous
 62
   200
370
    20
100
AcDbLine
 10
544.6685923312773
 20
2301.945146597183
 30
0.0
 11
1013.418592331275
 21
2301.945146597183
 31
0.0
  0
LINE
  5
4C5
330
1F
100
AcDbEntity
  8
0-6_扉
  6
Continuous
 62
   200
370
    20
100
AcDbLine
 10
1019.418592331276
 20
2301.945146597183
 30
0.0
 11
1488.168592331277
 21
2301.945146597183
 31
0.0
  0
LINE
  5
4C6
330
1F
100
AcDbEntity
  8
0-6_扉
  6
Continuous
 62
   200
370
    20
100
AcDbLine
 10
1548.168592331277
 20
2301.945146597183
 30
0.0
 11
2016.918592331279
 21
2301.945146597183
 31
0.0
  0
LINE
  5
4C7
330
1F
100
AcDbEntity
  8
0-6_扉
  6
Continuous
 62
   200
370
    20
100
AcDbLine
 10
-1997.081407668727
 20
2421.945146597183
 30
0.0
 11
-1997.081407668727
 21
2301.945146597183
 31
0.0
  0
LINE
  5
4C8
330
1F
100
AcDbEntity
  8
0-6_扉
  6
Continuous
 62
   200
370
    20
100
AcDbLine
 10
2016.918592331279
 20
2421.945146597183
 30
0.0
 11
2016.918592331279
 21
2301.945146597183
 31
0.0
  0
LINE
  5
4C9
330
1F
100
AcDbEntity
  8
0-B_寸法
  6
Continuous
 62
   120
370
     5
100
AcDbLine
 10
-1171.270992761632
 20
2421.945146597183
 30
0.0
 11
-1171.270992761632
 21
2301.945146597183
 31
0.0
  0
LINE
  5
4CA
330
1F
100
AcDbEntity
  8
0-6_扉
  6
Continuous
 62
   200
370
    20
100
AcDbLine
 10
3.918592331274624
 20
2421.945146597183
 30
0.0
 11
3.918592331274624
 21
2301.945146597183
 31
0.0
  0
LINE
  5
4CB
330
1F
100
AcDbEntity
  8
0-6_扉
  6
Continuous
 62
   200
370
    20
100
AcDbLine
 10
15.91859233127565
 20
2421.945146597183
 30
0.0
 11
15.91859233127565
 21
2301.945146597183
 31
0.0
  0
LINE
  5
4CC
330
1F
100
AcDbEntity
  8
0-6_扉
  6
Continuous
 62
   200
370
    20
100
AcDbLine
 10
-999.5814076687259
 20
2421.945146597183
 30
0.0
 11
-999.5814076687259
 21
2301.945146597183
 31
0.0
  0
LINE
  5
4CD
330
1F
100
AcDbEntity
  8
0-6_扉
  6
Continuous
 62
   200
370
    20
100
AcDbLine
 10
-993.5814076687254
 20
2421.945146597183
 30
0.0
 11
-993.5814076687254
 21
2301.945146597183
 31
0.0
  0
LINE
  5
4CE
330
1F
100
AcDbEntity
  8
0-6_扉
  6
Continuous
 62
   200
370
    20
100
AcDbLine
 10
1019.418592331276
 20
2421.945146597183
 30
0.0
 11
1019.418592331276
 21
2301.945146597183
 31
0.0
  0
LINE
  5
4CF
330
1F
100
AcDbEntity
  8
0-6_扉
  6
Continuous
 62
   200
370
    20
100
AcDbLine
 10
1013.418592331275
 20
2421.945146597183
 30
0.0
 11
1013.418592331275
 21
2301.945146597183
 31
0.0
  0
LINE
  5
4D0
330
1F
100
AcDbEntity
  8
0-6_扉
  6
Continuous
 62
   200
370
    20
100
AcDbLine
 10
-2835.292506046921
 20
-1965.830426403386
 30
0.0
 11
-2835.292506046921
 21
-3240.831047477341
 31
0.0
  0
LINE
  5
4D1
330
1F
100
AcDbEntity
  8
0-6_扉
  6
Continuous
 62
   200
370
    20
100
AcDbLine
 10
-2835.292506046921
 20
-642.8301618489014
 30
0.0
 11
-2835.292506046921
 21
-1845.830426403386
 31
0.0
  0
LINE
  5
4D2
330
1F
100
AcDbEntity
  8
0-B_寸法
  6
Continuous
 62
   120
370
     5
100
AcDbLine
 10
-2835.292506046921
 20
-1122.462254184529
 30
0.0
 11
-2835.292506046921
 21
-1206.699182763501
 31
0.0
  0
LWPOLYLINE
  5
4D3
330
1F
100
AcDbEntity
  8
0-B_寸法
  6
Continuous
 62
     7
370
     9
100
AcDbPolyline
 90
        4
 70
     1
 43
3.0
 10
-2833.792506046921
 20
-1206.699182763501
 42
0.4142135623731
 10
-2835.292506046921
 20
-1205.199182763501
 42
0.4142135623731
 10
-2836.792506046921
 20
-1206.699182763501
 42
0.4142135623731
 10
-2835.292506046921
 20
-1208.199182763501
 42
0.4142135623731
  0
LINE
  5
4D4
330
1F
100
AcDbEntity
  8
0-6_扉
  6
Continuous
 62
   200
370
    20
100
AcDbLine
 10
-2955.292506046921
 20
-1965.830426403386
 30
0.0
 11
-2955.292506046921
 21
-3240.831047477341
 31
0.0
  0
LINE
  5
4D5
330
1F
100
AcDbEntity
  8
0-6_扉
  6
Continuous
 62
   200
370
    20
100
AcDbLine
 10
-2955.292506046921
 20
-642.8301618489014
 30
0.0
 11
-2955.292506046921
 21
-1845.830426403386
 31
0.0
  0
LINE
  5
4D6
330
1F
100
AcDbEntity
  8
0-B_寸法
  6
Continuous
 62
   120
370
     5
100
AcDbLine
 10
-2955.292506046921
 20
-1122.462254184529
 30
0.0
 11
-2955.292506046921
 21
-1206.699182763501
 31
0.0
  0
LWPOLYLINE
  5
4D7
330
1F
100
AcDbEntity
  8
0-B_寸法
  6
Continuous
 62
     7
370
     9
100
AcDbPolyline
 90
        4
 70
     1
 43
3.0
 10
-2953.792506046921
 20
-1206.699182763501
 42
0.4142135623731
 10
-2955.292506046921
 20
-1205.199182763501
 42
0.4142135623731
 10
-2956.792506046921
 20
-1206.699182763501
 42
0.4142135623731
 10
-2955.292506046921
 20
-1208.199182763501
 42
0.4142135623731
  0
LINE
  5
4D8
330
1F
100
AcDbEntity
  8
0-6_扉
  6
Continuous
 62
   200
370
    20
100
AcDbLine
 10
-2955.292506046921
 20
-3240.831047477341
 30
0.0
 11
-2835.292506046921
 21
-3240.831047477341
 31
0.0
  0
LINE
  5
4D9
330
1F
100
AcDbEntity
  8
0-6_扉
  6
Continuous
 62
   200
370
    20
100
AcDbLine
 10
-2955.292506046921
 20
-642.8301618489014
 30
0.0
 11
-2835.292506046921
 21
-642.8301618489014
 31
0.0
  0
LINE
  5
4DA
330
1F
100
AcDbEntity
  8
0-B_寸法
  6
Continuous
 62
   120
370
     5
100
AcDbLine
 10
-2955.292506046921
 20
-1206.699182763501
 30
0.0
 11
-2835.292506046921
 21
-1206.699182763501
 31
0.0
  0
LINE
  5
4DB
330
1F
100
AcDbEntity
  8
1-E
  6
Continuous
 62
   200
370
    20
100
AcDbLine
 10
4059.259425062962
 20
-2921.32729454134
 30
0.0
 11
4493.026997519248
 21
-2921.32729454134
 31
0.0
  0
LINE
  5
4DC
330
1F
100
AcDbEntity
  8
1-E
  6
Continuous
 62
   200
370
    20
100
AcDbLine
 10
4059.259425062962
 20
-2801.32729454134
 30
0.0
 11
4493.026997519248
 21
-2801.32729454134
 31
0.0
  0
LINE
  5
4DD
330
1F
100
AcDbEntity
  8
1-E
  6
Continuous
 62
   200
370
    20
100
AcDbLine
 10
4493.026997519248
 20
-2801.32729454134
 30
0.0
 11
4493.026997519248
 21
-2921.32729454134
 31
0.0
  0
ENDSEC
  0
SECTION
  2
OBJECTS
  0
DICTIONARY
  5
C
330
0
100
AcDbDictionary
281
     1
  3
ACAD_GROUP
350
D
  3
ACAD_LAYOUT
350
1A
  3
ACAD_MATERIAL
350
3B
  3
ACAD_MLEADERSTYLE
350
4DF
  3
ACAD_MLINESTYLE
350
17
  3
ACAD_PLOTSETTINGS
350
19
  3
ACAD_PLOTSTYLENAME
350
E
  3
ACAD_TABLESTYLE
350
4DE
  3
ACAD_VISUALSTYLE
350
2A
  0
DICTIONARY
  5
D
102
{ACAD_REACTORS
330
C
102
}
330
C
100
AcDbDictionary
281
     1
  0
DICTIONARY
  5
1A
102
{ACAD_REACTORS
330
C
102
}
330
C
100
AcDbDictionary
281
     1
  3
Layout1
350
1E
  3
Layout2
350
26
  3
Model
350
22
  0
DICTIONARY
  5
3B
102
{ACAD_REACTORS
330
C
102
}
330
C
100
AcDbDictionary
281
     1
  3
ByBlock
350
3D
  3
ByLayer
350
3C
  3
Global
350
3E
  0
DICTIONARY
  5
4DF
102
{ACAD_REACTORS
330
C
102
}
330
C
100
AcDbDictionary
281
     1
  0
DICTIONARY
  5
17
102
{ACAD_REACTORS
330
C
102
}
330
C
100
AcDbDictionary
281
     1
  3
Standard
350
18
  0
DICTIONARY
  5
19
102
{ACAD_REACTORS
330
C
102
}
330
C
100
AcDbDictionary
281
     1
  0
ACDBDICTIONARYWDFLT
  5
E
102
{ACAD_REACTORS
330
C
102
}
330
C
100
AcDbDictionary
281
     1
  3
Normal
350
F
100
AcDbDictionaryWithDefault
340
F
  0
DICTIONARY
  5
4DE
102
{ACAD_REACTORS
330
C
102
}
330
C
100
AcDbDictionary
281
     1
  0
DICTIONARY
  5
2A
102
{ACAD_REACTORS
330
C
102
}
330
C
100
AcDbDictionary
281
     1
  3
2dWireframe
350
2F
  3
3D Hidden
350
31
  3
3dWireframe
350
30
  3
Basic
350
32
  3
Brighten
350
36
  3
ColorChange
350
3A
  3
Conceptual
350
34
  3
Dim
350
35
  3
Facepattern
350
39
  3
Flat
350
2B
  3
FlatWithEdges
350
2C
  3
Gouraud
350
2D
  3
GouraudWithEdges
350
2E
  3
Linepattern
350
38
  3
Realistic
350
33
  3
Thicken
350
37
  0
LAYOUT
  5
1E
102
{ACAD_REACTORS
330
1A
102
}
330
1A
100
AcDbPlotSettings
  1

  2
none_device
  4

  6

 40
0.0
 41
0.0
 42
0.0
 43
0.0
 44
0.0
 45
0.0
 46
0.0
 47
0.0
 48
0.0
 49
0.0
140
0.0
141
0.0
142
1.0
143
1.0
 70
   688
 72
     0
 73
     0
 74
     5
  7

 75
    16
 76
     0
 77
     5
 78
   300
147
1.0
148
0.0
149
0.0
100
AcDbLayout
  1
Layout1
 70
     1
 71
     1
 10
0.0
 20
0.0
 11
420.0
 21
297.0
 12
0.0
 22
0.0
 32
0.0
 14
1.000000000000000E+20
 24
1.000000000000000E+20
 34
1.000000000000000E+20
 15
-1.000000000000000E+20
 25
-1.000000000000000E+20
 35
-1.000000000000000E+20
146
0.0
 13
0.0
 23
0.0
 33
0.0
 16
1.0
 26
0.0
 36
0.0
 17
0.0
 27
1.0
 37
0.0
 76
     0
330
1B
  0
LAYOUT
  5
26
102
{ACAD_REACTORS
330
1A
102
}
330
1A
100
AcDbPlotSettings
  1

  2
none_device
  4

  6

 40
0.0
 41
0.0
 42
0.0
 43
0.0
 44
0.0
 45
0.0
 46
0.0
 47
0.0
 48
0.0
 49
0.0
140
0.0
141
0.0
142
1.0
143
1.0
 70
   688
 72
     0
 73
     0
 74
     5
  7

 75
    16
 76
     0
 77
     5
 78
   300
147
1.0
148
0.0
149
0.0
100
AcDbLayout
  1
Layout2
 70
     1
 71
     2
 10
0.0
 20
0.0
 11
0.0
 21
0.0
 12
0.0
 22
0.0
 32
0.0
 14
0.0
 24
0.0
 34
0.0
 15
0.0
 25
0.0
 35
0.0
146
0.0
 13
0.0
 23
0.0
 33
0.0
 16
1.0
 26
0.0
 36
0.0
 17
0.0
 27
1.0
 37
0.0
 76
     0
330
23
  0
LAYOUT
  5
22
102
{ACAD_REACTORS
330
1A
102
}
330
1A
100
AcDbPlotSettings
  1

  2
none_device
  4

  6

 40
0.0
 41
0.0
 42
0.0
 43
0.0
 44
0.0
 45
0.0
 46
0.0
 47
0.0
 48
0.0
 49
0.0
140
0.0
141
0.0
142
1.0
143
1.0
 70
  1712
 72
     0
 73
     0
 74
     0
  7

 75
     0
 76
     0
 77
     5
 78
   300
147
1.0
148
0.0
149
0.0
100
AcDbLayout
  1
Model
 70
     1
 71
     0
 10
-6300.0
 20
-4455.0
 11
6300.0
 21
4455.0
 12
0.0
 22
0.0
 32
0.0
 14
-6300.0
 24
-4455.0
 34
0.0
 15
6300.0
 25
4455.0
 35
0.0
146
0.0
 13
0.0
 23
0.0
 33
0.0
 16
1.0
 26
0.0
 36
0.0
 17
0.0
 27
1.0
 37
0.0
 76
     0
330
1F
331
29
  0
MATERIAL
  5
3D
102
{ACAD_REACTORS
330
3B
102
}
330
3B
100
AcDbMaterial
  1
ByBlock
 72
     1
 94
      127
  0
MATERIAL
  5
3C
102
{ACAD_REACTORS
330
3B
102
}
330
3B
100
AcDbMaterial
  1
ByLayer
 72
     1
 94
      127
  0
MATERIAL
  5
3E
102
{ACAD_REACTORS
330
3B
102
}
330
3B
100
AcDbMaterial
  1
Global
 72
     1
 94
      127
  0
MLINESTYLE
  5
18
102
{ACAD_REACTORS
330
17
102
}
330
17
100
AcDbMlineStyle
  2
Standard
 70
     0
  3

 62
   256
 51
90.0
 52
90.0
 71
     2
 49
0.5
 62
   256
  6
BYLAYER
 49
-0.5
 62
   256
  6
BYLAYER
  0
ACDBPLACEHOLDER
  5
F
102
{ACAD_REACTORS
330
E
102
}
330
E
  0
VISUALSTYLE
  5
2F
102
{ACAD_REACTORS
330
2A
102
}
330
2A
100
AcDbVisualStyle
  2
2dWireframe
 70
     4
177
     2
291
     0
 71
     0
176
     1
 72
     2
176
     1
 73
     0
176
     1
 90
        0
176
     1
 40
-0.6
176
     1
 41
-30.0
176
     1
 62
     5
 63
     7
421
 16777215
176
     1
 74
     1
176
     1
 91
        4
176
     1
 64
     7
176
     1
 65
   257
176
     1
 75
     1
176
     1
175
     1
176
     1
 42
1.0
176
     1
 92
        0
176
     1
 66
   257
176
     1
 43
1.0
176
     1
 76
     1
176
     1
 77
     6
176
     1
 78
     2
176
     1
 67
     7
176
     1
 79
     5
176
     1
170
     0
176
     1
171
     0
176
     1
290
     0
176
     1
 93
        1
176
     1
 44
0.0
176
     1
173
     0
176
     1
  0
VISUALSTYLE
  5
31
102
{ACAD_REACTORS
330
2A
102
}
330
2A
100
AcDbVisualStyle
  2
3D Hidden
 70
     6
177
     2
291
     0
 71
     1
176
     1
 72
     2
176
     1
 73
     2
176
     1
 90
        0
176
     1
 40
-0.6
176
     1
 41
-30.0
176
     1
 62
     5
 63
     7
421
 16777215
176
     1
 74
     2
176
     1
 91
        2
176
     1
 64
     7
176
     1
 65
   257
176
     1
 75
     2
176
     1
175
     1
176
     1
 42
40.0
176
     1
 92
        0
176
     1
 66
   257
176
     1
 43
1.0
176
     1
 76
     1
176
     1
 77
     6
176
     1
 78
     2
176
     1
 67
     7
176
     1
 79
     3
176
     1
170
     0
176
     1
171
     0
176
     1
290
     0
176
     1
 93
        1
176
     1
 44
0.0
176
     1
173
     0
176
     1
  0
VISUALSTYLE
  5
30
102
{ACAD_REACTORS
330
2A
102
}
330
2A
100
AcDbVisualStyle
  2
3dWireframe
 70
     5
177
     2
291
     0
 71
     0
176
     1
 72
     2
176
     1
 73
     0
176
     1
 90
        0
176
     1
 40
-0.6
176
     1
 41
-30.0
176
     1
 62
     5
 63
     7
421
 16777215
176
     1
 74
     1
176
     1
 91
        4
176
     1
 64
     7
176
     1
 65
   257
176
     1
 75
     1
176
     1
175
     1
176
     1
 42
1.0
176
     1
 92
        0
176
     1
 66
   257
176
     1
 43
1.0
176
     1
 76
     1
176
     1
 77
     6
176
     1
 78
     2
176
     1
 67
     7
176
     1
 79
     5
176
     1
170
     0
176
     1
171
     0
176
     1
290
     0
176
     1
 93
        1
176
     1
 44
0.0
176
     1
173
     0
176
     1
  0
VISUALSTYLE
  5
32
102
{ACAD_REACTORS
330
2A
102
}
330
2A
100
AcDbVisualStyle
  2
Basic
 70
     7
177
     2
291
     1
 71
     1
176
     1
 72
     0
176
     1
 73
     1
176
     1
 90
        0
176
     1
 40
-0.6
176
     1
 41
-30.0
176
     1
 62
     5
 63
     7
421
 16777215
176
     1
 74
     0
176
     1
 91
        4
176
     1
 64
     7
176
     1
 65
   257
176
     1
 75
     1
176
     1
175
     1
176
     1
 42
1.0
176
     1
 92
        8
176
     1
 66
     7
176
     1
 43
1.0
176
     1
 76
     1
176
     1
 77
     6
176
     1
 78
     2
176
     1
 67
     7
176
     1
 79
     5
176
     1
170
     0
176
     1
171
     0
176
     1
290
     0
176
     1
 93
        1
176
     1
 44
0.0
176
     1
173
     0
176
     1
  0
VISUALSTYLE
  5
36
102
{ACAD_REACTORS
330
2A
102
}
330
2A
100
AcDbVisualStyle
  2
Brighten
 70
    12
177
     2
291
     1
 71
     2
176
     1
 72
     2
176
     1
 73
     0
176
     1
 90
        0
176
     1
 40
-0.6
176
     1
 41
-30.0
176
     1
 62
     5
 63
     7
421
 16777215
176
     1
 74
     1
176
     1
 91
        4
176
     1
 64
     7
176
     1
 65
   257
176
     1
 75
     1
176
     1
175
     1
176
     1
 42
1.0
176
     1
 92
        8
176
     1
 66
     7
176
     1
 43
1.0
176
     1
 76
     1
176
     1
 77
     6
176
     1
 78
     2
176
     1
 67
     7
176
     1
 79
     5
176
     1
170
     0
176
     1
171
     0
176
     1
290
     0
176
     1
 93
        1
176
     1
 44
50.0
176
     1
173
     0
176
     1
  0
VISUALSTYLE
  5
3A
102
{ACAD_REACTORS
330
2A
102
}
330
2A
100
AcDbVisualStyle
  2
ColorChange
 70
    16
177
     2
291
     1
 71
     2
176
     1
 72
     2
176
     1
 73
     3
176
     1
 90
        0
176
     1
 40
-0.6
176
     1
 41
-30.0
176
     1
 62
     5
 63
     8
421
  8421504
176
     1
 74
     1
176
     1
 91
        4
176
     1
 64
     7
176
     1
 65
   257
176
     1
 75
     1
176
     1
175
     1
176
     1
 42
1.0
176
     1
 92
        8
176
     1
 66
     8
424
  8421504
176
     1
 43
1.0
176
     1
 76
     1
176
     1
 77
     6
176
     1
 78
     2
176
     1
 67
     7
176
     1
 79
     5
176
     1
170
     0
176
     1
171
     0
176
     1
290
     0
176
     1
 93
        1
176
     1
 44
0.0
176
     1
173
     0
176
     1
  0
VISUALSTYLE
  5
34
102
{ACAD_REACTORS
330
2A
102
}
330
2A
100
AcDbVisualStyle
  2
Conceptual
 70
     9
177
     2
291
     0
 71
     3
176
     1
 72
     2
176
     1
 73
     0
176
     1
 90
        0
176
     1
 40
-0.6
176
     1
 41
-30.0
176
     1
 62
     5
 63
     7
421
 16777215
176
     1
 74
     2
176
     1
 91
        2
176
     1
 64
     7
176
     1
 65
   257
176
     1
 75
     1
176
     1
175
     1
176
     1
 42
40.0
176
     1
 92
        8
176
     1
 66
     7
176
     1
 43
1.0
176
     1
 76
     1
176
     1
 77
     6
176
     1
 78
     2
176
     1
 67
     7
176
     1
 79
     3
176
     1
170
     0
176
     1
171
     0
176
     1
290
     0
176
     1
 93
        1
176
     1
 44
0.0
176
     1
173
     0
176
     1
  0
VISUALSTYLE
  5
35
102
{ACAD_REACTORS
330
2A
102
}
330
2A
100
AcDbVisualStyle
  2
Dim
 70
    11
177
     2
291
     1
 71
     2
176
     1
 72
     2
176
     1
 73
     0
176
     1
 90
        0
176
     1
 40
-0.6
176
     1
 41
-30.0
176
     1
 62
     5
 63
     7
421
 16777215
176
     1
 74
     1
176
     1
 91
        4
176
     1
 64
     7
176
     1
 65
   257
176
     1
 75
     1
176
     1
175
     1
176
     1
 42
1.0
176
     1
 92
        8
176
     1
 66
     7
176
     1
 43
1.0
176
     1
 76
     1
176
     1
 77
     6
176
     1
 78
     2
176
     1
 67
     7
176
     1
 79
     5
176
     1
170
     0
176
     1
171
     0
176
     1
290
     0
176
     1
 93
        1
176
     1
 44
-50.0
176
     1
173
     0
176
     1
  0
VISUALSTYLE
  5
39
102
{ACAD_REACTORS
330
2A
102
}
330
2A
100
AcDbVisualStyle
  2
Facepattern
 70
    15
177
     2
291
     1
 71
     2
176
     1
 72
     2
176
     1
 73
     0
176
     1
 90
        0
176
     1
 40
-0.6
176
     1
 41
-30.0
176
     1
 62
     5
 63
     7
421
 16777215
176
     1
 74
     1
176
     1
 91
        4
176
     1
 64
     7
176
     1
 65
   257
176
     1
 75
     1
176
     1
175
     1
176
     1
 42
1.0
176
     1
 92
        8
176
     1
 66
     7
176
     1
 43
1.0
176
     1
 76
     1
176
     1
 77
     6
176
     1
 78
     2
176
     1
 67
     7
176
     1
 79
     5
176
     1
170
     0
176
     1
171
     0
176
     1
290
     0
176
     1
 93
        1
176
     1
 44
0.0
176
     1
173
     0
176
     1
  0
VISUALSTYLE
  5
2B
102
{ACAD_REACTORS
330
2A
102
}
330
2A
100
AcDbVisualStyle
  2
Flat
 70
     0
177
     2
291
     1
 71
     2
176
     1
 72
     1
176
     1
 73
     1
176
     1
 90
        2
176
     1
 40
-0.6
176
     1
 41
30.0
176
     1
 62
     5
 63
     7
421
 16777215
176
     1
 74
     0
176
     1
 91
        4
176
     1
 64
     7
176
     1
 65
   257
176
     1
 75
     1
176
     1
175
     1
176
     1
 42
1.0
176
     1
 92
        8
176
     1
 66
     7
176
     1
 43
1.0
176
     1
 76
     1
176
     1
 77
     6
176
     1
 78
     2
176
     1
 67
     7
176
     1
 79
     5
176
     1
170
     0
176
     1
171
     0
176
     1
290
     0
176
     1
 93
       13
176
     1
 44
0.0
176
     1
173
     0
176
     1
  0
VISUALSTYLE
  5
2C
102
{ACAD_REACTORS
330
2A
102
}
330
2A
100
AcDbVisualStyle
  2
FlatWithEdges
 70
     1
177
     2
291
     1
 71
     2
176
     1
 72
     1
176
     1
 73
     1
176
     1
 90
        2
176
     1
 40
-0.6
176
     1
 41
30.0
176
     1
 62
     5
 63
     7
421
 16777215
176
     1
 74
     1
176
     1
 91
        4
176
     1
 64
     7
176
     1
 65
   257
176
     1
 75
     1
176
     1
175
     1
176
     1
 42
1.0
176
     1
 92
        0
176
     1
 66
   257
176
     1
 43
1.0
176
     1
 76
     1
176
     1
 77
     6
176
     1
 78
     2
176
     1
 67
     7
176
     1
 79
     5
176
     1
170
     0
176
     1
171
     0
176
     1
290
     0
176
     1
 93
       13
176
     1
 44
0.0
176
     1
173
     0
176
     1
  0
VISUALSTYLE
  5
2D
102
{ACAD_REACTORS
330
2A
102
}
330
2A
100
AcDbVisualStyle
  2
Gouraud
 70
     2
177
     2
291
     1
 71
     2
176
     1
 72
     2
176
     1
 73
     1
176
     1
 90
        2
176
     1
 40
-0.6
176
     1
 41
30.0
176
     1
 62
     5
 63
     7
421
 16777215
176
     1
 74
     0
176
     1
 91
        4
176
     1
 64
     7
176
     1
 65
   257
176
     1
 75
     1
176
     1
175
     1
176
     1
 42
1.0
176
     1
 92
        0
176
     1
 66
     7
176
     1
 43
1.0
176
     1
 76
     1
176
     1
 77
     6
176
     1
 78
     2
176
     1
 67
     7
176
     1
 79
     5
176
     1
170
     0
176
     1
171
     0
176
     1
290
     0
176
     1
 93
       13
176
     1
 44
0.0
176
     1
173
     0
176
     1
  0
VISUALSTYLE
  5
2E
102
{ACAD_REACTORS
330
2A
102
}
330
2A
100
AcDbVisualStyle
  2
GouraudWithEdges
 70
     3
177
     2
291
     1
 71
     2
176
     1
 72
     2
176
     1
 73
     1
176
     1
 90
        2
176
     1
 40
-0.6
176
     1
 41
30.0
176
     1
 62
     5
 63
     7
421
 16777215
176
     1
 74
     1
176
     1
 91
        4
176
     1
 64
     7
176
     1
 65
   257
176
     1
 75
     1
176
     1
175
     1
176
     1
 42
1.0
176
     1
 92
        0
176
     1
 66
   257
176
     1
 43
1.0
176
     1
 76
     1
176
     1
 77
     6
176
     1
 78
     2
176
     1
 67
     7
176
     1
 79
     5
176
     1
170
     0
176
     1
171
     0
176
     1
290
     0
176
     1
 93
       13
176
     1
 44
0.0
176
     1
173
     0
176
     1
  0
VISUALSTYLE
  5
38
102
{ACAD_REACTORS
330
2A
102
}
330
2A
100
AcDbVisualStyle
  2
Linepattern
 70
    14
177
     2
291
     1
 71
     2
176
     1
 72
     2
176
     1
 73
     0
176
     1
 90
        0
176
     1
 40
-0.6
176
     1
 41
-30.0
176
     1
 62
     5
 63
     7
421
 16777215
176
     1
 74
     1
176
     1
 91
        4
176
     1
 64
     7
176
     1
 65
   257
176
     1
 75
     7
176
     1
175
     7
176
     1
 42
1.0
176
     1
 92
        8
176
     1
 66
     7
176
     1
 43
1.0
176
     1
 76
     1
176
     1
 77
     6
176
     1
 78
     2
176
     1
 67
     7
176
     1
 79
     5
176
     1
170
     0
176
     1
171
     0
176
     1
290
     0
176
     1
 93
        1
176
     1
 44
0.0
176
     1
173
     0
176
     1
  0
VISUALSTYLE
  5
33
102
{ACAD_REACTORS
330
2A
102
}
330
2A
100
AcDbVisualStyle
  2
Realistic
 70
     8
177
     2
291
     0
 71
     2
176
     1
 72
     2
176
     1
 73
     0
176
     1
 90
        0
176
     1
 40
-0.6
176
     1
 41
-30.0
176
     1
 62
     5
 63
     7
421
 16777215
176
     1
 74
     1
176
     1
 91
        0
176
     1
 64
     7
176
     1
 65
   257
176
     1
 75
     1
176
     1
175
     1
176
     1
 42
1.0
176
     1
 92
        8
176
     1
 66
     8
424
  7895160
176
     1
 43
1.0
176
     1
 76
     1
176
     1
 77
     6
176
     1
 78
     2
176
     1
 67
     7
176
     1
 79
     5
176
     1
170
     0
176
     1
171
     0
176
     1
290
     0
176
     1
 93
       13
176
     1
 44
0.0
176
     1
173
     0
176
     1
  0
VISUALSTYLE
  5
37
102
{ACAD_REACTORS
330
2A
102
}
330
2A
100
AcDbVisualStyle
  2
Thicken
 70
    13
177
     2
291
     1
 71
     2
176
     1
 72
     2
176
     1
 73
     0
176
     1
 90
        0
176
     1
 40
-0.6
176
     1
 41
-30.0
176
     1
 62
     5
 63
     7
421
 16777215
176
     1
 74
     1
176
     1
 91
        4
176
     1
 64
     7
176
     1
 65
   257
176
     1
 75
     1
176
     1
175
     1
176
     1
 42
1.0
176
     1
 92
       12
176
     1
 66
     7
176
     1
 43
1.0
176
     1
 76
     1
176
     1
 77
     6
176
     1
 78
     2
176
     1
 67
     7
176
     1
 79
     5
176
     1
170
     0
176
     1
171
     0
176
     1
290
     0
176
     1
 93
        1
176
     1
 44
0.0
176
     1
173
     0
176
     1
  0
ENDSEC
  0
EOF
