  0
SECTION
  2
HEADER
  9
$ACADVER
  1
AC1024
  9
$ACADMAINTVER
 70
     6
  9
$DWGCODEPAGE
  3
ANSI_932
  9
$INSBASE
 10
0.0
 20
0.0
 30
0.0
  9
$EXTMIN
 10
-6300.0
 20
-4455.0
 30
0.0
  9
$EXTMAX
 10
6300.0
 20
4455.0
 30
0.0
  9
$LIMMIN
 10
-6300.0
 20
-4455.0
  9
$LIMMAX
 10
6300.0
 20
4455.0
  9
$ORTHOMODE
 70
     0
  9
$REGENMODE
 70
     1
  9
$FILLMODE
 70
     1
  9
$QTEXTMODE
 70
     0
  9
$MIRRTEXT
 70
     1
  9
$LTSCALE
 40
30.0
  9
$ATTMODE
 70
     1
  9
$TEXTSIZE
 40
2.5
  9
$TRACEWID
 40
1.0
  9
$TEXTSTYLE
  7
Standard
  9
$CLAYER
  8
0
  9
$CELTYPE
  6
ByLayer
  9
$CECOLOR
 62
   256
  9
$CELTSCALE
 40
1.0
  9
$DISPSILH
 70
     0
  9
$DIMSCALE
 40
1.0
  9
$DIMASZ
 40
2.5
  9
$DIMEXO
 40
0.625
  9
$DIMDLI
 40
3.75
  9
$DIMRND
 40
0.0
  9
$DIMDLE
 40
0.0
  9
$DIMEXE
 40
1.25
  9
$DIMTP
 40
0.0
  9
$DIMTM
 40
0.0
  9
$DIMTXT
 40
2.5
  9
$DIMCEN
 40
2.5
  9
$DIMTSZ
 40
0.0
  9
$DIMTOL
 70
     0
  9
$DIMLIM
 70
     0
  9
$DIMTIH
 70
     0
  9
$DIMTOH
 70
     0
  9
$DIMSE1
 70
     0
  9
$DIMSE2
 70
     0
  9
$DIMTAD
 70
     1
  9
$DIMZIN
 70
     8
  9
$DIMBLK
  1

  9
$DIMASO
 70
     1
  9
$DIMSHO
 70
     1
  9
$DIMPOST
  1

  9
$DIMAPOST
  1

  9
$DIMALT
 70
     0
  9
$DIMALTD
 70
     3
  9
$DIMALTF
 40
0.03937007874016
  9
$DIMLFAC
 40
1.0
  9
$DIMTOFL
 70
     1
  9
$DIMTVP
 40
0.0
  9
$DIMTIX
 70
     0
  9
$DIMSOXD
 70
     0
  9
$DIMSAH
 70
     0
  9
$DIMBLK1
  1

  9
$DIMBLK2
  1

  9
$DIMSTYLE
  2
ISO-25
  9
$DIMCLRD
 70
     0
  9
$DIMCLRE
 70
     0
  9
$DIMCLRT
 70
     0
  9
$DIMTFAC
 40
1.0
  9
$DIMGAP
 40
0.625
  9
$DIMJUST
 70
     0
  9
$DIMSD1
 70
     0
  9
$DIMSD2
 70
     0
  9
$DIMTOLJ
 70
     0
  9
$DIMTZIN
 70
     8
  9
$DIMALTZ
 70
     0
  9
$DIMALTTZ
 70
     0
  9
$DIMUPT
 70
     0
  9
$DIMDEC
 70
     2
  9
$DIMTDEC
 70
     2
  9
$DIMALTU
 70
     2
  9
$DIMALTTD
 70
     3
  9
$DIMTXSTY
  7
Standard
  9
$DIMAUNIT
 70
     0
  9
$DIMADEC
 70
     0
  9
$DIMALTRND
 40
0.0
  9
$DIMAZIN
 70
     0
  9
$DIMDSEP
 70
    44
  9
$DIMATFIT
 70
     3
  9
$DIMFRAC
 70
     0
  9
$DIMLDRBLK
  1

  9
$DIMLUNIT
 70
     2
  9
$DIMLWD
 70
    -2
  9
$DIMLWE
 70
    -2
  9
$DIMTMOVE
 70
     0
  9
$DIMFXL
 40
1.0
  9
$DIMFXLON
 70
     0
  9
$DIMJOGANG
 40
0.7853981633974483
  9
$DIMTFILL
 70
     0
  9
$DIMTFILLCLR
 70
     0
  9
$DIMARCSYM
 70
     0
  9
$DIMLTYPE
  6

  9
$DIMLTEX1
  6

  9
$DIMLTEX2
  6

  9
$DIMTXTDIRECTION
 70
     0
  9
$LUNITS
 70
     2
  9
$LUPREC
 70
     4
  9
$SKETCHINC
 40
1.0
  9
$FILLETRAD
 40
10.0
  9
$AUNITS
 70
     0
  9
$AUPREC
 70
     0
  9
$MENU
  1
.
  9
$ELEVATION
 40
0.0
  9
$PELEVATION
 40
0.0
  9
$THICKNESS
 40
0.0
  9
$LIMCHECK
 70
     0
  9
$CHAMFERA
 40
10.0
  9
$CHAMFERB
 40
10.0
  9
$CHAMFERC
 40
20.0
  9
$CHAMFERD
 40
0.0
  9
$SKPOLY
 70
     0
  9
$TDCREATE
 40
2460327.689822766
  9
$TDUCREATE
 40
2460327.314822766
  9
$TDUPDATE
 40
2460327.689822778
  9
$TDUUPDATE
 40
2460327.314822778
  9
$TDINDWG
 40
0.0000000116
  9
$TDUSRTIMER
 40
0.0000000116
  9
$USRTIMER
 70
     1
  9
$ANGBASE
 50
0.0
  9
$ANGDIR
 70
     0
  9
$PDMODE
 70
     0
  9
$PDSIZE
 40
0.0
  9
$PLINEWID
 40
0.0
  9
$SPLFRAME
 70
     0
  9
$SPLINETYPE
 70
     6
  9
$SPLINESEGS
 70
     8
  9
$HANDSEED
  5
49F
  9
$SURFTAB1
 70
     6
  9
$SURFTAB2
 70
     6
  9
$SURFTYPE
 70
     6
  9
$SURFU
 70
     6
  9
$SURFV
 70
     6
  9
$UCSBASE
  2

  9
$UCSNAME
  2

  9
$UCSORG
 10
0.0
 20
0.0
 30
0.0
  9
$UCSXDIR
 10
1.0
 20
0.0
 30
0.0
  9
$UCSYDIR
 10
0.0
 20
1.0
 30
0.0
  9
$UCSORTHOREF
  2

  9
$UCSORTHOVIEW
 70
     0
  9
$UCSORGTOP
 10
0.0
 20
0.0
 30
0.0
  9
$UCSORGBOTTOM
 10
0.0
 20
0.0
 30
0.0
  9
$UCSORGLEFT
 10
0.0
 20
0.0
 30
0.0
  9
$UCSORGRIGHT
 10
0.0
 20
0.0
 30
0.0
  9
$UCSORGFRONT
 10
0.0
 20
0.0
 30
0.0
  9
$UCSORGBACK
 10
0.0
 20
0.0
 30
0.0
  9
$PUCSBASE
  2

  9
$PUCSNAME
  2

  9
$PUCSORG
 10
0.0
 20
0.0
 30
0.0
  9
$PUCSXDIR
 10
1.0
 20
0.0
 30
0.0
  9
$PUCSYDIR
 10
0.0
 20
1.0
 30
0.0
  9
$PUCSORTHOREF
  2

  9
$PUCSORTHOVIEW
 70
     0
  9
$PUCSORGTOP
 10
0.0
 20
0.0
 30
0.0
  9
$PUCSORGBOTTOM
 10
0.0
 20
0.0
 30
0.0
  9
$PUCSORGLEFT
 10
0.0
 20
0.0
 30
0.0
  9
$PUCSORGRIGHT
 10
0.0
 20
0.0
 30
0.0
  9
$PUCSORGFRONT
 10
0.0
 20
0.0
 30
0.0
  9
$PUCSORGBACK
 10
0.0
 20
0.0
 30
0.0
  9
$USERI1
 70
     0
  9
$USERI2
 70
     0
  9
$USERI3
 70
     0
  9
$USERI4
 70
     0
  9
$USERI5
 70
     0
  9
$USERR1
 40
0.0
  9
$USERR2
 40
0.0
  9
$USERR3
 40
0.0
  9
$USERR4
 40
0.0
  9
$USERR5
 40
0.0
  9
$WORLDVIEW
 70
     1
  9
$SHADEDGE
 70
     3
  9
$SHADEDIF
 70
    70
  9
$TILEMODE
 70
     1
  9
$MAXACTVP
 70
    64
  9
$PINSBASE
 10
0.0
 20
0.0
 30
0.0
  9
$PLIMCHECK
 70
     0
  9
$PEXTMIN
 10
1.000000000000000E+20
 20
1.000000000000000E+20
 30
1.000000000000000E+20
  9
$PEXTMAX
 10
-1.000000000000000E+20
 20
-1.000000000000000E+20
 30
-1.000000000000000E+20
  9
$PLIMMIN
 10
0.0
 20
0.0
  9
$PLIMMAX
 10
420.0
 20
297.0
  9
$UNITMODE
 70
     0
  9
$VISRETAIN
 70
     1
  9
$PLINEGEN
 70
     0
  9
$PSLTSCALE
 70
     1
  9
$TREEDEPTH
 70
  3020
  9
$CMLSTYLE
  2
Standard
  9
$CMLJUST
 70
     0
  9
$CMLSCALE
 40
20.0
  9
$PROXYGRAPHICS
 70
     1
  9
$MEASUREMENT
 70
     1
  9
$CELWEIGHT
370
    -1
  9
$ENDCAPS
280
     0
  9
$JOINSTYLE
280
     0
  9
$LWDISPLAY
290
     0
  9
$INSUNITS
 70
     4
  9
$HYPERLINKBASE
  1

  9
$STYLESHEET
  1

  9
$XEDIT
290
     1
  9
$CEPSNTYPE
380
     0
  9
$PSTYLEMODE
290
     1
  9
$FINGERPRINTGUID
  2
{231A231F-75BC-477B-A12E-35F3BA38158C}
  9
$VERSIONGUID
  2
{FAEB1C32-E019-11D5-929B-00C0DF256EC4}
  9
$EXTNAMES
290
     1
  9
$PSVPSCALE
 40
0.0
  9
$OLESTARTUP
290
     0
  9
$SORTENTS
280
   127
  9
$INDEXCTL
280
     0
  9
$HIDETEXT
280
     1
  9
$XCLIPFRAME
280
     2
  9
$HALOGAP
280
     0
  9
$OBSCOLOR
 70
   257
  9
$OBSLTYPE
280
     0
  9
$INTERSECTIONDISPLAY
280
     0
  9
$INTERSECTIONCOLOR
 70
   257
  9
$DIMASSOC
280
     2
  9
$PROJECTNAME
  1

  9
$CAMERADISPLAY
290
     0
  9
$LENSLENGTH
 40
50.0
  9
$CAMERAHEIGHT
 40
0.0
  9
$STEPSPERSEC
 40
2.0
  9
$STEPSIZE
 40
6.0
  9
$3DDWFPREC
 40
2.0
  9
$PSOLWIDTH
 40
5.0
  9
$PSOLHEIGHT
 40
80.0
  9
$LOFTANG1
 40
1.570796326794897
  9
$LOFTANG2
 40
1.570796326794897
  9
$LOFTMAG1
 40
0.0
  9
$LOFTMAG2
 40
0.0
  9
$LOFTPARAM
 70
     7
  9
$LOFTNORMALS
280
     1
  9
$LATITUDE
 40
37.795
  9
$LONGITUDE
 40
-122.394
  9
$NORTHDIRECTION
 40
0.0
  9
$TIMEZONE
 70
 -8000
  9
$LIGHTGLYPHDISPLAY
280
     1
  9
$TILEMODELIGHTSYNCH
280
     1
  9
$SOLIDHIST
280
     1
  9
$SHOWHIST
280
     1
  9
$DWFFRAME
280
     2
  9
$DGNFRAME
280
     2
  9
$REALWORLDSCALE
290
     1
  9
$INTERFERECOLOR
 62
   256
  9
$CSHADOW
280
     0
  9
$SHADOWPLANELOCATION
 40
0.0
  0
ENDSEC
  0
SECTION
  2
CLASSES
  0
CLASS
  1
ACDBDICTIONARYWDFLT
  2
AcDbDictionaryWithDefault
  3
ObjectDBX Classes
 90
        0
 91
        4
280
     0
281
     0
  0
CLASS
  1
VISUALSTYLE
  2
AcDbVisualStyle
  3
ObjectDBX Classes
 90
     4095
 91
        4
280
     0
281
     0
  0
CLASS
  1
MATERIAL
  2
AcDbMaterial
  3
ObjectDBX Classes
 90
     1153
 91
        4
280
     0
281
     0
  0
ENDSEC
  0
SECTION
  2
TABLES
  0
TABLE
  2
VPORT
  5
8
330
0
100
AcDbSymbolTable
 70
     1
  0
VPORT
  5
29
330
8
100
AcDbSymbolTableRecord
100
AcDbViewportTableRecord
  2
*Active
 70
     0
 10
0.0
 20
0.0
 11
1.0
 21
1.0
 12
0.0
 22
0.0
 13
0.0
 23
0.0
 14
10.0
 24
10.0
 15
10.0
 25
10.0
 16
0.0
 26
0.0
 36
1.0
 17
0.0
 27
0.0
 37
0.0
 40
9801.0
 41
1.414141414141414
 42
50.0
 43
0.0
 44
0.0
 50
0.0
 51
0.0
 71
     0
 72
 10000
 73
     1
 74
     3
 75
     0
 76
     0
 77
     0
 78
     0
281
     0
 65
     1
110
0.0
120
0.0
130
0.0
111
1.0
121
0.0
131
0.0
112
0.0
122
1.0
132
0.0
 79
     0
146
0.0
 60
     3
 61
     5
292
     1
282
     1
141
0.0
142
0.0
 63
   250
  0
ENDTAB
  0
TABLE
  2
LTYPE
  5
5
330
0
100
AcDbSymbolTable
 70
     5
  0
LTYPE
  5
14
330
5
100
AcDbSymbolTableRecord
100
AcDbLinetypeTableRecord
  2
ByBlock
 70
     0
  3

 72
    65
 73
     0
 40
0.0
  0
LTYPE
  5
15
330
5
100
AcDbSymbolTableRecord
100
AcDbLinetypeTableRecord
  2
ByLayer
 70
     0
  3

 72
    65
 73
     0
 40
0.0
  0
LTYPE
  5
16
330
5
100
AcDbSymbolTableRecord
100
AcDbLinetypeTableRecord
  2
Continuous
 70
     0
  3
Solid line
 72
    65
 73
     0
 40
0.0
  0
LTYPE
  5
3F
330
5
100
AcDbSymbolTableRecord
100
AcDbLinetypeTableRecord
  2
JWW_HOJO
 70
     0
  3
  -   -   -   -   -   -   -   - 
 72
    65
 73
     2
 40
1.693333333333333
 49
-1.27
 74
     0
 49
0.4233333333333333
 74
     0
  0
LTYPE
  5
40
330
5
100
AcDbSymbolTableRecord
100
AcDbLinetypeTableRecord
  2
JWW_DASHED2
 70
     0
  3
--    ----    ----    ----    --
 72
    65
 73
     2
 40
3.386666666666667
 49
1.693333333333333
 74
     0
 49
-1.693333333333333
 74
     0
  0
LTYPE
  5
41
330
5
100
AcDbSymbolTableRecord
100
AcDbLinetypeTableRecord
  2
JWW_CENTER1
 70
     0
  3
-----  --  ----------  --  -----
 72
    65
 73
     4
 40
6.773333333333333
 49
4.233333333333333
 74
     0
 49
-0.8466666666666667
 74
     0
 49
0.8466666666666667
 74
     0
 49
-0.8466666666666667
 74
     0
  0
LTYPE
  5
42
330
5
100
AcDbSymbolTableRecord
100
AcDbLinetypeTableRecord
  2
JWW_DASHED1
 70
     0
  3
-  --  --  --  --  --  --  --  -
 72
    65
 73
     2
 40
1.693333333333333
 49
0.8466666666666667
 74
     0
 49
-0.8466666666666667
 74
     0
  0
ENDTAB
  0
TABLE
  2
LAYER
  5
2
330
0
100
AcDbSymbolTable
 70
    14
  0
LAYER
  5
10
330
2
100
AcDbSymbolTableRecord
100
AcDbLayerTableRecord
  2
0
 70
     0
 62
     7
  6
Continuous
370
    -3
390
F
347
3E
  0
LAYER
  5
43
330
2
100
AcDbSymbolTableRecord
100
AcDbLayerTableRecord
  2
F-0_補助線
 70
     0
 62
     7
  6
Continuous
370
    -3
390
F
347
3E
  0
LAYER
  5
44
330
2
100
AcDbSymbolTableRecord
100
AcDbLayerTableRecord
  2
F-1_枠
 70
     0
 62
     7
  6
Continuous
370
    -3
390
F
347
3E
  0
LAYER
  5
45
330
2
100
AcDbSymbolTableRecord
100
AcDbLayerTableRecord
  2
F-A_文字
 70
     0
 62
     7
  6
Continuous
370
    -3
390
F
347
3E
  0
LAYER
  5
46
330
2
100
AcDbSymbolTableRecord
100
AcDbLayerTableRecord
  2
0-A_文字
 70
     0
 62
     7
  6
Continuous
370
    -3
390
F
347
3E
  0
LAYER
  5
47
330
2
100
AcDbSymbolTableRecord
100
AcDbLayerTableRecord
  2
0-B_寸法
 70
     0
 62
     7
  6
Continuous
370
    -3
390
F
347
3E
  0
LAYER
  5
48
330
2
100
AcDbSymbolTableRecord
100
AcDbLayerTableRecord
  2
0-0_補助線
 70
     0
 62
     7
  6
Continuous
370
    -3
390
F
347
3E
  0
LAYER
  5
49
330
2
100
AcDbSymbolTableRecord
100
AcDbLayerTableRecord
  2
0-1_通り芯
 70
     0
 62
     7
  6
Continuous
370
    -3
390
F
347
3E
  0
LAYER
  5
4A
330
2
100
AcDbSymbolTableRecord
100
AcDbLayerTableRecord
  2
0-7_金物
 70
     0
 62
     7
  6
Continuous
370
    -3
390
F
347
3E
  0
LAYER
  5
4B
330
2
100
AcDbSymbolTableRecord
100
AcDbLayerTableRecord
  2
0-C_ハッチ
 70
     0
 62
     7
  6
Continuous
370
    -3
390
F
347
3E
  0
LAYER
  5
4C
330
2
100
AcDbSymbolTableRecord
100
AcDbLayerTableRecord
  2
0-4_枠
 70
     0
 62
     7
  6
Continuous
370
    -3
390
F
347
3E
  0
LAYER
  5
4D
330
2
100
AcDbSymbolTableRecord
100
AcDbLayerTableRecord
  2
0-3_仕上げ
 70
     0
 62
     7
  6
Continuous
370
    -3
390
F
347
3E
  0
LAYER
  5
4E
330
2
100
AcDbSymbolTableRecord
100
AcDbLayerTableRecord
  2
0-6_扉
 70
     0
 62
     7
  6
Continuous
370
    -3
390
F
347
3E
  0
LAYER
  5
4F
330
2
100
AcDbSymbolTableRecord
100
AcDbLayerTableRecord
  2
1-E
 70
     0
 62
     7
  6
Continuous
370
    -3
390
F
347
3E
  0
ENDTAB
  0
TABLE
  2
STYLE
  5
3
330
0
100
AcDbSymbolTable
 70
     1
  0
STYLE
  5
11
330
3
100
AcDbSymbolTableRecord
100
AcDbTextStyleTableRecord
  2
Standard
 70
     0
 40
0.0
 41
1.0
 50
0.0
 71
     0
 42
2.5
  3
txt
  4

  0
ENDTAB
  0
TABLE
  2
VIEW
  5
6
330
0
100
AcDbSymbolTable
 70
     0
  0
ENDTAB
  0
TABLE
  2
UCS
  5
7
330
0
100
AcDbSymbolTable
 70
     0
  0
ENDTAB
  0
TABLE
  2
APPID
  5
9
330
0
100
AcDbSymbolTable
 70
     1
  0
APPID
  5
12
330
9
100
AcDbSymbolTableRecord
100
AcDbRegAppTableRecord
  2
ACAD
 70
     0
  0
ENDTAB
  0
TABLE
  2
DIMSTYLE
  5
A
330
0
100
AcDbSymbolTable
 70
     1
100
AcDbDimStyleTable
  0
DIMSTYLE
105
27
330
A
100
AcDbSymbolTableRecord
100
AcDbDimStyleTableRecord
  2
ISO-25
 70
     0
 41
2.5
 42
0.625
 43
3.75
 44
1.25
 73
     0
 74
     0
 77
     1
 78
     8
140
2.5
141
2.5
143
0.03937007874016
147
0.625
171
     3
172
     1
178
     0
271
     2
272
     2
274
     3
278
    44
283
     0
284
     8
340
11
  0
ENDTAB
  0
TABLE
  2
BLOCK_RECORD
  5
1
330
0
100
AcDbSymbolTable
 70
     1
  0
BLOCK_RECORD
  5
1F
330
1
100
AcDbSymbolTableRecord
100
AcDbBlockTableRecord
  2
*Model_Space
340
22
 70
     0
280
     1
281
     0
  0
BLOCK_RECORD
  5
1B
330
1
100
AcDbSymbolTableRecord
100
AcDbBlockTableRecord
  2
*Paper_Space
340
1E
 70
     0
280
     1
281
     0
  0
BLOCK_RECORD
  5
23
330
1
100
AcDbSymbolTableRecord
100
AcDbBlockTableRecord
  2
*Paper_Space0
340
26
 70
     0
280
     1
281
     0
  0
ENDTAB
  0
ENDSEC
  0
SECTION
  2
BLOCKS
  0
BLOCK
  5
20
330
1F
100
AcDbEntity
  8
0
100
AcDbBlockBegin
  2
*Model_Space
 70
     0
 10
0.0
 20
0.0
 30
0.0
  3
*Model_Space
  1

  0
ENDBLK
  5
21
330
1F
100
AcDbEntity
  8
0
100
AcDbBlockEnd
  0
BLOCK
  5
1C
330
1B
100
AcDbEntity
 67
     1
  8
0
100
AcDbBlockBegin
  2
*Paper_Space
 70
     0
 10
0.0
 20
0.0
 30
0.0
  3
*Paper_Space
  1

  0
ENDBLK
  5
1D
330
1B
100
AcDbEntity
 67
     1
  8
0
100
AcDbBlockEnd
  0
BLOCK
  5
24
330
23
100
AcDbEntity
  8
0
100
AcDbBlockBegin
  2
*Paper_Space0
 70
     0
 10
0.0
 20
0.0
 30
0.0
  3
*Paper_Space0
  1

  0
ENDBLK
  5
25
330
23
100
AcDbEntity
  8
0
100
AcDbBlockEnd
  0
ENDSEC
  0
SECTION
  2
ENTITIES
  0
LINE
  5
50
330
1F
100
AcDbEntity
  8
F-0_補助線
  6
JWW_HOJO
 62
   120
370
     5
100
AcDbLine
 10
-6140.081333436769
 20
-4455.0
 30
0.0
 11
-6140.081333436769
 21
4424.999604096284
 31
0.0
  0
LINE
  5
51
330
1F
100
AcDbEntity
  8
F-0_補助線
  6
JWW_HOJO
 62
   120
370
     5
100
AcDbLine
 10
-6140.081333436769
 20
4424.999604096284
 30
0.0
 11
6159.917676803936
 21
4424.999604096284
 31
0.0
  0
LINE
  5
52
330
1F
100
AcDbEntity
  8
F-0_補助線
  6
JWW_HOJO
 62
   120
370
     5
100
AcDbLine
 10
6159.917676803936
 20
4424.999604096284
 30
0.0
 11
6159.917676803936
 21
-4455.0
 31
0.0
  0
LINE
  5
53
330
1F
100
AcDbEntity
  8
F-0_補助線
  6
JWW_HOJO
 62
   120
370
     5
100
AcDbLine
 10
6159.917676803936
 20
-4455.0
 30
0.0
 11
-6140.081333436769
 21
-4455.0
 31
0.0
  0
LINE
  5
54
330
1F
100
AcDbEntity
  8
F-0_補助線
  6
JWW_HOJO
 62
     7
370
     9
100
AcDbLine
 10
1009.918254163524
 20
-3795.000003092998
 30
0.0
 11
1009.918254163524
 21
-4195.000008247994
 31
0.0
  0
LINE
  5
55
330
1F
100
AcDbEntity
  8
F-0_補助線
  6
JWW_HOJO
 62
     7
370
     9
100
AcDbLine
 10
509.9185840832865
 20
-3795.000003092998
 30
0.0
 11
509.9185840832865
 21
-4195.000008247994
 31
0.0
  0
LINE
  5
56
330
1F
100
AcDbEntity
  8
F-1_枠
  6
Continuous
 62
   200
370
    20
100
AcDbLine
 10
5859.917429364118
 20
4174.999769056166
 30
0.0
 11
5859.917429364118
 21
-4205.000164959882
 31
0.0
  0
LINE
  5
57
330
1F
100
AcDbEntity
  8
F-1_枠
  6
Continuous
 62
   200
370
    20
100
AcDbLine
 10
-5840.081317971782
 20
4174.999769056166
 30
0.0
 11
-5840.081317971782
 21
-4205.000164959882
 31
0.0
  0
LINE
  5
58
330
1F
100
AcDbEntity
  8
F-1_枠
  6
Continuous
 62
   200
370
    20
100
AcDbLine
 10
5859.917429364118
 20
-4205.000002577498
 30
0.0
 11
-5840.081085996952
 21
-4205.000002577498
 31
0.0
  0
LINE
  5
59
330
1F
100
AcDbEntity
  8
F-1_枠
  6
Continuous
 62
   200
370
    20
100
AcDbLine
 10
-5830.081323642278
 20
4174.999769056166
 30
0.0
 11
-5830.081323642278
 21
-4205.000164959882
 31
0.0
  0
LINE
  5
5A
330
1F
100
AcDbEntity
  8
F-1_枠
  6
Continuous
 62
   200
370
    20
100
AcDbLine
 10
-5835.081309208292
 20
4174.999769056166
 30
0.0
 11
-5835.081309208292
 21
-4205.000164959882
 31
0.0
  0
LINE
  5
5B
330
1F
100
AcDbEntity
  8
F-1_枠
  6
Continuous
 62
   200
370
    20
100
AcDbLine
 10
5854.917165428305
 20
4174.999769056166
 30
0.0
 11
5854.917165428305
 21
-4205.000164959882
 31
0.0
  0
LINE
  5
5C
330
1F
100
AcDbEntity
  8
F-1_枠
  6
Continuous
 62
   200
370
    20
100
AcDbLine
 10
5849.917643811961
 20
4174.999769056166
 30
0.0
 11
5849.917643811961
 21
-4205.000164959882
 31
0.0
  0
LINE
  5
5D
330
1F
100
AcDbEntity
  8
F-1_枠
  6
Continuous
 62
   200
370
    20
100
AcDbLine
 10
5859.917429364118
 20
-4199.999993814004
 30
0.0
 11
-5840.081085996952
 21
-4199.999993814004
 31
0.0
  0
LINE
  5
5E
330
1F
100
AcDbEntity
  8
F-1_枠
  6
Continuous
 62
   200
370
    20
100
AcDbLine
 10
5859.917429364118
 20
-4195.000008247994
 30
0.0
 11
-5840.081085996952
 21
-4195.000008247994
 31
0.0
  0
LINE
  5
5F
330
1F
100
AcDbEntity
  8
F-1_枠
  6
Continuous
 62
   200
370
    20
100
AcDbLine
 10
4349.91789125178
 20
-3795.000003092998
 30
0.0
 11
4349.91789125178
 21
-4195.000008247994
 31
0.0
  0
LINE
  5
60
330
1F
100
AcDbEntity
  8
F-1_枠
  6
Continuous
 62
   200
370
    20
100
AcDbLine
 10
2849.917396372143
 20
-3795.000003092998
 30
0.0
 11
2849.917396372143
 21
-4195.000008247994
 31
0.0
  0
LINE
  5
61
330
1F
100
AcDbEntity
  8
F-1_枠
  6
Continuous
 62
   200
370
    20
100
AcDbLine
 10
9.918542843317937
 20
-3795.000003092998
 30
0.0
 11
9.918542843317937
 21
-4195.000008247994
 31
0.0
  0
LINE
  5
62
330
1F
100
AcDbEntity
  8
F-1_枠
  6
Continuous
 62
   200
370
    20
100
AcDbLine
 10
9.918542843317937
 20
-3994.999936078046
 30
0.0
 11
5849.917643811961
 21
-3995.005364289155
 31
0.0
  0
LINE
  5
63
330
1F
100
AcDbEntity
  8
F-1_枠
  6
Continuous
 62
   200
370
    20
100
AcDbLine
 10
-5840.081085996952
 20
4174.999769056166
 30
0.0
 11
5859.917429364118
 21
4174.999769056166
 31
0.0
  0
LINE
  5
64
330
1F
100
AcDbEntity
  8
F-1_枠
  6
Continuous
 62
   200
370
    20
100
AcDbLine
 10
-5840.081085996952
 20
4164.999983504013
 30
0.0
 11
5859.917429364118
 21
4164.999983504013
 31
0.0
  0
LINE
  5
65
330
1F
100
AcDbEntity
  8
F-1_枠
  6
Continuous
 62
   200
370
    20
100
AcDbLine
 10
-5840.081085996952
 20
4169.999505120355
 30
0.0
 11
5859.917429364118
 21
4169.999505120355
 31
0.0
  0
LINE
  5
66
330
1F
100
AcDbEntity
  8
F-0_補助線
  6
JWW_HOJO
 62
     7
370
     9
100
AcDbLine
 10
-5830.081323642278
 20
-3994.99993607839
 30
0.0
 11
9.918542843317937
 21
-3994.99993607839
 31
0.0
  0
LINE
  5
67
330
1F
100
AcDbEntity
  8
F-0_補助線
  6
JWW_HOJO
 62
     7
370
     9
100
AcDbLine
 10
-5830.081323642278
 20
-3904.99993607839
 30
0.0
 11
9.918542843317937
 21
-3904.99993607839
 31
0.0
  0
LINE
  5
68
330
1F
100
AcDbEntity
  8
F-0_補助線
  6
JWW_HOJO
 62
     7
370
     9
100
AcDbLine
 10
-5830.081323642278
 20
-4084.99993607839
 30
0.0
 11
9.918542843317937
 21
-4084.99993607839
 31
0.0
  0
LINE
  5
69
330
1F
100
AcDbEntity
  8
F-0_補助線
  6
JWW_HOJO
 62
     7
370
     9
100
AcDbLine
 10
9.918408067690052
 20
-4139.999739777983
 30
0.0
 11
5849.917509036333
 21
-4140.005167989091
 31
0.0
  0
LINE
  5
6A
330
1F
100
AcDbEntity
  8
F-0_補助線
  6
JWW_HOJO
 62
     7
370
     9
100
AcDbLine
 10
9.918491721641658
 20
-4049.999739778022
 30
0.0
 11
5849.917592690285
 21
-4050.005167989131
 31
0.0
  0
LINE
  5
6B
330
1F
100
AcDbEntity
  8
F-0_補助線
  6
JWW_HOJO
 62
     7
370
     9
100
AcDbLine
 10
9.918593965362561
 20
-3939.99973721807
 30
0.0
 11
5849.917694934006
 21
-3940.005165429179
 31
0.0
  0
LINE
  5
6C
330
1F
100
AcDbEntity
  8
F-0_補助線
  6
JWW_HOJO
 62
     7
370
     9
100
AcDbLine
 10
9.918677619307346
 20
-3849.999737218109
 30
0.0
 11
5849.917778587951
 21
-3850.005165429218
 31
0.0
  0
LINE
  5
6D
330
1F
100
AcDbEntity
  8
F-0_補助線
  6
JWW_HOJO
 62
     7
370
     9
100
AcDbLine
 10
2939.917396372143
 20
-3795.000003092998
 30
0.0
 11
2939.917396372143
 21
-4195.000008247994
 31
0.0
  0
LINE
  5
6E
330
1F
100
AcDbEntity
  8
F-0_補助線
  6
JWW_HOJO
 62
     7
370
     9
100
AcDbLine
 10
99.91854284331794
 20
-3795.000003092998
 30
0.0
 11
99.91854284331794
 21
-4195.000008247994
 31
0.0
  0
LINE
  5
6F
330
1F
100
AcDbEntity
  8
F-0_補助線
  6
JWW_HOJO
 62
     7
370
     9
100
AcDbLine
 10
4439.91789125178
 20
-3795.000003092998
 30
0.0
 11
4439.91789125178
 21
-4195.000008247994
 31
0.0
  0
LINE
  5
70
330
1F
100
AcDbEntity
  8
F-1_枠
  6
Continuous
 62
   200
370
    20
100
AcDbLine
 10
5859.917429364118
 20
-3795.000003092998
 30
0.0
 11
-5840.081085996952
 21
-3795.000003092998
 31
0.0
  0
LINE
  5
71
330
1F
100
AcDbEntity
  8
F-1_枠
  6
Continuous
 62
   200
370
    20
100
AcDbLine
 10
5859.917429364118
 20
-3790.000017526987
 30
0.0
 11
-5840.081085996952
 21
-3790.000017526987
 31
0.0
  0
LINE
  5
72
330
1F
100
AcDbEntity
  8
F-0_補助線
  6
JWW_HOJO
 62
     7
370
     9
100
AcDbLine
 10
-5087.628710189612
 20
-3795.000003092999
 30
0.0
 11
-5087.628710189612
 21
-4205.000164959882
 31
0.0
  0
LINE
  5
73
330
1F
100
AcDbEntity
  8
F-0_補助線
  6
JWW_HOJO
 62
     7
370
     9
100
AcDbLine
 10
-50.08145715668206
 20
-3795.000003092998
 30
0.0
 11
-50.08145715668206
 21
-4195.000008247994
 31
0.0
  0
MTEXT
  5
74
330
1F
100
AcDbEntity
  8
F-0_補助線
  6
Continuous
 62
     7
370
     0
100
AcDbMText
 10
509.9185840832865
 20
-3946.496666872503
 30
0.0
 40
78.58125
 41
412.5
 46
0.0
 71
     7
 72
     1
  1
{\fＭＳ ゴシック|b0|i0|c128|p49;DOORETUS}
 73
     1
 44
1.0
  0
MTEXT
  5
75
330
1F
100
AcDbEntity
  8
F-0_補助線
  6
Continuous
 62
     7
370
     0
100
AcDbMText
 10
1110.209427605312
 20
-3946.734791872504
 30
0.0
 40
78.105
 41
615.0
 46
0.0
 71
     7
 72
     1
  1
{\fＭＳ ゴシック|b0|i0|c128|p49;建具納まり図}
 73
     1
 44
1.0
  0
MTEXT
  5
76
330
1F
100
AcDbEntity
  8
F-A_文字
  6
Continuous
 62
     7
370
     0
100
AcDbMText
 10
99.91854284331794
 20
-3887.139820871936
 30
0.0
 40
45.72
 41
180.0
 46
0.0
 71
     7
 72
     1
  1
{\fＭＳ ゴシック|b0|i0|c128|p49;図面名}
 73
     1
 44
1.0
  0
MTEXT
  5
77
330
1F
100
AcDbEntity
  8
F-A_文字
  6
Continuous
 62
     7
370
     0
100
AcDbMText
 10
2939.917396372143
 20
-3887.142460617774
 30
0.0
 40
45.72
 41
300.0
 46
0.0
 71
     7
 72
     1
  1
{\fＭＳ ゴシック|b0|i0|c128|p49;ＳＣＡＬＥ}
 73
     1
 44
1.0
  0
MTEXT
  5
78
330
1F
100
AcDbEntity
  8
F-A_文字
  6
Continuous
 62
     7
370
     0
100
AcDbMText
 10
4439.91789125178
 20
-3887.143854850754
 30
0.0
 40
45.72
 41
240.0
 46
0.0
 71
     7
 72
     1
  1
{\fＭＳ ゴシック|b0|i0|c128|p49;ＤＡＴＥ}
 73
     1
 44
1.0
  0
MTEXT
  5
79
330
1F
100
AcDbEntity
  8
F-A_文字
  6
Continuous
 62
     7
370
     0
100
AcDbMText
 10
2939.917396372143
 20
-4087.14246317786
 30
0.0
 40
45.72
 41
240.0
 46
0.0
 71
     7
 72
     1
  1
{\fＭＳ ゴシック|b0|i0|c128|p49;ＦＩＬＥ}
 73
     1
 44
1.0
  0
MTEXT
  5
7A
330
1F
100
AcDbEntity
  8
F-A_文字
  6
Continuous
 62
     7
370
     0
100
AcDbMText
 10
4439.91789125178
 20
-4087.143857410839
 30
0.0
 40
45.72
 41
180.0
 46
0.0
 71
     7
 72
     1
  1
{\fＭＳ ゴシック|b0|i0|c128|p49;ＮＯ．}
 73
     1
 44
1.0
  0
MTEXT
  5
7B
330
1F
100
AcDbEntity
  8
F-A_文字
  6
Continuous
 62
     7
370
     0
100
AcDbMText
 10
1394.917396372136
 20
-4096.140669266149
 30
0.0
 40
45.72
 41
120.0
 46
0.0
 71
     7
 72
     1
  1
{\fＭＳ ゴシック|b0|i0|c128|p49;株式}
 73
     1
 44
1.0
  0
MTEXT
  5
7C
330
1F
100
AcDbEntity
  8
F-A_文字
  6
Continuous
 62
     7
370
     9
100
AcDbMText
 10
5096.16770014406
 20
-4147.857012699985
 30
0.0
 40
74.295
 41
97.5
 46
0.0
 71
     7
 72
     1
  1
{\fＭＳ ゴシック|b0|i0|c128|p49;01}
 73
     1
 44
1.0
  0
MTEXT
  5
7D
330
1F
100
AcDbEntity
  8
F-A_文字
  6
Continuous
 62
     7
370
     0
100
AcDbMText
 10
1604.917396372136
 20
-4164.281754523929
 30
0.0
 40
101.44125
 41
1065.0
 46
0.0
 71
     7
 72
     1
  1
{\fＭＳ ゴシック|b0|i0|c128|p49;ウッドワン・・・}
 73
     1
 44
1.0
  0
MTEXT
  5
7E
330
1F
100
AcDbEntity
  8
F-A_文字
  6
Continuous
 62
     7
370
     0
100
AcDbMText
 10
1394.917396372136
 20
-4168.140669266187
 30
0.0
 40
45.72
 41
120.0
 46
0.0
 71
     7
 72
     1
  1
{\fＭＳ ゴシック|b0|i0|c128|p49;会社}
 73
     1
 44
1.0
  0
LINE
  5
7F
330
1F
100
AcDbEntity
  8
0-A_文字
  6
Continuous
 62
    92
370
    13
100
AcDbLine
 10
-5659.999495325865
 20
3730.000181456216
 30
0.0
 11
-5659.999495325865
 21
4000.000181456216
 31
0.0
  0
LINE
  5
80
330
1F
100
AcDbEntity
  8
0-B_寸法
  6
JWW_DASHED2
 62
     7
370
     9
100
AcDbLine
 10
5159.917643811961
 20
3385.504011183094
 30
0.0
 11
4439.917643811961
 21
3385.504011183094
 31
0.0
  0
LINE
  5
81
330
1F
100
AcDbEntity
  8
0-B_寸法
  6
Continuous
 62
    40
370
    15
100
AcDbLine
 10
5159.917643811961
 20
3439.504011183092
 30
0.0
 11
5159.917643811961
 21
3385.504011183094
 31
0.0
  0
LINE
  5
82
330
1F
100
AcDbEntity
  8
0-B_寸法
  6
Continuous
 62
    40
370
    15
100
AcDbLine
 10
5159.917643811961
 20
3439.504011183092
 30
0.0
 11
5339.917643811961
 21
3439.504011183092
 31
0.0
  0
LINE
  5
83
330
1F
100
AcDbEntity
  8
0-B_寸法
  6
Continuous
 62
    40
370
    15
100
AcDbLine
 10
5159.917643811961
 20
3385.504011183094
 30
0.0
 11
5339.917643811961
 21
3385.504011183094
 31
0.0
  0
LINE
  5
84
330
1F
100
AcDbEntity
  8
0-B_寸法
  6
Continuous
 62
    40
370
    15
100
AcDbLine
 10
4439.917643811961
 20
3439.504011183092
 30
0.0
 11
4439.917643811961
 21
3385.504011183094
 31
0.0
  0
LINE
  5
85
330
1F
100
AcDbEntity
  8
0-B_寸法
  6
Continuous
 62
    40
370
    15
100
AcDbLine
 10
4439.917643811961
 20
3439.504011183092
 30
0.0
 11
4259.917643811961
 21
3439.504011183092
 31
0.0
  0
LINE
  5
86
330
1F
100
AcDbEntity
  8
0-B_寸法
  6
Continuous
 62
    40
370
    15
100
AcDbLine
 10
4439.917643811961
 20
3385.504011183094
 30
0.0
 11
4259.917643811961
 21
3385.504011183094
 31
0.0
  0
ELLIPSE
  5
87
330
1F
100
AcDbEntity
  8
0-B_寸法
  6
Continuous
 62
    92
370
    13
100
AcDbEllipse
 10
4855.430917458078
 20
2876.053590301857
 30
0.0
 11
11.36181697857171
 21
42.40287823032828
 31
0.0
210
0.0
220
0.0
230
0.9999999999999999
 40
0.6
 41
1.570796326794897
 42
4.71238898038469
  0
LINE
  5
88
330
1F
100
AcDbEntity
  8
0-B_寸法
  6
Continuous
 62
    92
370
    13
100
AcDbLine
 10
4880.872644396272
 20
2869.236500114713
 30
0.0
 11
4829.989190519882
 21
2882.870680488999
 31
0.0
  0
LINE
  5
89
330
1F
100
AcDbEntity
  8
0-B_寸法
  6
Continuous
 62
    92
370
    13
100
AcDbLine
 10
4884.13376436456
 20
2881.407165525956
 30
0.0
 11
4833.25031048817
 21
2895.041345900241
 31
0.0
  0
ELLIPSE
  5
8A
330
1F
100
AcDbEntity
  8
0-B_寸法
  6
Continuous
 62
    92
370
    13
100
AcDbEllipse
 10
4879.604310755758
 20
2966.26992228014
 30
0.0
 11
21.86569797210526
 21
81.6038957748525
 31
0.0
210
0.0
220
0.0
230
1.0
 40
0.5
 41
4.340591432030095
 42
8.225779182329084
  0
ELLIPSE
  5
8B
330
1F
100
AcDbEntity
  8
0-B_寸法
  6
Continuous
 62
    92
370
    13
100
AcDbEllipse
 10
4878.978687882654
 20
2963.935065931349
 30
0.0
 11
26.49533313827761
 21
98.88192943551533
 31
0.0
210
0.0
220
0.0
230
0.9999999999999999
 40
0.4
 41
3.840308517104466
 42
4.432552034522944
  0
ELLIPSE
  5
8C
330
1F
100
AcDbEntity
  8
0-B_寸法
  6
Continuous
 62
    92
370
    13
100
AcDbEllipse
 10
4878.978687882654
 20
2963.935065931349
 30
0.0
 11
26.49533313827761
 21
98.88192943551533
 31
0.0
210
0.0
220
0.0
230
0.9999999999999999
 40
0.4
 41
1.850633272656679
 42
2.442876790075129
  0
ELLIPSE
  5
8D
330
1F
100
AcDbEntity
  8
0-B_寸法
  6
Continuous
 62
    92
370
    13
100
AcDbEllipse
 10
4740.316707711377
 20
2838.284846937555
 30
0.0
 11
-7.622927487939132
 21
43.23177007461331
 31
0.0
210
0.0
220
0.0
230
1.0
 40
0.6000000000000001
 41
1.570796326794897
 42
4.71238898038469
  0
LINE
  5
8E
330
1F
100
AcDbEntity
  8
0-B_寸法
  6
Continuous
 62
    92
370
    13
100
AcDbLine
 10
4766.255769756144
 20
2842.858603430318
 30
0.0
 11
4714.377645666609
 21
2833.711090444791
 31
0.0
  0
LINE
  5
8F
330
1F
100
AcDbEntity
  8
0-B_寸法
  6
Continuous
 62
    92
370
    13
100
AcDbLine
 10
4764.067802717541
 20
2855.267181118273
 30
0.0
 11
4712.189678628006
 21
2846.119668132745
 31
0.0
  0
ELLIPSE
  5
90
330
1F
100
AcDbEntity
  8
0-B_寸法
  6
Continuous
 62
    92
370
    13
100
AcDbEllipse
 10
4724.098172894875
 20
2930.264728583198
 30
0.0
 11
-14.67024424252691
 21
83.19908946199426
 31
0.0
210
0.0
220
0.0
230
1.0
 40
0.5
 41
4.340591432030095
 42
8.225779182329084
  0
ELLIPSE
  5
91
330
1F
100
AcDbEntity
  8
0-B_寸法
  6
Continuous
 62
    92
370
    13
100
AcDbEllipse
 10
4724.517918944775
 20
2927.884230441542
 30
0.0
 11
-17.7763823922528
 21
100.8148742797557
 31
0.0
210
0.0
220
0.0
230
1.0
 40
0.4000000000000001
 41
3.840308517104466
 42
4.432552034522944
  0
ELLIPSE
  5
92
330
1F
100
AcDbEntity
  8
0-B_寸法
  6
Continuous
 62
    92
370
    13
100
AcDbEllipse
 10
4724.517918944775
 20
2927.884230441542
 30
0.0
 11
-17.7763823922528
 21
100.8148742797557
 31
0.0
210
0.0
220
0.0
230
1.0
 40
0.4000000000000001
 41
1.850633272656679
 42
2.442876790075129
  0
LINE
  5
93
330
1F
100
AcDbEntity
  8
0-B_寸法
  6
Continuous
 62
    92
370
    13
100
AcDbLine
 10
5369.917643811961
 20
3684.999983504357
 30
0.0
 11
5369.917643811961
 21
2718.999983504357
 31
0.0
  0
LINE
  5
94
330
1F
100
AcDbEntity
  8
0-B_寸法
  6
Continuous
 62
    92
370
    13
100
AcDbLine
 10
5369.917643811961
 20
2718.999983504357
 30
0.0
 11
4229.917643811961
 21
2718.999983504357
 31
0.0
  0
LINE
  5
95
330
1F
100
AcDbEntity
  8
0-B_寸法
  6
Continuous
 62
    92
370
    13
100
AcDbLine
 10
4229.917643811961
 20
3684.999983504357
 30
0.0
 11
4229.917643811961
 21
2718.999983504357
 31
0.0
  0
LINE
  5
96
330
1F
100
AcDbEntity
  8
0-B_寸法
  6
JWW_HOJO
 62
   120
370
     5
100
AcDbLine
 10
5339.917643811961
 20
3684.999983504357
 30
0.0
 11
5339.917643811961
 21
2718.999983504357
 31
0.0
  0
LINE
  5
97
330
1F
100
AcDbEntity
  8
0-B_寸法
  6
JWW_HOJO
 62
   120
370
     5
100
AcDbLine
 10
4259.917643811961
 20
3684.999983504357
 30
0.0
 11
4259.917643811961
 21
2718.999983504357
 31
0.0
  0
LINE
  5
98
330
1F
100
AcDbEntity
  8
0-B_寸法
  6
JWW_HOJO
 62
   120
370
     5
100
AcDbLine
 10
4799.917643811961
 20
3684.999983504357
 30
0.0
 11
4799.917643811961
 21
2718.999983504357
 31
0.0
  0
LINE
  5
99
330
1F
100
AcDbEntity
  8
0-B_寸法
  6
Continuous
 62
    92
370
    13
100
AcDbLine
 10
5369.917643811961
 20
3540.999983504358
 30
0.0
 11
4229.917643811961
 21
3540.999983504358
 31
0.0
  0
LINE
  5
9A
330
1F
100
AcDbEntity
  8
0-B_寸法
  6
Continuous
 62
    92
370
    13
100
AcDbLine
 10
5369.917643811961
 20
3684.999983504357
 30
0.0
 11
4229.917643811961
 21
3684.999983504357
 31
0.0
  0
MTEXT
  5
9B
330
1F
100
AcDbEntity
  8
0-B_寸法
  6
Continuous
 62
     7
370
     9
100
AcDbMText
 10
4278.667643811961
 20
3554.775383504359
 30
0.0
 40
63.55080000000001
 41
1042.5
 46
0.0
 71
     7
 72
     1
  1
{\fＭＳ ゴシック|b0|i0|c128|p49;上吊軸固定/フリーオープン}
 73
     1
 44
1.0
  0
LINE
  5
9C
330
1F
100
AcDbEntity
  8
0-B_寸法
  6
Continuous
 62
    40
370
    15
100
AcDbLine
 10
4626.267356285778
 20
3385.504011183094
 30
0.0
 11
4533.09250004887
 21
3037.770713719029
 31
0.0
  0
LINE
  5
9D
330
1F
100
AcDbEntity
  8
0-B_寸法
  6
Continuous
 62
    40
370
    15
100
AcDbLine
 10
4439.917643811961
 20
3385.504011183094
 30
0.0
 11
4533.09250004887
 21
3037.770713719029
 31
0.0
  0
MTEXT
  5
9E
330
1F
100
AcDbEntity
  8
F-A_文字
  6
Continuous
 62
     7
370
     0
100
AcDbMText
 10
3689.917643811962
 20
-3946.903115907308
 30
0.0
 40
76.19999999999999
 41
150.0
 46
0.0
 71
     7
 72
     1
  1
{\fＭＳ ゴシック|b0|i0|c128|p49;1/5}
 73
     1
 44
1.0
  0
MTEXT
  5
9F
330
1F
100
AcDbEntity
  8
0-A_文字
  6
Continuous
 62
    92
370
    13
100
AcDbMText
 10
-5592.499495325865
 20
3758.959004985627
 30
0.0
 40
147.9176470588235
 41
3300.0
 46
0.0
 71
     7
 72
     1
  1
{\fＭＳ ゴシック|b0|i0|c128|p49;クローゼットドア　調整枠　間口３尺}
 73
     1
 44
1.0
  0
LINE
  5
A0
330
1F
100
AcDbEntity
  8
0-A_文字
  6
Continuous
 62
    92
370
    13
100
AcDbLine
 10
-5659.999495325865
 20
3730.000181456216
 30
0.0
 11
-2221.428571428571
 21
3730.000181456216
 31
0.0
  0
LINE
  5
A1
330
1F
100
AcDbEntity
  8
0-A_文字
  6
Continuous
 62
    92
370
    13
100
AcDbLine
 10
-5659.999495325865
 20
4000.000181456216
 30
0.0
 11
-2221.428571428571
 21
4000.000181456216
 31
0.0
  0
LINE
  5
A2
330
1F
100
AcDbEntity
  8
0-A_文字
  6
Continuous
 62
    92
370
    13
100
AcDbLine
 10
-2221.428571428571
 20
3730.000181456216
 30
0.0
 11
-2221.428571428571
 21
4000.000181456216
 31
0.0
  0
MTEXT
  5
A3
330
1F
100
AcDbEntity
  8
F-A_文字
  6
Continuous
 62
     7
370
     0
100
AcDbMText
 10
-5080.081323642278
 20
-4045.070133446811
 30
0.0
 40
79.85960526315785
 41
3982.5
 46
0.0
 71
     7
 72
     1
  1
{\fＭＳ ゴシック|b0|i0|c128|p49;ドレタス　クローゼットドア  調整枠　３方枠下レール無し　枠外H2,339　枠外W724}
 73
     1
 44
1.0
  0
MTEXT
  5
A4
330
1F
100
AcDbEntity
  8
0-A_文字
  6
Continuous
 62
     7
370
     9
100
AcDbMText
 10
-3714.912483129329
 20
75.26729168952227
 30
0.0
 40
91.43999999999987
 41
1079.999999999998
 46
0.0
 71
     7
 72
     1
  1
{\fＭＳ ゴシック|b0|i0|c128|p49;■縦断面図[３方枠]}
 73
     1
 44
1.0
  0
MTEXT
  5
A5
330
1F
100
AcDbEntity
  8
0-B_寸法
  6
Continuous
 62
     7
370
   211
100
AcDbMText
 10
-1653.912417475063
 20
-360.5469686537485
 30
0.0
 40
91.43999999999805
 41
59.99999999999872
 46
0.0
 71
     7
 72
     1
  1
{\fＭＳ ゴシック|b0|i0|c128|p49;5}
 11
6.123031769111886E-17
 21
1.0
 31
0.0
 73
     1
 44
1.0
  0
MTEXT
  5
A6
330
1F
100
AcDbEntity
  8
0-B_寸法
  6
Continuous
 62
     7
370
   211
100
AcDbMText
 10
-2268.911755179354
 20
-388.5568738903237
 30
0.0
 40
91.43999999999805
 41
59.99999999999872
 46
0.0
 71
     7
 72
     1
  1
{\fＭＳ ゴシック|b0|i0|c128|p49;8}
 11
6.123031769111886E-17
 21
1.0
 31
0.0
 73
     1
 44
1.0
  0
MTEXT
  5
A7
330
1F
100
AcDbEntity
  8
0-B_寸法
  6
Continuous
 62
     7
370
   211
100
AcDbMText
 10
-2268.911755179354
 20
-474.1102682476777
 30
0.0
 40
91.44000000000129
 41
60.00000000000085
 46
0.0
 71
     7
 72
     1
  1
{\fＭＳ ゴシック|b0|i0|c128|p49;9}
 11
6.123031769111886E-17
 21
1.0
 31
0.0
 73
     1
 44
1.0
  0
MTEXT
  5
A8
330
1F
100
AcDbEntity
  8
0-B_寸法
  6
Continuous
 62
     7
370
     0
100
AcDbMText
 10
-1863.911724643565
 20
-560.3597708936348
 30
0.0
 40
91.43999999999967
 41
119.9999999999996
 46
0.0
 71
     7
 72
     1
  1
{\fＭＳ ゴシック|b0|i0|c128|p49;36}
 11
6.123031769111886E-17
 21
1.0
 31
0.0
 73
     1
 44
1.0
  0
MTEXT
  5
A9
330
1F
100
AcDbEntity
  8
0-B_寸法
  6
Continuous
 62
     7
370
   211
100
AcDbMText
 10
-2268.911755179354
 20
-582.1102682476783
 30
0.0
 40
91.43999999999805
 41
59.99999999999872
 46
0.0
 71
     7
 72
     1
  1
{\fＭＳ ゴシック|b0|i0|c128|p49;9}
 11
6.123031769111886E-17
 21
1.0
 31
0.0
 73
     1
 44
1.0
  0
MTEXT
  5
AA
330
1F
100
AcDbEntity
  8
0-B_寸法
  6
Continuous
 62
     7
370
   211
100
AcDbMText
 10
-2268.911755179354
 20
-749.7731898951229
 30
0.0
 40
91.43999999999967
 41
119.9999999999996
 46
0.0
 71
     7
 72
     1
  1
{\fＭＳ ゴシック|b0|i0|c128|p49;10}
 11
6.123031769111886E-17
 21
1.0
 31
0.0
 73
     1
 44
1.0
  0
MTEXT
  5
AB
330
1F
100
AcDbEntity
  8
0-B_寸法
  6
Continuous
 62
     7
370
     0
100
AcDbMText
 10
-2073.340200055362
 20
-854.3905626637326
 30
0.0
 40
91.44000000000023
 41
180.0000000000004
 46
0.0
 71
     7
 72
     1
  1
{\fＭＳ ゴシック|b0|i0|c128|p49;7.5}
 11
6.123031769111886E-17
 21
1.0
 31
0.0
 73
     1
 44
1.0
  0
MTEXT
  5
AC
330
1F
100
AcDbEntity
  8
0-B_寸法
  6
Continuous
 62
     7
370
     0
100
AcDbMText
 10
-2946.912290657706
 20
-892.5926075518147
 30
0.0
 40
91.4400000000013
 41
120.0000000000017
 46
0.0
 71
     7
 72
     1
  1
{\fＭＳ ゴシック|b0|i0|c128|p49;77}
 73
     1
 44
1.0
  0
MTEXT
  5
AD
330
1F
100
AcDbEntity
  8
0-B_寸法
  6
Continuous
 62
     7
370
     0
100
AcDbMText
 10
-2073.378912722472
 20
-3240.455817066315
 30
0.0
 40
91.44000000000129
 41
240.0000000000034
 46
0.0
 71
     7
 72
     1
  1
{\fＭＳ ゴシック|b0|i0|c128|p49;11.5}
 11
6.123031769111886E-17
 21
1.0
 31
0.0
 73
     1
 44
1.0
  0
MTEXT
  5
AE
330
1F
100
AcDbEntity
  8
0-B_寸法
  6
Continuous
 62
     7
370
   211
100
AcDbMText
 10
-1648.460517264062
 20
-3530.257137882539
 30
0.0
 40
91.44000000000129
 41
120.0000000000017
 46
0.0
 71
     7
 72
     1
  1
{\fＭＳ ゴシック|b0|i0|c128|p49;12}
 11
6.123031769111886E-17
 21
1.0
 31
0.0
 73
     1
 44
1.0
  0
LINE
  5
AF
330
1F
100
AcDbEntity
  8
0-0_補助線
  6
JWW_HOJO
 62
   120
370
     5
100
AcDbLine
 10
-3864.912379870421
 20
-3381.830573242302
 30
0.0
 11
-3864.911639396301
 21
-81.8302680415573
 31
0.0
  0
LINE
  5
B0
330
1F
100
AcDbEntity
  8
0-0_補助線
  6
JWW_HOJO
 62
   120
370
     5
100
AcDbLine
 10
-3864.911639396301
 20
-81.8302680415573
 30
0.0
 11
-1638.912359674856
 21
-81.8302680415573
 31
0.0
  0
LINE
  5
B1
330
1F
100
AcDbEntity
  8
0-B_寸法
  6
Continuous
 62
   120
370
     5
100
AcDbLine
 10
-2400.912702500142
 20
-381.8302682476793
 30
0.0
 11
-1638.912417475063
 21
-381.8302682476793
 31
0.0
  0
LINE
  5
B2
330
1F
100
AcDbEntity
  8
0-B_寸法
  6
Continuous
 62
   120
370
     5
100
AcDbLine
 10
-2400.912702500142
 20
-597.8296446993284
 30
0.0
 11
-2058.912417475063
 21
-597.8296446993284
 31
0.0
  0
LINE
  5
B3
330
1F
100
AcDbEntity
  8
0-0_補助線
  6
JWW_HOJO
 62
   120
370
     5
100
AcDbLine
 10
-3504.91237987043
 20
-3381.830654021288
 30
0.0
 11
-3504.911639396296
 21
-81.8302680415573
 31
0.0
  0
LINE
  5
B4
330
1F
100
AcDbEntity
  8
0-0_補助線
  6
JWW_HOJO
 62
   120
370
     5
100
AcDbLine
 10
-2268.912379870413
 20
-3381.830654021288
 30
0.0
 11
-2268.911639396279
 21
-81.8302680415573
 31
0.0
  0
LINE
  5
B5
330
1F
100
AcDbEntity
  8
0-1_通り芯
  6
JWW_CENTER1
 62
   120
370
     5
100
AcDbLine
 10
-2886.911741341297
 20
-3465.660996088935
 30
0.0
 11
-2886.911741341297
 21
-111.8302680415582
 31
0.0
  0
LINE
  5
B6
330
1F
100
AcDbEntity
  8
0-0_補助線
  6
JWW_HOJO
 62
   120
370
     5
100
AcDbLine
 10
-3504.912060397115
 20
-1965.830426403042
 30
0.0
 11
-2268.912060397101
 21
-1965.830426403042
 31
0.0
  0
LINE
  5
B7
330
1F
100
AcDbEntity
  8
0-0_補助線
  6
JWW_HOJO
 62
   120
370
     5
100
AcDbLine
 10
-3504.912033323113
 20
-1845.830426403042
 30
0.0
 11
-2268.912033323096
 21
-1845.830426403042
 31
0.0
  0
LINE
  5
B8
330
1F
100
AcDbEntity
  8
0-7_金物
  6
Continuous
 62
     7
370
     9
100
AcDbLine
 10
-2895.911073253784
 20
-3241.0844468776
 30
0.0
 11
-2895.911073253784
 21
-3309.831047476998
 31
0.0
  0
LINE
  5
B9
330
1F
100
AcDbEntity
  8
0-7_金物
  6
Continuous
 62
     7
370
     9
100
AcDbLine
 10
-2877.911310796008
 20
-3241.0844468776
 30
0.0
 11
-2877.911310796008
 21
-3309.831047476998
 31
0.0
  0
LINE
  5
BA
330
1F
100
AcDbEntity
  8
0-7_金物
  6
Continuous
 62
     7
370
     9
100
AcDbLine
 10
-2940.911775673572
 20
-381.8302534012913
 30
0.0
 11
-2940.911775673572
 21
-375.6842637559147
 31
0.0
  0
LINE
  5
BB
330
1F
100
AcDbEntity
  8
0-7_金物
  6
Continuous
 62
     7
370
     9
100
AcDbLine
 10
-2832.911707009021
 20
-375.6842637559147
 30
0.0
 11
-2832.911707009021
 21
-381.8302534012913
 31
0.0
  0
LINE
  5
BC
330
1F
100
AcDbEntity
  8
0-7_金物
  6
Continuous
 62
     7
370
     9
100
AcDbLine
 10
-2826.91154106969
 20
-375.6842637559147
 30
0.0
 11
-2946.911197746937
 21
-375.6842637559147
 31
0.0
  0
LINE
  5
BD
330
1F
100
AcDbEntity
  8
0-7_金物
  6
Continuous
 62
     7
370
     9
100
AcDbLine
 10
-2946.911197746937
 20
-363.6846700211743
 30
0.0
 11
-2946.911197746937
 21
-375.6842637559147
 31
0.0
  0
LINE
  5
BE
330
1F
100
AcDbEntity
  8
0-7_金物
  6
Continuous
 62
     7
370
     9
100
AcDbLine
 10
-2826.91154106969
 20
-363.6846700211743
 30
0.0
 11
-2826.91154106969
 21
-375.6842637559147
 31
0.0
  0
LINE
  5
BF
330
1F
100
AcDbEntity
  8
0-7_金物
  6
Continuous
 62
     7
370
     9
100
AcDbLine
 10
-2796.911438072867
 20
-351.6843324204649
 30
0.0
 11
-2976.91130074376
 21
-351.6843324204649
 31
0.0
  0
LINE
  5
C0
330
1F
100
AcDbEntity
  8
0-7_金物
  6
Continuous
 62
     7
370
     9
100
AcDbLine
 10
-2796.911438072867
 20
-351.6843324204649
 30
0.0
 11
-2796.911438072867
 21
-363.6846700211743
 31
0.0
  0
LINE
  5
C1
330
1F
100
AcDbEntity
  8
0-7_金物
  6
Continuous
 62
     7
370
     9
100
AcDbLine
 10
-2976.91130074376
 20
-351.6843324204649
 30
0.0
 11
-2976.91130074376
 21
-363.6846700211743
 31
0.0
  0
LINE
  5
C2
330
1F
100
AcDbEntity
  8
0-7_金物
  6
Continuous
 62
     7
370
     9
100
AcDbLine
 10
-2796.911438072867
 20
-363.6846700211743
 30
0.0
 11
-2976.91130074376
 21
-363.6846700211743
 31
0.0
  0
LINE
  5
C3
330
1F
100
AcDbEntity
  8
0-C_ハッチ
  6
Continuous
 62
   120
370
     5
100
AcDbLine
 10
-2715.911741341302
 20
-516.824849572812
 30
0.0
 11
-2850.906322666425
 21
-381.8302682476849
 31
0.0
  0
LINE
  5
C4
330
1F
100
AcDbEntity
  8
0-4_枠
  6
Continuous
 62
    92
370
    13
100
AcDbLine
 10
-2655.911741341302
 20
-537.8302682476794
 30
0.0
 11
-2715.911741341302
 21
-537.8302682476794
 31
0.0
  0
LINE
  5
C5
330
1F
100
AcDbEntity
  8
0-4_枠
  6
Continuous
 62
    92
370
    13
100
AcDbLine
 10
-2715.911741341302
 20
-483.83026824768
 30
0.0
 11
-2715.911741341302
 21
-537.8302682476794
 31
0.0
  0
LINE
  5
C6
330
1F
100
AcDbEntity
  8
0-4_枠
  6
Continuous
 62
    92
370
    13
100
AcDbLine
 10
-2655.911741341302
 20
-483.83026824768
 30
0.0
 11
-2715.911741341302
 21
-483.83026824768
 31
0.0
  0
LINE
  5
C7
330
1F
100
AcDbEntity
  8
0-C_ハッチ
  6
Continuous
 62
   120
370
     5
100
AcDbLine
 10
-2655.911741341302
 20
-458.0309103334621
 30
0.0
 11
-2684.112383427078
 21
-429.83026824768
 31
0.0
  0
LINE
  5
C8
330
1F
100
AcDbEntity
  8
0-4_枠
  6
Continuous
 62
    92
370
    13
100
AcDbLine
 10
-2697.911741341299
 20
-381.8302682476793
 30
0.0
 11
-2697.911741341299
 21
-429.83026824768
 31
0.0
  0
LINE
  5
C9
330
1F
100
AcDbEntity
  8
0-4_枠
  6
Continuous
 62
    92
370
    13
100
AcDbLine
 10
-2655.911741341302
 20
-429.83026824768
 30
0.0
 11
-2655.911741341302
 21
-483.83026824768
 31
0.0
  0
LINE
  5
CA
330
1F
100
AcDbEntity
  8
0-4_枠
  6
Continuous
 62
    92
370
    13
100
AcDbLine
 10
-2655.911741341302
 20
-429.83026824768
 30
0.0
 11
-2697.911741341299
 21
-429.83026824768
 31
0.0
  0
LINE
  5
CB
330
1F
100
AcDbEntity
  8
0-3_仕上げ
  6
Continuous
 62
    40
370
    15
100
AcDbLine
 10
-3504.912363744066
 20
-3309.831047476998
 30
0.0
 11
-2268.912363744049
 21
-3309.831047476998
 31
0.0
  0
LINE
  5
CC
330
1F
100
AcDbEntity
  8
0-3_仕上げ
  6
Continuous
 62
     7
370
     9
100
AcDbLine
 10
-2268.912363744049
 20
-3321.830827255554
 30
0.0
 11
-3504.912363744066
 21
-3321.830827255554
 31
0.0
  0
LINE
  5
CD
330
1F
100
AcDbEntity
  8
0-3_仕上げ
  6
Continuous
 62
     7
370
     9
100
AcDbLine
 10
-2268.912363744049
 20
-3333.830978193848
 30
0.0
 11
-3504.912363744066
 21
-3333.830978193848
 31
0.0
  0
LINE
  5
CE
330
1F
100
AcDbEntity
  8
0-3_仕上げ
  6
Continuous
 62
    40
370
    15
100
AcDbLine
 10
-2268.912363744049
 20
-3381.831025207414
 30
0.0
 11
-3504.912363744066
 21
-3381.831025207414
 31
0.0
  0
LINE
  5
CF
330
1F
100
AcDbEntity
  8
0-3_仕上げ
  6
Continuous
 62
     7
370
     9
100
AcDbLine
 10
-2268.912363744049
 20
-3369.831059848992
 30
0.0
 11
-3504.912363744066
 21
-3369.831059848992
 31
0.0
  0
LINE
  5
D0
330
1F
100
AcDbEntity
  8
0-3_仕上げ
  6
Continuous
 62
     7
370
     9
100
AcDbLine
 10
-2268.912363744049
 20
-3345.83094355227
 30
0.0
 11
-3504.912363744066
 21
-3345.83094355227
 31
0.0
  0
LINE
  5
D1
330
1F
100
AcDbEntity
  8
0-3_仕上げ
  6
Continuous
 62
     7
370
     9
100
AcDbLine
 10
-2268.912363744049
 20
-3357.830908910695
 30
0.0
 11
-3504.912363744066
 21
-3357.830908910695
 31
0.0
  0
LINE
  5
D2
330
1F
100
AcDbEntity
  8
0-C_ハッチ
  6
Continuous
 62
   120
370
     5
100
AcDbLine
 10
-2697.911741341305
 20
-416.0309103334567
 30
0.0
 11
-2732.112383427083
 21
-381.8302682476806
 31
0.0
  0
LINE
  5
D3
330
1F
100
AcDbEntity
  8
0-C_ハッチ
  6
Continuous
 62
   120
370
     5
100
AcDbLine
 10
-2689.509353046796
 20
-483.830268247671
 30
0.0
 11
-2791.509353046778
 21
-381.830268247684
 31
0.0
  0
LINE
  5
D4
330
1F
100
AcDbEntity
  8
0-C_ハッチ
  6
Continuous
 62
   120
370
     5
100
AcDbLine
 10
-2655.911741341302
 20
-576.8248495728074
 30
0.0
 11
-2694.90632266643
 21
-537.8302682476841
 31
0.0
  0
LINE
  5
D5
330
1F
100
AcDbEntity
  8
0-C_ハッチ
  6
Continuous
 62
   120
370
     5
100
AcDbLine
 10
-2814.303933155289
 20
-477.8296273785284
 30
0.0
 11
-2910.303292286127
 21
-381.830268247684
 31
0.0
  0
LINE
  5
D6
330
1F
100
AcDbEntity
  8
0-C_ハッチ
  6
Continuous
 62
   120
370
     5
100
AcDbLine
 10
-2694.303475391611
 20
-597.8300851422036
 30
0.0
 11
-2802.912164772687
 21
-489.2213957611289
 31
0.0
  0
LINE
  5
D7
330
1F
100
AcDbEntity
  8
0-C_ハッチ
  6
Continuous
 62
   120
370
     5
100
AcDbLine
 10
-2873.700902774909
 20
-477.8296273785489
 30
0.0
 11
-2969.700261905774
 21
-381.8302682476888
 31
0.0
  0
LINE
  5
D8
330
1F
100
AcDbEntity
  8
0-C_ハッチ
  6
Continuous
 62
   120
370
     5
100
AcDbLine
 10
-2753.700445011237
 20
-597.8300851422229
 30
0.0
 11
-2802.912164772707
 21
-548.6183653807557
 31
0.0
  0
LINE
  5
D9
330
1F
100
AcDbEntity
  8
0-C_ハッチ
  6
Continuous
 62
   120
370
     5
100
AcDbLine
 10
-2933.09787239457
 20
-477.8296273785373
 30
0.0
 11
-3029.097231525435
 21
-381.8302682476759
 31
0.0
  0
LINE
  5
DA
330
1F
100
AcDbEntity
  8
0-C_ハッチ
  6
Continuous
 62
   120
370
     5
100
AcDbLine
 10
-2970.912417615596
 20
-499.4120517772153
 30
0.0
 11
-3088.494201145123
 21
-381.8302682476909
 31
0.0
  0
LINE
  5
DB
330
1F
100
AcDbEntity
  8
0-C_ハッチ
  6
Continuous
 62
   120
370
     5
100
AcDbLine
 10
-2970.912417615604
 20
-558.8090213968558
 30
0.0
 11
-3117.911741341305
 21
-411.8096976711548
 31
0.0
  0
LINE
  5
DC
330
1F
100
AcDbEntity
  8
0-C_ハッチ
  6
Continuous
 62
   120
370
     5
100
AcDbLine
 10
-2991.288323489957
 20
-597.8300851422024
 30
0.0
 11
-3117.911741341313
 21
-471.2066672908452
 31
0.0
  0
LINE
  5
DD
330
1F
100
AcDbEntity
  8
0-C_ハッチ
  6
Continuous
 62
   120
370
     5
100
AcDbLine
 10
-3050.685293109583
 20
-597.8300851422229
 30
0.0
 11
-3117.911741341313
 21
-530.603636910495
 31
0.0
  0
LINE
  5
DE
330
1F
100
AcDbEntity
  8
0-C_ハッチ
  6
Continuous
 62
   120
370
     5
100
AcDbLine
 10
-3110.082262729298
 20
-597.8300851422105
 30
0.0
 11
-3117.911741341299
 21
-590.0006065302092
 31
0.0
  0
LINE
  5
DF
330
1F
100
AcDbEntity
  8
0-4_枠
  6
Continuous
 62
    92
370
    13
100
AcDbLine
 10
-3117.911741341299
 20
-381.8302682476793
 30
0.0
 11
-2697.911741341299
 21
-381.8302682476793
 31
0.0
  0
LINE
  5
E0
330
1F
100
AcDbEntity
  8
0-4_枠
  6
Continuous
 62
    92
370
    13
100
AcDbLine
 10
-2802.912164772693
 20
-477.82962737854
 30
0.0
 11
-2802.912164772693
 21
-597.8300851422118
 31
0.0
  0
LINE
  5
E1
330
1F
100
AcDbEntity
  8
0-4_枠
  6
Continuous
 62
    92
370
    13
100
AcDbLine
 10
-2970.912417615596
 20
-477.82962737854
 30
0.0
 11
-2802.912164772693
 21
-477.82962737854
 31
0.0
  0
LINE
  5
E2
330
1F
100
AcDbEntity
  8
0-4_枠
  6
Continuous
 62
    92
370
    13
100
AcDbLine
 10
-2970.912417615596
 20
-597.8300851422118
 30
0.0
 11
-2970.912417615596
 21
-477.82962737854
 31
0.0
  0
LINE
  5
E3
330
1F
100
AcDbEntity
  8
0-4_枠
  6
Continuous
 62
    92
370
    13
100
AcDbLine
 10
-2655.911741341302
 20
-597.8300851422118
 30
0.0
 11
-2802.912164772693
 21
-597.8300851422118
 31
0.0
  0
LINE
  5
E4
330
1F
100
AcDbEntity
  8
0-4_枠
  6
Continuous
 62
    92
370
    13
100
AcDbLine
 10
-3117.911741341299
 20
-597.8300851422118
 30
0.0
 11
-2970.912417615596
 21
-597.8300851422118
 31
0.0
  0
LINE
  5
E5
330
1F
100
AcDbEntity
  8
0-B_寸法
  6
Continuous
 62
   120
370
     5
100
AcDbLine
 10
-2655.911741341302
 20
-893.3126075518159
 30
0.0
 11
-2655.911741341302
 21
-739.6016601299211
 31
0.0
  0
LWPOLYLINE
  5
E6
330
1F
100
AcDbEntity
  8
0-B_寸法
  6
Continuous
 62
     7
370
     9
100
AcDbPolyline
 90
        4
 70
     1
 43
3.0
 10
-2654.411741341303
 20
-893.3126075518159
 42
0.4142135623731
 10
-2655.911741341302
 20
-891.8126075518159
 42
0.4142135623731
 10
-2657.411741341302
 20
-893.3126075518159
 42
0.4142135623731
 10
-2655.911741341302
 20
-894.8126075518159
 42
0.4142135623731
  0
LINE
  5
E7
330
1F
100
AcDbEntity
  8
0-B_寸法
  6
Continuous
 62
   120
370
     5
100
AcDbLine
 10
-3117.911741341299
 20
-893.3126075518159
 30
0.0
 11
-3117.911741341299
 21
-739.6016601299211
 31
0.0
  0
LWPOLYLINE
  5
E8
330
1F
100
AcDbEntity
  8
0-B_寸法
  6
Continuous
 62
     7
370
     9
100
AcDbPolyline
 90
        4
 70
     1
 43
3.0
 10
-3116.4117413413
 20
-893.3126075518159
 42
0.4142135623731
 10
-3117.911741341299
 20
-891.8126075518159
 42
0.4142135623731
 10
-3119.411741341299
 20
-893.3126075518159
 42
0.4142135623731
 10
-3117.911741341299
 20
-894.8126075518159
 42
0.4142135623731
  0
LINE
  5
E9
330
1F
100
AcDbEntity
  8
0-B_寸法
  6
Continuous
 62
   120
370
     5
100
AcDbLine
 10
-2655.911741341302
 20
-893.3126075518159
 30
0.0
 11
-3117.911741341299
 21
-893.3126075518159
 31
0.0
  0
LINE
  5
EA
330
1F
100
AcDbEntity
  8
0-7_金物
  6
Continuous
 62
     7
370
     9
100
AcDbLine
 10
-2821.915731514642
 20
-603.8301618485583
 30
0.0
 11
-2784.911844338125
 21
-603.8301618485583
 31
0.0
  0
LINE
  5
EB
330
1F
100
AcDbEntity
  8
0-7_金物
  6
Continuous
 62
     7
370
     9
100
AcDbLine
 10
-2856.91015061254
 20
-597.8300702958246
 30
0.0
 11
-2916.91183861608
 21
-597.8300702958246
 31
0.0
  0
LINE
  5
EC
330
1F
100
AcDbEntity
  8
0-7_金物
  6
Continuous
 62
     7
370
     9
100
AcDbLine
 10
-2821.091756905267
 20
-584.6178205399646
 30
0.0
 11
-2856.91015061254
 21
-584.6178205399646
 31
0.0
  0
LINE
  5
ED
330
1F
100
AcDbEntity
  8
0-7_金物
  6
Continuous
 62
     7
370
     9
100
AcDbLine
 10
-2916.91183861608
 20
-584.6178205399646
 30
0.0
 11
-2953.091004456229
 21
-584.6178205399646
 31
0.0
  0
LINE
  5
EE
330
1F
100
AcDbEntity
  8
0-7_金物
  6
Continuous
 62
     7
370
     9
100
AcDbLine
 10
-2898.912078942007
 20
-642.8301618485569
 30
0.0
 11
-2898.912078942007
 21
-597.8300702958246
 31
0.0
  0
LINE
  5
EF
330
1F
100
AcDbEntity
  8
0-7_金物
  6
Continuous
 62
     7
370
     9
100
AcDbLine
 10
-2874.91139801854
 20
-597.8300702958246
 30
0.0
 11
-2874.91139801854
 21
-642.8301618485569
 31
0.0
  0
LINE
  5
F0
330
1F
100
AcDbEntity
  8
0-7_金物
  6
Continuous
 62
     7
370
     9
100
AcDbLine
 10
-2874.91139801854
 20
-642.8301618485569
 30
0.0
 11
-2898.912078942007
 21
-642.8301618485569
 31
0.0
  0
LINE
  5
F1
330
1F
100
AcDbEntity
  8
0-7_金物
  6
Continuous
 62
     7
370
     9
100
AcDbLine
 10
-2988.910146321005
 20
-597.8300702958246
 30
0.0
 11
-2988.910146321005
 21
-603.8301618485583
 31
0.0
  0
LINE
  5
F2
330
1F
100
AcDbEntity
  8
0-7_金物
  6
Continuous
 62
     7
370
     9
100
AcDbLine
 10
-2951.125344361009
 20
-603.8301618485583
 30
0.0
 11
-2988.910146321005
 21
-603.8301618485583
 31
0.0
  0
LINE
  5
F3
330
1F
100
AcDbEntity
  8
0-7_金物
  6
Continuous
 62
     7
370
     9
100
AcDbLine
 10
-2784.911844338125
 20
-597.8300702958246
 30
0.0
 11
-2784.911844338125
 21
-603.8301618485583
 31
0.0
  0
LINE
  5
F4
330
1F
100
AcDbEntity
  8
0-7_金物
  6
Continuous
 62
     7
370
     9
100
AcDbLine
 10
-2951.125344361009
 20
-597.8300702958246
 30
0.0
 11
-2958.912274922082
 21
-597.8300702958246
 31
0.0
  0
LINE
  5
F5
330
1F
100
AcDbEntity
  8
0-7_金物
  6
Continuous
 62
     7
370
     9
100
AcDbLine
 10
-2951.125344361009
 20
-603.8301618485583
 30
0.0
 11
-2951.125344361009
 21
-597.8300702958246
 31
0.0
  0
LINE
  5
F6
330
1F
100
AcDbEntity
  8
0-7_金物
  6
Continuous
 62
     7
370
     9
100
AcDbLine
 10
-2970.911868299196
 20
-597.8300702958246
 30
0.0
 11
-2988.910146321005
 21
-597.8300702958246
 31
0.0
  0
LINE
  5
F7
330
1F
100
AcDbEntity
  8
0-7_金物
  6
Continuous
 62
     7
370
     9
100
AcDbLine
 10
-2814.911947334955
 20
-597.8300702958246
 30
0.0
 11
-2821.915731514642
 21
-597.8300702958246
 31
0.0
  0
LINE
  5
F8
330
1F
100
AcDbEntity
  8
0-7_金物
  6
Continuous
 62
     7
370
     9
100
AcDbLine
 10
-2821.915731514642
 20
-603.8301618485583
 30
0.0
 11
-2821.915731514642
 21
-597.8300702958246
 31
0.0
  0
LINE
  5
F9
330
1F
100
AcDbEntity
  8
0-7_金物
  6
Continuous
 62
     7
370
     9
100
AcDbLine
 10
-2802.911615456293
 20
-597.8300702958246
 30
0.0
 11
-2784.911844338125
 21
-597.8300702958246
 31
0.0
  0
LINE
  5
FA
330
1F
100
AcDbEntity
  8
0-7_金物
  6
Continuous
 62
     7
370
     9
100
AcDbLine
 10
-2856.91015061254
 20
-518.6178205399632
 30
0.0
 11
-2821.091756905267
 21
-518.6178205399632
 31
0.0
  0
LINE
  5
FB
330
1F
100
AcDbEntity
  8
0-7_金物
  6
Continuous
 62
     7
370
     9
100
AcDbLine
 10
-2821.091756905267
 20
-518.6178205399632
 30
0.0
 11
-2821.091756905267
 21
-584.6178205399646
 31
0.0
  0
LINE
  5
FC
330
1F
100
AcDbEntity
  8
0-7_金物
  6
Continuous
 62
     7
370
     9
100
AcDbLine
 10
-2856.91015061254
 20
-501.8296125321514
 30
0.0
 11
-2856.91015061254
 21
-597.8300702958246
 31
0.0
  0
LINE
  5
FD
330
1F
100
AcDbEntity
  8
0-7_金物
  6
Continuous
 62
     7
370
     9
100
AcDbLine
 10
-2916.91183861608
 20
-501.8296125321514
 30
0.0
 11
-2856.91015061254
 21
-501.8296125321514
 31
0.0
  0
LINE
  5
FE
330
1F
100
AcDbEntity
  8
0-7_金物
  6
Continuous
 62
     7
370
     9
100
AcDbLine
 10
-2916.91183861608
 20
-597.8300702958246
 30
0.0
 11
-2916.91183861608
 21
-501.8296125321514
 31
0.0
  0
LINE
  5
FF
330
1F
100
AcDbEntity
  8
0-7_金物
  6
Continuous
 62
     7
370
     9
100
AcDbLine
 10
-2953.091004456229
 20
-518.6178205399632
 30
0.0
 11
-2916.91183861608
 21
-518.6178205399632
 31
0.0
  0
LINE
  5
100
330
1F
100
AcDbEntity
  8
0-7_金物
  6
Continuous
 62
     7
370
     9
100
AcDbLine
 10
-2953.091004456229
 20
-584.6178205399646
 30
0.0
 11
-2953.091004456229
 21
-518.6178205399632
 31
0.0
  0
LINE
  5
101
330
1F
100
AcDbEntity
  8
0-7_金物
  6
Continuous
 62
     7
370
     9
100
AcDbLine
 10
-2958.912274922082
 20
-597.8300702958246
 30
0.0
 11
-2958.912274922082
 21
-489.8299787430882
 31
0.0
  0
LINE
  5
102
330
1F
100
AcDbEntity
  8
0-7_金物
  6
Continuous
 62
     7
370
     9
100
AcDbLine
 10
-2958.912274922082
 20
-489.8299787430882
 30
0.0
 11
-2814.911947334955
 21
-489.8299787430882
 31
0.0
  0
LINE
  5
103
330
1F
100
AcDbEntity
  8
0-7_金物
  6
Continuous
 62
     7
370
     9
100
AcDbLine
 10
-2814.911947334955
 20
-489.8299787430882
 30
0.0
 11
-2814.911947334955
 21
-597.8300702958246
 31
0.0
  0
LINE
  5
104
330
1F
100
AcDbEntity
  8
0-0_補助線
  6
JWW_HOJO
 62
   120
370
     5
100
AcDbLine
 10
-1638.911619200722
 20
-3381.83065404768
 30
0.0
 11
-1638.912359674856
 21
-81.8302680415573
 31
0.0
  0
LINE
  5
105
330
1F
100
AcDbEntity
  8
0-0_補助線
  6
JWW_HOJO
 62
   120
370
     5
100
AcDbLine
 10
-2058.911619200722
 20
-3381.830654021288
 30
0.0
 11
-2058.912359674856
 21
-81.8302680415573
 31
0.0
  0
LINE
  5
106
330
1F
100
AcDbEntity
  8
0-0_補助線
  6
JWW_HOJO
 62
   120
370
     5
100
AcDbLine
 10
-1848.911619200722
 20
-3381.830654021288
 30
0.0
 11
-1848.912359674856
 21
-81.8302680415573
 31
0.0
  0
LINE
  5
107
330
1F
100
AcDbEntity
  8
0-0_補助線
  6
JWW_HOJO
 62
   120
370
     5
100
AcDbLine
 10
-3714.911742666405
 20
-3381.830654021288
 30
0.0
 11
-3714.912483140543
 21
-81.8302680415573
 31
0.0
  0
LINE
  5
108
330
1F
100
AcDbEntity
  8
0-B_寸法
  6
Continuous
 62
   120
370
     5
100
AcDbLine
 10
-3864.91254094071
 20
-351.8302682476798
 30
0.0
 11
-3864.91254094071
 21
-3381.83065404768
 31
0.0
  0
LWPOLYLINE
  5
109
330
1F
100
AcDbEntity
  8
0-B_寸法
  6
Continuous
 62
     7
370
     9
100
AcDbPolyline
 90
        4
 70
     1
 43
3.0
 10
-3863.41254094071
 20
-351.8302682476798
 42
0.4142135623731
 10
-3864.91254094071
 20
-350.3302682476798
 42
0.4142135623731
 10
-3866.41254094071
 20
-351.8302682476798
 42
0.4142135623731
 10
-3864.91254094071
 20
-353.3302682476798
 42
0.4142135623731
  0
LINE
  5
10A
330
1F
100
AcDbEntity
  8
0-B_寸法
  6
Continuous
 62
   120
370
     5
100
AcDbLine
 10
-3864.91254094071
 20
-351.8302682476798
 30
0.0
 11
-3177.912335419129
 21
-351.8302682476798
 31
0.0
  0
LINE
  5
10B
330
1F
100
AcDbEntity
  8
0-0_補助線
  6
JWW_HOJO
 62
   120
370
     5
100
AcDbLine
 10
-3864.91174266641
 20
-3381.830654021288
 30
0.0
 11
-1638.911619200722
 21
-3381.830654021288
 31
0.0
  0
LWPOLYLINE
  5
10C
330
1F
100
AcDbEntity
  8
0-B_寸法
  6
Continuous
 62
     7
370
     9
100
AcDbPolyline
 90
        4
 70
     1
 43
3.0
 10
-3863.41254094071
 20
-3381.83065404768
 42
0.4142135623731
 10
-3864.91254094071
 20
-3380.33065404768
 42
0.4142135623731
 10
-3866.41254094071
 20
-3381.83065404768
 42
0.4142135623731
 10
-3864.91254094071
 20
-3383.33065404768
 42
0.4142135623731
  0
LINE
  5
10D
330
1F
100
AcDbEntity
  8
0-B_寸法
  6
Continuous
 62
   120
370
     5
100
AcDbLine
 10
-3864.91254094071
 20
-3381.83065404768
 30
0.0
 11
-3504.91254094071
 21
-3381.83065404768
 31
0.0
  0
LINE
  5
10E
330
1F
100
AcDbEntity
  8
0-B_寸法
  6
Continuous
 62
   120
370
     5
100
AcDbLine
 10
-2058.912417475063
 20
-3309.830676317263
 30
0.0
 11
-2058.912417475063
 21
-597.8296446993284
 31
0.0
  0
LWPOLYLINE
  5
10F
330
1F
100
AcDbEntity
  8
0-B_寸法
  6
Continuous
 62
     7
370
     9
100
AcDbPolyline
 90
        4
 70
     1
 43
3.0
 10
-2057.412417475064
 20
-3309.830676317263
 42
0.4142135623731
 10
-2058.912417475063
 20
-3308.330676317263
 42
0.4142135623731
 10
-2060.412417475063
 20
-3309.830676317263
 42
0.4142135623731
 10
-2058.912417475063
 20
-3311.330676317263
 42
0.4142135623731
  0
LINE
  5
110
330
1F
100
AcDbEntity
  8
0-B_寸法
  6
Continuous
 62
   120
370
     5
100
AcDbLine
 10
-1638.912417475063
 20
-3381.83065404768
 30
0.0
 11
-1638.912417475063
 21
-351.8302682476798
 31
0.0
  0
LWPOLYLINE
  5
111
330
1F
100
AcDbEntity
  8
0-B_寸法
  6
Continuous
 62
     7
370
     9
100
AcDbPolyline
 90
        4
 70
     1
 43
3.0
 10
-1637.412417475063
 20
-351.8302682476798
 42
0.4142135623731
 10
-1638.912417475063
 20
-350.3302682476798
 42
0.4142135623731
 10
-1640.412417475063
 20
-351.8302682476798
 42
0.4142135623731
 10
-1638.912417475063
 20
-353.3302682476798
 42
0.4142135623731
  0
LINE
  5
112
330
1F
100
AcDbEntity
  8
0-B_寸法
  6
Continuous
 62
   120
370
     5
100
AcDbLine
 10
-1638.912417475063
 20
-351.8302682476798
 30
0.0
 11
-2268.912417475063
 21
-351.8302682476798
 31
0.0
  0
LINE
  5
113
330
1F
100
AcDbEntity
  8
0-B_寸法
  6
Continuous
 62
   120
370
     5
100
AcDbLine
 10
-1848.912417475063
 20
-3309.830676317263
 30
0.0
 11
-1848.912417475063
 21
-381.8302682476793
 31
0.0
  0
LWPOLYLINE
  5
114
330
1F
100
AcDbEntity
  8
0-B_寸法
  6
Continuous
 62
     7
370
     9
100
AcDbPolyline
 90
        4
 70
     1
 43
3.0
 10
-1637.411619200722
 20
-3381.83065404768
 42
0.4142135623731
 10
-1638.911619200722
 20
-3380.33065404768
 42
0.4142135623731
 10
-1640.411619200722
 20
-3381.83065404768
 42
0.4142135623731
 10
-1638.911619200722
 20
-3383.33065404768
 42
0.4142135623731
  0
LINE
  5
115
330
1F
100
AcDbEntity
  8
0-B_寸法
  6
Continuous
 62
   120
370
     5
100
AcDbLine
 10
-2268.912540940696
 20
-3381.83065404768
 30
0.0
 11
-1638.911619200722
 21
-3381.83065404768
 31
0.0
  0
LINE
  5
116
330
1F
100
AcDbEntity
  8
0-B_寸法
  6
Continuous
 62
   120
370
     5
100
AcDbLine
 10
-2268.912540940696
 20
-3240.831047476996
 30
0.0
 11
-2058.912417475063
 21
-3240.831047476996
 31
0.0
  0
LWPOLYLINE
  5
117
330
1F
100
AcDbEntity
  8
0-B_寸法
  6
Continuous
 62
     7
370
     9
100
AcDbPolyline
 90
        4
 70
     1
 43
3.0
 10
-2057.412417475064
 20
-3240.831047476996
 42
0.4142135623731
 10
-2058.912417475063
 20
-3239.331047476996
 42
0.4142135623731
 10
-2060.412417475063
 20
-3240.831047476996
 42
0.4142135623731
 10
-2058.912417475063
 20
-3242.331047476996
 42
0.4142135623731
  0
LWPOLYLINE
  5
118
330
1F
100
AcDbEntity
  8
0-B_寸法
  6
Continuous
 62
     7
370
     9
100
AcDbPolyline
 90
        4
 70
     1
 43
3.0
 10
-1847.412417475063
 20
-3309.830676317263
 42
0.4142135623731
 10
-1848.912417475063
 20
-3308.330676317263
 42
0.4142135623731
 10
-1850.412417475063
 20
-3309.830676317263
 42
0.4142135623731
 10
-1848.912417475063
 20
-3311.330676317263
 42
0.4142135623731
  0
LINE
  5
119
330
1F
100
AcDbEntity
  8
0-B_寸法
  6
Continuous
 62
   120
370
     5
100
AcDbLine
 10
-2268.912540940696
 20
-3309.830676317263
 30
0.0
 11
-1638.912417475063
 21
-3309.830676317263
 31
0.0
  0
LWPOLYLINE
  5
11A
330
1F
100
AcDbEntity
  8
0-B_寸法
  6
Continuous
 62
     7
370
     9
100
AcDbPolyline
 90
        4
 70
     1
 43
3.0
 10
-1637.412417475063
 20
-3309.830676317263
 42
0.4142135623731
 10
-1638.912417475063
 20
-3308.330676317263
 42
0.4142135623731
 10
-1640.412417475063
 20
-3309.830676317263
 42
0.4142135623731
 10
-1638.912417475063
 20
-3311.330676317263
 42
0.4142135623731
  0
LINE
  5
11B
330
1F
100
AcDbEntity
  8
0-B_寸法
  6
Continuous
 62
   120
370
     5
100
AcDbLine
 10
-2268.912540940696
 20
-642.8297931632221
 30
0.0
 11
-2058.912417475063
 21
-642.8297931632221
 31
0.0
  0
LWPOLYLINE
  5
11C
330
1F
100
AcDbEntity
  8
0-B_寸法
  6
Continuous
 62
     7
370
     9
100
AcDbPolyline
 90
        4
 70
     1
 43
3.0
 10
-2057.412417475064
 20
-642.8297931632221
 42
0.4142135623731
 10
-2058.912417475063
 20
-641.3297931632221
 42
0.4142135623731
 10
-2060.412417475063
 20
-642.8297931632221
 42
0.4142135623731
 10
-2058.912417475063
 20
-644.3297931632221
 42
0.4142135623731
  0
LWPOLYLINE
  5
11D
330
1F
100
AcDbEntity
  8
0-B_寸法
  6
Continuous
 62
     7
370
     9
100
AcDbPolyline
 90
        4
 70
     1
 43
3.0
 10
-2057.412417475064
 20
-597.8296446993284
 42
0.4142135623731
 10
-2058.912417475063
 20
-596.3296446993284
 42
0.4142135623731
 10
-2060.412417475063
 20
-597.8296446993284
 42
0.4142135623731
 10
-2058.912417475063
 20
-599.3296446993284
 42
0.4142135623731
  0
LWPOLYLINE
  5
11E
330
1F
100
AcDbEntity
  8
0-B_寸法
  6
Continuous
 62
     7
370
     9
100
AcDbPolyline
 90
        4
 70
     1
 43
3.0
 10
-1847.412417475063
 20
-381.8302682476793
 42
0.4142135623731
 10
-1848.912417475063
 20
-380.3302682476793
 42
0.4142135623731
 10
-1850.412417475063
 20
-381.8302682476793
 42
0.4142135623731
 10
-1848.912417475063
 20
-383.3302682476794
 42
0.4142135623731
  0
LWPOLYLINE
  5
11F
330
1F
100
AcDbEntity
  8
0-B_寸法
  6
Continuous
 62
     7
370
     9
100
AcDbPolyline
 90
        4
 70
     1
 43
3.0
 10
-1847.412417475063
 20
-597.8292735395952
 42
0.4142135623731
 10
-1848.912417475063
 20
-596.3292735395952
 42
0.4142135623731
 10
-1850.412417475063
 20
-597.8292735395952
 42
0.4142135623731
 10
-1848.912417475063
 20
-599.3292735395952
 42
0.4142135623731
  0
LINE
  5
120
330
1F
100
AcDbEntity
  8
0-B_寸法
  6
Continuous
 62
   120
370
     5
100
AcDbLine
 10
-2058.912417475063
 20
-597.8292735395952
 30
0.0
 11
-1848.912417475063
 21
-597.8292735395952
 31
0.0
  0
LWPOLYLINE
  5
121
330
1F
100
AcDbEntity
  8
0-B_寸法
  6
Continuous
 62
     7
370
     9
100
AcDbPolyline
 90
        4
 70
     1
 43
3.0
 10
-1637.412417475063
 20
-381.8302682476793
 42
0.4142135623731
 10
-1638.912417475063
 20
-380.3302682476793
 42
0.4142135623731
 10
-1640.412417475063
 20
-381.8302682476793
 42
0.4142135623731
 10
-1638.912417475063
 20
-383.3302682476794
 42
0.4142135623731
  0
LINE
  5
122
330
1F
100
AcDbEntity
  8
0-B_寸法
  6
Continuous
 62
   120
370
     5
100
AcDbLine
 10
-2268.911755179352
 20
-429.83026824768
 30
0.0
 11
-2281.444045301356
 21
-429.83026824768
 31
0.0
  0
LINE
  5
123
330
1F
100
AcDbEntity
  8
0-B_寸法
  6
Continuous
 62
   120
370
     5
100
AcDbLine
 10
-2380.406055771183
 20
-429.83026824768
 30
0.0
 11
-2400.91180095572
 21
-429.83026824768
 31
0.0
  0
LINE
  5
124
330
1F
100
AcDbEntity
  8
0-B_寸法
  6
Continuous
 62
   120
370
     5
100
AcDbLine
 10
-2268.911755179352
 20
-483.8302682476786
 30
0.0
 11
-2400.91180095572
 21
-483.8302682476786
 31
0.0
  0
LINE
  5
125
330
1F
100
AcDbEntity
  8
0-B_寸法
  6
Continuous
 62
   120
370
     5
100
AcDbLine
 10
-2268.911755179352
 20
-537.8302682476794
 30
0.0
 11
-2281.444045301356
 21
-537.8302682476794
 31
0.0
  0
LINE
  5
126
330
1F
100
AcDbEntity
  8
0-B_寸法
  6
Continuous
 62
   120
370
     5
100
AcDbLine
 10
-2380.406055771183
 20
-537.8302682476794
 30
0.0
 11
-2400.91180095572
 21
-537.8302682476794
 31
0.0
  0
LWPOLYLINE
  5
127
330
1F
100
AcDbEntity
  8
0-B_寸法
  6
Continuous
 62
     7
370
     9
100
AcDbPolyline
 90
        4
 70
     1
 43
3.0
 10
-2267.411755179353
 20
-429.83026824768
 42
0.4142135623731
 10
-2268.911755179352
 20
-428.33026824768
 42
0.4142135623731
 10
-2270.411755179352
 20
-429.83026824768
 42
0.4142135623731
 10
-2268.911755179352
 20
-431.3302682476801
 42
0.4142135623731
  0
LWPOLYLINE
  5
128
330
1F
100
AcDbEntity
  8
0-B_寸法
  6
Continuous
 62
     7
370
     9
100
AcDbPolyline
 90
        4
 70
     1
 43
3.0
 10
-2267.411755179353
 20
-597.8300851422118
 42
0.4142135623731
 10
-2268.911755179352
 20
-596.3300851422118
 42
0.4142135623731
 10
-2270.411755179352
 20
-597.8300851422118
 42
0.4142135623731
 10
-2268.911755179352
 20
-599.3300851422118
 42
0.4142135623731
  0
LWPOLYLINE
  5
129
330
1F
100
AcDbEntity
  8
0-B_寸法
  6
Continuous
 62
     7
370
     9
100
AcDbPolyline
 90
        4
 70
     1
 43
3.0
 10
-2267.411755179353
 20
-537.8302682476794
 42
0.4142135623731
 10
-2268.911755179352
 20
-536.3302682476794
 42
0.4142135623731
 10
-2270.411755179352
 20
-537.8302682476794
 42
0.4142135623731
 10
-2268.911755179352
 20
-539.3302682476794
 42
0.4142135623731
  0
LWPOLYLINE
  5
12A
330
1F
100
AcDbEntity
  8
0-B_寸法
  6
Continuous
 62
     7
370
     9
100
AcDbPolyline
 90
        4
 70
     1
 43
3.0
 10
-2267.411755179353
 20
-483.8302682476786
 42
0.4142135623731
 10
-2268.911755179352
 20
-482.3302682476786
 42
0.4142135623731
 10
-2270.411755179352
 20
-483.8302682476786
 42
0.4142135623731
 10
-2268.911755179352
 20
-485.3302682476787
 42
0.4142135623731
  0
LWPOLYLINE
  5
12B
330
1F
100
AcDbEntity
  8
0-B_寸法
  6
Continuous
 62
     7
370
     9
100
AcDbPolyline
 90
        4
 70
     1
 43
3.0
 10
-2267.411755179353
 20
-381.8302682476793
 42
0.4142135623731
 10
-2268.911755179352
 20
-380.3302682476793
 42
0.4142135623731
 10
-2270.411755179352
 20
-381.8302682476793
 42
0.4142135623731
 10
-2268.911755179352
 20
-383.3302682476794
 42
0.4142135623731
  0
LINE
  5
12C
330
1F
100
AcDbEntity
  8
0-B_寸法
  6
Continuous
 62
   120
370
     5
100
AcDbLine
 10
-2268.911755179352
 20
-381.8302682476793
 30
0.0
 11
-2268.911755179352
 21
-597.8300851422118
 31
0.0
  0
MTEXT
  5
12D
330
1F
100
AcDbEntity
  8
0-B_寸法
  6
Continuous
 62
     7
370
   211
100
AcDbMText
 10
-3879.91254094071
 20
-2310.110426403044
 30
0.0
 40
91.4400000000003
 41
780.0000000000025
 46
0.0
 71
     7
 72
     1
  1
{\fＭＳ ゴシック|b0|i0|c128|p49;ＲＯＨ＝2,356}
 11
6.123031769111886E-17
 21
1.0
 31
0.0
 73
     1
 44
1.0
  0
MTEXT
  5
12E
330
1F
100
AcDbEntity
  8
0-B_寸法
  6
Continuous
 62
     7
370
     0
100
AcDbMText
 10
-2073.911724643557
 20
-2250.110426403044
 30
0.0
 40
91.44000000000014
 41
660.0000000000009
 46
0.0
 71
     7
 72
     1
  1
{\fＭＳ ゴシック|b0|i0|c128|p49;ＤＨ＝2,284}
 11
6.123031769111886E-17
 21
1.0
 31
0.0
 73
     1
 44
1.0
  0
MTEXT
  5
12F
330
1F
100
AcDbEntity
  8
0-B_寸法
  6
Continuous
 62
     7
370
     0
100
AcDbMText
 10
-1863.911724643565
 20
-2250.110426403042
 30
0.0
 40
91.44000000000011
 41
660.0000000000009
 46
0.0
 71
     7
 72
     1
  1
{\fＭＳ ゴシック|b0|i0|c128|p49;枠内＝2,303}
 11
6.123031769111886E-17
 21
1.0
 31
0.0
 73
     1
 44
1.0
  0
MTEXT
  5
130
330
1F
100
AcDbEntity
  8
0-B_寸法
  6
Continuous
 62
     7
370
     0
100
AcDbMText
 10
-1653.913209282487
 20
-2250.110426403044
 30
0.0
 40
91.44000000000014
 41
660.0000000000009
 46
0.0
 71
     7
 72
     1
  1
{\fＭＳ ゴシック|b0|i0|c128|p49;枠外＝2,339}
 11
6.123031769111886E-17
 21
1.0
 31
0.0
 73
     1
 44
1.0
  0
MTEXT
  5
131
330
1F
100
AcDbEntity
  8
0-0_補助線
  6
Continuous
 62
     7
370
   211
100
AcDbMText
 10
-2176.886509220941
 20
2325.079196304378
 30
0.0
 40
91.43999999999912
 41
179.9999999999983
 46
0.0
 71
     7
 72
     1
  1
{\fＭＳ ゴシック|b0|i0|c128|p49;3.5}
 73
     1
 44
1.0
  0
MTEXT
  5
132
330
1F
100
AcDbEntity
  8
0-0_補助線
  6
Continuous
 62
     7
370
   211
100
AcDbMText
 10
-1973.094832617243
 20
2325.079196304378
 30
0.0
 40
91.43999999999912
 41
179.9999999999983
 46
0.0
 71
     7
 72
     1
  1
{\fＭＳ ゴシック|b0|i0|c128|p49;2.5}
 73
     1
 44
1.0
  0
LINE
  5
133
330
1F
100
AcDbEntity
  8
0-B_寸法
  6
Continuous
 62
   120
370
     5
100
AcDbLine
 10
-1983.481287529594
 20
1806.945146596838
 30
0.0
 11
-1983.481287529594
 21
1986.945146596838
 31
0.0
  0
LWPOLYLINE
  5
134
330
1F
100
AcDbEntity
  8
0-B_寸法
  6
Continuous
 62
     7
370
     9
100
AcDbPolyline
 90
        4
 70
     1
 43
3.0
 10
-1981.981287529594
 20
1806.945146596838
 42
0.4142135623731
 10
-1983.481287529594
 20
1808.445146596838
 42
0.4142135623731
 10
-1984.981287529593
 20
1806.945146596838
 42
0.4142135623731
 10
-1983.481287529594
 20
1805.445146596839
 42
0.4142135623731
  0
LINE
  5
135
330
1F
100
AcDbEntity
  8
0-B_寸法
  6
Continuous
 62
   120
370
     5
100
AcDbLine
 10
-2163.481287529593
 20
1806.945146596838
 30
0.0
 11
-2163.481287529593
 21
1986.945146596838
 31
0.0
  0
LINE
  5
136
330
1F
100
AcDbEntity
  8
0-B_寸法
  6
Continuous
 62
   120
370
     5
100
AcDbLine
 10
-2043.481287529594
 20
1806.945146596838
 30
0.0
 11
-2043.481287529594
 21
1986.945146596838
 31
0.0
  0
LINE
  5
137
330
1F
100
AcDbEntity
  8
0-B_寸法
  6
Continuous
 62
   120
370
     5
100
AcDbLine
 10
-2097.481287529597
 20
1806.945146596838
 30
0.0
 11
-2097.481287529597
 21
1986.945146596838
 31
0.0
  0
LINE
  5
138
330
1F
100
AcDbEntity
  8
0-B_寸法
  6
Continuous
 62
   120
370
     5
100
AcDbLine
 10
-2133.481287529593
 20
1806.945146596838
 30
0.0
 11
-2133.481287529593
 21
1986.945146596838
 31
0.0
  0
LINE
  5
139
330
1F
100
AcDbEntity
  8
0-B_寸法
  6
Continuous
 62
   120
370
     5
100
AcDbLine
 10
-2268.930109358257
 20
1866.945146596838
 30
0.0
 11
-2208.481287529593
 21
1866.945146596838
 31
0.0
  0
LINE
  5
13A
330
1F
100
AcDbEntity
  8
0-B_寸法
  6
Continuous
 62
   120
370
     5
100
AcDbLine
 10
-2148.481287529593
 20
1806.945146596838
 30
0.0
 11
-2208.481287529593
 21
1866.945146596838
 31
0.0
  0
LINE
  5
13B
330
1F
100
AcDbEntity
  8
0-B_寸法
  6
Continuous
 62
   120
370
     5
100
AcDbLine
 10
-2260.727827384769
 20
1716.945146596838
 30
0.0
 11
-2205.481287529594
 21
1716.945146596838
 31
0.0
  0
LWPOLYLINE
  5
13C
330
1F
100
AcDbEntity
  8
0-B_寸法
  6
Continuous
 62
     7
370
     9
100
AcDbPolyline
 90
        4
 70
     1
 43
3.0
 10
-2041.981287529594
 20
1806.945146596838
 42
0.4142135623731
 10
-2043.481287529594
 20
1808.445146596838
 42
0.4142135623731
 10
-2044.981287529593
 20
1806.945146596838
 42
0.4142135623731
 10
-2043.481287529594
 20
1805.445146596839
 42
0.4142135623731
  0
LWPOLYLINE
  5
13D
330
1F
100
AcDbEntity
  8
0-B_寸法
  6
Continuous
 62
     7
370
     9
100
AcDbPolyline
 90
        4
 70
     1
 43
3.0
 10
-2095.981287529597
 20
1806.945146596838
 42
0.4142135623731
 10
-2097.481287529597
 20
1808.445146596838
 42
0.4142135623731
 10
-2098.981287529597
 20
1806.945146596838
 42
0.4142135623731
 10
-2097.481287529597
 20
1805.445146596839
 42
0.4142135623731
  0
LWPOLYLINE
  5
13E
330
1F
100
AcDbEntity
  8
0-B_寸法
  6
Continuous
 62
     7
370
     9
100
AcDbPolyline
 90
        4
 70
     1
 43
3.0
 10
-2131.981287529594
 20
1806.945146596838
 42
0.4142135623731
 10
-2133.481287529593
 20
1808.445146596838
 42
0.4142135623731
 10
-2134.981287529593
 20
1806.945146596838
 42
0.4142135623731
 10
-2133.481287529593
 20
1805.445146596839
 42
0.4142135623731
  0
LWPOLYLINE
  5
13F
330
1F
100
AcDbEntity
  8
0-B_寸法
  6
Continuous
 62
     7
370
     9
100
AcDbPolyline
 90
        4
 70
     1
 43
3.0
 10
-2161.981287529594
 20
1806.945146596838
 42
0.4142135623731
 10
-2163.481287529593
 20
1808.445146596838
 42
0.4142135623731
 10
-2164.981287529593
 20
1806.945146596838
 42
0.4142135623731
 10
-2163.481287529593
 20
1805.445146596839
 42
0.4142135623731
  0
LINE
  5
140
330
1F
100
AcDbEntity
  8
0-B_寸法
  6
Continuous
 62
   120
370
     5
100
AcDbLine
 10
-2163.481287529593
 20
1806.945146596838
 30
0.0
 11
-1983.481287529594
 21
1806.945146596838
 31
0.0
  0
LINE
  5
141
330
1F
100
AcDbEntity
  8
0-B_寸法
  6
Continuous
 62
   120
370
     5
100
AcDbLine
 10
-2115.481287529594
 20
1806.945146596838
 30
0.0
 11
-2205.481287529594
 21
1716.945146596838
 31
0.0
  0
MTEXT
  5
142
330
1F
100
AcDbEntity
  8
0-B_寸法
  6
Continuous
 62
     7
370
   211
100
AcDbMText
 10
-321.4812875295925
 20
3142.665146596839
 30
0.0
 40
91.43999999999966
 41
659.9999999999975
 46
0.0
 71
     7
 72
     1
  1
{\fＭＳ ゴシック|b0|i0|c128|p49;ＲＯＷ＝734}
 73
     1
 44
1.0
  0
MTEXT
  5
143
330
1F
100
AcDbEntity
  8
0-B_寸法
  6
Continuous
 62
     7
370
   211
100
AcDbMText
 10
-485.5828732370691
 20
2962.665146596839
 30
0.0
 40
91.44000000000015
 41
1020.000000000002
 46
0.0
 71
     7
 72
     1
  1
{\fＭＳ ゴシック|b0|i0|c128|p49;有効開口寸法＝542}
 73
     1
 44
1.0
  0
MTEXT
  5
144
330
1F
100
AcDbEntity
  8
0-B_寸法
  6
Continuous
 62
     7
370
   211
100
AcDbMText
 10
-1569.279960107841
 20
2287.665146596834
 30
0.0
 40
91.44
 41
120.0
 46
0.0
 71
     7
 72
     1
  1
{\fＭＳ ゴシック|b0|i0|c128|p49;77}
 11
6.123031769111886E-17
 21
1.0
 31
0.0
 73
     1
 44
1.0
  0
MTEXT
  5
145
330
1F
100
AcDbEntity
  8
0-B_寸法
  6
Continuous
 62
     7
370
   211
100
AcDbMText
 10
-2253.481287529594
 20
1856.23514659684
 30
0.0
 40
68.5800000000026
 41
45.00000000000171
 46
0.0
 71
     7
 72
     1
  1
{\fＭＳ ゴシック|b0|i0|c128|p49;5}
 73
     1
 44
1.0
  0
LINE
  5
146
330
1F
100
AcDbEntity
  8
0-0_補助線
  6
JWW_HOJO
 62
   120
370
     5
100
AcDbLine
 10
2780.518514518553
 20
2781.94514659684
 30
0.0
 11
-2763.481089577737
 21
2781.94514659684
 31
0.0
  0
LINE
  5
147
330
1F
100
AcDbEntity
  8
0-0_補助線
  6
JWW_HOJO
 62
   120
370
     5
100
AcDbLine
 10
2780.518514518553
 20
3141.94514659684
 30
0.0
 11
-2763.481089577737
 21
3141.94514659684
 31
0.0
  0
LINE
  5
148
330
1F
100
AcDbEntity
  8
0-0_補助線
  6
JWW_HOJO
 62
   120
370
     5
100
AcDbLine
 10
2780.518514518553
 20
2961.94514659684
 30
0.0
 11
-2763.481089577737
 21
2961.94514659684
 31
0.0
  0
LINE
  5
149
330
1F
100
AcDbEntity
  8
0-1_通り芯
  6
JWW_CENTER1
 62
   120
370
     5
100
AcDbLine
 10
2780.518514518553
 20
2361.94514659684
 30
0.0
 11
-2763.481089577737
 21
2361.94514659684
 31
0.0
  0
LINE
  5
14A
330
1F
100
AcDbEntity
  8
0-C_ハッチ
  6
Continuous
 62
   120
370
     5
100
AcDbLine
 10
-2163.481287529591
 20
2387.26477339253
 30
0.0
 11
-1983.481287529594
 21
2567.264773392526
 31
0.0
  0
LINE
  5
14B
330
1F
100
AcDbEntity
  8
0-C_ハッチ
  6
Continuous
 62
   120
370
     5
100
AcDbLine
 10
-2163.481287529598
 20
2327.86780377282
 30
0.0
 11
-1983.481287529607
 21
2507.867803772811
 31
0.0
  0
LINE
  5
14C
330
1F
100
AcDbEntity
  8
0-C_ハッチ
  6
Continuous
 62
   120
370
     5
100
AcDbLine
 10
-2163.481287529593
 20
2268.470834153177
 30
0.0
 11
-2014.383270770349
 21
2417.568850912424
 31
0.0
  0
LINE
  5
14D
330
1F
100
AcDbEntity
  8
0-C_ハッチ
  6
Continuous
 62
   120
370
     5
100
AcDbLine
 10
-2163.481287529587
 20
2209.073864533535
 30
0.0
 11
-2019.356266750769
 21
2353.198885312357
 31
0.0
  0
ARC
  5
14E
330
1F
100
AcDbEntity
  8
0-4_枠
  6
Continuous
 62
    92
370
    13
100
AcDbCircle
 10
-1713.481287529594
 20
2361.94514659684
 30
0.0
 40
306.0000000000022
100
AcDbArc
 50
151.9275130641473
 51
208.0724869358527
  0
LINE
  5
14F
330
1F
100
AcDbEntity
  8
0-0_補助線
  6
Continuous
 62
   120
370
     5
100
AcDbLine
 10
-1983.481287529594
 20
2324.359196304378
 30
0.0
 11
-1998.481287529594
 21
2324.359196304378
 31
0.0
  0
LWPOLYLINE
  5
150
330
1F
100
AcDbEntity
  8
0-0_補助線
  6
Continuous
 62
     7
370
     9
100
AcDbPolyline
 90
        4
 70
     1
 43
3.0
 10
-1981.981287529594
 20
2324.359196304378
 42
0.4142135623731
 10
-1983.481287529594
 20
2325.859196304378
 42
0.4142135623731
 10
-1984.981287529593
 20
2324.359196304378
 42
0.4142135623731
 10
-1983.481287529594
 20
2322.859196304378
 42
0.4142135623731
  0
LWPOLYLINE
  5
151
330
1F
100
AcDbEntity
  8
0-0_補助線
  6
Continuous
 62
     7
370
     9
100
AcDbPolyline
 90
        4
 70
     1
 43
3.0
 10
-1996.981287529594
 20
2324.359196304378
 42
0.4142135623731
 10
-1998.481287529594
 20
2325.859196304378
 42
0.4142135623731
 10
-1999.981287529593
 20
2324.359196304378
 42
0.4142135623731
 10
-1998.481287529594
 20
2322.859196304378
 42
0.4142135623731
  0
LINE
  5
152
330
1F
100
AcDbEntity
  8
0-0_補助線
  6
Continuous
 62
   120
370
     5
100
AcDbLine
 10
-1998.481287529594
 20
2324.359196304378
 30
0.0
 11
-2019.481287529595
 21
2324.359196304378
 31
0.0
  0
LWPOLYLINE
  5
153
330
1F
100
AcDbEntity
  8
0-0_補助線
  6
Continuous
 62
     7
370
     9
100
AcDbPolyline
 90
        4
 70
     1
 43
3.0
 10
-2017.981287529595
 20
2324.359196304378
 42
0.4142135623731
 10
-2019.481287529595
 20
2325.859196304378
 42
0.4142135623731
 10
-2020.981287529595
 20
2324.359196304378
 42
0.4142135623731
 10
-2019.481287529595
 20
2322.859196304378
 42
0.4142135623731
  0
LINE
  5
154
330
1F
100
AcDbEntity
  8
0-0_補助線
  6
Continuous
 62
   120
370
     5
100
AcDbLine
 10
-2019.481287529595
 20
2324.359196304378
 30
0.0
 11
-2019.481287529595
 21
2405.688459527563
 31
0.0
  0
MTEXT
  5
155
330
1F
100
AcDbEntity
  8
0-B_寸法
  6
Continuous
 62
     7
370
   211
100
AcDbMText
 10
-2092.981287529595
 20
1796.23514659684
 30
0.0
 40
68.5800000000026
 41
45.00000000000171
 46
0.0
 71
     7
 72
     1
  1
{\fＭＳ ゴシック|b0|i0|c128|p49;9}
 73
     1
 44
1.0
  0
LINE
  5
156
330
1F
100
AcDbEntity
  8
0-7_金物
  6
Continuous
 62
     7
370
     9
100
AcDbLine
 10
2198.518375952247
 20
2271.945220828787
 30
0.0
 11
2198.518375952247
 21
2451.945072364893
 31
0.0
  0
LINE
  5
157
330
1F
100
AcDbEntity
  8
0-7_金物
  6
Continuous
 62
     7
370
     9
100
AcDbLine
 10
2210.518712470406
 20
2451.945072364893
 30
0.0
 11
2198.518375952247
 21
2451.945072364893
 31
0.0
  0
LINE
  5
158
330
1F
100
AcDbEntity
  8
0-7_金物
  6
Continuous
 62
     7
370
     9
100
AcDbLine
 10
2210.518712470406
 20
2271.945220828787
 30
0.0
 11
2198.518375952247
 21
2271.945220828787
 31
0.0
  0
LINE
  5
159
330
1F
100
AcDbEntity
  8
0-7_金物
  6
Continuous
 62
     7
370
     9
100
AcDbLine
 10
2198.518375952247
 20
2301.945319804716
 30
0.0
 11
2186.518781753556
 21
2301.945319804716
 31
0.0
  0
LINE
  5
15A
330
1F
100
AcDbEntity
  8
0-7_金物
  6
Continuous
 62
     7
370
     9
100
AcDbLine
 10
2198.518375952247
 20
2421.944973388964
 30
0.0
 11
2186.518781753556
 21
2421.944973388964
 31
0.0
  0
LINE
  5
15B
330
1F
100
AcDbEntity
  8
0-7_金物
  6
Continuous
 62
     7
370
     9
100
AcDbLine
 10
2186.518781753556
 20
2301.945319804716
 30
0.0
 11
2186.518781753556
 21
2421.944973388964
 31
0.0
  0
LINE
  5
15C
330
1F
100
AcDbEntity
  8
0-7_金物
  6
Continuous
 62
     7
370
     9
100
AcDbLine
 10
2186.518781753556
 20
2415.945547449353
 30
0.0
 11
2180.518712470406
 21
2415.945547449353
 31
0.0
  0
LINE
  5
15D
330
1F
100
AcDbEntity
  8
0-7_金物
  6
Continuous
 62
     7
370
     9
100
AcDbLine
 10
2186.518781753556
 20
2307.945488063795
 30
0.0
 11
2180.518712470406
 21
2307.945488063795
 31
0.0
  0
LINE
  5
15E
330
1F
100
AcDbEntity
  8
0-7_金物
  6
Continuous
 62
     7
370
     9
100
AcDbLine
 10
2210.518712470406
 20
2271.945220828787
 30
0.0
 11
2210.518712470406
 21
2451.945072364893
 31
0.0
  0
LINE
  5
15F
330
1F
100
AcDbEntity
  8
0-7_金物
  6
Continuous
 62
     7
370
     9
100
AcDbLine
 10
-2181.480951011437
 20
2271.945220828787
 30
0.0
 11
-2181.480951011437
 21
2451.945072364893
 31
0.0
  0
LINE
  5
160
330
1F
100
AcDbEntity
  8
0-7_金物
  6
Continuous
 62
     7
370
     9
100
AcDbLine
 10
-2193.481287529593
 20
2451.945072364893
 30
0.0
 11
-2181.480951011437
 21
2451.945072364893
 31
0.0
  0
LINE
  5
161
330
1F
100
AcDbEntity
  8
0-7_金物
  6
Continuous
 62
     7
370
     9
100
AcDbLine
 10
-2193.481287529593
 20
2271.945220828787
 30
0.0
 11
-2181.480951011437
 21
2271.945220828787
 31
0.0
  0
LINE
  5
162
330
1F
100
AcDbEntity
  8
0-7_金物
  6
Continuous
 62
     7
370
     9
100
AcDbLine
 10
-2181.480951011437
 20
2301.945319804716
 30
0.0
 11
-2169.481356812743
 21
2301.945319804716
 31
0.0
  0
LINE
  5
163
330
1F
100
AcDbEntity
  8
0-7_金物
  6
Continuous
 62
     7
370
     9
100
AcDbLine
 10
-2181.480951011437
 20
2421.944973388964
 30
0.0
 11
-2169.481356812743
 21
2421.944973388964
 31
0.0
  0
LINE
  5
164
330
1F
100
AcDbEntity
  8
0-7_金物
  6
Continuous
 62
     7
370
     9
100
AcDbLine
 10
-2169.481356812743
 20
2301.945319804716
 30
0.0
 11
-2169.481356812743
 21
2421.944973388964
 31
0.0
  0
LINE
  5
165
330
1F
100
AcDbEntity
  8
0-7_金物
  6
Continuous
 62
     7
370
     9
100
AcDbLine
 10
-2169.481356812743
 20
2415.945547449353
 30
0.0
 11
-2163.481287529593
 21
2415.945547449353
 31
0.0
  0
LINE
  5
166
330
1F
100
AcDbEntity
  8
0-7_金物
  6
Continuous
 62
     7
370
     9
100
AcDbLine
 10
-2169.481356812743
 20
2307.945488063795
 30
0.0
 11
-2163.481287529593
 21
2307.945488063795
 31
0.0
  0
LINE
  5
167
330
1F
100
AcDbEntity
  8
0-7_金物
  6
Continuous
 62
     7
370
     9
100
AcDbLine
 10
-2193.481287529593
 20
2271.945220828787
 30
0.0
 11
-2193.481287529593
 21
2451.945072364893
 31
0.0
  0
MTEXT
  5
168
330
1F
100
AcDbEntity
  8
0-B_寸法
  6
Continuous
 62
     7
370
   211
100
AcDbMText
 10
-2032.231287529596
 20
1799.092646596838
 30
0.0
 40
74.2949999999974
 41
97.49999999999659
 46
0.0
 71
     7
 72
     1
  1
{\fＭＳ ゴシック|b0|i0|c128|p49;10}
 73
     1
 44
1.0
  0
MTEXT
  5
169
330
1F
100
AcDbEntity
  8
0-B_寸法
  6
Continuous
 62
     7
370
   211
100
AcDbMText
 10
-2250.481287529595
 20
1706.23514659684
 30
0.0
 40
68.5800000000026
 41
45.00000000000171
 46
0.0
 71
     7
 72
     1
  1
{\fＭＳ ゴシック|b0|i0|c128|p49;6}
 73
     1
 44
1.0
  0
LWPOLYLINE
  5
16A
330
1F
100
AcDbEntity
  8
0-B_寸法
  6
Continuous
 62
     7
370
     9
100
AcDbPolyline
 90
        4
 70
     1
 43
3.0
 10
-1981.981287529594
 20
2961.94514659684
 42
0.4142135623731
 10
-1983.481287529594
 20
2963.445146596839
 42
0.4142135623731
 10
-1984.981287529593
 20
2961.94514659684
 42
0.4142135623731
 10
-1983.481287529594
 20
2960.44514659684
 42
0.4142135623731
  0
LINE
  5
16B
330
1F
100
AcDbEntity
  8
0-B_寸法
  6
Continuous
 62
   120
370
     5
100
AcDbLine
 10
-1983.481287529594
 20
2961.94514659684
 30
0.0
 11
-1983.481287529594
 21
2781.94514659684
 31
0.0
  0
LINE
  5
16C
330
1F
100
AcDbEntity
  8
0-B_寸法
  6
Continuous
 62
   120
370
     5
100
AcDbLine
 10
-2193.481287529593
 20
3141.94514659684
 30
0.0
 11
2210.518712470406
 21
3141.94514659684
 31
0.0
  0
LWPOLYLINE
  5
16D
330
1F
100
AcDbEntity
  8
0-B_寸法
  6
Continuous
 62
     7
370
     9
100
AcDbPolyline
 90
        4
 70
     1
 43
3.0
 10
-2191.981287529594
 20
3141.94514659684
 42
0.4142135623731
 10
-2193.481287529593
 20
3143.445146596839
 42
0.4142135623731
 10
-2194.981287529593
 20
3141.94514659684
 42
0.4142135623731
 10
-2193.481287529593
 20
3140.44514659684
 42
0.4142135623731
  0
LWPOLYLINE
  5
16E
330
1F
100
AcDbEntity
  8
0-B_寸法
  6
Continuous
 62
     7
370
     9
100
AcDbPolyline
 90
        4
 70
     1
 43
3.0
 10
2212.018712470406
 20
3141.94514659684
 42
0.4142135623731
 10
2210.518712470406
 20
3143.445146596839
 42
0.4142135623731
 10
2209.018712470407
 20
3141.94514659684
 42
0.4142135623731
 10
2210.518712470406
 20
3140.44514659684
 42
0.4142135623731
  0
LINE
  5
16F
330
1F
100
AcDbEntity
  8
0-B_寸法
  6
Continuous
 62
   120
370
     5
100
AcDbLine
 10
-2193.481287529593
 20
3141.94514659684
 30
0.0
 11
-2193.481287529593
 21
2781.94514659684
 31
0.0
  0
LINE
  5
170
330
1F
100
AcDbEntity
  8
0-B_寸法
  6
Continuous
 62
   120
370
     5
100
AcDbLine
 10
2210.518712470406
 20
3141.94514659684
 30
0.0
 11
2210.518712470406
 21
2781.94514659684
 31
0.0
  0
MTEXT
  5
171
330
1F
100
AcDbEntity
  8
0-B_寸法
  6
Continuous
 62
     7
370
   211
100
AcDbMText
 10
-1266.481287529594
 20
1627.665146596839
 30
0.0
 40
91.43999999999986
 41
539.9999999999991
 46
0.0
 71
     7
 72
     1
  1
{\fＭＳ ゴシック|b0|i0|c128|p49;ＤＷ＝334}
 73
     1
 44
1.0
  0
ARC
  5
172
330
1F
100
AcDbEntity
  8
0-6_扉
  6
JWW_DASHED2
 62
    40
370
    15
100
AcDbCircle
 10
1719.435352360055
 20
2557.712520567019
 30
0.0
 40
18.0
100
AcDbArc
 50
85.6539792783598
 51
175.65397927836
  0
LINE
  5
173
330
1F
100
AcDbEntity
  8
0-6_扉
  6
JWW_DASHED2
 62
    40
370
    15
100
AcDbLine
 10
1810.540599062289
 20
2568.840594224461
 30
0.0
 11
1720.799386145249
 21
2575.660763150428
 31
0.0
  0
ARC
  5
174
330
1F
100
AcDbEntity
  8
0-6_扉
  6
JWW_DASHED2
 62
    40
370
    15
100
AcDbCircle
 10
1809.176565277094
 20
2550.892351641051
 30
0.0
 40
18.0
100
AcDbArc
 50
355.6539792783599
 51
85.6539792783597
  0
ARC
  5
175
330
1F
100
AcDbEntity
  8
0-6_扉
  6
JWW_DASHED2
 62
    40
370
    15
100
AcDbCircle
 10
1376.208167970854
 20
2557.712520567023
 30
0.0
 40
18.0
100
AcDbArc
 50
4.346020721638975
 51
94.34602072163908
  0
LINE
  5
176
330
1F
100
AcDbEntity
  8
0-6_扉
  6
JWW_DASHED2
 62
    40
370
    15
100
AcDbLine
 10
1285.102921268621
 20
2568.840594224463
 30
0.0
 11
1374.844134185659
 21
2575.66076315043
 31
0.0
  0
ARC
  5
177
330
1F
100
AcDbEntity
  8
0-6_扉
  6
JWW_DASHED2
 62
    40
370
    15
100
AcDbCircle
 10
1286.466955053814
 20
2550.892351641056
 30
0.0
 40
18.0
100
AcDbArc
 50
94.34602072163908
 51
184.3460207216391
  0
LINE
  5
178
330
1F
100
AcDbEntity
  8
0-6_扉
  6
JWW_DASHED2
 62
    40
370
    15
100
AcDbLine
 10
1827.124807860502
 20
2549.528317855858
 30
0.0
 11
1793.489291984783
 21
2106.945146596841
 31
0.0
  0
LINE
  5
179
330
1F
100
AcDbEntity
  8
0-6_扉
  6
JWW_DASHED2
 62
    40
370
    15
100
AcDbLine
 10
1268.518712470408
 20
2549.528317855864
 30
0.0
 11
1302.154228346119
 21
2106.945146596841
 31
0.0
  0
LINE
  5
17A
330
1F
100
AcDbEntity
  8
0-6_扉
  6
JWW_DASHED2
 62
    40
370
    15
100
AcDbLine
 10
1394.156410554261
 20
2559.076554352217
 30
0.0
 11
1428.517575033701
 21
2106.945146596841
 31
0.0
  0
LINE
  5
17B
330
1F
100
AcDbEntity
  8
0-6_扉
  6
JWW_DASHED2
 62
    40
370
    15
100
AcDbLine
 10
1701.487109776648
 20
2559.076554352214
 30
0.0
 11
1667.125945297199
 21
2106.945146596841
 31
0.0
  0
LINE
  5
17C
330
1F
100
AcDbEntity
  8
0-1_通り芯
  6
JWW_CENTER1
 62
   120
370
     5
100
AcDbLine
 10
1268.518712470407
 20
2781.94514659684
 30
0.0
 11
1268.518712470407
 21
2549.528317855864
 31
0.0
  0
LINE
  5
17D
330
1F
100
AcDbEntity
  8
0-B_寸法
  6
Continuous
 62
   120
370
     5
100
AcDbLine
 10
-1983.481287529594
 20
2961.94514659684
 30
0.0
 11
1268.518712470407
 21
2961.94514659684
 31
0.0
  0
LWPOLYLINE
  5
17E
330
1F
100
AcDbEntity
  8
0-B_寸法
  6
Continuous
 62
     7
370
     9
100
AcDbPolyline
 90
        4
 70
     1
 43
3.0
 10
1270.018712470407
 20
2961.94514659684
 42
0.4142135623731
 10
1268.518712470407
 20
2963.445146596839
 42
0.4142135623731
 10
1267.018712470407
 20
2961.94514659684
 42
0.4142135623731
 10
1268.518712470407
 20
2960.44514659684
 42
0.4142135623731
  0
LINE
  5
17F
330
1F
100
AcDbEntity
  8
0-B_寸法
  6
Continuous
 62
   120
370
     5
100
AcDbLine
 10
1268.518712470407
 20
2961.94514659684
 30
0.0
 11
1268.518712470407
 21
2781.94514659684
 31
0.0
  0
MTEXT
  5
180
330
1F
100
AcDbEntity
  8
0-B_寸法
  6
Continuous
 62
     7
370
   211
100
AcDbMText
 10
743.5187124704083
 20
1627.665146596839
 30
0.0
 40
91.43999999999986
 41
539.9999999999991
 46
0.0
 71
     7
 72
     1
  1
{\fＭＳ ゴシック|b0|i0|c128|p49;ＤＷ＝334}
 73
     1
 44
1.0
  0
LINE
  5
181
330
1F
100
AcDbEntity
  8
0-0_補助線
  6
JWW_HOJO
 62
     7
370
     9
100
AcDbLine
 10
8.518712470406626
 20
906.9451465968383
 30
0.0
 11
8.518712470406626
 21
3321.94514659684
 31
0.0
  0
MTEXT
  5
182
330
1F
100
AcDbEntity
  8
0-B_寸法
  6
Continuous
 62
     7
370
   211
100
AcDbMText
 10
-441.4812875295917
 20
1447.665146596839
 30
0.0
 40
91.44000000000001
 41
900.0
 46
0.0
 71
     7
 72
     1
  1
{\fＭＳ ゴシック|b0|i0|c128|p49;折戸：ＤＷ＝669}
 73
     1
 44
1.0
  0
MTEXT
  5
183
330
1F
100
AcDbEntity
  8
0-B_寸法
  6
Continuous
 62
     7
370
   211
100
AcDbMText
 10
-2133.481287529594
 20
1267.66514659684
 30
0.0
 40
91.4400000000013
 41
120.0000000000017
 46
0.0
 71
     7
 72
     1
  1
{\fＭＳ ゴシック|b0|i0|c128|p49;30}
 73
     1
 44
1.0
  0
LINE
  5
184
330
1F
100
AcDbEntity
  8
0-0_補助線
  6
JWW_HOJO
 62
   120
370
     5
100
AcDbLine
 10
-2763.481089577737
 20
1086.945146596838
 30
0.0
 11
-2763.481089577737
 21
3141.94514659684
 31
0.0
  0
LINE
  5
185
330
1F
100
AcDbEntity
  8
0-0_補助線
  6
JWW_HOJO
 62
   120
370
     5
100
AcDbLine
 10
2780.518514518553
 20
1086.945146596838
 30
0.0
 11
2780.518514518553
 21
3141.94514659684
 31
0.0
  0
LINE
  5
186
330
1F
100
AcDbEntity
  8
0-0_補助線
  6
JWW_HOJO
 62
   120
370
     5
100
AcDbLine
 10
2780.518514518553
 20
1446.945146596838
 30
0.0
 11
-2763.481089577737
 21
1446.945146596838
 31
0.0
  0
LINE
  5
187
330
1F
100
AcDbEntity
  8
0-0_補助線
  6
JWW_HOJO
 62
   120
370
     5
100
AcDbLine
 10
2780.518514518553
 20
1266.945146596838
 30
0.0
 11
-2763.481089577737
 21
1266.945146596838
 31
0.0
  0
LINE
  5
188
330
1F
100
AcDbEntity
  8
0-0_補助線
  6
JWW_HOJO
 62
   120
370
     5
100
AcDbLine
 10
2780.518514518553
 20
1086.945146596838
 30
0.0
 11
-2763.481089577737
 21
1086.945146596838
 31
0.0
  0
LINE
  5
189
330
1F
100
AcDbEntity
  8
0-0_補助線
  6
JWW_HOJO
 62
     7
370
     9
100
AcDbLine
 10
-1983.481287529594
 20
906.9451465968383
 30
0.0
 11
-1983.481287529594
 21
3321.94514659684
 31
0.0
  0
LINE
  5
18A
330
1F
100
AcDbEntity
  8
0-0_補助線
  6
JWW_HOJO
 62
     7
370
     9
100
AcDbLine
 10
2000.518712470406
 20
906.9451465968383
 30
0.0
 11
2000.518712470406
 21
3321.94514659684
 31
0.0
  0
LINE
  5
18B
330
1F
100
AcDbEntity
  8
0-0_補助線
  6
JWW_HOJO
 62
   120
370
     5
100
AcDbLine
 10
2780.518514518553
 20
1626.945146596838
 30
0.0
 11
-2763.481089577737
 21
1626.945146596838
 31
0.0
  0
LINE
  5
18C
330
1F
100
AcDbEntity
  8
0-0_補助線
  6
JWW_HOJO
 62
   120
370
     5
100
AcDbLine
 10
2780.518514518553
 20
1806.945146596838
 30
0.0
 11
-2763.481089577737
 21
1806.945146596838
 31
0.0
  0
LINE
  5
18D
330
1F
100
AcDbEntity
  8
0-B_寸法
  6
Continuous
 62
   120
370
     5
100
AcDbLine
 10
-1998.481287529594
 20
1626.945146596838
 30
0.0
 11
5.518712470405944
 21
1626.945146596838
 31
0.0
  0
LWPOLYLINE
  5
18E
330
1F
100
AcDbEntity
  8
0-B_寸法
  6
Continuous
 62
     7
370
     9
100
AcDbPolyline
 90
        4
 70
     1
 43
3.0
 10
-1996.981287529594
 20
1626.945146596838
 42
0.4142135623731
 10
-1998.481287529594
 20
1628.445146596838
 42
0.4142135623731
 10
-1999.981287529593
 20
1626.945146596838
 42
0.4142135623731
 10
-1998.481287529594
 20
1625.445146596839
 42
0.4142135623731
  0
LWPOLYLINE
  5
18F
330
1F
100
AcDbEntity
  8
0-B_寸法
  6
Continuous
 62
     7
370
     9
100
AcDbPolyline
 90
        4
 70
     1
 43
3.0
 10
7.018712470405944
 20
1626.945146596838
 42
0.4142135623731
 10
5.518712470405944
 20
1628.445146596838
 42
0.4142135623731
 10
4.018712470405944
 20
1626.945146596838
 42
0.4142135623731
 10
5.518712470405944
 20
1625.445146596839
 42
0.4142135623731
  0
LINE
  5
190
330
1F
100
AcDbEntity
  8
0-B_寸法
  6
Continuous
 62
   120
370
     5
100
AcDbLine
 10
-1998.481287529594
 20
1626.945146596838
 30
0.0
 11
-1998.481287529594
 21
1806.945146596838
 31
0.0
  0
LINE
  5
191
330
1F
100
AcDbEntity
  8
0-B_寸法
  6
Continuous
 62
   120
370
     5
100
AcDbLine
 10
5.518712470405944
 20
1626.945146596838
 30
0.0
 11
5.518712470405944
 21
1806.945146596838
 31
0.0
  0
LINE
  5
192
330
1F
100
AcDbEntity
  8
0-B_寸法
  6
Continuous
 62
   120
370
     5
100
AcDbLine
 10
11.51871247040646
 20
1626.945146596838
 30
0.0
 11
2015.51871247041
 21
1626.945146596838
 31
0.0
  0
LWPOLYLINE
  5
193
330
1F
100
AcDbEntity
  8
0-B_寸法
  6
Continuous
 62
     7
370
     9
100
AcDbPolyline
 90
        4
 70
     1
 43
3.0
 10
13.01871247040646
 20
1626.945146596838
 42
0.4142135623731
 10
11.51871247040646
 20
1628.445146596838
 42
0.4142135623731
 10
10.01871247040646
 20
1626.945146596838
 42
0.4142135623731
 10
11.51871247040646
 20
1625.445146596839
 42
0.4142135623731
  0
LWPOLYLINE
  5
194
330
1F
100
AcDbEntity
  8
0-B_寸法
  6
Continuous
 62
     7
370
     9
100
AcDbPolyline
 90
        4
 70
     1
 43
3.0
 10
2017.01871247041
 20
1626.945146596838
 42
0.4142135623731
 10
2015.51871247041
 20
1628.445146596838
 42
0.4142135623731
 10
2014.01871247041
 20
1626.945146596838
 42
0.4142135623731
 10
2015.51871247041
 20
1625.445146596839
 42
0.4142135623731
  0
LINE
  5
195
330
1F
100
AcDbEntity
  8
0-B_寸法
  6
Continuous
 62
   120
370
     5
100
AcDbLine
 10
11.51871247040646
 20
1626.945146596838
 30
0.0
 11
11.51871247040646
 21
1806.945146596838
 31
0.0
  0
LINE
  5
196
330
1F
100
AcDbEntity
  8
0-B_寸法
  6
Continuous
 62
   120
370
     5
100
AcDbLine
 10
2015.51871247041
 20
1626.945146596838
 30
0.0
 11
2015.51871247041
 21
1806.945146596838
 31
0.0
  0
LINE
  5
197
330
1F
100
AcDbEntity
  8
0-B_寸法
  6
Continuous
 62
   120
370
     5
100
AcDbLine
 10
-1998.481287529594
 20
1446.945146596838
 30
0.0
 11
2015.51871247041
 21
1446.945146596838
 31
0.0
  0
LWPOLYLINE
  5
198
330
1F
100
AcDbEntity
  8
0-B_寸法
  6
Continuous
 62
     7
370
     9
100
AcDbPolyline
 90
        4
 70
     1
 43
3.0
 10
-1996.981287529594
 20
1446.945146596838
 42
0.4142135623731
 10
-1998.481287529594
 20
1448.445146596838
 42
0.4142135623731
 10
-1999.981287529593
 20
1446.945146596838
 42
0.4142135623731
 10
-1998.481287529594
 20
1445.445146596839
 42
0.4142135623731
  0
LWPOLYLINE
  5
199
330
1F
100
AcDbEntity
  8
0-B_寸法
  6
Continuous
 62
     7
370
     9
100
AcDbPolyline
 90
        4
 70
     1
 43
3.0
 10
2017.01871247041
 20
1446.945146596838
 42
0.4142135623731
 10
2015.51871247041
 20
1448.445146596838
 42
0.4142135623731
 10
2014.01871247041
 20
1446.945146596838
 42
0.4142135623731
 10
2015.51871247041
 20
1445.445146596839
 42
0.4142135623731
  0
LINE
  5
19A
330
1F
100
AcDbEntity
  8
0-B_寸法
  6
Continuous
 62
   120
370
     5
100
AcDbLine
 10
-1998.481287529594
 20
1446.945146596838
 30
0.0
 11
-1998.481287529594
 21
1626.945146596838
 31
0.0
  0
LINE
  5
19B
330
1F
100
AcDbEntity
  8
0-B_寸法
  6
Continuous
 62
   120
370
     5
100
AcDbLine
 10
2015.51871247041
 20
1446.945146596838
 30
0.0
 11
2015.51871247041
 21
1626.945146596838
 31
0.0
  0
LINE
  5
19C
330
1F
100
AcDbEntity
  8
0-B_寸法
  6
Continuous
 62
   120
370
     5
100
AcDbLine
 10
-2163.481287529593
 20
1266.945146596838
 30
0.0
 11
-1983.481287529594
 21
1266.945146596838
 31
0.0
  0
LWPOLYLINE
  5
19D
330
1F
100
AcDbEntity
  8
0-B_寸法
  6
Continuous
 62
     7
370
     9
100
AcDbPolyline
 90
        4
 70
     1
 43
3.0
 10
-2161.981287529594
 20
1266.945146596838
 42
0.4142135623731
 10
-2163.481287529593
 20
1268.445146596838
 42
0.4142135623731
 10
-2164.981287529593
 20
1266.945146596838
 42
0.4142135623731
 10
-2163.481287529593
 20
1265.445146596839
 42
0.4142135623731
  0
LWPOLYLINE
  5
19E
330
1F
100
AcDbEntity
  8
0-B_寸法
  6
Continuous
 62
     7
370
     9
100
AcDbPolyline
 90
        4
 70
     1
 43
3.0
 10
-1981.981287529594
 20
1266.945146596838
 42
0.4142135623731
 10
-1983.481287529594
 20
1268.445146596838
 42
0.4142135623731
 10
-1984.981287529593
 20
1266.945146596838
 42
0.4142135623731
 10
-1983.481287529594
 20
1265.445146596839
 42
0.4142135623731
  0
LINE
  5
19F
330
1F
100
AcDbEntity
  8
0-B_寸法
  6
Continuous
 62
   120
370
     5
100
AcDbLine
 10
-1983.481287529594
 20
1266.945146596838
 30
0.0
 11
-1983.481287529594
 21
1626.945146596838
 31
0.0
  0
MTEXT
  5
1A0
330
1F
100
AcDbEntity
  8
0-B_寸法
  6
Continuous
 62
     7
370
   211
100
AcDbMText
 10
-261.4812875295934
 20
1267.665146596839
 30
0.0
 40
91.43999999999986
 41
539.9999999999991
 46
0.0
 71
     7
 72
     1
  1
{\fＭＳ ゴシック|b0|i0|c128|p49;枠内＝664}
 73
     1
 44
1.0
  0
LINE
  5
1A1
330
1F
100
AcDbEntity
  8
0-B_寸法
  6
Continuous
 62
   120
370
     5
100
AcDbLine
 10
-1983.481287529594
 20
1266.945146596838
 30
0.0
 11
2000.518712470406
 21
1266.945146596838
 31
0.0
  0
LWPOLYLINE
  5
1A2
330
1F
100
AcDbEntity
  8
0-B_寸法
  6
Continuous
 62
     7
370
     9
100
AcDbPolyline
 90
        4
 70
     1
 43
3.0
 10
2002.018712470406
 20
1266.945146596838
 42
0.4142135623731
 10
2000.518712470406
 20
1268.445146596838
 42
0.4142135623731
 10
1999.018712470406
 20
1266.945146596838
 42
0.4142135623731
 10
2000.518712470406
 20
1265.445146596839
 42
0.4142135623731
  0
LINE
  5
1A3
330
1F
100
AcDbEntity
  8
0-B_寸法
  6
Continuous
 62
   120
370
     5
100
AcDbLine
 10
2000.518712470406
 20
1266.945146596838
 30
0.0
 11
2000.518712470406
 21
1626.945146596838
 31
0.0
  0
LINE
  5
1A4
330
1F
100
AcDbEntity
  8
0-B_寸法
  6
Continuous
 62
   120
370
     5
100
AcDbLine
 10
2000.518712470406
 20
1266.945146596838
 30
0.0
 11
2180.518712470406
 21
1266.945146596838
 31
0.0
  0
LWPOLYLINE
  5
1A5
330
1F
100
AcDbEntity
  8
0-B_寸法
  6
Continuous
 62
     7
370
     9
100
AcDbPolyline
 90
        4
 70
     1
 43
3.0
 10
2182.018712470406
 20
1266.945146596838
 42
0.4142135623731
 10
2180.518712470406
 20
1268.445146596838
 42
0.4142135623731
 10
2179.018712470407
 20
1266.945146596838
 42
0.4142135623731
 10
2180.518712470406
 20
1265.445146596839
 42
0.4142135623731
  0
MTEXT
  5
1A6
330
1F
100
AcDbEntity
  8
0-B_寸法
  6
Continuous
 62
     7
370
   211
100
AcDbMText
 10
2030.518712470407
 20
1267.665146596839
 30
0.0
 40
91.43999999999967
 41
119.9999999999996
 46
0.0
 71
     7
 72
     1
  1
{\fＭＳ ゴシック|b0|i0|c128|p49;30}
 73
     1
 44
1.0
  0
LINE
  5
1A7
330
1F
100
AcDbEntity
  8
0-B_寸法
  6
Continuous
 62
   120
370
     5
100
AcDbLine
 10
-2163.481287529593
 20
1086.945146596838
 30
0.0
 11
2180.518712470406
 21
1086.945146596838
 31
0.0
  0
LWPOLYLINE
  5
1A8
330
1F
100
AcDbEntity
  8
0-B_寸法
  6
Continuous
 62
     7
370
     9
100
AcDbPolyline
 90
        4
 70
     1
 43
3.0
 10
-2161.981287529594
 20
1086.945146596838
 42
0.4142135623731
 10
-2163.481287529593
 20
1088.445146596838
 42
0.4142135623731
 10
-2164.981287529593
 20
1086.945146596838
 42
0.4142135623731
 10
-2163.481287529593
 20
1085.445146596838
 42
0.4142135623731
  0
LWPOLYLINE
  5
1A9
330
1F
100
AcDbEntity
  8
0-B_寸法
  6
Continuous
 62
     7
370
     9
100
AcDbPolyline
 90
        4
 70
     1
 43
3.0
 10
2182.018712470406
 20
1086.945146596838
 42
0.4142135623731
 10
2180.518712470406
 20
1088.445146596838
 42
0.4142135623731
 10
2179.018712470407
 20
1086.945146596838
 42
0.4142135623731
 10
2180.518712470406
 20
1085.445146596838
 42
0.4142135623731
  0
LINE
  5
1AA
330
1F
100
AcDbEntity
  8
0-B_寸法
  6
Continuous
 62
   120
370
     5
100
AcDbLine
 10
-2163.481287529593
 20
1086.945146596838
 30
0.0
 11
-2163.481287529593
 21
1266.945146596838
 31
0.0
  0
LINE
  5
1AB
330
1F
100
AcDbEntity
  8
0-B_寸法
  6
Continuous
 62
   120
370
     5
100
AcDbLine
 10
2180.518712470406
 20
1086.945146596838
 30
0.0
 11
2180.518712470406
 21
1266.945146596838
 31
0.0
  0
MTEXT
  5
1AC
330
1F
100
AcDbEntity
  8
0-B_寸法
  6
Continuous
 62
     7
370
   211
100
AcDbMText
 10
-261.4812875295934
 20
1087.665146596838
 30
0.0
 40
91.43999999999986
 41
539.9999999999991
 46
0.0
 71
     7
 72
     1
  1
{\fＭＳ ゴシック|b0|i0|c128|p49;枠外＝724}
 73
     1
 44
1.0
  0
LINE
  5
1AD
330
1F
100
AcDbEntity
  8
0-4_枠
  6
Continuous
 62
    92
370
    13
100
AcDbLine
 10
-2097.481287529597
 20
2190.94622048567
 30
0.0
 11
-2043.481287529594
 21
2190.94622048567
 31
0.0
  0
LINE
  5
1AE
330
1F
100
AcDbEntity
  8
0-4_枠
  6
Continuous
 62
    92
370
    13
100
AcDbLine
 10
-2163.481287529593
 20
2172.94622048567
 30
0.0
 11
-2133.481287529593
 21
2172.94622048567
 31
0.0
  0
LINE
  5
1AF
330
1F
100
AcDbEntity
  8
0-4_枠
  6
Continuous
 62
    92
370
    13
100
AcDbLine
 10
-2133.481287529593
 20
2130.946220485669
 30
0.0
 11
-2133.481287529593
 21
2172.94622048567
 31
0.0
  0
LINE
  5
1B0
330
1F
100
AcDbEntity
  8
0-4_枠
  6
Continuous
 62
    92
370
    13
100
AcDbLine
 10
-2097.481287529597
 20
2130.946220485669
 30
0.0
 11
-2097.481287529597
 21
2190.94622048567
 31
0.0
  0
LINE
  5
1B1
330
1F
100
AcDbEntity
  8
0-4_枠
  6
Continuous
 62
    92
370
    13
100
AcDbLine
 10
-2133.481287529593
 20
2130.946220485669
 30
0.0
 11
-2097.481287529597
 21
2130.946220485669
 31
0.0
  0
LINE
  5
1B2
330
1F
100
AcDbEntity
  8
0-4_枠
  6
Continuous
 62
    92
370
    13
100
AcDbLine
 10
-2043.481287529594
 20
2130.946220485669
 30
0.0
 11
-2043.481287529594
 21
2190.94622048567
 31
0.0
  0
LINE
  5
1B3
330
1F
100
AcDbEntity
  8
0-4_枠
  6
Continuous
 62
    92
370
    13
100
AcDbLine
 10
-2043.481287529594
 20
2130.946220485669
 30
0.0
 11
-2028.069244562473
 21
2130.946220485669
 31
0.0
  0
LINE
  5
1B4
330
1F
100
AcDbEntity
  8
0-4_枠
  6
Continuous
 62
    92
370
    13
100
AcDbLine
 10
-2028.069244562473
 20
2130.946220485669
 30
0.0
 11
-1983.481287529594
 21
2130.946220485669
 31
0.0
  0
LINE
  5
1B5
330
1F
100
AcDbEntity
  8
0-4_枠
  6
Continuous
 62
    92
370
    13
100
AcDbLine
 10
-1983.481287529594
 20
2130.946220485669
 30
0.0
 11
-1983.481287529594
 21
2217.94514659684
 31
0.0
  0
LINE
  5
1B6
330
1F
100
AcDbEntity
  8
0-4_枠
  6
Continuous
 62
    92
370
    13
100
AcDbLine
 10
-2163.481287529593
 20
2172.94622048567
 30
0.0
 11
-2163.481287529593
 21
2592.946220485668
 31
0.0
  0
LINE
  5
1B7
330
1F
100
AcDbEntity
  8
0-C_ハッチ
  6
Continuous
 62
   120
370
     5
100
AcDbLine
 10
-2163.481287529607
 20
2565.455682251507
 30
0.0
 11
-2135.990749295449
 21
2592.946220485668
 31
0.0
  0
LINE
  5
1B8
330
1F
100
AcDbEntity
  8
0-C_ハッチ
  6
Continuous
 62
   120
370
     5
100
AcDbLine
 10
-2163.481287529605
 20
2446.661743012163
 30
0.0
 11
-2017.1968100561
 21
2592.946220485668
 31
0.0
  0
LINE
  5
1B9
330
1F
100
AcDbEntity
  8
0-C_ハッチ
  6
Continuous
 62
   120
370
     5
100
AcDbLine
 10
-2163.481287529593
 20
2506.058712631878
 30
0.0
 11
-2076.593779675802
 21
2592.946220485668
 31
0.0
  0
LINE
  5
1BA
330
1F
100
AcDbEntity
  8
0-4_枠
  6
Continuous
 62
    92
370
    13
100
AcDbLine
 10
-1983.481287529594
 20
2505.94514659684
 30
0.0
 11
-1983.481287529594
 21
2592.946220485668
 31
0.0
  0
LINE
  5
1BB
330
1F
100
AcDbEntity
  8
0-4_枠
  6
Continuous
 62
    92
370
    13
100
AcDbLine
 10
-2163.481287529593
 20
2592.946220485668
 30
0.0
 11
-1983.481287529594
 21
2592.946220485668
 31
0.0
  0
LINE
  5
1BC
330
1F
100
AcDbEntity
  8
0-C_ハッチ
  6
Continuous
 62
   120
370
     5
100
AcDbLine
 10
-2140.211961957754
 20
2172.94622048567
 30
0.0
 11
-2013.147891665962
 21
2300.010290777462
 31
0.0
  0
LINE
  5
1BD
330
1F
100
AcDbEntity
  8
0-C_ハッチ
  6
Continuous
 62
   120
370
     5
100
AcDbLine
 10
-2062.814992338107
 20
2190.94622048567
 30
0.0
 11
-1999.796278123471
 21
2253.964934700306
 31
0.0
  0
LINE
  5
1BE
330
1F
100
AcDbEntity
  8
0-C_ハッチ
  6
Continuous
 62
   120
370
     5
100
AcDbLine
 10
-2122.814992338107
 20
2130.946220485669
 30
0.0
 11
-2097.481287529597
 21
2156.27992529418
 31
0.0
  0
LINE
  5
1BF
330
1F
100
AcDbEntity
  8
0-C_ハッチ
  6
Continuous
 62
   120
370
     5
100
AcDbLine
 10
-2043.481287529594
 20
2150.882955674479
 30
0.0
 11
-1983.481287529598
 21
2210.882955674477
 31
0.0
  0
LINE
  5
1C0
330
1F
100
AcDbEntity
  8
0-C_ハッチ
  6
Continuous
 62
   120
370
     5
100
AcDbLine
 10
-2004.021053098758
 20
2130.946220485669
 30
0.0
 11
-1983.4812875296
 21
2151.485986054826
 31
0.0
  0
LWPOLYLINE
  5
1C1
330
1F
100
AcDbEntity
  8
0-B_寸法
  6
Continuous
 62
     7
370
     9
100
AcDbPolyline
 90
        4
 70
     1
 43
3.0
 10
-1552.779960107842
 20
2592.946220485668
 42
0.4142135623731
 10
-1554.279960107842
 20
2594.446220485668
 42
0.4142135623731
 10
-1555.779960107842
 20
2592.946220485668
 42
0.4142135623731
 10
-1554.279960107842
 20
2591.446220485668
 42
0.4142135623731
  0
LINE
  5
1C2
330
1F
100
AcDbEntity
  8
0-B_寸法
  6
Continuous
 62
   120
370
     5
100
AcDbLine
 10
-1554.279960107842
 20
2592.946220485668
 30
0.0
 11
-1673.055528889514
 21
2592.946220485668
 31
0.0
  0
LWPOLYLINE
  5
1C3
330
1F
100
AcDbEntity
  8
0-B_寸法
  6
Continuous
 62
     7
370
     9
100
AcDbPolyline
 90
        4
 70
     1
 43
3.0
 10
-1552.779960107842
 20
2130.946220485669
 42
0.4142135623731
 10
-1554.279960107842
 20
2132.446220485669
 42
0.4142135623731
 10
-1555.779960107842
 20
2130.946220485669
 42
0.4142135623731
 10
-1554.279960107842
 20
2129.446220485669
 42
0.4142135623731
  0
LINE
  5
1C4
330
1F
100
AcDbEntity
  8
0-B_寸法
  6
Continuous
 62
   120
370
     5
100
AcDbLine
 10
-1554.279960107842
 20
2130.946220485669
 30
0.0
 11
-1673.055528889514
 21
2130.946220485669
 31
0.0
  0
LINE
  5
1C5
330
1F
100
AcDbEntity
  8
0-B_寸法
  6
Continuous
 62
   120
370
     5
100
AcDbLine
 10
-1554.279960107842
 20
2592.946220485668
 30
0.0
 11
-1554.279960107842
 21
2130.946220485669
 31
0.0
  0
ARC
  5
1C6
330
1F
100
AcDbEntity
  8
0-4_枠
  6
Continuous
 62
    92
370
    13
100
AcDbCircle
 10
1730.518712470405
 20
2361.94514659684
 30
0.0
 40
306.0000000000022
100
AcDbArc
 50
331.9275130641473
 51
28.07248693585271
  0
LINE
  5
1C7
330
1F
100
AcDbEntity
  8
0-4_枠
  6
Continuous
 62
    92
370
    13
100
AcDbLine
 10
2114.518712470408
 20
2190.94622048567
 30
0.0
 11
2060.518712470406
 21
2190.94622048567
 31
0.0
  0
LINE
  5
1C8
330
1F
100
AcDbEntity
  8
0-4_枠
  6
Continuous
 62
    92
370
    13
100
AcDbLine
 10
2180.518712470406
 20
2172.94622048567
 30
0.0
 11
2150.518712470406
 21
2172.94622048567
 31
0.0
  0
LINE
  5
1C9
330
1F
100
AcDbEntity
  8
0-4_枠
  6
Continuous
 62
    92
370
    13
100
AcDbLine
 10
2150.518712470406
 20
2130.946220485669
 30
0.0
 11
2150.518712470406
 21
2172.94622048567
 31
0.0
  0
LINE
  5
1CA
330
1F
100
AcDbEntity
  8
0-4_枠
  6
Continuous
 62
    92
370
    13
100
AcDbLine
 10
2114.518712470408
 20
2130.946220485669
 30
0.0
 11
2114.518712470408
 21
2190.94622048567
 31
0.0
  0
LINE
  5
1CB
330
1F
100
AcDbEntity
  8
0-4_枠
  6
Continuous
 62
    92
370
    13
100
AcDbLine
 10
2150.518712470406
 20
2130.946220485669
 30
0.0
 11
2114.518712470408
 21
2130.946220485669
 31
0.0
  0
LINE
  5
1CC
330
1F
100
AcDbEntity
  8
0-4_枠
  6
Continuous
 62
    92
370
    13
100
AcDbLine
 10
2060.518712470406
 20
2130.946220485669
 30
0.0
 11
2060.518712470406
 21
2190.94622048567
 31
0.0
  0
LINE
  5
1CD
330
1F
100
AcDbEntity
  8
0-4_枠
  6
Continuous
 62
    92
370
    13
100
AcDbLine
 10
2060.518712470406
 20
2130.946220485669
 30
0.0
 11
2045.106669503285
 21
2130.946220485669
 31
0.0
  0
LINE
  5
1CE
330
1F
100
AcDbEntity
  8
0-4_枠
  6
Continuous
 62
    92
370
    13
100
AcDbLine
 10
2045.106669503285
 20
2130.946220485669
 30
0.0
 11
2000.518712470406
 21
2130.946220485669
 31
0.0
  0
LINE
  5
1CF
330
1F
100
AcDbEntity
  8
0-4_枠
  6
Continuous
 62
    92
370
    13
100
AcDbLine
 10
2000.518712470406
 20
2130.946220485669
 30
0.0
 11
2000.518712470406
 21
2217.94514659684
 31
0.0
  0
LINE
  5
1D0
330
1F
100
AcDbEntity
  8
0-4_枠
  6
Continuous
 62
    92
370
    13
100
AcDbLine
 10
2180.518712470406
 20
2172.94622048567
 30
0.0
 11
2180.518712470406
 21
2592.946220485668
 31
0.0
  0
LINE
  5
1D1
330
1F
100
AcDbEntity
  8
0-4_枠
  6
Continuous
 62
    92
370
    13
100
AcDbLine
 10
2000.518712470406
 20
2505.94514659684
 30
0.0
 11
2000.518712470406
 21
2592.946220485668
 31
0.0
  0
LINE
  5
1D2
330
1F
100
AcDbEntity
  8
0-4_枠
  6
Continuous
 62
    92
370
    13
100
AcDbLine
 10
2180.518712470406
 20
2592.946220485668
 30
0.0
 11
2000.518712470406
 21
2592.946220485668
 31
0.0
  0
LINE
  5
1D3
330
1F
100
AcDbEntity
  8
0-C_ハッチ
  6
Continuous
 62
   120
370
     5
100
AcDbLine
 10
2129.543953806176
 20
2130.94622048567
 30
0.0
 11
2150.51871247041
 21
2151.920979149903
 31
0.0
  0
LINE
  5
1D4
330
1F
100
AcDbEntity
  8
0-C_ハッチ
  6
Continuous
 62
   120
370
     5
100
AcDbLine
 10
2171.543953806162
 20
2172.946220485656
 30
0.0
 11
2180.518712470423
 21
2181.920979149915
 31
0.0
  0
LINE
  5
1D5
330
1F
100
AcDbEntity
  8
0-C_ハッチ
  6
Continuous
 62
   120
370
     5
100
AcDbLine
 10
2114.518712470391
 20
2175.317948769587
 30
0.0
 11
2180.518712470406
 21
2241.317948769602
 31
0.0
  0
LINE
  5
1D6
330
1F
100
AcDbEntity
  8
0-C_ハッチ
  6
Continuous
 62
   120
370
     5
100
AcDbLine
 10
2010.750014566823
 20
2130.946220485667
 30
0.0
 11
2060.518712470411
 21
2180.714918389254
 31
0.0
  0
LINE
  5
1D7
330
1F
100
AcDbEntity
  8
0-C_ハッチ
  6
Continuous
 62
   120
370
     5
100
AcDbLine
 10
2070.750014566824
 20
2190.946220485667
 30
0.0
 11
2180.518712470413
 21
2300.714918389256
 31
0.0
  0
LINE
  5
1D8
330
1F
100
AcDbEntity
  8
0-C_ハッチ
  6
Continuous
 62
   120
370
     5
100
AcDbLine
 10
2000.518712470416
 20
2180.111888008906
 30
0.0
 11
2180.518712470414
 21
2360.111888008903
 31
0.0
  0
LINE
  5
1D9
330
1F
100
AcDbEntity
  8
0-C_ハッチ
  6
Continuous
 62
   120
370
     5
100
AcDbLine
 10
2017.931373101129
 20
2256.92151825932
 30
0.0
 11
2180.518712470414
 21
2419.508857628606
 31
0.0
  0
LINE
  5
1DA
330
1F
100
AcDbEntity
  8
0-C_ハッチ
  6
Continuous
 62
   120
370
     5
100
AcDbLine
 10
2035.202053848594
 20
2333.589168626432
 30
0.0
 11
2180.518712470411
 21
2478.90582724825
 31
0.0
  0
LINE
  5
1DB
330
1F
100
AcDbEntity
  8
0-C_ハッチ
  6
Continuous
 62
   120
370
     5
100
AcDbLine
 10
2034.964366778369
 20
2392.748451175908
 30
0.0
 11
2180.518712470411
 21
2538.302796867952
 31
0.0
  0
LINE
  5
1DC
330
1F
100
AcDbEntity
  8
0-C_ハッチ
  6
Continuous
 62
   120
370
     5
100
AcDbLine
 10
2025.638022908089
 20
2442.819076925276
 30
0.0
 11
2175.76516646848
 21
2592.946220485668
 31
0.0
  0
LINE
  5
1DD
330
1F
100
AcDbEntity
  8
0-C_ハッチ
  6
Continuous
 62
   120
370
     5
100
AcDbLine
 10
2009.99116057371
 20
2486.569184210544
 30
0.0
 11
2116.368196848821
 21
2592.946220485656
 31
0.0
  0
LINE
  5
1DE
330
1F
100
AcDbEntity
  8
0-C_ハッチ
  6
Continuous
 62
   120
370
     5
100
AcDbLine
 10
2000.518712470416
 20
2536.493705726952
 30
0.0
 11
2056.971227229118
 21
2592.946220485656
 31
0.0
  0
LINE
  5
1DF
330
1F
100
AcDbEntity
  8
0-B_寸法
  6
Continuous
 62
   120
370
     5
100
AcDbLine
 10
-2163.481287529593
 20
1266.945146596838
 30
0.0
 11
-2163.481287529593
 21
1806.945146596838
 31
0.0
  0
LINE
  5
1E0
330
1F
100
AcDbEntity
  8
0-B_寸法
  6
Continuous
 62
   120
370
     5
100
AcDbLine
 10
2180.518712470406
 20
1266.945146596838
 30
0.0
 11
2180.518712470406
 21
1806.945146596838
 31
0.0
  0
MTEXT
  5
1E1
330
1F
100
AcDbEntity
  8
0-A_文字
  6
Continuous
 62
     7
370
     9
100
AcDbMText
 10
-2728.614672439278
 20
3310.355192580251
 30
0.0
 40
100.5840000000001
 41
660.0000000000009
 46
0.0
 71
     7
 72
     1
  1
{\fＭＳ ゴシック|b0|i0|c128|p49;■横断面図}
 73
     1
 44
1.0
  0
LINE
  5
1E2
330
1F
100
AcDbEntity
  8
0-A_文字
  6
JWW_HOJO
 62
   120
370
     5
100
AcDbLine
 10
8.518712470407479
 20
947.6368213445012
 30
0.0
 11
2418.042521994217
 21
947.6368213445012
 31
0.0
  0
LINE
  5
1E3
330
1F
100
AcDbEntity
  8
0-A_文字
  6
JWW_HOJO
 62
   120
370
     5
100
AcDbLine
 10
8.518712470407479
 20
827.6368213445012
 30
0.0
 11
2418.042521994217
 21
827.6368213445012
 31
0.0
  0
LINE
  5
1E4
330
1F
100
AcDbEntity
  8
0-A_文字
  6
JWW_HOJO
 62
   120
370
     5
100
AcDbLine
 10
8.518712470407479
 20
707.6368213445016
 30
0.0
 11
2418.042521994217
 21
707.6368213445016
 31
0.0
  0
MTEXT
  5
1E5
330
1F
100
AcDbEntity
  8
0-A_文字
  6
Continuous
 62
     7
370
     9
100
AcDbMText
 10
8.518712470408332
 20
942.3820486172283
 30
0.0
 40
79.49045454545451
 41
2294.999999999999
 46
0.0
 71
     7
 72
     1
  1
{\fＭＳ ゴシック|b0|i0|c128|p49;※有効開口寸法にはハンドルの突出は含まない。}
 73
     1
 44
1.0
  0
MTEXT
  5
1E6
330
1F
100
AcDbEntity
  8
0-A_文字
  6
Continuous
 62
     7
370
     9
100
AcDbMText
 10
8.518712470408332
 20
822.4301546778344
 30
0.0
 40
79.58666666666664
 41
2820.0
 46
0.0
 71
     7
 72
     1
  1
{\fＭＳ ゴシック|b0|i0|c128|p49;※有効開口寸法は扉の厚さや調整によって若干異なります。}
 73
     1
 44
1.0
  0
MTEXT
  5
1E7
330
1F
100
AcDbEntity
  8
0-A_文字
  6
Continuous
 62
     7
370
     0
100
AcDbMText
 10
8.518712470407479
 20
696.9268213445025
 30
0.0
 40
68.58000000000004
 41
1350.0
 46
0.0
 71
     7
 72
     1
  1
{\fＭＳ ゴシック|b0|i0|c128|p49;※扉厚（　）内はルーバーの場合}
 73
     1
 44
1.0
  0
MTEXT
  5
1E8
330
1F
100
AcDbEntity
  8
0-A_文字
  6
Continuous
 62
     7
370
   211
100
AcDbMText
 10
-1023.445314592364
 20
2227.665146596838
 30
0.0
 40
91.44
 41
240.0
 46
0.0
 71
     7
 72
     1
  1
{\fＭＳ ゴシック|b0|i0|c128|p49;(24)}
 11
6.123031769111886E-17
 21
1.0
 31
0.0
 73
     1
 44
1.0
  0
MTEXT
  5
1E9
330
1F
100
AcDbEntity
  8
0-A_文字
  6
Continuous
 62
     7
370
   211
100
AcDbMText
 10
-3012.857142857143
 20
-1370.204740793633
 30
0.0
 40
91.43999999999967
 41
239.9999999999991
 46
0.0
 71
     7
 72
     1
  1
{\fＭＳ ゴシック|b0|i0|c128|p49;(24)}
 73
     1
 44
1.0
  0
MTEXT
  5
1EA
330
1F
100
AcDbEntity
  8
0-A_文字
  6
Continuous
 62
     7
370
     0
100
AcDbMText
 10
-2891.229057679985
 20
-3678.738031499536
 30
0.0
 40
68.57999999999998
 41
1350.0
 46
0.0
 71
     7
 72
     1
  1
{\fＭＳ ゴシック|b0|i0|c128|p49;※扉厚（　）内はルーバーの場合}
 73
     1
 44
1.0
  0
LINE
  5
1EB
330
1F
100
AcDbEntity
  8
0-C_ハッチ
  6
JWW_DASHED1
 62
   120
370
     5
100
AcDbLine
 10
2653.645962934963
 20
2097.946220485682
 30
0.0
 11
2728.645962934974
 21
2172.946220485694
 31
0.0
  0
LINE
  5
1EC
330
1F
100
AcDbEntity
  8
0-C_ハッチ
  6
JWW_DASHED1
 62
   120
370
     5
100
AcDbLine
 10
2611.219556063754
 20
2097.946220485674
 30
0.0
 11
2686.219556063748
 21
2172.946220485668
 31
0.0
  0
LINE
  5
1ED
330
1F
100
AcDbEntity
  8
0-C_ハッチ
  6
JWW_DASHED1
 62
   120
370
     5
100
AcDbLine
 10
2568.793149192555
 20
2097.946220485674
 30
0.0
 11
2643.79314919255
 21
2172.94622048567
 31
0.0
  0
LINE
  5
1EE
330
1F
100
AcDbEntity
  8
0-C_ハッチ
  6
JWW_DASHED1
 62
   120
370
     5
100
AcDbLine
 10
2526.366742321358
 20
2097.946220485677
 30
0.0
 11
2601.366742321353
 21
2172.946220485673
 31
0.0
  0
LINE
  5
1EF
330
1F
100
AcDbEntity
  8
0-C_ハッチ
  6
JWW_DASHED1
 62
   120
370
     5
100
AcDbLine
 10
2483.940335450221
 20
2097.946220485686
 30
0.0
 11
2558.940335450216
 21
2172.946220485682
 31
0.0
  0
LINE
  5
1F0
330
1F
100
AcDbEntity
  8
0-C_ハッチ
  6
JWW_DASHED1
 62
   120
370
     5
100
AcDbLine
 10
2441.513928579025
 20
2097.94622048569
 30
0.0
 11
2516.51392857902
 21
2172.946220485686
 31
0.0
  0
LINE
  5
1F1
330
1F
100
AcDbEntity
  8
0-C_ハッチ
  6
JWW_DASHED1
 62
   120
370
     5
100
AcDbLine
 10
2399.087521707812
 20
2097.946220485677
 30
0.0
 11
2474.087521707823
 21
2172.946220485688
 31
0.0
  0
LINE
  5
1F2
330
1F
100
AcDbEntity
  8
0-C_ハッチ
  6
JWW_DASHED1
 62
   120
370
     5
100
AcDbLine
 10
2356.661114836616
 20
2097.946220485681
 30
0.0
 11
2431.661114836628
 21
2172.946220485693
 31
0.0
  0
LINE
  5
1F3
330
1F
100
AcDbEntity
  8
0-C_ハッチ
  6
JWW_DASHED1
 62
   120
370
     5
100
AcDbLine
 10
2314.23470796542
 20
2097.946220485686
 30
0.0
 11
2389.234707965415
 21
2172.94622048568
 31
0.0
  0
LINE
  5
1F4
330
1F
100
AcDbEntity
  8
0-C_ハッチ
  6
JWW_DASHED1
 62
   120
370
     5
100
AcDbLine
 10
2271.808301094207
 20
2097.946220485673
 30
0.0
 11
2346.808301094202
 21
2172.946220485668
 31
0.0
  0
LINE
  5
1F5
330
1F
100
AcDbEntity
  8
0-C_ハッチ
  6
JWW_DASHED1
 62
   120
370
     5
100
AcDbLine
 10
2229.381894223011
 20
2097.946220485676
 30
0.0
 11
2304.381894223006
 21
2172.946220485672
 31
0.0
  0
LINE
  5
1F6
330
1F
100
AcDbEntity
  8
0-C_ハッチ
  6
JWW_DASHED1
 62
   120
370
     5
100
AcDbLine
 10
2186.955487351815
 20
2097.94622048568
 30
0.0
 11
2261.95548735181
 21
2172.946220485675
 31
0.0
  0
LINE
  5
1F7
330
1F
100
AcDbEntity
  8
0-C_ハッチ
  6
JWW_DASHED1
 62
   120
370
     5
100
AcDbLine
 10
2150.518712470389
 20
2103.9358524754
 30
0.0
 11
2219.529080480672
 21
2172.946220485683
 31
0.0
  0
LINE
  5
1F8
330
1F
100
AcDbEntity
  8
0-C_ハッチ
  6
JWW_DASHED1
 62
   120
370
     5
100
AcDbLine
 10
2150.518712470393
 20
2146.362259346603
 30
0.0
 11
2177.102673609476
 21
2172.946220485687
 31
0.0
  0
LINE
  5
1F9
330
1F
100
AcDbEntity
  8
0-3_仕上げ
  6
Continuous
 62
    40
370
    15
100
AcDbLine
 10
2150.518712470406
 20
2097.94622048567
 30
0.0
 11
2150.518712470406
 21
2172.94622048567
 31
0.0
  0
LINE
  5
1FA
330
1F
100
AcDbEntity
  8
0-C_ハッチ
  6
JWW_DASHED1
 62
   120
370
     5
100
AcDbLine
 10
2696.07236980616
 20
2097.946220485679
 30
0.0
 11
2768.291212779816
 21
2170.165063459336
 31
0.0
  0
LINE
  5
1FB
330
1F
100
AcDbEntity
  8
0-C_ハッチ
  6
JWW_DASHED1
 62
   120
370
     5
100
AcDbLine
 10
2738.498776677356
 20
2097.946220485675
 30
0.0
 11
2780.518514518553
 21
2139.965958326876
 31
0.0
  0
LINE
  5
1FC
330
1F
100
AcDbEntity
  8
0-3_仕上げ
  6
Continuous
 62
    40
370
    15
100
AcDbLine
 10
2150.518712470406
 20
2172.94622048567
 30
0.0
 11
2780.518514518553
 21
2172.94622048567
 31
0.0
  0
LINE
  5
1FD
330
1F
100
AcDbEntity
  8
0-3_仕上げ
  6
Continuous
 62
    40
370
    15
100
AcDbLine
 10
2150.518712470406
 20
2097.94622048567
 30
0.0
 11
2780.518514518553
 21
2097.94622048567
 31
0.0
  0
LINE
  5
1FE
330
1F
100
AcDbEntity
  8
0-3_仕上げ
  6
Continuous
 62
   120
370
     5
100
AcDbLine
 10
-2697.911741341313
 20
-351.684347266858
 30
0.0
 11
-3117.911741341313
 21
-351.684347266858
 31
0.0
  0
LINE
  5
1FF
330
1F
100
AcDbEntity
  8
0-3_仕上げ
  6
Continuous
 62
   120
370
     5
100
AcDbLine
 10
-2697.911741341313
 20
-171.684347266858
 30
0.0
 11
-2697.911741341313
 21
-351.684347266858
 31
0.0
  0
LINE
  5
200
330
1F
100
AcDbEntity
  8
0-3_仕上げ
  6
Continuous
 62
   120
370
     5
100
AcDbLine
 10
-3117.911741341313
 20
-351.684347266858
 30
0.0
 11
-3117.911741341313
 21
-171.684347266858
 31
0.0
  0
LINE
  5
201
330
1F
100
AcDbEntity
  8
0-3_仕上げ
  6
Continuous
 62
   120
370
     5
100
AcDbLine
 10
-3117.911741341313
 20
-171.684347266858
 30
0.0
 11
-2697.911741341313
 21
-351.684347266858
 31
0.0
  0
LINE
  5
202
330
1F
100
AcDbEntity
  8
0-3_仕上げ
  6
Continuous
 62
   120
370
     5
100
AcDbLine
 10
-3117.911741341313
 20
-171.684347266858
 30
0.0
 11
-2697.911741341313
 21
-171.684347266858
 31
0.0
  0
LINE
  5
203
330
1F
100
AcDbEntity
  8
0-3_仕上げ
  6
Continuous
 62
    40
370
    15
100
AcDbLine
 10
-2622.911741341299
 20
-429.83026824768
 30
0.0
 11
-2697.911741341299
 21
-429.83026824768
 31
0.0
  0
LINE
  5
204
330
1F
100
AcDbEntity
  8
0-C_ハッチ
  6
JWW_DASHED1
 62
   120
370
     5
100
AcDbLine
 10
-2622.911741341299
 20
-221.0460622351195
 30
0.0
 11
-2697.911741341291
 21
-146.0460622351229
 31
0.0
  0
LINE
  5
205
330
1F
100
AcDbEntity
  8
0-C_ハッチ
  6
JWW_DASHED1
 62
   120
370
     5
100
AcDbLine
 10
-2622.911741341299
 20
-263.4724691063166
 30
0.0
 11
-2697.911741341299
 21
-188.4724691063199
 31
0.0
  0
LINE
  5
206
330
1F
100
AcDbEntity
  8
0-C_ハッチ
  6
JWW_DASHED1
 62
   120
370
     5
100
AcDbLine
 10
-2622.911741341305
 20
-305.8988759775132
 30
0.0
 11
-2697.911741341299
 21
-230.8988759775166
 31
0.0
  0
LINE
  5
207
330
1F
100
AcDbEntity
  8
0-C_ハッチ
  6
JWW_DASHED1
 62
   120
370
     5
100
AcDbLine
 10
-2622.911741341305
 20
-348.3252828487098
 30
0.0
 11
-2697.911741341299
 21
-273.3252828487132
 31
0.0
  0
LINE
  5
208
330
1F
100
AcDbEntity
  8
0-C_ハッチ
  6
JWW_DASHED1
 62
   120
370
     5
100
AcDbLine
 10
-2622.911741341313
 20
-390.7516897199064
 30
0.0
 11
-2697.911741341305
 21
-315.7516897199106
 31
0.0
  0
LINE
  5
209
330
1F
100
AcDbEntity
  8
0-C_ハッチ
  6
JWW_DASHED1
 62
   120
370
     5
100
AcDbLine
 10
-2626.259569684722
 20
-429.830268247695
 30
0.0
 11
-2697.911741341305
 21
-358.1780965911094
 31
0.0
  0
LINE
  5
20A
330
1F
100
AcDbEntity
  8
0-C_ハッチ
  6
JWW_DASHED1
 62
   120
370
     5
100
AcDbLine
 10
-2668.68597655593
 20
-429.830268247689
 30
0.0
 11
-2697.911741341313
 21
-400.604503462306
 31
0.0
  0
LINE
  5
20B
330
1F
100
AcDbEntity
  8
0-3_仕上げ
  6
Continuous
 62
    40
370
    15
100
AcDbLine
 10
-2622.911741341299
 20
-429.83026824768
 30
0.0
 11
-2622.911741341299
 21
-81.8302680415573
 31
0.0
  0
LINE
  5
20C
330
1F
100
AcDbEntity
  8
0-3_仕上げ
  6
Continuous
 62
    40
370
    15
100
AcDbLine
 10
-2697.911741341299
 20
-429.83026824768
 30
0.0
 11
-2697.911741341299
 21
-81.8302680415573
 31
0.0
  0
LINE
  5
20D
330
1F
100
AcDbEntity
  8
0-C_ハッチ
  6
JWW_DASHED1
 62
   120
370
     5
100
AcDbLine
 10
-2622.911741341291
 20
-136.1932484927775
 30
0.0
 11
-2677.274721792534
 21
-81.8302680415573
 31
0.0
  0
LINE
  5
20E
330
1F
100
AcDbEntity
  8
0-C_ハッチ
  6
JWW_DASHED1
 62
   120
370
     5
100
AcDbLine
 10
-2622.911741341291
 20
-178.6196553639229
 30
0.0
 11
-2697.911741341299
 21
-103.6196553639195
 31
0.0
  0
LINE
  5
20F
330
1F
100
AcDbEntity
  8
0-C_ハッチ
  6
JWW_DASHED1
 62
   120
370
     5
100
AcDbLine
 10
-2145.50102537079
 20
2097.946220485675
 30
0.0
 11
-2133.481287529605
 21
2109.965958326865
 31
0.0
  0
LINE
  5
210
330
1F
100
AcDbEntity
  8
0-C_ハッチ
  6
JWW_DASHED1
 62
   120
370
     5
100
AcDbLine
 10
-2187.927432241988
 20
2097.946220485678
 30
0.0
 11
-2133.481287529612
 21
2152.392365198055
 31
0.0
  0
LINE
  5
211
330
1F
100
AcDbEntity
  8
0-C_ハッチ
  6
JWW_DASHED1
 62
   120
370
     5
100
AcDbLine
 10
-2230.353839113183
 20
2097.946220485682
 30
0.0
 11
-2155.353839113174
 21
2172.946220485693
 31
0.0
  0
LINE
  5
212
330
1F
100
AcDbEntity
  8
0-C_ハッチ
  6
JWW_DASHED1
 62
   120
370
     5
100
AcDbLine
 10
-2272.780245984395
 20
2097.946220485674
 30
0.0
 11
-2197.780245984402
 21
2172.946220485667
 31
0.0
  0
LINE
  5
213
330
1F
100
AcDbEntity
  8
0-C_ハッチ
  6
JWW_DASHED1
 62
   120
370
     5
100
AcDbLine
 10
-2315.206652855595
 20
2097.946220485674
 30
0.0
 11
-2240.206652855597
 21
2172.946220485668
 31
0.0
  0
LINE
  5
214
330
1F
100
AcDbEntity
  8
0-C_ハッチ
  6
JWW_DASHED1
 62
   120
370
     5
100
AcDbLine
 10
-2357.633059726788
 20
2097.946220485676
 30
0.0
 11
-2282.633059726795
 21
2172.946220485672
 31
0.0
  0
LINE
  5
215
330
1F
100
AcDbEntity
  8
0-C_ハッチ
  6
JWW_DASHED1
 62
   120
370
     5
100
AcDbLine
 10
-2400.059466597927
 20
2097.946220485685
 30
0.0
 11
-2325.059466597933
 21
2172.946220485681
 31
0.0
  0
LINE
  5
216
330
1F
100
AcDbEntity
  8
0-C_ハッチ
  6
JWW_DASHED1
 62
   120
370
     5
100
AcDbLine
 10
-2442.485873469122
 20
2097.946220485688
 30
0.0
 11
-2367.485873469127
 21
2172.946220485683
 31
0.0
  0
LINE
  5
217
330
1F
100
AcDbEntity
  8
0-C_ハッチ
  6
JWW_DASHED1
 62
   120
370
     5
100
AcDbLine
 10
-2484.912280340336
 20
2097.946220485676
 30
0.0
 11
-2409.912280340327
 21
2172.946220485688
 31
0.0
  0
LINE
  5
218
330
1F
100
AcDbEntity
  8
0-C_ハッチ
  6
JWW_DASHED1
 62
   120
370
     5
100
AcDbLine
 10
-2527.338687211533
 20
2097.946220485681
 30
0.0
 11
-2452.33868721152
 21
2172.946220485692
 31
0.0
  0
LINE
  5
219
330
1F
100
AcDbEntity
  8
0-C_ハッチ
  6
JWW_DASHED1
 62
   120
370
     5
100
AcDbLine
 10
-2569.765094082727
 20
2097.946220485685
 30
0.0
 11
-2494.765094082733
 21
2172.946220485681
 31
0.0
  0
LINE
  5
21A
330
1F
100
AcDbEntity
  8
0-C_ハッチ
  6
JWW_DASHED1
 62
   120
370
     5
100
AcDbLine
 10
-2612.19150095394
 20
2097.946220485672
 30
0.0
 11
-2537.191500953947
 21
2172.946220485668
 31
0.0
  0
LINE
  5
21B
330
1F
100
AcDbEntity
  8
0-C_ハッチ
  6
JWW_DASHED1
 62
   120
370
     5
100
AcDbLine
 10
-2654.617907825136
 20
2097.946220485675
 30
0.0
 11
-2579.61790782514
 21
2172.946220485672
 31
0.0
  0
LINE
  5
21C
330
1F
100
AcDbEntity
  8
0-C_ハッチ
  6
JWW_DASHED1
 62
   120
370
     5
100
AcDbLine
 10
-2697.044314696333
 20
2097.946220485681
 30
0.0
 11
-2622.044314696336
 21
2172.946220485675
 31
0.0
  0
LINE
  5
21D
330
1F
100
AcDbEntity
  8
0-3_仕上げ
  6
Continuous
 62
    40
370
    15
100
AcDbLine
 10
-2133.481287529612
 20
2172.94622048567
 30
0.0
 11
-2133.481287529612
 21
2097.946220485669
 31
0.0
  0
LINE
  5
21E
330
1F
100
AcDbEntity
  8
0-3_仕上げ
  6
Continuous
 62
    40
370
    15
100
AcDbLine
 10
-2763.481089577737
 20
2097.946220485669
 30
0.0
 11
-2133.481287529593
 21
2097.946220485669
 31
0.0
  0
LINE
  5
21F
330
1F
100
AcDbEntity
  8
0-C_ハッチ
  6
JWW_DASHED1
 62
   120
370
     5
100
AcDbLine
 10
-2763.481089577737
 20
2116.362259346621
 30
0.0
 11
-2706.897128438672
 21
2172.946220485688
 31
0.0
  0
LINE
  5
220
330
1F
100
AcDbEntity
  8
0-C_ハッチ
  6
JWW_DASHED1
 62
   120
370
     5
100
AcDbLine
 10
-2739.470721567487
 20
2097.946220485669
 30
0.0
 11
-2664.470721567474
 21
2172.946220485683
 31
0.0
  0
LINE
  5
221
330
1F
100
AcDbEntity
  8
0-3_仕上げ
  6
Continuous
 62
    40
370
    15
100
AcDbLine
 10
-2763.481089577737
 20
2172.94622048567
 30
0.0
 11
-2133.481287529593
 21
2172.94622048567
 31
0.0
  0
LINE
  5
222
330
1F
100
AcDbEntity
  8
0-4_枠
  6
Continuous
 62
    92
370
    13
100
AcDbLine
 10
-3117.911741341299
 20
-381.8302682476793
 30
0.0
 11
-3117.911741341299
 21
-1845.830426403042
 31
0.0
  0
LINE
  5
223
330
1F
100
AcDbEntity
  8
0-4_枠
  6
Continuous
 62
    92
370
    13
100
AcDbLine
 10
-3117.911741341299
 20
-1965.830426403042
 30
0.0
 11
-3117.911741341299
 21
-3309.831047476998
 31
0.0
  0
LINE
  5
224
330
1F
100
AcDbEntity
  8
0-4_枠
  6
Continuous
 62
    92
370
    13
100
AcDbLine
 10
-2655.911741341302
 20
-3309.831047476998
 30
0.0
 11
-2655.911741341302
 21
-1965.830426403042
 31
0.0
  0
LINE
  5
225
330
1F
100
AcDbEntity
  8
0-4_枠
  6
Continuous
 62
    92
370
    13
100
AcDbLine
 10
-2655.911741341302
 20
-1845.830426403042
 30
0.0
 11
-2655.911741341302
 21
-537.8302682476794
 31
0.0
  0
LINE
  5
226
330
1F
100
AcDbEntity
  8
0-A_文字
  6
JWW_HOJO
 62
   120
370
     5
100
AcDbLine
 10
-2891.229057679985
 20
-3668.028031499533
 30
0.0
 11
-481.7052481561745
 21
-3668.028031499533
 31
0.0
  0
MTEXT
  5
227
330
1F
100
AcDbEntity
  8
1-E
  6
Continuous
 62
     7
370
     9
100
AcDbMText
 10
685.9344437876824
 20
-243.9803453455427
 30
0.0
 40
91.43999999999998
 41
2280.0
 46
0.0
 71
     7
 72
     1
  1
{\fＭＳ ゴシック|b0|i0|c128|p49;■ガイドランナーの取り付け(ＳＡ調整枠)}
 73
     1
 44
1.0
  0
MTEXT
  5
228
330
1F
100
AcDbEntity
  8
1-E
  6
Continuous
 62
     7
370
     9
100
AcDbMText
 10
1385.015633851503
 20
-465.0132092191229
 30
0.0
 40
91.44
 41
960.0
 46
0.0
 71
     7
 72
     1
  1
{\fＭＳ ゴシック|b0|i0|c128|p49;下固定ストッパー}
 73
     1
 44
1.0
  0
MTEXT
  5
229
330
1F
100
AcDbEntity
  8
1-E
  6
Continuous
 62
     7
370
     9
100
AcDbMText
 10
3153.815633851504
 20
-465.0132092191229
 30
0.0
 40
91.43999999999998
 41
2160.0
 46
0.0
 71
     7
 72
     1
  1
{\fＭＳ ゴシック|b0|i0|c128|p49;ストライク(可動側受け金具)の取り付け}
 73
     1
 44
1.0
  0
MTEXT
  5
22A
330
1F
100
AcDbEntity
  8
1-E
  6
Continuous
 62
     7
370
     0
100
AcDbMText
 10
-1032.219046983787
 20
-468.7748321813789
 30
0.0
 40
91.44000000000008
 41
1440.000000000001
 46
0.0
 71
     7
 72
     1
  1
{\fＭＳ ゴシック|b0|i0|c128|p49;竪枠下端形状図（S＝1/3）}
 73
     1
 44
1.0
  0
MTEXT
  5
22B
330
1F
100
AcDbEntity
  8
1-E
  6
Continuous
 62
     7
370
     9
100
AcDbMText
 10
794.0690202734608
 20
-699.6919363738189
 30
0.0
 40
64.00799999999998
 41
1932.0
 46
0.0
 71
     7
 72
     1
  1
{\fＭＳ ゴシック|b0|i0|c128|p49;竪枠の後ろ面から１㎜外側に取り付けてください。}
 73
     1
 44
1.0
  0
LINE
  5
22C
330
1F
100
AcDbEntity
  8
1-E
  6
Continuous
 62
   120
370
     5
100
AcDbLine
 10
4008.629189119663
 20
-2742.826220652174
 30
0.0
 11
4008.629189119663
 21
-2979.826220652166
 31
0.0
  0
LINE
  5
22D
330
1F
100
AcDbEntity
  8
1-E
  6
Continuous
 62
   120
370
     5
100
AcDbLine
 10
4008.629189119663
 20
-2979.826220652166
 30
0.0
 11
4008.629189119663
 21
-3092.326220652166
 31
0.0
  0
LINE
  5
22E
330
1F
100
AcDbEntity
  8
1-E
  6
Continuous
 62
   120
370
     5
100
AcDbLine
 10
4008.629189119663
 20
-2979.826220652166
 30
0.0
 11
4107.459118112309
 21
-2979.826220652166
 31
0.0
  0
LWPOLYLINE
  5
22F
330
1F
100
AcDbEntity
  8
1-E
  6
Continuous
 62
     7
370
     9
100
AcDbPolyline
 90
        4
 70
     1
 43
3.0
 10
4010.129189119663
 20
-2979.826220652166
 42
0.4142135623731
 10
4008.629189119663
 20
-2978.326220652167
 42
0.4142135623731
 10
4007.129189119662
 20
-2979.826220652166
 42
0.4142135623731
 10
4008.629189119663
 20
-2981.326220652166
 42
0.4142135623731
  0
LINE
  5
230
330
1F
100
AcDbEntity
  8
1-E
  6
Continuous
 62
   120
370
     5
100
AcDbLine
 10
4008.629189119663
 20
-2630.326220652174
 30
0.0
 11
4008.629189119663
 21
-2742.826220652174
 31
0.0
  0
LINE
  5
231
330
1F
100
AcDbEntity
  8
1-E
  6
Continuous
 62
   120
370
     5
100
AcDbLine
 10
4008.629189119663
 20
-2742.826220652174
 30
0.0
 11
4107.459118112309
 21
-2742.826220652174
 31
0.0
  0
LWPOLYLINE
  5
232
330
1F
100
AcDbEntity
  8
1-E
  6
Continuous
 62
     7
370
     9
100
AcDbPolyline
 90
        4
 70
     1
 43
3.0
 10
4010.129189119663
 20
-2742.826220652174
 42
0.4142135623731
 10
4008.629189119663
 20
-2741.326220652174
 42
0.4142135623731
 10
4007.129189119662
 20
-2742.826220652174
 42
0.4142135623731
 10
4008.629189119663
 20
-2744.326220652174
 42
0.4142135623731
  0
LINE
  5
233
330
1F
100
AcDbEntity
  8
1-E
  6
Continuous
 62
   120
370
     5
100
AcDbLine
 10
3810.969331134372
 20
-2630.326220652174
 30
0.0
 11
3810.969331134372
 21
-3092.326220652166
 31
0.0
  0
LWPOLYLINE
  5
234
330
1F
100
AcDbEntity
  8
1-E
  6
Continuous
 62
     7
370
     9
100
AcDbPolyline
 90
        4
 70
     1
 43
3.0
 10
3812.469331134372
 20
-3092.326220652166
 42
0.4142135623731
 10
3810.969331134372
 20
-3090.826220652167
 42
0.4142135623731
 10
3809.469331134372
 20
-3092.326220652166
 42
0.4142135623731
 10
3810.969331134372
 20
-3093.826220652166
 42
0.4142135623731
  0
LINE
  5
235
330
1F
100
AcDbEntity
  8
1-E
  6
Continuous
 62
   120
370
     5
100
AcDbLine
 10
3810.969331134372
 20
-3092.326220652166
 30
0.0
 11
3907.251472081264
 21
-3092.326220652166
 31
0.0
  0
LINE
  5
236
330
1F
100
AcDbEntity
  8
1-E
  6
Continuous
 62
   120
370
     5
100
AcDbLine
 10
3909.799260127018
 20
-2861.327294540996
 30
0.0
 11
3909.799260127018
 21
-3092.326220652166
 31
0.0
  0
LWPOLYLINE
  5
237
330
1F
100
AcDbEntity
  8
1-E
  6
Continuous
 62
     7
370
     9
100
AcDbPolyline
 90
        4
 70
     1
 43
3.0
 10
3911.299260127018
 20
-3092.326220652166
 42
0.4142135623731
 10
3909.799260127018
 20
-3090.826220652167
 42
0.4142135623731
 10
3908.299260127017
 20
-3092.326220652166
 42
0.4142135623731
 10
3909.799260127018
 20
-3093.826220652166
 42
0.4142135623731
  0
LINE
  5
238
330
1F
100
AcDbEntity
  8
1-E
  6
Continuous
 62
   120
370
     5
100
AcDbLine
 10
3907.251472081264
 20
-3092.326220652166
 30
0.0
 11
4466.641186717718
 21
-3092.326220652166
 31
0.0
  0
LWPOLYLINE
  5
239
330
1F
100
AcDbEntity
  8
1-E
  6
Continuous
 62
     7
370
     9
100
AcDbPolyline
 90
        4
 70
     1
 43
3.0
 10
4010.129189119663
 20
-3092.326220652166
 42
0.4142135623731
 10
4008.629189119663
 20
-3090.826220652167
 42
0.4142135623731
 10
4007.129189119662
 20
-3092.326220652166
 42
0.4142135623731
 10
4008.629189119663
 20
-3093.826220652166
 42
0.4142135623731
  0
LWPOLYLINE
  5
23A
330
1F
100
AcDbEntity
  8
1-E
  6
Continuous
 62
     7
370
     9
100
AcDbPolyline
 90
        4
 70
     1
 43
3.0
 10
3812.469331134372
 20
-2630.326220652174
 42
0.4142135623731
 10
3810.969331134372
 20
-2628.826220652174
 42
0.4142135623731
 10
3809.469331134372
 20
-2630.326220652174
 42
0.4142135623731
 10
3810.969331134372
 20
-2631.826220652174
 42
0.4142135623731
  0
LINE
  5
23B
330
1F
100
AcDbEntity
  8
1-E
  6
Continuous
 62
   120
370
     5
100
AcDbLine
 10
3810.969331134372
 20
-2630.326220652174
 30
0.0
 11
3907.251472081264
 21
-2630.326220652174
 31
0.0
  0
LINE
  5
23C
330
1F
100
AcDbEntity
  8
1-E
  6
Continuous
 62
   120
370
     5
100
AcDbLine
 10
3909.799260127018
 20
-2630.326220652174
 30
0.0
 11
3909.799260127018
 21
-2861.327294540996
 31
0.0
  0
LWPOLYLINE
  5
23D
330
1F
100
AcDbEntity
  8
1-E
  6
Continuous
 62
     7
370
     9
100
AcDbPolyline
 90
        4
 70
     1
 43
3.0
 10
3911.299260127018
 20
-2630.326220652174
 42
0.4142135623731
 10
3909.799260127018
 20
-2628.826220652174
 42
0.4142135623731
 10
3908.299260127017
 20
-2630.326220652174
 42
0.4142135623731
 10
3909.799260127018
 20
-2631.826220652174
 42
0.4142135623731
  0
LINE
  5
23E
330
1F
100
AcDbEntity
  8
1-E
  6
Continuous
 62
   120
370
     5
100
AcDbLine
 10
3907.251472081264
 20
-2630.326220652174
 30
0.0
 11
4466.641186717718
 21
-2630.326220652174
 31
0.0
  0
LWPOLYLINE
  5
23F
330
1F
100
AcDbEntity
  8
1-E
  6
Continuous
 62
     7
370
     9
100
AcDbPolyline
 90
        4
 70
     1
 43
3.0
 10
4010.129189119663
 20
-2630.326220652174
 42
0.4142135623731
 10
4008.629189119663
 20
-2628.826220652174
 42
0.4142135623731
 10
4007.129189119662
 20
-2630.326220652174
 42
0.4142135623731
 10
4008.629189119663
 20
-2631.826220652174
 42
0.4142135623731
  0
LINE
  5
240
330
1F
100
AcDbEntity
  8
1-E
  6
Continuous
 62
   120
370
     5
100
AcDbLine
 10
4571.552166547172
 20
-3032.326220652166
 30
0.0
 11
4666.408752260696
 21
-2937.469634938645
 31
0.0
  0
LINE
  5
241
330
1F
100
AcDbEntity
  8
1-E
  6
Continuous
 62
    92
370
    13
100
AcDbLine
 10
4546.408752260693
 20
-3032.326220652166
 30
0.0
 11
4546.408752260693
 21
-3092.326220652166
 31
0.0
  0
LINE
  5
242
330
1F
100
AcDbEntity
  8
1-E
  6
Continuous
 62
    92
370
    13
100
AcDbLine
 10
4600.408752260695
 20
-3032.326220652166
 30
0.0
 11
4600.408752260695
 21
-3092.326220652166
 31
0.0
  0
LINE
  5
243
330
1F
100
AcDbEntity
  8
1-E
  6
Continuous
 62
    92
370
    13
100
AcDbLine
 10
4600.408752260695
 20
-3032.326220652166
 30
0.0
 11
4546.408752260693
 21
-3032.326220652166
 31
0.0
  0
LINE
  5
244
330
1F
100
AcDbEntity
  8
1-E
  6
Continuous
 62
   120
370
     5
100
AcDbLine
 10
4486.40875226071
 20
-2642.293877981291
 30
0.0
 11
4498.376409589823
 21
-2630.326220652174
 31
0.0
  0
LINE
  5
245
330
1F
100
AcDbEntity
  8
1-E
  6
Continuous
 62
   120
370
     5
100
AcDbLine
 10
4486.408752260693
 20
-2701.690847600952
 30
0.0
 11
4557.773379209477
 21
-2630.326220652169
 31
0.0
  0
LINE
  5
246
330
1F
100
AcDbEntity
  8
1-E
  6
Continuous
 62
   120
370
     5
100
AcDbLine
 10
4500.320327267102
 20
-2747.176242214246
 30
0.0
 11
4617.170348829169
 21
-2630.326220652177
 31
0.0
  0
LINE
  5
247
330
1F
100
AcDbEntity
  8
1-E
  6
Continuous
 62
   120
370
     5
100
AcDbLine
 10
4514.535271470305
 20
-2792.358267630692
 30
0.0
 11
4666.408752260705
 21
-2640.484786840294
 31
0.0
  0
LINE
  5
248
330
1F
100
AcDbEntity
  8
1-E
  6
Continuous
 62
   120
370
     5
100
AcDbLine
 10
4521.937646327084
 20
-2844.352862393615
 30
0.0
 11
4666.408752260705
 21
-2699.881756459995
 31
0.0
  0
LINE
  5
249
330
1F
100
AcDbEntity
  8
1-E
  6
Continuous
 62
   120
370
     5
100
AcDbLine
 10
4519.032832362549
 20
-2906.654645977796
 30
0.0
 11
4666.408752260705
 21
-2759.278726079639
 31
0.0
  0
LINE
  5
24A
330
1F
100
AcDbEntity
  8
1-E
  6
Continuous
 62
   120
370
     5
100
AcDbLine
 10
4493.12184474044
 20
-2991.96260321955
 30
0.0
 11
4666.40875226071
 21
-2818.675695699282
 31
0.0
  0
LINE
  5
24B
330
1F
100
AcDbEntity
  8
1-E
  6
Continuous
 62
   120
370
     5
100
AcDbLine
 10
4486.408752260703
 20
-3058.072665318992
 30
0.0
 11
4666.40875226071
 21
-2878.072665318985
 31
0.0
  0
LINE
  5
24C
330
1F
100
AcDbEntity
  8
1-E
  6
Continuous
 62
   120
370
     5
100
AcDbLine
 10
4511.552166547186
 20
-3092.326220652153
 30
0.0
 11
4546.408752260696
 21
-3057.469634938646
 31
0.0
  0
LINE
  5
24D
330
1F
100
AcDbEntity
  8
1-E
  6
Continuous
 62
   120
370
     5
100
AcDbLine
 10
4600.408752260715
 20
-3062.866604558325
 30
0.0
 11
4666.40875226071
 21
-2996.866604558333
 31
0.0
  0
LINE
  5
24E
330
1F
100
AcDbEntity
  8
1-E
  6
Continuous
 62
   120
370
     5
100
AcDbLine
 10
4630.346105786526
 20
-3092.326220652166
 30
0.0
 11
4636.408752260703
 21
-3086.263574177989
 31
0.0
  0
LINE
  5
24F
330
1F
100
AcDbEntity
  8
1-E
  6
Continuous
 62
    92
370
    13
100
AcDbLine
 10
4486.408752260693
 20
-3092.326220652166
 30
0.0
 11
4486.408752260693
 21
-3005.326220652167
 31
0.0
  0
LINE
  5
250
330
1F
100
AcDbEntity
  8
1-E
  6
Continuous
 62
    92
370
    13
100
AcDbLine
 10
4486.408752260693
 20
-2717.326220652166
 30
0.0
 11
4486.408752260693
 21
-2630.326220652167
 31
0.0
  0
ARC
  5
251
330
1F
100
AcDbEntity
  8
1-E
  6
Continuous
 62
    92
370
    13
100
AcDbCircle
 10
4216.408752260696
 20
-2861.326220652167
 30
0.0
 40
305.9999999999982
100
AcDbArc
 50
331.9275130641468
 51
28.07248693585302
  0
LINE
  5
252
330
1F
100
AcDbEntity
  8
1-E
  6
Continuous
 62
    92
370
    13
100
AcDbLine
 10
4600.408752260695
 20
-3092.326220652166
 30
0.0
 11
4636.408752260693
 21
-3092.326220652166
 31
0.0
  0
LINE
  5
253
330
1F
100
AcDbEntity
  8
1-E
  6
Continuous
 62
    92
370
    13
100
AcDbLine
 10
4636.408752260693
 20
-3050.326220652167
 30
0.0
 11
4636.408752260693
 21
-3092.326220652166
 31
0.0
  0
LINE
  5
254
330
1F
100
AcDbEntity
  8
1-E
  6
Continuous
 62
    92
370
    13
100
AcDbLine
 10
4666.408752260693
 20
-2630.326220652167
 30
0.0
 11
4666.408752260693
 21
-3050.326220652167
 31
0.0
  0
LINE
  5
255
330
1F
100
AcDbEntity
  8
1-E
  6
Continuous
 62
    92
370
    13
100
AcDbLine
 10
4486.409643044055
 20
-3092.326220652166
 30
0.0
 11
4546.408752260693
 21
-3092.326220652166
 31
0.0
  0
LINE
  5
256
330
1F
100
AcDbEntity
  8
1-E
  6
Continuous
 62
    92
370
    13
100
AcDbLine
 10
4666.408752260693
 20
-2630.326220652167
 30
0.0
 11
4486.408752260693
 21
-2630.326220652167
 31
0.0
  0
LINE
  5
257
330
1F
100
AcDbEntity
  8
1-E
  6
JWW_HOJO
 62
   120
370
     5
100
AcDbLine
 10
3390.732829437808
 20
-2928.159211047368
 30
0.0
 11
5060.751461722871
 21
-2928.159211047368
 31
0.0
  0
LINE
  5
258
330
1F
100
AcDbEntity
  8
1-E
  6
Continuous
 62
   120
370
     5
100
AcDbLine
 10
3909.799260127018
 20
-2861.327294540996
 30
0.0
 11
3927.740866774797
 21
-2861.327294540996
 31
0.0
  0
MTEXT
  5
259
330
1F
100
AcDbEntity
  8
1-E
  6
Continuous
 62
     7
370
     9
100
AcDbMText
 10
3111.611726305235
 20
-699.691936373819
 30
0.0
 40
64.00799999999997
 41
2100.0
 46
0.0
 71
     7
 72
     1
  1
{\fＭＳ ゴシック|b0|i0|c128|p49;扉を吊った後ストライクを取り付ける際は、下図のよう}
 73
     1
 44
1.0
  0
LINE
  5
25A
330
1F
100
AcDbEntity
  8
1-E
  6
Continuous
 62
   120
370
     5
100
AcDbLine
 10
4423.407762224861
 20
-2409.474543265406
 30
0.0
 11
4423.407762224861
 21
-2508.474543265405
 31
0.0
  0
LINE
  5
25B
330
1F
100
AcDbEntity
  8
1-E
  6
Continuous
 62
   120
370
     5
100
AcDbLine
 10
4522.407341576871
 20
-2409.474543265406
 30
0.0
 11
4522.407341576871
 21
-2508.474543265405
 31
0.0
  0
LWPOLYLINE
  5
25C
330
1F
100
AcDbEntity
  8
1-E
  6
Continuous
 62
     7
370
     9
100
AcDbPolyline
 90
        4
 70
     1
 43
3.0
 10
4424.907762224861
 20
-2409.474543265406
 42
0.4142135623731
 10
4423.407762224861
 20
-2407.974543265407
 42
0.4142135623731
 10
4421.907762224861
 20
-2409.474543265406
 42
0.4142135623731
 10
4423.407762224861
 20
-2410.974543265406
 42
0.4142135623731
  0
LWPOLYLINE
  5
25D
330
1F
100
AcDbEntity
  8
1-E
  6
Continuous
 62
     7
370
     9
100
AcDbPolyline
 90
        4
 70
     1
 43
3.0
 10
4523.907341576871
 20
-2409.474543265406
 42
0.4142135623731
 10
4522.407341576871
 20
-2407.974543265407
 42
0.4142135623731
 10
4520.90734157687
 20
-2409.474543265406
 42
0.4142135623731
 10
4522.407341576871
 20
-2410.974543265406
 42
0.4142135623731
  0
LINE
  5
25E
330
1F
100
AcDbEntity
  8
1-E
  6
Continuous
 62
   120
370
     5
100
AcDbLine
 10
4522.407341576871
 20
-2409.474543265406
 30
0.0
 11
4423.407762224861
 21
-2409.474543265406
 31
0.0
  0
MTEXT
  5
25F
330
1F
100
AcDbEntity
  8
1-E
  6
Continuous
 62
     7
370
     9
100
AcDbMText
 10
794.069020273462
 20
-822.0919363738202
 30
0.0
 40
64.00799999999997
 41
1806.0
 46
0.0
 71
     7
 72
     1
  1
{\fＭＳ ゴシック|b0|i0|c128|p49;ストッパー側面は竪枠から7.5㎜離して下さい。}
 73
     1
 44
1.0
  0
LINE
  5
260
330
1F
100
AcDbEntity
  8
1-E
  6
Continuous
 62
   120
370
     5
100
AcDbLine
 10
4486.40845505639
 20
-2508.474543265405
 30
0.0
 11
4260.289633204231
 21
-2508.474543265405
 31
0.0
  0
MTEXT
  5
261
330
1F
100
AcDbEntity
  8
1-E
  6
Continuous
 62
     7
370
     9
100
AcDbMText
 10
3111.611726305235
 20
-822.0919363738168
 30
0.0
 40
64.00799999999997
 41
2100.0
 46
0.0
 71
     7
 72
     1
  1
{\fＭＳ ゴシック|b0|i0|c128|p49;に下用ガイド軸とストライクの位置決め溝をそろえて、}
 73
     1
 44
1.0
  0
LINE
  5
262
330
1F
100
AcDbEntity
  8
1-E
  6
Continuous
 62
   120
370
     5
100
AcDbLine
 10
4522.407341576871
 20
-2508.474543265405
 30
0.0
 11
4522.407341576871
 21
-2575.974543265405
 31
0.0
  0
LWPOLYLINE
  5
263
330
1F
100
AcDbEntity
  8
1-E
  6
Continuous
 62
     7
370
     9
100
AcDbPolyline
 90
        4
 70
     1
 43
3.0
 10
4523.907341576871
 20
-2508.474543265405
 42
0.4142135623731
 10
4522.407341576871
 20
-2506.974543265405
 42
0.4142135623731
 10
4520.90734157687
 20
-2508.474543265405
 42
0.4142135623731
 10
4522.407341576871
 20
-2509.974543265405
 42
0.4142135623731
  0
LINE
  5
264
330
1F
100
AcDbEntity
  8
1-E
  6
Continuous
 62
   120
370
     5
100
AcDbLine
 10
4486.40845505639
 20
-2508.474543265405
 30
0.0
 11
4522.407341576871
 21
-2508.474543265405
 31
0.0
  0
LINE
  5
265
330
1F
100
AcDbEntity
  8
1-E
  6
Continuous
 62
   120
370
     5
100
AcDbLine
 10
4423.407762224861
 20
-2508.474543265405
 30
0.0
 11
4423.407762224861
 21
-2575.974543265405
 31
0.0
  0
LINE
  5
266
330
1F
100
AcDbEntity
  8
1-E
  6
Continuous
 62
   120
370
     5
100
AcDbLine
 10
4486.40845505639
 20
-2508.474543265405
 30
0.0
 11
4486.40845505639
 21
-2575.974543265405
 31
0.0
  0
LWPOLYLINE
  5
267
330
1F
100
AcDbEntity
  8
1-E
  6
Continuous
 62
     7
370
     9
100
AcDbPolyline
 90
        4
 70
     1
 43
3.0
 10
4424.907762224861
 20
-2508.474543265405
 42
0.4142135623731
 10
4423.407762224861
 20
-2506.974543265405
 42
0.4142135623731
 10
4421.907762224861
 20
-2508.474543265405
 42
0.4142135623731
 10
4423.407762224861
 20
-2509.974543265405
 42
0.4142135623731
  0
LWPOLYLINE
  5
268
330
1F
100
AcDbEntity
  8
1-E
  6
Continuous
 62
     7
370
     9
100
AcDbPolyline
 90
        4
 70
     1
 43
3.0
 10
4487.908455056391
 20
-2508.474543265405
 42
0.4142135623731
 10
4486.40845505639
 20
-2506.974543265405
 42
0.4142135623731
 10
4484.90845505639
 20
-2508.474543265405
 42
0.4142135623731
 10
4486.40845505639
 20
-2509.974543265405
 42
0.4142135623731
  0
MTEXT
  5
269
330
1F
100
AcDbEntity
  8
1-E
  6
Continuous
 62
     7
370
     9
100
AcDbMText
 10
3111.611726305233
 20
-944.4919363738175
 30
0.0
 40
64.00800000000002
 41
1512.0
 46
0.0
 71
     7
 72
     1
  1
{\fＭＳ ゴシック|b0|i0|c128|p49;床に付属のビスで取り付けてください。}
 73
     1
 44
1.0
  0
LWPOLYLINE
  5
26A
330
1F
100
AcDbEntity
  8
1-E
  6
Continuous
 62
     7
370
     9
100
AcDbPolyline
 90
        4
 70
     1
 43
3.0
 10
3911.299260127018
 20
-2861.327294540996
 42
0.4142135623731
 10
3909.799260127018
 20
-2859.827294540996
 42
0.4142135623731
 10
3908.299260127017
 20
-2861.327294540996
 42
0.4142135623731
 10
3909.799260127018
 20
-2862.827294540996
 42
0.4142135623731
  0
LINE
  5
26B
330
1F
100
AcDbEntity
  8
1-E
  6
JWW_CENTER1
 62
   120
370
     5
100
AcDbLine
 10
4067.640189768577
 20
-2861.327294540996
 30
0.0
 11
4710.54451472412
 21
-2861.327294540996
 31
0.0
  0
LWPOLYLINE
  5
26C
330
1F
100
AcDbEntity
  8
1-E
  6
Continuous
 62
     7
370
     9
100
AcDbPolyline
 90
        4
 70
     1
 43
3.0
 10
4151.907762224862
 20
-2973.827294540996
 42
0.4142135623731
 10
4150.407762224862
 20
-2972.327294540996
 42
0.4142135623731
 10
4148.907762224861
 20
-2973.827294540996
 42
0.4142135623731
 10
4150.407762224862
 20
-2975.327294540996
 42
0.4142135623731
  0
LWPOLYLINE
  5
26D
330
1F
100
AcDbEntity
  8
1-E
  6
Continuous
 62
     7
370
     9
100
AcDbPolyline
 90
        4
 70
     1
 43
3.0
 10
4151.907762224862
 20
-2748.827294540997
 42
0.4142135623731
 10
4150.407762224862
 20
-2747.327294540997
 42
0.4142135623731
 10
4148.907762224861
 20
-2748.827294540997
 42
0.4142135623731
 10
4150.407762224862
 20
-2750.327294540997
 42
0.4142135623731
  0
LINE
  5
26E
330
1F
100
AcDbEntity
  8
1-E
  6
JWW_CENTER1
 62
   120
370
     5
100
AcDbLine
 10
4217.45086020942
 20
-2786.327294540996
 30
0.0
 11
4284.103653376702
 21
-2786.327294540996
 31
0.0
  0
LINE
  5
26F
330
1F
100
AcDbEntity
  8
1-E
  6
JWW_CENTER1
 62
   120
370
     5
100
AcDbLine
 10
4217.45086020942
 20
-2936.327294540996
 30
0.0
 11
4284.103653376702
 21
-2936.327294540996
 31
0.0
  0
LINE
  5
270
330
1F
100
AcDbEntity
  8
1-E
  6
JWW_CENTER1
 62
   120
370
     5
100
AcDbLine
 10
4378.407762224861
 20
-2827.918319903478
 30
0.0
 11
4378.407762224861
 21
-2894.571113070758
 31
0.0
  0
LINE
  5
271
330
1F
100
AcDbEntity
  8
1-E
  6
JWW_CENTER1
 62
   120
370
     5
100
AcDbLine
 10
4249.407762224861
 20
-2901.021383377269
 30
0.0
 11
4249.407762224861
 21
-2966.240783143104
 31
0.0
  0
LINE
  5
272
330
1F
100
AcDbEntity
  8
1-E
  6
JWW_CENTER1
 62
   120
370
     5
100
AcDbLine
 10
4249.407762224861
 20
-2753.381863028239
 30
0.0
 11
4249.407762224861
 21
-2819.317959494796
 31
0.0
  0
ARC
  5
273
330
1F
100
AcDbEntity
  8
1-E
  6
Continuous
 62
     7
370
     9
100
AcDbCircle
 10
4245.848887721817
 20
-2918.327294540995
 30
0.0
 40
30.0
100
AcDbArc
 50
90.0
 51
134.9999999999995
  0
LINE
  5
274
330
1F
100
AcDbEntity
  8
1-E
  6
Continuous
 62
     7
370
     9
100
AcDbLine
 10
4224.635684286219
 20
-2897.114091105399
 30
0.0
 11
4152.16512153774
 21
-2969.584653853877
 31
0.0
  0
LINE
  5
275
330
1F
100
AcDbEntity
  8
1-E
  6
Continuous
 62
     7
370
     9
100
AcDbLine
 10
4245.848887721817
 20
-2888.327294540995
 30
0.0
 11
4300.407762224862
 21
-2888.327294540995
 31
0.0
  0
ARC
  5
276
330
1F
100
AcDbEntity
  8
1-E
  6
Continuous
 62
     7
370
     9
100
AcDbCircle
 10
4245.848887721817
 20
-2804.327294540995
 30
0.0
 40
30.0
100
AcDbArc
 50
225.0000000000006
 51
270.0
  0
LINE
  5
277
330
1F
100
AcDbEntity
  8
1-E
  6
Continuous
 62
     7
370
     9
100
AcDbLine
 10
4245.848887721817
 20
-2834.327294540995
 30
0.0
 11
4300.407762224862
 21
-2834.327294540995
 31
0.0
  0
LINE
  5
278
330
1F
100
AcDbEntity
  8
1-E
  6
Continuous
 62
     7
370
     9
100
AcDbLine
 10
4224.635684286219
 20
-2825.540497976592
 30
0.0
 11
4152.16512153774
 21
-2753.069935228117
 31
0.0
  0
ARC
  5
279
330
1F
100
AcDbEntity
  8
1-E
  6
Continuous
 62
     7
370
     9
100
AcDbCircle
 10
4350.981355353668
 20
-2772.827294540997
 30
0.0
 40
30.0
100
AcDbArc
 50
45.00000000000006
 51
90.00000000000006
  0
LINE
  5
27A
330
1F
100
AcDbEntity
  8
1-E
  6
Continuous
 62
     7
370
     9
100
AcDbLine
 10
4350.981355353668
 20
-2742.827294540997
 30
0.0
 11
4156.407762224861
 21
-2742.827294540997
 31
0.0
  0
LINE
  5
27B
330
1F
100
AcDbEntity
  8
1-E
  6
Continuous
 62
     7
370
     9
100
AcDbLine
 10
4372.194558789266
 20
-2751.614091105399
 30
0.0
 11
4414.62096566046
 21
-2794.040497976593
 31
0.0
  0
ARC
  5
27C
330
1F
100
AcDbEntity
  8
1-E
  6
Continuous
 62
     7
370
     9
100
AcDbCircle
 10
4393.407762224861
 20
-2815.25370141219
 30
0.0
 40
30.0
100
AcDbArc
 50
0.0000000000000127
 51
45.00000000000001
  0
LINE
  5
27D
330
1F
100
AcDbEntity
  8
1-E
  6
Continuous
 62
     7
370
     9
100
AcDbLine
 10
4423.407762224861
 20
-2815.25370141219
 30
0.0
 11
4423.407762224861
 21
-2907.400887669803
 31
0.0
  0
ARC
  5
27E
330
1F
100
AcDbEntity
  8
1-E
  6
Continuous
 62
     7
370
     9
100
AcDbCircle
 10
4393.407762224861
 20
-2907.400887669803
 30
0.0
 40
30.0
100
AcDbArc
 50
314.9999999999999
 51
359.9999999999999
  0
LINE
  5
27F
330
1F
100
AcDbEntity
  8
1-E
  6
Continuous
 62
     7
370
     9
100
AcDbLine
 10
4414.62096566046
 20
-2928.6140911054
 30
0.0
 11
4372.194558789266
 21
-2971.040497976593
 31
0.0
  0
ARC
  5
280
330
1F
100
AcDbEntity
  8
1-E
  6
Continuous
 62
     7
370
     9
100
AcDbCircle
 10
4350.981355353668
 20
-2949.827294540995
 30
0.0
 40
30.0
100
AcDbArc
 50
270.0
 51
315.0
  0
LINE
  5
281
330
1F
100
AcDbEntity
  8
1-E
  6
Continuous
 62
     7
370
     9
100
AcDbLine
 10
4350.981355353668
 20
-2979.827294540995
 30
0.0
 11
4156.407762224861
 21
-2979.827294540995
 31
0.0
  0
CIRCLE
  5
282
330
1F
100
AcDbEntity
  8
1-E
  6
Continuous
 62
     7
370
     9
100
AcDbCircle
 10
4378.407762224861
 20
-2861.327294540996
 30
0.0
 40
22.5
  0
CIRCLE
  5
283
330
1F
100
AcDbEntity
  8
1-E
  6
Continuous
 62
     7
370
     9
100
AcDbCircle
 10
4378.407762224861
 20
-2861.327294540996
 30
0.0
 40
11.7
  0
CIRCLE
  5
284
330
1F
100
AcDbEntity
  8
1-E
  6
Continuous
 62
     7
370
     9
100
AcDbCircle
 10
4249.407762224861
 20
-2936.327294540996
 30
0.0
 40
22.5
  0
CIRCLE
  5
285
330
1F
100
AcDbEntity
  8
1-E
  6
Continuous
 62
     7
370
     9
100
AcDbCircle
 10
4249.407762224861
 20
-2786.327294540996
 30
0.0
 40
22.5
  0
CIRCLE
  5
286
330
1F
100
AcDbEntity
  8
1-E
  6
Continuous
 62
     7
370
     9
100
AcDbCircle
 10
4249.407762224861
 20
-2786.327294540996
 30
0.0
 40
11.7
  0
CIRCLE
  5
287
330
1F
100
AcDbEntity
  8
1-E
  6
Continuous
 62
     7
370
     9
100
AcDbCircle
 10
4249.407762224861
 20
-2936.327294540996
 30
0.0
 40
11.7
  0
ARC
  5
288
330
1F
100
AcDbEntity
  8
1-E
  6
Continuous
 62
     7
370
     9
100
AcDbCircle
 10
4156.407762224861
 20
-2748.827294540997
 30
0.0
 40
6.0
100
AcDbArc
 50
90.0
 51
224.9999999999913
  0
ARC
  5
289
330
1F
100
AcDbEntity
  8
1-E
  6
Continuous
 62
     7
370
     9
100
AcDbCircle
 10
4156.407762224861
 20
-2973.827294540996
 30
0.0
 40
6.0
100
AcDbArc
 50
135.0000000000086
 51
270.0
  0
ARC
  5
28A
330
1F
100
AcDbEntity
  8
1-E
  6
Continuous
 62
     7
370
     9
100
AcDbCircle
 10
4300.407762224862
 20
-2861.327294540996
 30
0.0
 40
27.00000000000017
100
AcDbArc
 50
270.0
 51
90.0
  0
LINE
  5
28B
330
1F
100
AcDbEntity
  8
1-E
  6
JWW_CENTER1
 62
   120
370
     5
100
AcDbLine
 10
4291.407762224863
 20
-2798.325997956325
 30
0.0
 11
4291.407762224863
 21
-2924.326651197458
 31
0.0
  0
LINE
  5
28C
330
1F
100
AcDbEntity
  8
1-E
  6
Continuous
 62
   120
370
     5
100
AcDbLine
 10
4265.187260243078
 20
-1861.54696646048
 30
0.0
 11
4631.124791170712
 21
-1861.54696646048
 31
0.0
  0
LINE
  5
28D
330
1F
100
AcDbEntity
  8
1-E
  6
Continuous
 62
    92
370
    13
100
AcDbLine
 10
5418.215633851513
 20
-498.7332092191223
 30
0.0
 11
680.6156338515028
 21
-498.7332092191223
 31
0.0
  0
LINE
  5
28E
330
1F
100
AcDbEntity
  8
1-E
  6
JWW_HOJO
 62
   120
370
     5
100
AcDbLine
 10
3111.611726305236
 20
-580.4959363738208
 30
0.0
 11
5205.625485265237
 21
-580.4959363738208
 31
0.0
  0
LINE
  5
28F
330
1F
100
AcDbEntity
  8
1-E
  6
JWW_HOJO
 62
   120
370
     5
100
AcDbLine
 10
3111.611726305236
 20
-947.6959363738176
 30
0.0
 11
5205.625485265237
 21
-947.6959363738176
 31
0.0
  0
LINE
  5
290
330
1F
100
AcDbEntity
  8
1-E
  6
JWW_HOJO
 62
   120
370
     5
100
AcDbLine
 10
3111.611726305236
 20
-702.8959363738186
 30
0.0
 11
5205.625485265237
 21
-702.8959363738186
 31
0.0
  0
LINE
  5
291
330
1F
100
AcDbEntity
  8
1-E
  6
JWW_HOJO
 62
   120
370
     5
100
AcDbLine
 10
3111.611726305236
 20
-825.2959363738175
 30
0.0
 11
5205.625485265237
 21
-825.2959363738175
 31
0.0
  0
LINE
  5
292
330
1F
100
AcDbEntity
  8
1-E
  6
JWW_HOJO
 62
   120
370
     5
100
AcDbLine
 10
5205.625485265237
 20
-580.4959363738208
 30
0.0
 11
5205.625485265237
 21
-947.6959363738176
 31
0.0
  0
LINE
  5
293
330
1F
100
AcDbEntity
  8
1-E
  6
Continuous
 62
   120
370
     5
100
AcDbLine
 10
4469.47811040147
 20
-2081.024348157902
 30
0.0
 11
4528.352855724452
 21
-2081.024348157902
 31
0.0
  0
LINE
  5
294
330
1F
100
AcDbEntity
  8
1-E
  6
Continuous
 62
   120
370
     5
100
AcDbLine
 10
4345.646571244901
 20
-1957.192809001328
 30
0.0
 11
4469.47811040147
 21
-2081.024348157902
 31
0.0
  0
LINE
  5
295
330
1F
100
AcDbEntity
  8
1-E
  6
Continuous
 62
   120
370
     5
100
AcDbLine
 10
3766.247972509285
 20
-1995.757998773948
 30
0.0
 11
3884.825390768414
 21
-2107.360274782542
 31
0.0
  0
LINE
  5
296
330
1F
100
AcDbEntity
  8
1-E
  6
Continuous
 62
    92
370
    13
100
AcDbLine
 10
3049.415633851505
 20
-3381.830654048025
 30
0.0
 11
3049.415633851505
 21
-282.7332092191227
 31
0.0
  0
LINE
  5
297
330
1F
100
AcDbEntity
  8
1-E
  6
Continuous
 62
    92
370
    13
100
AcDbLine
 10
680.6156338515028
 20
-282.7332092191227
 30
0.0
 11
5418.215633851513
 21
-282.7332092191227
 31
0.0
  0
LINE
  5
298
330
1F
100
AcDbEntity
  8
1-E
  6
Continuous
 62
    92
370
    13
100
AcDbLine
 10
5418.215633851513
 20
-3381.830654048025
 30
0.0
 11
5418.215633851513
 21
-282.7332092191227
 31
0.0
  0
LINE
  5
299
330
1F
100
AcDbEntity
  8
1-E
  6
Continuous
 62
    92
370
    13
100
AcDbLine
 10
680.6156338515028
 20
-3381.830654048025
 30
0.0
 11
680.6156338515028
 21
-282.7332092191227
 31
0.0
  0
LINE
  5
29A
330
1F
100
AcDbEntity
  8
1-E
  6
Continuous
 62
     7
370
     9
100
AcDbLine
 10
3398.806317708973
 20
-3181.247056991908
 30
0.0
 11
3398.806317708973
 21
-2301.311521539077
 31
0.0
  0
LINE
  5
29B
330
1F
100
AcDbEntity
  8
1-E
  6
Continuous
 62
     7
370
     9
100
AcDbLine
 10
5068.824949994044
 20
-3181.247056991908
 30
0.0
 11
5068.824949994044
 21
-2301.311521539077
 31
0.0
  0
LINE
  5
29C
330
1F
100
AcDbEntity
  8
1-E
  6
Continuous
 62
     7
370
     9
100
AcDbLine
 10
3398.806317708973
 20
-3181.247056991908
 30
0.0
 11
5068.824949994044
 21
-3181.247056991908
 31
0.0
  0
LINE
  5
29D
330
1F
100
AcDbEntity
  8
1-E
  6
Continuous
 62
     7
370
     9
100
AcDbLine
 10
5068.824949994044
 20
-2301.311521539077
 30
0.0
 11
3398.806317708973
 21
-2301.311521539077
 31
0.0
  0
LINE
  5
29E
330
1F
100
AcDbEntity
  8
1-E
  6
JWW_CENTER1
 62
   120
370
     5
100
AcDbLine
 10
3331.215100026921
 20
-2070.824175302318
 30
0.0
 11
5182.881272010326
 21
-1712.664865119769
 31
0.0
  0
LINE
  5
29F
330
1F
100
AcDbEntity
  8
1-E
  6
Continuous
 62
    40
370
    15
100
AcDbLine
 10
3428.150018169118
 20
-1879.352463035241
 30
0.0
 11
3428.150018169118
 21
-1294.850612421025
 31
0.0
  0
LINE
  5
2A0
330
1F
100
AcDbEntity
  8
1-E
  6
Continuous
 62
    40
370
    15
100
AcDbLine
 10
3670.843213291204
 20
-1922.026839769676
 30
0.0
 11
3670.843213291204
 21
-1316.193050047337
 31
0.0
  0
LINE
  5
2A1
330
1F
100
AcDbEntity
  8
1-E
  6
Continuous
 62
    40
370
    15
100
AcDbLine
 10
3670.843213291204
 20
-1922.026839769676
 30
0.0
 11
3428.150018169118
 21
-1879.352463035241
 31
0.0
  0
LINE
  5
2A2
330
1F
100
AcDbEntity
  8
1-E
  6
Continuous
 62
    40
370
    15
100
AcDbLine
 10
4009.809919909586
 20
-1862.609426227508
 30
0.0
 11
3670.843213291204
 21
-1922.026839769676
 31
0.0
  0
ARC
  5
2A3
330
1F
100
AcDbEntity
  8
1-E
  6
Continuous
 62
     7
370
     9
100
AcDbCircle
 10
4413.103573540094
 20
-1731.944596576374
 30
0.0
 40
30.0
100
AcDbArc
 50
247.1651394203828
 51
5.793612550752308
  0
LINE
  5
2A4
330
1F
100
AcDbEntity
  8
1-E
  6
Continuous
 62
     7
370
     9
100
AcDbLine
 10
4442.950332598294
 20
-1728.916235019055
 30
0.0
 11
4435.917477051686
 21
-1659.602204637369
 31
0.0
  0
ARC
  5
2A5
330
1F
100
AcDbEntity
  8
1-E
  6
Continuous
 62
     7
370
     9
100
AcDbCircle
 10
4405.882510269895
 20
-1427.868104390177
 30
0.0
 40
180.0
100
AcDbArc
 50
0.0
 51
48.66116247688833
  0
LINE
  5
2A6
330
1F
100
AcDbEntity
  8
1-E
  6
Continuous
 62
     7
370
     9
100
AcDbLine
 10
4585.882510269894
 20
-1739.266535432834
 30
0.0
 11
4585.882510269894
 21
-1427.868104390177
 31
0.0
  0
LINE
  5
2A7
330
1F
100
AcDbEntity
  8
1-E
  6
Continuous
 62
     7
370
     9
100
AcDbLine
 10
4320.735871834146
 20
-1848.665294369926
 30
0.0
 11
4315.299476652957
 21
-1887.28797431603
 31
0.0
  0
LINE
  5
2A8
330
1F
100
AcDbEntity
  8
1-E
  6
Continuous
 62
     7
370
     9
100
AcDbLine
 10
4273.21852865915
 20
-1910.378208913129
 30
0.0
 11
4270.96633404467
 21
-1910.775052900672
 31
0.0
  0
LINE
  5
2A9
330
1F
100
AcDbEntity
  8
1-E
  6
Continuous
 62
     7
370
     9
100
AcDbLine
 10
4270.96633404467
 20
-1910.775052900672
 30
0.0
 11
4268.849570314816
 21
-1911.148275222289
 31
0.0
  0
LINE
  5
2AA
330
1F
100
AcDbEntity
  8
1-E
  6
Continuous
 62
     7
370
     9
100
AcDbLine
 10
4268.849570314816
 20
-1911.148275222289
 30
0.0
 11
4266.868499932567
 21
-1911.497350952072
 31
0.0
  0
LINE
  5
2AB
330
1F
100
AcDbEntity
  8
1-E
  6
Continuous
 62
     7
370
     9
100
AcDbLine
 10
4266.868499932567
 20
-1911.497350952072
 30
0.0
 11
4265.02286043495
 21
-1911.822805015928
 31
0.0
  0
LINE
  5
2AC
330
1F
100
AcDbEntity
  8
1-E
  6
Continuous
 62
     7
370
     9
100
AcDbLine
 10
4265.02286043495
 20
-1911.822805015928
 30
0.0
 11
4263.312914284926
 21
-1912.124112487951
 31
0.0
  0
LINE
  5
2AD
330
1F
100
AcDbEntity
  8
1-E
  6
Continuous
 62
     7
370
     9
100
AcDbLine
 10
4263.312914284926
 20
-1912.124112487951
 30
0.0
 11
4261.753884333865
 21
-1912.322534481722
 31
0.0
  0
LINE
  5
2AE
330
1F
100
AcDbEntity
  8
1-E
  6
Continuous
 62
     7
370
     9
100
AcDbLine
 10
4261.753884333865
 20
-1912.322534481722
 30
0.0
 11
4259.87386218918
 21
-1912.539328882325
 31
0.0
  0
LINE
  5
2AF
330
1F
100
AcDbEntity
  8
1-E
  6
Continuous
 62
     7
370
     9
100
AcDbLine
 10
4259.87386218918
 20
-1912.539328882325
 30
0.0
 11
4257.672847850864
 21
-1912.775020615666
 31
0.0
  0
LINE
  5
2B0
330
1F
100
AcDbEntity
  8
1-E
  6
Continuous
 62
     7
370
     9
100
AcDbLine
 10
4257.672847850864
 20
-1912.775020615666
 30
0.0
 11
4255.150841318924
 21
-1913.029609681749
 31
0.0
  0
LINE
  5
2B1
330
1F
100
AcDbEntity
  8
1-E
  6
Continuous
 62
     7
370
     9
100
AcDbLine
 10
4255.150841318924
 20
-1913.029609681749
 30
0.0
 11
4252.308105056314
 21
-1913.303621006481
 31
0.0
  0
LINE
  5
2B2
330
1F
100
AcDbEntity
  8
1-E
  6
Continuous
 62
     7
370
     9
100
AcDbLine
 10
4252.308105056314
 20
-1913.303621006481
 30
0.0
 11
4249.14411413712
 21
-1913.596004738043
 31
0.0
  0
LINE
  5
2B3
330
1F
100
AcDbEntity
  8
1-E
  6
Continuous
 62
     7
370
     9
100
AcDbLine
 10
4249.14411413712
 20
-1913.596004738043
 30
0.0
 11
4245.659393487254
 21
-1913.907285802345
 31
0.0
  0
LINE
  5
2B4
330
1F
100
AcDbEntity
  8
1-E
  6
Continuous
 62
     7
370
     9
100
AcDbLine
 10
4245.659393487254
 20
-1913.907285802345
 30
0.0
 11
4241.853680643759
 21
-1914.237464199387
 31
0.0
  0
LINE
  5
2B5
330
1F
100
AcDbEntity
  8
1-E
  6
Continuous
 62
     7
370
     9
100
AcDbLine
 10
4241.853680643759
 20
-1914.237464199387
 30
0.0
 11
4237.823561973974
 21
-1914.562393337334
 31
0.0
  0
LINE
  5
2B6
330
1F
100
AcDbEntity
  8
1-E
  6
Continuous
 62
     7
370
     9
100
AcDbLine
 10
4237.823561973974
 20
-1914.562393337334
 30
0.0
 11
4233.66536138229
 21
-1914.856876772536
 31
0.0
  0
LINE
  5
2B7
330
1F
100
AcDbEntity
  8
1-E
  6
Continuous
 62
     7
370
     9
100
AcDbLine
 10
4233.66536138229
 20
-1914.856876772536
 30
0.0
 11
4229.379603794606
 21
-1915.121439430896
 31
0.0
  0
LINE
  5
2B8
330
1F
100
AcDbEntity
  8
1-E
  6
Continuous
 62
     7
370
     9
100
AcDbLine
 10
4229.379603794606
 20
-1915.121439430896
 30
0.0
 11
4224.966026747976
 21
-1915.355556386509
 31
0.0
  0
LINE
  5
2B9
330
1F
100
AcDbEntity
  8
1-E
  6
Continuous
 62
     7
370
     9
100
AcDbLine
 10
4224.966026747976
 20
-1915.355556386509
 30
0.0
 11
4220.424630242393
 21
-1915.559752565285
 31
0.0
  0
LINE
  5
2BA
330
1F
100
AcDbEntity
  8
1-E
  6
Continuous
 62
     7
370
     9
100
AcDbLine
 10
4220.424630242393
 20
-1915.559752565285
 30
0.0
 11
4215.755414277856
 21
-1915.734027967222
 31
0.0
  0
LINE
  5
2BB
330
1F
100
AcDbEntity
  8
1-E
  6
Continuous
 62
     7
370
     9
100
AcDbLine
 10
4215.755414277856
 20
-1915.734027967222
 30
0.0
 11
4210.958378854367
 21
-1915.87785766641
 31
0.0
  0
LINE
  5
2BC
330
1F
100
AcDbEntity
  8
1-E
  6
Continuous
 62
     7
370
     9
100
AcDbLine
 10
4210.958378854367
 20
-1915.87785766641
 30
0.0
 11
4206.033523971932
 21
-1915.99229151467
 31
0.0
  0
LINE
  5
2BD
330
1F
100
AcDbEntity
  8
1-E
  6
Continuous
 62
     7
370
     9
100
AcDbLine
 10
4206.033523971932
 20
-1915.99229151467
 30
0.0
 11
4201.086359738348
 21
-1916.03953484652
 31
0.0
  0
LINE
  5
2BE
330
1F
100
AcDbEntity
  8
1-E
  6
Continuous
 62
     7
370
     9
100
AcDbLine
 10
4201.086359738348
 20
-1916.03953484652
 30
0.0
 11
4196.222921187317
 21
-1915.983367774209
 31
0.0
  0
LINE
  5
2BF
330
1F
100
AcDbEntity
  8
1-E
  6
Continuous
 62
     7
370
     9
100
AcDbLine
 10
4196.222921187317
 20
-1915.983367774209
 30
0.0
 11
4191.443208318839
 21
-1915.824840149556
 31
0.0
  0
LINE
  5
2C0
330
1F
100
AcDbEntity
  8
1-E
  6
Continuous
 62
     7
370
     9
100
AcDbLine
 10
4191.443208318839
 20
-1915.824840149556
 30
0.0
 11
4186.746696207018
 21
-1915.562377194833
 31
0.0
  0
LINE
  5
2C1
330
1F
100
AcDbEntity
  8
1-E
  6
Continuous
 62
     7
370
     9
100
AcDbLine
 10
4186.746696207018
 20
-1915.562377194833
 30
0.0
 11
4182.13390977775
 21
-1915.197028761857
 31
0.0
  0
LINE
  5
2C2
330
1F
100
AcDbEntity
  8
1-E
  6
Continuous
 62
     7
370
     9
100
AcDbLine
 10
4182.13390977775
 20
-1915.197028761857
 30
0.0
 11
4177.604849031035
 21
-1914.728794850629
 31
0.0
  0
LINE
  5
2C3
330
1F
100
AcDbEntity
  8
1-E
  6
Continuous
 62
     7
370
     9
100
AcDbLine
 10
4177.604849031035
 20
-1914.728794850629
 30
0.0
 11
4173.15898904097
 21
-1914.157150535241
 31
0.0
  0
LINE
  5
2C4
330
1F
100
AcDbEntity
  8
1-E
  6
Continuous
 62
     7
370
     9
100
AcDbLine
 10
4173.15898904097
 20
-1914.157150535241
 30
0.0
 11
4168.796854733465
 21
-1913.482620741601
 31
0.0
  0
LINE
  5
2C5
330
1F
100
AcDbEntity
  8
1-E
  6
Continuous
 62
     7
370
     9
100
AcDbLine
 10
4168.796854733465
 20
-1913.482620741601
 30
0.0
 11
4164.713718546824
 21
-1912.747199542466
 31
0.0
  0
LINE
  5
2C6
330
1F
100
AcDbEntity
  8
1-E
  6
Continuous
 62
     7
370
     9
100
AcDbLine
 10
4164.713718546824
 20
-1912.747199542466
 30
0.0
 11
4161.104852919371
 21
-1911.9934059365
 31
0.0
  0
LINE
  5
2C7
330
1F
100
AcDbEntity
  8
1-E
  6
Continuous
 62
     7
370
     9
100
AcDbLine
 10
4161.104852919371
 20
-1911.9934059365
 30
0.0
 11
4157.969995388154
 21
-1911.221764849613
 31
0.0
  0
LINE
  5
2C8
330
1F
100
AcDbEntity
  8
1-E
  6
Continuous
 62
     7
370
     9
100
AcDbLine
 10
4157.969995388154
 20
-1911.221764849613
 30
0.0
 11
4155.309670879079
 21
-1910.432276281802
 31
0.0
  0
LINE
  5
2C9
330
1F
100
AcDbEntity
  8
1-E
  6
Continuous
 62
     7
370
     9
100
AcDbLine
 10
4155.309670879079
 20
-1910.432276281802
 30
0.0
 11
4153.12361692918
 21
-1909.623890381254
 31
0.0
  0
LINE
  5
2CA
330
1F
100
AcDbEntity
  8
1-E
  6
Continuous
 62
     7
370
     9
100
AcDbLine
 10
4153.12361692918
 20
-1909.623890381254
 30
0.0
 11
4151.411571075522
 21
-1908.798181925693
 31
0.0
  0
LINE
  5
2CB
330
1F
100
AcDbEntity
  8
1-E
  6
Continuous
 62
     7
370
     9
100
AcDbLine
 10
4151.411571075522
 20
-1908.798181925693
 30
0.0
 11
4150.174058243993
 21
-1907.953576137392
 31
0.0
  0
LINE
  5
2CC
330
1F
100
AcDbEntity
  8
1-E
  6
Continuous
 62
     7
370
     9
100
AcDbLine
 10
4150.174058243993
 20
-1907.953576137392
 30
0.0
 11
4149.410553508706
 21
-1907.09112286817
 31
0.0
  0
LINE
  5
2CD
330
1F
100
AcDbEntity
  8
1-E
  6
Continuous
 62
     7
370
     9
100
AcDbLine
 10
4149.410553508706
 20
-1907.09112286817
 30
0.0
 11
4149.021583409809
 21
-1906.233393932132
 31
0.0
  0
LINE
  5
2CE
330
1F
100
AcDbEntity
  8
1-E
  6
Continuous
 62
     7
370
     9
100
AcDbLine
 10
4149.021583409809
 20
-1906.233393932132
 30
0.0
 11
4148.907149561547
 21
-1905.402436217478
 31
0.0
  0
LINE
  5
2CF
330
1F
100
AcDbEntity
  8
1-E
  6
Continuous
 62
     7
370
     9
100
AcDbLine
 10
4148.907149561547
 20
-1905.402436217478
 30
0.0
 11
4149.066989500974
 21
-1904.598774650114
 31
0.0
  0
LINE
  5
2D0
330
1F
100
AcDbEntity
  8
1-E
  6
Continuous
 62
     7
370
     9
100
AcDbLine
 10
4149.066989500974
 20
-1904.598774650114
 30
0.0
 11
4149.501365691043
 21
-1903.821359378222
 31
0.0
  0
LINE
  5
2D1
330
1F
100
AcDbEntity
  8
1-E
  6
Continuous
 62
     7
370
     9
100
AcDbLine
 10
4149.501365691043
 20
-1903.821359378222
 30
0.0
 11
4150.210015668794
 21
-1903.071765179531
 31
0.0
  0
LINE
  5
2D2
330
1F
100
AcDbEntity
  8
1-E
  6
Continuous
 62
     7
370
     9
100
AcDbLine
 10
4150.210015668794
 20
-1903.071765179531
 30
0.0
 11
4151.193464360141
 21
-1902.348942202223
 31
0.0
  0
LINE
  5
2D3
330
1F
100
AcDbEntity
  8
1-E
  6
Continuous
 62
     7
370
     9
100
AcDbLine
 10
4151.193464360141
 20
-1902.348942202223
 30
0.0
 11
4152.450924376222
 21
-1901.652890446295
 31
0.0
  0
LINE
  5
2D4
330
1F
100
AcDbEntity
  8
1-E
  6
Continuous
 62
     7
370
     9
100
AcDbLine
 10
4152.450924376222
 20
-1901.652890446295
 30
0.0
 11
4153.983183105907
 21
-1900.984134837659
 31
0.0
  0
LINE
  5
2D5
330
1F
100
AcDbEntity
  8
1-E
  6
Continuous
 62
     7
370
     9
100
AcDbLine
 10
4153.983183105907
 20
-1900.984134837659
 30
0.0
 11
4155.620689480424
 21
-1900.354223746322
 31
0.0
  0
LINE
  5
2D6
330
1F
100
AcDbEntity
  8
1-E
  6
Continuous
 62
     7
370
     9
100
AcDbLine
 10
4155.620689480424
 20
-1900.354223746322
 30
0.0
 11
4157.194679819901
 21
-1899.775230468202
 31
0.0
  0
LINE
  5
2D7
330
1F
100
AcDbEntity
  8
1-E
  6
Continuous
 62
     7
370
     9
100
AcDbLine
 10
4157.194679819901
 20
-1899.775230468202
 30
0.0
 11
4158.704891661378
 21
-1899.247155003298
 31
0.0
  0
LINE
  5
2D8
330
1F
100
AcDbEntity
  8
1-E
  6
Continuous
 62
     7
370
     9
100
AcDbLine
 10
4158.704891661378
 20
-1899.247155003298
 30
0.0
 11
4160.151587467818
 21
-1898.769997351611
 31
0.0
  0
LINE
  5
2D9
330
1F
100
AcDbEntity
  8
1-E
  6
Continuous
 62
     7
370
     9
100
AcDbLine
 10
4160.151587467818
 20
-1898.769997351611
 30
0.0
 11
4161.534767239213
 21
-1898.343757513139
 31
0.0
  0
LINE
  5
2DA
330
1F
100
AcDbEntity
  8
1-E
  6
Continuous
 62
     7
370
     9
100
AcDbLine
 10
4161.534767239213
 20
-1898.343757513139
 30
0.0
 11
4162.854430975568
 21
-1897.968435487883
 31
0.0
  0
LINE
  5
2DB
330
1F
100
AcDbEntity
  8
1-E
  6
Continuous
 62
     7
370
     9
100
AcDbLine
 10
4162.854430975568
 20
-1897.968435487883
 30
0.0
 11
4164.110316213918
 21
-1897.643506349936
 31
0.0
  0
LINE
  5
2DC
330
1F
100
AcDbEntity
  8
1-E
  6
Continuous
 62
     7
370
     9
100
AcDbLine
 10
4164.110316213918
 20
-1897.643506349936
 30
0.0
 11
4165.302685417229
 21
-1897.370019951114
 31
0.0
  0
LINE
  5
2DD
330
1F
100
AcDbEntity
  8
1-E
  6
Continuous
 62
     7
370
     9
100
AcDbLine
 10
4165.302685417229
 20
-1897.370019951114
 30
0.0
 11
4166.421302530261
 21
-1897.131703588225
 31
0.0
  0
LINE
  5
2DE
330
1F
100
AcDbEntity
  8
1-E
  6
Continuous
 62
     7
370
     9
100
AcDbLine
 10
4166.421302530261
 20
-1897.131703588225
 30
0.0
 11
4167.455669034824
 21
-1896.913334409895
 31
0.0
  0
LINE
  5
2DF
330
1F
100
AcDbEntity
  8
1-E
  6
Continuous
 62
     7
370
     9
100
AcDbLine
 10
4167.455669034824
 20
-1896.913334409895
 30
0.0
 11
4168.406309856836
 21
-1896.714912416124
 31
0.0
  0
LINE
  5
2E0
330
1F
100
AcDbEntity
  8
1-E
  6
Continuous
 62
     7
370
     9
100
AcDbLine
 10
4168.406309856836
 20
-1896.714912416124
 30
0.0
 11
4169.272437607425
 21
-1896.536437606912
 31
0.0
  0
LINE
  5
2E1
330
1F
100
AcDbEntity
  8
1-E
  6
Continuous
 62
     7
370
     9
100
AcDbLine
 10
4169.272437607425
 20
-1896.536437606912
 30
0.0
 11
4170.054839675455
 21
-1896.377909982258
 31
0.0
  0
LINE
  5
2E2
330
1F
100
AcDbEntity
  8
1-E
  6
Continuous
 62
     7
370
     9
100
AcDbLine
 10
4170.054839675455
 20
-1896.377909982258
 30
0.0
 11
4170.752991135018
 21
-1896.239329542164
 31
0.0
  0
LINE
  5
2E3
330
1F
100
AcDbEntity
  8
1-E
  6
Continuous
 62
     7
370
     9
100
AcDbLine
 10
4170.752991135018
 20
-1896.239329542164
 30
0.0
 11
4171.367154449073
 21
-1896.120696286629
 31
0.0
  0
LINE
  5
2E4
330
1F
100
AcDbEntity
  8
1-E
  6
Continuous
 62
     7
370
     9
100
AcDbLine
 10
4171.367154449073
 20
-1896.120696286629
 30
0.0
 11
4171.89706715466
 21
-1896.022010215654
 31
0.0
  0
LINE
  5
2E5
330
1F
100
AcDbEntity
  8
1-E
  6
Continuous
 62
     7
370
     9
100
AcDbLine
 10
4171.89706715466
 20
-1896.022010215654
 30
0.0
 11
4175.11250081298
 21
-1895.455090233449
 31
0.0
  0
LINE
  5
2E6
330
1F
100
AcDbEntity
  8
1-E
  6
Continuous
 62
     7
370
     9
100
AcDbLine
 10
4175.11250081298
 20
-1895.455090233449
 30
0.0
 11
4178.630029332188
 21
-1894.834627808483
 31
0.0
  0
LINE
  5
2E7
330
1F
100
AcDbEntity
  8
1-E
  6
Continuous
 62
     7
370
     9
100
AcDbLine
 10
4178.630029332188
 20
-1894.834627808483
 30
0.0
 11
4182.450440101146
 21
-1894.161672792571
 31
0.0
  0
LINE
  5
2E8
330
1F
100
AcDbEntity
  8
1-E
  6
Continuous
 62
     7
370
     9
100
AcDbLine
 10
4182.450440101146
 20
-1894.161672792571
 30
0.0
 11
4186.572945730992
 21
-1893.434650407987
 31
0.0
  0
LINE
  5
2E9
330
1F
100
AcDbEntity
  8
1-E
  6
Continuous
 62
     7
370
     9
100
AcDbLine
 10
4186.572945730992
 20
-1893.434650407987
 30
0.0
 11
4190.998333610588
 21
-1892.654610506548
 31
0.0
  0
LINE
  5
2EA
330
1F
100
AcDbEntity
  8
1-E
  6
Continuous
 62
     7
370
     9
100
AcDbLine
 10
4072.379430966093
 20
-1888.481604457884
 30
0.0
 11
4078.718825696091
 21
-1887.255404358846
 31
0.0
  0
LINE
  5
2EB
330
1F
100
AcDbEntity
  8
1-E
  6
Continuous
 62
     7
370
     9
100
AcDbLine
 10
4284.842994859033
 20
-1925.66869804616
 30
0.0
 11
4291.602528631875
 21
-1924.516034084896
 31
0.0
  0
LINE
  5
2EC
330
1F
100
AcDbEntity
  8
1-E
  6
Continuous
 62
     7
370
     9
100
AcDbLine
 10
4284.842994859033
 20
-1925.66869804616
 30
0.0
 11
4337.431883806913
 21
-1934.873231280827
 31
0.0
  0
LINE
  5
2ED
330
1F
100
AcDbEntity
  8
1-E
  6
Continuous
 62
     7
370
     9
100
AcDbLine
 10
4291.602528631875
 20
-1924.516034084896
 30
0.0
 11
4344.191417579756
 21
-1933.720567319562
 31
0.0
  0
LINE
  5
2EE
330
1F
100
AcDbEntity
  8
1-E
  6
Continuous
 62
     7
370
     9
100
AcDbLine
 10
4284.349540407689
 20
-1847.583489695875
 30
0.0
 11
4284.349540407689
 21
-1872.639476885195
 31
0.0
  0
ELLIPSE
  5
2EF
330
1F
100
AcDbEntity
  8
1-E
  6
Continuous
 62
     7
370
     9
100
AcDbEllipse
 10
4247.451779979434
 20
-1872.639476885195
 30
0.0
 11
36.89776042825396
 21
0.0
 31
0.0
210
0.0
220
0.0
230
1.0
 40
0.5
 41
3.141592653589793
 42
6.283185307179586
  0
LINE
  5
2F0
330
1F
100
AcDbEntity
  8
1-E
  6
Continuous
 62
     7
370
     9
100
AcDbLine
 10
4210.554019551178
 20
-1847.583489695875
 30
0.0
 11
4210.554019551178
 21
-1872.639476885195
 31
0.0
  0
LINE
  5
2F1
330
1F
100
AcDbEntity
  8
1-E
  6
Continuous
 62
     7
370
     9
100
AcDbLine
 10
4227.914535581339
 20
-1804.058140435927
 30
0.0
 11
4073.660332757041
 21
-1832.625133353962
 31
0.0
  0
LINE
  5
2F2
330
1F
100
AcDbEntity
  8
1-E
  6
Continuous
 62
     7
370
     9
100
AcDbLine
 10
4227.914535581339
 20
-1804.058140435927
 30
0.0
 11
4246.435233981416
 21
-1817.287323205819
 31
0.0
  0
LINE
  5
2F3
330
1F
100
AcDbEntity
  8
1-E
  6
Continuous
 62
     7
370
     9
100
AcDbLine
 10
4226.591459826578
 20
-1681.027055631465
 30
0.0
 11
4227.914535581339
 21
-1804.058140435927
 31
0.0
  0
LINE
  5
2F4
330
1F
100
AcDbEntity
  8
1-E
  6
Continuous
 62
     7
370
     9
100
AcDbLine
 10
4246.435233981416
 20
-1694.297707548205
 30
0.0
 11
4435.917477051686
 21
-1659.602204637369
 31
0.0
  0
LINE
  5
2F5
330
1F
100
AcDbEntity
  8
1-E
  6
Continuous
 62
     7
370
     9
100
AcDbLine
 10
4262.093248934324
 20
-1673.596204457328
 30
0.0
 11
4226.591459826578
 21
-1681.027055631465
 31
0.0
  0
LINE
  5
2F6
330
1F
100
AcDbEntity
  8
1-E
  6
Continuous
 62
     7
370
     9
100
AcDbLine
 10
4262.093248934324
 20
-1673.596204457328
 30
0.0
 11
4287.228801182301
 21
-1678.38142904785
 31
0.0
  0
LINE
  5
2F7
330
1F
100
AcDbEntity
  8
1-E
  6
Continuous
 62
     7
370
     9
100
AcDbLine
 10
4391.827112676516
 20
-1658.53765489301
 30
0.0
 11
4407.702184492981
 21
-1650.599725290347
 31
0.0
  0
LINE
  5
2F8
330
1F
100
AcDbEntity
  8
1-E
  6
Continuous
 62
     7
370
     9
100
AcDbLine
 10
4407.702184492981
 20
-1650.599725290347
 30
0.0
 11
4447.51361531729
 21
-1646.631285414924
 31
0.0
  0
LINE
  5
2F9
330
1F
100
AcDbEntity
  8
1-E
  6
Continuous
 62
     7
370
     9
100
AcDbLine
 10
4447.51361531729
 20
-1646.631285414924
 30
0.0
 11
4447.51361531729
 21
-1765.347140581851
 31
0.0
  0
LINE
  5
2FA
330
1F
100
AcDbEntity
  8
1-E
  6
Continuous
 62
     7
370
     9
100
AcDbLine
 10
4286.749018901068
 20
-1290.037041831392
 30
0.0
 11
4287.228801182301
 21
-1678.38142904785
 31
0.0
  0
LINE
  5
2FB
330
1F
100
AcDbEntity
  8
1-E
  6
Continuous
 62
     7
370
     9
100
AcDbLine
 10
4262.093248934324
 20
-1673.596204457328
 30
0.0
 11
4262.093248934324
 21
-1294.214897001067
 31
0.0
  0
LINE
  5
2FC
330
1F
100
AcDbEntity
  8
1-E
  6
Continuous
 62
     7
370
     9
100
AcDbLine
 10
4391.827112676516
 20
-1272.820690118691
 30
0.0
 11
4391.827112676516
 21
-1658.53765489301
 31
0.0
  0
LINE
  5
2FD
330
1F
100
AcDbEntity
  8
1-E
  6
Continuous
 62
     7
370
     9
100
AcDbLine
 10
4407.702184492981
 20
-1650.599725290347
 30
0.0
 11
4407.702184492981
 21
-1270.202757060065
 31
0.0
  0
ELLIPSE
  5
2FE
330
1F
100
AcDbEntity
  8
1-E
  6
Continuous
 62
     7
370
     9
100
AcDbEllipse
 10
4542.387544275305
 20
-1640.18425865114
 30
0.0
 11
2.171034762115338E-15
 21
35.45685934649716
 31
0.0
210
0.0
220
0.0
230
1.0
 40
0.8
 41
0.0
 42
6.283185307179586
  0
ELLIPSE
  5
2FF
330
1F
100
AcDbEntity
  8
1-E
  6
Continuous
 62
     7
370
     9
100
AcDbEllipse
 10
4542.387544275305
 20
-1640.18425865114
 30
0.0
 11
1.068889043675199E-15
 21
17.45685934649716
 31
0.0
210
0.0
220
0.0
230
1.0
 40
0.5937773382631759
 41
0.0
 42
6.283185307179586
  0
LINE
  5
300
330
1F
100
AcDbEntity
  8
1-E
  6
Continuous
 62
     7
370
     9
100
AcDbLine
 10
4515.066253203475
 20
-1668.922452089472
 30
0.0
 11
4534.485609479273
 21
-1674.237532775533
 31
0.0
  0
ELLIPSE
  5
301
330
1F
100
AcDbEntity
  8
1-E
  6
Continuous
 62
     7
370
     9
100
AcDbEllipse
 10
4519.548011713205
 20
-1633.910964678204
 30
0.0
 11
2.171034762115338E-15
 21
35.45685934649716
 31
0.0
210
0.0
220
0.0
230
1.0
 40
0.8
 41
5.997256757456505
 42
9.266112668701924
  0
ELLIPSE
  5
302
330
1F
100
AcDbEntity
  8
1-E
  6
Continuous
 62
     7
370
     9
100
AcDbEllipse
 10
4152.84000611087
 20
-1705.82409452175
 30
0.0
 11
2.171034762115338E-15
 21
35.45685934649716
 31
0.0
210
0.0
220
0.0
230
1.0
 40
0.8
 41
0.0
 42
6.283185307179586
  0
ELLIPSE
  5
303
330
1F
100
AcDbEntity
  8
1-E
  6
Continuous
 62
     7
370
     9
100
AcDbEllipse
 10
4152.84000611087
 20
-1705.82409452175
 30
0.0
 11
1.068889043675199E-15
 21
17.45685934649716
 31
0.0
210
0.0
220
0.0
230
1.0
 40
0.5937773382631759
 41
0.0
 42
6.283185307179586
  0
LINE
  5
304
330
1F
100
AcDbEntity
  8
1-E
  6
Continuous
 62
     7
370
     9
100
AcDbLine
 10
4125.518715039039
 20
-1734.56228796008
 30
0.0
 11
4144.938071314831
 21
-1739.877368646143
 31
0.0
  0
ELLIPSE
  5
305
330
1F
100
AcDbEntity
  8
1-E
  6
Continuous
 62
     7
370
     9
100
AcDbEllipse
 10
4130.000473548763
 20
-1699.550800548813
 30
0.0
 11
2.171034762115338E-15
 21
35.45685934649716
 31
0.0
210
0.0
220
0.0
230
1.0
 40
0.8
 41
5.997256757456505
 42
9.266112668701924
  0
LINE
  5
306
330
1F
100
AcDbEntity
  8
1-E
  6
Continuous
 62
     7
370
     9
100
AcDbLine
 10
4138.000914574126
 20
-1665.533483653159
 30
0.0
 11
4157.420270849917
 21
-1670.848564339223
 31
0.0
  0
LINE
  5
307
330
1F
100
AcDbEntity
  8
1-E
  6
Continuous
 62
     7
370
     9
100
AcDbLine
 10
4527.548452738561
 20
-1599.89364778255
 30
0.0
 11
4546.967809014359
 21
-1605.208728468613
 31
0.0
  0
LINE
  5
308
330
1F
100
AcDbEntity
  8
1-E
  6
Continuous
 62
     7
370
     9
100
AcDbLine
 10
4036.942893977031
 20
-1879.943442467079
 30
0.0
 11
4078.718825696091
 21
-1887.255404358846
 31
0.0
  0
LINE
  5
309
330
1F
100
AcDbEntity
  8
1-E
  6
Continuous
 62
     7
370
     9
100
AcDbLine
 10
4030.143909290215
 20
-1881.089201409888
 30
0.0
 11
4072.379430966093
 21
-1888.481604457884
 31
0.0
  0
LINE
  5
30A
330
1F
100
AcDbEntity
  8
1-E
  6
Continuous
 62
     7
370
     9
100
AcDbLine
 10
4320.735871834146
 20
-1832.118898470563
 30
0.0
 11
4280.081148462351
 21
-1838.96999683544
 31
0.0
  0
LINE
  5
30B
330
1F
100
AcDbEntity
  8
1-E
  6
Continuous
 62
     7
370
     9
100
AcDbLine
 10
4320.735871834146
 20
-1832.118898470563
 30
0.0
 11
4315.299476652957
 21
-1870.741578416666
 31
0.0
  0
LINE
  5
30C
330
1F
100
AcDbEntity
  8
1-E
  6
Continuous
 62
     7
370
     9
100
AcDbLine
 10
4283.602911536319
 20
-1876.332050912144
 30
0.0
 11
4315.299476652957
 21
-1870.741578416666
 31
0.0
  0
LINE
  5
30D
330
1F
100
AcDbEntity
  8
1-E
  6
Continuous
 62
     7
370
     9
100
AcDbLine
 10
4191.000137545951
 20
-1892.664838363814
 30
0.0
 11
4223.935416723897
 21
-1886.855888034413
 31
0.0
  0
LINE
  5
30E
330
1F
100
AcDbEntity
  8
1-E
  6
Continuous
 62
     7
370
     9
100
AcDbLine
 10
4167.800214341333
 20
-1913.303114000022
 30
0.0
 11
4315.299476652718
 21
-1887.287974314676
 31
0.0
  0
LINE
  5
30F
330
1F
100
AcDbEntity
  8
1-E
  6
Continuous
 62
     7
370
     9
100
AcDbLine
 10
4315.299476652957
 20
-1870.741578416666
 30
0.0
 11
4315.299476652718
 21
-1887.287974314676
 31
0.0
  0
LINE
  5
310
330
1F
100
AcDbEntity
  8
1-E
  6
Continuous
 62
     7
370
     9
100
AcDbLine
 10
4320.735871834146
 20
-1848.665294368947
 30
0.0
 11
4320.735871834146
 21
-1832.118898470563
 31
0.0
  0
LINE
  5
311
330
1F
100
AcDbEntity
  8
1-E
  6
Continuous
 62
     7
370
     9
100
AcDbLine
 10
4411.360655618872
 20
-1886.027420899774
 30
0.0
 11
4273.219779787461
 21
-1910.385304437698
 31
0.0
  0
ELLIPSE
  5
312
330
1F
100
AcDbEntity
  8
1-E
  6
Continuous
 62
     7
370
     9
100
AcDbEllipse
 10
4247.451779979434
 20
-1847.583489695875
 30
0.0
 11
18.52285489353675
 21
0.0
 31
0.0
210
0.0
220
0.0
230
1.0
 40
0.5
 41
3.141592653589793
 42
6.283185307179586
  0
ARC
  5
313
330
1F
100
AcDbEntity
  8
1-E
  6
Continuous
 62
     7
370
     9
100
AcDbCircle
 10
4148.163930559395
 20
-1784.549682740063
 30
0.0
 40
180.0
100
AcDbArc
 50
260.070167268476
 51
279.6772325660855
  0
LINE
  5
314
330
1F
100
AcDbEntity
  8
1-E
  6
Continuous
 62
     7
370
     9
100
AcDbLine
 10
4179.998646835648
 20
-1997.388895381215
 30
0.0
 11
4647.420380139583
 21
-1916.475953291091
 31
0.0
  0
LINE
  5
315
330
1F
100
AcDbEntity
  8
1-E
  6
Continuous
 62
     7
370
     9
100
AcDbLine
 10
4118.04281945681
 20
-1997.292577477137
 30
0.0
 11
3825.261717925163
 21
-1945.672652286644
 31
0.0
  0
ARC
  5
316
330
1F
100
AcDbEntity
  8
1-E
  6
Continuous
 62
     7
370
     9
100
AcDbCircle
 10
4149.296389582979
 20
-1820.026635022393
 30
0.0
 40
180.0
100
AcDbArc
 50
260.0010025806856
 51
279.8208509823177
  0
ELLIPSE
  5
317
330
1F
100
AcDbEntity
  8
1-E
  6
Continuous
 62
     7
370
     9
100
AcDbEllipse
 10
4412.339837499927
 20
-1904.586817053202
 30
0.0
 11
19.86135961083638
 21
0.0
 31
0.0
210
0.0
220
0.0
230
1.0
 40
0.5
 41
0.0
 42
6.283185307179586
  0
ELLIPSE
  5
318
330
1F
100
AcDbEntity
  8
1-E
  6
Continuous
 62
     7
370
     9
100
AcDbEllipse
 10
4413.099749495555
 20
-1910.159505021172
 30
0.0
 11
13.10465733292201
 21
0.0
 31
0.0
210
0.0
220
0.0
230
1.0
 40
0.4
 41
0.0
 42
6.283185307179586
  0
ELLIPSE
  5
319
330
1F
100
AcDbEntity
  8
1-E
  6
Continuous
 62
     7
370
     9
100
AcDbEllipse
 10
4089.733448104163
 20
-1920.362906712527
 30
0.0
 11
19.86135961083638
 21
0.0
 31
0.0
210
0.0
220
0.0
230
1.0
 40
0.5
 41
0.0
 42
6.283185307179586
  0
ELLIPSE
  5
31A
330
1F
100
AcDbEntity
  8
1-E
  6
Continuous
 62
     7
370
     9
100
AcDbEllipse
 10
4090.493360099791
 20
-1925.935594680496
 30
0.0
 11
13.10465733292201
 21
0.0
 31
0.0
210
0.0
220
0.0
230
1.0
 40
0.4
 41
0.0
 42
6.283185307179586
  0
LINE
  5
31B
330
1F
100
AcDbEntity
  8
1-E
  6
Continuous
 62
     7
370
     9
100
AcDbLine
 10
3842.839323840645
 20
-1913.835641956141
 30
0.0
 11
4117.12437000614
 21
-1961.853223823316
 31
0.0
  0
LINE
  5
31C
330
1F
100
AcDbEntity
  8
1-E
  6
Continuous
 62
     7
370
     9
100
AcDbLine
 10
3842.843083411895
 20
-1912.65297249203
 30
0.0
 11
4210.554019551178
 21
-1850.686647686603
 31
0.0
  0
LINE
  5
31D
330
1F
100
AcDbEntity
  8
1-E
  6
Continuous
 62
     7
370
     9
100
AcDbLine
 10
4228.928925085901
 20
-1847.583489695875
 30
0.0
 11
4228.928925085901
 21
-1838.073461630823
 31
0.0
  0
LINE
  5
31E
330
1F
100
AcDbEntity
  8
1-E
  6
Continuous
 62
     7
370
     9
100
AcDbLine
 10
4265.974634872974
 20
-1847.583489695875
 30
0.0
 11
4265.974634872974
 21
-1831.541302401861
 31
0.0
  0
ELLIPSE
  5
31F
330
1F
100
AcDbEntity
  8
1-E
  6
Continuous
 62
     7
370
     9
100
AcDbEllipse
 10
4247.451779979434
 20
-1847.583489695875
 30
0.0
 11
36.89776042825396
 21
0.0
 31
0.0
210
0.0
220
0.0
230
1.0
 40
0.5
 41
2.768968464067914
 42
7.32806629937406
  0
LINE
  5
320
330
1F
100
AcDbEntity
  8
1-E
  6
Continuous
 62
     7
370
     9
100
AcDbLine
 10
4344.191417579756
 20
-1933.720567319562
 30
0.0
 11
4344.191417579756
 21
-1968.966339893843
 31
0.0
  0
LINE
  5
321
330
1F
100
AcDbEntity
  8
1-E
  6
Continuous
 62
     7
370
     9
100
AcDbLine
 10
4337.431883806913
 20
-1934.873231280827
 30
0.0
 11
4337.431883806913
 21
-1970.13644758407
 31
0.0
  0
LINE
  5
322
330
1F
100
AcDbEntity
  8
1-E
  6
Continuous
 62
     7
370
     9
100
AcDbLine
 10
4009.809919909586
 20
-1862.609426227508
 30
0.0
 11
4055.852398177368
 21
-1868.59217147739
 31
0.0
  0
LINE
  5
323
330
1F
100
AcDbEntity
  8
1-E
  6
Continuous
 62
     7
370
     9
100
AcDbLine
 10
4073.660332757041
 20
-1478.036669293759
 30
0.0
 11
4073.660332757041
 21
-1850.61906860391
 31
0.0
  0
ARC
  5
324
330
1F
100
AcDbEntity
  8
1-E
  6
Continuous
 62
     7
370
     9
100
AcDbCircle
 10
4253.660332757041
 20
-1478.036669293759
 30
0.0
 40
180.0
100
AcDbArc
 50
99.36427710995552
 51
180.0
  0
LINE
  5
325
330
1F
100
AcDbEntity
  8
1-E
  6
Continuous
 62
     7
370
     9
100
AcDbLine
 10
4055.852483741988
 20
-1466.122603395149
 30
0.0
 11
4055.852483741988
 21
-1868.592006817479
 31
0.0
  0
ARC
  5
326
330
1F
100
AcDbEntity
  8
1-E
  6
Continuous
 62
     7
370
     9
100
AcDbCircle
 10
4235.852483741988
 20
-1466.122603395149
 30
0.0
 40
180.0
100
AcDbArc
 50
100.4830549659711
 51
180.0
  0
LINE
  5
327
330
1F
100
AcDbEntity
  8
1-E
  6
Continuous
 62
     7
370
     9
100
AcDbLine
 10
4009.240375297833
 20
-1441.523140727804
 30
0.0
 11
4009.240375297833
 21
-1862.535411674275
 31
0.0
  0
ARC
  5
328
330
1F
100
AcDbEntity
  8
1-E
  6
Continuous
 62
     7
370
     9
100
AcDbCircle
 10
4189.240375297833
 20
-1441.523140727804
 30
0.0
 40
180.0
100
AcDbArc
 50
99.74095296447314
 51
180.0
  0
LINE
  5
329
330
1F
100
AcDbEntity
  8
1-E
  6
Continuous
 62
     7
370
     9
100
AcDbLine
 10
4414.676933809011
 20
-1249.978729069078
 30
0.0
 11
4203.102433566747
 21
-1289.127026576066
 31
0.0
  0
LINE
  5
32A
330
1F
100
AcDbEntity
  8
1-E
  6
Continuous
 62
     7
370
     9
100
AcDbLine
 10
4627.426983984245
 20
-1426.97430588816
 30
0.0
 11
4627.426983984245
 21
-1767.807490534108
 31
0.0
  0
LINE
  5
32B
330
1F
100
AcDbEntity
  8
1-E
  6
Continuous
 62
     7
370
     9
100
AcDbLine
 10
4396.869084793958
 20
-1268.517776425668
 30
0.0
 11
4224.372384950326
 21
-1300.435385195722
 31
0.0
  0
LINE
  5
32C
330
1F
100
AcDbEntity
  8
1-E
  6
Continuous
 62
     7
370
     9
100
AcDbLine
 10
4609.619134969198
 20
-1445.513353244749
 30
0.0
 11
4609.619134969198
 21
-1752.609102199169
 31
0.0
  0
ARC
  5
32D
330
1F
100
AcDbEntity
  8
1-E
  6
Continuous
 62
     7
370
     9
100
AcDbCircle
 10
4429.619134969199
 20
-1445.513353244749
 30
0.0
 40
180.0
100
AcDbArc
 50
0.0
 51
100.4830549659711
  0
LINE
  5
32E
330
1F
100
AcDbEntity
  8
1-E
  6
Continuous
 62
     7
370
     9
100
AcDbLine
 10
4158.785476558115
 20
-1264.118239040301
 30
0.0
 11
4315.909553587131
 21
-1237.144926522024
 31
0.0
  0
ARC
  5
32F
330
1F
100
AcDbEntity
  8
1-E
  6
Continuous
 62
     7
370
     9
100
AcDbCircle
 10
4348.659603762372
 20
-1414.140503341105
 30
0.0
 40
180.0
100
AcDbArc
 50
82.78560205276084
 51
100.4830549659711
  0
LINE
  5
330
330
1F
100
AcDbEntity
  8
1-E
  6
Continuous
 62
     7
370
     9
100
AcDbLine
 10
4371.264460904785
 20
-1235.565531876538
 30
0.0
 11
4471.210183399204
 21
-1248.552447850564
 31
0.0
  0
ARC
  5
331
330
1F
100
AcDbEntity
  8
1-E
  6
Continuous
 62
     7
370
     9
100
AcDbCircle
 10
4447.426983984245
 20
-1426.97430588816
 30
0.0
 40
180.0
100
AcDbArc
 50
0.0
 51
82.48094193237357
  0
ARC
  5
332
330
1F
100
AcDbEntity
  8
1-E
  6
Continuous
 62
     7
370
     9
100
AcDbCircle
 10
4447.426983984245
 20
-1426.97430588816
 30
0.0
 40
180.0
100
AcDbArc
 50
82.48094193237357
 51
100.4830549659711
  0
ARC
  5
333
330
1F
100
AcDbEntity
  8
1-E
  6
Continuous
 62
     7
370
     9
100
AcDbCircle
 10
4228.244782731303
 20
-1385.863684580716
 30
0.0
 40
12.0
100
AcDbArc
 50
0.0
 51
139.3154869822215
  0
LINE
  5
334
330
1F
100
AcDbEntity
  8
1-E
  6
Continuous
 62
     7
370
     9
100
AcDbLine
 10
4240.244782731298
 20
-1577.09420018522
 30
0.0
 11
4240.244782731298
 21
-1385.863684580716
 31
0.0
  0
ARC
  5
335
330
1F
100
AcDbEntity
  8
1-E
  6
Continuous
 62
     7
370
     9
100
AcDbCircle
 10
4228.244782731303
 20
-1577.09420018522
 30
0.0
 40
12.0
100
AcDbArc
 50
226.7801567871272
 51
0.0
  0
LINE
  5
336
330
1F
100
AcDbEntity
  8
1-E
  6
Continuous
 62
     7
370
     9
100
AcDbLine
 10
4195.567027214305
 20
-1405.467942407598
 30
0.0
 11
4219.145055892064
 21
-1378.040963094478
 31
0.0
  0
LINE
  5
337
330
1F
100
AcDbEntity
  8
1-E
  6
Continuous
 62
     7
370
     9
100
AcDbLine
 10
4204.388352230316
 20
-1571.142937860468
 30
0.0
 11
4220.027188393661
 21
-1585.83897824427
 31
0.0
  0
ARC
  5
338
330
1F
100
AcDbEntity
  8
1-E
  6
Continuous
 62
     7
370
     9
100
AcDbCircle
 10
4286.564295606691
 20
-1483.695157269973
 30
0.0
 40
120.0
100
AcDbArc
 50
139.3154869822216
 51
226.7801567871272
  0
ARC
  5
339
330
1F
100
AcDbEntity
  8
1-E
  6
Continuous
 62
     7
370
     9
100
AcDbCircle
 10
4205.756136991055
 20
-1557.21002262443
 30
0.0
 40
12.0
100
AcDbArc
 50
249.9839863783417
 51
0.0
  0
LINE
  5
33A
330
1F
100
AcDbEntity
  8
1-E
  6
Continuous
 62
     7
370
     9
100
AcDbLine
 10
4217.756136991057
 20
-1557.21002262443
 30
0.0
 11
4217.756136991057
 21
-1379.65661343091
 31
0.0
  0
ARC
  5
33B
330
1F
100
AcDbEntity
  8
1-E
  6
Continuous
 62
     7
370
     9
100
AcDbCircle
 10
4349.227726488481
 20
-1449.002712839646
 30
0.0
 40
120.0
100
AcDbArc
 50
313.2198432128728
 51
40.68451301777836
  0
ARC
  5
33C
330
1F
100
AcDbEntity
  8
1-E
  6
Continuous
 62
     7
370
     9
100
AcDbCircle
 10
4433.527559339292
 20
-1352.22111719674
 30
0.0
 40
12.0
100
AcDbArc
 50
40.68451301777846
 51
180.0
  0
LINE
  5
33D
330
1F
100
AcDbEntity
  8
1-E
  6
Continuous
 62
     7
370
     9
100
AcDbLine
 10
4421.527559339289
 20
-1543.451632801246
 30
0.0
 11
4421.527559339289
 21
-1352.22111719674
 31
0.0
  0
ARC
  5
33E
330
1F
100
AcDbEntity
  8
1-E
  6
Continuous
 62
     7
370
     9
100
AcDbCircle
 10
4433.527559339292
 20
-1543.451632801246
 30
0.0
 40
12.0
100
AcDbArc
 50
180.0
 51
313.2198432128728
  0
LINE
  5
33F
330
1F
100
AcDbEntity
  8
1-E
  6
Continuous
 62
     7
370
     9
100
AcDbLine
 10
4466.205314856289
 20
-1371.825375023623
 30
0.0
 11
4442.62728617853
 21
-1344.398395710504
 31
0.0
  0
LINE
  5
340
330
1F
100
AcDbEntity
  8
1-E
  6
Continuous
 62
     7
370
     9
100
AcDbLine
 10
4457.383989840278
 20
-1537.500370476492
 30
0.0
 11
4441.745153676926
 21
-1552.196410860294
 31
0.0
  0
ARC
  5
341
330
1F
100
AcDbEntity
  8
1-E
  6
Continuous
 62
     7
370
     9
100
AcDbCircle
 10
4375.208046463903
 20
-1450.052589885998
 30
0.0
 40
120.0
100
AcDbArc
 50
313.2198432128728
 51
40.68451301777836
  0
LINE
  5
342
330
1F
100
AcDbEntity
  8
1-E
  6
Continuous
 62
     7
370
     9
100
AcDbLine
 10
4440.22499488086
 20
-1370.77549797727
 30
0.0
 11
4421.860670381189
 21
-1349.41332410618
 31
0.0
  0
LINE
  5
343
330
1F
100
AcDbEntity
  8
1-E
  6
Continuous
 62
     7
370
     9
100
AcDbLine
 10
4431.40366986485
 20
-1536.45049343014
 30
0.0
 11
4421.713587207938
 21
-1545.556404161662
 31
0.0
  0
LINE
  5
344
330
1F
100
AcDbEntity
  8
1-E
  6
Continuous
 62
     7
370
     9
100
AcDbLine
 10
4073.660332757041
 20
-1850.61906860391
 30
0.0
 11
4290.515213038039
 21
-1810.768035783229
 31
0.0
  0
LINE
  5
345
330
1F
100
AcDbEntity
  8
1-E
  6
Continuous
 62
     7
370
     9
100
AcDbLine
 10
4055.852483741988
 20
-1868.591512982475
 30
0.0
 11
4318.044469647813
 21
-1822.359984140452
 31
0.0
  0
LINE
  5
346
330
1F
100
AcDbEntity
  8
1-E
  6
Continuous
 62
     7
370
     9
100
AcDbLine
 10
4246.435233981416
 20
-1694.297707548205
 30
0.0
 11
4246.435233981416
 21
-1817.287323205819
 31
0.0
  0
LINE
  5
347
330
1F
100
AcDbEntity
  8
1-E
  6
Continuous
 62
     7
370
     9
100
AcDbLine
 10
4401.461281371097
 20
-1759.593412700246
 30
0.0
 11
4246.42889012343
 21
-1694.312773323958
 31
0.0
  0
LINE
  5
348
330
1F
100
AcDbEntity
  8
1-E
  6
Continuous
 62
     7
370
     9
100
AcDbLine
 10
4401.461281371097
 20
-1857.484920034191
 30
0.0
 11
4246.435233981416
 21
-1792.20695191326
 31
0.0
  0
LINE
  5
349
330
1F
100
AcDbEntity
  8
1-E
  6
Continuous
 62
     7
370
     9
100
AcDbLine
 10
4443.103573540094
 20
-1731.944596576374
 30
0.0
 11
4443.103573540094
 21
-1829.836103910319
 31
0.0
  0
ARC
  5
34A
330
1F
100
AcDbEntity
  8
1-E
  6
Continuous
 62
     7
370
     9
100
AcDbCircle
 10
4413.103573540094
 20
-1829.836103910319
 30
0.0
 40
30.0
100
AcDbArc
 50
247.1651394203828
 51
0.0
  0
LINE
  5
34B
330
1F
100
AcDbEntity
  8
1-E
  6
Continuous
 62
     7
370
     9
100
AcDbLine
 10
4443.103573540094
 20
-1766.178291736439
 30
0.0
 11
4585.882510269894
 21
-1739.266535432834
 31
0.0
  0
LINE
  5
34C
330
1F
100
AcDbEntity
  8
1-E
  6
Continuous
 62
     7
370
     9
100
AcDbLine
 10
4609.619134969198
 20
-1752.609102199169
 30
0.0
 11
4443.103573540094
 21
-1784.507279762676
 31
0.0
  0
LINE
  5
34D
330
1F
100
AcDbEntity
  8
1-E
  6
Continuous
 62
     7
370
     9
100
AcDbLine
 10
4443.103573540094
 20
-1800.308686315391
 30
0.0
 11
4627.426983984245
 21
-1767.807490534108
 31
0.0
  0
LINE
  5
34E
330
1F
100
AcDbEntity
  8
1-E
  6
Continuous
 62
     7
370
     9
100
AcDbLine
 10
4316.198472693914
 20
-1667.237946285246
 30
0.0
 11
4294.566568105803
 21
-1671.765702990243
 31
0.0
  0
LINE
  5
34F
330
1F
100
AcDbEntity
  8
1-E
  6
Continuous
 62
     7
370
     9
100
AcDbLine
 10
4387.962074096989
 20
-1652.217164083475
 30
0.0
 11
4366.330169508878
 21
-1656.744920788472
 31
0.0
  0
LINE
  5
350
330
1F
100
AcDbEntity
  8
1-E
  6
Continuous
 62
     7
370
     9
100
AcDbLine
 10
4316.198472693914
 20
-1640.067661174643
 30
0.0
 11
4316.198472693914
 21
-1667.237946285246
 31
0.0
  0
ARC
  5
351
330
1F
100
AcDbEntity
  8
1-E
  6
Continuous
 62
     7
370
     9
100
AcDbCircle
 10
4340.19847269392
 20
-1640.067661174643
 30
0.0
 40
24.0
100
AcDbArc
 50
101.82186584
 51
180.0
  0
LINE
  5
352
330
1F
100
AcDbEntity
  8
1-E
  6
Continuous
 62
     7
370
     9
100
AcDbLine
 10
4337.413299037229
 20
-1616.130534802383
 30
0.0
 11
4335.281602222271
 21
-1616.576718563394
 31
0.0
  0
LINE
  5
353
330
1F
100
AcDbEntity
  8
1-E
  6
Continuous
 62
     7
370
     9
100
AcDbLine
 10
4366.330169508878
 20
-1639.621477413633
 30
0.0
 11
4366.330169508878
 21
-1656.744920788472
 31
0.0
  0
ARC
  5
354
330
1F
100
AcDbEntity
  8
1-E
  6
Continuous
 62
     7
370
     9
100
AcDbCircle
 10
4342.330169508878
 20
-1639.621477413633
 30
0.0
 40
24.0
100
AcDbArc
 50
0.0
 51
101.82186584
  0
LINE
  5
355
330
1F
100
AcDbEntity
  8
1-E
  6
Continuous
 62
     7
370
     9
100
AcDbLine
 10
4326.860959096531
 20
-1654.947826952904
 30
0.0
 11
4326.860959096531
 21
-1673.967026530325
 31
0.0
  0
ARC
  5
356
330
1F
100
AcDbEntity
  8
1-E
  6
Continuous
 62
     7
370
     9
100
AcDbCircle
 10
4343.660959096529
 20
-1654.947826952904
 30
0.0
 40
16.8
100
AcDbArc
 50
101.82186584
 51
180.0
  0
LINE
  5
357
330
1F
100
AcDbEntity
  8
1-E
  6
Continuous
 62
     7
370
     9
100
AcDbLine
 10
4341.71133753685
 20
-1638.191838492321
 30
0.0
 11
4340.219149766375
 21
-1638.50416712503
 31
0.0
  0
LINE
  5
358
330
1F
100
AcDbEntity
  8
1-E
  6
Continuous
 62
     7
370
     9
100
AcDbLine
 10
4361.953146866996
 20
-1654.635498320197
 30
0.0
 11
4361.953146866996
 21
-1666.621908682584
 31
0.0
  0
ARC
  5
359
330
1F
100
AcDbEntity
  8
1-E
  6
Continuous
 62
     7
370
     9
100
AcDbCircle
 10
4345.153146866997
 20
-1654.635498320197
 30
0.0
 40
16.8
100
AcDbArc
 50
0.0
 51
101.82186584
  0
LINE
  5
35A
330
1F
100
AcDbEntity
  8
1-E
  6
Continuous
 62
     7
370
     9
100
AcDbLine
 10
4377.095480078679
 20
-1663.452478989086
 30
0.0
 11
4361.953146866996
 21
-1666.621908682584
 31
0.0
  0
LINE
  5
35B
330
1F
100
AcDbEntity
  8
1-E
  6
Continuous
 62
     7
370
     9
100
AcDbLine
 10
4326.860959096531
 20
-1673.967026530325
 30
0.0
 11
4311.718625884847
 21
-1677.136456223823
 31
0.0
  0
LINE
  5
35C
330
1F
100
AcDbEntity
  8
1-E
  6
Continuous
 62
     7
370
     9
100
AcDbLine
 10
3825.261717925163
 20
-1945.672652286644
 30
0.0
 11
3842.431771318437
 21
-1912.930208642927
 31
0.0
  0
ARC
  5
35D
330
1F
100
AcDbEntity
  8
1-E
  6
Continuous
 62
     7
370
     9
100
AcDbCircle
 10
3842.942789042491
 20
-1913.244630152529
 30
0.0
 40
0.6000000000000001
100
AcDbArc
 50
99.56556047057619
 51
260.070167268476
  0
LINE
  5
35E
330
1F
100
AcDbEntity
  8
1-E
  6
Continuous
 62
     7
370
     9
100
AcDbLine
 10
4620.726372232548
 20
-1885.355684413273
 30
0.0
 11
4411.360655618872
 21
-1886.027420899774
 31
0.0
  0
LINE
  5
35F
330
1F
100
AcDbEntity
  8
1-E
  6
Continuous
 62
     7
370
     9
100
AcDbLine
 10
4620.829155892529
 20
-1886.547143531077
 30
0.0
 11
4178.421513059128
 21
-1961.988344539772
 31
0.0
  0
ARC
  5
360
330
1F
100
AcDbEntity
  8
1-E
  6
Continuous
 62
     7
370
     9
100
AcDbCircle
 10
4620.728297284195
 20
-1885.955681325078
 30
0.0
 40
0.6000000000000001
100
AcDbArc
 50
279.6772325660855
 51
90.18382920651953
  0
LINE
  5
361
330
1F
100
AcDbEntity
  8
1-E
  6
Continuous
 62
     7
370
     9
100
AcDbLine
 10
4647.420380139583
 20
-1916.475953291091
 30
0.0
 11
4621.148935567633
 21
-1885.525489053478
 31
0.0
  0
LINE
  5
362
330
1F
100
AcDbEntity
  8
1-E
  6
Continuous
 62
     7
370
     9
100
AcDbLine
 10
4609.619134969198
 20
-1752.609102199169
 30
0.0
 11
4585.882510269894
 21
-1739.266535432834
 31
0.0
  0
LINE
  5
363
330
1F
100
AcDbEntity
  8
1-E
  6
Continuous
 62
    40
370
    15
100
AcDbLine
 10
4627.426983984245
 20
-1750.244815701179
 30
0.0
 11
4982.996834655487
 21
-1687.332990581657
 31
0.0
  0
MTEXT
  5
364
330
1F
100
AcDbEntity
  8
1-E
  6
Continuous
 62
     7
370
     9
100
AcDbMText
 10
1601.230592934078
 20
-1174.460479413659
 30
0.0
 40
45.71999999999999
 41
300.0
 46
0.0
 71
     7
 72
     1
  1
{\fＭＳ ゴシック|b0|i0|c128|p49;枠センター}
 73
     1
 44
1.0
  0
MTEXT
  5
365
330
1F
100
AcDbEntity
  8
1-E
  6
Continuous
 62
     7
370
   211
100
AcDbMText
 10
-381.5741798001014
 20
-1253.431408529241
 30
0.0
 40
91.43999999999967
 41
119.9999999999996
 46
0.0
 71
     7
 72
     1
  1
{\fＭＳ ゴシック|b0|i0|c128|p49;77}
 73
     1
 44
1.0
  0
MTEXT
  5
366
330
1F
100
AcDbEntity
  8
1-E
  6
Continuous
 62
     7
370
     9
100
AcDbMText
 10
2361.553481655533
 20
-1370.808660433474
 30
0.0
 40
45.71999999999999
 41
600.0
 46
0.0
 71
     7
 72
     1
  1
{\fＭＳ ゴシック|b0|i0|c128|p49;取り付けビス(同梱品)}
 73
     1
 44
1.0
  0
MTEXT
  5
367
330
1F
100
AcDbEntity
  8
1-E
  6
Continuous
 62
     7
370
     9
100
AcDbMText
 10
4659.92479117072
 20
-1898.686966460478
 30
0.0
 40
45.72000000000021
 41
180.0000000000009
 46
0.0
 71
     7
 72
     1
  1
{\fＭＳ ゴシック|b0|i0|c128|p49;ガイド}
 73
     1
 44
1.0
  0
MTEXT
  5
368
330
1F
100
AcDbEntity
  8
1-E
  6
Continuous
 62
     7
370
   211
100
AcDbMText
 10
1517.445079630909
 20
-1913.887492153458
 30
0.0
 40
54.86400000000013
 41
180.0000000000004
 46
0.0
 71
     7
 72
     1
  1
{\fＭＳ ゴシック|b0|i0|c128|p49;7.5㎜}
 73
     1
 44
1.0
  0
MTEXT
  5
369
330
1F
100
AcDbEntity
  8
1-E
  6
Continuous
 62
     7
370
     9
100
AcDbMText
 10
4528.352855724452
 20
-2118.1643481579
 30
0.0
 40
45.71999999999998
 41
600.0
 46
0.0
 71
     7
 72
     1
  1
{\fＭＳ ゴシック|b0|i0|c128|p49;ストライクとガイドの}
 73
     1
 44
1.0
  0
MTEXT
  5
36A
330
1F
100
AcDbEntity
  8
1-E
  6
Continuous
 62
     7
370
     9
100
AcDbMText
 10
3898.423666806406
 20
-2147.451989211488
 30
0.0
 40
45.71999999999999
 41
360.0
 46
0.0
 71
     7
 72
     1
  1
{\fＭＳ ゴシック|b0|i0|c128|p49;枠の前面より}
 73
     1
 44
1.0
  0
MTEXT
  5
36B
330
1F
100
AcDbEntity
  8
1-E
  6
Continuous
 62
     7
370
     9
100
AcDbMText
 10
4528.352855724453
 20
-2186.19287377409
 30
0.0
 40
45.71999999999974
 41
299.9999999999983
 46
0.0
 71
     7
 72
     1
  1
{\fＭＳ ゴシック|b0|i0|c128|p49;位置決め溝}
 73
     1
 44
1.0
  0
MTEXT
  5
36C
330
1F
100
AcDbEntity
  8
1-E
  6
Continuous
 62
     7
370
     9
100
AcDbMText
 10
3898.423666806408
 20
-2221.968393922911
 30
0.0
 40
45.72
 41
300.0
 46
0.0
 71
     7
 72
     1
  1
{\fＭＳ ゴシック|b0|i0|c128|p49;38.5㎜後ろ}
 73
     1
 44
1.0
  0
MTEXT
  5
36D
330
1F
100
AcDbEntity
  8
1-E
  6
Continuous
 62
     7
370
   211
100
AcDbMText
 10
4397.185445776109
 20
-2412.399543265406
 30
0.0
 40
57.15
 41
150.0
 46
0.0
 71
     7
 72
     1
  1
{\fＭＳ ゴシック|b0|i0|c128|p49;16.5}
 73
     1
 44
1.0
  0
MTEXT
  5
36E
330
1F
100
AcDbEntity
  8
1-E
  6
Continuous
 62
     7
370
     9
100
AcDbMText
 10
3489.897763463101
 20
-2424.645553862795
 30
0.0
 40
57.15
 41
225.0
 46
0.0
 71
     7
 72
     1
  1
{\fＭＳ ゴシック|b0|i0|c128|p49;平面図}
 73
     1
 44
1.0
  0
MTEXT
  5
36F
330
1F
100
AcDbEntity
  8
1-E
  6
Continuous
 62
     7
370
   211
100
AcDbMText
 10
4260.289633204231
 20
-2511.399543265406
 30
0.0
 40
57.15
 41
150.0
 46
0.0
 71
     7
 72
     1
  1
{\fＭＳ ゴシック|b0|i0|c128|p49;10.5}
 73
     1
 44
1.0
  0
MTEXT
  5
370
330
1F
100
AcDbEntity
  8
1-E
  6
Continuous
 62
     7
370
   211
100
AcDbMText
 10
4480.234278429387
 20
-2511.399543265406
 30
0.0
 40
57.15
 41
37.5
 46
0.0
 71
     7
 72
     1
  1
{\fＭＳ ゴシック|b0|i0|c128|p49;6}
 73
     1
 44
1.0
  0
ELLIPSE
  5
371
330
1F
100
AcDbEntity
  8
1-E
  6
Continuous
 62
    40
370
    15
100
AcDbEllipse
 10
1819.408319494293
 20
-2133.891613351958
 30
0.0
 11
346.4597254428591
 21
193.9218368202639
 31
0.0
210
0.0
220
0.0
230
1.0
 40
0.6
 41
0.7737998296751358
 42
2.29283299576993
  0
LINE
  5
372
330
1F
100
AcDbEntity
  8
1-E
  6
Continuous
 62
    40
370
    15
100
AcDbLine
 10
1385.564731983517
 20
-1284.787333010546
 30
0.0
 11
1385.564731983517
 21
-2166.505683179793
 31
0.0
  0
LINE
  5
373
330
1F
100
AcDbEntity
  8
1-E
  6
JWW_HOJO
 62
   120
370
     5
100
AcDbLine
 10
794.0690202734617
 20
-580.4959363738208
 30
0.0
 11
2862.679997713453
 21
-580.4959363738208
 31
0.0
  0
LINE
  5
374
330
1F
100
AcDbEntity
  8
1-E
  6
JWW_HOJO
 62
   120
370
     5
100
AcDbLine
 10
794.0690202734617
 20
-702.8959363738203
 30
0.0
 11
2862.679997713453
 21
-702.8959363738203
 31
0.0
  0
LINE
  5
375
330
1F
100
AcDbEntity
  8
1-E
  6
JWW_HOJO
 62
   120
370
     5
100
AcDbLine
 10
2862.679997713453
 20
-580.4959363738208
 30
0.0
 11
2862.679997713453
 21
-825.2959363738198
 31
0.0
  0
LINE
  5
376
330
1F
100
AcDbEntity
  8
1-E
  6
JWW_HOJO
 62
   120
370
     5
100
AcDbLine
 10
794.0690202734617
 20
-580.4959363738208
 30
0.0
 11
794.0690202734617
 21
-825.2959363738198
 31
0.0
  0
LINE
  5
377
330
1F
100
AcDbEntity
  8
1-E
  6
JWW_HOJO
 62
   120
370
     5
100
AcDbLine
 10
2862.679997713453
 20
-825.2959363738198
 30
0.0
 11
794.0690202734617
 21
-825.2959363738198
 31
0.0
  0
LINE
  5
378
330
1F
100
AcDbEntity
  8
1-E
  6
Continuous
 62
    40
370
    15
100
AcDbLine
 10
1503.021009748245
 20
-1224.360575024826
 30
0.0
 11
1503.021009748245
 21
-2106.048397265117
 31
0.0
  0
LWPOLYLINE
  5
379
330
1F
100
AcDbEntity
  8
1-E
  6
Continuous
 62
   120
370
     5
100
AcDbPolyline
 90
        4
 70
     1
 43
3.0
 10
2834.768878495353
 20
-2395.18727072314
 42
0.4142135623731
 10
2833.268878495353
 20
-2393.687270723141
 42
0.4142135623731
 10
2831.768878495353
 20
-2395.18727072314
 42
0.4142135623731
 10
2833.268878495353
 20
-2396.68727072314
 42
0.4142135623731
  0
LINE
  5
37A
330
1F
100
AcDbEntity
  8
1-E
  6
Continuous
 62
   120
370
     5
100
AcDbLine
 10
2833.268878495353
 20
-2395.18727072314
 30
0.0
 11
2859.293473159299
 21
-2379.255087503023
 31
0.0
  0
LWPOLYLINE
  5
37B
330
1F
100
AcDbEntity
  8
1-E
  6
Continuous
 62
   120
370
     5
100
AcDbPolyline
 90
        4
 70
     1
 43
3.0
 10
2860.793473159298
 20
-2379.255087503023
 42
0.4142135623731
 10
2859.293473159299
 20
-2377.755087503023
 42
0.4142135623731
 10
2857.793473159299
 20
-2379.255087503023
 42
0.4142135623731
 10
2859.293473159299
 20
-2380.755087503022
 42
0.4142135623731
  0
MTEXT
  5
37C
330
1F
100
AcDbEntity
  8
1-E
  6
Continuous
 62
     7
370
   211
100
AcDbMText
 10
2722.971350161078
 20
-2529.419454051688
 30
0.0
 40
68.58
 41
135.0
 46
0.0
 71
     7
 72
     1
  1
{\fＭＳ ゴシック|b0|i0|c128|p49;1㎜}
 73
     1
 44
1.0
  0
LINE
  5
37D
330
1F
100
AcDbEntity
  8
1-E
  6
Continuous
 62
    40
370
    15
100
AcDbLine
 10
1299.425263023365
 20
-2098.032665521891
 30
0.0
 11
1299.425263023365
 21
-1225.774748465857
 31
0.0
  0
LINE
  5
37E
330
1F
100
AcDbEntity
  8
1-E
  6
Continuous
 62
    40
370
    15
100
AcDbLine
 10
1186.417097790613
 20
-2156.199807318432
 30
0.0
 11
1299.425180169176
 21
-2098.032504551853
 31
0.0
  0
LINE
  5
37F
330
1F
100
AcDbEntity
  8
1-E
  6
Continuous
 62
    40
370
    15
100
AcDbLine
 10
1186.417097790613
 20
-2156.199807318432
 30
0.0
 11
1186.417097790613
 21
-1285.519036158927
 31
0.0
  0
LINE
  5
380
330
1F
100
AcDbEntity
  8
1-E
  6
Continuous
 62
    40
370
    15
100
AcDbLine
 10
1186.417097790613
 20
-2156.199807318432
 30
0.0
 11
996.1751066061302
 21
-1962.011588180219
 31
0.0
  0
LINE
  5
381
330
1F
100
AcDbEntity
  8
1-E
  6
Continuous
 62
    40
370
    15
100
AcDbLine
 10
996.1751066061302
 20
-1158.04967286754
 30
0.0
 11
996.1751066061302
 21
-1962.011588180219
 31
0.0
  0
LINE
  5
382
330
1F
100
AcDbEntity
  8
1-E
  6
Continuous
 62
    40
370
    15
100
AcDbLine
 10
1360.75088925495
 20
-2160.630381574489
 30
0.0
 11
1299.425263023365
 21
-2098.032665521891
 31
0.0
  0
LINE
  5
383
330
1F
100
AcDbEntity
  8
1-E
  6
Continuous
 62
    40
370
    15
100
AcDbLine
 10
1385.564731983517
 20
-2166.505683179793
 30
0.0
 11
1360.75088925495
 21
-2160.630381574489
 31
0.0
  0
LINE
  5
384
330
1F
100
AcDbEntity
  8
1-E
  6
Continuous
 62
    40
370
    15
100
AcDbLine
 10
1360.75088925495
 20
-1278.422490455349
 30
0.0
 11
1360.75088925495
 21
-2160.630381574489
 31
0.0
  0
MTEXT
  5
385
330
1F
100
AcDbEntity
  8
1-E
  6
Continuous
 62
     7
370
   211
100
AcDbMText
 10
4002.921032122526
 20
-2796.062980792846
 30
0.0
 40
57.15
 41
150.0
 46
0.0
 71
     7
 72
     1
  1
{\fＭＳ ゴシック|b0|i0|c128|p49;18.5}
 11
6.123031769111886E-17
 21
1.0
 31
0.0
 73
     1
 44
1.0
  0
MTEXT
  5
386
330
1F
100
AcDbEntity
  8
1-E
  6
Continuous
 62
     7
370
   211
100
AcDbMText
 10
3903.79926012702
 20
-2829.751757596585
 30
0.0
 40
57.15
 41
150.0
 46
0.0
 71
     7
 72
     1
  1
{\fＭＳ ゴシック|b0|i0|c128|p49;38.5}
 11
6.123031769111886E-17
 21
1.0
 31
0.0
 73
     1
 44
1.0
  0
LINE
  5
387
330
1F
100
AcDbEntity
  8
1-E
  6
Continuous
 62
     7
370
     9
100
AcDbLine
 10
2769.985497518592
 20
-1327.082432765948
 30
0.0
 11
2768.531190286469
 21
-1327.835767061742
 31
0.0
  0
LINE
  5
388
330
1F
100
AcDbEntity
  8
1-E
  6
Continuous
 62
   120
370
     5
100
AcDbLine
 10
2859.293473159299
 20
-2379.255087503023
 30
0.0
 11
2710.742283976584
 21
-2251.023645054998
 31
0.0
  0
LINE
  5
389
330
1F
100
AcDbEntity
  8
1-E
  6
Continuous
 62
   120
370
     5
100
AcDbLine
 10
2833.268878495353
 20
-2395.18727072314
 30
0.0
 11
2683.527300582412
 21
-2265.928268248227
 31
0.0
  0
LINE
  5
38A
330
1F
100
AcDbEntity
  8
1-E
  6
JWW_DASHED1
 62
     7
370
     9
100
AcDbLine
 10
2121.239238166056
 20
-1780.552784379159
 30
0.0
 11
2683.527305190045
 21
-2265.92826291046
 31
0.0
  0
LINE
  5
38B
330
1F
100
AcDbEntity
  8
1-E
  6
Continuous
 62
    40
370
    15
100
AcDbLine
 10
2121.239238166056
 20
-1780.552784379159
 30
0.0
 11
2121.239238166056
 21
-1252.128395317655
 31
0.0
  0
LINE
  5
38C
330
1F
100
AcDbEntity
  8
1-E
  6
Continuous
 62
    40
370
    15
100
AcDbLine
 10
1385.56485900843
 20
-2166.505929953677
 30
0.0
 11
1503.020156963353
 21
-2106.046740542549
 31
0.0
  0
LINE
  5
38D
330
1F
100
AcDbEntity
  8
1-E
  6
Continuous
 62
    40
370
    15
100
AcDbLine
 10
1986.067301255543
 20
-1092.496527500866
 30
0.0
 11
1986.067301255543
 21
-1849.904799565656
 31
0.0
  0
LINE
  5
38E
330
1F
100
AcDbEntity
  8
1-E
  6
Continuous
 62
    40
370
    15
100
AcDbLine
 10
1986.067301255543
 20
-1849.827044373422
 30
0.0
 11
2121.239238166056
 21
-1780.552784379159
 31
0.0
  0
LINE
  5
38F
330
1F
100
AcDbEntity
  8
1-E
  6
JWW_CENTER1
 62
   120
370
     5
100
AcDbLine
 10
1714.368937222903
 20
-1207.322557954671
 30
0.0
 11
1714.368937222903
 21
-1919.827239368512
 31
0.0
  0
LINE
  5
390
330
1F
100
AcDbEntity
  8
1-E
  6
JWW_CENTER1
 62
   120
370
     5
100
AcDbLine
 10
1714.368937222903
 20
-1919.827239368512
 30
0.0
 11
2410.622139761788
 21
-2520.843428721229
 31
0.0
  0
LINE
  5
391
330
1F
100
AcDbEntity
  8
1-E
  6
Continuous
 62
     7
370
     9
100
AcDbLine
 10
2346.892649525967
 20
-2324.872498098647
 30
0.0
 11
2092.522222852106
 21
-2481.3587740414
 31
0.0
  0
LINE
  5
392
330
1F
100
AcDbEntity
  8
1-E
  6
Continuous
 62
     7
370
     9
100
AcDbLine
 10
2092.52786288474
 20
-2475.367942034742
 30
0.0
 11
2092.522222852106
 21
-2481.3587740414
 31
0.0
  0
LINE
  5
393
330
1F
100
AcDbEntity
  8
1-E
  6
Continuous
 62
     7
370
     9
100
AcDbLine
 10
2346.892649525967
 20
-2318.872498098645
 30
0.0
 11
2092.52786288474
 21
-2475.367942034742
 31
0.0
  0
LINE
  5
394
330
1F
100
AcDbEntity
  8
1-E
  6
Continuous
 62
     7
370
     9
100
AcDbLine
 10
1693.929142530597
 20
-2070.473821289238
 30
0.0
 11
1693.929142530597
 21
-2076.473821289236
 31
0.0
  0
LINE
  5
395
330
1F
100
AcDbEntity
  8
1-E
  6
Continuous
 62
     7
370
     9
100
AcDbLine
 10
1933.491448947949
 20
-1925.702270149424
 30
0.0
 11
1693.929142530597
 21
-2070.473821289238
 31
0.0
  0
LINE
  5
396
330
1F
100
AcDbEntity
  8
1-E
  6
Continuous
 62
     7
370
     9
100
AcDbLine
 10
1777.222831284808
 20
-2175.278922676403
 30
0.0
 11
1777.222831284807
 21
-2181.278922676398
 31
0.0
  0
LINE
  5
397
330
1F
100
AcDbEntity
  8
1-E
  6
Continuous
 62
     7
370
     9
100
AcDbLine
 10
1776.265905068087
 20
-2173.951985984817
 30
0.0
 11
1776.265905068085
 21
-2179.951985984811
 31
0.0
  0
LINE
  5
398
330
1F
100
AcDbEntity
  8
1-E
  6
Continuous
 62
     7
370
     9
100
AcDbLine
 10
1778.742655276074
 20
-2176.823848203316
 30
0.0
 11
1778.742655276072
 21
-2182.82384820331
 31
0.0
  0
LINE
  5
399
330
1F
100
AcDbEntity
  8
1-E
  6
Continuous
 62
     7
370
     9
100
AcDbLine
 10
1987.9304848909
 20
-2389.315554843811
 30
0.0
 11
1987.930484890896
 21
-2395.31555484381
 31
0.0
  0
LINE
  5
39A
330
1F
100
AcDbEntity
  8
1-E
  6
Continuous
 62
     7
370
     9
100
AcDbLine
 10
1991.134539944206
 20
-2391.899387009567
 30
0.0
 11
1991.134539944203
 21
-2397.899387009565
 31
0.0
  0
LINE
  5
39B
330
1F
100
AcDbEntity
  8
1-E
  6
Continuous
 62
     7
370
     9
100
AcDbLine
 10
1994.300839926007
 20
-2393.489782140744
 30
0.0
 11
1994.300839926004
 21
-2399.489782140741
 31
0.0
  0
LINE
  5
39C
330
1F
100
AcDbEntity
  8
1-E
  6
Continuous
 62
     7
370
     9
100
AcDbLine
 10
1997.983775170496
 20
-2394.47271355256
 30
0.0
 11
1997.983775170494
 21
-2400.472713552559
 31
0.0
  0
LINE
  5
39D
330
1F
100
AcDbEntity
  8
1-E
  6
Continuous
 62
     7
370
     9
100
AcDbLine
 10
2002.153263880874
 20
-2394.633565558194
 30
0.0
 11
2002.153263880871
 21
-2400.633565558193
 31
0.0
  0
LINE
  5
39E
330
1F
100
AcDbEntity
  8
1-E
  6
Continuous
 62
     7
370
     9
100
AcDbLine
 10
2005.952823859036
 20
-2393.921753379836
 30
0.0
 11
2005.952823859034
 21
-2399.921753379835
 31
0.0
  0
ARC
  5
39F
330
1F
100
AcDbEntity
  8
1-E
  6
Continuous
 62
     7
370
     9
100
AcDbCircle
 10
1781.565470596235
 20
-2177.138695169263
 30
0.0
 40
6.0
100
AcDbArc
 50
180.0
 51
224.5510943265451
  0
LINE
  5
3A0
330
1F
100
AcDbEntity
  8
1-E
  6
Continuous
 62
     7
370
     9
100
AcDbLine
 10
1775.565470596234
 20
-2171.138695169265
 30
0.0
 11
1775.565470596234
 21
-2177.138695169263
 31
0.0
  0
LINE
  5
3A1
330
1F
100
AcDbEntity
  8
1-E
  6
Continuous
 62
     7
370
     9
100
AcDbLine
 10
1693.929142530597
 20
-2076.473821289236
 30
0.0
 11
1780.707001549377
 21
-2164.622235053256
 31
0.0
  0
ARC
  5
3A2
330
1F
100
AcDbEntity
  8
1-E
  6
Continuous
 62
     7
370
     9
100
AcDbCircle
 10
1781.565470596235
 20
-2171.138695169265
 30
0.0
 40
6.0
100
AcDbArc
 50
121.6015005399993
 51
224.5510943265456
  0
LINE
  5
3A3
330
1F
100
AcDbEntity
  8
1-E
  6
Continuous
 62
     7
370
     9
100
AcDbLine
 10
1778.421421324374
 20
-2166.028415903305
 30
0.0
 11
1784.385649490095
 21
-2162.358982933848
 31
0.0
  0
LINE
  5
3A4
330
1F
100
AcDbEntity
  8
1-E
  6
Continuous
 62
     7
370
     9
100
AcDbLine
 10
1777.289719877287
 20
-2175.347965389792
 30
0.0
 11
1987.9304848909
 21
-2389.315554843811
 31
0.0
  0
LINE
  5
3A5
330
1F
100
AcDbEntity
  8
1-E
  6
Continuous
 62
     7
370
     9
100
AcDbLine
 10
1777.289719877287
 20
-2181.34796538979
 30
0.0
 11
1987.930484890896
 21
-2395.31555484381
 31
0.0
  0
LINE
  5
3A6
330
1F
100
AcDbEntity
  8
1-E
  6
Continuous
 62
     7
370
     9
100
AcDbLine
 10
2010.366240271042
 20
-2391.908672728408
 30
0.0
 11
2010.366240271042
 21
-2397.909555668738
 31
0.0
  0
LINE
  5
3A7
330
1F
100
AcDbEntity
  8
1-E
  6
Continuous
 62
     7
370
     9
100
AcDbLine
 10
2010.366240271045
 20
-2397.908672728403
 30
0.0
 11
2092.519604219079
 21
-2481.359552933117
 31
0.0
  0
ARC
  5
3A8
330
1F
100
AcDbEntity
  8
1-E
  6
Continuous
 62
     7
370
     9
100
AcDbCircle
 10
2000.75773704774
 20
-2382.68774418223
 30
0.0
 40
18.0
100
AcDbArc
 50
224.5510943265451
 51
302.2629554764407
  0
LINE
  5
3A9
330
1F
100
AcDbEntity
  8
1-E
  6
Continuous
 62
     7
370
     9
100
AcDbLine
 10
2010.366240271042
 20
-2391.908672728408
 30
0.0
 11
2092.52786288474
 21
-2475.367942034742
 31
0.0
  0
ARC
  5
3AA
330
1F
100
AcDbEntity
  8
1-E
  6
Continuous
 62
     7
370
     9
100
AcDbCircle
 10
2000.757737047744
 20
-2376.687744182229
 30
0.0
 40
18.0
100
AcDbArc
 50
224.5510943265456
 51
302.2629554764285
  0
LINE
  5
3AB
330
1F
100
AcDbEntity
  8
1-E
  6
Continuous
 62
     7
370
     9
100
AcDbLine
 10
1693.929142530597
 20
-2070.473821289238
 30
0.0
 11
1784.385649490095
 21
-2162.358982933848
 31
0.0
  0
LINE
  5
3AC
330
1F
100
AcDbEntity
  8
1-E
  6
Continuous
 62
    40
370
    15
100
AcDbLine
 10
1982.975943777755
 20
-1874.754954122121
 30
0.0
 11
1983.140352201865
 21
-1874.748451648324
 31
0.0
  0
LINE
  5
3AD
330
1F
100
AcDbEntity
  8
1-E
  6
Continuous
 62
     7
370
     9
100
AcDbLine
 10
2140.486520768917
 20
-1797.167313958118
 30
0.0
 11
1935.661492657601
 21
-1902.138083611375
 31
0.0
  0
LINE
  5
3AE
330
1F
100
AcDbEntity
  8
1-E
  6
Continuous
 62
     7
370
     9
100
AcDbLine
 10
2158.386146680326
 20
-1501.982494185293
 30
0.0
 11
2158.386146680326
 21
-1635.844700425557
 31
0.0
  0
LINE
  5
3AF
330
1F
100
AcDbEntity
  8
1-E
  6
Continuous
 62
     7
370
     9
100
AcDbLine
 10
2132.364009646161
 20
-1501.756840492978
 30
0.0
 11
2132.364009646161
 21
-1635.844700425557
 31
0.0
  0
ELLIPSE
  5
3B0
330
1F
100
AcDbEntity
  8
1-E
  6
Continuous
 62
     7
370
     9
100
AcDbEllipse
 10
2145.702930414078
 20
-1488.258944643518
 30
0.0
 11
26.15375705822504
 21
0.0
 31
0.0
210
0.0
220
0.0
230
1.0
 40
0.6
 41
3.230595867857267
 42
6.465060446500363
  0
LINE
  5
3B1
330
1F
100
AcDbEntity
  8
1-E
  6
Continuous
 62
     7
370
     9
100
AcDbLine
 10
2158.386146680326
 20
-1534.574434515329
 30
0.0
 11
2132.364009646161
 21
-1547.044783301833
 31
0.0
  0
LINE
  5
3B2
330
1F
100
AcDbEntity
  8
1-E
  6
Continuous
 62
     7
370
     9
100
AcDbLine
 10
2158.386146680326
 20
-1522.410819707061
 30
0.0
 11
2132.364009646161
 21
-1534.881168493564
 31
0.0
  0
LINE
  5
3B3
330
1F
100
AcDbEntity
  8
1-E
  6
Continuous
 62
     7
370
     9
100
AcDbLine
 10
2158.386146680326
 20
-1510.247204898791
 30
0.0
 11
2132.364009646161
 21
-1522.717553685294
 31
0.0
  0
LINE
  5
3B4
330
1F
100
AcDbEntity
  8
1-E
  6
Continuous
 62
     7
370
     9
100
AcDbLine
 10
2158.386146680326
 20
-1558.901664133634
 30
0.0
 11
2132.364009646161
 21
-1571.372012920138
 31
0.0
  0
LINE
  5
3B5
330
1F
100
AcDbEntity
  8
1-E
  6
Continuous
 62
     7
370
     9
100
AcDbLine
 10
2158.386146680326
 20
-1571.065278943671
 30
0.0
 11
2132.364009646161
 21
-1583.535627730173
 31
0.0
  0
LINE
  5
3B6
330
1F
100
AcDbEntity
  8
1-E
  6
Continuous
 62
     7
370
     9
100
AcDbLine
 10
2158.386146680326
 20
-1595.392508563743
 30
0.0
 11
2132.364009646161
 21
-1607.862857350243
 31
0.0
  0
LINE
  5
3B7
330
1F
100
AcDbEntity
  8
1-E
  6
Continuous
 62
     7
370
     9
100
AcDbLine
 10
2158.386146680326
 20
-1583.228893753706
 30
0.0
 11
2132.364009646161
 21
-1595.69924254021
 31
0.0
  0
LINE
  5
3B8
330
1F
100
AcDbEntity
  8
1-E
  6
Continuous
 62
     7
370
     9
100
AcDbLine
 10
2158.386146680326
 20
-1607.556123373778
 30
0.0
 11
2132.364009646161
 21
-1620.026472160281
 31
0.0
  0
LINE
  5
3B9
330
1F
100
AcDbEntity
  8
1-E
  6
Continuous
 62
     7
370
     9
100
AcDbLine
 10
2158.386146680326
 20
-1619.719738183815
 30
0.0
 11
2132.364009646161
 21
-1632.190086970317
 31
0.0
  0
LINE
  5
3BA
330
1F
100
AcDbEntity
  8
1-E
  6
Continuous
 62
     7
370
     9
100
AcDbLine
 10
2158.386146680326
 20
-1546.738049323599
 30
0.0
 11
2132.364009646161
 21
-1559.208398110103
 31
0.0
  0
LINE
  5
3BB
330
1F
100
AcDbEntity
  8
1-E
  6
Continuous
 62
     7
370
     9
100
AcDbLine
 10
2158.386146680326
 20
-1635.844700425557
 30
0.0
 11
2145.375078163244
 21
-1658.380532157903
 31
0.0
  0
LINE
  5
3BC
330
1F
100
AcDbEntity
  8
1-E
  6
Continuous
 62
     7
370
     9
100
AcDbLine
 10
2132.364009646161
 20
-1635.844700425557
 30
0.0
 11
2145.375078163244
 21
-1658.380532157903
 31
0.0
  0
LINE
  5
3BD
330
1F
100
AcDbEntity
  8
1-E
  6
Continuous
 62
     7
370
     9
100
AcDbLine
 10
2145.37507816303
 20
-1489.834131864113
 30
0.0
 11
2153.721008000041
 21
-1495.19937247362
 31
0.0
  0
LINE
  5
3BE
330
1F
100
AcDbEntity
  8
1-E
  6
Continuous
 62
     7
370
     9
100
AcDbLine
 10
2132.333405573268
 20
-1481.450199484982
 30
0.0
 11
2140.679335410279
 21
-1486.815440094489
 31
0.0
  0
LINE
  5
3BF
330
1F
100
AcDbEntity
  8
1-E
  6
Continuous
 62
     7
370
     9
100
AcDbLine
 10
2145.37507816303
 20
-1489.834131864113
 30
0.0
 11
2137.029148326018
 21
-1495.19937247362
 31
0.0
  0
LINE
  5
3C0
330
1F
100
AcDbEntity
  8
1-E
  6
Continuous
 62
     7
370
     9
100
AcDbLine
 10
2158.41675075279
 20
-1481.450199484982
 30
0.0
 11
2150.07082091578
 21
-1486.815440094489
 31
0.0
  0
LINE
  5
3C1
330
1F
100
AcDbEntity
  8
1-E
  6
Continuous
 62
     7
370
     9
100
AcDbLine
 10
2150.07082091578
 20
-1486.815440094489
 30
0.0
 11
2158.41675075279
 21
-1492.180680703996
 31
0.0
  0
LINE
  5
3C2
330
1F
100
AcDbEntity
  8
1-E
  6
Continuous
 62
     7
370
     9
100
AcDbLine
 10
2137.029148326018
 20
-1478.431507715358
 30
0.0
 11
2145.37507816303
 21
-1483.796748324864
 31
0.0
  0
LINE
  5
3C3
330
1F
100
AcDbEntity
  8
1-E
  6
Continuous
 62
     7
370
     9
100
AcDbLine
 10
2140.679335410279
 20
-1486.815440094489
 30
0.0
 11
2132.333405573268
 21
-1492.180680703996
 31
0.0
  0
LINE
  5
3C4
330
1F
100
AcDbEntity
  8
1-E
  6
Continuous
 62
     7
370
     9
100
AcDbLine
 10
2153.721008000041
 20
-1478.431507715358
 30
0.0
 11
2145.37507816303
 21
-1483.796748324864
 31
0.0
  0
LINE
  5
3C5
330
1F
100
AcDbEntity
  8
1-E
  6
Continuous
 62
     7
370
     9
100
AcDbLine
 10
2137.029148326018
 20
-1478.431507715358
 30
0.0
 11
2132.333405573268
 21
-1481.450199484982
 31
0.0
  0
LINE
  5
3C6
330
1F
100
AcDbEntity
  8
1-E
  6
Continuous
 62
     7
370
     9
100
AcDbLine
 10
2153.721008000041
 20
-1478.431507715358
 30
0.0
 11
2158.41675075279
 21
-1481.450199484982
 31
0.0
  0
LINE
  5
3C7
330
1F
100
AcDbEntity
  8
1-E
  6
Continuous
 62
     7
370
     9
100
AcDbLine
 10
2158.41675075279
 20
-1492.180680703996
 30
0.0
 11
2153.721008000041
 21
-1495.19937247362
 31
0.0
  0
LINE
  5
3C8
330
1F
100
AcDbEntity
  8
1-E
  6
Continuous
 62
     7
370
     9
100
AcDbLine
 10
2132.333405573268
 20
-1492.180680703996
 30
0.0
 11
2137.029148326018
 21
-1495.19937247362
 31
0.0
  0
ELLIPSE
  5
3C9
330
1F
100
AcDbEntity
  8
1-E
  6
Continuous
 62
     7
370
     9
100
AcDbEllipse
 10
2145.37507816303
 20
-1486.815440094489
 30
0.0
 11
26.15375705822504
 21
0.0
 31
0.0
210
0.0
220
0.0
230
1.0
 40
0.6
 41
0.0
 42
6.283185307179586
  0
LINE
  5
3CA
330
1F
100
AcDbEntity
  8
1-E
  6
Continuous
 62
     7
370
     9
100
AcDbLine
 10
2462.659659181464
 20
-1768.248533279883
 30
0.0
 11
2462.659659181464
 21
-1902.110739520147
 31
0.0
  0
LINE
  5
3CB
330
1F
100
AcDbEntity
  8
1-E
  6
Continuous
 62
     7
370
     9
100
AcDbLine
 10
2436.637522147301
 20
-1768.022879587569
 30
0.0
 11
2436.637522147301
 21
-1902.110739520147
 31
0.0
  0
ELLIPSE
  5
3CC
330
1F
100
AcDbEntity
  8
1-E
  6
Continuous
 62
     7
370
     9
100
AcDbEllipse
 10
2449.976442915215
 20
-1754.524983738108
 30
0.0
 11
26.15375705822504
 21
0.0
 31
0.0
210
0.0
220
0.0
230
1.0
 40
0.6
 41
3.230595867857267
 42
6.465060446500363
  0
LINE
  5
3CD
330
1F
100
AcDbEntity
  8
1-E
  6
Continuous
 62
     7
370
     9
100
AcDbLine
 10
2462.659659181464
 20
-1800.84047360992
 30
0.0
 11
2436.637522147301
 21
-1813.310822396423
 31
0.0
  0
LINE
  5
3CE
330
1F
100
AcDbEntity
  8
1-E
  6
Continuous
 62
     7
370
     9
100
AcDbLine
 10
2462.659659181464
 20
-1788.676858801651
 30
0.0
 11
2436.637522147301
 21
-1801.147207588155
 31
0.0
  0
LINE
  5
3CF
330
1F
100
AcDbEntity
  8
1-E
  6
Continuous
 62
     7
370
     9
100
AcDbLine
 10
2462.659659181464
 20
-1776.513243993381
 30
0.0
 11
2436.637522147301
 21
-1788.983592779885
 31
0.0
  0
LINE
  5
3D0
330
1F
100
AcDbEntity
  8
1-E
  6
Continuous
 62
     7
370
     9
100
AcDbLine
 10
2462.659659181464
 20
-1825.167703228225
 30
0.0
 11
2436.637522147301
 21
-1837.638052014728
 31
0.0
  0
LINE
  5
3D1
330
1F
100
AcDbEntity
  8
1-E
  6
Continuous
 62
     7
370
     9
100
AcDbLine
 10
2462.659659181464
 20
-1837.331318038262
 30
0.0
 11
2436.637522147301
 21
-1849.801666824764
 31
0.0
  0
LINE
  5
3D2
330
1F
100
AcDbEntity
  8
1-E
  6
Continuous
 62
     7
370
     9
100
AcDbLine
 10
2462.659659181464
 20
-1861.658547658333
 30
0.0
 11
2436.637522147301
 21
-1874.128896444834
 31
0.0
  0
LINE
  5
3D3
330
1F
100
AcDbEntity
  8
1-E
  6
Continuous
 62
     7
370
     9
100
AcDbLine
 10
2462.659659181464
 20
-1849.494932848296
 30
0.0
 11
2436.637522147301
 21
-1861.9652816348
 31
0.0
  0
LINE
  5
3D4
330
1F
100
AcDbEntity
  8
1-E
  6
Continuous
 62
     7
370
     9
100
AcDbLine
 10
2462.659659181464
 20
-1873.822162468368
 30
0.0
 11
2436.637522147301
 21
-1886.292511254872
 31
0.0
  0
LINE
  5
3D5
330
1F
100
AcDbEntity
  8
1-E
  6
Continuous
 62
     7
370
     9
100
AcDbLine
 10
2462.659659181464
 20
-1885.985777278405
 30
0.0
 11
2436.637522147301
 21
-1898.456126064907
 31
0.0
  0
LINE
  5
3D6
330
1F
100
AcDbEntity
  8
1-E
  6
Continuous
 62
     7
370
     9
100
AcDbLine
 10
2462.659659181464
 20
-1813.00408841819
 30
0.0
 11
2436.637522147301
 21
-1825.474437204693
 31
0.0
  0
LINE
  5
3D7
330
1F
100
AcDbEntity
  8
1-E
  6
Continuous
 62
     7
370
     9
100
AcDbLine
 10
2462.659659181464
 20
-1902.110739520147
 30
0.0
 11
2449.648590664382
 21
-1924.646571252494
 31
0.0
  0
LINE
  5
3D8
330
1F
100
AcDbEntity
  8
1-E
  6
Continuous
 62
     7
370
     9
100
AcDbLine
 10
2436.637522147301
 20
-1902.110739520147
 30
0.0
 11
2449.648590664382
 21
-1924.646571252494
 31
0.0
  0
LINE
  5
3D9
330
1F
100
AcDbEntity
  8
1-E
  6
Continuous
 62
     7
370
     9
100
AcDbLine
 10
2449.64859066417
 20
-1756.100170958704
 30
0.0
 11
2457.99452050118
 21
-1761.465411568211
 31
0.0
  0
LINE
  5
3DA
330
1F
100
AcDbEntity
  8
1-E
  6
Continuous
 62
     7
370
     9
100
AcDbLine
 10
2436.606918074406
 20
-1747.716238579573
 30
0.0
 11
2444.952847911418
 21
-1753.081479189079
 31
0.0
  0
LINE
  5
3DB
330
1F
100
AcDbEntity
  8
1-E
  6
Continuous
 62
     7
370
     9
100
AcDbLine
 10
2449.64859066417
 20
-1756.100170958704
 30
0.0
 11
2441.302660827155
 21
-1761.465411568211
 31
0.0
  0
LINE
  5
3DC
330
1F
100
AcDbEntity
  8
1-E
  6
Continuous
 62
     7
370
     9
100
AcDbLine
 10
2462.690263253929
 20
-1747.716238579573
 30
0.0
 11
2454.344333416919
 21
-1753.081479189079
 31
0.0
  0
LINE
  5
3DD
330
1F
100
AcDbEntity
  8
1-E
  6
Continuous
 62
     7
370
     9
100
AcDbLine
 10
2454.344333416919
 20
-1753.081479189079
 30
0.0
 11
2462.690263253929
 21
-1758.446719798586
 31
0.0
  0
LINE
  5
3DE
330
1F
100
AcDbEntity
  8
1-E
  6
Continuous
 62
     7
370
     9
100
AcDbLine
 10
2441.302660827155
 20
-1744.697546809948
 30
0.0
 11
2449.64859066417
 21
-1750.062787419455
 31
0.0
  0
LINE
  5
3DF
330
1F
100
AcDbEntity
  8
1-E
  6
Continuous
 62
     7
370
     9
100
AcDbLine
 10
2444.952847911418
 20
-1753.081479189079
 30
0.0
 11
2436.606918074406
 21
-1758.446719798586
 31
0.0
  0
LINE
  5
3E0
330
1F
100
AcDbEntity
  8
1-E
  6
Continuous
 62
     7
370
     9
100
AcDbLine
 10
2457.99452050118
 20
-1744.697546809948
 30
0.0
 11
2449.64859066417
 21
-1750.062787419455
 31
0.0
  0
LINE
  5
3E1
330
1F
100
AcDbEntity
  8
1-E
  6
Continuous
 62
     7
370
     9
100
AcDbLine
 10
2441.302660827155
 20
-1744.697546809948
 30
0.0
 11
2436.606918074406
 21
-1747.716238579573
 31
0.0
  0
LINE
  5
3E2
330
1F
100
AcDbEntity
  8
1-E
  6
Continuous
 62
     7
370
     9
100
AcDbLine
 10
2457.99452050118
 20
-1744.697546809948
 30
0.0
 11
2462.690263253929
 21
-1747.716238579573
 31
0.0
  0
LINE
  5
3E3
330
1F
100
AcDbEntity
  8
1-E
  6
Continuous
 62
     7
370
     9
100
AcDbLine
 10
2462.690263253929
 20
-1758.446719798586
 30
0.0
 11
2457.99452050118
 21
-1761.465411568211
 31
0.0
  0
LINE
  5
3E4
330
1F
100
AcDbEntity
  8
1-E
  6
Continuous
 62
     7
370
     9
100
AcDbLine
 10
2436.606918074406
 20
-1758.446719798586
 30
0.0
 11
2441.302660827155
 21
-1761.465411568211
 31
0.0
  0
ELLIPSE
  5
3E5
330
1F
100
AcDbEntity
  8
1-E
  6
Continuous
 62
     7
370
     9
100
AcDbEllipse
 10
2449.64859066417
 20
-1753.081479189079
 30
0.0
 11
26.15375705822504
 21
0.0
 31
0.0
210
0.0
220
0.0
230
1.0
 40
0.6
 41
0.0
 42
6.283185307179586
  0
LINE
  5
3E6
330
1F
100
AcDbEntity
  8
1-E
  6
Continuous
 62
     7
370
     9
100
AcDbLine
 10
2145.375078163244
 20
-1883.754279495576
 30
0.0
 11
2145.375078163244
 21
-1663.029528826728
 31
0.0
  0
LINE
  5
3E7
330
1F
100
AcDbEntity
  8
1-E
  6
Continuous
 62
     7
370
     9
100
AcDbLine
 10
2449.648590664382
 20
-2150.020318590167
 30
0.0
 11
2449.648590664382
 21
-1929.295567921318
 31
0.0
  0
LINE
  5
3E8
330
1F
100
AcDbEntity
  8
1-E
  6
Continuous
 62
     7
370
     9
100
AcDbLine
 10
2303.754099449326
 20
-1984.172489586508
 30
0.0
 11
2320.445959123349
 21
-1994.902970805524
 31
0.0
  0
LINE
  5
3E9
330
1F
100
AcDbEntity
  8
1-E
  6
Continuous
 62
     7
370
     9
100
AcDbLine
 10
2277.670754269802
 20
-1967.404624828246
 30
0.0
 11
2294.362613943826
 21
-1978.13510604726
 31
0.0
  0
LINE
  5
3EA
330
1F
100
AcDbEntity
  8
1-E
  6
Continuous
 62
     7
370
     9
100
AcDbLine
 10
2303.754099449326
 20
-1984.172489586508
 30
0.0
 11
2287.062239775303
 21
-1994.902970805524
 31
0.0
  0
LINE
  5
3EB
330
1F
100
AcDbEntity
  8
1-E
  6
Continuous
 62
     7
370
     9
100
AcDbLine
 10
2329.837444628846
 20
-1967.404624828246
 30
0.0
 11
2313.145584954827
 21
-1978.13510604726
 31
0.0
  0
LINE
  5
3EC
330
1F
100
AcDbEntity
  8
1-E
  6
Continuous
 62
     7
370
     9
100
AcDbLine
 10
2313.145584954827
 20
-1978.13510604726
 30
0.0
 11
2329.837444628846
 21
-1988.865587266274
 31
0.0
  0
LINE
  5
3ED
330
1F
100
AcDbEntity
  8
1-E
  6
Continuous
 62
     7
370
     9
100
AcDbLine
 10
2287.062239775303
 20
-1961.367241288996
 30
0.0
 11
2303.754099449326
 21
-1972.097722508011
 31
0.0
  0
LINE
  5
3EE
330
1F
100
AcDbEntity
  8
1-E
  6
Continuous
 62
     7
370
     9
100
AcDbLine
 10
2294.362613943826
 20
-1978.13510604726
 30
0.0
 11
2277.670754269802
 21
-1988.865587266274
 31
0.0
  0
LINE
  5
3EF
330
1F
100
AcDbEntity
  8
1-E
  6
Continuous
 62
     7
370
     9
100
AcDbLine
 10
2320.445959123349
 20
-1961.367241288996
 30
0.0
 11
2303.754099449326
 21
-1972.097722508011
 31
0.0
  0
LINE
  5
3F0
330
1F
100
AcDbEntity
  8
1-E
  6
Continuous
 62
     7
370
     9
100
AcDbLine
 10
2287.062239775303
 20
-1961.367241288996
 30
0.0
 11
2277.670754269802
 21
-1967.404624828246
 31
0.0
  0
LINE
  5
3F1
330
1F
100
AcDbEntity
  8
1-E
  6
Continuous
 62
     7
370
     9
100
AcDbLine
 10
2320.445959123349
 20
-1961.367241288996
 30
0.0
 11
2329.837444628846
 21
-1967.404624828246
 31
0.0
  0
LINE
  5
3F2
330
1F
100
AcDbEntity
  8
1-E
  6
Continuous
 62
     7
370
     9
100
AcDbLine
 10
2329.837444628846
 20
-1988.865587266274
 30
0.0
 11
2320.445959123349
 21
-1994.902970805524
 31
0.0
  0
LINE
  5
3F3
330
1F
100
AcDbEntity
  8
1-E
  6
Continuous
 62
     7
370
     9
100
AcDbLine
 10
2277.670754269802
 20
-1988.865587266274
 30
0.0
 11
2287.062239775303
 21
-1994.902970805524
 31
0.0
  0
ARC
  5
3F4
330
1F
100
AcDbEntity
  8
1-E
  6
Continuous
 62
     7
370
     9
100
AcDbCircle
 10
2381.902328129737
 20
-2183.02104048313
 30
0.0
 40
12.0
100
AcDbArc
 50
117.3949267100002
 51
165.5224878140668
  0
LINE
  5
3F5
330
1F
100
AcDbEntity
  8
1-E
  6
Continuous
 62
     7
370
     9
100
AcDbLine
 10
2370.93232434221
 20
-2172.156986936792
 30
0.0
 11
2370.93232434221
 21
-2178.156986936793
 31
0.0
  0
LINE
  5
3F6
330
1F
100
AcDbEntity
  8
1-E
  6
Continuous
 62
     7
370
     9
100
AcDbLine
 10
2372.1331729279
 20
-2170.052281150045
 30
0.0
 11
2372.1331729279
 21
-2176.052281150047
 31
0.0
  0
LINE
  5
3F7
330
1F
100
AcDbEntity
  8
1-E
  6
Continuous
 62
     7
370
     9
100
AcDbLine
 10
2376.380874079883
 20
-2166.366766919184
 30
0.0
 11
2376.380874079883
 21
-2172.366766919185
 31
0.0
  0
LINE
  5
3F8
330
1F
100
AcDbEntity
  8
1-E
  6
Continuous
 62
     7
370
     9
100
AcDbLine
 10
2480.83390535599
 20
-2120.520973212475
 30
0.0
 11
2480.83390535599
 21
-2126.520973212479
 31
0.0
  0
LINE
  5
3F9
330
1F
100
AcDbEntity
  8
1-E
  6
Continuous
 62
     7
370
     9
100
AcDbLine
 10
2476.523640195182
 20
-2118.220113926594
 30
0.0
 11
2476.523640195182
 21
-2124.220113926595
 31
0.0
  0
LINE
  5
3FA
330
1F
100
AcDbEntity
  8
1-E
  6
Continuous
 62
     7
370
     9
100
AcDbLine
 10
2474.897491068727
 20
-2117.863483545194
 30
0.0
 11
2474.897491068727
 21
-2123.863483545196
 31
0.0
  0
LINE
  5
3FB
330
1F
100
AcDbEntity
  8
1-E
  6
Continuous
 62
     7
370
     9
100
AcDbLine
 10
2471.54512210034
 20
-2117.842274631881
 30
0.0
 11
2471.54512210034
 21
-2123.842274631883
 31
0.0
  0
LINE
  5
3FC
330
1F
100
AcDbEntity
  8
1-E
  6
Continuous
 62
     7
370
     9
100
AcDbLine
 10
2470.094096725965
 20
-2118.129603800916
 30
0.0
 11
2470.094096725965
 21
-2124.129603800917
 31
0.0
  0
LINE
  5
3FD
330
1F
100
AcDbEntity
  8
1-E
  6
Continuous
 62
     7
370
     9
100
AcDbLine
 10
2467.624679802716
 20
-2119.080719906336
 30
0.0
 11
2467.624679802716
 21
-2125.080719906336
 31
0.0
  0
ARC
  5
3FE
330
1F
100
AcDbEntity
  8
1-E
  6
Continuous
 62
     7
370
     9
100
AcDbCircle
 10
2484.029028603748
 20
-2144.815200133811
 30
0.0
 40
12.0
100
AcDbArc
 50
20.75540117989427
 51
50.15987174704777
  0
LINE
  5
3FF
330
1F
100
AcDbEntity
  8
1-E
  6
Continuous
 62
     7
370
     9
100
AcDbLine
 10
2467.624679802719
 20
-2125.080719906336
 30
0.0
 11
2376.380874079883
 21
-2172.366766919185
 31
0.0
  0
LINE
  5
400
330
1F
100
AcDbEntity
  8
1-E
  6
Continuous
 62
     7
370
     9
100
AcDbLine
 10
2480.83390535599
 20
-2126.520973212477
 30
0.0
 11
2491.716800107168
 21
-2135.601179876009
 31
0.0
  0
ARC
  5
401
330
1F
100
AcDbEntity
  8
1-E
  6
Continuous
 62
     7
370
     9
100
AcDbCircle
 10
2473.146133852572
 20
-2135.734993470282
 30
0.0
 40
12.0
100
AcDbArc
 50
50.15987174704691
 51
117.3949267100002
  0
LINE
  5
402
330
1F
100
AcDbEntity
  8
1-E
  6
Continuous
 62
     7
370
     9
100
AcDbLine
 10
2473.146133852572
 20
-2117.734993470282
 30
0.0
 11
2473.146133852572
 21
-2123.734993470283
 31
0.0
  0
ARC
  5
403
330
1F
100
AcDbEntity
  8
1-E
  6
Continuous
 62
     7
370
     9
100
AcDbCircle
 10
2077.6288156286
 20
-1916.755001388539
 30
0.0
 40
12.0
100
AcDbArc
 50
117.3949267100002
 51
165.5224878140668
  0
LINE
  5
404
330
1F
100
AcDbEntity
  8
1-E
  6
Continuous
 62
     7
370
     9
100
AcDbLine
 10
2066.658811841072
 20
-1905.890947842202
 30
0.0
 11
2066.658811841072
 21
-1911.890947842203
 31
0.0
  0
LINE
  5
405
330
1F
100
AcDbEntity
  8
1-E
  6
Continuous
 62
     7
370
     9
100
AcDbLine
 10
2067.859660426762
 20
-1903.786242055455
 30
0.0
 11
2067.859660426762
 21
-1909.786242055457
 31
0.0
  0
LINE
  5
406
330
1F
100
AcDbEntity
  8
1-E
  6
Continuous
 62
     7
370
     9
100
AcDbLine
 10
2072.107361578746
 20
-1900.100727824594
 30
0.0
 11
2072.107361578746
 21
-1906.100727824595
 31
0.0
  0
LINE
  5
407
330
1F
100
AcDbEntity
  8
1-E
  6
Continuous
 62
     7
370
     9
100
AcDbLine
 10
2176.560392854852
 20
-1854.254934117885
 30
0.0
 11
2176.560392854852
 21
-1860.254934117888
 31
0.0
  0
LINE
  5
408
330
1F
100
AcDbEntity
  8
1-E
  6
Continuous
 62
     7
370
     9
100
AcDbLine
 10
2172.250127694045
 20
-1851.954074832004
 30
0.0
 11
2172.250127694045
 21
-1857.954074832005
 31
0.0
  0
LINE
  5
409
330
1F
100
AcDbEntity
  8
1-E
  6
Continuous
 62
     7
370
     9
100
AcDbLine
 10
2170.623978567589
 20
-1851.597444450604
 30
0.0
 11
2170.623978567589
 21
-1857.597444450606
 31
0.0
  0
LINE
  5
40A
330
1F
100
AcDbEntity
  8
1-E
  6
Continuous
 62
     7
370
     9
100
AcDbLine
 10
2167.271609599202
 20
-1851.57623553729
 30
0.0
 11
2167.271609599202
 21
-1857.576235537291
 31
0.0
  0
LINE
  5
40B
330
1F
100
AcDbEntity
  8
1-E
  6
Continuous
 62
     7
370
     9
100
AcDbLine
 10
2165.820584224825
 20
-1851.863564706324
 30
0.0
 11
2165.820584224825
 21
-1857.863564706326
 31
0.0
  0
LINE
  5
40C
330
1F
100
AcDbEntity
  8
1-E
  6
Continuous
 62
     7
370
     9
100
AcDbLine
 10
2163.351167301579
 20
-1852.814680811746
 30
0.0
 11
2163.351167301579
 21
-1858.814680811745
 31
0.0
  0
ARC
  5
40D
330
1F
100
AcDbEntity
  8
1-E
  6
Continuous
 62
     7
370
     9
100
AcDbCircle
 10
2179.75551610261
 20
-1878.54916103922
 30
0.0
 40
12.0
100
AcDbArc
 50
20.75540117989427
 51
50.15987174704777
  0
LINE
  5
40E
330
1F
100
AcDbEntity
  8
1-E
  6
Continuous
 62
     7
370
     9
100
AcDbLine
 10
2163.351167301579
 20
-1858.814680811745
 30
0.0
 11
2072.107361578746
 21
-1906.100727824595
 31
0.0
  0
LINE
  5
40F
330
1F
100
AcDbEntity
  8
1-E
  6
Continuous
 62
     7
370
     9
100
AcDbLine
 10
2176.560392854852
 20
-1860.254934117886
 30
0.0
 11
2187.443287606029
 21
-1869.335140781418
 31
0.0
  0
ARC
  5
410
330
1F
100
AcDbEntity
  8
1-E
  6
Continuous
 62
     7
370
     9
100
AcDbCircle
 10
2168.872621351432
 20
-1869.468954375691
 30
0.0
 40
12.0
100
AcDbArc
 50
50.15987174704691
 51
117.3949267100002
  0
LINE
  5
411
330
1F
100
AcDbEntity
  8
1-E
  6
Continuous
 62
     7
370
     9
100
AcDbLine
 10
2168.872621351432
 20
-1851.468954375691
 30
0.0
 11
2168.872621351432
 21
-1857.468954375692
 31
0.0
  0
ELLIPSE
  5
412
330
1F
100
AcDbEntity
  8
1-E
  6
Continuous
 62
     7
370
     9
100
AcDbEllipse
 10
1999.503597157907
 20
-2192.171777673849
 30
0.0
 11
79.69551291525261
 21
0.0
 31
0.0
210
0.0
220
0.0
230
1.0
 40
0.7
 41
0.2111186597640594
 42
2.949786527099673
  0
ARC
  5
413
330
1F
100
AcDbEntity
  8
1-E
  6
Continuous
 62
     7
370
     9
100
AcDbCircle
 10
2473.14613385257
 20
-2129.73499347028
 30
0.0
 40
12.0
100
AcDbArc
 50
50.15987174704691
 51
117.3949267100002
  0
LINE
  5
414
330
1F
100
AcDbEntity
  8
1-E
  6
Continuous
 62
     7
370
     9
100
AcDbLine
 10
2467.624679802716
 20
-2119.080719906336
 30
0.0
 11
2376.380874079883
 21
-2166.366766919185
 31
0.0
  0
LINE
  5
415
330
1F
100
AcDbEntity
  8
1-E
  6
Continuous
 62
     7
370
     9
100
AcDbLine
 10
2480.833905355988
 20
-2120.520973212475
 30
0.0
 11
2491.716800107168
 21
-2129.601179876007
 31
0.0
  0
ARC
  5
416
330
1F
100
AcDbEntity
  8
1-E
  6
Continuous
 62
     7
370
     9
100
AcDbCircle
 10
2484.029028603748
 20
-2138.81520013381
 30
0.0
 40
12.0
100
AcDbArc
 50
297.3949267103216
 51
50.15987174704777
  0
LINE
  5
417
330
1F
100
AcDbEntity
  8
1-E
  6
Continuous
 62
     7
370
     9
100
AcDbLine
 10
2489.550482653661
 20
-2149.469473697724
 30
0.0
 11
2398.306676931309
 21
-2196.755520710973
 31
0.0
  0
ARC
  5
418
330
1F
100
AcDbEntity
  8
1-E
  6
Continuous
 62
     7
370
     9
100
AcDbCircle
 10
2392.785222881394
 20
-2186.101247147059
 30
0.0
 40
12.0
100
AcDbArc
 50
230.159871747048
 51
297.3949267103217
  0
LINE
  5
419
330
1F
100
AcDbEntity
  8
1-E
  6
Continuous
 62
     7
370
     9
100
AcDbLine
 10
2385.097451377974
 20
-2195.315267404864
 30
0.0
 11
2374.214556626317
 21
-2186.235060740933
 31
0.0
  0
ARC
  5
41A
330
1F
100
AcDbEntity
  8
1-E
  6
Continuous
 62
     7
370
     9
100
AcDbCircle
 10
2381.902328129736
 20
-2177.021040483129
 30
0.0
 40
12.0
100
AcDbArc
 50
117.3949267100002
 51
230.1598717470478
  0
ARC
  5
41B
330
1F
100
AcDbEntity
  8
1-E
  6
Continuous
 62
     7
370
     9
100
AcDbCircle
 10
2168.872621351432
 20
-1863.46895437569
 30
0.0
 40
12.0
100
AcDbArc
 50
50.15987174704691
 51
117.3949267100002
  0
LINE
  5
41C
330
1F
100
AcDbEntity
  8
1-E
  6
Continuous
 62
     7
370
     9
100
AcDbLine
 10
2163.351167301579
 20
-1852.814680811744
 30
0.0
 11
2072.107361578746
 21
-1900.100727824594
 31
0.0
  0
LINE
  5
41D
330
1F
100
AcDbEntity
  8
1-E
  6
Continuous
 62
     7
370
     9
100
AcDbLine
 10
2176.560392854852
 20
-1854.254934117885
 30
0.0
 11
2187.443287606029
 21
-1863.335140781417
 31
0.0
  0
ARC
  5
41E
330
1F
100
AcDbEntity
  8
1-E
  6
Continuous
 62
     7
370
     9
100
AcDbCircle
 10
2179.75551610261
 20
-1872.549161039218
 30
0.0
 40
12.0
100
AcDbArc
 50
297.3949267103216
 51
50.15987174704777
  0
LINE
  5
41F
330
1F
100
AcDbEntity
  8
1-E
  6
Continuous
 62
     7
370
     9
100
AcDbLine
 10
2185.276970152524
 20
-1883.203434603132
 30
0.0
 11
2094.03316443017
 21
-1930.48948161638
 31
0.0
  0
ARC
  5
420
330
1F
100
AcDbEntity
  8
1-E
  6
Continuous
 62
     7
370
     9
100
AcDbCircle
 10
2088.511710380257
 20
-1919.835208052469
 30
0.0
 40
12.0
100
AcDbArc
 50
230.159871747048
 51
297.3949267103217
  0
LINE
  5
421
330
1F
100
AcDbEntity
  8
1-E
  6
Continuous
 62
     7
370
     9
100
AcDbLine
 10
2080.823938876837
 20
-1929.049228310273
 30
0.0
 11
2069.941044125179
 21
-1919.969021646341
 31
0.0
  0
ARC
  5
422
330
1F
100
AcDbEntity
  8
1-E
  6
Continuous
 62
     7
370
     9
100
AcDbCircle
 10
2077.6288156286
 20
-1910.755001388538
 30
0.0
 40
12.0
100
AcDbArc
 50
117.3949267100002
 51
230.1598717470478
  0
ELLIPSE
  5
423
330
1F
100
AcDbEntity
  8
1-E
  6
Continuous
 62
     7
370
     9
100
AcDbEllipse
 10
2303.754099449326
 20
-1978.13510604726
 30
0.0
 11
45.7135540476191
 21
0.0
 31
0.0
210
0.0
220
0.0
230
1.0
 40
0.7
 41
0.0
 42
6.283185307179586
  0
LINE
  5
424
330
1F
100
AcDbEntity
  8
1-E
  6
Continuous
 62
     7
370
     9
100
AcDbLine
 10
2611.015944901247
 20
-2176.912288160096
 30
0.0
 11
2607.853791222733
 21
-2201.438073348514
 31
0.0
  0
LINE
  5
425
330
1F
100
AcDbEntity
  8
1-E
  6
Continuous
 62
     7
370
     9
100
AcDbLine
 10
2611.015944901247
 20
-2170.912288160097
 30
0.0
 11
2611.015944901247
 21
-2176.912288160096
 31
0.0
  0
LINE
  5
426
330
1F
100
AcDbEntity
  8
1-E
  6
Continuous
 62
     7
370
     9
100
AcDbLine
 10
2607.853791222733
 20
-2201.438073348514
 30
0.0
 11
2607.853791222733
 21
-2195.438073348513
 31
0.0
  0
LINE
  5
427
330
1F
100
AcDbEntity
  8
1-E
  6
Continuous
 62
     7
370
     9
100
AcDbLine
 10
2388.502214053085
 20
-2335.724488271871
 30
0.0
 11
2607.853791222733
 21
-2201.438073348514
 31
0.0
  0
LINE
  5
428
330
1F
100
AcDbEntity
  8
1-E
  6
Continuous
 62
     7
370
     9
100
AcDbLine
 10
2359.186151862269
 20
-2331.383559579798
 30
0.0
 11
2346.89258800009
 21
-2324.872398088327
 31
0.0
  0
LINE
  5
429
330
1F
100
AcDbEntity
  8
1-E
  6
Continuous
 62
     7
370
     9
100
AcDbLine
 10
2359.186151862269
 20
-2325.383613463695
 30
0.0
 11
2359.186151862269
 21
-2331.383559579798
 31
0.0
  0
LINE
  5
42A
330
1F
100
AcDbEntity
  8
1-E
  6
Continuous
 62
     7
370
     9
100
AcDbLine
 10
2388.502214053085
 20
-2335.724488271871
 30
0.0
 11
2359.186151862269
 21
-2331.383559579798
 31
0.0
  0
LINE
  5
42B
330
1F
100
AcDbEntity
  8
1-E
  6
Continuous
 62
     7
370
     9
100
AcDbLine
 10
2388.502214053085
 20
-2329.724488271869
 30
0.0
 11
2388.502214053085
 21
-2335.724488271871
 31
0.0
  0
LINE
  5
42C
330
1F
100
AcDbEntity
  8
1-E
  6
Continuous
 62
     7
370
     9
100
AcDbLine
 10
2346.892649525967
 20
-2318.872498098645
 30
0.0
 11
2346.892649525967
 21
-2324.872498098647
 31
0.0
  0
LINE
  5
42D
330
1F
100
AcDbEntity
  8
1-E
  6
Continuous
 62
     7
370
     9
100
AcDbLine
 10
2278.472349177712
 20
-1885.466523398855
 30
0.0
 11
2010.906479116836
 21
-2024.473374482012
 31
0.0
  0
LINE
  5
42E
330
1F
100
AcDbEntity
  8
1-E
  6
Continuous
 62
     7
370
     9
100
AcDbLine
 10
2135.229162815129
 20
-2141.448819666431
 30
0.0
 11
2412.925041497711
 21
-1984.829327653827
 31
0.0
  0
LINE
  5
42F
330
1F
100
AcDbEntity
  8
1-E
  6
Continuous
 62
     7
370
     9
100
AcDbLine
 10
2307.889664016246
 20
-1900.084378568916
 30
0.0
 11
2019.311818048835
 21
-2050.007452282181
 31
0.0
  0
LINE
  5
430
330
1F
100
AcDbEntity
  8
1-E
  6
Continuous
 62
     7
370
     9
100
AcDbLine
 10
2321.227777780901
 20
-1903.395332053446
 30
0.0
 11
2027.715780503457
 21
-2055.881815054378
 31
0.0
  0
LINE
  5
431
330
1F
100
AcDbEntity
  8
1-E
  6
Continuous
 62
     7
370
     9
100
AcDbLine
 10
1823.885344277602
 20
-2163.579532515288
 30
0.0
 11
1789.34495697301
 21
-2147.084326352552
 31
0.0
  0
LINE
  5
432
330
1F
100
AcDbEntity
  8
1-E
  6
Continuous
 62
     7
370
     9
100
AcDbLine
 10
1963.969697102283
 20
-2310.810817212832
 30
0.0
 11
1823.885344277602
 21
-2163.579532515288
 31
0.0
  0
LINE
  5
433
330
1F
100
AcDbEntity
  8
1-E
  6
Continuous
 62
     7
370
     9
100
AcDbLine
 10
2001.254134598512
 20
-2377.95402467451
 30
0.0
 11
1963.969697102283
 21
-2310.810817212832
 31
0.0
  0
LINE
  5
434
330
1F
100
AcDbEntity
  8
1-E
  6
Continuous
 62
     7
370
     9
100
AcDbLine
 10
1837.589847458499
 20
-2137.860065808787
 30
0.0
 11
1972.031771682531
 21
-2267.387108742659
 31
0.0
  0
LINE
  5
435
330
1F
100
AcDbEntity
  8
1-E
  6
Continuous
 62
     7
370
     9
100
AcDbLine
 10
1734.852135850321
 20
-2089.010263828399
 30
0.0
 11
1837.589847458499
 21
-2137.860065808787
 31
0.0
  0
LINE
  5
436
330
1F
100
AcDbEntity
  8
1-E
  6
Continuous
 62
     7
370
     9
100
AcDbLine
 10
2038.600775815012
 20
-2403.332355155607
 30
0.0
 11
1972.031771682531
 21
-2267.387108742659
 31
0.0
  0
LINE
  5
437
330
1F
100
AcDbEntity
  8
1-E
  6
Continuous
 62
     7
370
     9
100
AcDbLine
 10
2254.675216132107
 20
-2276.875733210481
 30
0.0
 11
2054.546655929256
 21
-2384.539922671712
 31
0.0
  0
LINE
  5
438
330
1F
100
AcDbEntity
  8
1-E
  6
Continuous
 62
     7
370
     9
100
AcDbLine
 10
2135.215751615394
 20
-2191.562348511849
 30
0.0
 11
1992.138533718002
 21
-2268.534334317756
 31
0.0
  0
LINE
  5
439
330
1F
100
AcDbEntity
  8
1-E
  6
Continuous
 62
     7
370
     9
100
AcDbLine
 10
2005.8430368989
 20
-2067.22872567883
 30
0.0
 11
1862.766606390371
 21
-2144.18535740189
 31
0.0
  0
LINE
  5
43A
330
1F
100
AcDbEntity
  8
1-E
  6
Continuous
 62
     7
370
     9
100
AcDbLine
 10
1954.187965242685
 20
-1966.955738062725
 30
0.0
 11
1755.455740259084
 21
-2080.297609199128
 31
0.0
  0
LINE
  5
43B
330
1F
100
AcDbEntity
  8
1-E
  6
Continuous
 62
     7
370
     9
100
AcDbLine
 10
2012.897253733009
 20
-2062.407346816298
 30
0.0
 11
1963.318526511614
 21
-1961.204059257169
 31
0.0
  0
LINE
  5
43C
330
1F
100
AcDbEntity
  8
1-E
  6
Continuous
 62
     7
370
     9
100
AcDbLine
 10
2143.385698470036
 20
-2183.531769486166
 30
0.0
 11
2012.897253733009
 21
-2062.407346816298
 31
0.0
  0
LINE
  5
43D
330
1F
100
AcDbEntity
  8
1-E
  6
Continuous
 62
     7
370
     9
100
AcDbLine
 10
2279.222088372513
 20
-2267.774700911051
 30
0.0
 11
2143.385698470036
 21
-2183.531769486166
 31
0.0
  0
LINE
  5
43E
330
1F
100
AcDbEntity
  8
1-E
  6
Continuous
 62
     7
370
     9
100
AcDbLine
 10
2298.647759040476
 20
-2269.511090203761
 30
0.0
 11
2346.892649525967
 21
-2318.872498098645
 31
0.0
  0
LINE
  5
43F
330
1F
100
AcDbEntity
  8
1-E
  6
Continuous
 62
     7
370
     9
100
AcDbLine
 10
2153.338293713157
 20
-2174.943128603005
 30
0.0
 11
2298.647759040476
 21
-2269.511090203761
 31
0.0
  0
LINE
  5
440
330
1F
100
AcDbEntity
  8
1-E
  6
Continuous
 62
     7
370
     9
100
AcDbLine
 10
2018.58692566551
 20
-2053.896263736257
 30
0.0
 11
2153.338293713157
 21
-2174.943128603005
 31
0.0
  0
LINE
  5
441
330
1F
100
AcDbEntity
  8
1-E
  6
Continuous
 62
     7
370
     9
100
AcDbLine
 10
1966.931066620428
 20
-1953.607725190078
 30
0.0
 11
2018.58692566551
 21
-2053.896263736257
 31
0.0
  0
LINE
  5
442
330
1F
100
AcDbEntity
  8
1-E
  6
Continuous
 62
     7
370
     9
100
AcDbLine
 10
1941.320456424399
 20
-1930.322274309946
 30
0.0
 11
1966.931066620428
 21
-1953.607725190078
 31
0.0
  0
LINE
  5
443
330
1F
100
AcDbEntity
  8
1-E
  6
Continuous
 62
     7
370
     9
100
AcDbLine
 10
2258.33974830583
 20
-2224.661026806144
 30
0.0
 11
2280.88111670932
 21
-2249.853336668083
 31
0.0
  0
LINE
  5
444
330
1F
100
AcDbEntity
  8
1-E
  6
Continuous
 62
     7
370
     9
100
AcDbLine
 10
2155.322513650869
 20
-2160.789026380666
 30
0.0
 11
2258.33974830583
 21
-2224.661026806144
 31
0.0
  0
LINE
  5
445
330
1F
100
AcDbEntity
  8
1-E
  6
Continuous
 62
     7
370
     9
100
AcDbLine
 10
2468.947372138855
 20
-2064.08153238874
 30
0.0
 11
2231.596872923124
 21
-2200.476377843128
 31
0.0
  0
LINE
  5
446
330
1F
100
AcDbEntity
  8
1-E
  6
Continuous
 62
     7
370
     9
100
AcDbLine
 10
2455.769632108088
 20
-2035.928246703087
 30
0.0
 11
2193.614808893237
 21
-2182.973707628686
 31
0.0
  0
LINE
  5
447
330
1F
100
AcDbEntity
  8
1-E
  6
Continuous
 62
     7
370
     9
100
AcDbLine
 10
2409.198730347824
 20
-2017.603739361665
 30
0.0
 11
2155.322513650869
 21
-2160.789026380666
 31
0.0
  0
LINE
  5
448
330
1F
100
AcDbEntity
  8
1-E
  6
Continuous
 62
     7
370
     9
100
AcDbLine
 10
2293.980905242534
 20
-1887.859573948496
 30
0.0
 11
2010.494142919559
 21
-2035.137708283461
 31
0.0
  0
LINE
  5
449
330
1F
100
AcDbEntity
  8
1-E
  6
Continuous
 62
     7
370
     9
100
AcDbLine
 10
2359.186151862269
 20
-2325.383613463695
 30
0.0
 11
2346.892649525967
 21
-2318.872498098645
 31
0.0
  0
LINE
  5
44A
330
1F
100
AcDbEntity
  8
1-E
  6
Continuous
 62
     7
370
     9
100
AcDbLine
 10
2388.502214053085
 20
-2329.724488271869
 30
0.0
 11
2359.186151862269
 21
-2325.383613463695
 31
0.0
  0
LINE
  5
44B
330
1F
100
AcDbEntity
  8
1-E
  6
Continuous
 62
     7
370
     9
100
AcDbLine
 10
2607.853791222733
 20
-2195.438073348513
 30
0.0
 11
2388.502214053085
 21
-2329.724488271869
 31
0.0
  0
LINE
  5
44C
330
1F
100
AcDbEntity
  8
1-E
  6
Continuous
 62
     7
370
     9
100
AcDbLine
 10
2611.015944901247
 20
-2170.912288160097
 30
0.0
 11
2607.853791222733
 21
-2195.438073348513
 31
0.0
  0
LINE
  5
44D
330
1F
100
AcDbEntity
  8
1-E
  6
Continuous
 62
     7
370
     9
100
AcDbLine
 10
2468.947372138855
 20
-2051.818738218139
 30
0.0
 11
2611.015944901247
 21
-2170.912288160097
 31
0.0
  0
LINE
  5
44E
330
1F
100
AcDbEntity
  8
1-E
  6
Continuous
 62
     7
370
     9
100
AcDbLine
 10
2455.025549631446
 20
-2027.479170496098
 30
0.0
 11
2468.947372138855
 21
-2051.818738218139
 31
0.0
  0
LINE
  5
44F
330
1F
100
AcDbEntity
  8
1-E
  6
Continuous
 62
     7
370
     9
100
AcDbLine
 10
2423.674087226746
 20
-2004.315174348263
 30
0.0
 11
2455.025549631446
 21
-2027.479170496098
 31
0.0
  0
LINE
  5
450
330
1F
100
AcDbEntity
  8
1-E
  6
Continuous
 62
     7
370
     9
100
AcDbLine
 10
2416.826166275048
 20
-1982.629107098481
 30
0.0
 11
2423.674087226746
 21
-2004.315174348263
 31
0.0
  0
LINE
  5
451
330
1F
100
AcDbEntity
  8
1-E
  6
Continuous
 62
     7
370
     9
100
AcDbLine
 10
2323.048939941137
 20
-1901.672736792649
 30
0.0
 11
2416.826166275048
 21
-1982.629107098481
 31
0.0
  0
LINE
  5
452
330
1F
100
AcDbEntity
  8
1-E
  6
Continuous
 62
     7
370
     9
100
AcDbLine
 10
2309.964899185205
 20
-1899.006244404134
 30
0.0
 11
2323.048939941137
 21
-1901.672736792649
 31
0.0
  0
LINE
  5
453
330
1F
100
AcDbEntity
  8
1-E
  6
Continuous
 62
     7
370
     9
100
AcDbLine
 10
2299.42254968282
 20
-1888.774519808665
 30
0.0
 11
2309.964899185205
 21
-1899.006244404134
 31
0.0
  0
LINE
  5
454
330
1F
100
AcDbEntity
  8
1-E
  6
Continuous
 62
     7
370
     9
100
AcDbLine
 10
2280.818912989048
 20
-1884.247427534113
 30
0.0
 11
2299.42254968282
 21
-1888.774519808665
 31
0.0
  0
LINE
  5
455
330
1F
100
AcDbEntity
  8
1-E
  6
Continuous
 62
     7
370
     9
100
AcDbLine
 10
2163.756235775004
 20
-1794.098095391869
 30
0.0
 11
2280.818912989048
 21
-1884.247427534113
 31
0.0
  0
LINE
  5
456
330
1F
100
AcDbEntity
  8
1-E
  6
Continuous
 62
     7
370
     9
100
AcDbLine
 10
2140.486532672157
 20
-1797.167337184408
 30
0.0
 11
2163.756235775004
 21
-1794.098095391869
 31
0.0
  0
LINE
  5
457
330
1F
100
AcDbEntity
  8
1-E
  6
Continuous
 62
     7
370
     9
100
AcDbLine
 10
1935.661492657601
 20
-1902.138083611375
 30
0.0
 11
1933.491448947949
 21
-1925.702270149424
 31
0.0
  0
ELLIPSE
  5
458
330
1F
100
AcDbEntity
  8
1-E
  6
Continuous
 62
     7
370
     9
100
AcDbEllipse
 10
1999.195619949828
 20
-2169.846654195368
 30
0.0
 11
79.69551291525261
 21
0.0
 31
0.0
210
0.0
220
0.0
230
1.0
 40
0.7
 41
0.0
 42
6.283185307179586
  0
MTEXT
  5
459
330
1F
100
AcDbEntity
  8
1-E
  6
Continuous
 62
     7
370
   211
100
AcDbMText
 10
3805.261174137235
 20
-2907.751220652171
 30
0.0
 40
57.15
 41
75.0
 46
0.0
 71
     7
 72
     1
  1
{\fＭＳ ゴシック|b0|i0|c128|p49;77}
 11
6.123031769111886E-17
 21
1.0
 31
0.0
 73
     1
 44
1.0
  0
LINE
  5
45A
330
1F
100
AcDbEntity
  8
1-E
  6
Continuous
 62
   120
370
     5
100
AcDbLine
 10
2445.250170810917
 20
-1793.313195978287
 30
0.0
 11
2464.562966422043
 21
-1380.01936990018
 31
0.0
  0
LINE
  5
45B
330
1F
100
AcDbEntity
  8
1-E
  6
Continuous
 62
   120
370
     5
100
AcDbLine
 10
2148.775962635352
 20
-1547.022112287373
 30
0.0
 11
2464.562966422043
 21
-1380.01936990018
 31
0.0
  0
MTEXT
  5
45C
330
1F
100
AcDbEntity
  8
1-E
  6
Continuous
 62
     7
370
   211
100
AcDbMText
 10
4002.629189119665
 20
-2913.752294540996
 30
0.0
 40
57.15
 41
75.0
 46
0.0
 71
     7
 72
     1
  1
{\fＭＳ ゴシック|b0|i0|c128|p49;40}
 11
6.123031769111886E-17
 21
1.0
 31
0.0
 73
     1
 44
1.0
  0
LINE
  5
45D
330
1F
100
AcDbEntity
  8
1-E
  6
JWW_CENTER1
 62
   120
370
     5
100
AcDbLine
 10
1934.938731702918
 20
-1902.212134574599
 30
0.0
 11
1627.685047078416
 21
-2079.60513210206
 31
0.0
  0
MTEXT
  5
45E
330
1F
100
AcDbEntity
  8
1-E
  6
Continuous
 62
     7
370
   211
100
AcDbMText
 10
3903.79926012702
 20
-3060.751757596581
 30
0.0
 40
57.15
 41
150.0
 46
0.0
 71
     7
 72
     1
  1
{\fＭＳ ゴシック|b0|i0|c128|p49;38.5}
 11
6.123031769111886E-17
 21
1.0
 31
0.0
 73
     1
 44
1.0
  0
CIRCLE
  5
45F
330
1F
100
AcDbEntity
  8
1-E
  6
Continuous
 62
     7
370
     9
100
AcDbCircle
 10
1714.368937222903
 20
-1919.827239368512
 30
0.0
 40
12.0
  0
CIRCLE
  5
460
330
1F
100
AcDbEntity
  8
1-E
  6
Continuous
 62
     7
370
     9
100
AcDbCircle
 10
1790.541068980001
 20
-1985.580164018029
 30
0.0
 40
12.0
  0
LINE
  5
461
330
1F
100
AcDbEntity
  8
1-E
  6
Continuous
 62
   120
370
     5
100
AcDbLine
 10
1714.368937222903
 20
-1919.827239368512
 30
0.0
 11
1790.541068980001
 21
-1985.580164018029
 31
0.0
  0
LWPOLYLINE
  5
462
330
1F
100
AcDbEntity
  8
1-E
  6
Continuous
 62
     7
370
     9
100
AcDbPolyline
 90
        4
 70
     1
 43
3.0
 10
-719.9036026143366
 20
-1254.151408529242
 42
0.4142135623731
 10
-721.4036026143366
 20
-1252.651408529242
 42
0.4142135623731
 10
-722.9036026143366
 20
-1254.151408529242
 42
0.4142135623731
 10
-721.4036026143366
 20
-1255.651408529242
 42
0.4142135623731
  0
LINE
  5
463
330
1F
100
AcDbEntity
  8
1-E
  6
Continuous
 62
   120
370
     5
100
AcDbLine
 10
-721.4036026143366
 20
-1254.151408529242
 30
0.0
 11
-721.4036026143366
 21
-1397.693458329242
 31
0.0
  0
LINE
  5
464
330
1F
100
AcDbEntity
  8
1-E
  6
Continuous
 62
    92
370
    13
100
AcDbLine
 10
-721.4036026143366
 20
-1447.693458329241
 30
0.0
 11
-721.4036026143366
 21
-2322.984663878069
 31
0.0
  0
LINE
  5
465
330
1F
100
AcDbEntity
  8
1-E
  6
Continuous
 62
    92
370
    13
100
AcDbLine
 10
-1305.053727819077
 20
-498.7332092191234
 30
0.0
 11
680.6156338515028
 21
-498.7332092191234
 31
0.0
  0
LINE
  5
466
330
1F
100
AcDbEntity
  8
1-E
  6
Continuous
 62
    92
370
    13
100
AcDbLine
 10
-1305.053727819077
 20
-282.7332092191227
 30
0.0
 11
680.6156338515028
 21
-282.7332092191227
 31
0.0
  0
MTEXT
  5
467
330
1F
100
AcDbEntity
  8
1-E
  6
Continuous
 62
     7
370
   211
100
AcDbMText
 10
4002.921032122526
 20
-3093.943110039591
 30
0.0
 40
57.15
 41
150.0
 46
0.0
 71
     7
 72
     1
  1
{\fＭＳ ゴシック|b0|i0|c128|p49;18.5}
 11
6.123031769111886E-17
 21
1.0
 31
0.0
 73
     1
 44
1.0
  0
LINE
  5
468
330
1F
100
AcDbEntity
  8
1-E
  6
Continuous
 62
    92
370
    13
100
AcDbLine
 10
-1305.053727819077
 20
-282.7332092191227
 30
0.0
 11
-1305.053727819077
 21
-3381.830654048025
 31
0.0
  0
LINE
  5
469
330
1F
100
AcDbEntity
  8
1-E
  6
Continuous
 62
    92
370
    13
100
AcDbLine
 10
-1305.053727819077
 20
-3381.830654048025
 30
0.0
 11
5418.215633851513
 21
-3381.830654048025
 31
0.0
  0
LWPOLYLINE
  5
46A
330
1F
100
AcDbEntity
  8
1-E
  6
Continuous
 62
     7
370
     9
100
AcDbPolyline
 90
        4
 70
     1
 43
3.0
 10
50.09639738566401
 20
-1254.151408529242
 42
0.4142135623731
 10
48.59639738566401
 20
-1252.651408529242
 42
0.4142135623731
 10
47.09639738566401
 20
-1254.151408529242
 42
0.4142135623731
 10
48.59639738566401
 20
-1255.651408529242
 42
0.4142135623731
  0
LINE
  5
46B
330
1F
100
AcDbEntity
  8
1-E
  6
JWW_HOJO
 62
   120
370
     5
100
AcDbLine
 10
-756.4039490300955
 20
-1397.693458329242
 30
0.0
 11
94.8101371057642
 21
-1397.693458329242
 31
0.0
  0
LINE
  5
46C
330
1F
100
AcDbEntity
  8
1-E
  6
JWW_HOJO
 62
   120
370
     5
100
AcDbLine
 10
-756.4039490300955
 20
-1447.693458329241
 30
0.0
 11
94.8101371057642
 21
-1447.693458329241
 31
0.0
  0
LINE
  5
46D
330
1F
100
AcDbEntity
  8
1-E
  6
Continuous
 62
    92
370
    13
100
AcDbLine
 10
48.59639738566401
 20
-1447.693458329241
 30
0.0
 11
48.59639738566401
 21
-2322.984663878069
 31
0.0
  0
LINE
  5
46E
330
1F
100
AcDbEntity
  8
1-E
  6
Continuous
 62
    92
370
    13
100
AcDbLine
 10
-721.4036026143366
 20
-2322.984663878069
 30
0.0
 11
48.59639738566401
 21
-2322.984663878069
 31
0.0
  0
LINE
  5
46F
330
1F
100
AcDbEntity
  8
1-E
  6
Continuous
 62
   120
370
     5
100
AcDbLine
 10
48.59639738566401
 20
-1254.151408529242
 30
0.0
 11
48.59639738566401
 21
-1397.693458329242
 31
0.0
  0
LINE
  5
470
330
1F
100
AcDbEntity
  8
1-E
  6
Continuous
 62
   120
370
     5
100
AcDbLine
 10
-721.4036026143366
 20
-1254.151408529242
 30
0.0
 11
48.59639738566401
 21
-1254.151408529242
 31
0.0
  0
MTEXT
  5
471
330
1F
100
AcDbEntity
  8
1-E
  6
Continuous
 62
     7
370
     9
100
AcDbMText
 10
1606.619598990835
 20
-3322.188365093833
 30
0.0
 40
57.14999999999999
 41
1425.0
 46
0.0
 71
     7
 72
     1
  1
{\fＭＳ ゴシック|b0|i0|c128|p49;※現場にて左右どちらでも施工可能です。}
 73
     1
 44
1.0
  0
LINE
  5
472
330
1F
100
AcDbEntity
  8
1-E
  6
JWW_DASHED1
 62
   120
370
     5
100
AcDbLine
 10
4800.536167429034
 20
-3125.326468091999
 30
0.0
 11
4725.535919989209
 21
-3050.326220652169
 31
0.0
  0
LINE
  5
473
330
1F
100
AcDbEntity
  8
1-E
  6
JWW_DASHED1
 62
   120
370
     5
100
AcDbLine
 10
4758.109760557834
 20
-3125.326468092005
 30
0.0
 11
4683.109513118009
 21
-3050.326220652174
 31
0.0
  0
LINE
  5
474
330
1F
100
AcDbEntity
  8
1-E
  6
JWW_DASHED1
 62
   120
370
     5
100
AcDbLine
 10
4715.683353686634
 20
-3125.326468091995
 30
0.0
 11
4640.683106246795
 21
-3050.326220652163
 31
0.0
  0
LINE
  5
475
330
1F
100
AcDbEntity
  8
1-E
  6
JWW_DASHED1
 62
   120
370
     5
100
AcDbLine
 10
4673.256946815434
 20
-3125.326468091998
 30
0.0
 11
4636.407564273007
 21
-3088.477085549567
 31
0.0
  0
LINE
  5
476
330
1F
100
AcDbEntity
  8
1-E
  6
Continuous
 62
    40
370
    15
100
AcDbLine
 10
4636.407564273007
 20
-3050.326220652167
 30
0.0
 11
4855.681393487494
 21
-3050.326220652167
 31
0.0
  0
LINE
  5
477
330
1F
100
AcDbEntity
  8
1-E
  6
Continuous
 62
    40
370
    15
100
AcDbLine
 10
4636.407564273007
 20
-3125.326220652167
 30
0.0
 11
4855.681393487494
 21
-3125.326220652167
 31
0.0
  0
LINE
  5
478
330
1F
100
AcDbEntity
  8
1-E
  6
JWW_DASHED1
 62
   120
370
     5
100
AcDbLine
 10
4855.681393487494
 20
-3095.618880408057
 30
0.0
 11
4810.388733731595
 21
-3050.326220652164
 31
0.0
  0
LINE
  5
479
330
1F
100
AcDbEntity
  8
1-E
  6
JWW_DASHED1
 62
   120
370
     5
100
AcDbLine
 10
4842.962326860409
 20
-3125.326220652167
 30
0.0
 11
4767.962326860395
 21
-3050.326220652164
 31
0.0
  0
LINE
  5
47A
330
1F
100
AcDbEntity
  8
1-E
  6
Continuous
 62
    92
370
    13
100
AcDbLine
 10
4666.408752260693
 20
-3050.326220652167
 30
0.0
 11
4637.056920915188
 21
-3050.326220652167
 31
0.0
  0
LINE
  5
47B
330
1F
100
AcDbEntity
  8
1-E
  6
Continuous
 62
    92
370
    13
100
AcDbLine
 10
4637.056920915188
 20
-3050.326220652167
 30
0.0
 11
4636.408752260693
 21
-3050.326220652167
 31
0.0
  0
LINE
  5
47C
330
1F
100
AcDbEntity
  8
1-E
  6
Continuous
 62
    40
370
    15
100
AcDbLine
 10
4637.056920915188
 20
-3050.326220652167
 30
0.0
 11
4637.056920915188
 21
-3125.326220652167
 31
0.0
  0
MTEXT
  5
47D
330
1F
100
AcDbEntity
  8
0-B_寸法
  6
Continuous
 62
     7
370
   211
100
AcDbMText
 10
-1187.670872622499
 20
2287.665146596839
 30
0.0
 40
91.44
 41
120.0
 46
0.0
 71
     7
 72
     1
  1
{\fＭＳ ゴシック|b0|i0|c128|p49;20}
 11
6.123031769111886E-17
 21
1.0
 31
0.0
 73
     1
 44
1.0
  0
MTEXT
  5
47E
330
1F
100
AcDbEntity
  8
0-B_寸法
  6
Continuous
 62
     7
370
     0
100
AcDbMText
 10
-2954.411746598856
 20
-1205.979581760089
 30
0.0
 40
91.44000000000115
 41
120.0000000000015
 46
0.0
 71
     7
 72
     1
  1
{\fＭＳ ゴシック|b0|i0|c128|p49;20}
 11
0.9999999999914964
 21
4.124000518142506E-6
 31
0.0
 73
     1
 44
1.0
  0
MTEXT
  5
47F
330
1F
100
AcDbEntity
  8
F-A_文字
  6
Continuous
 62
     7
370
     0
100
AcDbMText
 10
4938.667793092893
 20
-3938.071010139966
 30
0.0
 40
78.86699999999999
 41
517.5
 46
0.0
 71
     7
 72
     1
  1
{\fＭＳ ゴシック|b0|i0|c128|p49;2024.04.01}
 73
     1
 44
1.0
  0
LINE
  5
480
330
1F
100
AcDbEntity
  8
0-6_扉
  6
Continuous
 62
   200
370
    20
100
AcDbLine
 10
-1998.481287529594
 20
2421.94514659684
 30
0.0
 11
5.518712470405944
 21
2421.94514659684
 31
0.0
  0
LINE
  5
481
330
1F
100
AcDbEntity
  8
0-6_扉
  6
Continuous
 62
   200
370
    20
100
AcDbLine
 10
11.51871247041072
 20
2421.94514659684
 30
0.0
 11
2015.51871247041
 21
2421.94514659684
 31
0.0
  0
LINE
  5
482
330
1F
100
AcDbEntity
  8
0-0_補助線
  6
Continuous
 62
   120
370
     5
100
AcDbLine
 10
-1983.481287529594
 20
2324.359196304378
 30
0.0
 11
-1983.481287529594
 21
2402.688459527563
 31
0.0
  0
LINE
  5
483
330
1F
100
AcDbEntity
  8
0-0_補助線
  6
Continuous
 62
   120
370
     5
100
AcDbLine
 10
-1998.481287529594
 20
2324.359196304378
 30
0.0
 11
-1998.481287529594
 21
2402.688459527563
 31
0.0
  0
LWPOLYLINE
  5
484
330
1F
100
AcDbEntity
  8
0-B_寸法
  6
Continuous
 62
     7
370
     9
100
AcDbPolyline
 90
        4
 70
     1
 43
3.0
 10
-1171.1708726225
 20
2421.94514659684
 42
0.4142135623731
 10
-1172.6708726225
 20
2423.445146596839
 42
0.4142135623731
 10
-1174.1708726225
 20
2421.94514659684
 42
0.4142135623731
 10
-1172.6708726225
 20
2420.44514659684
 42
0.4142135623731
  0
CIRCLE
  5
485
330
1F
100
AcDbEntity
  8
0-7_金物
  6
Continuous
 62
     7
370
     9
100
AcDbCircle
 10
8.518712470409184
 20
2451.945146596816
 30
0.0
 40
21.00000000000001
  0
CIRCLE
  5
486
330
1F
100
AcDbEntity
  8
0-7_金物
  6
Continuous
 62
     7
370
     9
100
AcDbCircle
 10
8.518712470409184
 20
2451.945146596816
 30
0.0
 40
30.0
  0
LINE
  5
487
330
1F
100
AcDbEntity
  8
0-6_扉
  6
Continuous
 62
   200
370
    20
100
AcDbLine
 10
-1998.481287529594
 20
2301.94514659684
 30
0.0
 11
5.518712470405944
 21
2301.94514659684
 31
0.0
  0
LINE
  5
488
330
1F
100
AcDbEntity
  8
0-6_扉
  6
Continuous
 62
   200
370
    20
100
AcDbLine
 10
11.51871247041072
 20
2301.94514659684
 30
0.0
 11
2015.51871247041
 21
2301.94514659684
 31
0.0
  0
LWPOLYLINE
  5
489
330
1F
100
AcDbEntity
  8
0-B_寸法
  6
Continuous
 62
     7
370
     9
100
AcDbPolyline
 90
        4
 70
     1
 43
3.0
 10
-1171.1708726225
 20
2301.94514659684
 42
0.4142135623731
 10
-1172.6708726225
 20
2303.445146596839
 42
0.4142135623731
 10
-1174.1708726225
 20
2301.94514659684
 42
0.4142135623731
 10
-1172.6708726225
 20
2300.44514659684
 42
0.4142135623731
  0
LINE
  5
48A
330
1F
100
AcDbEntity
  8
0-6_扉
  6
Continuous
 62
   200
370
    20
100
AcDbLine
 10
-1998.481287529594
 20
2421.94514659684
 30
0.0
 11
-1998.481287529594
 21
2301.94514659684
 31
0.0
  0
LINE
  5
48B
330
1F
100
AcDbEntity
  8
0-6_扉
  6
Continuous
 62
   200
370
    20
100
AcDbLine
 10
5.518712470405944
 20
2421.94514659684
 30
0.0
 11
5.518712470405944
 21
2301.94514659684
 31
0.0
  0
LINE
  5
48C
330
1F
100
AcDbEntity
  8
0-6_扉
  6
Continuous
 62
   200
370
    20
100
AcDbLine
 10
2015.51871247041
 20
2421.94514659684
 30
0.0
 11
2015.51871247041
 21
2301.94514659684
 31
0.0
  0
LINE
  5
48D
330
1F
100
AcDbEntity
  8
0-6_扉
  6
Continuous
 62
   200
370
    20
100
AcDbLine
 10
11.51871247040646
 20
2421.94514659684
 30
0.0
 11
11.51871247040646
 21
2301.94514659684
 31
0.0
  0
LINE
  5
48E
330
1F
100
AcDbEntity
  8
0-B_寸法
  6
Continuous
 62
   120
370
     5
100
AcDbLine
 10
-1172.6708726225
 20
2421.94514659684
 30
0.0
 11
-1172.6708726225
 21
2301.94514659684
 31
0.0
  0
LINE
  5
48F
330
1F
100
AcDbEntity
  8
0-6_扉
  6
Continuous
 62
   200
370
    20
100
AcDbLine
 10
-2826.911741341297
 20
-1965.830426403042
 30
0.0
 11
-2826.911741341297
 21
-3240.831047476996
 31
0.0
  0
LINE
  5
490
330
1F
100
AcDbEntity
  8
0-6_扉
  6
Continuous
 62
   200
370
    20
100
AcDbLine
 10
-2826.911741341297
 20
-642.8301618485569
 30
0.0
 11
-2826.911741341297
 21
-1845.830426403042
 31
0.0
  0
LINE
  5
491
330
1F
100
AcDbEntity
  8
0-B_寸法
  6
Continuous
 62
   120
370
     5
100
AcDbLine
 10
-2826.911741341297
 20
-1122.462254184185
 30
0.0
 11
-2826.911741341297
 21
-1206.699182763157
 31
0.0
  0
LWPOLYLINE
  5
492
330
1F
100
AcDbEntity
  8
0-B_寸法
  6
Continuous
 62
     7
370
     9
100
AcDbPolyline
 90
        4
 70
     1
 43
3.0
 10
-2825.411741341297
 20
-1206.699182763157
 42
0.4142135623731
 10
-2826.911741341297
 20
-1205.199182763157
 42
0.4142135623731
 10
-2828.411741341297
 20
-1206.699182763157
 42
0.4142135623731
 10
-2826.911741341297
 20
-1208.199182763156
 42
0.4142135623731
  0
LINE
  5
493
330
1F
100
AcDbEntity
  8
0-6_扉
  6
Continuous
 62
   200
370
    20
100
AcDbLine
 10
-2946.911741341297
 20
-1965.830426403042
 30
0.0
 11
-2946.911741341297
 21
-3240.831047476996
 31
0.0
  0
LINE
  5
494
330
1F
100
AcDbEntity
  8
0-6_扉
  6
Continuous
 62
   200
370
    20
100
AcDbLine
 10
-2946.911741341297
 20
-642.8301618485569
 30
0.0
 11
-2946.911741341297
 21
-1845.830426403042
 31
0.0
  0
LINE
  5
495
330
1F
100
AcDbEntity
  8
0-B_寸法
  6
Continuous
 62
   120
370
     5
100
AcDbLine
 10
-2946.911741341297
 20
-1122.462254184185
 30
0.0
 11
-2946.911741341297
 21
-1206.699182763157
 31
0.0
  0
LWPOLYLINE
  5
496
330
1F
100
AcDbEntity
  8
0-B_寸法
  6
Continuous
 62
     7
370
     9
100
AcDbPolyline
 90
        4
 70
     1
 43
3.0
 10
-2945.411741341297
 20
-1206.699182763157
 42
0.4142135623731
 10
-2946.911741341297
 20
-1205.199182763157
 42
0.4142135623731
 10
-2948.411741341297
 20
-1206.699182763157
 42
0.4142135623731
 10
-2946.911741341297
 20
-1208.199182763156
 42
0.4142135623731
  0
LINE
  5
497
330
1F
100
AcDbEntity
  8
0-6_扉
  6
Continuous
 62
   200
370
    20
100
AcDbLine
 10
-2946.911741341297
 20
-3240.831047476996
 30
0.0
 11
-2826.911741341297
 21
-3240.831047476996
 31
0.0
  0
LINE
  5
498
330
1F
100
AcDbEntity
  8
0-6_扉
  6
Continuous
 62
   200
370
    20
100
AcDbLine
 10
-2946.911741341297
 20
-642.8301618485569
 30
0.0
 11
-2826.911741341297
 21
-642.8301618485569
 31
0.0
  0
LINE
  5
499
330
1F
100
AcDbEntity
  8
0-B_寸法
  6
Continuous
 62
   120
370
     5
100
AcDbLine
 10
-2946.911741341297
 20
-1206.699182763157
 30
0.0
 11
-2826.911741341297
 21
-1206.699182763157
 31
0.0
  0
LINE
  5
49A
330
1F
100
AcDbEntity
  8
1-E
  6
Continuous
 62
   200
370
    20
100
AcDbLine
 10
4067.640189768577
 20
-2921.327294540996
 30
0.0
 11
4501.407762224863
 21
-2921.327294540996
 31
0.0
  0
LINE
  5
49B
330
1F
100
AcDbEntity
  8
1-E
  6
Continuous
 62
   200
370
    20
100
AcDbLine
 10
4501.407762224863
 20
-2801.327294540996
 30
0.0
 11
4501.407762224863
 21
-2921.327294540996
 31
0.0
  0
LINE
  5
49C
330
1F
100
AcDbEntity
  8
1-E
  6
Continuous
 62
   200
370
    20
100
AcDbLine
 10
4067.640189768577
 20
-2801.327294540996
 30
0.0
 11
4501.407762224863
 21
-2801.327294540996
 31
0.0
  0
ENDSEC
  0
SECTION
  2
OBJECTS
  0
DICTIONARY
  5
C
330
0
100
AcDbDictionary
281
     1
  3
ACAD_GROUP
350
D
  3
ACAD_LAYOUT
350
1A
  3
ACAD_MATERIAL
350
3B
  3
ACAD_MLEADERSTYLE
350
49E
  3
ACAD_MLINESTYLE
350
17
  3
ACAD_PLOTSETTINGS
350
19
  3
ACAD_PLOTSTYLENAME
350
E
  3
ACAD_TABLESTYLE
350
49D
  3
ACAD_VISUALSTYLE
350
2A
  0
DICTIONARY
  5
D
102
{ACAD_REACTORS
330
C
102
}
330
C
100
AcDbDictionary
281
     1
  0
DICTIONARY
  5
1A
102
{ACAD_REACTORS
330
C
102
}
330
C
100
AcDbDictionary
281
     1
  3
Layout1
350
1E
  3
Layout2
350
26
  3
Model
350
22
  0
DICTIONARY
  5
3B
102
{ACAD_REACTORS
330
C
102
}
330
C
100
AcDbDictionary
281
     1
  3
ByBlock
350
3D
  3
ByLayer
350
3C
  3
Global
350
3E
  0
DICTIONARY
  5
49E
102
{ACAD_REACTORS
330
C
102
}
330
C
100
AcDbDictionary
281
     1
  0
DICTIONARY
  5
17
102
{ACAD_REACTORS
330
C
102
}
330
C
100
AcDbDictionary
281
     1
  3
Standard
350
18
  0
DICTIONARY
  5
19
102
{ACAD_REACTORS
330
C
102
}
330
C
100
AcDbDictionary
281
     1
  0
ACDBDICTIONARYWDFLT
  5
E
102
{ACAD_REACTORS
330
C
102
}
330
C
100
AcDbDictionary
281
     1
  3
Normal
350
F
100
AcDbDictionaryWithDefault
340
F
  0
DICTIONARY
  5
49D
102
{ACAD_REACTORS
330
C
102
}
330
C
100
AcDbDictionary
281
     1
  0
DICTIONARY
  5
2A
102
{ACAD_REACTORS
330
C
102
}
330
C
100
AcDbDictionary
281
     1
  3
2dWireframe
350
2F
  3
3D Hidden
350
31
  3
3dWireframe
350
30
  3
Basic
350
32
  3
Brighten
350
36
  3
ColorChange
350
3A
  3
Conceptual
350
34
  3
Dim
350
35
  3
Facepattern
350
39
  3
Flat
350
2B
  3
FlatWithEdges
350
2C
  3
Gouraud
350
2D
  3
GouraudWithEdges
350
2E
  3
Linepattern
350
38
  3
Realistic
350
33
  3
Thicken
350
37
  0
LAYOUT
  5
1E
102
{ACAD_REACTORS
330
1A
102
}
330
1A
100
AcDbPlotSettings
  1

  2
none_device
  4

  6

 40
0.0
 41
0.0
 42
0.0
 43
0.0
 44
0.0
 45
0.0
 46
0.0
 47
0.0
 48
0.0
 49
0.0
140
0.0
141
0.0
142
1.0
143
1.0
 70
   688
 72
     0
 73
     0
 74
     5
  7

 75
    16
 76
     0
 77
     5
 78
   300
147
1.0
148
0.0
149
0.0
100
AcDbLayout
  1
Layout1
 70
     1
 71
     1
 10
0.0
 20
0.0
 11
420.0
 21
297.0
 12
0.0
 22
0.0
 32
0.0
 14
1.000000000000000E+20
 24
1.000000000000000E+20
 34
1.000000000000000E+20
 15
-1.000000000000000E+20
 25
-1.000000000000000E+20
 35
-1.000000000000000E+20
146
0.0
 13
0.0
 23
0.0
 33
0.0
 16
1.0
 26
0.0
 36
0.0
 17
0.0
 27
1.0
 37
0.0
 76
     0
330
1B
  0
LAYOUT
  5
26
102
{ACAD_REACTORS
330
1A
102
}
330
1A
100
AcDbPlotSettings
  1

  2
none_device
  4

  6

 40
0.0
 41
0.0
 42
0.0
 43
0.0
 44
0.0
 45
0.0
 46
0.0
 47
0.0
 48
0.0
 49
0.0
140
0.0
141
0.0
142
1.0
143
1.0
 70
   688
 72
     0
 73
     0
 74
     5
  7

 75
    16
 76
     0
 77
     5
 78
   300
147
1.0
148
0.0
149
0.0
100
AcDbLayout
  1
Layout2
 70
     1
 71
     2
 10
0.0
 20
0.0
 11
0.0
 21
0.0
 12
0.0
 22
0.0
 32
0.0
 14
0.0
 24
0.0
 34
0.0
 15
0.0
 25
0.0
 35
0.0
146
0.0
 13
0.0
 23
0.0
 33
0.0
 16
1.0
 26
0.0
 36
0.0
 17
0.0
 27
1.0
 37
0.0
 76
     0
330
23
  0
LAYOUT
  5
22
102
{ACAD_REACTORS
330
1A
102
}
330
1A
100
AcDbPlotSettings
  1

  2
none_device
  4

  6

 40
0.0
 41
0.0
 42
0.0
 43
0.0
 44
0.0
 45
0.0
 46
0.0
 47
0.0
 48
0.0
 49
0.0
140
0.0
141
0.0
142
1.0
143
1.0
 70
  1712
 72
     0
 73
     0
 74
     0
  7

 75
     0
 76
     0
 77
     5
 78
   300
147
1.0
148
0.0
149
0.0
100
AcDbLayout
  1
Model
 70
     1
 71
     0
 10
-6300.0
 20
-4455.0
 11
6300.0
 21
4455.0
 12
0.0
 22
0.0
 32
0.0
 14
-6300.0
 24
-4455.0
 34
0.0
 15
6300.0
 25
4455.0
 35
0.0
146
0.0
 13
0.0
 23
0.0
 33
0.0
 16
1.0
 26
0.0
 36
0.0
 17
0.0
 27
1.0
 37
0.0
 76
     0
330
1F
331
29
  0
MATERIAL
  5
3D
102
{ACAD_REACTORS
330
3B
102
}
330
3B
100
AcDbMaterial
  1
ByBlock
 72
     1
 94
      127
  0
MATERIAL
  5
3C
102
{ACAD_REACTORS
330
3B
102
}
330
3B
100
AcDbMaterial
  1
ByLayer
 72
     1
 94
      127
  0
MATERIAL
  5
3E
102
{ACAD_REACTORS
330
3B
102
}
330
3B
100
AcDbMaterial
  1
Global
 72
     1
 94
      127
  0
MLINESTYLE
  5
18
102
{ACAD_REACTORS
330
17
102
}
330
17
100
AcDbMlineStyle
  2
Standard
 70
     0
  3

 62
   256
 51
90.0
 52
90.0
 71
     2
 49
0.5
 62
   256
  6
BYLAYER
 49
-0.5
 62
   256
  6
BYLAYER
  0
ACDBPLACEHOLDER
  5
F
102
{ACAD_REACTORS
330
E
102
}
330
E
  0
VISUALSTYLE
  5
2F
102
{ACAD_REACTORS
330
2A
102
}
330
2A
100
AcDbVisualStyle
  2
2dWireframe
 70
     4
177
     2
291
     0
 71
     0
176
     1
 72
     2
176
     1
 73
     0
176
     1
 90
        0
176
     1
 40
-0.6
176
     1
 41
-30.0
176
     1
 62
     5
 63
     7
421
 16777215
176
     1
 74
     1
176
     1
 91
        4
176
     1
 64
     7
176
     1
 65
   257
176
     1
 75
     1
176
     1
175
     1
176
     1
 42
1.0
176
     1
 92
        0
176
     1
 66
   257
176
     1
 43
1.0
176
     1
 76
     1
176
     1
 77
     6
176
     1
 78
     2
176
     1
 67
     7
176
     1
 79
     5
176
     1
170
     0
176
     1
171
     0
176
     1
290
     0
176
     1
 93
        1
176
     1
 44
0.0
176
     1
173
     0
176
     1
  0
VISUALSTYLE
  5
31
102
{ACAD_REACTORS
330
2A
102
}
330
2A
100
AcDbVisualStyle
  2
3D Hidden
 70
     6
177
     2
291
     0
 71
     1
176
     1
 72
     2
176
     1
 73
     2
176
     1
 90
        0
176
     1
 40
-0.6
176
     1
 41
-30.0
176
     1
 62
     5
 63
     7
421
 16777215
176
     1
 74
     2
176
     1
 91
        2
176
     1
 64
     7
176
     1
 65
   257
176
     1
 75
     2
176
     1
175
     1
176
     1
 42
40.0
176
     1
 92
        0
176
     1
 66
   257
176
     1
 43
1.0
176
     1
 76
     1
176
     1
 77
     6
176
     1
 78
     2
176
     1
 67
     7
176
     1
 79
     3
176
     1
170
     0
176
     1
171
     0
176
     1
290
     0
176
     1
 93
        1
176
     1
 44
0.0
176
     1
173
     0
176
     1
  0
VISUALSTYLE
  5
30
102
{ACAD_REACTORS
330
2A
102
}
330
2A
100
AcDbVisualStyle
  2
3dWireframe
 70
     5
177
     2
291
     0
 71
     0
176
     1
 72
     2
176
     1
 73
     0
176
     1
 90
        0
176
     1
 40
-0.6
176
     1
 41
-30.0
176
     1
 62
     5
 63
     7
421
 16777215
176
     1
 74
     1
176
     1
 91
        4
176
     1
 64
     7
176
     1
 65
   257
176
     1
 75
     1
176
     1
175
     1
176
     1
 42
1.0
176
     1
 92
        0
176
     1
 66
   257
176
     1
 43
1.0
176
     1
 76
     1
176
     1
 77
     6
176
     1
 78
     2
176
     1
 67
     7
176
     1
 79
     5
176
     1
170
     0
176
     1
171
     0
176
     1
290
     0
176
     1
 93
        1
176
     1
 44
0.0
176
     1
173
     0
176
     1
  0
VISUALSTYLE
  5
32
102
{ACAD_REACTORS
330
2A
102
}
330
2A
100
AcDbVisualStyle
  2
Basic
 70
     7
177
     2
291
     1
 71
     1
176
     1
 72
     0
176
     1
 73
     1
176
     1
 90
        0
176
     1
 40
-0.6
176
     1
 41
-30.0
176
     1
 62
     5
 63
     7
421
 16777215
176
     1
 74
     0
176
     1
 91
        4
176
     1
 64
     7
176
     1
 65
   257
176
     1
 75
     1
176
     1
175
     1
176
     1
 42
1.0
176
     1
 92
        8
176
     1
 66
     7
176
     1
 43
1.0
176
     1
 76
     1
176
     1
 77
     6
176
     1
 78
     2
176
     1
 67
     7
176
     1
 79
     5
176
     1
170
     0
176
     1
171
     0
176
     1
290
     0
176
     1
 93
        1
176
     1
 44
0.0
176
     1
173
     0
176
     1
  0
VISUALSTYLE
  5
36
102
{ACAD_REACTORS
330
2A
102
}
330
2A
100
AcDbVisualStyle
  2
Brighten
 70
    12
177
     2
291
     1
 71
     2
176
     1
 72
     2
176
     1
 73
     0
176
     1
 90
        0
176
     1
 40
-0.6
176
     1
 41
-30.0
176
     1
 62
     5
 63
     7
421
 16777215
176
     1
 74
     1
176
     1
 91
        4
176
     1
 64
     7
176
     1
 65
   257
176
     1
 75
     1
176
     1
175
     1
176
     1
 42
1.0
176
     1
 92
        8
176
     1
 66
     7
176
     1
 43
1.0
176
     1
 76
     1
176
     1
 77
     6
176
     1
 78
     2
176
     1
 67
     7
176
     1
 79
     5
176
     1
170
     0
176
     1
171
     0
176
     1
290
     0
176
     1
 93
        1
176
     1
 44
50.0
176
     1
173
     0
176
     1
  0
VISUALSTYLE
  5
3A
102
{ACAD_REACTORS
330
2A
102
}
330
2A
100
AcDbVisualStyle
  2
ColorChange
 70
    16
177
     2
291
     1
 71
     2
176
     1
 72
     2
176
     1
 73
     3
176
     1
 90
        0
176
     1
 40
-0.6
176
     1
 41
-30.0
176
     1
 62
     5
 63
     8
421
  8421504
176
     1
 74
     1
176
     1
 91
        4
176
     1
 64
     7
176
     1
 65
   257
176
     1
 75
     1
176
     1
175
     1
176
     1
 42
1.0
176
     1
 92
        8
176
     1
 66
     8
424
  8421504
176
     1
 43
1.0
176
     1
 76
     1
176
     1
 77
     6
176
     1
 78
     2
176
     1
 67
     7
176
     1
 79
     5
176
     1
170
     0
176
     1
171
     0
176
     1
290
     0
176
     1
 93
        1
176
     1
 44
0.0
176
     1
173
     0
176
     1
  0
VISUALSTYLE
  5
34
102
{ACAD_REACTORS
330
2A
102
}
330
2A
100
AcDbVisualStyle
  2
Conceptual
 70
     9
177
     2
291
     0
 71
     3
176
     1
 72
     2
176
     1
 73
     0
176
     1
 90
        0
176
     1
 40
-0.6
176
     1
 41
-30.0
176
     1
 62
     5
 63
     7
421
 16777215
176
     1
 74
     2
176
     1
 91
        2
176
     1
 64
     7
176
     1
 65
   257
176
     1
 75
     1
176
     1
175
     1
176
     1
 42
40.0
176
     1
 92
        8
176
     1
 66
     7
176
     1
 43
1.0
176
     1
 76
     1
176
     1
 77
     6
176
     1
 78
     2
176
     1
 67
     7
176
     1
 79
     3
176
     1
170
     0
176
     1
171
     0
176
     1
290
     0
176
     1
 93
        1
176
     1
 44
0.0
176
     1
173
     0
176
     1
  0
VISUALSTYLE
  5
35
102
{ACAD_REACTORS
330
2A
102
}
330
2A
100
AcDbVisualStyle
  2
Dim
 70
    11
177
     2
291
     1
 71
     2
176
     1
 72
     2
176
     1
 73
     0
176
     1
 90
        0
176
     1
 40
-0.6
176
     1
 41
-30.0
176
     1
 62
     5
 63
     7
421
 16777215
176
     1
 74
     1
176
     1
 91
        4
176
     1
 64
     7
176
     1
 65
   257
176
     1
 75
     1
176
     1
175
     1
176
     1
 42
1.0
176
     1
 92
        8
176
     1
 66
     7
176
     1
 43
1.0
176
     1
 76
     1
176
     1
 77
     6
176
     1
 78
     2
176
     1
 67
     7
176
     1
 79
     5
176
     1
170
     0
176
     1
171
     0
176
     1
290
     0
176
     1
 93
        1
176
     1
 44
-50.0
176
     1
173
     0
176
     1
  0
VISUALSTYLE
  5
39
102
{ACAD_REACTORS
330
2A
102
}
330
2A
100
AcDbVisualStyle
  2
Facepattern
 70
    15
177
     2
291
     1
 71
     2
176
     1
 72
     2
176
     1
 73
     0
176
     1
 90
        0
176
     1
 40
-0.6
176
     1
 41
-30.0
176
     1
 62
     5
 63
     7
421
 16777215
176
     1
 74
     1
176
     1
 91
        4
176
     1
 64
     7
176
     1
 65
   257
176
     1
 75
     1
176
     1
175
     1
176
     1
 42
1.0
176
     1
 92
        8
176
     1
 66
     7
176
     1
 43
1.0
176
     1
 76
     1
176
     1
 77
     6
176
     1
 78
     2
176
     1
 67
     7
176
     1
 79
     5
176
     1
170
     0
176
     1
171
     0
176
     1
290
     0
176
     1
 93
        1
176
     1
 44
0.0
176
     1
173
     0
176
     1
  0
VISUALSTYLE
  5
2B
102
{ACAD_REACTORS
330
2A
102
}
330
2A
100
AcDbVisualStyle
  2
Flat
 70
     0
177
     2
291
     1
 71
     2
176
     1
 72
     1
176
     1
 73
     1
176
     1
 90
        2
176
     1
 40
-0.6
176
     1
 41
30.0
176
     1
 62
     5
 63
     7
421
 16777215
176
     1
 74
     0
176
     1
 91
        4
176
     1
 64
     7
176
     1
 65
   257
176
     1
 75
     1
176
     1
175
     1
176
     1
 42
1.0
176
     1
 92
        8
176
     1
 66
     7
176
     1
 43
1.0
176
     1
 76
     1
176
     1
 77
     6
176
     1
 78
     2
176
     1
 67
     7
176
     1
 79
     5
176
     1
170
     0
176
     1
171
     0
176
     1
290
     0
176
     1
 93
       13
176
     1
 44
0.0
176
     1
173
     0
176
     1
  0
VISUALSTYLE
  5
2C
102
{ACAD_REACTORS
330
2A
102
}
330
2A
100
AcDbVisualStyle
  2
FlatWithEdges
 70
     1
177
     2
291
     1
 71
     2
176
     1
 72
     1
176
     1
 73
     1
176
     1
 90
        2
176
     1
 40
-0.6
176
     1
 41
30.0
176
     1
 62
     5
 63
     7
421
 16777215
176
     1
 74
     1
176
     1
 91
        4
176
     1
 64
     7
176
     1
 65
   257
176
     1
 75
     1
176
     1
175
     1
176
     1
 42
1.0
176
     1
 92
        0
176
     1
 66
   257
176
     1
 43
1.0
176
     1
 76
     1
176
     1
 77
     6
176
     1
 78
     2
176
     1
 67
     7
176
     1
 79
     5
176
     1
170
     0
176
     1
171
     0
176
     1
290
     0
176
     1
 93
       13
176
     1
 44
0.0
176
     1
173
     0
176
     1
  0
VISUALSTYLE
  5
2D
102
{ACAD_REACTORS
330
2A
102
}
330
2A
100
AcDbVisualStyle
  2
Gouraud
 70
     2
177
     2
291
     1
 71
     2
176
     1
 72
     2
176
     1
 73
     1
176
     1
 90
        2
176
     1
 40
-0.6
176
     1
 41
30.0
176
     1
 62
     5
 63
     7
421
 16777215
176
     1
 74
     0
176
     1
 91
        4
176
     1
 64
     7
176
     1
 65
   257
176
     1
 75
     1
176
     1
175
     1
176
     1
 42
1.0
176
     1
 92
        0
176
     1
 66
     7
176
     1
 43
1.0
176
     1
 76
     1
176
     1
 77
     6
176
     1
 78
     2
176
     1
 67
     7
176
     1
 79
     5
176
     1
170
     0
176
     1
171
     0
176
     1
290
     0
176
     1
 93
       13
176
     1
 44
0.0
176
     1
173
     0
176
     1
  0
VISUALSTYLE
  5
2E
102
{ACAD_REACTORS
330
2A
102
}
330
2A
100
AcDbVisualStyle
  2
GouraudWithEdges
 70
     3
177
     2
291
     1
 71
     2
176
     1
 72
     2
176
     1
 73
     1
176
     1
 90
        2
176
     1
 40
-0.6
176
     1
 41
30.0
176
     1
 62
     5
 63
     7
421
 16777215
176
     1
 74
     1
176
     1
 91
        4
176
     1
 64
     7
176
     1
 65
   257
176
     1
 75
     1
176
     1
175
     1
176
     1
 42
1.0
176
     1
 92
        0
176
     1
 66
   257
176
     1
 43
1.0
176
     1
 76
     1
176
     1
 77
     6
176
     1
 78
     2
176
     1
 67
     7
176
     1
 79
     5
176
     1
170
     0
176
     1
171
     0
176
     1
290
     0
176
     1
 93
       13
176
     1
 44
0.0
176
     1
173
     0
176
     1
  0
VISUALSTYLE
  5
38
102
{ACAD_REACTORS
330
2A
102
}
330
2A
100
AcDbVisualStyle
  2
Linepattern
 70
    14
177
     2
291
     1
 71
     2
176
     1
 72
     2
176
     1
 73
     0
176
     1
 90
        0
176
     1
 40
-0.6
176
     1
 41
-30.0
176
     1
 62
     5
 63
     7
421
 16777215
176
     1
 74
     1
176
     1
 91
        4
176
     1
 64
     7
176
     1
 65
   257
176
     1
 75
     7
176
     1
175
     7
176
     1
 42
1.0
176
     1
 92
        8
176
     1
 66
     7
176
     1
 43
1.0
176
     1
 76
     1
176
     1
 77
     6
176
     1
 78
     2
176
     1
 67
     7
176
     1
 79
     5
176
     1
170
     0
176
     1
171
     0
176
     1
290
     0
176
     1
 93
        1
176
     1
 44
0.0
176
     1
173
     0
176
     1
  0
VISUALSTYLE
  5
33
102
{ACAD_REACTORS
330
2A
102
}
330
2A
100
AcDbVisualStyle
  2
Realistic
 70
     8
177
     2
291
     0
 71
     2
176
     1
 72
     2
176
     1
 73
     0
176
     1
 90
        0
176
     1
 40
-0.6
176
     1
 41
-30.0
176
     1
 62
     5
 63
     7
421
 16777215
176
     1
 74
     1
176
     1
 91
        0
176
     1
 64
     7
176
     1
 65
   257
176
     1
 75
     1
176
     1
175
     1
176
     1
 42
1.0
176
     1
 92
        8
176
     1
 66
     8
424
  7895160
176
     1
 43
1.0
176
     1
 76
     1
176
     1
 77
     6
176
     1
 78
     2
176
     1
 67
     7
176
     1
 79
     5
176
     1
170
     0
176
     1
171
     0
176
     1
290
     0
176
     1
 93
       13
176
     1
 44
0.0
176
     1
173
     0
176
     1
  0
VISUALSTYLE
  5
37
102
{ACAD_REACTORS
330
2A
102
}
330
2A
100
AcDbVisualStyle
  2
Thicken
 70
    13
177
     2
291
     1
 71
     2
176
     1
 72
     2
176
     1
 73
     0
176
     1
 90
        0
176
     1
 40
-0.6
176
     1
 41
-30.0
176
     1
 62
     5
 63
     7
421
 16777215
176
     1
 74
     1
176
     1
 91
        4
176
     1
 64
     7
176
     1
 65
   257
176
     1
 75
     1
176
     1
175
     1
176
     1
 42
1.0
176
     1
 92
       12
176
     1
 66
     7
176
     1
 43
1.0
176
     1
 76
     1
176
     1
 77
     6
176
     1
 78
     2
176
     1
 67
     7
176
     1
 79
     5
176
     1
170
     0
176
     1
171
     0
176
     1
290
     0
176
     1
 93
        1
176
     1
 44
0.0
176
     1
173
     0
176
     1
  0
ENDSEC
  0
EOF
