  0
SECTION
  2
HEADER
  9
$ACADVER
  1
AC1024
  9
$ACADMAINTVER
 70
     6
  9
$DWGCODEPAGE
  3
ANSI_932
  9
$INSBASE
 10
0.0
 20
0.0
 30
0.0
  9
$EXTMIN
 10
-6300.0
 20
-4455.0
 30
0.0
  9
$EXTMAX
 10
6300.0
 20
4455.0
 30
0.0
  9
$LIMMIN
 10
-6300.0
 20
-4455.0
  9
$LIMMAX
 10
6300.0
 20
4455.0
  9
$ORTHOMODE
 70
     0
  9
$REGENMODE
 70
     1
  9
$FILLMODE
 70
     1
  9
$QTEXTMODE
 70
     0
  9
$MIRRTEXT
 70
     1
  9
$LTSCALE
 40
30.0
  9
$ATTMODE
 70
     1
  9
$TEXTSIZE
 40
2.5
  9
$TRACEWID
 40
1.0
  9
$TEXTSTYLE
  7
Standard
  9
$CLAYER
  8
0
  9
$CELTYPE
  6
ByLayer
  9
$CECOLOR
 62
   256
  9
$CELTSCALE
 40
1.0
  9
$DISPSILH
 70
     0
  9
$DIMSCALE
 40
1.0
  9
$DIMASZ
 40
2.5
  9
$DIMEXO
 40
0.625
  9
$DIMDLI
 40
3.75
  9
$DIMRND
 40
0.0
  9
$DIMDLE
 40
0.0
  9
$DIMEXE
 40
1.25
  9
$DIMTP
 40
0.0
  9
$DIMTM
 40
0.0
  9
$DIMTXT
 40
2.5
  9
$DIMCEN
 40
2.5
  9
$DIMTSZ
 40
0.0
  9
$DIMTOL
 70
     0
  9
$DIMLIM
 70
     0
  9
$DIMTIH
 70
     0
  9
$DIMTOH
 70
     0
  9
$DIMSE1
 70
     0
  9
$DIMSE2
 70
     0
  9
$DIMTAD
 70
     1
  9
$DIMZIN
 70
     8
  9
$DIMBLK
  1

  9
$DIMASO
 70
     1
  9
$DIMSHO
 70
     1
  9
$DIMPOST
  1

  9
$DIMAPOST
  1

  9
$DIMALT
 70
     0
  9
$DIMALTD
 70
     3
  9
$DIMALTF
 40
0.03937007874016
  9
$DIMLFAC
 40
1.0
  9
$DIMTOFL
 70
     1
  9
$DIMTVP
 40
0.0
  9
$DIMTIX
 70
     0
  9
$DIMSOXD
 70
     0
  9
$DIMSAH
 70
     0
  9
$DIMBLK1
  1

  9
$DIMBLK2
  1

  9
$DIMSTYLE
  2
ISO-25
  9
$DIMCLRD
 70
     0
  9
$DIMCLRE
 70
     0
  9
$DIMCLRT
 70
     0
  9
$DIMTFAC
 40
1.0
  9
$DIMGAP
 40
0.625
  9
$DIMJUST
 70
     0
  9
$DIMSD1
 70
     0
  9
$DIMSD2
 70
     0
  9
$DIMTOLJ
 70
     0
  9
$DIMTZIN
 70
     8
  9
$DIMALTZ
 70
     0
  9
$DIMALTTZ
 70
     0
  9
$DIMUPT
 70
     0
  9
$DIMDEC
 70
     2
  9
$DIMTDEC
 70
     2
  9
$DIMALTU
 70
     2
  9
$DIMALTTD
 70
     3
  9
$DIMTXSTY
  7
Standard
  9
$DIMAUNIT
 70
     0
  9
$DIMADEC
 70
     0
  9
$DIMALTRND
 40
0.0
  9
$DIMAZIN
 70
     0
  9
$DIMDSEP
 70
    44
  9
$DIMATFIT
 70
     3
  9
$DIMFRAC
 70
     0
  9
$DIMLDRBLK
  1

  9
$DIMLUNIT
 70
     2
  9
$DIMLWD
 70
    -2
  9
$DIMLWE
 70
    -2
  9
$DIMTMOVE
 70
     0
  9
$DIMFXL
 40
1.0
  9
$DIMFXLON
 70
     0
  9
$DIMJOGANG
 40
0.7853981633974483
  9
$DIMTFILL
 70
     0
  9
$DIMTFILLCLR
 70
     0
  9
$DIMARCSYM
 70
     0
  9
$DIMLTYPE
  6

  9
$DIMLTEX1
  6

  9
$DIMLTEX2
  6

  9
$DIMTXTDIRECTION
 70
     0
  9
$LUNITS
 70
     2
  9
$LUPREC
 70
     4
  9
$SKETCHINC
 40
1.0
  9
$FILLETRAD
 40
10.0
  9
$AUNITS
 70
     0
  9
$AUPREC
 70
     0
  9
$MENU
  1
.
  9
$ELEVATION
 40
0.0
  9
$PELEVATION
 40
0.0
  9
$THICKNESS
 40
0.0
  9
$LIMCHECK
 70
     0
  9
$CHAMFERA
 40
10.0
  9
$CHAMFERB
 40
10.0
  9
$CHAMFERC
 40
20.0
  9
$CHAMFERD
 40
0.0
  9
$SKPOLY
 70
     0
  9
$TDCREATE
 40
2460327.680757651
  9
$TDUCREATE
 40
2460327.305757651
  9
$TDUPDATE
 40
2460327.680757662
  9
$TDUUPDATE
 40
2460327.305757662
  9
$TDINDWG
 40
0.0000000116
  9
$TDUSRTIMER
 40
0.0000000116
  9
$USRTIMER
 70
     1
  9
$ANGBASE
 50
0.0
  9
$ANGDIR
 70
     0
  9
$PDMODE
 70
     0
  9
$PDSIZE
 40
0.0
  9
$PLINEWID
 40
0.0
  9
$SPLFRAME
 70
     0
  9
$SPLINETYPE
 70
     6
  9
$SPLINESEGS
 70
     8
  9
$HANDSEED
  5
3B6
  9
$SURFTAB1
 70
     6
  9
$SURFTAB2
 70
     6
  9
$SURFTYPE
 70
     6
  9
$SURFU
 70
     6
  9
$SURFV
 70
     6
  9
$UCSBASE
  2

  9
$UCSNAME
  2

  9
$UCSORG
 10
0.0
 20
0.0
 30
0.0
  9
$UCSXDIR
 10
1.0
 20
0.0
 30
0.0
  9
$UCSYDIR
 10
0.0
 20
1.0
 30
0.0
  9
$UCSORTHOREF
  2

  9
$UCSORTHOVIEW
 70
     0
  9
$UCSORGTOP
 10
0.0
 20
0.0
 30
0.0
  9
$UCSORGBOTTOM
 10
0.0
 20
0.0
 30
0.0
  9
$UCSORGLEFT
 10
0.0
 20
0.0
 30
0.0
  9
$UCSORGRIGHT
 10
0.0
 20
0.0
 30
0.0
  9
$UCSORGFRONT
 10
0.0
 20
0.0
 30
0.0
  9
$UCSORGBACK
 10
0.0
 20
0.0
 30
0.0
  9
$PUCSBASE
  2

  9
$PUCSNAME
  2

  9
$PUCSORG
 10
0.0
 20
0.0
 30
0.0
  9
$PUCSXDIR
 10
1.0
 20
0.0
 30
0.0
  9
$PUCSYDIR
 10
0.0
 20
1.0
 30
0.0
  9
$PUCSORTHOREF
  2

  9
$PUCSORTHOVIEW
 70
     0
  9
$PUCSORGTOP
 10
0.0
 20
0.0
 30
0.0
  9
$PUCSORGBOTTOM
 10
0.0
 20
0.0
 30
0.0
  9
$PUCSORGLEFT
 10
0.0
 20
0.0
 30
0.0
  9
$PUCSORGRIGHT
 10
0.0
 20
0.0
 30
0.0
  9
$PUCSORGFRONT
 10
0.0
 20
0.0
 30
0.0
  9
$PUCSORGBACK
 10
0.0
 20
0.0
 30
0.0
  9
$USERI1
 70
     0
  9
$USERI2
 70
     0
  9
$USERI3
 70
     0
  9
$USERI4
 70
     0
  9
$USERI5
 70
     0
  9
$USERR1
 40
0.0
  9
$USERR2
 40
0.0
  9
$USERR3
 40
0.0
  9
$USERR4
 40
0.0
  9
$USERR5
 40
0.0
  9
$WORLDVIEW
 70
     1
  9
$SHADEDGE
 70
     3
  9
$SHADEDIF
 70
    70
  9
$TILEMODE
 70
     1
  9
$MAXACTVP
 70
    64
  9
$PINSBASE
 10
0.0
 20
0.0
 30
0.0
  9
$PLIMCHECK
 70
     0
  9
$PEXTMIN
 10
1.000000000000000E+20
 20
1.000000000000000E+20
 30
1.000000000000000E+20
  9
$PEXTMAX
 10
-1.000000000000000E+20
 20
-1.000000000000000E+20
 30
-1.000000000000000E+20
  9
$PLIMMIN
 10
0.0
 20
0.0
  9
$PLIMMAX
 10
420.0
 20
297.0
  9
$UNITMODE
 70
     0
  9
$VISRETAIN
 70
     1
  9
$PLINEGEN
 70
     0
  9
$PSLTSCALE
 70
     1
  9
$TREEDEPTH
 70
  3020
  9
$CMLSTYLE
  2
Standard
  9
$CMLJUST
 70
     0
  9
$CMLSCALE
 40
20.0
  9
$PROXYGRAPHICS
 70
     1
  9
$MEASUREMENT
 70
     1
  9
$CELWEIGHT
370
    -1
  9
$ENDCAPS
280
     0
  9
$JOINSTYLE
280
     0
  9
$LWDISPLAY
290
     0
  9
$INSUNITS
 70
     4
  9
$HYPERLINKBASE
  1

  9
$STYLESHEET
  1

  9
$XEDIT
290
     1
  9
$CEPSNTYPE
380
     0
  9
$PSTYLEMODE
290
     1
  9
$FINGERPRINTGUID
  2
{23A39FF7-8101-43B9-8EF0-FFD8334512B7}
  9
$VERSIONGUID
  2
{FAEB1C32-E019-11D5-929B-00C0DF256EC4}
  9
$EXTNAMES
290
     1
  9
$PSVPSCALE
 40
0.0
  9
$OLESTARTUP
290
     0
  9
$SORTENTS
280
   127
  9
$INDEXCTL
280
     0
  9
$HIDETEXT
280
     1
  9
$XCLIPFRAME
280
     2
  9
$HALOGAP
280
     0
  9
$OBSCOLOR
 70
   257
  9
$OBSLTYPE
280
     0
  9
$INTERSECTIONDISPLAY
280
     0
  9
$INTERSECTIONCOLOR
 70
   257
  9
$DIMASSOC
280
     2
  9
$PROJECTNAME
  1

  9
$CAMERADISPLAY
290
     0
  9
$LENSLENGTH
 40
50.0
  9
$CAMERAHEIGHT
 40
0.0
  9
$STEPSPERSEC
 40
2.0
  9
$STEPSIZE
 40
6.0
  9
$3DDWFPREC
 40
2.0
  9
$PSOLWIDTH
 40
5.0
  9
$PSOLHEIGHT
 40
80.0
  9
$LOFTANG1
 40
1.570796326794897
  9
$LOFTANG2
 40
1.570796326794897
  9
$LOFTMAG1
 40
0.0
  9
$LOFTMAG2
 40
0.0
  9
$LOFTPARAM
 70
     7
  9
$LOFTNORMALS
280
     1
  9
$LATITUDE
 40
37.795
  9
$LONGITUDE
 40
-122.394
  9
$NORTHDIRECTION
 40
0.0
  9
$TIMEZONE
 70
 -8000
  9
$LIGHTGLYPHDISPLAY
280
     1
  9
$TILEMODELIGHTSYNCH
280
     1
  9
$SOLIDHIST
280
     1
  9
$SHOWHIST
280
     1
  9
$DWFFRAME
280
     2
  9
$DGNFRAME
280
     2
  9
$REALWORLDSCALE
290
     1
  9
$INTERFERECOLOR
 62
   256
  9
$CSHADOW
280
     0
  9
$SHADOWPLANELOCATION
 40
0.0
  0
ENDSEC
  0
SECTION
  2
CLASSES
  0
CLASS
  1
ACDBDICTIONARYWDFLT
  2
AcDbDictionaryWithDefault
  3
ObjectDBX Classes
 90
        0
 91
        4
280
     0
281
     0
  0
CLASS
  1
VISUALSTYLE
  2
AcDbVisualStyle
  3
ObjectDBX Classes
 90
     4095
 91
        4
280
     0
281
     0
  0
CLASS
  1
MATERIAL
  2
AcDbMaterial
  3
ObjectDBX Classes
 90
     1153
 91
        4
280
     0
281
     0
  0
ENDSEC
  0
SECTION
  2
TABLES
  0
TABLE
  2
VPORT
  5
8
330
0
100
AcDbSymbolTable
 70
     1
  0
VPORT
  5
29
330
8
100
AcDbSymbolTableRecord
100
AcDbViewportTableRecord
  2
*Active
 70
     0
 10
0.0
 20
0.0
 11
1.0
 21
1.0
 12
0.0
 22
0.0
 13
0.0
 23
0.0
 14
10.0
 24
10.0
 15
10.0
 25
10.0
 16
0.0
 26
0.0
 36
1.0
 17
0.0
 27
0.0
 37
0.0
 40
9801.0
 41
1.414141414141414
 42
50.0
 43
0.0
 44
0.0
 50
0.0
 51
0.0
 71
     0
 72
 10000
 73
     1
 74
     3
 75
     0
 76
     0
 77
     0
 78
     0
281
     0
 65
     1
110
0.0
120
0.0
130
0.0
111
1.0
121
0.0
131
0.0
112
0.0
122
1.0
132
0.0
 79
     0
146
0.0
 60
     3
 61
     5
292
     1
282
     1
141
0.0
142
0.0
 63
   250
  0
ENDTAB
  0
TABLE
  2
LTYPE
  5
5
330
0
100
AcDbSymbolTable
 70
     5
  0
LTYPE
  5
14
330
5
100
AcDbSymbolTableRecord
100
AcDbLinetypeTableRecord
  2
ByBlock
 70
     0
  3

 72
    65
 73
     0
 40
0.0
  0
LTYPE
  5
15
330
5
100
AcDbSymbolTableRecord
100
AcDbLinetypeTableRecord
  2
ByLayer
 70
     0
  3

 72
    65
 73
     0
 40
0.0
  0
LTYPE
  5
16
330
5
100
AcDbSymbolTableRecord
100
AcDbLinetypeTableRecord
  2
Continuous
 70
     0
  3
Solid line
 72
    65
 73
     0
 40
0.0
  0
LTYPE
  5
3F
330
5
100
AcDbSymbolTableRecord
100
AcDbLinetypeTableRecord
  2
JWW_HOJO
 70
     0
  3
  -   -   -   -   -   -   -   - 
 72
    65
 73
     2
 40
1.693333333333333
 49
-1.27
 74
     0
 49
0.4233333333333333
 74
     0
  0
LTYPE
  5
40
330
5
100
AcDbSymbolTableRecord
100
AcDbLinetypeTableRecord
  2
JWW_DASHED2
 70
     0
  3
--    ----    ----    ----    --
 72
    65
 73
     2
 40
3.386666666666667
 49
1.693333333333333
 74
     0
 49
-1.693333333333333
 74
     0
  0
LTYPE
  5
41
330
5
100
AcDbSymbolTableRecord
100
AcDbLinetypeTableRecord
  2
JWW_DASHED1
 70
     0
  3
-  --  --  --  --  --  --  --  -
 72
    65
 73
     2
 40
1.693333333333333
 49
0.8466666666666667
 74
     0
 49
-0.8466666666666667
 74
     0
  0
LTYPE
  5
42
330
5
100
AcDbSymbolTableRecord
100
AcDbLinetypeTableRecord
  2
JWW_CENTER1
 70
     0
  3
-----  --  ----------  --  -----
 72
    65
 73
     4
 40
6.773333333333333
 49
4.233333333333333
 74
     0
 49
-0.8466666666666667
 74
     0
 49
0.8466666666666667
 74
     0
 49
-0.8466666666666667
 74
     0
  0
ENDTAB
  0
TABLE
  2
LAYER
  5
2
330
0
100
AcDbSymbolTable
 70
    21
  0
LAYER
  5
10
330
2
100
AcDbSymbolTableRecord
100
AcDbLayerTableRecord
  2
0
 70
     0
 62
     7
  6
Continuous
370
    -3
390
F
347
3E
  0
LAYER
  5
43
330
2
100
AcDbSymbolTableRecord
100
AcDbLayerTableRecord
  2
F-0_補助線
 70
     0
 62
     7
  6
Continuous
370
    -3
390
F
347
3E
  0
LAYER
  5
44
330
2
100
AcDbSymbolTableRecord
100
AcDbLayerTableRecord
  2
F-1_枠
 70
     0
 62
     7
  6
Continuous
370
    -3
390
F
347
3E
  0
LAYER
  5
45
330
2
100
AcDbSymbolTableRecord
100
AcDbLayerTableRecord
  2
F-A_文字
 70
     0
 62
     7
  6
Continuous
370
    -3
390
F
347
3E
  0
LAYER
  5
46
330
2
100
AcDbSymbolTableRecord
100
AcDbLayerTableRecord
  2
0-A_文字
 70
     0
 62
     7
  6
Continuous
370
    -3
390
F
347
3E
  0
LAYER
  5
47
330
2
100
AcDbSymbolTableRecord
100
AcDbLayerTableRecord
  2
戸当り
 70
     0
 62
     7
  6
Continuous
370
    -3
390
F
347
3E
  0
LAYER
  5
48
330
2
100
AcDbSymbolTableRecord
100
AcDbLayerTableRecord
  2
0-0_補助線
 70
     0
 62
     7
  6
Continuous
370
    -3
390
F
347
3E
  0
LAYER
  5
49
330
2
100
AcDbSymbolTableRecord
100
AcDbLayerTableRecord
  2
0-B_寸法
 70
     0
 62
     7
  6
Continuous
370
    -3
390
F
347
3E
  0
LAYER
  5
4A
330
2
100
AcDbSymbolTableRecord
100
AcDbLayerTableRecord
  2
0-7_金物
 70
     0
 62
     7
  6
Continuous
370
    -3
390
F
347
3E
  0
LAYER
  5
4B
330
2
100
AcDbSymbolTableRecord
100
AcDbLayerTableRecord
  2
0-4_枠
 70
     0
 62
     7
  6
Continuous
370
    -3
390
F
347
3E
  0
LAYER
  5
4C
330
2
100
AcDbSymbolTableRecord
100
AcDbLayerTableRecord
  2
0-C_ハッチ
 70
     0
 62
     7
  6
Continuous
370
    -3
390
F
347
3E
  0
LAYER
  5
4D
330
2
100
AcDbSymbolTableRecord
100
AcDbLayerTableRecord
  2
0-3_仕上げ
 70
     0
 62
     7
  6
Continuous
370
    -3
390
F
347
3E
  0
LAYER
  5
4E
330
2
100
AcDbSymbolTableRecord
100
AcDbLayerTableRecord
  2
0-1_通り芯
 70
     0
 62
     7
  6
Continuous
370
    -3
390
F
347
3E
  0
LAYER
  5
4F
330
2
100
AcDbSymbolTableRecord
100
AcDbLayerTableRecord
  2
0-6_扉
 70
     0
 62
     7
  6
Continuous
370
    -3
390
F
347
3E
  0
LAYER
  5
50
330
2
100
AcDbSymbolTableRecord
100
AcDbLayerTableRecord
  2
1-3_仕上げ
 70
     0
 62
     7
  6
Continuous
370
    -3
390
F
347
3E
  0
LAYER
  5
51
330
2
100
AcDbSymbolTableRecord
100
AcDbLayerTableRecord
  2
1-B_寸法
 70
     0
 62
     7
  6
Continuous
370
    -3
390
F
347
3E
  0
LAYER
  5
52
330
2
100
AcDbSymbolTableRecord
100
AcDbLayerTableRecord
  2
1-4_枠
 70
     0
 62
     7
  6
Continuous
370
    -3
390
F
347
3E
  0
LAYER
  5
53
330
2
100
AcDbSymbolTableRecord
100
AcDbLayerTableRecord
  2
1-1_通り芯
 70
     0
 62
     7
  6
Continuous
370
    -3
390
F
347
3E
  0
LAYER
  5
54
330
2
100
AcDbSymbolTableRecord
100
AcDbLayerTableRecord
  2
1-A_文字
 70
     0
 62
     7
  6
Continuous
370
    -3
390
F
347
3E
  0
LAYER
  5
55
330
2
100
AcDbSymbolTableRecord
100
AcDbLayerTableRecord
  2
1-0_補助線
 70
     0
 62
     7
  6
Continuous
370
    -3
390
F
347
3E
  0
LAYER
  5
56
330
2
100
AcDbSymbolTableRecord
100
AcDbLayerTableRecord
  2
1-6_扉
 70
     0
 62
     7
  6
Continuous
370
    -3
390
F
347
3E
  0
ENDTAB
  0
TABLE
  2
STYLE
  5
3
330
0
100
AcDbSymbolTable
 70
     1
  0
STYLE
  5
11
330
3
100
AcDbSymbolTableRecord
100
AcDbTextStyleTableRecord
  2
Standard
 70
     0
 40
0.0
 41
1.0
 50
0.0
 71
     0
 42
2.5
  3
txt
  4

  0
ENDTAB
  0
TABLE
  2
VIEW
  5
6
330
0
100
AcDbSymbolTable
 70
     0
  0
ENDTAB
  0
TABLE
  2
UCS
  5
7
330
0
100
AcDbSymbolTable
 70
     0
  0
ENDTAB
  0
TABLE
  2
APPID
  5
9
330
0
100
AcDbSymbolTable
 70
     1
  0
APPID
  5
12
330
9
100
AcDbSymbolTableRecord
100
AcDbRegAppTableRecord
  2
ACAD
 70
     0
  0
ENDTAB
  0
TABLE
  2
DIMSTYLE
  5
A
330
0
100
AcDbSymbolTable
 70
     1
100
AcDbDimStyleTable
  0
DIMSTYLE
105
27
330
A
100
AcDbSymbolTableRecord
100
AcDbDimStyleTableRecord
  2
ISO-25
 70
     0
 41
2.5
 42
0.625
 43
3.75
 44
1.25
 73
     0
 74
     0
 77
     1
 78
     8
140
2.5
141
2.5
143
0.03937007874016
147
0.625
171
     3
172
     1
178
     0
271
     2
272
     2
274
     3
278
    44
283
     0
284
     8
340
11
  0
ENDTAB
  0
TABLE
  2
BLOCK_RECORD
  5
1
330
0
100
AcDbSymbolTable
 70
     1
  0
BLOCK_RECORD
  5
1F
330
1
100
AcDbSymbolTableRecord
100
AcDbBlockTableRecord
  2
*Model_Space
340
22
 70
     0
280
     1
281
     0
  0
BLOCK_RECORD
  5
1B
330
1
100
AcDbSymbolTableRecord
100
AcDbBlockTableRecord
  2
*Paper_Space
340
1E
 70
     0
280
     1
281
     0
  0
BLOCK_RECORD
  5
23
330
1
100
AcDbSymbolTableRecord
100
AcDbBlockTableRecord
  2
*Paper_Space0
340
26
 70
     0
280
     1
281
     0
  0
ENDTAB
  0
ENDSEC
  0
SECTION
  2
BLOCKS
  0
BLOCK
  5
20
330
1F
100
AcDbEntity
  8
0
100
AcDbBlockBegin
  2
*Model_Space
 70
     0
 10
0.0
 20
0.0
 30
0.0
  3
*Model_Space
  1

  0
ENDBLK
  5
21
330
1F
100
AcDbEntity
  8
0
100
AcDbBlockEnd
  0
BLOCK
  5
1C
330
1B
100
AcDbEntity
 67
     1
  8
0
100
AcDbBlockBegin
  2
*Paper_Space
 70
     0
 10
0.0
 20
0.0
 30
0.0
  3
*Paper_Space
  1

  0
ENDBLK
  5
1D
330
1B
100
AcDbEntity
 67
     1
  8
0
100
AcDbBlockEnd
  0
BLOCK
  5
24
330
23
100
AcDbEntity
  8
0
100
AcDbBlockBegin
  2
*Paper_Space0
 70
     0
 10
0.0
 20
0.0
 30
0.0
  3
*Paper_Space0
  1

  0
ENDBLK
  5
25
330
23
100
AcDbEntity
  8
0
100
AcDbBlockEnd
  0
ENDSEC
  0
SECTION
  2
ENTITIES
  0
LINE
  5
57
330
1F
100
AcDbEntity
  8
F-0_補助線
  6
JWW_HOJO
 62
   120
370
     5
100
AcDbLine
 10
-6140.081333436773
 20
-4455.0
 30
0.0
 11
-6140.081333436773
 21
4424.999604096284
 31
0.0
  0
LINE
  5
58
330
1F
100
AcDbEntity
  8
F-0_補助線
  6
JWW_HOJO
 62
   120
370
     5
100
AcDbLine
 10
-6140.081333436773
 20
4424.999604096284
 30
0.0
 11
6159.917676803936
 21
4424.999604096284
 31
0.0
  0
LINE
  5
59
330
1F
100
AcDbEntity
  8
F-0_補助線
  6
JWW_HOJO
 62
   120
370
     5
100
AcDbLine
 10
6159.917676803936
 20
4424.999604096284
 30
0.0
 11
6159.917676803936
 21
-4455.0
 31
0.0
  0
LINE
  5
5A
330
1F
100
AcDbEntity
  8
F-0_補助線
  6
JWW_HOJO
 62
   120
370
     5
100
AcDbLine
 10
6159.917676803936
 20
-4455.0
 30
0.0
 11
-6140.081333436773
 21
-4455.0
 31
0.0
  0
LINE
  5
5B
330
1F
100
AcDbEntity
  8
F-0_補助線
  6
JWW_HOJO
 62
     7
370
     5
100
AcDbLine
 10
509.9185840832865
 20
-3795.000003092998
 30
0.0
 11
509.9185840832865
 21
-4195.000008247994
 31
0.0
  0
LINE
  5
5C
330
1F
100
AcDbEntity
  8
F-1_枠
  6
Continuous
 62
   200
370
     5
100
AcDbLine
 10
5859.917429364114
 20
4174.999769056166
 30
0.0
 11
5859.917429364114
 21
-4205.000164959882
 31
0.0
  0
LINE
  5
5D
330
1F
100
AcDbEntity
  8
F-1_枠
  6
Continuous
 62
   200
370
     5
100
AcDbLine
 10
-5840.081317971782
 20
4174.999769056166
 30
0.0
 11
-5840.081317971782
 21
-4205.000164959882
 31
0.0
  0
LINE
  5
5E
330
1F
100
AcDbEntity
  8
F-1_枠
  6
Continuous
 62
   200
370
     5
100
AcDbLine
 10
5859.917429364114
 20
-4205.000002577498
 30
0.0
 11
-5840.081085996952
 21
-4205.000002577498
 31
0.0
  0
LINE
  5
5F
330
1F
100
AcDbEntity
  8
F-1_枠
  6
Continuous
 62
   200
370
     5
100
AcDbLine
 10
-5830.081323642279
 20
4174.999769056166
 30
0.0
 11
-5830.081323642279
 21
-4205.000164959882
 31
0.0
  0
LINE
  5
60
330
1F
100
AcDbEntity
  8
F-1_枠
  6
Continuous
 62
   200
370
     5
100
AcDbLine
 10
-5835.081309208291
 20
4174.999769056166
 30
0.0
 11
-5835.081309208291
 21
-4205.000164959882
 31
0.0
  0
LINE
  5
61
330
1F
100
AcDbEntity
  8
F-1_枠
  6
Continuous
 62
   200
370
     5
100
AcDbLine
 10
5854.917165428305
 20
4174.999769056166
 30
0.0
 11
5854.917165428305
 21
-4205.000164959882
 31
0.0
  0
LINE
  5
62
330
1F
100
AcDbEntity
  8
F-1_枠
  6
Continuous
 62
   200
370
     5
100
AcDbLine
 10
5849.917643811961
 20
4174.999769056166
 30
0.0
 11
5849.917643811961
 21
-4205.000164959882
 31
0.0
  0
LINE
  5
63
330
1F
100
AcDbEntity
  8
F-1_枠
  6
Continuous
 62
   200
370
     5
100
AcDbLine
 10
5859.917429364114
 20
-4199.999993814004
 30
0.0
 11
-5840.081085996952
 21
-4199.999993814004
 31
0.0
  0
LINE
  5
64
330
1F
100
AcDbEntity
  8
F-1_枠
  6
Continuous
 62
   200
370
     5
100
AcDbLine
 10
5859.917429364114
 20
-4195.000008247994
 30
0.0
 11
-5840.081085996952
 21
-4195.000008247994
 31
0.0
  0
LINE
  5
65
330
1F
100
AcDbEntity
  8
F-1_枠
  6
Continuous
 62
   200
370
     5
100
AcDbLine
 10
4349.917891251784
 20
-3795.000003092998
 30
0.0
 11
4349.917891251784
 21
-4195.000008247994
 31
0.0
  0
LINE
  5
66
330
1F
100
AcDbEntity
  8
F-1_枠
  6
Continuous
 62
   200
370
     5
100
AcDbLine
 10
2849.91739637214
 20
-3795.000003092998
 30
0.0
 11
2849.91739637214
 21
-4195.000008247994
 31
0.0
  0
LINE
  5
67
330
1F
100
AcDbEntity
  8
F-1_枠
  6
Continuous
 62
   200
370
     5
100
AcDbLine
 10
9.918542843316231
 20
-3795.000003092998
 30
0.0
 11
9.918542843316231
 21
-4195.000008247994
 31
0.0
  0
LINE
  5
68
330
1F
100
AcDbEntity
  8
F-1_枠
  6
Continuous
 62
   200
370
     5
100
AcDbLine
 10
9.918542843316231
 20
-3994.999936078046
 30
0.0
 11
5849.917643811961
 21
-3995.005364289155
 31
0.0
  0
LINE
  5
69
330
1F
100
AcDbEntity
  8
F-1_枠
  6
Continuous
 62
   200
370
     5
100
AcDbLine
 10
-5840.081085996952
 20
4174.999769056166
 30
0.0
 11
5859.917429364114
 21
4174.999769056166
 31
0.0
  0
LINE
  5
6A
330
1F
100
AcDbEntity
  8
F-1_枠
  6
Continuous
 62
   200
370
     5
100
AcDbLine
 10
-5840.081085996952
 20
4164.999983504013
 30
0.0
 11
5859.917429364114
 21
4164.999983504013
 31
0.0
  0
LINE
  5
6B
330
1F
100
AcDbEntity
  8
F-1_枠
  6
Continuous
 62
   200
370
     5
100
AcDbLine
 10
-5840.081085996952
 20
4169.999505120355
 30
0.0
 11
5859.917429364114
 21
4169.999505120355
 31
0.0
  0
LINE
  5
6C
330
1F
100
AcDbEntity
  8
F-0_補助線
  6
JWW_HOJO
 62
     7
370
     5
100
AcDbLine
 10
-5830.081323642279
 20
-3994.99993607839
 30
0.0
 11
9.918542843316231
 21
-3994.99993607839
 31
0.0
  0
LINE
  5
6D
330
1F
100
AcDbEntity
  8
F-0_補助線
  6
JWW_HOJO
 62
     7
370
     5
100
AcDbLine
 10
-5830.081323642279
 20
-3904.99993607839
 30
0.0
 11
9.918542843316231
 21
-3904.99993607839
 31
0.0
  0
LINE
  5
6E
330
1F
100
AcDbEntity
  8
F-0_補助線
  6
JWW_HOJO
 62
     7
370
     5
100
AcDbLine
 10
-5830.081323642279
 20
-4084.99993607839
 30
0.0
 11
9.918542843316231
 21
-4084.99993607839
 31
0.0
  0
LINE
  5
6F
330
1F
100
AcDbEntity
  8
F-0_補助線
  6
JWW_HOJO
 62
     7
370
     5
100
AcDbLine
 10
9.918408067688347
 20
-4139.999739777983
 30
0.0
 11
5849.917509036333
 21
-4140.005167989091
 31
0.0
  0
LINE
  5
70
330
1F
100
AcDbEntity
  8
F-0_補助線
  6
JWW_HOJO
 62
     7
370
     5
100
AcDbLine
 10
9.918491721639953
 20
-4049.999739778022
 30
0.0
 11
5849.917592690285
 21
-4050.005167989131
 31
0.0
  0
LINE
  5
71
330
1F
100
AcDbEntity
  8
F-0_補助線
  6
JWW_HOJO
 62
     7
370
     5
100
AcDbLine
 10
9.91859396535915
 20
-3939.99973721807
 30
0.0
 11
5849.917694934003
 21
-3940.005165429179
 31
0.0
  0
LINE
  5
72
330
1F
100
AcDbEntity
  8
F-0_補助線
  6
JWW_HOJO
 62
     7
370
     5
100
AcDbLine
 10
9.918677619310756
 20
-3849.999737218109
 30
0.0
 11
5849.917778587955
 21
-3850.005165429218
 31
0.0
  0
LINE
  5
73
330
1F
100
AcDbEntity
  8
F-0_補助線
  6
JWW_HOJO
 62
     7
370
     5
100
AcDbLine
 10
2939.91739637214
 20
-3795.000003092998
 30
0.0
 11
2939.91739637214
 21
-4195.000008247994
 31
0.0
  0
LINE
  5
74
330
1F
100
AcDbEntity
  8
F-0_補助線
  6
JWW_HOJO
 62
     7
370
     5
100
AcDbLine
 10
99.91854284331623
 20
-3795.000003092998
 30
0.0
 11
99.91854284331623
 21
-4195.000008247994
 31
0.0
  0
LINE
  5
75
330
1F
100
AcDbEntity
  8
F-0_補助線
  6
JWW_HOJO
 62
     7
370
     5
100
AcDbLine
 10
4439.917891251784
 20
-3795.000003092998
 30
0.0
 11
4439.917891251784
 21
-4195.000008247994
 31
0.0
  0
LINE
  5
76
330
1F
100
AcDbEntity
  8
F-1_枠
  6
Continuous
 62
   200
370
     5
100
AcDbLine
 10
5859.917429364114
 20
-3795.000003092998
 30
0.0
 11
-5840.081085996952
 21
-3795.000003092998
 31
0.0
  0
LINE
  5
77
330
1F
100
AcDbEntity
  8
F-1_枠
  6
Continuous
 62
   200
370
     5
100
AcDbLine
 10
5859.917429364114
 20
-3790.000017526987
 30
0.0
 11
-5840.081085996952
 21
-3790.000017526987
 31
0.0
  0
LINE
  5
78
330
1F
100
AcDbEntity
  8
F-0_補助線
  6
JWW_HOJO
 62
     7
370
     5
100
AcDbLine
 10
-5087.628710189611
 20
-3795.000003092999
 30
0.0
 11
-5087.628710189611
 21
-4205.000164959882
 31
0.0
  0
LINE
  5
79
330
1F
100
AcDbEntity
  8
F-0_補助線
  6
JWW_HOJO
 62
     7
370
     5
100
AcDbLine
 10
-50.08145715668377
 20
-3795.000003092998
 30
0.0
 11
-50.08145715668377
 21
-4195.000008247994
 31
0.0
  0
MTEXT
  5
7A
330
1F
100
AcDbEntity
  8
F-A_文字
  6
Continuous
 62
     7
370
     0
100
AcDbMText
 10
99.91854284331623
 20
-3887.139820871936
 30
0.0
 40
45.72
 41
180.0
 46
0.0
 71
     7
 72
     1
  1
{\fＭＳ ゴシック|b0|i0|c128|p49;図面名}
 73
     1
 44
1.0
  0
MTEXT
  5
7B
330
1F
100
AcDbEntity
  8
F-A_文字
  6
Continuous
 62
     7
370
     0
100
AcDbMText
 10
2939.91739637214
 20
-3887.142460617774
 30
0.0
 40
45.72
 41
300.0
 46
0.0
 71
     7
 72
     1
  1
{\fＭＳ ゴシック|b0|i0|c128|p49;ＳＣＡＬＥ}
 73
     1
 44
1.0
  0
MTEXT
  5
7C
330
1F
100
AcDbEntity
  8
F-A_文字
  6
Continuous
 62
     7
370
     0
100
AcDbMText
 10
4439.917891251784
 20
-3887.143854850754
 30
0.0
 40
45.72
 41
240.0
 46
0.0
 71
     7
 72
     1
  1
{\fＭＳ ゴシック|b0|i0|c128|p49;ＤＡＴＥ}
 73
     1
 44
1.0
  0
MTEXT
  5
7D
330
1F
100
AcDbEntity
  8
F-A_文字
  6
Continuous
 62
     7
370
     0
100
AcDbMText
 10
2939.91739637214
 20
-4087.14246317786
 30
0.0
 40
45.72
 41
240.0
 46
0.0
 71
     7
 72
     1
  1
{\fＭＳ ゴシック|b0|i0|c128|p49;ＦＩＬＥ}
 73
     1
 44
1.0
  0
MTEXT
  5
7E
330
1F
100
AcDbEntity
  8
F-A_文字
  6
Continuous
 62
     7
370
     0
100
AcDbMText
 10
4439.917891251784
 20
-4087.143857410839
 30
0.0
 40
45.72
 41
180.0
 46
0.0
 71
     7
 72
     1
  1
{\fＭＳ ゴシック|b0|i0|c128|p49;ＮＯ．}
 73
     1
 44
1.0
  0
MTEXT
  5
7F
330
1F
100
AcDbEntity
  8
F-A_文字
  6
Continuous
 62
     7
370
     0
100
AcDbMText
 10
1394.917396372138
 20
-4096.140669266149
 30
0.0
 40
45.72
 41
120.0
 46
0.0
 71
     7
 72
     1
  1
{\fＭＳ ゴシック|b0|i0|c128|p49;株式}
 73
     1
 44
1.0
  0
MTEXT
  5
80
330
1F
100
AcDbEntity
  8
F-A_文字
  6
Continuous
 62
     7
370
     0
100
AcDbMText
 10
1604.917396372138
 20
-4164.281754523929
 30
0.0
 40
101.44125
 41
1065.0
 46
0.0
 71
     7
 72
     1
  1
{\fＭＳ ゴシック|b0|i0|c128|p49;ウッドワン・・・}
 73
     1
 44
1.0
  0
MTEXT
  5
81
330
1F
100
AcDbEntity
  8
F-A_文字
  6
Continuous
 62
     7
370
     0
100
AcDbMText
 10
1394.917396372138
 20
-4168.140669266187
 30
0.0
 40
45.72
 41
120.0
 46
0.0
 71
     7
 72
     1
  1
{\fＭＳ ゴシック|b0|i0|c128|p49;会社}
 73
     1
 44
1.0
  0
MTEXT
  5
82
330
1F
100
AcDbEntity
  8
F-A_文字
  6
Continuous
 62
     7
370
     0
100
AcDbMText
 10
5768.321977672939
 20
-4314.841419020919
 30
0.0
 40
68.58
 41
90.0
 46
0.0
 71
     7
 72
     1
  1
{\fＭＳ ゴシック|b0|i0|c128|p49;）}
 73
     1
 44
1.0
  0
MTEXT
  5
83
330
1F
100
AcDbEntity
  8
F-A_文字
  6
Continuous
 62
     7
370
     0
100
AcDbMText
 10
5350.114617405298
 20
-4316.235443869856
 30
0.0
 40
68.58
 41
45.0
 46
0.0
 71
     7
 72
     1
  1
{\fＭＳ ゴシック|b0|i0|c128|p49;,}
 73
     1
 44
1.0
  0
MTEXT
  5
84
330
1F
100
AcDbEntity
  8
F-A_文字
  6
Continuous
 62
     7
370
     0
100
AcDbMText
 10
5083.855928478601
 20
-4314.771967288282
 30
0.0
 40
74.295
 41
97.5
 46
0.0
 71
     7
 72
     1
  1
{\fＭＳ ゴシック|b0|i0|c128|p49;$y}
 73
     1
 44
1.0
  0
MTEXT
  5
85
330
1F
100
AcDbEntity
  8
F-A_文字
  6
Continuous
 62
     7
370
     0
100
AcDbMText
 10
5238.592649517422
 20
-4314.771967288282
 30
0.0
 40
74.295
 41
97.5
 46
0.0
 71
     7
 72
     1
  1
{\fＭＳ ゴシック|b0|i0|c128|p49;$m}
 73
     1
 44
1.0
  0
MTEXT
  5
86
330
1F
100
AcDbEntity
  8
F-A_文字
  6
Continuous
 62
     7
370
     0
100
AcDbMText
 10
5393.32938200033
 20
-4314.771967288282
 30
0.0
 40
74.295
 41
97.5
 46
0.0
 71
     7
 72
     1
  1
{\fＭＳ ゴシック|b0|i0|c128|p49;$d}
 73
     1
 44
1.0
  0
MTEXT
  5
87
330
1F
100
AcDbEntity
  8
F-A_文字
  6
Continuous
 62
     7
370
     0
100
AcDbMText
 10
5548.066114483239
 20
-4314.771967288282
 30
0.0
 40
74.295
 41
195.0
 46
0.0
 71
     7
 72
     1
  1
{\fＭＳ ゴシック|b0|i0|c128|p49;印刷}
 73
     1
 44
1.0
  0
MTEXT
  5
88
330
1F
100
AcDbEntity
  8
F-A_文字
  6
Continuous
 62
     7
370
     0
100
AcDbMText
 10
4943.952040816226
 20
-4319.023493567732
 30
0.0
 40
68.58
 41
90.0
 46
0.0
 71
     7
 72
     1
  1
{\fＭＳ ゴシック|b0|i0|c128|p49;（}
 73
     1
 44
1.0
  0
MTEXT
  5
89
330
1F
100
AcDbEntity
  8
F-A_文字
  6
Continuous
 62
     7
370
     0
100
AcDbMText
 10
5191.195810375571
 20
-4319.023493567732
 30
0.0
 40
68.58
 41
45.0
 46
0.0
 71
     7
 72
     1
  1
{\fＭＳ ゴシック|b0|i0|c128|p49;,}
 73
     1
 44
1.0
  0
MTEXT
  5
8A
330
1F
100
AcDbEntity
  8
F-A_文字
  6
Continuous
 62
     7
370
     5
100
AcDbMText
 10
5096.167700144057
 20
-4147.857012699985
 30
0.0
 40
74.295
 41
97.5
 46
0.0
 71
     7
 72
     1
  1
{\fＭＳ ゴシック|b0|i0|c128|p49;05}
 73
     1
 44
1.0
  0
MTEXT
  5
8B
330
1F
100
AcDbEntity
  8
0-A_文字
  6
Continuous
 62
     7
370
     5
100
AcDbMText
 10
4259.917643811961
 20
3562.188554932585
 30
0.0
 40
78.37714285714286
 41
720.0
 46
0.0
 71
     7
 72
     1
  1
{\fＭＳ ゴシック|b0|i0|c128|p49;フリーオープン}
 73
     1
 44
1.0
  0
MTEXT
  5
8C
330
1F
100
AcDbEntity
  8
0-A_文字
  6
Continuous
 62
     7
370
     5
100
AcDbMText
 10
-2586.582109145239
 20
260.888451988375
 30
0.0
 40
91.44
 41
600.0
 46
0.0
 71
     7
 72
     1
  1
{\fＭＳ ゴシック|b0|i0|c128|p49;■縦断面図}
 73
     1
 44
1.0
  0
MTEXT
  5
8D
330
1F
100
AcDbEntity
  8
0-A_文字
  6
Continuous
 62
     7
370
     5
100
AcDbMText
 10
-2586.582109145239
 20
112.3681868209291
 30
0.0
 40
91.43999999999998
 41
1440.0
 46
0.0
 71
     7
 72
     1
  1
{\fＭＳ ゴシック|b0|i0|c128|p49;　[３方枠＋床直付レール]}
 73
     1
 44
1.0
  0
MTEXT
  5
8E
330
1F
100
AcDbEntity
  8
0-A_文字
  6
Continuous
 62
     7
370
   211
100
AcDbMText
 10
-1910.382007211412
 20
-2901.882286119607
 30
0.0
 40
91.44
 41
240.0
 46
0.0
 71
     7
 72
     1
  1
{\fＭＳ ゴシック|b0|i0|c128|p49;27.4}
 73
     1
 44
1.0
  0
LINE
  5
8F
330
1F
100
AcDbEntity
  8
0-A_文字
  6
Continuous
 62
    92
370
     5
100
AcDbLine
 10
-5659.999495325866
 20
3730.000181455871
 30
0.0
 11
-5659.999495325866
 21
4000.000181455871
 31
0.0
  0
ELLIPSE
  5
90
330
1F
100
AcDbEntity
  8
戸当り
  6
Continuous
 62
    92
370
     5
100
AcDbEllipse
 10
4675.430917458078
 20
2876.053590301511
 30
0.0
 11
11.36181697857171
 21
42.40287823032828
 31
0.0
210
0.0
220
0.0
230
0.9999999999999999
 40
0.6
 41
1.570796326794897
 42
4.71238898038469
  0
LINE
  5
91
330
1F
100
AcDbEntity
  8
戸当り
  6
Continuous
 62
    92
370
     5
100
AcDbLine
 10
4700.872644396272
 20
2869.236500114367
 30
0.0
 11
4649.989190519879
 21
2882.870680488653
 31
0.0
  0
LINE
  5
92
330
1F
100
AcDbEntity
  8
戸当り
  6
Continuous
 62
    92
370
     5
100
AcDbLine
 10
4704.133764364565
 20
2881.407165525609
 30
0.0
 11
4653.25031048817
 21
2895.041345899896
 31
0.0
  0
ELLIPSE
  5
93
330
1F
100
AcDbEntity
  8
戸当り
  6
Continuous
 62
    92
370
     5
100
AcDbEllipse
 10
4699.604310755758
 20
2966.269922279795
 30
0.0
 11
21.86569797210526
 21
81.6038957748525
 31
0.0
210
0.0
220
0.0
230
1.0
 40
0.5
 41
4.340591432030095
 42
8.225779182329084
  0
ELLIPSE
  5
94
330
1F
100
AcDbEntity
  8
戸当り
  6
Continuous
 62
    92
370
     5
100
AcDbEllipse
 10
4698.978687882654
 20
2963.935065931004
 30
0.0
 11
26.49533313827761
 21
98.88192943551533
 31
0.0
210
0.0
220
0.0
230
0.9999999999999999
 40
0.4
 41
3.840308517104466
 42
4.432552034522944
  0
ELLIPSE
  5
95
330
1F
100
AcDbEntity
  8
戸当り
  6
Continuous
 62
    92
370
     5
100
AcDbEllipse
 10
4698.978687882654
 20
2963.935065931004
 30
0.0
 11
26.49533313827761
 21
98.88192943551533
 31
0.0
210
0.0
220
0.0
230
0.9999999999999999
 40
0.4
 41
1.850633272656679
 42
2.442876790075129
  0
ELLIPSE
  5
96
330
1F
100
AcDbEntity
  8
戸当り
  6
Continuous
 62
    92
370
     5
100
AcDbEllipse
 10
4560.316707711374
 20
2838.284846937211
 30
0.0
 11
-7.622927487939132
 21
43.23177007461331
 31
0.0
210
0.0
220
0.0
230
1.0
 40
0.6000000000000001
 41
1.570796326794897
 42
4.71238898038469
  0
LINE
  5
97
330
1F
100
AcDbEntity
  8
戸当り
  6
Continuous
 62
    92
370
     5
100
AcDbLine
 10
4586.255769756144
 20
2842.858603429973
 30
0.0
 11
4534.377645666606
 21
2833.711090444446
 31
0.0
  0
LINE
  5
98
330
1F
100
AcDbEntity
  8
戸当り
  6
Continuous
 62
    92
370
     5
100
AcDbLine
 10
4584.067802717541
 20
2855.267181117928
 30
0.0
 11
4532.189678628003
 21
2846.119668132401
 31
0.0
  0
ELLIPSE
  5
99
330
1F
100
AcDbEntity
  8
戸当り
  6
Continuous
 62
    92
370
     5
100
AcDbEllipse
 10
4544.098172894875
 20
2930.264728582854
 30
0.0
 11
-14.67024424252691
 21
83.19908946199426
 31
0.0
210
0.0
220
0.0
230
1.0
 40
0.5
 41
4.340591432030095
 42
8.225779182329084
  0
ELLIPSE
  5
9A
330
1F
100
AcDbEntity
  8
戸当り
  6
Continuous
 62
    92
370
     5
100
AcDbEllipse
 10
4544.51791894478
 20
2927.884230441196
 30
0.0
 11
-17.7763823922528
 21
100.8148742797557
 31
0.0
210
0.0
220
0.0
230
1.0
 40
0.4000000000000001
 41
3.840308517104466
 42
4.432552034522944
  0
ELLIPSE
  5
9B
330
1F
100
AcDbEntity
  8
戸当り
  6
Continuous
 62
    92
370
     5
100
AcDbEllipse
 10
4544.51791894478
 20
2927.884230441196
 30
0.0
 11
-17.7763823922528
 21
100.8148742797557
 31
0.0
210
0.0
220
0.0
230
1.0
 40
0.4000000000000001
 41
1.850633272656679
 42
2.442876790075129
  0
LINE
  5
9C
330
1F
100
AcDbEntity
  8
0-0_補助線
  6
JWW_HOJO
 62
   120
370
     5
100
AcDbLine
 10
4619.917643811961
 20
2718.999983504014
 30
0.0
 11
4619.917643811961
 21
3536.444090120684
 31
0.0
  0
LINE
  5
9D
330
1F
100
AcDbEntity
  8
0-A_文字
  6
Continuous
 62
    92
370
     5
100
AcDbLine
 10
3869.917643811962
 20
3684.999983504013
 30
0.0
 11
3869.917643811962
 21
2718.999983504014
 31
0.0
  0
LINE
  5
9E
330
1F
100
AcDbEntity
  8
0-0_補助線
  6
JWW_HOJO
 62
   120
370
     5
100
AcDbLine
 10
3899.917643811962
 20
3684.999983504013
 30
0.0
 11
3899.917643811962
 21
2718.999983504014
 31
0.0
  0
LINE
  5
9F
330
1F
100
AcDbEntity
  8
0-A_文字
  6
Continuous
 62
    92
370
     5
100
AcDbLine
 10
5369.917643811961
 20
2718.999983504014
 30
0.0
 11
3869.917643811962
 21
2718.999983504014
 31
0.0
  0
LINE
  5
A0
330
1F
100
AcDbEntity
  8
0-A_文字
  6
Continuous
 62
    92
370
     5
100
AcDbLine
 10
5369.917643811961
 20
3684.999983504013
 30
0.0
 11
5369.917643811961
 21
2718.999983504014
 31
0.0
  0
LINE
  5
A1
330
1F
100
AcDbEntity
  8
0-0_補助線
  6
JWW_HOJO
 62
   120
370
     5
100
AcDbLine
 10
5339.917643811961
 20
3684.999983504013
 30
0.0
 11
5339.917643811961
 21
2718.999983504014
 31
0.0
  0
LINE
  5
A2
330
1F
100
AcDbEntity
  8
戸当り
  6
Continuous
 62
    40
370
     5
100
AcDbLine
 10
4889.917643811961
 20
3385.504011182748
 30
0.0
 11
4854.977072723121
 21
3255.104024633723
 31
0.0
  0
LINE
  5
A3
330
1F
100
AcDbEntity
  8
戸当り
  6
Continuous
 62
    40
370
     5
100
AcDbLine
 10
4820.036501634283
 20
3385.504011182748
 30
0.0
 11
4854.977072723121
 21
3255.104024633723
 31
0.0
  0
LINE
  5
A4
330
1F
100
AcDbEntity
  8
戸当り
  6
Continuous
 62
    40
370
     5
100
AcDbLine
 10
4419.798785989644
 20
3385.504011182748
 30
0.0
 11
4384.858214900803
 21
3255.104024633723
 31
0.0
  0
LINE
  5
A5
330
1F
100
AcDbEntity
  8
戸当り
  6
Continuous
 62
    40
370
     5
100
AcDbLine
 10
4349.917643811961
 20
3385.504011182748
 30
0.0
 11
4384.858214900803
 21
3255.104024633723
 31
0.0
  0
LINE
  5
A6
330
1F
100
AcDbEntity
  8
戸当り
  6
Continuous
 62
    40
370
     5
100
AcDbLine
 10
5159.917643811961
 20
3385.504011182748
 30
0.0
 11
5124.977072723121
 21
3255.104024633723
 31
0.0
  0
LINE
  5
A7
330
1F
100
AcDbEntity
  8
戸当り
  6
Continuous
 62
    40
370
     5
100
AcDbLine
 10
5090.036501634283
 20
3385.504011182748
 30
0.0
 11
5124.977072723121
 21
3255.104024633723
 31
0.0
  0
LINE
  5
A8
330
1F
100
AcDbEntity
  8
戸当り
  6
Continuous
 62
    40
370
     5
100
AcDbLine
 10
4149.798785989644
 20
3385.504011182748
 30
0.0
 11
4114.858214900803
 21
3255.104024633723
 31
0.0
  0
LINE
  5
A9
330
1F
100
AcDbEntity
  8
戸当り
  6
Continuous
 62
    40
370
     5
100
AcDbLine
 10
4079.917643811962
 20
3385.504011182748
 30
0.0
 11
4114.858214900803
 21
3255.104024633723
 31
0.0
  0
CIRCLE
  5
AA
330
1F
100
AcDbEntity
  8
0-0_補助線
  6
JWW_HOJO
 62
   120
370
     5
100
AcDbCircle
 10
5159.917643811961
 20
3385.504011182748
 30
0.0
 40
135.0
  0
CIRCLE
  5
AB
330
1F
100
AcDbEntity
  8
0-0_補助線
  6
JWW_HOJO
 62
   120
370
     5
100
AcDbCircle
 10
4079.917643811962
 20
3385.504011182748
 30
0.0
 40
135.0
  0
CIRCLE
  5
AC
330
1F
100
AcDbEntity
  8
0-0_補助線
  6
JWW_HOJO
 62
   120
370
     5
100
AcDbCircle
 10
5024.917643811961
 20
3385.504011182748
 30
0.0
 40
135.0
  0
CIRCLE
  5
AD
330
1F
100
AcDbEntity
  8
0-0_補助線
  6
JWW_HOJO
 62
   120
370
     5
100
AcDbCircle
 10
4754.917643811961
 20
3385.504011182748
 30
0.0
 40
135.0
  0
CIRCLE
  5
AE
330
1F
100
AcDbEntity
  8
0-0_補助線
  6
JWW_HOJO
 62
   120
370
     5
100
AcDbCircle
 10
4484.917643811961
 20
3385.504011182748
 30
0.0
 40
135.0
  0
CIRCLE
  5
AF
330
1F
100
AcDbEntity
  8
0-0_補助線
  6
JWW_HOJO
 62
   120
370
     5
100
AcDbCircle
 10
4214.917643811963
 20
3385.504011182748
 30
0.0
 40
135.0
  0
LINE
  5
B0
330
1F
100
AcDbEntity
  8
戸当り
  6
JWW_DASHED2
 62
     7
370
     5
100
AcDbLine
 10
5159.917643811961
 20
3385.504011182748
 30
0.0
 11
4079.917643811962
 21
3385.504011182748
 31
0.0
  0
LINE
  5
B1
330
1F
100
AcDbEntity
  8
戸当り
  6
Continuous
 62
    40
370
     5
100
AcDbLine
 10
4079.917643811962
 20
3439.504011182749
 30
0.0
 11
4079.917643811962
 21
3385.504011182748
 31
0.0
  0
LINE
  5
B2
330
1F
100
AcDbEntity
  8
戸当り
  6
Continuous
 62
    40
370
     5
100
AcDbLine
 10
4079.917643811962
 20
3439.504011182749
 30
0.0
 11
3899.917643811962
 21
3439.504011182749
 31
0.0
  0
LINE
  5
B3
330
1F
100
AcDbEntity
  8
戸当り
  6
Continuous
 62
    40
370
     5
100
AcDbLine
 10
4079.917643811962
 20
3385.504011182748
 30
0.0
 11
3899.917643811962
 21
3385.504011182748
 31
0.0
  0
LINE
  5
B4
330
1F
100
AcDbEntity
  8
戸当り
  6
Continuous
 62
    40
370
     5
100
AcDbLine
 10
5159.917643811961
 20
3439.504011182749
 30
0.0
 11
5159.917643811961
 21
3385.504011182748
 31
0.0
  0
LINE
  5
B5
330
1F
100
AcDbEntity
  8
戸当り
  6
Continuous
 62
    40
370
     5
100
AcDbLine
 10
5159.917643811961
 20
3439.504011182749
 30
0.0
 11
5339.917643811961
 21
3439.504011182749
 31
0.0
  0
LINE
  5
B6
330
1F
100
AcDbEntity
  8
戸当り
  6
Continuous
 62
    40
370
     5
100
AcDbLine
 10
5159.917643811961
 20
3385.504011182748
 30
0.0
 11
5339.917643811961
 21
3385.504011182748
 31
0.0
  0
LINE
  5
B7
330
1F
100
AcDbEntity
  8
0-A_文字
  6
Continuous
 62
    92
370
     5
100
AcDbLine
 10
5369.917643811961
 20
3540.999983504012
 30
0.0
 11
3869.917643811962
 21
3540.999983504012
 31
0.0
  0
LINE
  5
B8
330
1F
100
AcDbEntity
  8
0-A_文字
  6
Continuous
 62
    92
370
     5
100
AcDbLine
 10
5369.917643811961
 20
3684.999983504013
 30
0.0
 11
3869.917643811962
 21
3684.999983504013
 31
0.0
  0
LWPOLYLINE
  5
B9
330
1F
100
AcDbEntity
  8
0-B_寸法
  6
Continuous
 62
     7
370
     5
100
AcDbPolyline
 90
        4
 70
     1
 43
3.0
 10
-509.0820434909731
 20
-3225.999963090228
 42
0.4142135623731
 10
-510.5820434909731
 20
-3224.499963090228
 42
0.4142135623731
 10
-512.0820434909731
 20
-3225.999963090228
 42
0.4142135623731
 10
-510.5820434909731
 20
-3227.499963090228
 42
0.4142135623731
  0
LINE
  5
BA
330
1F
100
AcDbEntity
  8
0-B_寸法
  6
Continuous
 62
   120
370
     5
100
AcDbLine
 10
-1140.582166956611
 20
-3225.999963090228
 30
0.0
 11
-510.5820434909731
 21
-3225.999963090228
 31
0.0
  0
LWPOLYLINE
  5
BB
330
1F
100
AcDbEntity
  8
0-B_寸法
  6
Continuous
 62
     7
370
     5
100
AcDbPolyline
 90
        4
 70
     1
 43
3.0
 10
-719.0820434909731
 20
-3225.999963090228
 42
0.4142135623731
 10
-720.5820434909731
 20
-3224.499963090228
 42
0.4142135623731
 10
-722.0820434909731
 20
-3225.999963090228
 42
0.4142135623731
 10
-720.5820434909731
 20
-3227.499963090228
 42
0.4142135623731
  0
LWPOLYLINE
  5
BC
330
1F
100
AcDbEntity
  8
0-B_寸法
  6
Continuous
 62
     7
370
     5
100
AcDbPolyline
 90
        4
 70
     1
 43
3.0
 10
-719.0820434909731
 20
-3196.00033424996
 42
0.4142135623731
 10
-720.5820434909731
 20
-3194.50033424996
 42
0.4142135623731
 10
-722.0820434909731
 20
-3196.00033424996
 42
0.4142135623731
 10
-720.5820434909731
 20
-3197.50033424996
 42
0.4142135623731
  0
LINE
  5
BD
330
1F
100
AcDbEntity
  8
0-B_寸法
  6
Continuous
 62
   120
370
     5
100
AcDbLine
 10
-1140.582166956611
 20
-3196.00033424996
 30
0.0
 11
-720.5820434909731
 21
-3196.00033424996
 31
0.0
  0
LWPOLYLINE
  5
BE
330
1F
100
AcDbEntity
  8
0-B_寸法
  6
Continuous
 62
     7
370
     5
100
AcDbPolyline
 90
        4
 70
     1
 43
3.0
 10
-929.0820434909731
 20
-3196.00033424996
 42
0.4142135623731
 10
-930.5820434909731
 20
-3194.50033424996
 42
0.4142135623731
 10
-932.0820434909731
 20
-3196.00033424996
 42
0.4142135623731
 10
-930.5820434909731
 20
-3197.50033424996
 42
0.4142135623731
  0
LWPOLYLINE
  5
BF
330
1F
100
AcDbEntity
  8
0-B_寸法
  6
Continuous
 62
     7
370
     5
100
AcDbPolyline
 90
        4
 70
     1
 43
3.0
 10
-929.0820434909731
 20
-3157.00033424996
 42
0.4142135623731
 10
-930.5820434909731
 20
-3155.50033424996
 42
0.4142135623731
 10
-932.0820434909731
 20
-3157.00033424996
 42
0.4142135623731
 10
-930.5820434909731
 20
-3158.50033424996
 42
0.4142135623731
  0
LINE
  5
C0
330
1F
100
AcDbEntity
  8
0-B_寸法
  6
Continuous
 62
   120
370
     5
100
AcDbLine
 10
-1140.582166956611
 20
-3157.00033424996
 30
0.0
 11
-930.5820434909731
 21
-3157.00033424996
 31
0.0
  0
LINE
  5
C1
330
1F
100
AcDbEntity
  8
0-B_寸法
  6
Continuous
 62
   120
370
     5
100
AcDbLine
 10
-1140.582166956611
 20
-3297.999940820644
 30
0.0
 11
-510.5812452166322
 21
-3297.999940820644
 31
0.0
  0
LWPOLYLINE
  5
C2
330
1F
100
AcDbEntity
  8
0-B_寸法
  6
Continuous
 62
     7
370
     5
100
AcDbPolyline
 90
        4
 70
     1
 43
3.0
 10
-509.0812452166322
 20
-3297.999940820644
 42
0.4142135623731
 10
-510.5812452166322
 20
-3296.499940820644
 42
0.4142135623731
 10
-512.0812452166322
 20
-3297.999940820644
 42
0.4142135623731
 10
-510.5812452166322
 20
-3299.499940820644
 42
0.4142135623731
  0
LINE
  5
C3
330
1F
100
AcDbEntity
  8
0-B_寸法
  6
Continuous
 62
   120
370
     5
100
AcDbLine
 10
-1140.582166956611
 20
-297.9995696609116
 30
0.0
 11
-510.5820434909731
 21
-297.9995696609116
 31
0.0
  0
LWPOLYLINE
  5
C4
330
1F
100
AcDbEntity
  8
0-B_寸法
  6
Continuous
 62
     7
370
     5
100
AcDbPolyline
 90
        4
 70
     1
 43
3.0
 10
-509.0820434909731
 20
-297.9995696609116
 42
0.4142135623731
 10
-510.5820434909731
 20
-296.4995696609116
 42
0.4142135623731
 10
-512.0820434909731
 20
-297.9995696609116
 42
0.4142135623731
 10
-510.5820434909731
 20
-299.4995696609116
 42
0.4142135623731
  0
LINE
  5
C5
330
1F
100
AcDbEntity
  8
0-B_寸法
  6
Continuous
 62
   120
370
     5
100
AcDbLine
 10
-930.5820434909731
 20
-513.9985749528249
 30
0.0
 11
-720.5820434909731
 21
-513.9985749528249
 31
0.0
  0
LWPOLYLINE
  5
C6
330
1F
100
AcDbEntity
  8
0-B_寸法
  6
Continuous
 62
     7
370
     5
100
AcDbPolyline
 90
        4
 70
     1
 43
3.0
 10
-719.0820434909731
 20
-513.9985749528249
 42
0.4142135623731
 10
-720.5820434909731
 20
-512.4985749528249
 42
0.4142135623731
 10
-722.0820434909731
 20
-513.9985749528249
 42
0.4142135623731
 10
-720.5820434909731
 20
-515.4985749528249
 42
0.4142135623731
  0
LWPOLYLINE
  5
C7
330
1F
100
AcDbEntity
  8
0-B_寸法
  6
Continuous
 62
     7
370
     5
100
AcDbPolyline
 90
        4
 70
     1
 43
3.0
 10
-719.0820434909731
 20
-297.9995696609116
 42
0.4142135623731
 10
-720.5820434909731
 20
-296.4995696609116
 42
0.4142135623731
 10
-722.0820434909731
 20
-297.9995696609116
 42
0.4142135623731
 10
-720.5820434909731
 20
-299.4995696609116
 42
0.4142135623731
  0
LWPOLYLINE
  5
C8
330
1F
100
AcDbEntity
  8
0-B_寸法
  6
Continuous
 62
     7
370
     5
100
AcDbPolyline
 90
        4
 70
     1
 43
3.0
 10
-929.0820434909731
 20
-513.9989461125581
 42
0.4142135623731
 10
-930.5820434909731
 20
-512.498946112558
 42
0.4142135623731
 10
-932.0820434909731
 20
-513.9989461125581
 42
0.4142135623731
 10
-930.5820434909731
 20
-515.4989461125581
 42
0.4142135623731
  0
LWPOLYLINE
  5
C9
330
1F
100
AcDbEntity
  8
0-B_寸法
  6
Continuous
 62
     7
370
     5
100
AcDbPolyline
 90
        4
 70
     1
 43
3.0
 10
-929.0820434909731
 20
-558.9990945764519
 42
0.4142135623731
 10
-930.5820434909731
 20
-557.4990945764517
 42
0.4142135623731
 10
-932.0820434909731
 20
-558.9990945764519
 42
0.4142135623731
 10
-930.5820434909731
 20
-560.4990945764519
 42
0.4142135623731
  0
LINE
  5
CA
330
1F
100
AcDbEntity
  8
0-B_寸法
  6
Continuous
 62
   120
370
     5
100
AcDbLine
 10
-1140.582166956611
 20
-513.9989461125581
 30
0.0
 11
-930.5820434909731
 21
-513.9989461125581
 31
0.0
  0
LINE
  5
CB
330
1F
100
AcDbEntity
  8
0-B_寸法
  6
Continuous
 62
   120
370
     5
100
AcDbLine
 10
-1140.582166956611
 20
-558.9990945764519
 30
0.0
 11
-930.5820434909731
 21
-558.9990945764519
 31
0.0
  0
LINE
  5
CC
330
1F
100
AcDbEntity
  8
0-B_寸法
  6
Continuous
 62
   120
370
     5
100
AcDbLine
 10
-930.5820434909731
 20
-3196.00033424996
 30
0.0
 11
-930.5820434909731
 21
-513.9989461125581
 31
0.0
  0
LINE
  5
CD
330
1F
100
AcDbEntity
  8
0-B_寸法
  6
Continuous
 62
   120
370
     5
100
AcDbLine
 10
-720.5820434909731
 20
-3225.999963090228
 30
0.0
 11
-720.5820434909731
 21
-297.9995696609116
 31
0.0
  0
LINE
  5
CE
330
1F
100
AcDbEntity
  8
0-7_金物
  6
Continuous
 62
     7
370
     5
100
AcDbLine
 10
-1830.581429284767
 20
-405.9992801563179
 30
0.0
 11
-1830.581429284767
 21
-513.9993717090547
 31
0.0
  0
LINE
  5
CF
330
1F
100
AcDbEntity
  8
0-7_金物
  6
Continuous
 62
     7
370
     5
100
AcDbLine
 10
-1686.58110169764
 20
-405.9992801563179
 30
0.0
 11
-1830.581429284767
 21
-405.9992801563179
 31
0.0
  0
LINE
  5
D0
330
1F
100
AcDbEntity
  8
0-7_金物
  6
Continuous
 62
     7
370
     5
100
AcDbLine
 10
-1686.58110169764
 20
-513.9993717090547
 30
0.0
 11
-1686.58110169764
 21
-405.9992801563179
 31
0.0
  0
LINE
  5
D1
330
1F
100
AcDbEntity
  8
0-7_金物
  6
Continuous
 62
     7
370
     5
100
AcDbLine
 10
-1692.402372163493
 20
-500.7871219531943
 30
0.0
 11
-1692.402372163493
 21
-434.7871219531929
 31
0.0
  0
LINE
  5
D2
330
1F
100
AcDbEntity
  8
0-7_金物
  6
Continuous
 62
     7
370
     5
100
AcDbLine
 10
-1692.402372163493
 20
-434.7871219531929
 30
0.0
 11
-1728.581538003642
 21
-434.7871219531929
 31
0.0
  0
LINE
  5
D3
330
1F
100
AcDbEntity
  8
0-7_金物
  6
Continuous
 62
     7
370
     5
100
AcDbLine
 10
-1728.581538003642
 20
-513.9993717090547
 30
0.0
 11
-1728.581538003642
 21
-417.9989139453815
 31
0.0
  0
LINE
  5
D4
330
1F
100
AcDbEntity
  8
0-7_金物
  6
Continuous
 62
     7
370
     5
100
AcDbLine
 10
-1728.581538003642
 20
-417.9989139453815
 30
0.0
 11
-1788.583226007182
 21
-417.9989139453815
 31
0.0
  0
LINE
  5
D5
330
1F
100
AcDbEntity
  8
0-7_金物
  6
Continuous
 62
     7
370
     5
100
AcDbLine
 10
-1788.583226007182
 20
-417.9989139453815
 30
0.0
 11
-1788.583226007182
 21
-513.9993717090547
 31
0.0
  0
LINE
  5
D6
330
1F
100
AcDbEntity
  8
0-7_金物
  6
Continuous
 62
     7
370
     5
100
AcDbLine
 10
-1824.401619714455
 20
-434.7871219531929
 30
0.0
 11
-1824.401619714455
 21
-500.7871219531943
 31
0.0
  0
LINE
  5
D7
330
1F
100
AcDbEntity
  8
0-7_金物
  6
Continuous
 62
     7
370
     5
100
AcDbLine
 10
-1788.583226007182
 20
-434.7871219531929
 30
0.0
 11
-1824.401619714455
 21
-434.7871219531929
 31
0.0
  0
LINE
  5
D8
330
1F
100
AcDbEntity
  8
0-7_金物
  6
Continuous
 62
     7
370
     5
100
AcDbLine
 10
-1842.58176116343
 20
-513.9993717090547
 30
0.0
 11
-1860.581532281604
 21
-513.9993717090547
 31
0.0
  0
LINE
  5
D9
330
1F
100
AcDbEntity
  8
0-7_金物
  6
Continuous
 62
     7
370
     5
100
AcDbLine
 10
-1823.57764510508
 20
-519.999463261788
 30
0.0
 11
-1823.57764510508
 21
-513.9993717090547
 31
0.0
  0
LINE
  5
DA
330
1F
100
AcDbEntity
  8
0-7_金物
  6
Continuous
 62
     7
370
     5
100
AcDbLine
 10
-1830.581429284767
 20
-513.9993717090547
 30
0.0
 11
-1823.57764510508
 21
-513.9993717090547
 31
0.0
  0
LINE
  5
DB
330
1F
100
AcDbEntity
  8
0-7_金物
  6
Continuous
 62
     7
370
     5
100
AcDbLine
 10
-1674.581508320526
 20
-513.9993717090547
 30
0.0
 11
-1656.583230298717
 21
-513.9993717090547
 31
0.0
  0
LINE
  5
DC
330
1F
100
AcDbEntity
  8
0-7_金物
  6
Continuous
 62
     7
370
     5
100
AcDbLine
 10
-1694.368032258714
 20
-519.999463261788
 30
0.0
 11
-1694.368032258714
 21
-513.9993717090547
 31
0.0
  0
LINE
  5
DD
330
1F
100
AcDbEntity
  8
0-7_金物
  6
Continuous
 62
     7
370
     5
100
AcDbLine
 10
-1694.368032258714
 20
-513.9993717090547
 30
0.0
 11
-1686.58110169764
 21
-513.9993717090547
 31
0.0
  0
LINE
  5
DE
330
1F
100
AcDbEntity
  8
0-7_金物
  6
Continuous
 62
     7
370
     5
100
AcDbLine
 10
-1860.581532281604
 20
-513.9993717090547
 30
0.0
 11
-1860.581532281604
 21
-519.999463261788
 31
0.0
  0
LINE
  5
DF
330
1F
100
AcDbEntity
  8
0-7_金物
  6
Continuous
 62
     7
370
     5
100
AcDbLine
 10
-1694.368032258714
 20
-519.999463261788
 30
0.0
 11
-1656.583230298717
 21
-519.999463261788
 31
0.0
  0
LINE
  5
E0
330
1F
100
AcDbEntity
  8
0-7_金物
  6
Continuous
 62
     7
370
     5
100
AcDbLine
 10
-1656.583230298717
 20
-513.9993717090547
 30
0.0
 11
-1656.583230298717
 21
-519.999463261788
 31
0.0
  0
LINE
  5
E1
330
1F
100
AcDbEntity
  8
0-7_金物
  6
Continuous
 62
     7
370
     5
100
AcDbLine
 10
-1770.581978601182
 20
-558.9994632617867
 30
0.0
 11
-1746.581297677723
 21
-558.9994632617867
 31
0.0
  0
LINE
  5
E2
330
1F
100
AcDbEntity
  8
0-7_金物
  6
Continuous
 62
     7
370
     5
100
AcDbLine
 10
-1770.581978601182
 20
-513.9993717090547
 30
0.0
 11
-1770.581978601182
 21
-558.9994632617867
 31
0.0
  0
LINE
  5
E3
330
1F
100
AcDbEntity
  8
0-7_金物
  6
Continuous
 62
     7
370
     5
100
AcDbLine
 10
-1746.581297677723
 20
-558.9994632617867
 30
0.0
 11
-1746.581297677723
 21
-513.9993717090547
 31
0.0
  0
LINE
  5
E4
330
1F
100
AcDbEntity
  8
0-7_金物
  6
Continuous
 62
     7
370
     5
100
AcDbLine
 10
-1728.581538003642
 20
-500.7871219531943
 30
0.0
 11
-1692.402372163493
 21
-500.7871219531943
 31
0.0
  0
LINE
  5
E5
330
1F
100
AcDbEntity
  8
0-7_金物
  6
Continuous
 62
     7
370
     5
100
AcDbLine
 10
-1824.401619714455
 20
-500.7871219531943
 30
0.0
 11
-1788.583226007182
 21
-500.7871219531943
 31
0.0
  0
LINE
  5
E6
330
1F
100
AcDbEntity
  8
0-7_金物
  6
Continuous
 62
     7
370
     5
100
AcDbLine
 10
-1788.583226007182
 20
-513.9993717090547
 30
0.0
 11
-1728.581538003642
 21
-513.9993717090547
 31
0.0
  0
LINE
  5
E7
330
1F
100
AcDbEntity
  8
0-7_金物
  6
Continuous
 62
     7
370
     5
100
AcDbLine
 10
-1823.57764510508
 20
-519.999463261788
 30
0.0
 11
-1860.581532281604
 21
-519.999463261788
 31
0.0
  0
LINE
  5
E8
330
1F
100
AcDbEntity
  8
0-4_枠
  6
Continuous
 62
    92
370
     5
100
AcDbLine
 10
-1674.582430642805
 20
-393.9989139453791
 30
0.0
 11
-1674.582430642805
 21
-513.9993717090509
 31
0.0
  0
LINE
  5
E9
330
1F
100
AcDbEntity
  8
0-4_枠
  6
Continuous
 62
    92
370
     5
100
AcDbLine
 10
-1842.582683485708
 20
-393.9989139453791
 30
0.0
 11
-1674.582430642805
 21
-393.9989139453791
 31
0.0
  0
LINE
  5
EA
330
1F
100
AcDbEntity
  8
0-4_枠
  6
Continuous
 62
    92
370
     5
100
AcDbLine
 10
-1842.582683485708
 20
-513.9993717090509
 30
0.0
 11
-1842.582683485708
 21
-393.9989139453791
 31
0.0
  0
LINE
  5
EB
330
1F
100
AcDbEntity
  8
0-4_枠
  6
Continuous
 62
    92
370
     5
100
AcDbLine
 10
-1527.582007211414
 20
-513.9993717090509
 30
0.0
 11
-1674.582430642805
 21
-513.9993717090509
 31
0.0
  0
LINE
  5
EC
330
1F
100
AcDbEntity
  8
0-4_枠
  6
Continuous
 62
    92
370
     5
100
AcDbLine
 10
-1989.582007211403
 20
-513.9993717090509
 30
0.0
 11
-1842.582683485708
 21
-513.9993717090509
 31
0.0
  0
LINE
  5
ED
330
1F
100
AcDbEntity
  8
0-4_枠
  6
Continuous
 62
    92
370
     5
100
AcDbLine
 10
-1527.582007211414
 20
-297.999554814521
 30
0.0
 11
-1527.582007211414
 21
-513.9993717090509
 31
0.0
  0
LINE
  5
EE
330
1F
100
AcDbEntity
  8
0-4_枠
  6
Continuous
 62
    92
370
     5
100
AcDbLine
 10
-1989.582007211403
 20
-297.999554814521
 30
0.0
 11
-1989.582007211403
 21
-513.9993717090509
 31
0.0
  0
LINE
  5
EF
330
1F
100
AcDbEntity
  8
0-4_枠
  6
Continuous
 62
    92
370
     5
100
AcDbLine
 10
-1989.582007211403
 20
-297.999554814521
 30
0.0
 11
-1527.582007211414
 21
-297.999554814521
 31
0.0
  0
LINE
  5
F0
330
1F
100
AcDbEntity
  8
0-B_寸法
  6
Continuous
 62
   120
370
     5
100
AcDbLine
 10
-1527.582007211414
 20
-809.4818941186576
 30
0.0
 11
-1527.582007211414
 21
-655.7709466967616
 31
0.0
  0
LWPOLYLINE
  5
F1
330
1F
100
AcDbEntity
  8
0-B_寸法
  6
Continuous
 62
     7
370
     5
100
AcDbPolyline
 90
        4
 70
     1
 43
3.0
 10
-1526.082007211414
 20
-809.4818941186576
 42
0.4142135623731
 10
-1527.582007211414
 20
-807.9818941186576
 42
0.4142135623731
 10
-1529.082007211414
 20
-809.4818941186576
 42
0.4142135623731
 10
-1527.582007211414
 20
-810.9818941186576
 42
0.4142135623731
  0
LINE
  5
F2
330
1F
100
AcDbEntity
  8
0-B_寸法
  6
Continuous
 62
   120
370
     5
100
AcDbLine
 10
-1989.582007211403
 20
-809.4818941186576
 30
0.0
 11
-1989.582007211403
 21
-655.7709466967616
 31
0.0
  0
LWPOLYLINE
  5
F3
330
1F
100
AcDbEntity
  8
0-B_寸法
  6
Continuous
 62
     7
370
     5
100
AcDbPolyline
 90
        4
 70
     1
 43
3.0
 10
-1988.082007211403
 20
-809.4818941186576
 42
0.4142135623731
 10
-1989.582007211403
 20
-807.9818941186576
 42
0.4142135623731
 10
-1991.082007211403
 20
-809.4818941186576
 42
0.4142135623731
 10
-1989.582007211403
 20
-810.9818941186576
 42
0.4142135623731
  0
LINE
  5
F4
330
1F
100
AcDbEntity
  8
0-B_寸法
  6
Continuous
 62
   120
370
     5
100
AcDbLine
 10
-1527.582007211414
 20
-809.4818941186576
 30
0.0
 11
-1989.582007211403
 21
-809.4818941186576
 31
0.0
  0
LINE
  5
F5
330
1F
100
AcDbEntity
  8
0-C_ハッチ
  6
Continuous
 62
   120
370
     5
100
AcDbLine
 10
-1984.283195976565
 20
-513.9993717090578
 30
0.0
 11
-1989.582007211417
 21
-508.7005604742125
 31
0.0
  0
LINE
  5
F6
330
1F
100
AcDbEntity
  8
0-C_ハッチ
  6
Continuous
 62
   120
370
     5
100
AcDbLine
 10
-1924.886226356863
 20
-513.9993717090547
 30
0.0
 11
-1989.582007211417
 21
-449.3035908545127
 31
0.0
  0
LINE
  5
F7
330
1F
100
AcDbEntity
  8
0-C_ハッチ
  6
Continuous
 62
   120
370
     5
100
AcDbLine
 10
-1865.489256737229
 20
-513.9993717090463
 30
0.0
 11
-1989.582007211417
 21
-389.9066212348633
 31
0.0
  0
LINE
  5
F8
330
1F
100
AcDbEntity
  8
0-C_ハッチ
  6
Continuous
 62
   120
370
     5
100
AcDbLine
 10
-1842.582683485695
 20
-477.5089753408739
 30
0.0
 11
-1989.582007211417
 21
-330.5096516151585
 31
0.0
  0
LINE
  5
F9
330
1F
100
AcDbEntity
  8
0-C_ハッチ
  6
Continuous
 62
   120
370
     5
100
AcDbLine
 10
-1842.582683485708
 20
-418.112005721216
 30
0.0
 11
-1962.695134392403
 21
-297.999554814521
 31
0.0
  0
LINE
  5
FA
330
1F
100
AcDbEntity
  8
0-C_ハッチ
  6
Continuous
 62
   120
370
     5
100
AcDbLine
 10
-1807.298805641905
 20
-393.9989139453791
 30
0.0
 11
-1903.298164772742
 21
-297.9995548145334
 31
0.0
  0
LINE
  5
FB
330
1F
100
AcDbEntity
  8
0-C_ハッチ
  6
Continuous
 62
   120
370
     5
100
AcDbLine
 10
-1627.901378258531
 20
-513.9993717090531
 30
0.0
 11
-1674.582430642805
 21
-467.3183193247738
 31
0.0
  0
LINE
  5
FC
330
1F
100
AcDbEntity
  8
0-C_ハッチ
  6
Continuous
 62
   120
370
     5
100
AcDbLine
 10
-1747.901836022203
 20
-393.9989139453791
 30
0.0
 11
-1843.901195153068
 21
-297.9995548145163
 31
0.0
  0
LINE
  5
FD
330
1F
100
AcDbEntity
  8
0-C_ハッチ
  6
Continuous
 62
   120
370
     5
100
AcDbLine
 10
-1568.504408638884
 20
-513.9993717090509
 30
0.0
 11
-1674.582430642805
 21
-407.9213497051308
 31
0.0
  0
LINE
  5
FE
330
1F
100
AcDbEntity
  8
0-C_ハッチ
  6
Continuous
 62
   120
370
     5
100
AcDbLine
 10
-1688.504866402556
 20
-393.9989139453743
 30
0.0
 11
-1784.504225533407
 21
-297.9995548145279
 31
0.0
  0
LINE
  5
FF
330
1F
100
AcDbEntity
  8
0-C_ハッチ
  6
Continuous
 62
   120
370
     5
100
AcDbLine
 10
-1527.5820072114
 20
-495.5248035168225
 30
0.0
 11
-1725.107255913705
 21
-297.999554814518
 31
0.0
  0
LINE
  5
100
330
1F
100
AcDbEntity
  8
0-C_ハッチ
  6
Continuous
 62
   120
370
     5
100
AcDbLine
 10
-1527.582007211414
 20
-436.1278338971667
 30
0.0
 11
-1665.710286294058
 21
-297.999554814521
 31
0.0
  0
LINE
  5
101
330
1F
100
AcDbEntity
  8
0-C_ハッチ
  6
Continuous
 62
   120
370
     5
100
AcDbLine
 10
-1527.582007211414
 20
-376.7308642775173
 30
0.0
 11
-1606.313316674397
 21
-297.9995548145334
 31
0.0
  0
LINE
  5
102
330
1F
100
AcDbEntity
  8
0-C_ハッチ
  6
Continuous
 62
   120
370
     5
100
AcDbLine
 10
-1527.5820072114
 20
-317.3338946578291
 30
0.0
 11
-1546.916347054722
 21
-297.9995548145163
 31
0.0
  0
LINE
  5
103
330
1F
100
AcDbEntity
  8
0-4_枠
  6
Continuous
 62
   120
370
     5
100
AcDbLine
 10
-1527.582007211414
 20
-297.999554814521
 30
0.0
 11
-1503.582007211409
 21
-297.999554814521
 31
0.0
  0
LINE
  5
104
330
1F
100
AcDbEntity
  8
0-4_枠
  6
Continuous
 62
   120
370
     5
100
AcDbLine
 10
-1989.582007211403
 20
-297.999554814521
 30
0.0
 11
-2013.582007211409
 21
-297.999554814521
 31
0.0
  0
LINE
  5
105
330
1F
100
AcDbEntity
  8
0-4_枠
  6
Continuous
 62
   120
370
     5
100
AcDbLine
 10
-1503.582007211409
 20
-1761.999713176006
 30
0.0
 11
-1503.582007211409
 21
-297.999554814521
 31
0.0
  0
LINE
  5
106
330
1F
100
AcDbEntity
  8
0-C_ハッチ
  6
JWW_DASHED1
 62
   120
370
     5
100
AcDbLine
 10
-1589.769115020741
 20
-297.999554814521
 30
0.0
 11
-1608.582007211409
 21
-279.1866626238537
 31
0.0
  0
LINE
  5
107
330
1F
100
AcDbEntity
  8
0-C_ハッチ
  6
JWW_DASHED1
 62
   120
370
     5
100
AcDbLine
 10
-1547.342708149555
 20
-297.9995548145095
 30
0.0
 11
-1608.582007211409
 21
-236.7602557526575
 31
0.0
  0
LINE
  5
108
330
1F
100
AcDbEntity
  8
0-C_ハッチ
  6
JWW_DASHED1
 62
   120
370
     5
100
AcDbLine
 10
-1533.582007211409
 20
-269.3338488814558
 30
0.0
 11
-1608.582007211409
 21
-194.3338488814605
 31
0.0
  0
LINE
  5
109
330
1F
100
AcDbEntity
  8
0-C_ハッチ
  6
JWW_DASHED1
 62
   120
370
     5
100
AcDbLine
 10
-1533.582007211409
 20
-226.9074420102605
 30
0.0
 11
-1608.582007211395
 21
-151.9074420102626
 31
0.0
  0
LINE
  5
10A
330
1F
100
AcDbEntity
  8
0-C_ハッチ
  6
JWW_DASHED1
 62
   120
370
     5
100
AcDbLine
 10
-1533.582007211395
 20
-184.4810351390626
 30
0.0
 11
-1608.582007211395
 21
-109.4810351390669
 31
0.0
  0
LINE
  5
10B
330
1F
100
AcDbEntity
  8
0-C_ハッチ
  6
JWW_DASHED1
 62
   120
370
     5
100
AcDbLine
 10
-1533.582007211395
 20
-142.0546282678669
 30
0.0
 11
-1608.582007211395
 21
-67.05462826786942
 31
0.0
  0
LINE
  5
10C
330
1F
100
AcDbEntity
  8
0-C_ハッチ
  6
JWW_DASHED1
 62
   120
370
     5
100
AcDbLine
 10
-1533.582007211395
 20
-99.62822139671715
 30
0.0
 11
-1608.582007211395
 21
-24.62822139672312
 31
0.0
  0
LINE
  5
10D
330
1F
100
AcDbEntity
  8
0-3_仕上げ
  6
Continuous
 62
    40
370
     5
100
AcDbLine
 10
-1533.582007211409
 20
-297.999554814521
 30
0.0
 11
-1533.582007211409
 21
2.000445185479407
 31
0.0
  0
LINE
  5
10E
330
1F
100
AcDbEntity
  8
0-3_仕上げ
  6
Continuous
 62
    40
370
     5
100
AcDbLine
 10
-1608.582007211409
 20
-297.999554814521
 30
0.0
 11
-1608.582007211409
 21
2.000445185479407
 31
0.0
  0
LINE
  5
10F
330
1F
100
AcDbEntity
  8
0-C_ハッチ
  6
JWW_DASHED1
 62
   120
370
     5
100
AcDbLine
 10
-1533.582007211409
 20
-57.20181452551458
 30
0.0
 11
-1592.784266922396
 21
2.000445185479407
 31
0.0
  0
LINE
  5
110
330
1F
100
AcDbEntity
  8
0-C_ハッチ
  6
JWW_DASHED1
 62
   120
370
     5
100
AcDbLine
 10
-1533.582007211395
 20
-14.77540765431712
 30
0.0
 11
-1550.357860051196
 21
2.000445185479407
 31
0.0
  0
LINE
  5
111
330
1F
100
AcDbEntity
  8
0-4_枠
  6
Continuous
 62
   120
370
     5
100
AcDbLine
 10
-2013.582007211409
 20
-1761.999713176006
 30
0.0
 11
-2013.582007211409
 21
-297.999554814521
 31
0.0
  0
LINE
  5
112
330
1F
100
AcDbEntity
  8
0-4_枠
  6
Continuous
 62
   120
370
     5
100
AcDbLine
 10
-2013.582007211409
 20
-3225.999963090226
 30
0.0
 11
-2013.582007211409
 21
-1881.999713176006
 31
0.0
  0
LINE
  5
113
330
1F
100
AcDbEntity
  8
0-4_枠
  6
Continuous
 62
   120
370
     5
100
AcDbLine
 10
-1503.582007211409
 20
-3225.999963090226
 30
0.0
 11
-1503.582007211409
 21
-1881.999713176006
 31
0.0
  0
LINE
  5
114
330
1F
100
AcDbEntity
  8
0-0_補助線
  6
JWW_HOJO
 62
   120
370
     5
100
AcDbLine
 10
-2559.581669096752
 20
-3297.999940794253
 30
0.0
 11
-510.5812452166322
 21
-3297.999940794253
 31
0.0
  0
LINE
  5
115
330
1F
100
AcDbEntity
  8
0-3_仕上げ
  6
Continuous
 62
     7
370
     5
100
AcDbLine
 10
-2349.581685223103
 20
-3274.00019568366
 30
0.0
 11
-1140.581384808648
 21
-3274.00019568366
 31
0.0
  0
LINE
  5
116
330
1F
100
AcDbEntity
  8
0-3_仕上げ
  6
Continuous
 62
     7
370
     5
100
AcDbLine
 10
-2349.581685223103
 20
-3262.000230325234
 30
0.0
 11
-1140.581384808648
 21
-3262.000230325234
 31
0.0
  0
LINE
  5
117
330
1F
100
AcDbEntity
  8
0-3_仕上げ
  6
Continuous
 62
     7
370
     5
100
AcDbLine
 10
-2349.581685223103
 20
-3286.000346621954
 30
0.0
 11
-1140.581384808648
 21
-3286.000346621954
 31
0.0
  0
LINE
  5
118
330
1F
100
AcDbEntity
  8
0-3_仕上げ
  6
Continuous
 62
    40
370
     5
100
AcDbLine
 10
-2349.581685223103
 20
-3298.000311980378
 30
0.0
 11
-1140.581384808648
 21
-3298.000311980378
 31
0.0
  0
LINE
  5
119
330
1F
100
AcDbEntity
  8
0-3_仕上げ
  6
Continuous
 62
     7
370
     5
100
AcDbLine
 10
-2349.581685223103
 20
-3250.00026496681
 30
0.0
 11
-1140.581384808648
 21
-3250.00026496681
 31
0.0
  0
LINE
  5
11A
330
1F
100
AcDbEntity
  8
0-3_仕上げ
  6
Continuous
 62
     7
370
     5
100
AcDbLine
 10
-2349.581685223103
 20
-3238.000114028518
 30
0.0
 11
-1140.581384808648
 21
-3238.000114028518
 31
0.0
  0
LINE
  5
11B
330
1F
100
AcDbEntity
  8
0-3_仕上げ
  6
Continuous
 62
    40
370
     5
100
AcDbLine
 10
-1140.581384808648
 20
-3226.00033424996
 30
0.0
 11
-2349.581685223103
 21
-3226.00033424996
 31
0.0
  0
LWPOLYLINE
  5
11C
330
1F
100
AcDbEntity
  8
0-B_寸法
  6
Continuous
 62
     7
370
     5
100
AcDbPolyline
 90
        4
 70
     1
 43
3.0
 10
-2708.081669096739
 20
-3297.999940820644
 42
0.4142135623731
 10
-2709.581669096739
 20
-3296.499940820644
 42
0.4142135623731
 10
-2711.081669096739
 20
-3297.999940820644
 42
0.4142135623731
 10
-2709.581669096739
 20
-3299.499940820644
 42
0.4142135623731
  0
LINE
  5
11D
330
1F
100
AcDbEntity
  8
0-B_寸法
  6
Continuous
 62
   120
370
     5
100
AcDbLine
 10
-2349.581669096739
 20
-3297.999940820644
 30
0.0
 11
-2709.581669096739
 21
-3297.999940820644
 31
0.0
  0
LINE
  5
11E
330
1F
100
AcDbEntity
  8
0-0_補助線
  6
JWW_HOJO
 62
   120
370
     5
100
AcDbLine
 10
-1130.029689952731
 20
-1761.999713176006
 30
0.0
 11
-2373.557596867746
 21
-1761.999713176006
 31
0.0
  0
LINE
  5
11F
330
1F
100
AcDbEntity
  8
0-0_補助線
  6
JWW_HOJO
 62
   120
370
     5
100
AcDbLine
 10
-1130.029689952731
 20
-1881.999713176007
 30
0.0
 11
-2373.557596867746
 21
-1881.999713176007
 31
0.0
  0
LINE
  5
120
330
1F
100
AcDbEntity
  8
0-B_寸法
  6
Continuous
 62
   120
370
     5
100
AcDbLine
 10
-510.5820434909731
 20
-267.9995696609116
 30
0.0
 11
-1140.582043490973
 21
-267.9995696609116
 31
0.0
  0
LWPOLYLINE
  5
121
330
1F
100
AcDbEntity
  8
0-B_寸法
  6
Continuous
 62
     7
370
     5
100
AcDbPolyline
 90
        4
 70
     1
 43
3.0
 10
-509.0820434909731
 20
-267.9995696609116
 42
0.4142135623731
 10
-510.5820434909731
 20
-266.4995696609116
 42
0.4142135623731
 10
-512.0820434909731
 20
-267.9995696609116
 42
0.4142135623731
 10
-510.5820434909731
 20
-269.4995696609116
 42
0.4142135623731
  0
LINE
  5
122
330
1F
100
AcDbEntity
  8
0-B_寸法
  6
Continuous
 62
   120
370
     5
100
AcDbLine
 10
-510.5820434909731
 20
-3297.999940820644
 30
0.0
 11
-510.5820434909731
 21
-267.9995696609116
 31
0.0
  0
LINE
  5
123
330
1F
100
AcDbEntity
  8
0-7_金物
  6
Continuous
 62
     7
370
     5
100
AcDbLine
 10
-1848.581938546855
 20
-279.8539714344057
 30
0.0
 11
-1668.582075875962
 21
-279.8539714344057
 31
0.0
  0
LINE
  5
124
330
1F
100
AcDbEntity
  8
0-7_金物
  6
Continuous
 62
     7
370
     5
100
AcDbLine
 10
-1668.582075875962
 20
-267.8536338336963
 30
0.0
 11
-1668.582075875962
 21
-279.8539714344057
 31
0.0
  0
LINE
  5
125
330
1F
100
AcDbEntity
  8
0-7_金物
  6
Continuous
 62
     7
370
     5
100
AcDbLine
 10
-1848.581938546855
 20
-267.8536338336963
 30
0.0
 11
-1848.581938546855
 21
-279.8539714344057
 31
0.0
  0
LINE
  5
126
330
1F
100
AcDbEntity
  8
0-7_金物
  6
Continuous
 62
     7
370
     5
100
AcDbLine
 10
-1848.581938546855
 20
-267.8536338336963
 30
0.0
 11
-1668.582075875962
 21
-267.8536338336963
 31
0.0
  0
LINE
  5
127
330
1F
100
AcDbEntity
  8
0-7_金物
  6
Continuous
 62
     7
370
     5
100
AcDbLine
 10
-1818.581835550032
 20
-279.8539714344057
 30
0.0
 11
-1818.581835550032
 21
-291.8535651691444
 31
0.0
  0
LINE
  5
128
330
1F
100
AcDbEntity
  8
0-7_金物
  6
Continuous
 62
     7
370
     5
100
AcDbLine
 10
-1698.582178872786
 20
-279.8539714344057
 30
0.0
 11
-1698.582178872786
 21
-291.8535651691444
 31
0.0
  0
LINE
  5
129
330
1F
100
AcDbEntity
  8
0-7_金物
  6
Continuous
 62
     7
370
     5
100
AcDbLine
 10
-1818.581835550032
 20
-291.8535651691444
 30
0.0
 11
-1698.582178872786
 21
-291.8535651691444
 31
0.0
  0
LINE
  5
12A
330
1F
100
AcDbEntity
  8
0-7_金物
  6
Continuous
 62
     7
370
     5
100
AcDbLine
 10
-1812.581669610701
 20
-291.8535651691444
 30
0.0
 11
-1812.581669610701
 21
-297.999554814521
 31
0.0
  0
LINE
  5
12B
330
1F
100
AcDbEntity
  8
0-7_金物
  6
Continuous
 62
     7
370
     5
100
AcDbLine
 10
-1704.58160094615
 20
-297.999554814521
 30
0.0
 11
-1704.58160094615
 21
-291.8535651691444
 31
0.0
  0
LINE
  5
12C
330
1F
100
AcDbEntity
  8
0-3_仕上げ
  6
Continuous
 62
   120
370
     5
100
AcDbLine
 10
-2028.582007211409
 20
-267.999554814521
 30
0.0
 11
-1608.582007211409
 21
-267.999554814521
 31
0.0
  0
LINE
  5
12D
330
1F
100
AcDbEntity
  8
0-3_仕上げ
  6
Continuous
 62
   120
370
     5
100
AcDbLine
 10
-1608.582007211409
 20
-87.9995548145206
 30
0.0
 11
-2028.582007211409
 21
-87.9995548145206
 31
0.0
  0
LINE
  5
12E
330
1F
100
AcDbEntity
  8
0-3_仕上げ
  6
Continuous
 62
   120
370
     5
100
AcDbLine
 10
-2028.582007211409
 20
-87.9995548145206
 30
0.0
 11
-2028.582007211409
 21
-267.999554814521
 31
0.0
  0
LINE
  5
12F
330
1F
100
AcDbEntity
  8
0-3_仕上げ
  6
Continuous
 62
   120
370
     5
100
AcDbLine
 10
-1608.582007211409
 20
-87.9995548145206
 30
0.0
 11
-2028.582007211409
 21
-267.999554814521
 31
0.0
  0
LINE
  5
130
330
1F
100
AcDbEntity
  8
0-B_寸法
  6
Continuous
 62
   120
370
     5
100
AcDbLine
 10
-2709.581669096739
 20
-267.999554814521
 30
0.0
 11
-2709.581669096739
 21
-3297.999940820644
 31
0.0
  0
LWPOLYLINE
  5
131
330
1F
100
AcDbEntity
  8
0-B_寸法
  6
Continuous
 62
     7
370
     5
100
AcDbPolyline
 90
        4
 70
     1
 43
3.0
 10
-2708.081669096739
 20
-267.999554814521
 42
0.4142135623731
 10
-2709.581669096739
 20
-266.499554814521
 42
0.4142135623731
 10
-2711.081669096739
 20
-267.999554814521
 42
0.4142135623731
 10
-2709.581669096739
 20
-269.499554814521
 42
0.4142135623731
  0
LINE
  5
132
330
1F
100
AcDbEntity
  8
0-B_寸法
  6
Continuous
 62
   120
370
     5
100
AcDbLine
 10
-2709.581669096739
 20
-267.999554814521
 30
0.0
 11
-2349.581669096739
 21
-267.999554814521
 31
0.0
  0
MTEXT
  5
133
330
1F
100
AcDbEntity
  8
0-B_寸法
  6
Continuous
 62
     7
370
   211
100
AcDbMText
 10
-525.5820434909731
 20
-276.716270066978
 30
0.0
 40
91.44
 41
60.0
 46
0.0
 71
     7
 72
     1
  1
{\fＭＳ ゴシック|b0|i0|c128|p49;5}
 11
6.123031769111886E-17
 21
1.0
 31
0.0
 73
     1
 44
1.0
  0
MTEXT
  5
134
330
1F
100
AcDbEntity
  8
0-B_寸法
  6
Continuous
 62
     7
370
     0
100
AcDbMText
 10
-735.5813506594734
 20
-476.5290723068665
 30
0.0
 40
91.44
 41
120.0
 46
0.0
 71
     7
 72
     1
  1
{\fＭＳ ゴシック|b0|i0|c128|p49;36}
 11
6.123031769111886E-17
 21
1.0
 31
0.0
 73
     1
 44
1.0
  0
MTEXT
  5
135
330
1F
100
AcDbEntity
  8
0-B_寸法
  6
Continuous
 62
     7
370
     0
100
AcDbMText
 10
-945.0098260712787
 20
-770.5598640769631
 30
0.0
 40
91.44
 41
180.0
 46
0.0
 71
     7
 72
     1
  1
{\fＭＳ ゴシック|b0|i0|c128|p49;7.5}
 11
6.123031769111886E-17
 21
1.0
 31
0.0
 73
     1
 44
1.0
  0
MTEXT
  5
136
330
1F
100
AcDbEntity
  8
0-B_寸法
  6
Continuous
 62
     7
370
     0
100
AcDbMText
 10
-1818.582556527809
 20
-808.7618941186576
 30
0.0
 40
91.44
 41
120.0
 46
0.0
 71
     7
 72
     1
  1
{\fＭＳ ゴシック|b0|i0|c128|p49;77}
 73
     1
 44
1.0
  0
LINE
  5
137
330
1F
100
AcDbEntity
  8
0-0_補助線
  6
JWW_HOJO
 62
   120
370
     5
100
AcDbLine
 10
-2559.582409570886
 20
2.000445185479407
 30
0.0
 11
-510.5819856907658
 21
2.000445185479407
 31
0.0
  0
LINE
  5
138
330
1F
100
AcDbEntity
  8
0-0_補助線
  6
JWW_HOJO
 62
   120
370
     5
100
AcDbLine
 10
-720.5812452166322
 20
-3297.999940794253
 30
0.0
 11
-720.5819856907658
 21
2.000445185479407
 31
0.0
  0
LINE
  5
139
330
1F
100
AcDbEntity
  8
0-0_補助線
  6
JWW_HOJO
 62
   120
370
     5
100
AcDbLine
 10
-930.5812452166322
 20
-3297.999940794253
 30
0.0
 11
-930.5819856907658
 21
2.000445185479407
 31
0.0
  0
LINE
  5
13A
330
1F
100
AcDbEntity
  8
0-0_補助線
  6
JWW_HOJO
 62
   120
370
     5
100
AcDbLine
 10
-1140.581368682284
 20
-3297.999940794253
 30
0.0
 11
-1140.582109156418
 21
2.000445185479407
 31
0.0
  0
LINE
  5
13B
330
1F
100
AcDbEntity
  8
0-0_補助線
  6
JWW_HOJO
 62
   120
370
     5
100
AcDbLine
 10
-510.5812452166322
 20
-3297.999940820644
 30
0.0
 11
-510.5819856907658
 21
2.000445185479407
 31
0.0
  0
LINE
  5
13C
330
1F
100
AcDbEntity
  8
0-0_補助線
  6
JWW_HOJO
 62
   120
370
     5
100
AcDbLine
 10
-2349.581669096739
 20
-3297.999940794253
 30
0.0
 11
-2349.582409570872
 21
2.000445185479407
 31
0.0
  0
LINE
  5
13D
330
1F
100
AcDbEntity
  8
0-1_通り芯
  6
JWW_CENTER1
 62
   120
370
     5
100
AcDbLine
 10
-1758.582007211409
 20
-3381.830282861898
 30
0.0
 11
-1758.582007211409
 21
2.000445185479407
 31
0.0
  0
LINE
  5
13E
330
1F
100
AcDbEntity
  8
0-0_補助線
  6
JWW_HOJO
 62
   120
370
     5
100
AcDbLine
 10
-2559.581669096752
 20
-3297.999940794253
 30
0.0
 11
-2559.582409570886
 21
2.000445185479407
 31
0.0
  0
LINE
  5
13F
330
1F
100
AcDbEntity
  8
0-4_枠
  6
Continuous
 62
     7
370
     5
100
AcDbLine
 10
-1860.582007211409
 20
-3197.800334249961
 30
0.0
 11
-1838.382007211408
 21
-3197.800334249961
 31
0.0
  0
LINE
  5
140
330
1F
100
AcDbEntity
  8
0-4_枠
  6
Continuous
 62
     7
370
     5
100
AcDbLine
 10
-1836.582007211407
 20
-3199.60033424996
 30
0.0
 11
-1838.382007211408
 21
-3197.800334249961
 31
0.0
  0
LINE
  5
141
330
1F
100
AcDbEntity
  8
0-4_枠
  6
Continuous
 62
     7
370
     5
100
AcDbLine
 10
-1836.582007211407
 20
-3199.60033424996
 30
0.0
 11
-1834.782007211408
 21
-3197.800334249961
 31
0.0
  0
ARC
  5
142
330
1F
100
AcDbEntity
  8
0-4_枠
  6
Continuous
 62
     7
370
     5
100
AcDbCircle
 10
-1796.982007211409
 20
-3199.600334249959
 30
0.0
 40
1.800000000000579
100
AcDbArc
 50
359.9999999999784
 51
90.00000000000004
  0
LINE
  5
143
330
1F
100
AcDbEntity
  8
0-4_枠
  6
Continuous
 62
     7
370
     5
100
AcDbLine
 10
-1795.182007211408
 20
-3199.60033424996
 30
0.0
 11
-1795.182007211408
 21
-3202.60033424996
 31
0.0
  0
ARC
  5
144
330
1F
100
AcDbEntity
  8
0-4_枠
  6
Continuous
 62
     7
370
     5
100
AcDbCircle
 10
-1796.382007211409
 20
-3202.60033424996
 30
0.0
 40
1.200000000000273
100
AcDbArc
 50
270.0
 51
359.9999999999674
  0
LINE
  5
145
330
1F
100
AcDbEntity
  8
0-4_枠
  6
Continuous
 62
     7
370
     5
100
AcDbLine
 10
-1796.382007211409
 20
-3203.80033424996
 30
0.0
 11
-1799.982007211408
 21
-3203.80033424996
 31
0.0
  0
ARC
  5
146
330
1F
100
AcDbEntity
  8
0-4_枠
  6
Continuous
 62
     7
370
     5
100
AcDbCircle
 10
-1799.982007211408
 20
-3205.600334249959
 30
0.0
 40
1.799999999999727
100
AcDbArc
 50
90.0
 51
180.0
  0
LINE
  5
147
330
1F
100
AcDbEntity
  8
0-4_枠
  6
Continuous
 62
     7
370
     5
100
AcDbLine
 10
-1801.782007211409
 20
-3205.600334249959
 30
0.0
 11
-1801.782007211409
 21
-3217.60033424996
 31
0.0
  0
ARC
  5
148
330
1F
100
AcDbEntity
  8
0-4_枠
  6
Continuous
 62
     7
370
     5
100
AcDbCircle
 10
-1798.782007211409
 20
-3217.60033424996
 30
0.0
 40
3.0
100
AcDbArc
 50
180.0
 51
270.0
  0
LINE
  5
149
330
1F
100
AcDbEntity
  8
0-4_枠
  6
Continuous
 62
     7
370
     5
100
AcDbLine
 10
-1798.782007211409
 20
-3220.60033424996
 30
0.0
 11
-1760.382007211409
 21
-3220.600334249962
 31
0.0
  0
LINE
  5
14A
330
1F
100
AcDbEntity
  8
0-4_枠
  6
Continuous
 62
     7
370
     5
100
AcDbLine
 10
-1758.582007211409
 20
-3222.400334249961
 30
0.0
 11
-1760.382007211409
 21
-3220.600334249962
 31
0.0
  0
LINE
  5
14B
330
1F
100
AcDbEntity
  8
0-4_枠
  6
Continuous
 62
     7
370
     5
100
AcDbLine
 10
-1758.582007211409
 20
-3222.400334249961
 30
0.0
 11
-1756.782007211409
 21
-3220.600334249962
 31
0.0
  0
LINE
  5
14C
330
1F
100
AcDbEntity
  8
0-4_枠
  6
Continuous
 62
     7
370
     5
100
AcDbLine
 10
-1756.782007211409
 20
-3220.600334249962
 30
0.0
 11
-1718.382007211414
 21
-3220.60033424996
 31
0.0
  0
ARC
  5
14D
330
1F
100
AcDbEntity
  8
0-4_枠
  6
Continuous
 62
     7
370
     5
100
AcDbCircle
 10
-1718.382007211414
 20
-3217.60033424996
 30
0.0
 40
3.0
100
AcDbArc
 50
270.0
 51
0.0
  0
LINE
  5
14E
330
1F
100
AcDbEntity
  8
0-4_枠
  6
Continuous
 62
     7
370
     5
100
AcDbLine
 10
-1715.382007211414
 20
-3205.600334249959
 30
0.0
 11
-1715.382007211414
 21
-3217.60033424996
 31
0.0
  0
ARC
  5
14F
330
1F
100
AcDbEntity
  8
0-4_枠
  6
Continuous
 62
     7
370
     5
100
AcDbCircle
 10
-1717.182007211414
 20
-3205.600334249959
 30
0.0
 40
1.800000000000069
100
AcDbArc
 50
0.0
 51
90.0
  0
LINE
  5
150
330
1F
100
AcDbEntity
  8
0-4_枠
  6
Continuous
 62
     7
370
     5
100
AcDbLine
 10
-1720.782007211409
 20
-3203.80033424996
 30
0.0
 11
-1717.182007211414
 21
-3203.80033424996
 31
0.0
  0
ARC
  5
151
330
1F
100
AcDbEntity
  8
0-4_枠
  6
Continuous
 62
     7
370
     5
100
AcDbCircle
 10
-1720.782007211409
 20
-3202.60033424996
 30
0.0
 40
1.199999999999932
100
AcDbArc
 50
179.9999999999674
 51
270.0
  0
LINE
  5
152
330
1F
100
AcDbEntity
  8
0-4_枠
  6
Continuous
 62
     7
370
     5
100
AcDbLine
 10
-1721.982007211409
 20
-3199.600334249959
 30
0.0
 11
-1721.982007211409
 21
-3202.600334249959
 31
0.0
  0
ARC
  5
153
330
1F
100
AcDbEntity
  8
0-4_枠
  6
Continuous
 62
     7
370
     5
100
AcDbCircle
 10
-1720.182007211409
 20
-3199.600334249959
 30
0.0
 40
1.799999999999727
100
AcDbArc
 50
89.99999999996201
 51
180.0
  0
ARC
  5
154
330
1F
100
AcDbEntity
  8
0-4_枠
  6
Continuous
 62
     7
370
     5
100
AcDbCircle
 10
-1720.182007211415
 20
-3209.800334249961
 30
0.0
 40
12.0
100
AcDbArc
 50
359.9999999999968
 51
89.9999999999682
  0
LINE
  5
155
330
1F
100
AcDbEntity
  8
0-4_枠
  6
Continuous
 62
     7
370
     5
100
AcDbLine
 10
-1708.182007211414
 20
-3209.800334249961
 30
0.0
 11
-1708.182007211415
 21
-3226.00033424996
 31
0.0
  0
ARC
  5
156
330
1F
100
AcDbEntity
  8
0-4_枠
  6
Continuous
 62
     7
370
     5
100
AcDbCircle
 10
-1802.382007211408
 20
-3220.000334249961
 30
0.0
 40
6.0
100
AcDbArc
 50
180.0
 51
270.0
  0
LINE
  5
157
330
1F
100
AcDbEntity
  8
0-4_枠
  6
Continuous
 62
     7
370
     5
100
AcDbLine
 10
-1808.382007211409
 20
-3208.445918662233
 30
0.0
 11
-1808.382007211409
 21
-3220.000334249961
 31
0.0
  0
ARC
  5
158
330
1F
100
AcDbEntity
  8
0-4_枠
  6
Continuous
 62
     7
370
     5
100
AcDbCircle
 10
-1810.182007211409
 20
-3208.445918662232
 30
0.0
 40
1.800000000000069
100
AcDbArc
 50
359.9999999999784
 51
135.0000000000384
  0
LINE
  5
159
330
1F
100
AcDbEntity
  8
0-4_枠
  6
Continuous
 62
     7
370
     5
100
AcDbLine
 10
-1817.454799417543
 20
-3213.173126456098
 30
0.0
 11
-1811.454799417545
 21
-3207.173126456098
 31
0.0
  0
ARC
  5
15A
330
1F
100
AcDbEntity
  8
0-4_枠
  6
Continuous
 62
     7
370
     5
100
AcDbCircle
 10
-1816.182007211407
 20
-3214.445918662233
 30
0.0
 40
1.799999999999605
100
AcDbArc
 50
135.0000000000057
 51
180.0000000000034
  0
LINE
  5
15B
330
1F
100
AcDbEntity
  8
0-4_枠
  6
Continuous
 62
     7
370
     5
100
AcDbLine
 10
-1817.982007211408
 20
-3226.00033424996
 30
0.0
 11
-1817.982007211408
 21
-3214.445918662233
 31
0.0
  0
LINE
  5
15C
330
1F
100
AcDbEntity
  8
0-4_枠
  6
Continuous
 62
     7
370
     5
100
AcDbLine
 10
-1824.582007211408
 20
-3226.00033424996
 30
0.0
 11
-1817.982007211408
 21
-3226.00033424996
 31
0.0
  0
LINE
  5
15D
330
1F
100
AcDbEntity
  8
0-4_枠
  6
Continuous
 62
     7
370
     5
100
AcDbLine
 10
-1824.582007211408
 20
-3226.00033424996
 30
0.0
 11
-1824.582007211408
 21
-3210.400334249961
 31
0.0
  0
ARC
  5
15E
330
1F
100
AcDbEntity
  8
0-4_枠
  6
Continuous
 62
     7
370
     5
100
AcDbCircle
 10
-1825.182007211408
 20
-3210.400334249961
 30
0.0
 40
0.599999999999966
100
AcDbArc
 50
0.0
 51
90.0
  0
LINE
  5
15F
330
1F
100
AcDbEntity
  8
0-4_枠
  6
Continuous
 62
     7
370
     5
100
AcDbLine
 10
-1847.982007211408
 20
-3209.800334249961
 30
0.0
 11
-1825.182007211408
 21
-3209.800334249961
 31
0.0
  0
ARC
  5
160
330
1F
100
AcDbEntity
  8
0-4_枠
  6
Continuous
 62
     7
370
     5
100
AcDbCircle
 10
-1847.982007211408
 20
-3210.400334249961
 30
0.0
 40
0.6000000000001362
100
AcDbArc
 50
90.0
 51
180.0
  0
LINE
  5
161
330
1F
100
AcDbEntity
  8
0-4_枠
  6
Continuous
 62
     7
370
     5
100
AcDbLine
 10
-1848.582007211408
 20
-3226.00033424996
 30
0.0
 11
-1848.582007211408
 21
-3210.400334249961
 31
0.0
  0
LINE
  5
162
330
1F
100
AcDbEntity
  8
0-4_枠
  6
Continuous
 62
     7
370
     5
100
AcDbLine
 10
-1855.182007211409
 20
-3226.00033424996
 30
0.0
 11
-1848.582007211408
 21
-3226.00033424996
 31
0.0
  0
LINE
  5
163
330
1F
100
AcDbEntity
  8
0-4_枠
  6
Continuous
 62
     7
370
     5
100
AcDbLine
 10
-1855.182007211409
 20
-3226.00033424996
 30
0.0
 11
-1855.182007211409
 21
-3213.700334249962
 31
0.0
  0
LINE
  5
164
330
1F
100
AcDbEntity
  8
0-4_枠
  6
Continuous
 62
     7
370
     5
100
AcDbLine
 10
-1855.182007211409
 20
-3213.700334249962
 30
0.0
 11
-1861.460686867851
 21
-3207.421654593521
 31
0.0
  0
ARC
  5
165
330
1F
100
AcDbEntity
  8
0-4_枠
  6
Continuous
 62
     7
370
     5
100
AcDbCircle
 10
-1863.582007211409
 20
-3209.542974937079
 30
0.0
 40
2.999999999998578
100
AcDbArc
 50
45.0
 51
180.0000000000261
  0
LINE
  5
166
330
1F
100
AcDbEntity
  8
0-4_枠
  6
Continuous
 62
     7
370
     5
100
AcDbLine
 10
-1866.582007211407
 20
-3226.00033424996
 30
0.0
 11
-1866.582007211409
 21
-3209.542974937081
 31
0.0
  0
LINE
  5
167
330
1F
100
AcDbEntity
  8
0-4_枠
  6
Continuous
 62
     7
370
     5
100
AcDbLine
 10
-1872.582007211408
 20
-3226.00033424996
 30
0.0
 11
-1866.582007211407
 21
-3226.00033424996
 31
0.0
  0
LINE
  5
168
330
1F
100
AcDbEntity
  8
0-4_枠
  6
Continuous
 62
     7
370
     5
100
AcDbLine
 10
-1872.582007211408
 20
-3226.00033424996
 30
0.0
 11
-1872.582007211409
 21
-3209.800334249961
 31
0.0
  0
ARC
  5
169
330
1F
100
AcDbEntity
  8
0-4_枠
  6
Continuous
 62
     7
370
     5
100
AcDbCircle
 10
-1860.582007211409
 20
-3209.800334249961
 30
0.0
 40
12.0
100
AcDbArc
 50
90.0
 51
180.0
  0
LINE
  5
16A
330
1F
100
AcDbEntity
  8
0-4_枠
  6
Continuous
 62
     7
370
     5
100
AcDbLine
 10
-1802.382007211408
 20
-3226.00033424996
 30
0.0
 11
-1708.182007211415
 21
-3226.00033424996
 31
0.0
  0
LINE
  5
16B
330
1F
100
AcDbEntity
  8
0-4_枠
  6
Continuous
 62
     7
370
     5
100
AcDbLine
 10
-1796.982007211409
 20
-3197.80033424996
 30
0.0
 11
-1834.782007211408
 21
-3197.80033424996
 31
0.0
  0
LINE
  5
16C
330
1F
100
AcDbEntity
  8
0-A_文字
  6
Continuous
 62
   120
370
     5
100
AcDbLine
 10
-1708.182007211415
 20
-2902.602286119607
 30
0.0
 11
-1872.582007211408
 21
-2902.602286119607
 31
0.0
  0
LWPOLYLINE
  5
16D
330
1F
100
AcDbEntity
  8
0-A_文字
  6
Continuous
 62
     7
370
     5
100
AcDbPolyline
 90
        4
 70
     1
 43
3.0
 10
-1706.682007211415
 20
-2902.602286119607
 42
0.4142135623731
 10
-1708.182007211415
 20
-2901.102286119607
 42
0.4142135623731
 10
-1709.682007211414
 20
-2902.602286119607
 42
0.4142135623731
 10
-1708.182007211415
 20
-2904.102286119607
 42
0.4142135623731
  0
LWPOLYLINE
  5
16E
330
1F
100
AcDbEntity
  8
0-A_文字
  6
Continuous
 62
     7
370
     5
100
AcDbPolyline
 90
        4
 70
     1
 43
3.0
 10
-1871.082007211408
 20
-2902.602286119607
 42
0.4142135623731
 10
-1872.582007211408
 20
-2901.102286119607
 42
0.4142135623731
 10
-1874.082007211408
 20
-2902.602286119607
 42
0.4142135623731
 10
-1872.582007211408
 20
-2904.102286119607
 42
0.4142135623731
  0
LINE
  5
16F
330
1F
100
AcDbEntity
  8
0-A_文字
  6
Continuous
 62
   120
370
     5
100
AcDbLine
 10
-1708.182007211415
 20
-2902.602286119607
 30
0.0
 11
-1708.182007211415
 21
-3010.720297677623
 31
0.0
  0
LINE
  5
170
330
1F
100
AcDbEntity
  8
0-A_文字
  6
Continuous
 62
   120
370
     5
100
AcDbLine
 10
-1872.582007211408
 20
-2902.602286119607
 30
0.0
 11
-1872.582007211408
 21
-3010.720297677623
 31
0.0
  0
LINE
  5
171
330
1F
100
AcDbEntity
  8
0-7_金物
  6
Continuous
 62
     7
370
     5
100
AcDbLine
 10
-1749.581948599103
 20
-3157.253733650564
 30
0.0
 11
-1749.581948599103
 21
-3220.600334249962
 31
0.0
  0
LINE
  5
172
330
1F
100
AcDbEntity
  8
0-7_金物
  6
Continuous
 62
     7
370
     5
100
AcDbLine
 10
-1767.581711056879
 20
-3157.253733650564
 30
0.0
 11
-1767.581711056879
 21
-3220.600334249962
 31
0.0
  0
LINE
  5
173
330
1F
100
AcDbEntity
  8
0-7_金物
  6
Continuous
 62
     7
370
     5
100
AcDbLine
 10
-1749.581948599103
 20
-3220.600334249962
 30
0.0
 11
-1767.581711056879
 21
-3220.600334249962
 31
0.0
  0
MTEXT
  5
174
330
1F
100
AcDbEntity
  8
0-B_寸法
  6
Continuous
 62
     7
370
     0
100
AcDbMText
 10
-945.0485387383799
 20
-3156.62510383928
 30
0.0
 40
91.44
 41
180.0
 46
0.0
 71
     7
 72
     1
  1
{\fＭＳ ゴシック|b0|i0|c128|p49;6.5}
 11
6.123031769111886E-17
 21
1.0
 31
0.0
 73
     1
 44
1.0
  0
MTEXT
  5
175
330
1F
100
AcDbEntity
  8
0-B_寸法
  6
Continuous
 62
     7
370
   211
100
AcDbMText
 10
-733.2077397825526
 20
-3203.200615030756
 30
0.0
 40
91.44
 41
60.0
 46
0.0
 71
     7
 72
     1
  1
{\fＭＳ ゴシック|b0|i0|c128|p49;5}
 11
6.123031769111886E-17
 21
1.0
 31
0.0
 73
     1
 44
1.0
  0
MTEXT
  5
176
330
1F
100
AcDbEntity
  8
0-B_寸法
  6
Continuous
 62
     7
370
   211
100
AcDbMText
 10
-520.1301432799721
 20
-3446.426424655502
 30
0.0
 40
91.44
 41
120.0
 46
0.0
 71
     7
 72
     1
  1
{\fＭＳ ゴシック|b0|i0|c128|p49;12}
 11
6.123031769111886E-17
 21
1.0
 31
0.0
 73
     1
 44
1.0
  0
MTEXT
  5
177
330
1F
100
AcDbEntity
  8
0-B_寸法
  6
Continuous
 62
     7
370
   211
100
AcDbMText
 10
-2724.581669096739
 20
-2166.279758952373
 30
0.0
 40
91.43999999999997
 41
780.0
 46
0.0
 71
     7
 72
     1
  1
{\fＭＳ ゴシック|b0|i0|c128|p49;ＲＯＨ＝2,055}
 11
6.123031769111886E-17
 21
1.0
 31
0.0
 73
     1
 44
1.0
  0
MTEXT
  5
178
330
1F
100
AcDbEntity
  8
0-B_寸法
  6
Continuous
 62
     7
370
     0
100
AcDbMText
 10
-945.5813506594734
 20
-2124.809838454097
 30
0.0
 40
91.43999999999997
 41
660.0
 46
0.0
 71
     7
 72
     1
  1
{\fＭＳ ゴシック|b0|i0|c128|p49;ＤＨ＝1,983}
 11
6.123031769111886E-17
 21
1.0
 31
0.0
 73
     1
 44
1.0
  0
MTEXT
  5
179
330
1F
100
AcDbEntity
  8
0-B_寸法
  6
Continuous
 62
     7
370
     0
100
AcDbMText
 10
-735.5813506594734
 20
-2124.809838454097
 30
0.0
 40
91.43999999999997
 41
660.0
 46
0.0
 71
     7
 72
     1
  1
{\fＭＳ ゴシック|b0|i0|c128|p49;枠内＝1,997}
 11
6.123031769111886E-17
 21
1.0
 31
0.0
 73
     1
 44
1.0
  0
MTEXT
  5
17A
330
1F
100
AcDbEntity
  8
0-B_寸法
  6
Continuous
 62
     7
370
     0
100
AcDbMText
 10
-525.5828352983974
 20
-2124.809838454097
 30
0.0
 40
91.43999999999997
 41
660.0
 46
0.0
 71
     7
 72
     1
  1
{\fＭＳ ゴシック|b0|i0|c128|p49;枠外＝2,038}
 11
6.123031769111886E-17
 21
1.0
 31
0.0
 73
     1
 44
1.0
  0
LINE
  5
17B
330
1F
100
AcDbEntity
  8
0-0_補助線
  6
JWW_HOJO
 62
   120
370
     5
100
AcDbLine
 10
-2762.081259204823
 20
1266.94514659615
 30
0.0
 11
-2762.081259204823
 21
3141.945146596151
 31
0.0
  0
LINE
  5
17C
330
1F
100
AcDbEntity
  8
0-0_補助線
  6
JWW_HOJO
 62
   120
370
     5
100
AcDbLine
 10
2781.918344891466
 20
1266.94514659615
 30
0.0
 11
2781.918344891466
 21
3141.945146596151
 31
0.0
  0
LINE
  5
17D
330
1F
100
AcDbEntity
  8
0-0_補助線
  6
JWW_HOJO
 62
   120
370
     5
100
AcDbLine
 10
2781.918344891466
 20
2781.945146596151
 30
0.0
 11
-2762.081259204823
 21
2781.945146596151
 31
0.0
  0
LINE
  5
17E
330
1F
100
AcDbEntity
  8
0-0_補助線
  6
JWW_HOJO
 62
   120
370
     5
100
AcDbLine
 10
2781.918344891466
 20
1626.94514659615
 30
0.0
 11
-2762.081259204823
 21
1626.94514659615
 31
0.0
  0
LINE
  5
17F
330
1F
100
AcDbEntity
  8
0-0_補助線
  6
JWW_HOJO
 62
   120
370
     5
100
AcDbLine
 10
2781.918344891466
 20
1446.94514659615
 30
0.0
 11
-2762.081259204823
 21
1446.94514659615
 31
0.0
  0
LINE
  5
180
330
1F
100
AcDbEntity
  8
0-0_補助線
  6
JWW_HOJO
 62
   120
370
     5
100
AcDbLine
 10
2781.918344891466
 20
1266.94514659615
 30
0.0
 11
-2762.081259204823
 21
1266.94514659615
 31
0.0
  0
LINE
  5
181
330
1F
100
AcDbEntity
  8
0-0_補助線
  6
JWW_HOJO
 62
   120
370
     5
100
AcDbLine
 10
2781.918344891466
 20
3141.945146596151
 30
0.0
 11
-2762.081259204823
 21
3141.945146596151
 31
0.0
  0
LINE
  5
182
330
1F
100
AcDbEntity
  8
0-0_補助線
  6
JWW_HOJO
 62
   120
370
     5
100
AcDbLine
 10
2781.918344891466
 20
2961.945146596151
 30
0.0
 11
-2762.081259204823
 21
2961.945146596151
 31
0.0
  0
LINE
  5
183
330
1F
100
AcDbEntity
  8
0-1_通り芯
  6
JWW_CENTER1
 62
   120
370
     5
100
AcDbLine
 10
2781.918344891466
 20
2361.945146596151
 30
0.0
 11
-2762.081259204823
 21
2361.945146596151
 31
0.0
  0
LINE
  5
184
330
1F
100
AcDbEntity
  8
0-C_ハッチ
  6
Continuous
 62
   120
370
     5
100
AcDbLine
 10
-2162.081457156696
 20
2565.455682250818
 30
0.0
 11
-2110.591992811353
 21
2616.94514659616
 31
0.0
  0
LINE
  5
185
330
1F
100
AcDbEntity
  8
0-C_ハッチ
  6
Continuous
 62
   120
370
     5
100
AcDbLine
 10
-2162.081457156679
 20
2506.058712631188
 30
0.0
 11
-2051.195023191726
 21
2616.94514659614
 31
0.0
  0
LINE
  5
186
330
1F
100
AcDbEntity
  8
0-C_ハッチ
  6
Continuous
 62
   120
370
     5
100
AcDbLine
 10
-2162.081457156689
 20
2446.661743011474
 30
0.0
 11
-1995.939755364346
 21
2612.803444803818
 31
0.0
  0
LINE
  5
187
330
1F
100
AcDbEntity
  8
0-C_ハッチ
  6
Continuous
 62
   120
370
     5
100
AcDbLine
 10
-2162.081457156676
 20
2387.264773391841
 30
0.0
 11
-1982.081457156679
 21
2567.264773391839
 31
0.0
  0
LINE
  5
188
330
1F
100
AcDbEntity
  8
0-C_ハッチ
  6
Continuous
 62
   120
370
     5
100
AcDbLine
 10
-2162.081457156683
 20
2327.867803772132
 30
0.0
 11
-1982.081457156693
 21
2507.867803772123
 31
0.0
  0
LINE
  5
189
330
1F
100
AcDbEntity
  8
0-C_ハッチ
  6
Continuous
 62
   120
370
     5
100
AcDbLine
 10
-2162.081457156681
 20
2268.470834152488
 30
0.0
 11
-2012.983440397434
 21
2417.568850911734
 31
0.0
  0
LINE
  5
18A
330
1F
100
AcDbEntity
  8
0-C_ハッチ
  6
Continuous
 62
   120
370
     5
100
AcDbLine
 10
-2162.081457156676
 20
2209.073864532847
 30
0.0
 11
-2017.956436377854
 21
2353.198885311667
 31
0.0
  0
LINE
  5
18B
330
1F
100
AcDbEntity
  8
0-C_ハッチ
  6
Continuous
 62
   120
370
     5
100
AcDbLine
 10
-2162.081457156689
 20
2149.676894913129
 30
0.0
 11
-2011.748061293047
 21
2300.010290776772
 31
0.0
  0
LINE
  5
18C
330
1F
100
AcDbEntity
  8
0-C_ハッチ
  6
Continuous
 62
   120
370
     5
100
AcDbLine
 10
-2145.416235854018
 20
2106.945146596154
 30
0.0
 11
-1998.396447750556
 21
2253.964934699616
 31
0.0
  0
LINE
  5
18D
330
1F
100
AcDbEntity
  8
0-C_ハッチ
  6
Continuous
 62
   120
370
     5
100
AcDbLine
 10
-2086.019266234316
 20
2106.945146596153
 30
0.0
 11
-1982.081457156683
 21
2210.882955673787
 31
0.0
  0
LINE
  5
18E
330
1F
100
AcDbEntity
  8
0-C_ハッチ
  6
Continuous
 62
   120
370
     5
100
AcDbLine
 10
-2026.622296614679
 20
2106.945146596146
 30
0.0
 11
-1982.081457156686
 21
2151.485986054137
 31
0.0
  0
ARC
  5
18F
330
1F
100
AcDbEntity
  8
0-4_枠
  6
Continuous
 62
    92
370
     5
100
AcDbCircle
 10
-1712.081457156679
 20
2361.945146596151
 30
0.0
 40
306.0000000000022
100
AcDbArc
 50
151.9275130641473
 51
208.0724869358527
  0
LINE
  5
190
330
1F
100
AcDbEntity
  8
0-4_枠
  6
Continuous
 62
    92
370
     5
100
AcDbLine
 10
-1982.08145715668
 20
2505.945146596152
 30
0.0
 11
-1982.08145715668
 21
2598.945146596152
 31
0.0
  0
LINE
  5
191
330
1F
100
AcDbEntity
  8
0-4_枠
  6
Continuous
 62
    92
370
     5
100
AcDbLine
 10
-1982.08145715668
 20
2124.94514659615
 30
0.0
 11
-1982.08145715668
 21
2217.94514659615
 31
0.0
  0
LINE
  5
192
330
1F
100
AcDbEntity
  8
0-4_枠
  6
Continuous
 62
    92
370
     5
100
AcDbLine
 10
-1982.08145715668
 20
2124.94514659615
 30
0.0
 11
-2000.08145715668
 21
2106.94514659615
 31
0.0
  0
LINE
  5
193
330
1F
100
AcDbEntity
  8
0-4_枠
  6
Continuous
 62
    92
370
     5
100
AcDbLine
 10
-2000.08145715668
 20
2106.94514659615
 30
0.0
 11
-2162.081457156681
 21
2106.94514659615
 31
0.0
  0
LINE
  5
194
330
1F
100
AcDbEntity
  8
0-4_枠
  6
Continuous
 62
    92
370
     5
100
AcDbLine
 10
-2000.08145715668
 20
2616.945146596151
 30
0.0
 11
-1982.08145715668
 21
2598.945146596152
 31
0.0
  0
LINE
  5
195
330
1F
100
AcDbEntity
  8
0-4_枠
  6
Continuous
 62
    92
370
     5
100
AcDbLine
 10
-2000.08145715668
 20
2616.945146596151
 30
0.0
 11
-2162.081457156681
 21
2616.945146596151
 31
0.0
  0
LINE
  5
196
330
1F
100
AcDbEntity
  8
0-4_枠
  6
Continuous
 62
    92
370
     5
100
AcDbLine
 10
-2162.081457156681
 20
2106.94514659615
 30
0.0
 11
-2162.081457156681
 21
2616.945146596151
 31
0.0
  0
LINE
  5
197
330
1F
100
AcDbEntity
  8
0-0_補助線
  6
Continuous
 62
   120
370
     5
100
AcDbLine
 10
-1982.08145715668
 20
2324.35919630369
 30
0.0
 11
-1997.08145715668
 21
2324.35919630369
 31
0.0
  0
LWPOLYLINE
  5
198
330
1F
100
AcDbEntity
  8
0-0_補助線
  6
Continuous
 62
     7
370
     5
100
AcDbPolyline
 90
        4
 70
     1
 43
3.0
 10
-1980.581457156681
 20
2324.35919630369
 42
0.4142135623731
 10
-1982.08145715668
 20
2325.85919630369
 42
0.4142135623731
 10
-1983.58145715668
 20
2324.35919630369
 42
0.4142135623731
 10
-1982.08145715668
 20
2322.85919630369
 42
0.4142135623731
  0
LWPOLYLINE
  5
199
330
1F
100
AcDbEntity
  8
0-0_補助線
  6
Continuous
 62
     7
370
     5
100
AcDbPolyline
 90
        4
 70
     1
 43
3.0
 10
-1995.581457156681
 20
2324.35919630369
 42
0.4142135623731
 10
-1997.08145715668
 20
2325.85919630369
 42
0.4142135623731
 10
-1998.58145715668
 20
2324.35919630369
 42
0.4142135623731
 10
-1997.08145715668
 20
2322.85919630369
 42
0.4142135623731
  0
LINE
  5
19A
330
1F
100
AcDbEntity
  8
0-0_補助線
  6
Continuous
 62
   120
370
     5
100
AcDbLine
 10
-1997.08145715668
 20
2324.35919630369
 30
0.0
 11
-2018.081457156681
 21
2324.35919630369
 31
0.0
  0
LWPOLYLINE
  5
19B
330
1F
100
AcDbEntity
  8
0-0_補助線
  6
Continuous
 62
     7
370
     5
100
AcDbPolyline
 90
        4
 70
     1
 43
3.0
 10
-2016.581457156681
 20
2324.35919630369
 42
0.4142135623731
 10
-2018.081457156681
 20
2325.85919630369
 42
0.4142135623731
 10
-2019.58145715668
 20
2324.35919630369
 42
0.4142135623731
 10
-2018.081457156681
 20
2322.85919630369
 42
0.4142135623731
  0
LINE
  5
19C
330
1F
100
AcDbEntity
  8
0-0_補助線
  6
Continuous
 62
   120
370
     5
100
AcDbLine
 10
-2018.081457156681
 20
2324.35919630369
 30
0.0
 11
-2018.081457156681
 21
2405.688459526875
 31
0.0
  0
MTEXT
  5
19D
330
1F
100
AcDbEntity
  8
0-0_補助線
  6
Continuous
 62
     7
370
   211
100
AcDbMText
 10
-1971.695002244332
 20
2325.07919630369
 30
0.0
 40
91.43999999999988
 41
179.9999999999998
 46
0.0
 71
     7
 72
     1
  1
{\fＭＳ ゴシック|b0|i0|c128|p49;2.5}
 73
     1
 44
1.0
  0
LINE
  5
19E
330
1F
100
AcDbEntity
  8
0-C_ハッチ
  6
Continuous
 62
   120
370
     5
100
AcDbLine
 10
2001.918542843305
 20
2547.83158056108
 30
0.0
 11
2071.03210887838
 21
2616.945146596156
 31
0.0
  0
LINE
  5
19F
330
1F
100
AcDbEntity
  8
0-C_ハッチ
  6
Continuous
 62
   120
370
     5
100
AcDbLine
 10
2024.487800021174
 20
2451.606898499601
 30
0.0
 11
2181.918542843314
 21
2609.03764132174
 31
0.0
  0
LINE
  5
1A0
330
1F
100
AcDbEntity
  8
0-C_ハッチ
  6
Continuous
 62
   120
370
     5
100
AcDbLine
 10
2035.166947047868
 20
2402.889075906648
 30
0.0
 11
2181.918542843332
 21
2549.640671702113
 31
0.0
  0
LINE
  5
1A1
330
1F
100
AcDbEntity
  8
0-C_ハッチ
  6
Continuous
 62
   120
370
     5
100
AcDbLine
 10
2037.493296102097
 20
2345.818455341229
 30
0.0
 11
2181.918542843323
 21
2490.243702082457
 31
0.0
  0
LINE
  5
1A2
330
1F
100
AcDbEntity
  8
0-C_ハッチ
  6
Continuous
 62
   120
370
     5
100
AcDbLine
 10
2024.981162136181
 20
2273.909351755612
 30
0.0
 11
2181.918542843309
 21
2430.846732462739
 31
0.0
  0
LINE
  5
1A3
330
1F
100
AcDbEntity
  8
0-C_ハッチ
  6
Continuous
 62
   120
370
     5
100
AcDbLine
 10
2001.918542843322
 20
2191.449762843105
 30
0.0
 11
2181.918542843322
 21
2371.449762843105
 31
0.0
  0
LINE
  5
1A4
330
1F
100
AcDbEntity
  8
0-C_ハッチ
  6
Continuous
 62
   120
370
     5
100
AcDbLine
 10
2001.91854284331
 20
2132.052793223392
 30
0.0
 11
2181.918542843314
 21
2312.052793223395
 31
0.0
  0
LINE
  5
1A5
330
1F
100
AcDbEntity
  8
0-C_ハッチ
  6
Continuous
 62
   120
370
     5
100
AcDbLine
 10
2036.207865835723
 20
2106.945146596157
 30
0.0
 11
2181.918542843323
 21
2252.655823603757
 31
0.0
  0
LINE
  5
1A6
330
1F
100
AcDbEntity
  8
0-C_ハッチ
  6
Continuous
 62
   120
370
     5
100
AcDbLine
 10
2095.604835455414
 20
2106.945146596146
 30
0.0
 11
2181.918542843319
 21
2193.258853984052
 31
0.0
  0
LINE
  5
1A7
330
1F
100
AcDbEntity
  8
0-C_ハッチ
  6
Continuous
 62
   120
370
     5
100
AcDbLine
 10
2155.001805075076
 20
2106.945146596161
 30
0.0
 11
2181.918542843308
 21
2133.861884364394
 31
0.0
  0
ARC
  5
1A8
330
1F
100
AcDbEntity
  8
0-4_枠
  6
Continuous
 62
    92
370
     5
100
AcDbCircle
 10
1731.918542843317
 20
2361.945146596151
 30
0.0
 40
306.0000000000022
100
AcDbArc
 50
331.9275130641473
 51
28.07248693585271
  0
LINE
  5
1A9
330
1F
100
AcDbEntity
  8
0-4_枠
  6
Continuous
 62
    92
370
     5
100
AcDbLine
 10
2001.918542843321
 20
2505.945146596152
 30
0.0
 11
2001.918542843321
 21
2598.945146596152
 31
0.0
  0
LINE
  5
1AA
330
1F
100
AcDbEntity
  8
0-4_枠
  6
Continuous
 62
    92
370
     5
100
AcDbLine
 10
2001.918542843321
 20
2124.94514659615
 30
0.0
 11
2001.918542843321
 21
2217.94514659615
 31
0.0
  0
LINE
  5
1AB
330
1F
100
AcDbEntity
  8
0-4_枠
  6
Continuous
 62
    92
370
     5
100
AcDbLine
 10
2001.918542843321
 20
2124.94514659615
 30
0.0
 11
2019.91854284332
 21
2106.94514659615
 31
0.0
  0
LINE
  5
1AC
330
1F
100
AcDbEntity
  8
0-4_枠
  6
Continuous
 62
    92
370
     5
100
AcDbLine
 10
2019.91854284332
 20
2106.94514659615
 30
0.0
 11
2181.918542843321
 21
2106.94514659615
 31
0.0
  0
LINE
  5
1AD
330
1F
100
AcDbEntity
  8
0-4_枠
  6
Continuous
 62
    92
370
     5
100
AcDbLine
 10
2019.91854284332
 20
2616.945146596151
 30
0.0
 11
2001.918542843321
 21
2598.945146596152
 31
0.0
  0
LINE
  5
1AE
330
1F
100
AcDbEntity
  8
0-4_枠
  6
Continuous
 62
    92
370
     5
100
AcDbLine
 10
2019.91854284332
 20
2616.945146596151
 30
0.0
 11
2181.918542843321
 21
2616.945146596151
 31
0.0
  0
LINE
  5
1AF
330
1F
100
AcDbEntity
  8
0-4_枠
  6
Continuous
 62
    92
370
     5
100
AcDbLine
 10
2181.918542843321
 20
2106.94514659615
 30
0.0
 11
2181.918542843321
 21
2616.945146596151
 31
0.0
  0
LINE
  5
1B0
330
1F
100
AcDbEntity
  8
0-7_金物
  6
Continuous
 62
     7
370
     5
100
AcDbLine
 10
2199.918206325161
 20
2271.945220828097
 30
0.0
 11
2199.918206325161
 21
2451.945072364203
 31
0.0
  0
LINE
  5
1B1
330
1F
100
AcDbEntity
  8
0-7_金物
  6
Continuous
 62
     7
370
     5
100
AcDbLine
 10
2211.918542843321
 20
2451.945072364203
 30
0.0
 11
2199.918206325161
 21
2451.945072364203
 31
0.0
  0
LINE
  5
1B2
330
1F
100
AcDbEntity
  8
0-7_金物
  6
Continuous
 62
     7
370
     5
100
AcDbLine
 10
2211.918542843321
 20
2271.945220828097
 30
0.0
 11
2199.918206325161
 21
2271.945220828097
 31
0.0
  0
LINE
  5
1B3
330
1F
100
AcDbEntity
  8
0-7_金物
  6
Continuous
 62
     7
370
     5
100
AcDbLine
 10
2199.918206325161
 20
2301.945319804026
 30
0.0
 11
2187.918612126471
 21
2301.945319804026
 31
0.0
  0
LINE
  5
1B4
330
1F
100
AcDbEntity
  8
0-7_金物
  6
Continuous
 62
     7
370
     5
100
AcDbLine
 10
2199.918206325161
 20
2421.944973388274
 30
0.0
 11
2187.918612126471
 21
2421.944973388274
 31
0.0
  0
LINE
  5
1B5
330
1F
100
AcDbEntity
  8
0-7_金物
  6
Continuous
 62
     7
370
     5
100
AcDbLine
 10
2187.918612126471
 20
2301.945319804026
 30
0.0
 11
2187.918612126471
 21
2421.944973388274
 31
0.0
  0
LINE
  5
1B6
330
1F
100
AcDbEntity
  8
0-7_金物
  6
Continuous
 62
     7
370
     5
100
AcDbLine
 10
2187.918612126471
 20
2415.945547448664
 30
0.0
 11
2181.918542843321
 21
2415.945547448664
 31
0.0
  0
LINE
  5
1B7
330
1F
100
AcDbEntity
  8
0-7_金物
  6
Continuous
 62
     7
370
     5
100
AcDbLine
 10
2187.918612126471
 20
2307.945488063105
 30
0.0
 11
2181.918542843321
 21
2307.945488063105
 31
0.0
  0
LINE
  5
1B8
330
1F
100
AcDbEntity
  8
0-7_金物
  6
Continuous
 62
     7
370
     5
100
AcDbLine
 10
2211.918542843321
 20
2271.945220828097
 30
0.0
 11
2211.918542843321
 21
2451.945072364203
 31
0.0
  0
LINE
  5
1B9
330
1F
100
AcDbEntity
  8
0-3_仕上げ
  6
Continuous
 62
    40
370
     5
100
AcDbLine
 10
2181.918542843321
 20
2178.945146596152
 30
0.0
 11
2781.918344891466
 21
2178.945146596152
 31
0.0
  0
LINE
  5
1BA
330
1F
100
AcDbEntity
  8
0-3_仕上げ
  6
Continuous
 62
    40
370
     5
100
AcDbLine
 10
2181.918542843321
 20
2253.945146596152
 30
0.0
 11
2781.918344891466
 21
2253.945146596152
 31
0.0
  0
LINE
  5
1BB
330
1F
100
AcDbEntity
  8
0-C_ハッチ
  6
JWW_DASHED1
 62
   120
370
     5
100
AcDbLine
 10
2769.89860705027
 20
2178.945146596158
 30
0.0
 11
2781.91834489146
 21
2190.964884437346
 31
0.0
  0
LINE
  5
1BC
330
1F
100
AcDbEntity
  8
0-C_ハッチ
  6
JWW_DASHED1
 62
   120
370
     5
100
AcDbLine
 10
2727.472200179073
 20
2178.945146596162
 30
0.0
 11
2781.918344891449
 21
2233.391291308539
 31
0.0
  0
LINE
  5
1BD
330
1F
100
AcDbEntity
  8
0-C_ハッチ
  6
JWW_DASHED1
 62
   120
370
     5
100
AcDbLine
 10
2685.045793307876
 20
2178.945146596165
 30
0.0
 11
2760.045793307887
 21
2253.945146596176
 31
0.0
  0
LINE
  5
1BE
330
1F
100
AcDbEntity
  8
0-C_ハッチ
  6
JWW_DASHED1
 62
   120
370
     5
100
AcDbLine
 10
2642.619386436669
 20
2178.945146596157
 30
0.0
 11
2717.619386436662
 21
2253.94514659615
 31
0.0
  0
LINE
  5
1BF
330
1F
100
AcDbEntity
  8
0-C_ハッチ
  6
JWW_DASHED1
 62
   120
370
     5
100
AcDbLine
 10
2600.192979565469
 20
2178.945146596157
 30
0.0
 11
2675.192979565464
 21
2253.945146596152
 31
0.0
  0
LINE
  5
1C0
330
1F
100
AcDbEntity
  8
0-C_ハッチ
  6
JWW_DASHED1
 62
   120
370
     5
100
AcDbLine
 10
2557.766572694272
 20
2178.945146596161
 30
0.0
 11
2632.766572694267
 21
2253.945146596156
 31
0.0
  0
LINE
  5
1C1
330
1F
100
AcDbEntity
  8
0-C_ハッチ
  6
JWW_DASHED1
 62
   120
370
     5
100
AcDbLine
 10
2515.340165823134
 20
2178.945146596169
 30
0.0
 11
2590.340165823131
 21
2253.945146596163
 31
0.0
  0
LINE
  5
1C2
330
1F
100
AcDbEntity
  8
0-C_ハッチ
  6
JWW_DASHED1
 62
   120
370
     5
100
AcDbLine
 10
2472.913758951939
 20
2178.945146596172
 30
0.0
 11
2547.913758951934
 21
2253.945146596167
 31
0.0
  0
LINE
  5
1C3
330
1F
100
AcDbEntity
  8
0-C_ハッチ
  6
JWW_DASHED1
 62
   120
370
     5
100
AcDbLine
 10
2430.487352080727
 20
2178.945146596161
 30
0.0
 11
2505.487352080738
 21
2253.94514659617
 31
0.0
  0
LINE
  5
1C4
330
1F
100
AcDbEntity
  8
0-C_ハッチ
  6
JWW_DASHED1
 62
   120
370
     5
100
AcDbLine
 10
2388.06094520953
 20
2178.945146596163
 30
0.0
 11
2463.060945209541
 21
2253.945146596174
 31
0.0
  0
LINE
  5
1C5
330
1F
100
AcDbEntity
  8
0-C_ハッチ
  6
JWW_DASHED1
 62
   120
370
     5
100
AcDbLine
 10
2345.634538338334
 20
2178.945146596167
 30
0.0
 11
2420.634538338329
 21
2253.945146596162
 31
0.0
  0
LINE
  5
1C6
330
1F
100
AcDbEntity
  8
0-C_ハッチ
  6
JWW_DASHED1
 62
   120
370
     5
100
AcDbLine
 10
2303.208131467121
 20
2178.945146596156
 30
0.0
 11
2378.208131467117
 21
2253.94514659615
 31
0.0
  0
LINE
  5
1C7
330
1F
100
AcDbEntity
  8
0-C_ハッチ
  6
JWW_DASHED1
 62
   120
370
     5
100
AcDbLine
 10
2260.781724595925
 20
2178.945146596158
 30
0.0
 11
2335.78172459592
 21
2253.945146596154
 31
0.0
  0
LINE
  5
1C8
330
1F
100
AcDbEntity
  8
0-C_ハッチ
  6
JWW_DASHED1
 62
   120
370
     5
100
AcDbLine
 10
2218.355317724729
 20
2178.945146596162
 30
0.0
 11
2293.355317724724
 21
2253.945146596158
 31
0.0
  0
LINE
  5
1C9
330
1F
100
AcDbEntity
  8
0-C_ハッチ
  6
JWW_DASHED1
 62
   120
370
     5
100
AcDbLine
 10
2181.918542843303
 20
2184.934778585882
 30
0.0
 11
2250.928910853587
 21
2253.945146596165
 31
0.0
  0
LINE
  5
1CA
330
1F
100
AcDbEntity
  8
0-C_ハッチ
  6
JWW_DASHED1
 62
   120
370
     5
100
AcDbLine
 10
2181.918542843307
 20
2227.361185457087
 30
0.0
 11
2208.50250398239
 21
2253.94514659617
 31
0.0
  0
LINE
  5
1CB
330
1F
100
AcDbEntity
  8
0-3_仕上げ
  6
Continuous
 62
    40
370
     5
100
AcDbLine
 10
-2762.08125920481
 20
2178.945146596152
 30
0.0
 11
-2162.081457156662
 21
2178.945146596152
 31
0.0
  0
LINE
  5
1CC
330
1F
100
AcDbEntity
  8
0-3_仕上げ
  6
Continuous
 62
    40
370
     5
100
AcDbLine
 10
-2762.08125920481
 20
2253.945146596152
 30
0.0
 11
-2162.081457156662
 21
2253.945146596152
 31
0.0
  0
LINE
  5
1CD
330
1F
100
AcDbEntity
  8
0-C_ハッチ
  6
JWW_DASHED1
 62
   120
370
     5
100
AcDbLine
 10
-2174.101194997859
 20
2178.945146596158
 30
0.0
 11
-2162.081457156673
 21
2190.964884437346
 31
0.0
  0
LINE
  5
1CE
330
1F
100
AcDbEntity
  8
0-C_ハッチ
  6
JWW_DASHED1
 62
   120
370
     5
100
AcDbLine
 10
-2216.527601869057
 20
2178.945146596162
 30
0.0
 11
-2162.081457156681
 21
2233.391291308539
 31
0.0
  0
LINE
  5
1CF
330
1F
100
AcDbEntity
  8
0-C_ハッチ
  6
JWW_DASHED1
 62
   120
370
     5
100
AcDbLine
 10
-2258.954008740252
 20
2178.945146596165
 30
0.0
 11
-2183.954008740243
 21
2253.945146596176
 31
0.0
  0
LINE
  5
1D0
330
1F
100
AcDbEntity
  8
0-C_ハッチ
  6
JWW_DASHED1
 62
   120
370
     5
100
AcDbLine
 10
-2301.380415611462
 20
2178.945146596157
 30
0.0
 11
-2226.380415611469
 21
2253.94514659615
 31
0.0
  0
LINE
  5
1D1
330
1F
100
AcDbEntity
  8
0-C_ハッチ
  6
JWW_DASHED1
 62
   120
370
     5
100
AcDbLine
 10
-2343.806822482662
 20
2178.945146596157
 30
0.0
 11
-2268.806822482666
 21
2253.945146596152
 31
0.0
  0
LINE
  5
1D2
330
1F
100
AcDbEntity
  8
0-C_ハッチ
  6
JWW_DASHED1
 62
   120
370
     5
100
AcDbLine
 10
-2386.233229353859
 20
2178.945146596161
 30
0.0
 11
-2311.233229353864
 21
2253.945146596156
 31
0.0
  0
LINE
  5
1D3
330
1F
100
AcDbEntity
  8
0-C_ハッチ
  6
JWW_DASHED1
 62
   120
370
     5
100
AcDbLine
 10
-2428.659636224996
 20
2178.945146596169
 30
0.0
 11
-2353.659636225001
 21
2253.945146596163
 31
0.0
  0
LINE
  5
1D4
330
1F
100
AcDbEntity
  8
0-C_ハッチ
  6
JWW_DASHED1
 62
   120
370
     5
100
AcDbLine
 10
-2471.086043096192
 20
2178.945146596172
 30
0.0
 11
-2396.086043096197
 21
2253.945146596167
 31
0.0
  0
LINE
  5
1D5
330
1F
100
AcDbEntity
  8
0-C_ハッチ
  6
JWW_DASHED1
 62
   120
370
     5
100
AcDbLine
 10
-2513.512449967404
 20
2178.945146596161
 30
0.0
 11
-2438.512449967394
 21
2253.94514659617
 31
0.0
  0
LINE
  5
1D6
330
1F
100
AcDbEntity
  8
0-C_ハッチ
  6
JWW_DASHED1
 62
   120
370
     5
100
AcDbLine
 10
-2555.938856838601
 20
2178.945146596163
 30
0.0
 11
-2480.938856838589
 21
2253.945146596174
 31
0.0
  0
LINE
  5
1D7
330
1F
100
AcDbEntity
  8
0-C_ハッチ
  6
JWW_DASHED1
 62
   120
370
     5
100
AcDbLine
 10
-2598.365263709798
 20
2178.945146596167
 30
0.0
 11
-2523.365263709803
 21
2253.945146596162
 31
0.0
  0
LINE
  5
1D8
330
1F
100
AcDbEntity
  8
0-C_ハッチ
  6
JWW_DASHED1
 62
   120
370
     5
100
AcDbLine
 10
-2640.791670581009
 20
2178.945146596156
 30
0.0
 11
-2565.791670581015
 21
2253.94514659615
 31
0.0
  0
LINE
  5
1D9
330
1F
100
AcDbEntity
  8
0-C_ハッチ
  6
JWW_DASHED1
 62
   120
370
     5
100
AcDbLine
 10
-2683.218077452206
 20
2178.945146596158
 30
0.0
 11
-2608.218077452211
 21
2253.945146596154
 31
0.0
  0
LINE
  5
1DA
330
1F
100
AcDbEntity
  8
0-C_ハッチ
  6
JWW_DASHED1
 62
   120
370
     5
100
AcDbLine
 10
-2725.644484323401
 20
2178.945146596162
 30
0.0
 11
-2650.644484323406
 21
2253.945146596158
 31
0.0
  0
LINE
  5
1DB
330
1F
100
AcDbEntity
  8
0-C_ハッチ
  6
JWW_DASHED1
 62
   120
370
     5
100
AcDbLine
 10
-2762.081259204828
 20
2184.934778585882
 30
0.0
 11
-2693.070891194544
 21
2253.945146596165
 31
0.0
  0
LINE
  5
1DC
330
1F
100
AcDbEntity
  8
0-C_ハッチ
  6
JWW_DASHED1
 62
   120
370
     5
100
AcDbLine
 10
-2762.081259204823
 20
2227.361185457087
 30
0.0
 11
-2735.49729806574
 21
2253.94514659617
 31
0.0
  0
LINE
  5
1DD
330
1F
100
AcDbEntity
  8
0-7_金物
  6
Continuous
 62
     7
370
     5
100
AcDbLine
 10
-2180.081120638523
 20
2271.945220828097
 30
0.0
 11
-2180.081120638523
 21
2451.945072364203
 31
0.0
  0
LINE
  5
1DE
330
1F
100
AcDbEntity
  8
0-7_金物
  6
Continuous
 62
     7
370
     5
100
AcDbLine
 10
-2192.081457156683
 20
2451.945072364203
 30
0.0
 11
-2180.081120638523
 21
2451.945072364203
 31
0.0
  0
LINE
  5
1DF
330
1F
100
AcDbEntity
  8
0-7_金物
  6
Continuous
 62
     7
370
     5
100
AcDbLine
 10
-2192.081457156683
 20
2271.945220828097
 30
0.0
 11
-2180.081120638523
 21
2271.945220828097
 31
0.0
  0
LINE
  5
1E0
330
1F
100
AcDbEntity
  8
0-7_金物
  6
Continuous
 62
     7
370
     5
100
AcDbLine
 10
-2180.081120638523
 20
2301.945319804026
 30
0.0
 11
-2168.081526439832
 21
2301.945319804026
 31
0.0
  0
LINE
  5
1E1
330
1F
100
AcDbEntity
  8
0-7_金物
  6
Continuous
 62
     7
370
     5
100
AcDbLine
 10
-2180.081120638523
 20
2421.944973388274
 30
0.0
 11
-2168.081526439832
 21
2421.944973388274
 31
0.0
  0
LINE
  5
1E2
330
1F
100
AcDbEntity
  8
0-7_金物
  6
Continuous
 62
     7
370
     5
100
AcDbLine
 10
-2168.081526439832
 20
2301.945319804026
 30
0.0
 11
-2168.081526439832
 21
2421.944973388274
 31
0.0
  0
LINE
  5
1E3
330
1F
100
AcDbEntity
  8
0-7_金物
  6
Continuous
 62
     7
370
     5
100
AcDbLine
 10
-2168.081526439832
 20
2415.945547448664
 30
0.0
 11
-2162.081457156683
 21
2415.945547448664
 31
0.0
  0
LINE
  5
1E4
330
1F
100
AcDbEntity
  8
0-7_金物
  6
Continuous
 62
     7
370
     5
100
AcDbLine
 10
-2168.081526439832
 20
2307.945488063105
 30
0.0
 11
-2162.081457156683
 21
2307.945488063105
 31
0.0
  0
LINE
  5
1E5
330
1F
100
AcDbEntity
  8
0-7_金物
  6
Continuous
 62
     7
370
     5
100
AcDbLine
 10
-2192.081457156683
 20
2271.945220828097
 30
0.0
 11
-2192.081457156683
 21
2451.945072364203
 31
0.0
  0
MTEXT
  5
1E6
330
1F
100
AcDbEntity
  8
0-0_補助線
  6
Continuous
 62
     7
370
   211
100
AcDbMText
 10
-2175.486678848027
 20
2325.07919630369
 30
0.0
 40
91.44
 41
180.0
 46
0.0
 71
     7
 72
     1
  1
{\fＭＳ ゴシック|b0|i0|c128|p49;3.5}
 73
     1
 44
1.0
  0
LINE
  5
1E7
330
1F
100
AcDbEntity
  8
0-B_寸法
  6
Continuous
 62
   120
370
     5
100
AcDbLine
 10
-1552.880129734929
 20
2616.94514659614
 30
0.0
 11
-1552.880129734929
 21
2106.945146596153
 31
0.0
  0
LWPOLYLINE
  5
1E8
330
1F
100
AcDbEntity
  8
0-B_寸法
  6
Continuous
 62
     7
370
     5
100
AcDbPolyline
 90
        4
 70
     1
 43
3.0
 10
-1551.380129734929
 20
2616.94514659614
 42
0.4142135623731
 10
-1552.880129734929
 20
2618.44514659614
 42
0.4142135623731
 10
-1554.380129734929
 20
2616.94514659614
 42
0.4142135623731
 10
-1552.880129734929
 20
2615.44514659614
 42
0.4142135623731
  0
LWPOLYLINE
  5
1E9
330
1F
100
AcDbEntity
  8
0-B_寸法
  6
Continuous
 62
     7
370
     5
100
AcDbPolyline
 90
        4
 70
     1
 43
3.0
 10
-1551.380129734929
 20
2106.945146596153
 42
0.4142135623731
 10
-1552.880129734929
 20
2108.445146596153
 42
0.4142135623731
 10
-1554.380129734929
 20
2106.945146596153
 42
0.4142135623731
 10
-1552.880129734929
 20
2105.445146596153
 42
0.4142135623731
  0
LINE
  5
1EA
330
1F
100
AcDbEntity
  8
0-B_寸法
  6
Continuous
 62
   120
370
     5
100
AcDbLine
 10
-1552.880129734929
 20
2616.94514659614
 30
0.0
 11
-1671.655698516599
 21
2616.94514659614
 31
0.0
  0
LINE
  5
1EB
330
1F
100
AcDbEntity
  8
0-B_寸法
  6
Continuous
 62
   120
370
     5
100
AcDbLine
 10
-1552.880129734929
 20
2106.945146596153
 30
0.0
 11
-1671.655698516599
 21
2106.945146596153
 31
0.0
  0
MTEXT
  5
1EC
330
1F
100
AcDbEntity
  8
0-B_寸法
  6
Continuous
 62
     7
370
   211
100
AcDbMText
 10
-1567.880129734929
 20
2287.665146596146
 30
0.0
 40
91.44
 41
120.0
 46
0.0
 71
     7
 72
     1
  1
{\fＭＳ ゴシック|b0|i0|c128|p49;85}
 11
6.123031769111886E-17
 21
1.0
 31
0.0
 73
     1
 44
1.0
  0
LINE
  5
1ED
330
1F
100
AcDbEntity
  8
0-0_補助線
  6
JWW_HOJO
 62
   120
370
     5
100
AcDbLine
 10
2781.918344891466
 20
1806.94514659615
 30
0.0
 11
-2762.081259204823
 21
1806.94514659615
 31
0.0
  0
LINE
  5
1EE
330
1F
100
AcDbEntity
  8
0-0_補助線
  6
JWW_HOJO
 62
   120
370
     5
100
AcDbLine
 10
2781.918344891466
 20
1986.94514659615
 30
0.0
 11
-2762.081259204823
 21
1986.94514659615
 31
0.0
  0
LINE
  5
1EF
330
1F
100
AcDbEntity
  8
0-B_寸法
  6
Continuous
 62
   120
370
     5
100
AcDbLine
 10
-2192.081457156683
 20
3141.945146596151
 30
0.0
 11
2211.918542843321
 21
3141.945146596151
 31
0.0
  0
LWPOLYLINE
  5
1F0
330
1F
100
AcDbEntity
  8
0-B_寸法
  6
Continuous
 62
     7
370
     5
100
AcDbPolyline
 90
        4
 70
     1
 43
3.0
 10
-2190.581457156683
 20
3141.945146596151
 42
0.4142135623731
 10
-2192.081457156683
 20
3143.445146596151
 42
0.4142135623731
 10
-2193.581457156683
 20
3141.945146596151
 42
0.4142135623731
 10
-2192.081457156683
 20
3140.445146596152
 42
0.4142135623731
  0
LWPOLYLINE
  5
1F1
330
1F
100
AcDbEntity
  8
0-B_寸法
  6
Continuous
 62
     7
370
     5
100
AcDbPolyline
 90
        4
 70
     1
 43
3.0
 10
2213.418542843321
 20
3141.945146596151
 42
0.4142135623731
 10
2211.918542843321
 20
3143.445146596151
 42
0.4142135623731
 10
2210.418542843321
 20
3141.945146596151
 42
0.4142135623731
 10
2211.918542843321
 20
3140.445146596152
 42
0.4142135623731
  0
LINE
  5
1F2
330
1F
100
AcDbEntity
  8
0-B_寸法
  6
Continuous
 62
   120
370
     5
100
AcDbLine
 10
-2192.081457156683
 20
3141.945146596151
 30
0.0
 11
-2192.081457156683
 21
2781.945146596151
 31
0.0
  0
LINE
  5
1F3
330
1F
100
AcDbEntity
  8
0-B_寸法
  6
Continuous
 62
   120
370
     5
100
AcDbLine
 10
2211.918542843321
 20
3141.945146596151
 30
0.0
 11
2211.918542843321
 21
2781.945146596151
 31
0.0
  0
ARC
  5
1F4
330
1F
100
AcDbEntity
  8
0-6_扉
  6
JWW_DASHED2
 62
    40
370
     5
100
AcDbCircle
 10
1720.835182732968
 20
2557.712520566331
 30
0.0
 40
18.0
100
AcDbArc
 50
85.6539792783598
 51
175.65397927836
  0
LINE
  5
1F5
330
1F
100
AcDbEntity
  8
0-6_扉
  6
JWW_DASHED2
 62
    40
370
     5
100
AcDbLine
 10
1811.940429435203
 20
2568.84059422377
 30
0.0
 11
1722.199216518163
 21
2575.66076314974
 31
0.0
  0
ARC
  5
1F6
330
1F
100
AcDbEntity
  8
0-6_扉
  6
JWW_DASHED2
 62
    40
370
     5
100
AcDbCircle
 10
1810.576395650008
 20
2550.892351640361
 30
0.0
 40
18.0
100
AcDbArc
 50
355.6539792783599
 51
85.6539792783597
  0
ARC
  5
1F7
330
1F
100
AcDbEntity
  8
0-6_扉
  6
JWW_DASHED2
 62
    40
370
     5
100
AcDbCircle
 10
1377.607998343767
 20
2557.712520566333
 30
0.0
 40
18.0
100
AcDbArc
 50
4.346020721638975
 51
94.34602072163908
  0
LINE
  5
1F8
330
1F
100
AcDbEntity
  8
0-6_扉
  6
JWW_DASHED2
 62
    40
370
     5
100
AcDbLine
 10
1286.502751641535
 20
2568.840594223775
 30
0.0
 11
1376.243964558573
 21
2575.660763149742
 31
0.0
  0
ARC
  5
1F9
330
1F
100
AcDbEntity
  8
0-6_扉
  6
JWW_DASHED2
 62
    40
370
     5
100
AcDbCircle
 10
1287.866785426728
 20
2550.892351640366
 30
0.0
 40
18.0
100
AcDbArc
 50
94.34602072163908
 51
184.3460207216391
  0
LINE
  5
1FA
330
1F
100
AcDbEntity
  8
0-6_扉
  6
JWW_DASHED2
 62
    40
370
     5
100
AcDbLine
 10
1828.524638233415
 20
2549.52831785517
 30
0.0
 11
1794.889122357697
 21
2106.94514659615
 31
0.0
  0
LINE
  5
1FB
330
1F
100
AcDbEntity
  8
0-6_扉
  6
JWW_DASHED2
 62
    40
370
     5
100
AcDbLine
 10
1269.918542843322
 20
2549.528317855176
 30
0.0
 11
1303.554058719033
 21
2106.94514659615
 31
0.0
  0
LINE
  5
1FC
330
1F
100
AcDbEntity
  8
0-6_扉
  6
JWW_DASHED2
 62
    40
370
     5
100
AcDbLine
 10
1395.556240927175
 20
2559.076554351529
 30
0.0
 11
1429.917405406615
 21
2106.94514659615
 31
0.0
  0
LINE
  5
1FD
330
1F
100
AcDbEntity
  8
0-6_扉
  6
JWW_DASHED2
 62
    40
370
     5
100
AcDbLine
 10
1702.886940149562
 20
2559.076554351524
 30
0.0
 11
1668.525775670113
 21
2106.94514659615
 31
0.0
  0
LINE
  5
1FE
330
1F
100
AcDbEntity
  8
0-1_通り芯
  6
JWW_CENTER1
 62
   120
370
     5
100
AcDbLine
 10
1269.91854284332
 20
2781.945146596151
 30
0.0
 11
1269.91854284332
 21
2549.528317855176
 31
0.0
  0
LWPOLYLINE
  5
1FF
330
1F
100
AcDbEntity
  8
0-B_寸法
  6
Continuous
 62
     7
370
     5
100
AcDbPolyline
 90
        4
 70
     1
 43
3.0
 10
1271.41854284332
 20
2961.945146596151
 42
0.4142135623731
 10
1269.91854284332
 20
2963.445146596151
 42
0.4142135623731
 10
1268.418542843321
 20
2961.945146596151
 42
0.4142135623731
 10
1269.91854284332
 20
2960.445146596152
 42
0.4142135623731
  0
LINE
  5
200
330
1F
100
AcDbEntity
  8
0-B_寸法
  6
Continuous
 62
   120
370
     5
100
AcDbLine
 10
1269.91854284332
 20
2961.945146596151
 30
0.0
 11
1269.91854284332
 21
2781.945146596151
 31
0.0
  0
ARC
  5
201
330
1F
100
AcDbEntity
  8
0-6_扉
  6
JWW_DASHED2
 62
    40
370
     5
100
AcDbCircle
 10
-1700.998097046328
 20
2557.712520566331
 30
0.0
 40
18.0
100
AcDbArc
 50
4.346020721640005
 51
94.34602072164022
  0
LINE
  5
202
330
1F
100
AcDbEntity
  8
0-6_扉
  6
JWW_DASHED2
 62
    40
370
     5
100
AcDbLine
 10
-1792.103343748562
 20
2568.84059422377
 30
0.0
 11
-1702.362130831524
 21
2575.66076314974
 31
0.0
  0
ARC
  5
203
330
1F
100
AcDbEntity
  8
0-6_扉
  6
JWW_DASHED2
 62
    40
370
     5
100
AcDbCircle
 10
-1790.739309963369
 20
2550.892351640361
 30
0.0
 40
18.0
100
AcDbArc
 50
94.3460207216403
 51
184.3460207216401
  0
ARC
  5
204
330
1F
100
AcDbEntity
  8
0-6_扉
  6
JWW_DASHED2
 62
    40
370
     5
100
AcDbCircle
 10
-1357.770912657126
 20
2557.712520566333
 30
0.0
 40
18.0
100
AcDbArc
 50
85.65397927836092
 51
175.653979278361
  0
LINE
  5
205
330
1F
100
AcDbEntity
  8
0-6_扉
  6
JWW_DASHED2
 62
    40
370
     5
100
AcDbLine
 10
-1266.665665954894
 20
2568.840594223775
 30
0.0
 11
-1356.406878871932
 21
2575.660763149742
 31
0.0
  0
ARC
  5
206
330
1F
100
AcDbEntity
  8
0-6_扉
  6
JWW_DASHED2
 62
    40
370
     5
100
AcDbCircle
 10
-1268.029699740087
 20
2550.892351640366
 30
0.0
 40
18.0
100
AcDbArc
 50
355.653979278361
 51
85.65397927836094
  0
LINE
  5
207
330
1F
100
AcDbEntity
  8
0-6_扉
  6
JWW_DASHED2
 62
    40
370
     5
100
AcDbLine
 10
-1808.687552546775
 20
2549.52831785517
 30
0.0
 11
-1775.052036671057
 21
2106.94514659615
 31
0.0
  0
LINE
  5
208
330
1F
100
AcDbEntity
  8
0-6_扉
  6
JWW_DASHED2
 62
    40
370
     5
100
AcDbLine
 10
-1250.081457156681
 20
2549.528317855176
 30
0.0
 11
-1283.716973032392
 21
2106.94514659615
 31
0.0
  0
LINE
  5
209
330
1F
100
AcDbEntity
  8
0-6_扉
  6
JWW_DASHED2
 62
    40
370
     5
100
AcDbLine
 10
-1375.719155240534
 20
2559.076554351529
 30
0.0
 11
-1410.080319719973
 21
2106.94514659615
 31
0.0
  0
LINE
  5
20A
330
1F
100
AcDbEntity
  8
0-6_扉
  6
JWW_DASHED2
 62
    40
370
     5
100
AcDbLine
 10
-1683.049854462922
 20
2559.076554351524
 30
0.0
 11
-1648.688689983472
 21
2106.94514659615
 31
0.0
  0
LINE
  5
20B
330
1F
100
AcDbEntity
  8
0-1_通り芯
  6
JWW_CENTER1
 62
   120
370
     5
100
AcDbLine
 10
-1250.08145715668
 20
2781.945146596151
 30
0.0
 11
-1250.08145715668
 21
2549.528317855176
 31
0.0
  0
LWPOLYLINE
  5
20C
330
1F
100
AcDbEntity
  8
0-B_寸法
  6
Continuous
 62
     7
370
     5
100
AcDbPolyline
 90
        4
 70
     1
 43
3.0
 10
-1248.58145715668
 20
2961.945146596151
 42
0.4142135623731
 10
-1250.08145715668
 20
2963.445146596151
 42
0.4142135623731
 10
-1251.581457156679
 20
2961.945146596151
 42
0.4142135623731
 10
-1250.08145715668
 20
2960.445146596152
 42
0.4142135623731
  0
LINE
  5
20D
330
1F
100
AcDbEntity
  8
0-B_寸法
  6
Continuous
 62
   120
370
     5
100
AcDbLine
 10
-1250.08145715668
 20
2961.945146596151
 30
0.0
 11
-1250.08145715668
 21
2781.945146596151
 31
0.0
  0
LINE
  5
20E
330
1F
100
AcDbEntity
  8
0-B_寸法
  6
Continuous
 62
   120
370
     5
100
AcDbLine
 10
-1250.08145715668
 20
2961.945146596151
 30
0.0
 11
1269.91854284332
 21
2961.945146596151
 31
0.0
  0
LINE
  5
20F
330
1F
100
AcDbEntity
  8
0-0_補助線
  6
JWW_HOJO
 62
     7
370
     5
100
AcDbLine
 10
-1982.08145715668
 20
1086.94514659615
 30
0.0
 11
-1982.08145715668
 21
3321.945146596151
 31
0.0
  0
LINE
  5
210
330
1F
100
AcDbEntity
  8
0-0_補助線
  6
JWW_HOJO
 62
     7
370
     5
100
AcDbLine
 10
2001.918542843321
 20
1086.94514659615
 30
0.0
 11
2001.918542843321
 21
3321.945146596151
 31
0.0
  0
LINE
  5
211
330
1F
100
AcDbEntity
  8
0-0_補助線
  6
JWW_HOJO
 62
     7
370
     5
100
AcDbLine
 10
-1499.831457156684
 20
1086.94514659615
 30
0.0
 11
-1499.831457156684
 21
3321.945146596151
 31
0.0
  0
LINE
  5
212
330
1F
100
AcDbEntity
  8
0-0_補助線
  6
JWW_HOJO
 62
     7
370
     5
100
AcDbLine
 10
-996.581457156685
 20
1086.94514659615
 30
0.0
 11
-996.581457156685
 21
3321.945146596151
 31
0.0
  0
LINE
  5
213
330
1F
100
AcDbEntity
  8
0-0_補助線
  6
JWW_HOJO
 62
     7
370
     5
100
AcDbLine
 10
-493.3314571566822
 20
1086.94514659615
 30
0.0
 11
-493.3314571566822
 21
3321.945146596151
 31
0.0
  0
LINE
  5
214
330
1F
100
AcDbEntity
  8
0-0_補助線
  6
JWW_HOJO
 62
     7
370
     5
100
AcDbLine
 10
9.918542843315379
 20
1086.94514659615
 30
0.0
 11
9.918542843315379
 21
3321.945146596151
 31
0.0
  0
LINE
  5
215
330
1F
100
AcDbEntity
  8
0-0_補助線
  6
JWW_HOJO
 62
     7
370
     5
100
AcDbLine
 10
513.1685428433155
 20
1086.94514659615
 30
0.0
 11
513.1685428433155
 21
3321.945146596151
 31
0.0
  0
LINE
  5
216
330
1F
100
AcDbEntity
  8
0-0_補助線
  6
JWW_HOJO
 62
     7
370
     5
100
AcDbLine
 10
1016.418542843321
 20
1086.94514659615
 30
0.0
 11
1016.418542843321
 21
3321.945146596151
 31
0.0
  0
LINE
  5
217
330
1F
100
AcDbEntity
  8
0-0_補助線
  6
JWW_HOJO
 62
     7
370
     5
100
AcDbLine
 10
1519.668542843315
 20
1086.94514659615
 30
0.0
 11
1519.668542843315
 21
3321.945146596151
 31
0.0
  0
LINE
  5
218
330
1F
100
AcDbEntity
  8
0-B_寸法
  6
Continuous
 62
   120
370
     5
100
AcDbLine
 10
-1997.081457156683
 20
1806.94514659615
 30
0.0
 11
-1502.831457156685
 21
1806.94514659615
 31
0.0
  0
LWPOLYLINE
  5
219
330
1F
100
AcDbEntity
  8
0-B_寸法
  6
Continuous
 62
     7
370
     5
100
AcDbPolyline
 90
        4
 70
     1
 43
3.0
 10
-1995.581457156683
 20
1806.94514659615
 42
0.4142135623731
 10
-1997.081457156683
 20
1808.44514659615
 42
0.4142135623731
 10
-1998.581457156683
 20
1806.94514659615
 42
0.4142135623731
 10
-1997.081457156683
 20
1805.44514659615
 42
0.4142135623731
  0
LINE
  5
21A
330
1F
100
AcDbEntity
  8
0-B_寸法
  6
Continuous
 62
   120
370
     5
100
AcDbLine
 10
-1997.081457156683
 20
1806.94514659615
 30
0.0
 11
-1997.081457156683
 21
1986.94514659615
 31
0.0
  0
LINE
  5
21B
330
1F
100
AcDbEntity
  8
0-B_寸法
  6
Continuous
 62
   120
370
     5
100
AcDbLine
 10
-1502.831457156685
 20
1806.94514659615
 30
0.0
 11
-1502.831457156685
 21
1986.94514659615
 31
0.0
  0
LINE
  5
21C
330
1F
100
AcDbEntity
  8
0-B_寸法
  6
Continuous
 62
   120
370
     5
100
AcDbLine
 10
-1496.831457156684
 20
1806.94514659615
 30
0.0
 11
-1496.831457156684
 21
1986.94514659615
 31
0.0
  0
LINE
  5
21D
330
1F
100
AcDbEntity
  8
0-B_寸法
  6
Continuous
 62
   120
370
     5
100
AcDbLine
 10
-1002.581457156685
 20
1806.94514659615
 30
0.0
 11
-1002.581457156685
 21
1986.94514659615
 31
0.0
  0
LINE
  5
21E
330
1F
100
AcDbEntity
  8
0-B_寸法
  6
Continuous
 62
   120
370
     5
100
AcDbLine
 10
-990.5814571566837
 20
1806.94514659615
 30
0.0
 11
-990.5814571566837
 21
1986.94514659615
 31
0.0
  0
LINE
  5
21F
330
1F
100
AcDbEntity
  8
0-B_寸法
  6
Continuous
 62
   120
370
     5
100
AcDbLine
 10
-496.3314571566846
 20
1806.94514659615
 30
0.0
 11
-496.3314571566846
 21
1986.94514659615
 31
0.0
  0
LINE
  5
220
330
1F
100
AcDbEntity
  8
0-B_寸法
  6
Continuous
 62
   120
370
     5
100
AcDbLine
 10
-490.3314571566798
 20
1806.94514659615
 30
0.0
 11
-490.3314571566798
 21
1986.94514659615
 31
0.0
  0
LINE
  5
221
330
1F
100
AcDbEntity
  8
0-B_寸法
  6
Continuous
 62
   120
370
     5
100
AcDbLine
 10
3.91854284331572
 20
1806.94514659615
 30
0.0
 11
3.91854284331572
 21
1986.94514659615
 31
0.0
  0
LINE
  5
222
330
1F
100
AcDbEntity
  8
0-B_寸法
  6
Continuous
 62
   120
370
     5
100
AcDbLine
 10
15.91854284331589
 20
1806.94514659615
 30
0.0
 11
15.91854284331589
 21
1986.94514659615
 31
0.0
  0
LINE
  5
223
330
1F
100
AcDbEntity
  8
0-B_寸法
  6
Continuous
 62
   120
370
     5
100
AcDbLine
 10
510.1685428433157
 20
1806.94514659615
 30
0.0
 11
510.1685428433157
 21
1986.94514659615
 31
0.0
  0
LINE
  5
224
330
1F
100
AcDbEntity
  8
0-B_寸法
  6
Continuous
 62
   120
370
     5
100
AcDbLine
 10
516.1685428433154
 20
1806.94514659615
 30
0.0
 11
516.1685428433154
 21
1986.94514659615
 31
0.0
  0
LINE
  5
225
330
1F
100
AcDbEntity
  8
0-B_寸法
  6
Continuous
 62
   120
370
     5
100
AcDbLine
 10
1010.418542843325
 20
1806.94514659615
 30
0.0
 11
1010.418542843325
 21
1986.94514659615
 31
0.0
  0
LINE
  5
226
330
1F
100
AcDbEntity
  8
0-B_寸法
  6
Continuous
 62
   120
370
     5
100
AcDbLine
 10
1022.418542843315
 20
1806.94514659615
 30
0.0
 11
1022.418542843315
 21
1986.94514659615
 31
0.0
  0
LINE
  5
227
330
1F
100
AcDbEntity
  8
0-B_寸法
  6
Continuous
 62
   120
370
     5
100
AcDbLine
 10
1516.668542843315
 20
1806.94514659615
 30
0.0
 11
1516.668542843315
 21
1986.94514659615
 31
0.0
  0
LINE
  5
228
330
1F
100
AcDbEntity
  8
0-B_寸法
  6
Continuous
 62
   120
370
     5
100
AcDbLine
 10
1522.668542843315
 20
1806.94514659615
 30
0.0
 11
2016.918542843325
 21
1806.94514659615
 31
0.0
  0
LWPOLYLINE
  5
229
330
1F
100
AcDbEntity
  8
0-B_寸法
  6
Continuous
 62
     7
370
     5
100
AcDbPolyline
 90
        4
 70
     1
 43
3.0
 10
2018.418542843325
 20
1806.94514659615
 42
0.4142135623731
 10
2016.918542843325
 20
1808.44514659615
 42
0.4142135623731
 10
2015.418542843325
 20
1806.94514659615
 42
0.4142135623731
 10
2016.918542843325
 20
1805.44514659615
 42
0.4142135623731
  0
LINE
  5
22A
330
1F
100
AcDbEntity
  8
0-B_寸法
  6
Continuous
 62
   120
370
     5
100
AcDbLine
 10
1522.668542843315
 20
1806.94514659615
 30
0.0
 11
1522.668542843315
 21
1986.94514659615
 31
0.0
  0
LINE
  5
22B
330
1F
100
AcDbEntity
  8
0-B_寸法
  6
Continuous
 62
   120
370
     5
100
AcDbLine
 10
2016.918542843325
 20
1806.94514659615
 30
0.0
 11
2016.918542843325
 21
1986.94514659615
 31
0.0
  0
LINE
  5
22C
330
1F
100
AcDbEntity
  8
0-B_寸法
  6
Continuous
 62
   120
370
     5
100
AcDbLine
 10
-1997.081457156683
 20
1626.94514659615
 30
0.0
 11
-1002.581457156685
 21
1626.94514659615
 31
0.0
  0
LWPOLYLINE
  5
22D
330
1F
100
AcDbEntity
  8
0-B_寸法
  6
Continuous
 62
     7
370
     5
100
AcDbPolyline
 90
        4
 70
     1
 43
3.0
 10
-1995.581457156683
 20
1626.94514659615
 42
0.4142135623731
 10
-1997.081457156683
 20
1628.44514659615
 42
0.4142135623731
 10
-1998.581457156683
 20
1626.94514659615
 42
0.4142135623731
 10
-1997.081457156683
 20
1625.44514659615
 42
0.4142135623731
  0
LINE
  5
22E
330
1F
100
AcDbEntity
  8
0-B_寸法
  6
Continuous
 62
   120
370
     5
100
AcDbLine
 10
-1997.081457156683
 20
1626.94514659615
 30
0.0
 11
-1997.081457156683
 21
1806.94514659615
 31
0.0
  0
LINE
  5
22F
330
1F
100
AcDbEntity
  8
0-B_寸法
  6
Continuous
 62
   120
370
     5
100
AcDbLine
 10
1022.418542843315
 20
1626.94514659615
 30
0.0
 11
2016.918542843325
 21
1626.94514659615
 31
0.0
  0
LWPOLYLINE
  5
230
330
1F
100
AcDbEntity
  8
0-B_寸法
  6
Continuous
 62
     7
370
     5
100
AcDbPolyline
 90
        4
 70
     1
 43
3.0
 10
2018.418542843325
 20
1626.94514659615
 42
0.4142135623731
 10
2016.918542843325
 20
1628.44514659615
 42
0.4142135623731
 10
2015.418542843325
 20
1626.94514659615
 42
0.4142135623731
 10
2016.918542843325
 20
1625.44514659615
 42
0.4142135623731
  0
LINE
  5
231
330
1F
100
AcDbEntity
  8
0-B_寸法
  6
Continuous
 62
   120
370
     5
100
AcDbLine
 10
2016.918542843325
 20
1626.94514659615
 30
0.0
 11
2016.918542843325
 21
1806.94514659615
 31
0.0
  0
LWPOLYLINE
  5
232
330
1F
100
AcDbEntity
  8
0-B_寸法
  6
Continuous
 62
     7
370
     5
100
AcDbPolyline
 90
        4
 70
     1
 43
3.0
 10
-1501.331457156685
 20
1806.94514659615
 42
0.4142135623731
 10
-1502.831457156685
 20
1808.44514659615
 42
0.4142135623731
 10
-1504.331457156685
 20
1806.94514659615
 42
0.4142135623731
 10
-1502.831457156685
 20
1805.44514659615
 42
0.4142135623731
  0
LINE
  5
233
330
1F
100
AcDbEntity
  8
0-B_寸法
  6
Continuous
 62
   120
370
     5
100
AcDbLine
 10
-1496.831457156684
 20
1806.94514659615
 30
0.0
 11
-1002.581457156685
 21
1806.94514659615
 31
0.0
  0
LWPOLYLINE
  5
234
330
1F
100
AcDbEntity
  8
0-B_寸法
  6
Continuous
 62
     7
370
     5
100
AcDbPolyline
 90
        4
 70
     1
 43
3.0
 10
-1495.331457156684
 20
1806.94514659615
 42
0.4142135623731
 10
-1496.831457156684
 20
1808.44514659615
 42
0.4142135623731
 10
-1498.331457156683
 20
1806.94514659615
 42
0.4142135623731
 10
-1496.831457156684
 20
1805.44514659615
 42
0.4142135623731
  0
LWPOLYLINE
  5
235
330
1F
100
AcDbEntity
  8
0-B_寸法
  6
Continuous
 62
     7
370
     5
100
AcDbPolyline
 90
        4
 70
     1
 43
3.0
 10
-1001.081457156685
 20
1806.94514659615
 42
0.4142135623731
 10
-1002.581457156685
 20
1808.44514659615
 42
0.4142135623731
 10
-1004.081457156685
 20
1806.94514659615
 42
0.4142135623731
 10
-1002.581457156685
 20
1805.44514659615
 42
0.4142135623731
  0
LINE
  5
236
330
1F
100
AcDbEntity
  8
0-B_寸法
  6
Continuous
 62
   120
370
     5
100
AcDbLine
 10
-990.5814571566837
 20
1806.94514659615
 30
0.0
 11
-496.3314571566846
 21
1806.94514659615
 31
0.0
  0
LWPOLYLINE
  5
237
330
1F
100
AcDbEntity
  8
0-B_寸法
  6
Continuous
 62
     7
370
     5
100
AcDbPolyline
 90
        4
 70
     1
 43
3.0
 10
-989.0814571566837
 20
1806.94514659615
 42
0.4142135623731
 10
-990.5814571566837
 20
1808.44514659615
 42
0.4142135623731
 10
-992.0814571566835
 20
1806.94514659615
 42
0.4142135623731
 10
-990.5814571566837
 20
1805.44514659615
 42
0.4142135623731
  0
LWPOLYLINE
  5
238
330
1F
100
AcDbEntity
  8
0-B_寸法
  6
Continuous
 62
     7
370
     5
100
AcDbPolyline
 90
        4
 70
     1
 43
3.0
 10
-494.8314571566846
 20
1806.94514659615
 42
0.4142135623731
 10
-496.3314571566846
 20
1808.44514659615
 42
0.4142135623731
 10
-497.8314571566846
 20
1806.94514659615
 42
0.4142135623731
 10
-496.3314571566846
 20
1805.44514659615
 42
0.4142135623731
  0
LINE
  5
239
330
1F
100
AcDbEntity
  8
0-B_寸法
  6
Continuous
 62
   120
370
     5
100
AcDbLine
 10
-490.3314571566798
 20
1806.94514659615
 30
0.0
 11
3.91854284331572
 21
1806.94514659615
 31
0.0
  0
LWPOLYLINE
  5
23A
330
1F
100
AcDbEntity
  8
0-B_寸法
  6
Continuous
 62
     7
370
     5
100
AcDbPolyline
 90
        4
 70
     1
 43
3.0
 10
-488.8314571566798
 20
1806.94514659615
 42
0.4142135623731
 10
-490.3314571566798
 20
1808.44514659615
 42
0.4142135623731
 10
-491.8314571566798
 20
1806.94514659615
 42
0.4142135623731
 10
-490.3314571566798
 20
1805.44514659615
 42
0.4142135623731
  0
LWPOLYLINE
  5
23B
330
1F
100
AcDbEntity
  8
0-B_寸法
  6
Continuous
 62
     7
370
     5
100
AcDbPolyline
 90
        4
 70
     1
 43
3.0
 10
5.41854284331572
 20
1806.94514659615
 42
0.4142135623731
 10
3.91854284331572
 20
1808.44514659615
 42
0.4142135623731
 10
2.41854284331572
 20
1806.94514659615
 42
0.4142135623731
 10
3.91854284331572
 20
1805.44514659615
 42
0.4142135623731
  0
LINE
  5
23C
330
1F
100
AcDbEntity
  8
0-B_寸法
  6
Continuous
 62
   120
370
     5
100
AcDbLine
 10
15.91854284331589
 20
1806.94514659615
 30
0.0
 11
510.1685428433157
 21
1806.94514659615
 31
0.0
  0
LWPOLYLINE
  5
23D
330
1F
100
AcDbEntity
  8
0-B_寸法
  6
Continuous
 62
     7
370
     5
100
AcDbPolyline
 90
        4
 70
     1
 43
3.0
 10
17.41854284331589
 20
1806.94514659615
 42
0.4142135623731
 10
15.91854284331589
 20
1808.44514659615
 42
0.4142135623731
 10
14.41854284331589
 20
1806.94514659615
 42
0.4142135623731
 10
15.91854284331589
 20
1805.44514659615
 42
0.4142135623731
  0
LWPOLYLINE
  5
23E
330
1F
100
AcDbEntity
  8
0-B_寸法
  6
Continuous
 62
     7
370
     5
100
AcDbPolyline
 90
        4
 70
     1
 43
3.0
 10
511.6685428433157
 20
1806.94514659615
 42
0.4142135623731
 10
510.1685428433157
 20
1808.44514659615
 42
0.4142135623731
 10
508.6685428433157
 20
1806.94514659615
 42
0.4142135623731
 10
510.1685428433157
 20
1805.44514659615
 42
0.4142135623731
  0
LINE
  5
23F
330
1F
100
AcDbEntity
  8
0-B_寸法
  6
Continuous
 62
   120
370
     5
100
AcDbLine
 10
516.1685428433154
 20
1806.94514659615
 30
0.0
 11
1010.418542843325
 21
1806.94514659615
 31
0.0
  0
LWPOLYLINE
  5
240
330
1F
100
AcDbEntity
  8
0-B_寸法
  6
Continuous
 62
     7
370
     5
100
AcDbPolyline
 90
        4
 70
     1
 43
3.0
 10
517.6685428433154
 20
1806.94514659615
 42
0.4142135623731
 10
516.1685428433154
 20
1808.44514659615
 42
0.4142135623731
 10
514.6685428433153
 20
1806.94514659615
 42
0.4142135623731
 10
516.1685428433154
 20
1805.44514659615
 42
0.4142135623731
  0
LWPOLYLINE
  5
241
330
1F
100
AcDbEntity
  8
0-B_寸法
  6
Continuous
 62
     7
370
     5
100
AcDbPolyline
 90
        4
 70
     1
 43
3.0
 10
1011.918542843325
 20
1806.94514659615
 42
0.4142135623731
 10
1010.418542843325
 20
1808.44514659615
 42
0.4142135623731
 10
1008.918542843326
 20
1806.94514659615
 42
0.4142135623731
 10
1010.418542843325
 20
1805.44514659615
 42
0.4142135623731
  0
LINE
  5
242
330
1F
100
AcDbEntity
  8
0-B_寸法
  6
Continuous
 62
   120
370
     5
100
AcDbLine
 10
1022.418542843315
 20
1806.94514659615
 30
0.0
 11
1516.668542843315
 21
1806.94514659615
 31
0.0
  0
LWPOLYLINE
  5
243
330
1F
100
AcDbEntity
  8
0-B_寸法
  6
Continuous
 62
     7
370
     5
100
AcDbPolyline
 90
        4
 70
     1
 43
3.0
 10
1023.918542843315
 20
1806.94514659615
 42
0.4142135623731
 10
1022.418542843315
 20
1808.44514659615
 42
0.4142135623731
 10
1020.918542843315
 20
1806.94514659615
 42
0.4142135623731
 10
1022.418542843315
 20
1805.44514659615
 42
0.4142135623731
  0
LWPOLYLINE
  5
244
330
1F
100
AcDbEntity
  8
0-B_寸法
  6
Continuous
 62
     7
370
     5
100
AcDbPolyline
 90
        4
 70
     1
 43
3.0
 10
1518.168542843315
 20
1806.94514659615
 42
0.4142135623731
 10
1516.668542843315
 20
1808.44514659615
 42
0.4142135623731
 10
1515.168542843315
 20
1806.94514659615
 42
0.4142135623731
 10
1516.668542843315
 20
1805.44514659615
 42
0.4142135623731
  0
LWPOLYLINE
  5
245
330
1F
100
AcDbEntity
  8
0-B_寸法
  6
Continuous
 62
     7
370
     5
100
AcDbPolyline
 90
        4
 70
     1
 43
3.0
 10
1524.168542843315
 20
1806.94514659615
 42
0.4142135623731
 10
1522.668542843315
 20
1808.44514659615
 42
0.4142135623731
 10
1521.168542843315
 20
1806.94514659615
 42
0.4142135623731
 10
1522.668542843315
 20
1805.44514659615
 42
0.4142135623731
  0
LWPOLYLINE
  5
246
330
1F
100
AcDbEntity
  8
0-B_寸法
  6
Continuous
 62
     7
370
     5
100
AcDbPolyline
 90
        4
 70
     1
 43
3.0
 10
-1001.081457156685
 20
1626.94514659615
 42
0.4142135623731
 10
-1002.581457156685
 20
1628.44514659615
 42
0.4142135623731
 10
-1004.081457156685
 20
1626.94514659615
 42
0.4142135623731
 10
-1002.581457156685
 20
1625.44514659615
 42
0.4142135623731
  0
LINE
  5
247
330
1F
100
AcDbEntity
  8
0-B_寸法
  6
Continuous
 62
   120
370
     5
100
AcDbLine
 10
-1002.581457156685
 20
1626.94514659615
 30
0.0
 11
-1002.581457156685
 21
1806.94514659615
 31
0.0
  0
LINE
  5
248
330
1F
100
AcDbEntity
  8
0-B_寸法
  6
Continuous
 62
   120
370
     5
100
AcDbLine
 10
-1002.581457156685
 20
1626.94514659615
 30
0.0
 11
-990.5814571566837
 21
1626.94514659615
 31
0.0
  0
LWPOLYLINE
  5
249
330
1F
100
AcDbEntity
  8
0-B_寸法
  6
Continuous
 62
     7
370
     5
100
AcDbPolyline
 90
        4
 70
     1
 43
3.0
 10
-989.0814571566837
 20
1626.94514659615
 42
0.4142135623731
 10
-990.5814571566837
 20
1628.44514659615
 42
0.4142135623731
 10
-992.0814571566835
 20
1626.94514659615
 42
0.4142135623731
 10
-990.5814571566837
 20
1625.44514659615
 42
0.4142135623731
  0
LINE
  5
24A
330
1F
100
AcDbEntity
  8
0-B_寸法
  6
Continuous
 62
   120
370
     5
100
AcDbLine
 10
-990.5814571566837
 20
1626.94514659615
 30
0.0
 11
-990.5814571566837
 21
1806.94514659615
 31
0.0
  0
LINE
  5
24B
330
1F
100
AcDbEntity
  8
0-B_寸法
  6
Continuous
 62
   120
370
     5
100
AcDbLine
 10
-990.5814571566837
 20
1626.94514659615
 30
0.0
 11
3.91854284331572
 21
1626.94514659615
 31
0.0
  0
LWPOLYLINE
  5
24C
330
1F
100
AcDbEntity
  8
0-B_寸法
  6
Continuous
 62
     7
370
     5
100
AcDbPolyline
 90
        4
 70
     1
 43
3.0
 10
5.41854284331572
 20
1626.94514659615
 42
0.4142135623731
 10
3.91854284331572
 20
1628.44514659615
 42
0.4142135623731
 10
2.41854284331572
 20
1626.94514659615
 42
0.4142135623731
 10
3.91854284331572
 20
1625.44514659615
 42
0.4142135623731
  0
LINE
  5
24D
330
1F
100
AcDbEntity
  8
0-B_寸法
  6
Continuous
 62
   120
370
     5
100
AcDbLine
 10
3.91854284331572
 20
1626.94514659615
 30
0.0
 11
3.91854284331572
 21
1806.94514659615
 31
0.0
  0
LINE
  5
24E
330
1F
100
AcDbEntity
  8
0-B_寸法
  6
Continuous
 62
   120
370
     5
100
AcDbLine
 10
3.91854284331572
 20
1626.94514659615
 30
0.0
 11
15.91854284331589
 21
1626.94514659615
 31
0.0
  0
LWPOLYLINE
  5
24F
330
1F
100
AcDbEntity
  8
0-B_寸法
  6
Continuous
 62
     7
370
     5
100
AcDbPolyline
 90
        4
 70
     1
 43
3.0
 10
17.41854284331589
 20
1626.94514659615
 42
0.4142135623731
 10
15.91854284331589
 20
1628.44514659615
 42
0.4142135623731
 10
14.41854284331589
 20
1626.94514659615
 42
0.4142135623731
 10
15.91854284331589
 20
1625.44514659615
 42
0.4142135623731
  0
LINE
  5
250
330
1F
100
AcDbEntity
  8
0-B_寸法
  6
Continuous
 62
   120
370
     5
100
AcDbLine
 10
15.91854284331589
 20
1626.94514659615
 30
0.0
 11
15.91854284331589
 21
1806.94514659615
 31
0.0
  0
LINE
  5
251
330
1F
100
AcDbEntity
  8
0-B_寸法
  6
Continuous
 62
   120
370
     5
100
AcDbLine
 10
15.91854284331589
 20
1626.94514659615
 30
0.0
 11
1010.418542843325
 21
1626.94514659615
 31
0.0
  0
LWPOLYLINE
  5
252
330
1F
100
AcDbEntity
  8
0-B_寸法
  6
Continuous
 62
     7
370
     5
100
AcDbPolyline
 90
        4
 70
     1
 43
3.0
 10
1011.918542843325
 20
1626.94514659615
 42
0.4142135623731
 10
1010.418542843325
 20
1628.44514659615
 42
0.4142135623731
 10
1008.918542843326
 20
1626.94514659615
 42
0.4142135623731
 10
1010.418542843325
 20
1625.44514659615
 42
0.4142135623731
  0
LINE
  5
253
330
1F
100
AcDbEntity
  8
0-B_寸法
  6
Continuous
 62
   120
370
     5
100
AcDbLine
 10
1010.418542843325
 20
1626.94514659615
 30
0.0
 11
1010.418542843325
 21
1806.94514659615
 31
0.0
  0
LINE
  5
254
330
1F
100
AcDbEntity
  8
0-B_寸法
  6
Continuous
 62
   120
370
     5
100
AcDbLine
 10
1010.418542843325
 20
1626.94514659615
 30
0.0
 11
1022.418542843315
 21
1626.94514659615
 31
0.0
  0
LWPOLYLINE
  5
255
330
1F
100
AcDbEntity
  8
0-B_寸法
  6
Continuous
 62
     7
370
     5
100
AcDbPolyline
 90
        4
 70
     1
 43
3.0
 10
1023.918542843315
 20
1626.94514659615
 42
0.4142135623731
 10
1022.418542843315
 20
1628.44514659615
 42
0.4142135623731
 10
1020.918542843315
 20
1626.94514659615
 42
0.4142135623731
 10
1022.418542843315
 20
1625.44514659615
 42
0.4142135623731
  0
LINE
  5
256
330
1F
100
AcDbEntity
  8
0-B_寸法
  6
Continuous
 62
   120
370
     5
100
AcDbLine
 10
1022.418542843315
 20
1626.94514659615
 30
0.0
 11
1022.418542843315
 21
1806.94514659615
 31
0.0
  0
LINE
  5
257
330
1F
100
AcDbEntity
  8
0-B_寸法
  6
Continuous
 62
   120
370
     5
100
AcDbLine
 10
-2162.081457156689
 20
1446.94514659615
 30
0.0
 11
-1982.081457156686
 21
1446.94514659615
 31
0.0
  0
LWPOLYLINE
  5
258
330
1F
100
AcDbEntity
  8
0-B_寸法
  6
Continuous
 62
     7
370
     5
100
AcDbPolyline
 90
        4
 70
     1
 43
3.0
 10
-2160.58145715669
 20
1446.94514659615
 42
0.4142135623731
 10
-2162.081457156689
 20
1448.44514659615
 42
0.4142135623731
 10
-2163.581457156689
 20
1446.94514659615
 42
0.4142135623731
 10
-2162.081457156689
 20
1445.44514659615
 42
0.4142135623731
  0
LWPOLYLINE
  5
259
330
1F
100
AcDbEntity
  8
0-B_寸法
  6
Continuous
 62
     7
370
     5
100
AcDbPolyline
 90
        4
 70
     1
 43
3.0
 10
-1980.581457156686
 20
1446.94514659615
 42
0.4142135623731
 10
-1982.081457156686
 20
1448.44514659615
 42
0.4142135623731
 10
-1983.581457156686
 20
1446.94514659615
 42
0.4142135623731
 10
-1982.081457156686
 20
1445.44514659615
 42
0.4142135623731
  0
LINE
  5
25A
330
1F
100
AcDbEntity
  8
0-B_寸法
  6
Continuous
 62
   120
370
     5
100
AcDbLine
 10
-2162.081457156689
 20
1266.94514659615
 30
0.0
 11
-2162.081457156689
 21
1806.94514659615
 31
0.0
  0
LINE
  5
25B
330
1F
100
AcDbEntity
  8
0-B_寸法
  6
Continuous
 62
   120
370
     5
100
AcDbLine
 10
-1982.081457156686
 20
1446.94514659615
 30
0.0
 11
-1982.081457156686
 21
1806.94514659615
 31
0.0
  0
MTEXT
  5
25C
330
1F
100
AcDbEntity
  8
0-B_寸法
  6
Continuous
 62
     7
370
   211
100
AcDbMText
 10
-2117.081457156689
 20
1451.23514659615
 30
0.0
 40
68.58
 41
90.0
 46
0.0
 71
     7
 72
     1
  1
{\fＭＳ ゴシック|b0|i0|c128|p49;30}
 73
     1
 44
1.0
  0
LINE
  5
25D
330
1F
100
AcDbEntity
  8
0-B_寸法
  6
Continuous
 62
   120
370
     5
100
AcDbLine
 10
-1982.081457156686
 20
1446.94514659615
 30
0.0
 11
2001.918542843322
 21
1446.94514659615
 31
0.0
  0
LWPOLYLINE
  5
25E
330
1F
100
AcDbEntity
  8
0-B_寸法
  6
Continuous
 62
     7
370
     5
100
AcDbPolyline
 90
        4
 70
     1
 43
3.0
 10
2003.418542843322
 20
1446.94514659615
 42
0.4142135623731
 10
2001.918542843322
 20
1448.44514659615
 42
0.4142135623731
 10
2000.418542843322
 20
1446.94514659615
 42
0.4142135623731
 10
2001.918542843322
 20
1445.44514659615
 42
0.4142135623731
  0
LINE
  5
25F
330
1F
100
AcDbEntity
  8
0-B_寸法
  6
Continuous
 62
   120
370
     5
100
AcDbLine
 10
2001.918542843322
 20
1446.94514659615
 30
0.0
 11
2001.918542843322
 21
1806.94514659615
 31
0.0
  0
LINE
  5
260
330
1F
100
AcDbEntity
  8
0-B_寸法
  6
Continuous
 62
   120
370
     5
100
AcDbLine
 10
2001.918542843322
 20
1446.94514659615
 30
0.0
 11
2181.918542843309
 21
1446.94514659615
 31
0.0
  0
LWPOLYLINE
  5
261
330
1F
100
AcDbEntity
  8
0-B_寸法
  6
Continuous
 62
     7
370
     5
100
AcDbPolyline
 90
        4
 70
     1
 43
3.0
 10
2183.418542843309
 20
1446.94514659615
 42
0.4142135623731
 10
2181.918542843309
 20
1448.44514659615
 42
0.4142135623731
 10
2180.418542843309
 20
1446.94514659615
 42
0.4142135623731
 10
2181.918542843309
 20
1445.44514659615
 42
0.4142135623731
  0
LINE
  5
262
330
1F
100
AcDbEntity
  8
0-B_寸法
  6
Continuous
 62
   120
370
     5
100
AcDbLine
 10
2181.918542843309
 20
1266.94514659615
 30
0.0
 11
2181.918542843309
 21
1806.94514659615
 31
0.0
  0
MTEXT
  5
263
330
1F
100
AcDbEntity
  8
0-B_寸法
  6
Continuous
 62
     7
370
   211
100
AcDbMText
 10
2031.918542843316
 20
1447.66514659615
 30
0.0
 40
91.44
 41
120.0
 46
0.0
 71
     7
 72
     1
  1
{\fＭＳ ゴシック|b0|i0|c128|p49;30}
 73
     1
 44
1.0
  0
LINE
  5
264
330
1F
100
AcDbEntity
  8
0-B_寸法
  6
Continuous
 62
   120
370
     5
100
AcDbLine
 10
-2162.081457156689
 20
1266.94514659615
 30
0.0
 11
2181.918542843309
 21
1266.94514659615
 31
0.0
  0
LWPOLYLINE
  5
265
330
1F
100
AcDbEntity
  8
0-B_寸法
  6
Continuous
 62
     7
370
     5
100
AcDbPolyline
 90
        4
 70
     1
 43
3.0
 10
-2160.58145715669
 20
1266.94514659615
 42
0.4142135623731
 10
-2162.081457156689
 20
1268.44514659615
 42
0.4142135623731
 10
-2163.581457156689
 20
1266.94514659615
 42
0.4142135623731
 10
-2162.081457156689
 20
1265.44514659615
 42
0.4142135623731
  0
LWPOLYLINE
  5
266
330
1F
100
AcDbEntity
  8
0-B_寸法
  6
Continuous
 62
     7
370
     5
100
AcDbPolyline
 90
        4
 70
     1
 43
3.0
 10
2183.418542843309
 20
1266.94514659615
 42
0.4142135623731
 10
2181.918542843309
 20
1268.44514659615
 42
0.4142135623731
 10
2180.418542843309
 20
1266.94514659615
 42
0.4142135623731
 10
2181.918542843309
 20
1265.44514659615
 42
0.4142135623731
  0
MTEXT
  5
267
330
1F
100
AcDbEntity
  8
0-B_寸法
  6
Continuous
 62
     7
370
   211
100
AcDbMText
 10
-380.0814571566795
 20
3142.665146596151
 30
0.0
 40
91.43999999999997
 41
780.0
 46
0.0
 71
     7
 72
     1
  1
{\fＭＳ ゴシック|b0|i0|c128|p49;ＲＯＷ＝3,403}
 73
     1
 44
1.0
  0
MTEXT
  5
268
330
1F
100
AcDbEntity
  8
0-B_寸法
  6
Continuous
 62
     7
370
   211
100
AcDbMText
 10
-1959.956457156684
 20
1801.95014659615
 30
0.0
 40
80.00999999999995
 41
419.9999999999998
 46
0.0
 71
     7
 72
     1
  1
{\fＭＳ ゴシック|b0|i0|c128|p49;ＤＷ=416}
 73
     1
 44
1.0
  0
MTEXT
  5
269
330
1F
100
AcDbEntity
  8
0-B_寸法
  6
Continuous
 62
     7
370
   211
100
AcDbMText
 10
-1459.706457156685
 20
1801.95014659615
 30
0.0
 40
80.00999999999999
 41
420.0
 46
0.0
 71
     7
 72
     1
  1
{\fＭＳ ゴシック|b0|i0|c128|p49;ＤＷ=416}
 73
     1
 44
1.0
  0
MTEXT
  5
26A
330
1F
100
AcDbEntity
  8
0-B_寸法
  6
Continuous
 62
     7
370
   211
100
AcDbMText
 10
-953.4564571566866
 20
1801.950146596151
 30
0.0
 40
80.0100000000008
 41
420.0000000000043
 46
0.0
 71
     7
 72
     1
  1
{\fＭＳ ゴシック|b0|i0|c128|p49;ＤＷ=416}
 73
     1
 44
1.0
  0
MTEXT
  5
26B
330
1F
100
AcDbEntity
  8
0-B_寸法
  6
Continuous
 62
     7
370
   211
100
AcDbMText
 10
-453.2064571566821
 20
1801.95014659615
 30
0.0
 40
80.00999999999999
 41
420.0
 46
0.0
 71
     7
 72
     1
  1
{\fＭＳ ゴシック|b0|i0|c128|p49;ＤＷ=416}
 73
     1
 44
1.0
  0
MTEXT
  5
26C
330
1F
100
AcDbEntity
  8
0-B_寸法
  6
Continuous
 62
     7
370
   211
100
AcDbMText
 10
53.04354284331541
 20
1801.95014659615
 30
0.0
 40
80.00999999999999
 41
420.0
 46
0.0
 71
     7
 72
     1
  1
{\fＭＳ ゴシック|b0|i0|c128|p49;ＤＷ=416}
 73
     1
 44
1.0
  0
MTEXT
  5
26D
330
1F
100
AcDbEntity
  8
0-B_寸法
  6
Continuous
 62
     7
370
   211
100
AcDbMText
 10
553.29354284332
 20
1801.95014659615
 30
0.0
 40
80.00999999999999
 41
420.0
 46
0.0
 71
     7
 72
     1
  1
{\fＭＳ ゴシック|b0|i0|c128|p49;ＤＷ=416}
 73
     1
 44
1.0
  0
MTEXT
  5
26E
330
1F
100
AcDbEntity
  8
0-B_寸法
  6
Continuous
 62
     7
370
   211
100
AcDbMText
 10
1059.543542843315
 20
1801.95014659615
 30
0.0
 40
80.00999999999999
 41
420.0
 46
0.0
 71
     7
 72
     1
  1
{\fＭＳ ゴシック|b0|i0|c128|p49;ＤＷ=416}
 73
     1
 44
1.0
  0
MTEXT
  5
26F
330
1F
100
AcDbEntity
  8
0-B_寸法
  6
Continuous
 62
     7
370
   211
100
AcDbMText
 10
1559.79354284332
 20
1801.95014659615
 30
0.0
 40
80.00999999999995
 41
419.9999999999998
 46
0.0
 71
     7
 72
     1
  1
{\fＭＳ ゴシック|b0|i0|c128|p49;ＤＷ=416}
 73
     1
 44
1.0
  0
MTEXT
  5
270
330
1F
100
AcDbEntity
  8
0-B_寸法
  6
Continuous
 62
     7
370
   211
100
AcDbMText
 10
-1889.831457156685
 20
1627.66514659615
 30
0.0
 40
91.43999999999998
 41
780.0
 46
0.0
 71
     7
 72
     1
  1
{\fＭＳ ゴシック|b0|i0|c128|p49;折戸:ＤＷ=833}
 73
     1
 44
1.0
  0
MTEXT
  5
271
330
1F
100
AcDbEntity
  8
0-B_寸法
  6
Continuous
 62
     7
370
   211
100
AcDbMText
 10
-966.581457156685
 20
1627.66514659615
 30
0.0
 40
91.44
 41
60.0
 46
0.0
 71
     7
 72
     1
  1
{\fＭＳ ゴシック|b0|i0|c128|p49;2}
 73
     1
 44
1.0
  0
MTEXT
  5
272
330
1F
100
AcDbEntity
  8
0-B_寸法
  6
Continuous
 62
     7
370
   211
100
AcDbMText
 10
-883.3314571566839
 20
1627.66514659615
 30
0.0
 40
91.43999999999998
 41
780.0
 46
0.0
 71
     7
 72
     1
  1
{\fＭＳ ゴシック|b0|i0|c128|p49;折戸:ＤＷ=833}
 73
     1
 44
1.0
  0
MTEXT
  5
273
330
1F
100
AcDbEntity
  8
0-B_寸法
  6
Continuous
 62
     7
370
   211
100
AcDbMText
 10
39.91854284331538
 20
1627.66514659615
 30
0.0
 40
91.44
 41
60.0
 46
0.0
 71
     7
 72
     1
  1
{\fＭＳ ゴシック|b0|i0|c128|p49;2}
 73
     1
 44
1.0
  0
MTEXT
  5
274
330
1F
100
AcDbEntity
  8
0-B_寸法
  6
Continuous
 62
     7
370
   211
100
AcDbMText
 10
123.1685428433207
 20
1627.66514659615
 30
0.0
 40
91.43999999999998
 41
780.0
 46
0.0
 71
     7
 72
     1
  1
{\fＭＳ ゴシック|b0|i0|c128|p49;折戸:ＤＷ=833}
 73
     1
 44
1.0
  0
MTEXT
  5
275
330
1F
100
AcDbEntity
  8
0-B_寸法
  6
Continuous
 62
     7
370
   211
100
AcDbMText
 10
1046.41854284332
 20
1627.66514659615
 30
0.0
 40
91.44
 41
60.0
 46
0.0
 71
     7
 72
     1
  1
{\fＭＳ ゴシック|b0|i0|c128|p49;2}
 73
     1
 44
1.0
  0
MTEXT
  5
276
330
1F
100
AcDbEntity
  8
0-B_寸法
  6
Continuous
 62
     7
370
   211
100
AcDbMText
 10
1129.66854284332
 20
1627.66514659615
 30
0.0
 40
91.43999999999998
 41
780.0
 46
0.0
 71
     7
 72
     1
  1
{\fＭＳ ゴシック|b0|i0|c128|p49;折戸:ＤＷ=833}
 73
     1
 44
1.0
  0
MTEXT
  5
277
330
1F
100
AcDbEntity
  8
0-B_寸法
  6
Continuous
 62
     7
370
   211
100
AcDbMText
 10
-320.0814571566812
 20
1447.66514659615
 30
0.0
 40
91.43999999999997
 41
660.0
 46
0.0
 71
     7
 72
     1
  1
{\fＭＳ ゴシック|b0|i0|c128|p49;枠内＝3,333}
 73
     1
 44
1.0
  0
MTEXT
  5
278
330
1F
100
AcDbEntity
  8
0-B_寸法
  6
Continuous
 62
     7
370
   211
100
AcDbMText
 10
-320.0814571566914
 20
1267.66514659615
 30
0.0
 40
91.43999999999997
 41
660.0
 46
0.0
 71
     7
 72
     1
  1
{\fＭＳ ゴシック|b0|i0|c128|p49;枠外＝3,393}
 73
     1
 44
1.0
  0
MTEXT
  5
279
330
1F
100
AcDbEntity
  8
0-B_寸法
  6
Continuous
 62
     7
370
   211
100
AcDbMText
 10
-544.1830428641543
 20
2962.665146596151
 30
0.0
 40
91.43999999999998
 41
1140.0
 46
0.0
 71
     7
 72
     1
  1
{\fＭＳ ゴシック|b0|i0|c128|p49;有効開口寸法＝2,849}
 73
     1
 44
1.0
  0
MTEXT
  5
27A
330
1F
100
AcDbEntity
  8
0-A_文字
  6
Continuous
 62
     7
370
     5
100
AcDbMText
 10
-2762.081259204823
 20
3310.355192579559
 30
0.0
 40
100.584
 41
660.0
 46
0.0
 71
     7
 72
     1
  1
{\fＭＳ ゴシック|b0|i0|c128|p49;■横断面図}
 73
     1
 44
1.0
  0
MTEXT
  5
27B
330
1F
100
AcDbEntity
  8
F-A_文字
  6
Continuous
 62
     7
370
     0
100
AcDbMText
 10
3689.917643811962
 20
-3946.903115907308
 30
0.0
 40
76.19999999999999
 41
150.0
 46
0.0
 71
     7
 72
     1
  1
{\fＭＳ ゴシック|b0|i0|c128|p49;1/5}
 73
     1
 44
1.0
  0
MTEXT
  5
27C
330
1F
100
AcDbEntity
  8
0-A_文字
  6
Continuous
 62
     7
370
   211
100
AcDbMText
 10
-1022.045484219453
 20
2227.665146596151
 30
0.0
 40
91.44
 41
240.0
 46
0.0
 71
     7
 72
     1
  1
{\fＭＳ ゴシック|b0|i0|c128|p49;(24)}
 11
6.123031769111886E-17
 21
1.0
 31
0.0
 73
     1
 44
1.0
  0
MTEXT
  5
27D
330
1F
100
AcDbEntity
  8
0-A_文字
  6
Continuous
 62
     7
370
   211
100
AcDbMText
 10
-1878.582007211409
 20
-1322.485573924492
 30
0.0
 40
91.44
 41
240.0
 46
0.0
 71
     7
 72
     1
  1
{\fＭＳ ゴシック|b0|i0|c128|p49;(24)}
 73
     1
 44
1.0
  0
LINE
  5
27E
330
1F
100
AcDbEntity
  8
0-A_文字
  6
JWW_HOJO
 62
   120
370
     5
100
AcDbLine
 10
9.918542843317084
 20
1127.636821343813
 30
0.0
 11
2419.442352367127
 21
1127.636821343813
 31
0.0
  0
LINE
  5
27F
330
1F
100
AcDbEntity
  8
0-A_文字
  6
JWW_HOJO
 62
   120
370
     5
100
AcDbLine
 10
9.918542843317084
 20
1007.636821343813
 30
0.0
 11
2419.442352367127
 21
1007.636821343813
 31
0.0
  0
LINE
  5
280
330
1F
100
AcDbEntity
  8
0-A_文字
  6
JWW_HOJO
 62
   120
370
     5
100
AcDbLine
 10
9.918542843317084
 20
887.6368213438134
 30
0.0
 11
2419.442352367127
 21
887.6368213438134
 31
0.0
  0
MTEXT
  5
281
330
1F
100
AcDbEntity
  8
0-A_文字
  6
Continuous
 62
     7
370
     5
100
AcDbMText
 10
9.91854284331719
 20
1122.382048616541
 30
0.0
 40
79.49045454545455
 41
2295.0
 46
0.0
 71
     7
 72
     1
  1
{\fＭＳ ゴシック|b0|i0|c128|p49;※有効開口寸法にはハンドルの突出は含まない。}
 73
     1
 44
1.0
  0
MTEXT
  5
282
330
1F
100
AcDbEntity
  8
0-A_文字
  6
Continuous
 62
     7
370
     5
100
AcDbMText
 10
9.918542843317297
 20
1002.430154677147
 30
0.0
 40
79.58666666666667
 41
2820.0
 46
0.0
 71
     7
 72
     1
  1
{\fＭＳ ゴシック|b0|i0|c128|p49;※有効開口寸法は扉の厚さや調整によって若干異なります。}
 73
     1
 44
1.0
  0
MTEXT
  5
283
330
1F
100
AcDbEntity
  8
0-A_文字
  6
Continuous
 62
     7
370
     0
100
AcDbMText
 10
9.918542843317084
 20
876.9268213438133
 30
0.0
 40
68.58
 41
1350.0
 46
0.0
 71
     7
 72
     1
  1
{\fＭＳ ゴシック|b0|i0|c128|p49;※扉厚（　）内はルーバーの場合}
 73
     1
 44
1.0
  0
LINE
  5
284
330
1F
100
AcDbEntity
  8
0-A_文字
  6
JWW_HOJO
 62
   120
370
     5
100
AcDbLine
 10
-1756.95392203425
 20
-3532.597296002568
 30
0.0
 11
652.5698874895597
 21
-3532.597296002568
 31
0.0
  0
LINE
  5
285
330
1F
100
AcDbEntity
  8
0-A_文字
  6
JWW_HOJO
 62
   120
370
     5
100
AcDbLine
 10
-1756.95392203425
 20
-3652.597296002568
 30
0.0
 11
652.5698874895597
 21
-3652.597296002568
 31
0.0
  0
MTEXT
  5
286
330
1F
100
AcDbEntity
  8
0-A_文字
  6
Continuous
 62
     7
370
     0
100
AcDbMText
 10
-1756.95392203425
 20
-3663.307296002568
 30
0.0
 40
68.57999999999998
 41
1350.0
 46
0.0
 71
     7
 72
     1
  1
{\fＭＳ ゴシック|b0|i0|c128|p49;※扉厚（　）内はルーバーの場合}
 73
     1
 44
1.0
  0
MTEXT
  5
287
330
1F
100
AcDbEntity
  8
0-A_文字
  6
Continuous
 62
    92
370
     5
100
AcDbMText
 10
-5592.499495325863
 20
3758.977681455871
 30
0.0
 40
147.955
 41
3495.0
 46
0.0
 71
     7
 72
     1
  1
{\fＭＳ ゴシック|b0|i0|c128|p49;クローゼットドア　固定枠　間口１２尺}
 73
     1
 44
1.0
  0
LINE
  5
288
330
1F
100
AcDbEntity
  8
0-A_文字
  6
Continuous
 62
    92
370
     5
100
AcDbLine
 10
-5659.999495325866
 20
3730.000181455871
 30
0.0
 11
-2021.428571428571
 21
3730.000181455871
 31
0.0
  0
LINE
  5
289
330
1F
100
AcDbEntity
  8
0-A_文字
  6
Continuous
 62
    92
370
     5
100
AcDbLine
 10
-5659.999495325866
 20
4000.000181455871
 30
0.0
 11
-2021.428571428571
 21
4000.000181455871
 31
0.0
  0
LINE
  5
28A
330
1F
100
AcDbEntity
  8
0-A_文字
  6
Continuous
 62
    92
370
     5
100
AcDbLine
 10
-2021.428571428571
 20
3730.000181455871
 30
0.0
 11
-2021.428571428571
 21
4000.000181455871
 31
0.0
  0
MTEXT
  5
28B
330
1F
100
AcDbEntity
  8
F-A_文字
  6
Continuous
 62
     7
370
     0
100
AcDbMText
 10
-5080.081323642279
 20
-4045.064631200342
 30
0.0
 40
79.87060975609751
 41
4297.5
 46
0.0
 71
     7
 72
     1
  1
{\fＭＳ ゴシック|b0|i0|c128|p49;ドレタス　クローゼットドア  固定枠　３方枠＋床直付けレール　枠外H2,038　枠外W3,393}
 73
     1
 44
1.0
  0
LINE
  5
28C
330
1F
100
AcDbEntity
  8
0-0_補助線
  6
Continuous
 62
    92
370
     5
100
AcDbLine
 10
309.9185428433162
 20
-255.7024453444771
 30
0.0
 11
2295.587904513896
 21
-255.7024453444771
 31
0.0
  0
LINE
  5
28D
330
1F
100
AcDbEntity
  8
0-0_補助線
  6
Continuous
 62
    92
370
     5
100
AcDbLine
 10
309.9185428433162
 20
-471.7024453444776
 30
0.0
 11
2295.587904513896
 21
-471.7024453444776
 31
0.0
  0
LINE
  5
28E
330
1F
100
AcDbEntity
  8
0-A_文字
  6
Continuous
 62
    92
370
     5
100
AcDbLine
 10
2295.587904513896
 20
-3354.799890173381
 30
0.0
 11
2295.587904513896
 21
-255.7024453444771
 31
0.0
  0
LINE
  5
28F
330
1F
100
AcDbEntity
  8
0-0_補助線
  6
Continuous
 62
    92
370
     5
100
AcDbLine
 10
309.9185428433162
 20
-255.7024453444771
 30
0.0
 11
309.9185428433162
 21
-3354.799890173381
 31
0.0
  0
LINE
  5
290
330
1F
100
AcDbEntity
  8
0-0_補助線
  6
Continuous
 62
   120
370
     5
100
AcDbLine
 10
893.5686680480558
 20
-747.8223840681221
 30
0.0
 11
1743.569030959802
 21
-747.8223840681221
 31
0.0
  0
LWPOLYLINE
  5
291
330
1F
100
AcDbEntity
  8
0-0_補助線
  6
Continuous
 62
     7
370
     5
100
AcDbPolyline
 90
        4
 70
     1
 43
3.0
 10
895.0686680480558
 20
-747.8223840681221
 42
0.4142135623731
 10
893.5686680480558
 20
-746.3223840681221
 42
0.4142135623731
 10
892.0686680480558
 20
-747.8223840681221
 42
0.4142135623731
 10
893.5686680480558
 20
-749.3223840681221
 42
0.4142135623731
  0
LWPOLYLINE
  5
292
330
1F
100
AcDbEntity
  8
0-0_補助線
  6
Continuous
 62
     7
370
     5
100
AcDbPolyline
 90
        4
 70
     1
 43
3.0
 10
1745.069030959802
 20
-747.8223840681221
 42
0.4142135623731
 10
1743.569030959802
 20
-746.3223840681221
 42
0.4142135623731
 10
1742.069030959802
 20
-747.8223840681221
 42
0.4142135623731
 10
1743.569030959802
 20
-749.3223840681221
 42
0.4142135623731
  0
LINE
  5
293
330
1F
100
AcDbEntity
  8
0-0_補助線
  6
Continuous
 62
   120
370
     5
100
AcDbLine
 10
893.5686680480558
 20
-747.8223840681221
 30
0.0
 11
893.5686680480558
 21
-891.3644338681229
 31
0.0
  0
LINE
  5
294
330
1F
100
AcDbEntity
  8
0-0_補助線
  6
Continuous
 62
   120
370
     5
100
AcDbLine
 10
1743.569030959802
 20
-747.8223840681221
 30
0.0
 11
1743.569030959802
 21
-891.3644338681229
 31
0.0
  0
LINE
  5
295
330
1F
100
AcDbEntity
  8
0-0_補助線
  6
Continuous
 62
    92
370
     5
100
AcDbLine
 10
1743.569030959802
 20
-941.3644338681218
 30
0.0
 11
1743.569030959802
 21
-1816.655639416948
 31
0.0
  0
MTEXT
  5
296
330
1F
100
AcDbEntity
  8
0-0_補助線
  6
Continuous
 62
     7
370
   211
100
AcDbMText
 10
1258.568849503921
 20
-747.1023840681235
 30
0.0
 40
91.44000000000096
 41
120.0000000000013
 46
0.0
 71
     7
 72
     1
  1
{\fＭＳ ゴシック|b0|i0|c128|p49;85}
 73
     1
 44
1.0
  0
LINE
  5
297
330
1F
100
AcDbEntity
  8
0-0_補助線
  6
JWW_HOJO
 62
   120
370
     5
100
AcDbLine
 10
858.5683216322968
 20
-891.3644338681229
 30
0.0
 11
1786.54495381471
 21
-891.3644338681229
 31
0.0
  0
LINE
  5
298
330
1F
100
AcDbEntity
  8
0-0_補助線
  6
JWW_HOJO
 62
   120
370
     5
100
AcDbLine
 10
858.5683216322968
 20
-941.3644338681218
 30
0.0
 11
1786.54495381471
 21
-941.3644338681218
 31
0.0
  0
LINE
  5
299
330
1F
100
AcDbEntity
  8
0-0_補助線
  6
Continuous
 62
    92
370
     5
100
AcDbLine
 10
893.5686680480558
 20
-941.3644338681218
 30
0.0
 11
893.5686680480558
 21
-1816.655639416948
 31
0.0
  0
LINE
  5
29A
330
1F
100
AcDbEntity
  8
0-0_補助線
  6
Continuous
 62
    92
370
     5
100
AcDbLine
 10
893.5686680480558
 20
-1816.655639416948
 30
0.0
 11
1743.569030959802
 21
-1816.655639416948
 31
0.0
  0
LINE
  5
29B
330
1F
100
AcDbEntity
  8
0-0_補助線
  6
Continuous
 62
    92
370
     5
100
AcDbLine
 10
309.9185428433162
 20
-2263.685550874704
 30
0.0
 11
2295.587904513896
 21
-2263.685550874704
 31
0.0
  0
LINE
  5
29C
330
1F
100
AcDbEntity
  8
0-0_補助線
  6
Continuous
 62
    92
370
     5
100
AcDbLine
 10
309.9185428433162
 20
-2479.685550874706
 30
0.0
 11
2295.587904513896
 21
-2479.685550874706
 31
0.0
  0
MTEXT
  5
29D
330
1F
100
AcDbEntity
  8
0-0_補助線
  6
Continuous
 62
     7
370
     0
100
AcDbMText
 10
582.753223678604
 20
-441.7440683067354
 30
0.0
 40
91.44000000000021
 41
1440.000000000003
 46
0.0
 71
     7
 72
     1
  1
{\fＭＳ ゴシック|b0|i0|c128|p49;竪枠下端形状図（S＝1/3）}
 73
     1
 44
1.0
  0
LINE
  5
29E
330
1F
100
AcDbEntity
  8
0-0_補助線
  6
Continuous
 62
     7
370
     5
100
AcDbLine
 10
1020.247947521319
 20
-2941.075532396899
 30
0.0
 11
1131.247947521327
 21
-2941.075532396899
 31
0.0
  0
LINE
  5
29F
330
1F
100
AcDbEntity
  8
0-0_補助線
  6
Continuous
 62
     7
370
     5
100
AcDbLine
 10
1140.247947521325
 20
-2950.075532396898
 30
0.0
 11
1131.247947521327
 21
-2941.075532396899
 31
0.0
  0
LINE
  5
2A0
330
1F
100
AcDbEntity
  8
0-0_補助線
  6
Continuous
 62
     7
370
     5
100
AcDbLine
 10
1140.247947521325
 20
-2950.075532396898
 30
0.0
 11
1149.247947521324
 21
-2941.075532396899
 31
0.0
  0
LINE
  5
2A1
330
1F
100
AcDbEntity
  8
0-0_補助線
  6
Continuous
 62
     7
370
     5
100
AcDbLine
 10
1347.247947521325
 20
-2950.075532396898
 30
0.0
 11
1347.247947521325
 21
-2965.075532396898
 31
0.0
  0
LINE
  5
2A2
330
1F
100
AcDbEntity
  8
0-0_補助線
  6
Continuous
 62
     7
370
     5
100
AcDbLine
 10
1341.247947521317
 20
-2971.075532396897
 30
0.0
 11
1323.247947521319
 21
-2971.075532396897
 31
0.0
  0
LINE
  5
2A3
330
1F
100
AcDbEntity
  8
0-0_補助線
  6
Continuous
 62
     7
370
     5
100
AcDbLine
 10
1314.247947521321
 20
-2980.075532396896
 30
0.0
 11
1314.247947521321
 21
-3040.075532396898
 31
0.0
  0
LINE
  5
2A4
330
1F
100
AcDbEntity
  8
0-0_補助線
  6
Continuous
 62
     7
370
     5
100
AcDbLine
 10
1329.247947521321
 20
-3055.075532396898
 30
0.0
 11
1521.24794752132
 21
-3055.075532396905
 31
0.0
  0
LINE
  5
2A5
330
1F
100
AcDbEntity
  8
0-0_補助線
  6
Continuous
 62
     7
370
     5
100
AcDbLine
 10
1530.247947521319
 20
-3064.075532396903
 30
0.0
 11
1521.24794752132
 21
-3055.075532396905
 31
0.0
  0
LINE
  5
2A6
330
1F
100
AcDbEntity
  8
0-0_補助線
  6
Continuous
 62
     7
370
     5
100
AcDbLine
 10
1530.247947521319
 20
-3064.075532396903
 30
0.0
 11
1539.247947521321
 21
-3055.075532396905
 31
0.0
  0
LINE
  5
2A7
330
1F
100
AcDbEntity
  8
0-0_補助線
  6
Continuous
 62
     7
370
     5
100
AcDbLine
 10
1539.247947521321
 20
-3055.075532396905
 30
0.0
 11
1731.247947521289
 21
-3055.075532396898
 31
0.0
  0
LINE
  5
2A8
330
1F
100
AcDbEntity
  8
0-0_補助線
  6
Continuous
 62
     7
370
     5
100
AcDbLine
 10
1746.247947521293
 20
-2980.075532396896
 30
0.0
 11
1746.247947521293
 21
-3040.075532396898
 31
0.0
  0
LINE
  5
2A9
330
1F
100
AcDbEntity
  8
0-0_補助線
  6
Continuous
 62
     7
370
     5
100
AcDbLine
 10
1719.247947521317
 20
-2971.075532396897
 30
0.0
 11
1737.247947521294
 21
-2971.075532396897
 31
0.0
  0
LINE
  5
2AA
330
1F
100
AcDbEntity
  8
0-0_補助線
  6
Continuous
 62
     7
370
     5
100
AcDbLine
 10
1713.247947521319
 20
-2950.075532396891
 30
0.0
 11
1713.247947521319
 21
-2965.075532396891
 31
0.0
  0
LINE
  5
2AB
330
1F
100
AcDbEntity
  8
0-0_補助線
  6
Continuous
 62
     7
370
     5
100
AcDbLine
 10
1782.247947521294
 20
-3001.075532396904
 30
0.0
 11
1782.247947521291
 21
-3082.075532396898
 31
0.0
  0
LINE
  5
2AC
330
1F
100
AcDbEntity
  8
0-0_補助線
  6
Continuous
 62
     7
370
     5
100
AcDbLine
 10
1281.24794752132
 20
-2994.303454458259
 30
0.0
 11
1281.24794752132
 21
-3052.075532396901
 31
0.0
  0
LINE
  5
2AD
330
1F
100
AcDbEntity
  8
0-0_補助線
  6
Continuous
 62
     7
370
     5
100
AcDbLine
 10
1235.883986490647
 20
-3017.939493427587
 30
0.0
 11
1265.883986490637
 21
-2987.939493427587
 31
0.0
  0
LINE
  5
2AE
330
1F
100
AcDbEntity
  8
0-0_補助線
  6
Continuous
 62
     7
370
     5
100
AcDbLine
 10
1233.247947521326
 20
-3082.075532396898
 30
0.0
 11
1233.247947521326
 21
-3024.303454458264
 31
0.0
  0
LINE
  5
2AF
330
1F
100
AcDbEntity
  8
0-0_補助線
  6
Continuous
 62
     7
370
     5
100
AcDbLine
 10
1200.247947521322
 20
-3082.075532396898
 30
0.0
 11
1233.247947521326
 21
-3082.075532396898
 31
0.0
  0
LINE
  5
2B0
330
1F
100
AcDbEntity
  8
0-0_補助線
  6
Continuous
 62
     7
370
     5
100
AcDbLine
 10
1200.247947521322
 20
-3082.075532396898
 30
0.0
 11
1200.247947521322
 21
-3004.075532396907
 31
0.0
  0
LINE
  5
2B1
330
1F
100
AcDbEntity
  8
0-0_補助線
  6
Continuous
 62
     7
370
     5
100
AcDbLine
 10
1083.247947521326
 20
-3001.075532396904
 30
0.0
 11
1197.247947521325
 21
-3001.075532396904
 31
0.0
  0
LINE
  5
2B2
330
1F
100
AcDbEntity
  8
0-0_補助線
  6
Continuous
 62
     7
370
     5
100
AcDbLine
 10
1080.247947521325
 20
-3082.075532396898
 30
0.0
 11
1080.247947521325
 21
-3004.075532396907
 31
0.0
  0
LINE
  5
2B3
330
1F
100
AcDbEntity
  8
0-0_補助線
  6
Continuous
 62
     7
370
     5
100
AcDbLine
 10
1047.247947521321
 20
-3082.075532396898
 30
0.0
 11
1080.247947521325
 21
-3082.075532396898
 31
0.0
  0
LINE
  5
2B4
330
1F
100
AcDbEntity
  8
0-0_補助線
  6
Continuous
 62
     7
370
     5
100
AcDbLine
 10
1047.247947521321
 20
-3082.075532396898
 30
0.0
 11
1047.247947521321
 21
-3020.575532396907
 31
0.0
  0
LINE
  5
2B5
330
1F
100
AcDbEntity
  8
0-0_補助線
  6
Continuous
 62
     7
370
     5
100
AcDbLine
 10
1047.247947521321
 20
-3020.575532396907
 30
0.0
 11
1015.854549239109
 21
-2989.182134114699
 31
0.0
  0
LINE
  5
2B6
330
1F
100
AcDbEntity
  8
0-0_補助線
  6
Continuous
 62
     7
370
     5
100
AcDbLine
 10
990.2479475213255
 20
-3082.075532396898
 30
0.0
 11
990.2479475213187
 21
-2999.788735832499
 31
0.0
  0
LINE
  5
2B7
330
1F
100
AcDbEntity
  8
0-0_補助線
  6
Continuous
 62
     7
370
     5
100
AcDbLine
 10
960.2479475213229
 20
-3082.075532396898
 30
0.0
 11
990.2479475213255
 21
-3082.075532396898
 31
0.0
  0
LINE
  5
2B8
330
1F
100
AcDbEntity
  8
0-0_補助線
  6
Continuous
 62
     7
370
     5
100
AcDbLine
 10
960.2479475213229
 20
-3082.075532396898
 30
0.0
 11
960.2479475213187
 21
-3001.075532396899
 31
0.0
  0
LINE
  5
2B9
330
1F
100
AcDbEntity
  8
0-0_補助線
  6
Continuous
 62
     7
370
     5
100
AcDbLine
 10
1311.247947521324
 20
-3082.075532396898
 30
0.0
 11
1782.247947521291
 21
-3082.075532396898
 31
0.0
  0
LINE
  5
2BA
330
1F
100
AcDbEntity
  8
0-0_補助線
  6
Continuous
 62
     7
370
     5
100
AcDbLine
 10
1338.247947521319
 20
-2941.075532396897
 30
0.0
 11
1149.247947521324
 21
-2941.075532396897
 31
0.0
  0
ARC
  5
2BB
330
1F
100
AcDbEntity
  8
0-0_補助線
  6
Continuous
 62
     7
370
     5
100
AcDbCircle
 10
1338.247947521319
 20
-2950.075532396896
 30
0.0
 40
9.000000000002899
100
AcDbArc
 50
359.9999999999784
 51
90.00000000000004
  0
ARC
  5
2BC
330
1F
100
AcDbEntity
  8
0-0_補助線
  6
Continuous
 62
     7
370
     5
100
AcDbCircle
 10
1341.247947521317
 20
-2965.075532396896
 30
0.0
 40
6.000000000001368
100
AcDbArc
 50
270.0
 51
359.9999999999674
  0
ARC
  5
2BD
330
1F
100
AcDbEntity
  8
0-0_補助線
  6
Continuous
 62
     7
370
     5
100
AcDbCircle
 10
1323.247947521319
 20
-2980.075532396896
 30
0.0
 40
8.999999999998636
100
AcDbArc
 50
90.0
 51
180.0
  0
ARC
  5
2BE
330
1F
100
AcDbEntity
  8
0-0_補助線
  6
Continuous
 62
     7
370
     5
100
AcDbCircle
 10
1329.247947521321
 20
-3040.075532396898
 30
0.0
 40
15.0
100
AcDbArc
 50
180.0
 51
270.0
  0
ARC
  5
2BF
330
1F
100
AcDbEntity
  8
0-0_補助線
  6
Continuous
 62
     7
370
     5
100
AcDbCircle
 10
1731.247947521289
 20
-3040.075532396898
 30
0.0
 40
15.0
100
AcDbArc
 50
270.0
 51
0.0
  0
ARC
  5
2C0
330
1F
100
AcDbEntity
  8
0-0_補助線
  6
Continuous
 62
     7
370
     5
100
AcDbCircle
 10
1737.247947521294
 20
-2980.075532396896
 30
0.0
 40
9.000000000000343
100
AcDbArc
 50
0.0
 51
90.0
  0
ARC
  5
2C1
330
1F
100
AcDbEntity
  8
0-0_補助線
  6
Continuous
 62
     7
370
     5
100
AcDbCircle
 10
1719.247947521317
 20
-2965.075532396896
 30
0.0
 40
5.99999999999966
100
AcDbArc
 50
179.9999999999674
 51
270.0
  0
ARC
  5
2C2
330
1F
100
AcDbEntity
  8
0-0_補助線
  6
Continuous
 62
     7
370
     5
100
AcDbCircle
 10
1722.247947521321
 20
-2950.075532396891
 30
0.0
 40
8.999999999998636
100
AcDbArc
 50
89.99999999996201
 51
180.0
  0
ARC
  5
2C3
330
1F
100
AcDbEntity
  8
0-0_補助線
  6
Continuous
 62
     7
370
     5
100
AcDbCircle
 10
1722.247947521291
 20
-3001.075532396899
 30
0.0
 40
60.0
100
AcDbArc
 50
359.9999999999968
 51
89.9999999999682
  0
ARC
  5
2C4
330
1F
100
AcDbEntity
  8
0-0_補助線
  6
Continuous
 62
     7
370
     5
100
AcDbCircle
 10
1311.247947521324
 20
-3052.075532396901
 30
0.0
 40
30.0
100
AcDbArc
 50
180.0
 51
270.0
  0
ARC
  5
2C5
330
1F
100
AcDbEntity
  8
0-0_補助線
  6
Continuous
 62
     7
370
     5
100
AcDbCircle
 10
1272.247947521321
 20
-2994.303454458257
 30
0.0
 40
9.000000000000343
100
AcDbArc
 50
359.9999999999784
 51
135.0000000000384
  0
ARC
  5
2C6
330
1F
100
AcDbEntity
  8
0-0_補助線
  6
Continuous
 62
     7
370
     5
100
AcDbCircle
 10
1242.247947521328
 20
-3024.303454458264
 30
0.0
 40
8.999999999998023
100
AcDbArc
 50
135.0000000000057
 51
180.0000000000034
  0
ARC
  5
2C7
330
1F
100
AcDbEntity
  8
0-0_補助線
  6
Continuous
 62
     7
370
     5
100
AcDbCircle
 10
1197.247947521325
 20
-3004.075532396907
 30
0.0
 40
2.99999999999983
100
AcDbArc
 50
0.0
 51
90.0
  0
ARC
  5
2C8
330
1F
100
AcDbEntity
  8
0-0_補助線
  6
Continuous
 62
     7
370
     5
100
AcDbCircle
 10
1083.247947521326
 20
-3004.075532396907
 30
0.0
 40
3.000000000000682
100
AcDbArc
 50
90.0
 51
180.0
  0
ARC
  5
2C9
330
1F
100
AcDbEntity
  8
0-0_補助線
  6
Continuous
 62
     7
370
     5
100
AcDbCircle
 10
1005.247947521319
 20
-2999.788735832492
 30
0.0
 40
14.99999999999289
100
AcDbArc
 50
45.0
 51
180.0000000000261
  0
ARC
  5
2CA
330
1F
100
AcDbEntity
  8
0-0_補助線
  6
Continuous
 62
     7
370
     5
100
AcDbCircle
 10
1020.247947521319
 20
-3001.075532396899
 30
0.0
 40
60.0
100
AcDbArc
 50
90.0
 51
180.0
  0
LINE
  5
2CB
330
1F
100
AcDbEntity
  8
0-0_補助線
  6
Continuous
 62
   120
370
     5
100
AcDbLine
 10
960.2479475213229
 20
-2745.577335646689
 30
0.0
 11
1782.247947521291
 21
-2745.577335646689
 31
0.0
  0
LWPOLYLINE
  5
2CC
330
1F
100
AcDbEntity
  8
0-0_補助線
  6
Continuous
 62
     7
370
     5
100
AcDbPolyline
 90
        4
 70
     1
 43
3.0
 10
961.7479475213229
 20
-2745.577335646689
 42
0.4142135623731
 10
960.2479475213229
 20
-2744.077335646689
 42
0.4142135623731
 10
958.7479475213229
 20
-2745.577335646689
 42
0.4142135623731
 10
960.2479475213229
 20
-2747.077335646688
 42
0.4142135623731
  0
LWPOLYLINE
  5
2CD
330
1F
100
AcDbEntity
  8
0-0_補助線
  6
Continuous
 62
     7
370
     5
100
AcDbPolyline
 90
        4
 70
     1
 43
3.0
 10
1783.747947521291
 20
-2745.577335646689
 42
0.4142135623731
 10
1782.247947521291
 20
-2744.077335646689
 42
0.4142135623731
 10
1780.747947521291
 20
-2745.577335646689
 42
0.4142135623731
 10
1782.247947521291
 20
-2747.077335646688
 42
0.4142135623731
  0
LINE
  5
2CE
330
1F
100
AcDbEntity
  8
0-0_補助線
  6
Continuous
 62
   120
370
     5
100
AcDbLine
 10
960.2479475213229
 20
-2745.577335646689
 30
0.0
 11
960.2479475213229
 21
-2877.900549388609
 31
0.0
  0
LINE
  5
2CF
330
1F
100
AcDbEntity
  8
0-0_補助線
  6
Continuous
 62
   120
370
     5
100
AcDbLine
 10
1782.247947521291
 20
-2745.577335646689
 30
0.0
 11
1782.247947521291
 21
-2877.900549388609
 31
0.0
  0
MTEXT
  5
2D0
330
1F
100
AcDbEntity
  8
0-0_補助線
  6
Continuous
 62
     7
370
   211
100
AcDbMText
 10
1251.247947521305
 20
-2744.857335646686
 30
0.0
 40
91.44000000000055
 41
240.0000000000015
 46
0.0
 71
     7
 72
     1
  1
{\fＭＳ ゴシック|b0|i0|c128|p49;27.4}
 73
     1
 44
1.0
  0
LINE
  5
2D1
330
1F
100
AcDbEntity
  8
0-0_補助線
  6
Continuous
 62
   120
370
     5
100
AcDbLine
 10
772.5990467681896
 20
-2941.075532396899
 30
0.0
 11
772.5990467681896
 21
-3082.075532396898
 31
0.0
  0
LWPOLYLINE
  5
2D2
330
1F
100
AcDbEntity
  8
0-0_補助線
  6
Continuous
 62
     7
370
     5
100
AcDbPolyline
 90
        4
 70
     1
 43
3.0
 10
774.0990467681896
 20
-2941.075532396899
 42
0.4142135623731
 10
772.5990467681896
 20
-2939.575532396899
 42
0.4142135623731
 10
771.0990467681896
 20
-2941.075532396899
 42
0.4142135623731
 10
772.5990467681896
 20
-2942.575532396899
 42
0.4142135623731
  0
LWPOLYLINE
  5
2D3
330
1F
100
AcDbEntity
  8
0-0_補助線
  6
Continuous
 62
     7
370
     5
100
AcDbPolyline
 90
        4
 70
     1
 43
3.0
 10
774.0990467681896
 20
-3082.075532396898
 42
0.4142135623731
 10
772.5990467681896
 20
-3080.575532396898
 42
0.4142135623731
 10
771.0990467681896
 20
-3082.075532396898
 42
0.4142135623731
 10
772.5990467681896
 20
-3083.575532396898
 42
0.4142135623731
  0
LINE
  5
2D4
330
1F
100
AcDbEntity
  8
0-0_補助線
  6
Continuous
 62
   120
370
     5
100
AcDbLine
 10
772.5990467681896
 20
-2941.075532396899
 30
0.0
 11
900.3593910707337
 21
-2941.075532396899
 31
0.0
  0
LINE
  5
2D5
330
1F
100
AcDbEntity
  8
0-0_補助線
  6
Continuous
 62
   120
370
     5
100
AcDbLine
 10
772.5990467681896
 20
-3082.075532396898
 30
0.0
 11
900.3593910707337
 21
-3082.075532396898
 31
0.0
  0
MTEXT
  5
2D6
330
1F
100
AcDbEntity
  8
0-0_補助線
  6
Continuous
 62
     7
370
   211
100
AcDbMText
 10
757.5990467681904
 20
-3065.32209990607
 30
0.0
 40
91.44000000000455
 41
60.00000000000298
 46
0.0
 71
     7
 72
     1
  1
{\fＭＳ ゴシック|b0|i0|c128|p49;5}
 11
6.123031769111886E-17
 21
1.0
 31
0.0
 73
     1
 44
1.0
  0
MTEXT
  5
2D7
330
1F
100
AcDbEntity
  8
0-0_補助線
  6
Continuous
 62
     7
370
     0
100
AcDbMText
 10
706.0328324001279
 20
-2449.727173836962
 30
0.0
 40
91.43999999999998
 41
1200.0
 46
0.0
 71
     7
 72
     1
  1
{\fＭＳ ゴシック|b0|i0|c128|p49;下枠詳細図（S＝1/1）}
 73
     1
 44
1.0
  0
LINE
  5
2D8
330
1F
100
AcDbEntity
  8
1-3_仕上げ
  6
Continuous
 62
    40
370
     5
100
AcDbLine
 10
4658.087904513899
 20
-2668.275347330061
 30
0.0
 11
2573.087904513895
 21
-2668.275347330061
 31
0.0
  0
LINE
  5
2D9
330
1F
100
AcDbEntity
  8
1-3_仕上げ
  6
Continuous
 62
    40
370
     5
100
AcDbLine
 10
2573.087904513895
 20
-2848.275291656107
 30
0.0
 11
4658.087904513899
 21
-2848.275291656107
 31
0.0
  0
LINE
  5
2DA
330
1F
100
AcDbEntity
  8
1-3_仕上げ
  6
Continuous
 62
     7
370
     5
100
AcDbLine
 10
2573.087904513895
 20
-2788.275000914309
 30
0.0
 11
4658.087904513899
 21
-2788.275000914309
 31
0.0
  0
LINE
  5
2DB
330
1F
100
AcDbEntity
  8
1-3_仕上げ
  6
Continuous
 62
     7
370
     5
100
AcDbLine
 10
2573.087904513895
 20
-2758.275087518247
 30
0.0
 11
4658.087904513899
 21
-2758.275087518247
 31
0.0
  0
LINE
  5
2DC
330
1F
100
AcDbEntity
  8
1-3_仕上げ
  6
Continuous
 62
     7
370
     5
100
AcDbLine
 10
2573.087904513895
 20
-2818.275378260046
 30
0.0
 11
4658.087904513899
 21
-2818.275378260046
 31
0.0
  0
LINE
  5
2DD
330
1F
100
AcDbEntity
  8
1-3_仕上げ
  6
Continuous
 62
     7
370
     5
100
AcDbLine
 10
2573.087904513895
 20
-2728.275174122186
 30
0.0
 11
4658.087904513899
 21
-2728.275174122186
 31
0.0
  0
LINE
  5
2DE
330
1F
100
AcDbEntity
  8
1-3_仕上げ
  6
Continuous
 62
     7
370
     5
100
AcDbLine
 10
2573.087904513895
 20
-2698.274796776455
 30
0.0
 11
4658.087904513899
 21
-2698.274796776455
 31
0.0
  0
LWPOLYLINE
  5
2DF
330
1F
100
AcDbEntity
  8
1-B_寸法
  6
Continuous
 62
     7
370
     5
100
AcDbPolyline
 90
        4
 70
     1
 43
3.0
 10
4100.561231879203
 20
-1128.448424167419
 42
0.4142135623731
 10
4099.061231879203
 20
-1126.948424167419
 42
0.4142135623731
 10
4097.561231879203
 20
-1128.448424167419
 42
0.4142135623731
 10
4099.061231879203
 20
-1129.948424167419
 42
0.4142135623731
  0
LWPOLYLINE
  5
2E0
330
1F
100
AcDbEntity
  8
1-B_寸法
  6
Continuous
 62
     7
370
     5
100
AcDbPolyline
 90
        4
 70
     1
 43
3.0
 10
2825.561231879202
 20
-1128.448424167419
 42
0.4142135623731
 10
2824.061231879202
 20
-1126.948424167419
 42
0.4142135623731
 10
2822.561231879203
 20
-1128.448424167419
 42
0.4142135623731
 10
2824.061231879202
 20
-1129.948424167419
 42
0.4142135623731
  0
LINE
  5
2E1
330
1F
100
AcDbEntity
  8
1-B_寸法
  6
Continuous
 62
   120
370
     5
100
AcDbLine
 10
2824.061231879202
 20
-1128.448424167419
 30
0.0
 11
4099.061231879203
 21
-1128.448424167419
 31
0.0
  0
LINE
  5
2E2
330
1F
100
AcDbEntity
  8
1-4_枠
  6
Continuous
 62
     7
370
     5
100
AcDbLine
 10
3206.561231879202
 20
-2597.775347330062
 30
0.0
 11
3262.061231879206
 21
-2597.775347330062
 31
0.0
  0
LINE
  5
2E3
330
1F
100
AcDbEntity
  8
1-4_枠
  6
Continuous
 62
     7
370
     5
100
AcDbLine
 10
3266.561231879206
 20
-2602.275347330061
 30
0.0
 11
3262.061231879206
 21
-2597.775347330062
 31
0.0
  0
LINE
  5
2E4
330
1F
100
AcDbEntity
  8
1-4_枠
  6
Continuous
 62
     7
370
     5
100
AcDbLine
 10
3266.561231879206
 20
-2602.275347330061
 30
0.0
 11
3271.061231879205
 21
-2597.775347330062
 31
0.0
  0
ARC
  5
2E5
330
1F
100
AcDbEntity
  8
1-4_枠
  6
Continuous
 62
     7
370
     5
100
AcDbCircle
 10
3365.561231879203
 20
-2602.27534733006
 30
0.0
 40
4.500000000001449
100
AcDbArc
 50
359.9999999999784
 51
90.00000000000004
  0
LINE
  5
2E6
330
1F
100
AcDbEntity
  8
1-4_枠
  6
Continuous
 62
     7
370
     5
100
AcDbLine
 10
3370.061231879206
 20
-2602.275347330061
 30
0.0
 11
3370.061231879206
 21
-2609.775347330061
 31
0.0
  0
ARC
  5
2E7
330
1F
100
AcDbEntity
  8
1-4_枠
  6
Continuous
 62
     7
370
     5
100
AcDbCircle
 10
3367.061231879202
 20
-2609.77534733006
 30
0.0
 40
3.000000000000683
100
AcDbArc
 50
270.0
 51
359.9999999999674
  0
LINE
  5
2E8
330
1F
100
AcDbEntity
  8
1-4_枠
  6
Continuous
 62
     7
370
     5
100
AcDbLine
 10
3367.061231879202
 20
-2612.77534733006
 30
0.0
 11
3358.061231879203
 21
-2612.77534733006
 31
0.0
  0
ARC
  5
2E9
330
1F
100
AcDbEntity
  8
1-4_枠
  6
Continuous
 62
     7
370
     5
100
AcDbCircle
 10
3358.061231879203
 20
-2617.27534733006
 30
0.0
 40
4.499999999999318
100
AcDbArc
 50
90.0
 51
180.0
  0
LINE
  5
2EA
330
1F
100
AcDbEntity
  8
1-4_枠
  6
Continuous
 62
     7
370
     5
100
AcDbLine
 10
3353.561231879204
 20
-2617.27534733006
 30
0.0
 11
3353.561231879204
 21
-2647.275347330061
 31
0.0
  0
ARC
  5
2EB
330
1F
100
AcDbEntity
  8
1-4_枠
  6
Continuous
 62
     7
370
     5
100
AcDbCircle
 10
3361.061231879204
 20
-2647.275347330061
 30
0.0
 40
7.5
100
AcDbArc
 50
180.0
 51
270.0
  0
LINE
  5
2EC
330
1F
100
AcDbEntity
  8
1-4_枠
  6
Continuous
 62
     7
370
     5
100
AcDbLine
 10
3361.061231879204
 20
-2654.775347330061
 30
0.0
 11
3457.061231879204
 21
-2654.775347330065
 31
0.0
  0
LINE
  5
2ED
330
1F
100
AcDbEntity
  8
1-4_枠
  6
Continuous
 62
     7
370
     5
100
AcDbLine
 10
3461.561231879203
 20
-2659.275347330064
 30
0.0
 11
3457.061231879204
 21
-2654.775347330065
 31
0.0
  0
LINE
  5
2EE
330
1F
100
AcDbEntity
  8
1-4_枠
  6
Continuous
 62
     7
370
     5
100
AcDbLine
 10
3461.561231879203
 20
-2659.275347330064
 30
0.0
 11
3466.061231879204
 21
-2654.775347330065
 31
0.0
  0
LINE
  5
2EF
330
1F
100
AcDbEntity
  8
1-4_枠
  6
Continuous
 62
     7
370
     5
100
AcDbLine
 10
3466.061231879204
 20
-2654.775347330065
 30
0.0
 11
3562.061231879188
 21
-2654.775347330061
 31
0.0
  0
ARC
  5
2F0
330
1F
100
AcDbEntity
  8
1-4_枠
  6
Continuous
 62
     7
370
     5
100
AcDbCircle
 10
3562.061231879188
 20
-2647.275347330061
 30
0.0
 40
7.5
100
AcDbArc
 50
270.0
 51
0.0
  0
LINE
  5
2F1
330
1F
100
AcDbEntity
  8
1-4_枠
  6
Continuous
 62
     7
370
     5
100
AcDbLine
 10
3569.56123187919
 20
-2617.27534733006
 30
0.0
 11
3569.56123187919
 21
-2647.275347330061
 31
0.0
  0
ARC
  5
2F2
330
1F
100
AcDbEntity
  8
1-4_枠
  6
Continuous
 62
     7
370
     5
100
AcDbCircle
 10
3565.06123187919
 20
-2617.27534733006
 30
0.0
 40
4.500000000000171
100
AcDbArc
 50
0.0
 51
90.0
  0
LINE
  5
2F3
330
1F
100
AcDbEntity
  8
1-4_枠
  6
Continuous
 62
     7
370
     5
100
AcDbLine
 10
3556.061231879202
 20
-2612.77534733006
 30
0.0
 11
3565.06123187919
 21
-2612.77534733006
 31
0.0
  0
ARC
  5
2F4
330
1F
100
AcDbEntity
  8
1-4_枠
  6
Continuous
 62
     7
370
     5
100
AcDbCircle
 10
3556.061231879202
 20
-2609.77534733006
 30
0.0
 40
2.99999999999983
100
AcDbArc
 50
179.9999999999674
 51
270.0
  0
LINE
  5
2F5
330
1F
100
AcDbEntity
  8
1-4_枠
  6
Continuous
 62
     7
370
     5
100
AcDbLine
 10
3553.061231879203
 20
-2602.275347330058
 30
0.0
 11
3553.061231879203
 21
-2609.775347330058
 31
0.0
  0
ARC
  5
2F6
330
1F
100
AcDbEntity
  8
1-4_枠
  6
Continuous
 62
     7
370
     5
100
AcDbCircle
 10
3557.561231879204
 20
-2602.275347330058
 30
0.0
 40
4.499999999999318
100
AcDbArc
 50
89.99999999996201
 51
180.0
  0
ARC
  5
2F7
330
1F
100
AcDbEntity
  8
1-4_枠
  6
Continuous
 62
     7
370
     5
100
AcDbCircle
 10
3557.561231879189
 20
-2627.775347330062
 30
0.0
 40
30.0
100
AcDbArc
 50
359.9999999999968
 51
89.9999999999682
  0
LINE
  5
2F8
330
1F
100
AcDbEntity
  8
1-4_枠
  6
Continuous
 62
     7
370
     5
100
AcDbLine
 10
3587.56123187919
 20
-2627.775347330064
 30
0.0
 11
3587.561231879189
 21
-2668.275347330061
 31
0.0
  0
ARC
  5
2F9
330
1F
100
AcDbEntity
  8
1-4_枠
  6
Continuous
 62
     7
370
     5
100
AcDbCircle
 10
3352.061231879205
 20
-2653.275347330063
 30
0.0
 40
15.0
100
AcDbArc
 50
180.0
 51
270.0
  0
LINE
  5
2FA
330
1F
100
AcDbEntity
  8
1-4_枠
  6
Continuous
 62
     7
370
     5
100
AcDbLine
 10
3337.061231879204
 20
-2624.389308360742
 30
0.0
 11
3337.061231879204
 21
-2653.275347330063
 31
0.0
  0
ARC
  5
2FB
330
1F
100
AcDbEntity
  8
1-4_枠
  6
Continuous
 62
     7
370
     5
100
AcDbCircle
 10
3332.561231879204
 20
-2624.38930836074
 30
0.0
 40
4.500000000000171
100
AcDbArc
 50
359.9999999999784
 51
135.0000000000384
  0
LINE
  5
2FC
330
1F
100
AcDbEntity
  8
1-4_枠
  6
Continuous
 62
     7
370
     5
100
AcDbLine
 10
3314.379251363866
 20
-2636.207327845405
 30
0.0
 11
3329.379251363862
 21
-2621.207327845405
 31
0.0
  0
ARC
  5
2FD
330
1F
100
AcDbEntity
  8
1-4_枠
  6
Continuous
 62
     7
370
     5
100
AcDbCircle
 10
3317.561231879207
 20
-2639.389308360744
 30
0.0
 40
4.499999999999011
100
AcDbArc
 50
135.0000000000057
 51
180.0000000000034
  0
LINE
  5
2FE
330
1F
100
AcDbEntity
  8
1-4_枠
  6
Continuous
 62
     7
370
     5
100
AcDbLine
 10
3313.061231879206
 20
-2668.275347330061
 30
0.0
 11
3313.061231879206
 21
-2639.389308360745
 31
0.0
  0
LINE
  5
2FF
330
1F
100
AcDbEntity
  8
1-4_枠
  6
Continuous
 62
     7
370
     5
100
AcDbLine
 10
3296.561231879204
 20
-2668.275347330061
 30
0.0
 11
3313.061231879206
 21
-2668.275347330061
 31
0.0
  0
LINE
  5
300
330
1F
100
AcDbEntity
  8
1-4_枠
  6
Continuous
 62
     7
370
     5
100
AcDbLine
 10
3296.561231879204
 20
-2668.275347330061
 30
0.0
 11
3296.561231879204
 21
-2629.275347330065
 31
0.0
  0
ARC
  5
301
330
1F
100
AcDbEntity
  8
1-4_枠
  6
Continuous
 62
     7
370
     5
100
AcDbCircle
 10
3295.061231879205
 20
-2629.275347330065
 30
0.0
 40
1.499999999999915
100
AcDbArc
 50
0.0
 51
90.0
  0
LINE
  5
302
330
1F
100
AcDbEntity
  8
1-4_枠
  6
Continuous
 62
     7
370
     5
100
AcDbLine
 10
3238.061231879206
 20
-2627.775347330064
 30
0.0
 11
3295.061231879205
 21
-2627.775347330064
 31
0.0
  0
ARC
  5
303
330
1F
100
AcDbEntity
  8
1-4_枠
  6
Continuous
 62
     7
370
     5
100
AcDbCircle
 10
3238.061231879206
 20
-2629.275347330065
 30
0.0
 40
1.500000000000341
100
AcDbArc
 50
90.0
 51
180.0
  0
LINE
  5
304
330
1F
100
AcDbEntity
  8
1-4_枠
  6
Continuous
 62
     7
370
     5
100
AcDbLine
 10
3236.561231879206
 20
-2668.275347330061
 30
0.0
 11
3236.561231879206
 21
-2629.275347330065
 31
0.0
  0
LINE
  5
305
330
1F
100
AcDbEntity
  8
1-4_枠
  6
Continuous
 62
     7
370
     5
100
AcDbLine
 10
3220.061231879204
 20
-2668.275347330061
 30
0.0
 11
3236.561231879206
 21
-2668.275347330061
 31
0.0
  0
LINE
  5
306
330
1F
100
AcDbEntity
  8
1-4_枠
  6
Continuous
 62
     7
370
     5
100
AcDbLine
 10
3220.061231879204
 20
-2668.275347330061
 30
0.0
 11
3220.061231879204
 21
-2637.525347330066
 31
0.0
  0
LINE
  5
307
330
1F
100
AcDbEntity
  8
1-4_枠
  6
Continuous
 62
     7
370
     5
100
AcDbLine
 10
3220.061231879204
 20
-2637.525347330066
 30
0.0
 11
3204.364532738097
 21
-2621.828648188962
 31
0.0
  0
ARC
  5
308
330
1F
100
AcDbEntity
  8
1-4_枠
  6
Continuous
 62
     7
370
     5
100
AcDbCircle
 10
3199.061231879202
 20
-2627.131949047859
 30
0.0
 40
7.499999999996444
100
AcDbArc
 50
45.0
 51
180.0000000000261
  0
LINE
  5
309
330
1F
100
AcDbEntity
  8
1-4_枠
  6
Continuous
 62
     7
370
     5
100
AcDbLine
 10
3191.561231879206
 20
-2668.275347330061
 30
0.0
 11
3191.561231879202
 21
-2627.131949047862
 31
0.0
  0
LINE
  5
30A
330
1F
100
AcDbEntity
  8
1-4_枠
  6
Continuous
 62
     7
370
     5
100
AcDbLine
 10
3176.561231879204
 20
-2668.275347330061
 30
0.0
 11
3191.561231879206
 21
-2668.275347330061
 31
0.0
  0
LINE
  5
30B
330
1F
100
AcDbEntity
  8
1-4_枠
  6
Continuous
 62
     7
370
     5
100
AcDbLine
 10
3176.561231879204
 20
-2668.275347330061
 30
0.0
 11
3176.561231879202
 21
-2627.775347330062
 31
0.0
  0
ARC
  5
30C
330
1F
100
AcDbEntity
  8
1-4_枠
  6
Continuous
 62
     7
370
     5
100
AcDbCircle
 10
3206.561231879202
 20
-2627.775347330062
 30
0.0
 40
30.0
100
AcDbArc
 50
90.0
 51
180.0
  0
LINE
  5
30D
330
1F
100
AcDbEntity
  8
1-4_枠
  6
Continuous
 62
     7
370
     5
100
AcDbLine
 10
3352.061231879205
 20
-2668.275347330061
 30
0.0
 11
3587.561231879189
 21
-2668.275347330061
 31
0.0
  0
LINE
  5
30E
330
1F
100
AcDbEntity
  8
1-4_枠
  6
Continuous
 62
     7
370
     5
100
AcDbLine
 10
3365.561231879203
 20
-2597.77534733006
 30
0.0
 11
3271.061231879205
 21
-2597.77534733006
 31
0.0
  0
LINE
  5
30F
330
1F
100
AcDbEntity
  8
1-4_枠
  6
Continuous
 62
    92
370
     5
100
AcDbLine
 10
2824.061231879202
 20
-2668.274419430725
 30
0.0
 11
2824.061231879202
 21
-848.772366184064
 31
0.0
  0
LINE
  5
310
330
1F
100
AcDbEntity
  8
1-4_枠
  6
Continuous
 62
    92
370
     5
100
AcDbLine
 10
4099.061231879203
 20
-2668.274419430725
 30
0.0
 11
4099.061231879203
 21
-848.772366184064
 31
0.0
  0
LINE
  5
311
330
1F
100
AcDbEntity
  8
1-1_通り芯
  6
JWW_CENTER1
 62
   120
370
     5
100
AcDbLine
 10
3461.56123187922
 20
-2988.507737626848
 30
0.0
 11
3461.56123187922
 21
-848.772366184064
 31
0.0
  0
LINE
  5
312
330
1F
100
AcDbEntity
  8
1-A_文字
  6
Continuous
 62
     7
370
     5
100
AcDbLine
 10
4269.547208916367
 20
-1674.935623514404
 30
0.0
 11
4765.101927476735
 21
-1674.935623514404
 31
0.0
  0
LINE
  5
313
330
1F
100
AcDbEntity
  8
1-A_文字
  6
Continuous
 62
     7
370
     5
100
AcDbLine
 10
4765.101927476735
 20
-1674.935623514404
 30
0.0
 11
4765.101927476735
 21
-1869.215598404549
 31
0.0
  0
LINE
  5
314
330
1F
100
AcDbEntity
  8
1-A_文字
  6
Continuous
 62
     7
370
     5
100
AcDbLine
 10
4765.101927476735
 20
-1869.215598404549
 30
0.0
 11
4269.547208916367
 21
-1869.215598404549
 31
0.0
  0
LINE
  5
315
330
1F
100
AcDbEntity
  8
1-A_文字
  6
Continuous
 62
     7
370
     5
100
AcDbLine
 10
4269.547208916367
 20
-1869.215598404549
 30
0.0
 11
4269.547208916367
 21
-1674.935623514404
 31
0.0
  0
LINE
  5
316
330
1F
100
AcDbEntity
  8
1-B_寸法
  6
Continuous
 62
   120
370
     5
100
AcDbLine
 10
3176.561231879204
 20
-2402.77534733006
 30
0.0
 11
3587.561231879189
 21
-2402.77534733006
 31
0.0
  0
LWPOLYLINE
  5
317
330
1F
100
AcDbEntity
  8
1-B_寸法
  6
Continuous
 62
     7
370
     5
100
AcDbPolyline
 90
        4
 70
     1
 43
3.0
 10
3178.061231879204
 20
-2402.77534733006
 42
0.4142135623731
 10
3176.561231879204
 20
-2401.27534733006
 42
0.4142135623731
 10
3175.061231879204
 20
-2402.77534733006
 42
0.4142135623731
 10
3176.561231879204
 20
-2404.27534733006
 42
0.4142135623731
  0
LWPOLYLINE
  5
318
330
1F
100
AcDbEntity
  8
1-B_寸法
  6
Continuous
 62
     7
370
     5
100
AcDbPolyline
 90
        4
 70
     1
 43
3.0
 10
3589.061231879189
 20
-2402.77534733006
 42
0.4142135623731
 10
3587.561231879189
 20
-2401.27534733006
 42
0.4142135623731
 10
3586.061231879189
 20
-2402.77534733006
 42
0.4142135623731
 10
3587.561231879189
 20
-2404.27534733006
 42
0.4142135623731
  0
LINE
  5
319
330
1F
100
AcDbEntity
  8
1-B_寸法
  6
Continuous
 62
   120
370
     5
100
AcDbLine
 10
3176.561231879204
 20
-2402.77534733006
 30
0.0
 11
3176.561231879204
 21
-2552.77534733006
 31
0.0
  0
LINE
  5
31A
330
1F
100
AcDbEntity
  8
1-B_寸法
  6
Continuous
 62
   120
370
     5
100
AcDbLine
 10
3587.561231879189
 20
-2402.77534733006
 30
0.0
 11
3587.561231879189
 21
-2552.77534733006
 31
0.0
  0
MTEXT
  5
31B
330
1F
100
AcDbEntity
  8
1-A_文字
  6
Continuous
 62
     7
370
     5
100
AcDbMText
 10
4277.324568196551
 20
-1645.045085744996
 30
0.0
 40
91.44
 41
480.0
 46
0.0
 71
     7
 72
     1
  1
{\fＭＳ ゴシック|b0|i0|c128|p49;竪枠前面}
 73
     1
 44
1.0
  0
LINE
  5
31C
330
1F
100
AcDbEntity
  8
1-B_寸法
  6
Continuous
 62
   120
370
     5
100
AcDbLine
 10
3587.561231879189
 20
-2402.77534733006
 30
0.0
 11
4099.061231879203
 21
-2402.77534733006
 31
0.0
  0
LWPOLYLINE
  5
31D
330
1F
100
AcDbEntity
  8
1-B_寸法
  6
Continuous
 62
     7
370
     5
100
AcDbPolyline
 90
        4
 70
     1
 43
3.0
 10
4100.561231879203
 20
-2402.77534733006
 42
0.4142135623731
 10
4099.061231879203
 20
-2401.27534733006
 42
0.4142135623731
 10
4097.561231879203
 20
-2402.77534733006
 42
0.4142135623731
 10
4099.061231879203
 20
-2404.27534733006
 42
0.4142135623731
  0
LINE
  5
31E
330
1F
100
AcDbEntity
  8
1-B_寸法
  6
Continuous
 62
   120
370
     5
100
AcDbLine
 10
4099.061231879203
 20
-2402.77534733006
 30
0.0
 11
4099.061231879203
 21
-2552.77534733006
 31
0.0
  0
MTEXT
  5
31F
330
1F
100
AcDbEntity
  8
1-A_文字
  6
Continuous
 62
     7
370
     5
100
AcDbMText
 10
4337.324568196551
 20
-1846.355610959477
 30
0.0
 40
91.44
 41
360.0
 46
0.0
 71
     7
 72
     1
  1
{\fＭＳ ゴシック|b0|i0|c128|p49;室内側}
 73
     1
 44
1.0
  0
MTEXT
  5
320
330
1F
100
AcDbEntity
  8
1-B_寸法
  6
Continuous
 62
     7
370
   211
100
AcDbMText
 10
3401.561231879203
 20
-1127.728424167419
 30
0.0
 40
91.44
 41
120.0
 46
0.0
 71
     7
 72
     1
  1
{\fＭＳ ゴシック|b0|i0|c128|p49;85}
 73
     1
 44
1.0
  0
MTEXT
  5
321
330
1F
100
AcDbEntity
  8
1-B_寸法
  6
Continuous
 62
     7
370
   211
100
AcDbMText
 10
3262.061231879197
 20
-2402.05534733006
 30
0.0
 40
91.44
 41
240.0
 46
0.0
 71
     7
 72
     1
  1
{\fＭＳ ゴシック|b0|i0|c128|p49;27.4}
 73
     1
 44
1.0
  0
MTEXT
  5
322
330
1F
100
AcDbEntity
  8
1-B_寸法
  6
Continuous
 62
     7
370
   211
100
AcDbMText
 10
3783.311231879195
 20
-2402.05534733006
 30
0.0
 40
91.44
 41
120.0
 46
0.0
 71
     7
 72
     1
  1
{\fＭＳ ゴシック|b0|i0|c128|p49;34}
 73
     1
 44
1.0
  0
LINE
  5
323
330
1F
100
AcDbEntity
  8
1-0_補助線
  6
Continuous
 62
     7
370
     5
100
AcDbLine
 10
3553.061231879219
 20
-2602.275347330057
 30
0.0
 11
3553.061231879219
 21
-2609.775347330057
 31
0.0
  0
LINE
  5
324
330
1F
100
AcDbEntity
  8
1-0_補助線
  6
Continuous
 62
     7
370
     5
100
AcDbLine
 10
3435.31123187922
 20
-2559.661624899119
 30
0.0
 11
3487.811231879227
 21
-2559.661624899119
 31
0.0
  0
LINE
  5
325
330
1F
100
AcDbEntity
  8
1-0_補助線
  6
Continuous
 62
     7
370
     5
100
AcDbLine
 10
3537.311231879225
 20
-2600.913043607806
 30
0.0
 11
3537.311231879225
 21
-2618.161624899114
 31
0.0
  0
LINE
  5
326
330
1F
100
AcDbEntity
  8
1-0_補助線
  6
Continuous
 62
     7
370
     5
100
AcDbLine
 10
3540.311231879227
 20
-2621.161624899114
 30
0.0
 11
3548.561231879219
 21
-2621.161624899114
 31
0.0
  0
LINE
  5
327
330
1F
100
AcDbEntity
  8
1-0_補助線
  6
Continuous
 62
     7
370
     5
100
AcDbLine
 10
3548.561231879219
 20
-2621.161624899114
 30
0.0
 11
3548.561231879219
 21
-2631.661624899114
 31
0.0
  0
LINE
  5
328
330
1F
100
AcDbEntity
  8
1-0_補助線
  6
Continuous
 62
     7
370
     5
100
AcDbLine
 10
3537.311231879225
 20
-2618.161624899114
 30
0.0
 11
3537.311231879225
 21
-2621.161624899114
 31
0.0
  0
LINE
  5
329
330
1F
100
AcDbEntity
  8
1-0_補助線
  6
Continuous
 62
     7
370
     5
100
AcDbLine
 10
3537.311231879225
 20
-2621.161624899114
 30
0.0
 11
3540.311231879227
 21
-2621.161624899114
 31
0.0
  0
LINE
  5
32A
330
1F
100
AcDbEntity
  8
1-0_補助線
  6
Continuous
 62
     7
370
     5
100
AcDbLine
 10
3506.56123187922
 20
-2571.661624899119
 30
0.0
 11
3506.56123187922
 21
-2579.161624899119
 31
0.0
  0
LINE
  5
32B
330
1F
100
AcDbEntity
  8
1-0_補助線
  6
Continuous
 62
     7
370
     5
100
AcDbLine
 10
3506.56123187922
 20
-2571.661624899119
 30
0.0
 11
3499.06123187922
 21
-2564.161624899119
 31
0.0
  0
LINE
  5
32C
330
1F
100
AcDbEntity
  8
1-0_補助線
  6
Continuous
 62
     7
370
     5
100
AcDbLine
 10
3424.06123187922
 20
-2564.161624899119
 30
0.0
 11
3416.56123187922
 21
-2571.661624899119
 31
0.0
  0
LINE
  5
32D
330
1F
100
AcDbEntity
  8
1-0_補助線
  6
Continuous
 62
     7
370
     5
100
AcDbLine
 10
3416.561231879222
 20
-2579.161624899119
 30
0.0
 11
3416.56123187922
 21
-2571.661624899119
 31
0.0
  0
LINE
  5
32E
330
1F
100
AcDbEntity
  8
1-0_補助線
  6
Continuous
 62
     7
370
     5
100
AcDbLine
 10
3382.811231879215
 20
-2621.161624899114
 30
0.0
 11
3385.811231879215
 21
-2621.161624899114
 31
0.0
  0
LINE
  5
32F
330
1F
100
AcDbEntity
  8
1-0_補助線
  6
Continuous
 62
     7
370
     5
100
AcDbLine
 10
3385.811231879215
 20
-2621.161624899114
 30
0.0
 11
3385.811231879215
 21
-2618.161624899114
 31
0.0
  0
LINE
  5
330
330
1F
100
AcDbEntity
  8
1-0_補助線
  6
Continuous
 62
     7
370
     5
100
AcDbLine
 10
3374.56123187922
 20
-2631.661624899114
 30
0.0
 11
3374.56123187922
 21
-2621.161624899114
 31
0.0
  0
LINE
  5
331
330
1F
100
AcDbEntity
  8
1-0_補助線
  6
Continuous
 62
     7
370
     5
100
AcDbLine
 10
3374.56123187922
 20
-2621.161624899114
 30
0.0
 11
3382.811231879215
 21
-2621.161624899114
 31
0.0
  0
LINE
  5
332
330
1F
100
AcDbEntity
  8
1-0_補助線
  6
Continuous
 62
     7
370
     5
100
AcDbLine
 10
3385.811231879215
 20
-2618.161624899114
 30
0.0
 11
3385.811231879215
 21
-2600.913043607806
 31
0.0
  0
ARC
  5
333
330
1F
100
AcDbEntity
  8
1-0_補助線
  6
Continuous
 62
     7
370
     5
100
AcDbCircle
 10
3536.56123187922
 20
-2631.661624899114
 30
0.0
 40
12.00000000000012
100
AcDbArc
 50
270.0
 51
0.0
  0
ARC
  5
334
330
1F
100
AcDbEntity
  8
1-0_補助線
  6
Continuous
 62
     7
370
     5
100
AcDbCircle
 10
3386.56123187922
 20
-2631.661624899114
 30
0.0
 40
12.00000000000017
100
AcDbArc
 50
180.0
 51
270.0
  0
LINE
  5
335
330
1F
100
AcDbEntity
  8
1-0_補助線
  6
Continuous
 62
     7
370
     5
100
AcDbLine
 10
3416.561231879222
 20
-2556.355494010837
 30
0.0
 11
3506.56123187922
 21
-2556.355494010835
 31
0.0
  0
LINE
  5
336
330
1F
100
AcDbEntity
  8
1-0_補助線
  6
Continuous
 62
     7
370
     5
100
AcDbLine
 10
3435.31123187922
 20
-2559.661624899119
 30
0.0
 11
3416.561231879222
 21
-2556.355494010837
 31
0.0
  0
LINE
  5
337
330
1F
100
AcDbEntity
  8
1-0_補助線
  6
Continuous
 62
     7
370
     5
100
AcDbLine
 10
3487.811231879227
 20
-2559.661624899119
 30
0.0
 11
3506.56123187922
 21
-2556.355494010835
 31
0.0
  0
LINE
  5
338
330
1F
100
AcDbEntity
  8
1-0_補助線
  6
Continuous
 62
     7
370
     5
100
AcDbLine
 10
3435.31123187922
 20
-2559.661624899119
 30
0.0
 11
3435.31123187922
 21
-2564.161624899119
 31
0.0
  0
LINE
  5
339
330
1F
100
AcDbEntity
  8
1-0_補助線
  6
Continuous
 62
     7
370
     5
100
AcDbLine
 10
3487.811231879227
 20
-2559.661624899119
 30
0.0
 11
3487.811231879227
 21
-2564.161624899119
 31
0.0
  0
LINE
  5
33A
330
1F
100
AcDbEntity
  8
1-0_補助線
  6
Continuous
 62
     7
370
     5
100
AcDbLine
 10
3424.06123187922
 20
-2564.161624899119
 30
0.0
 11
3499.06123187922
 21
-2564.161624899119
 31
0.0
  0
LINE
  5
33B
330
1F
100
AcDbEntity
  8
1-0_補助線
  6
Continuous
 62
     7
370
     5
100
AcDbLine
 10
3506.56123187922
 20
-2571.661624899119
 30
0.0
 11
3416.56123187922
 21
-2571.661624899112
 31
0.0
  0
LINE
  5
33C
330
1F
100
AcDbEntity
  8
1-0_補助線
  6
Continuous
 62
     7
370
     5
100
AcDbLine
 10
3383.878605036966
 20
-2600.60694558704
 30
0.0
 11
3385.811231879215
 21
-2600.913043607806
 31
0.0
  0
LINE
  5
33D
330
1F
100
AcDbEntity
  8
1-0_補助線
  6
Continuous
 62
     7
370
     5
100
AcDbLine
 10
3385.811231879215
 20
-2621.161624899114
 30
0.0
 11
3537.311231879225
 21
-2621.161624899114
 31
0.0
  0
LINE
  5
33E
330
1F
100
AcDbEntity
  8
1-0_補助線
  6
Continuous
 62
     7
370
     5
100
AcDbLine
 10
3386.56123187922
 20
-2643.661624899115
 30
0.0
 11
3536.56123187922
 21
-2643.661624899115
 31
0.0
  0
LINE
  5
33F
330
1F
100
AcDbEntity
  8
1-0_補助線
  6
Continuous
 62
     7
370
     5
100
AcDbLine
 10
3385.811231879215
 20
-2601.070443025423
 30
0.0
 11
3537.311231879225
 21
-2601.070443025423
 31
0.0
  0
LINE
  5
340
330
1F
100
AcDbEntity
  8
1-0_補助線
  6
Continuous
 62
     7
370
     5
100
AcDbLine
 10
3416.561231879249
 20
-2495.77534733006
 30
0.0
 11
3416.561231879222
 21
-2556.355494010837
 31
0.0
  0
LINE
  5
341
330
1F
100
AcDbEntity
  8
1-0_補助線
  6
Continuous
 62
     7
370
     5
100
AcDbLine
 10
3506.56123187922
 20
-2556.355494010835
 30
0.0
 11
3506.561231879247
 21
-2495.77534733006
 31
0.0
  0
LINE
  5
342
330
1F
100
AcDbEntity
  8
1-0_補助線
  6
Continuous
 62
     7
370
     5
100
AcDbLine
 10
3537.311231879225
 20
-2600.913043607806
 30
0.0
 11
3560.996757433377
 21
-2597.161624899119
 31
0.0
  0
LINE
  5
343
330
1F
100
AcDbEntity
  8
1-0_補助線
  6
Continuous
 62
     7
370
     5
100
AcDbLine
 10
3560.996757433377
 20
-2597.161624899119
 30
0.0
 11
3574.061231879216
 21
-2597.161624899119
 31
0.0
  0
LINE
  5
344
330
1F
100
AcDbEntity
  8
1-0_補助線
  6
Continuous
 62
     7
370
     5
100
AcDbLine
 10
3574.06123187922
 20
-2586.661624899119
 30
0.0
 11
3574.061231879216
 21
-2597.161624899119
 31
0.0
  0
ARC
  5
345
330
1F
100
AcDbEntity
  8
1-0_補助線
  6
Continuous
 62
     7
370
     5
100
AcDbCircle
 10
3566.561231879218
 20
-2586.661624899119
 30
0.0
 40
7.500000000001705
100
AcDbArc
 50
0.0
 51
90.0
  0
LINE
  5
346
330
1F
100
AcDbEntity
  8
1-0_補助線
  6
Continuous
 62
     7
370
     5
100
AcDbLine
 10
3506.56123187922
 20
-2579.161624899119
 30
0.0
 11
3566.561231879218
 21
-2579.161624899119
 31
0.0
  0
LINE
  5
347
330
1F
100
AcDbEntity
  8
1-0_補助線
  6
Continuous
 62
     7
370
     5
100
AcDbLine
 10
3356.561231879222
 20
-2579.161624899119
 30
0.0
 11
3506.56123187922
 21
-2579.161624899119
 31
0.0
  0
LINE
  5
348
330
1F
100
AcDbEntity
  8
1-0_補助線
  6
Continuous
 62
     7
370
     5
100
AcDbLine
 10
3362.125706325062
 20
-2597.161624899119
 30
0.0
 11
3383.878605036966
 21
-2600.60694558704
 31
0.0
  0
LINE
  5
349
330
1F
100
AcDbEntity
  8
1-0_補助線
  6
Continuous
 62
     7
370
     5
100
AcDbLine
 10
3349.061231879223
 20
-2597.161624899119
 30
0.0
 11
3362.125706325062
 21
-2597.161624899119
 31
0.0
  0
LINE
  5
34A
330
1F
100
AcDbEntity
  8
1-0_補助線
  6
Continuous
 62
     7
370
     5
100
AcDbLine
 10
3349.061231879223
 20
-2597.161624899119
 30
0.0
 11
3349.06123187922
 21
-2586.661624899119
 31
0.0
  0
ARC
  5
34B
330
1F
100
AcDbEntity
  8
1-0_補助線
  6
Continuous
 62
     7
370
     5
100
AcDbCircle
 10
3356.561231879222
 20
-2586.661624899119
 30
0.0
 40
7.5
100
AcDbArc
 50
90.0
 51
180.0
  0
LINE
  5
34C
330
1F
100
AcDbEntity
  8
0-A_文字
  6
Continuous
 62
    92
370
     5
100
AcDbLine
 10
2295.587904513896
 20
-255.7024453444771
 30
0.0
 11
4935.5879045139
 21
-255.7024453444771
 31
0.0
  0
LINE
  5
34D
330
1F
100
AcDbEntity
  8
0-A_文字
  6
Continuous
 62
    92
370
     5
100
AcDbLine
 10
2295.587904513896
 20
-471.7024453444776
 30
0.0
 11
4935.5879045139
 21
-471.7024453444776
 31
0.0
  0
MTEXT
  5
34E
330
1F
100
AcDbEntity
  8
0-A_文字
  6
Continuous
 62
     7
370
     5
100
AcDbMText
 10
2595.587904513898
 20
-438.5222861483944
 30
0.0
 40
91.44000000000018
 41
2100.000000000004
 46
0.0
 71
     7
 72
     1
  1
{\fＭＳ ゴシック|b0|i0|c128|p49;床直付レール取り付け位置（Ｓ＝1/2）}
 73
     1
 44
1.0
  0
LINE
  5
34F
330
1F
100
AcDbEntity
  8
0-A_文字
  6
Continuous
 62
    92
370
     5
100
AcDbLine
 10
4935.5879045139
 20
-255.7024453444771
 30
0.0
 11
4935.5879045139
 21
-3354.799890173381
 31
0.0
  0
LINE
  5
350
330
1F
100
AcDbEntity
  8
0-A_文字
  6
Continuous
 62
    92
370
     5
100
AcDbLine
 10
309.9185428433159
 20
-3354.799890173381
 30
0.0
 11
4935.5879045139
 21
-3354.799890173381
 31
0.0
  0
LINE
  5
351
330
1F
100
AcDbEntity
  8
F-0_補助線
  6
JWW_HOJO
 62
     7
370
     5
100
AcDbLine
 10
1109.918584083287
 20
-3795.000003092998
 30
0.0
 11
1109.918584083287
 21
-4195.000008247994
 31
0.0
  0
LINE
  5
352
330
1F
100
AcDbEntity
  8
F-0_補助線
  6
JWW_HOJO
 62
     7
370
     5
100
AcDbLine
 10
4889.917891251784
 20
-3795.000003092998
 30
0.0
 11
4889.917891251784
 21
-4195.000008247994
 31
0.0
  0
MTEXT
  5
353
330
1F
100
AcDbEntity
  8
F-0_補助線
  6
Continuous
 62
     7
370
     0
100
AcDbMText
 10
1109.918584083287
 20
-3945.948259655243
 30
0.0
 40
78.105
 41
615.0
 46
0.0
 71
     7
 72
     1
  1
{\fＭＳ ゴシック|b0|i0|c128|p49;建具納まり図}
 73
     1
 44
1.0
  0
MTEXT
  5
354
330
1F
100
AcDbEntity
  8
F-0_補助線
  6
Continuous
 62
     7
370
     0
100
AcDbMText
 10
509.9185840832865
 20
-3950.710201962234
 30
0.0
 40
68.58000000000001
 41
360.0
 46
0.0
 71
     7
 72
     1
  1
{\fＭＳ ゴシック|b0|i0|c128|p49;DOORETUS}
 73
     1
 44
1.0
  0
LINE
  5
355
330
1F
100
AcDbEntity
  8
0-0_補助線
  6
Continuous
 62
   120
370
     5
100
AcDbLine
 10
-1982.08145715668
 20
2324.35919630369
 30
0.0
 11
-1982.08145715668
 21
2402.688459526875
 31
0.0
  0
LINE
  5
356
330
1F
100
AcDbEntity
  8
0-0_補助線
  6
Continuous
 62
   120
370
     5
100
AcDbLine
 10
-1997.08145715668
 20
2324.35919630369
 30
0.0
 11
-1997.08145715668
 21
2402.688459526875
 31
0.0
  0
LINE
  5
357
330
1F
100
AcDbEntity
  8
0-C_ハッチ
  6
Continuous
 62
   120
370
     5
100
AcDbLine
 10
2007.80411596368
 20
2491.32018406181
 30
0.0
 11
2130.429078498015
 21
2616.945146596144
 31
0.0
  0
LWPOLYLINE
  5
358
330
1F
100
AcDbEntity
  8
0-B_寸法
  6
Continuous
 62
     7
370
     5
100
AcDbPolyline
 90
        4
 70
     1
 43
3.0
 10
-1169.771042249587
 20
2421.945146596151
 42
0.4142135623731
 10
-1171.271042249587
 20
2423.445146596151
 42
0.4142135623731
 10
-1172.771042249587
 20
2421.945146596151
 42
0.4142135623731
 10
-1171.271042249587
 20
2420.445146596152
 42
0.4142135623731
  0
LINE
  5
359
330
1F
100
AcDbEntity
  8
0-0_補助線
  6
JWW_HOJO
 62
     7
370
     5
100
AcDbLine
 10
-1719.956457156684
 20
2439.94514659615
 30
0.0
 11
-1719.956457156684
 21
2280.944503252612
 31
0.0
  0
LINE
  5
35A
330
1F
100
AcDbEntity
  8
0-0_補助線
  6
JWW_HOJO
 62
     7
370
     5
100
AcDbLine
 10
-1779.956457156684
 20
2439.94514659615
 30
0.0
 11
-1779.956457156684
 21
2280.944503252612
 31
0.0
  0
LINE
  5
35B
330
1F
100
AcDbEntity
  8
0-6_扉
  6
Continuous
 62
   200
370
     5
100
AcDbLine
 10
-1779.956457156684
 20
2421.945146596151
 30
0.0
 11
-1997.081457156683
 21
2421.945146596151
 31
0.0
  0
LINE
  5
35C
330
1F
100
AcDbEntity
  8
0-6_扉
  6
Continuous
 62
   200
370
     5
100
AcDbLine
 10
-1502.831457156685
 20
2421.945146596151
 30
0.0
 11
-1719.956457156684
 21
2421.945146596151
 31
0.0
  0
LINE
  5
35D
330
1F
100
AcDbEntity
  8
0-6_扉
  6
Continuous
 62
   200
370
     5
100
AcDbLine
 10
-1002.581457156685
 20
2421.945146596151
 30
0.0
 11
-1219.706457156685
 21
2421.945146596151
 31
0.0
  0
LINE
  5
35E
330
1F
100
AcDbEntity
  8
0-6_扉
  6
Continuous
 62
   200
370
     5
100
AcDbLine
 10
-1279.706457156685
 20
2421.945146596151
 30
0.0
 11
-1496.831457156684
 21
2421.945146596151
 31
0.0
  0
LINE
  5
35F
330
1F
100
AcDbEntity
  8
0-0_補助線
  6
JWW_HOJO
 62
     7
370
     5
100
AcDbLine
 10
-1279.706457156685
 20
2439.94514659615
 30
0.0
 11
-1279.706457156685
 21
2280.944503252612
 31
0.0
  0
LINE
  5
360
330
1F
100
AcDbEntity
  8
0-0_補助線
  6
JWW_HOJO
 62
     7
370
     5
100
AcDbLine
 10
-1219.706457156685
 20
2439.94514659615
 30
0.0
 11
-1219.706457156685
 21
2280.944503252612
 31
0.0
  0
LINE
  5
361
330
1F
100
AcDbEntity
  8
0-0_補助線
  6
JWW_HOJO
 62
     7
370
     5
100
AcDbLine
 10
-713.4564571566841
 20
2439.94514659615
 30
0.0
 11
-713.4564571566841
 21
2280.944503252612
 31
0.0
  0
LINE
  5
362
330
1F
100
AcDbEntity
  8
0-0_補助線
  6
JWW_HOJO
 62
     7
370
     5
100
AcDbLine
 10
-773.456457156685
 20
2439.94514659615
 30
0.0
 11
-773.456457156685
 21
2280.944503252612
 31
0.0
  0
LINE
  5
363
330
1F
100
AcDbEntity
  8
0-6_扉
  6
Continuous
 62
   200
370
     5
100
AcDbLine
 10
-773.456457156685
 20
2421.945146596151
 30
0.0
 11
-990.5814571566837
 21
2421.945146596151
 31
0.0
  0
LINE
  5
364
330
1F
100
AcDbEntity
  8
0-6_扉
  6
Continuous
 62
   200
370
     5
100
AcDbLine
 10
-496.3314571566846
 20
2421.945146596151
 30
0.0
 11
-713.4564571566841
 21
2421.945146596151
 31
0.0
  0
LINE
  5
365
330
1F
100
AcDbEntity
  8
0-0_補助線
  6
JWW_HOJO
 62
     7
370
     5
100
AcDbLine
 10
-273.2064571566821
 20
2439.94514659615
 30
0.0
 11
-273.2064571566821
 21
2280.944503252612
 31
0.0
  0
LINE
  5
366
330
1F
100
AcDbEntity
  8
0-0_補助線
  6
JWW_HOJO
 62
     7
370
     5
100
AcDbLine
 10
-213.2064571566821
 20
2439.94514659615
 30
0.0
 11
-213.2064571566821
 21
2280.944503252612
 31
0.0
  0
LINE
  5
367
330
1F
100
AcDbEntity
  8
0-6_扉
  6
Continuous
 62
   200
370
     5
100
AcDbLine
 10
-490.3314571566798
 20
2421.945146596151
 30
0.0
 11
-273.2064571566821
 21
2421.945146596151
 31
0.0
  0
LINE
  5
368
330
1F
100
AcDbEntity
  8
0-6_扉
  6
Continuous
 62
   200
370
     5
100
AcDbLine
 10
-213.2064571566821
 20
2421.945146596151
 30
0.0
 11
3.91854284331572
 21
2421.945146596151
 31
0.0
  0
LINE
  5
369
330
1F
100
AcDbEntity
  8
0-0_補助線
  6
JWW_HOJO
 62
     7
370
     5
100
AcDbLine
 10
233.0435428433154
 20
2439.94514659615
 30
0.0
 11
233.0435428433154
 21
2280.944503252612
 31
0.0
  0
LINE
  5
36A
330
1F
100
AcDbEntity
  8
0-0_補助線
  6
JWW_HOJO
 62
     7
370
     5
100
AcDbLine
 10
293.0435428433154
 20
2439.94514659615
 30
0.0
 11
293.0435428433154
 21
2280.944503252612
 31
0.0
  0
LINE
  5
36B
330
1F
100
AcDbEntity
  8
0-6_扉
  6
Continuous
 62
   200
370
     5
100
AcDbLine
 10
15.91854284331589
 20
2421.945146596151
 30
0.0
 11
233.0435428433154
 21
2421.945146596151
 31
0.0
  0
LINE
  5
36C
330
1F
100
AcDbEntity
  8
0-6_扉
  6
Continuous
 62
   200
370
     5
100
AcDbLine
 10
293.0435428433154
 20
2421.945146596151
 30
0.0
 11
510.1685428433157
 21
2421.945146596151
 31
0.0
  0
LINE
  5
36D
330
1F
100
AcDbEntity
  8
0-0_補助線
  6
JWW_HOJO
 62
     7
370
     5
100
AcDbLine
 10
733.2935428433149
 20
2439.94514659615
 30
0.0
 11
733.2935428433149
 21
2280.944503252612
 31
0.0
  0
LINE
  5
36E
330
1F
100
AcDbEntity
  8
0-0_補助線
  6
JWW_HOJO
 62
     7
370
     5
100
AcDbLine
 10
793.2935428433149
 20
2439.94514659615
 30
0.0
 11
793.2935428433149
 21
2280.944503252612
 31
0.0
  0
LINE
  5
36F
330
1F
100
AcDbEntity
  8
0-6_扉
  6
Continuous
 62
   200
370
     5
100
AcDbLine
 10
516.1685428433154
 20
2421.945146596151
 30
0.0
 11
733.2935428433149
 21
2421.945146596151
 31
0.0
  0
LINE
  5
370
330
1F
100
AcDbEntity
  8
0-6_扉
  6
Continuous
 62
   200
370
     5
100
AcDbLine
 10
793.2935428433149
 20
2421.945146596151
 30
0.0
 11
1010.418542843325
 21
2421.945146596151
 31
0.0
  0
LINE
  5
371
330
1F
100
AcDbEntity
  8
0-0_補助線
  6
JWW_HOJO
 62
     7
370
     5
100
AcDbLine
 10
1239.543542843316
 20
2439.94514659615
 30
0.0
 11
1239.543542843316
 21
2280.944503252612
 31
0.0
  0
LINE
  5
372
330
1F
100
AcDbEntity
  8
0-0_補助線
  6
JWW_HOJO
 62
     7
370
     5
100
AcDbLine
 10
1299.543542843316
 20
2439.94514659615
 30
0.0
 11
1299.543542843316
 21
2280.944503252612
 31
0.0
  0
LINE
  5
373
330
1F
100
AcDbEntity
  8
0-6_扉
  6
Continuous
 62
   200
370
     5
100
AcDbLine
 10
1022.418542843315
 20
2421.945146596151
 30
0.0
 11
1239.543542843316
 21
2421.945146596151
 31
0.0
  0
LINE
  5
374
330
1F
100
AcDbEntity
  8
0-6_扉
  6
Continuous
 62
   200
370
     5
100
AcDbLine
 10
1299.543542843316
 20
2421.945146596151
 30
0.0
 11
1516.668542843315
 21
2421.945146596151
 31
0.0
  0
LINE
  5
375
330
1F
100
AcDbEntity
  8
0-0_補助線
  6
JWW_HOJO
 62
     7
370
     5
100
AcDbLine
 10
1739.793542843314
 20
2439.94514659615
 30
0.0
 11
1739.793542843314
 21
2280.944503252612
 31
0.0
  0
LINE
  5
376
330
1F
100
AcDbEntity
  8
0-0_補助線
  6
JWW_HOJO
 62
     7
370
     5
100
AcDbLine
 10
1799.793542843314
 20
2439.94514659615
 30
0.0
 11
1799.793542843314
 21
2280.944503252612
 31
0.0
  0
LINE
  5
377
330
1F
100
AcDbEntity
  8
0-6_扉
  6
Continuous
 62
   200
370
     5
100
AcDbLine
 10
1522.668542843315
 20
2421.945146596151
 30
0.0
 11
1739.793542843314
 21
2421.945146596151
 31
0.0
  0
LINE
  5
378
330
1F
100
AcDbEntity
  8
0-6_扉
  6
Continuous
 62
   200
370
     5
100
AcDbLine
 10
1799.793542843314
 20
2421.945146596151
 30
0.0
 11
2016.918542843325
 21
2421.945146596151
 31
0.0
  0
CIRCLE
  5
379
330
1F
100
AcDbEntity
  8
0-7_金物
  6
Continuous
 62
     7
370
     5
100
AcDbCircle
 10
-1499.831457156684
 20
2451.945146596128
 30
0.0
 40
21.00000000000001
  0
CIRCLE
  5
37A
330
1F
100
AcDbEntity
  8
0-7_金物
  6
Continuous
 62
     7
370
     5
100
AcDbCircle
 10
-1499.831457156684
 20
2451.945146596128
 30
0.0
 40
30.0
  0
CIRCLE
  5
37B
330
1F
100
AcDbEntity
  8
0-7_金物
  6
Continuous
 62
     7
370
     5
100
AcDbCircle
 10
-493.3314571566822
 20
2451.945146596128
 30
0.0
 40
21.00000000000001
  0
CIRCLE
  5
37C
330
1F
100
AcDbEntity
  8
0-7_金物
  6
Continuous
 62
     7
370
     5
100
AcDbCircle
 10
-493.3314571566822
 20
2451.945146596128
 30
0.0
 40
30.0
  0
CIRCLE
  5
37D
330
1F
100
AcDbEntity
  8
0-7_金物
  6
Continuous
 62
     7
370
     5
100
AcDbCircle
 10
1519.668542843315
 20
2451.945146596128
 30
0.0
 40
21.00000000000001
  0
CIRCLE
  5
37E
330
1F
100
AcDbEntity
  8
0-7_金物
  6
Continuous
 62
     7
370
     5
100
AcDbCircle
 10
1519.668542843315
 20
2451.945146596128
 30
0.0
 40
30.0
  0
CIRCLE
  5
37F
330
1F
100
AcDbEntity
  8
0-7_金物
  6
Continuous
 62
     7
370
     5
100
AcDbCircle
 10
513.1685428433155
 20
2451.945146596128
 30
0.0
 40
21.00000000000001
  0
CIRCLE
  5
380
330
1F
100
AcDbEntity
  8
0-7_金物
  6
Continuous
 62
     7
370
     5
100
AcDbCircle
 10
513.1685428433155
 20
2451.945146596128
 30
0.0
 40
30.0
  0
LWPOLYLINE
  5
381
330
1F
100
AcDbEntity
  8
0-B_寸法
  6
Continuous
 62
     7
370
     5
100
AcDbPolyline
 90
        4
 70
     1
 43
3.0
 10
-1169.771042249587
 20
2301.945146596151
 42
0.4142135623731
 10
-1171.271042249587
 20
2303.445146596151
 42
0.4142135623731
 10
-1172.771042249587
 20
2301.945146596151
 42
0.4142135623731
 10
-1171.271042249587
 20
2300.445146596152
 42
0.4142135623731
  0
LINE
  5
382
330
1F
100
AcDbEntity
  8
0-6_扉
  6
Continuous
 62
   200
370
     5
100
AcDbLine
 10
-1779.956457156684
 20
2301.945146596151
 30
0.0
 11
-1997.081457156683
 21
2301.945146596151
 31
0.0
  0
LINE
  5
383
330
1F
100
AcDbEntity
  8
0-6_扉
  6
Continuous
 62
   200
370
     5
100
AcDbLine
 10
-1502.831457156685
 20
2301.945146596151
 30
0.0
 11
-1719.956457156684
 21
2301.945146596151
 31
0.0
  0
LINE
  5
384
330
1F
100
AcDbEntity
  8
0-6_扉
  6
Continuous
 62
   200
370
     5
100
AcDbLine
 10
-1002.581457156685
 20
2301.945146596151
 30
0.0
 11
-1219.706457156685
 21
2301.945146596151
 31
0.0
  0
LINE
  5
385
330
1F
100
AcDbEntity
  8
0-6_扉
  6
Continuous
 62
   200
370
     5
100
AcDbLine
 10
-1279.706457156685
 20
2301.945146596151
 30
0.0
 11
-1496.831457156684
 21
2301.945146596151
 31
0.0
  0
LINE
  5
386
330
1F
100
AcDbEntity
  8
0-6_扉
  6
Continuous
 62
   200
370
     5
100
AcDbLine
 10
-773.456457156685
 20
2301.945146596151
 30
0.0
 11
-990.5814571566837
 21
2301.945146596151
 31
0.0
  0
LINE
  5
387
330
1F
100
AcDbEntity
  8
0-6_扉
  6
Continuous
 62
   200
370
     5
100
AcDbLine
 10
-496.3314571566846
 20
2301.945146596151
 30
0.0
 11
-713.4564571566841
 21
2301.945146596151
 31
0.0
  0
LINE
  5
388
330
1F
100
AcDbEntity
  8
0-6_扉
  6
Continuous
 62
   200
370
     5
100
AcDbLine
 10
-490.3314571566798
 20
2301.945146596151
 30
0.0
 11
-273.2064571566821
 21
2301.945146596151
 31
0.0
  0
LINE
  5
389
330
1F
100
AcDbEntity
  8
0-6_扉
  6
Continuous
 62
   200
370
     5
100
AcDbLine
 10
-213.2064571566821
 20
2301.945146596151
 30
0.0
 11
3.91854284331572
 21
2301.945146596151
 31
0.0
  0
LINE
  5
38A
330
1F
100
AcDbEntity
  8
0-6_扉
  6
Continuous
 62
   200
370
     5
100
AcDbLine
 10
15.91854284331589
 20
2301.945146596151
 30
0.0
 11
233.0435428433154
 21
2301.945146596151
 31
0.0
  0
LINE
  5
38B
330
1F
100
AcDbEntity
  8
0-6_扉
  6
Continuous
 62
   200
370
     5
100
AcDbLine
 10
293.0435428433154
 20
2301.945146596151
 30
0.0
 11
510.1685428433157
 21
2301.945146596151
 31
0.0
  0
LINE
  5
38C
330
1F
100
AcDbEntity
  8
0-6_扉
  6
Continuous
 62
   200
370
     5
100
AcDbLine
 10
516.1685428433154
 20
2301.945146596151
 30
0.0
 11
733.2935428433149
 21
2301.945146596151
 31
0.0
  0
LINE
  5
38D
330
1F
100
AcDbEntity
  8
0-6_扉
  6
Continuous
 62
   200
370
     5
100
AcDbLine
 10
793.2935428433149
 20
2301.945146596151
 30
0.0
 11
1010.418542843325
 21
2301.945146596151
 31
0.0
  0
LINE
  5
38E
330
1F
100
AcDbEntity
  8
0-6_扉
  6
Continuous
 62
   200
370
     5
100
AcDbLine
 10
1022.418542843315
 20
2301.945146596151
 30
0.0
 11
1239.543542843316
 21
2301.945146596151
 31
0.0
  0
LINE
  5
38F
330
1F
100
AcDbEntity
  8
0-6_扉
  6
Continuous
 62
   200
370
     5
100
AcDbLine
 10
1299.543542843316
 20
2301.945146596151
 30
0.0
 11
1516.668542843315
 21
2301.945146596151
 31
0.0
  0
LINE
  5
390
330
1F
100
AcDbEntity
  8
0-6_扉
  6
Continuous
 62
   200
370
     5
100
AcDbLine
 10
1522.668542843315
 20
2301.945146596151
 30
0.0
 11
1739.793542843314
 21
2301.945146596151
 31
0.0
  0
LINE
  5
391
330
1F
100
AcDbEntity
  8
0-6_扉
  6
Continuous
 62
   200
370
     5
100
AcDbLine
 10
1799.793542843314
 20
2301.945146596151
 30
0.0
 11
2016.918542843325
 21
2301.945146596151
 31
0.0
  0
LINE
  5
392
330
1F
100
AcDbEntity
  8
0-B_寸法
  6
Continuous
 62
   120
370
     5
100
AcDbLine
 10
-1171.271042249587
 20
2421.945146596151
 30
0.0
 11
-1171.271042249587
 21
2301.945146596151
 31
0.0
  0
LINE
  5
393
330
1F
100
AcDbEntity
  8
0-6_扉
  6
Continuous
 62
   200
370
     5
100
AcDbLine
 10
-1997.081457156683
 20
2421.945146596151
 30
0.0
 11
-1997.081457156683
 21
2301.945146596151
 31
0.0
  0
LINE
  5
394
330
1F
100
AcDbEntity
  8
0-6_扉
  6
Continuous
 62
   200
370
     5
100
AcDbLine
 10
-1496.831457156684
 20
2421.945146596151
 30
0.0
 11
-1496.831457156684
 21
2301.945146596151
 31
0.0
  0
LINE
  5
395
330
1F
100
AcDbEntity
  8
0-6_扉
  6
Continuous
 62
   200
370
     5
100
AcDbLine
 10
-1502.831457156685
 20
2421.945146596151
 30
0.0
 11
-1502.831457156685
 21
2301.945146596151
 31
0.0
  0
LINE
  5
396
330
1F
100
AcDbEntity
  8
0-6_扉
  6
Continuous
 62
   200
370
     5
100
AcDbLine
 10
-990.5814571566837
 20
2421.945146596151
 30
0.0
 11
-990.5814571566837
 21
2301.945146596151
 31
0.0
  0
LINE
  5
397
330
1F
100
AcDbEntity
  8
0-6_扉
  6
Continuous
 62
   200
370
     5
100
AcDbLine
 10
-1002.581457156685
 20
2421.945146596151
 30
0.0
 11
-1002.581457156685
 21
2301.945146596151
 31
0.0
  0
LINE
  5
398
330
1F
100
AcDbEntity
  8
0-6_扉
  6
Continuous
 62
   200
370
     5
100
AcDbLine
 10
-490.3314571566798
 20
2421.945146596151
 30
0.0
 11
-490.3314571566798
 21
2301.945146596151
 31
0.0
  0
LINE
  5
399
330
1F
100
AcDbEntity
  8
0-6_扉
  6
Continuous
 62
   200
370
     5
100
AcDbLine
 10
-496.3314571566846
 20
2421.945146596151
 30
0.0
 11
-496.3314571566846
 21
2301.945146596151
 31
0.0
  0
LINE
  5
39A
330
1F
100
AcDbEntity
  8
0-6_扉
  6
Continuous
 62
   200
370
     5
100
AcDbLine
 10
3.91854284331572
 20
2421.945146596151
 30
0.0
 11
3.91854284331572
 21
2301.945146596151
 31
0.0
  0
LINE
  5
39B
330
1F
100
AcDbEntity
  8
0-6_扉
  6
Continuous
 62
   200
370
     5
100
AcDbLine
 10
15.91854284331589
 20
2421.945146596151
 30
0.0
 11
15.91854284331589
 21
2301.945146596151
 31
0.0
  0
LINE
  5
39C
330
1F
100
AcDbEntity
  8
0-6_扉
  6
Continuous
 62
   200
370
     5
100
AcDbLine
 10
510.1685428433157
 20
2421.945146596151
 30
0.0
 11
510.1685428433157
 21
2301.945146596151
 31
0.0
  0
LINE
  5
39D
330
1F
100
AcDbEntity
  8
0-6_扉
  6
Continuous
 62
   200
370
     5
100
AcDbLine
 10
516.1685428433154
 20
2421.945146596151
 30
0.0
 11
516.1685428433154
 21
2301.945146596151
 31
0.0
  0
LINE
  5
39E
330
1F
100
AcDbEntity
  8
0-6_扉
  6
Continuous
 62
   200
370
     5
100
AcDbLine
 10
1010.418542843325
 20
2421.945146596151
 30
0.0
 11
1010.418542843325
 21
2301.945146596151
 31
0.0
  0
LINE
  5
39F
330
1F
100
AcDbEntity
  8
0-6_扉
  6
Continuous
 62
   200
370
     5
100
AcDbLine
 10
1022.418542843315
 20
2421.945146596151
 30
0.0
 11
1022.418542843315
 21
2301.945146596151
 31
0.0
  0
LINE
  5
3A0
330
1F
100
AcDbEntity
  8
0-6_扉
  6
Continuous
 62
   200
370
     5
100
AcDbLine
 10
1516.668542843315
 20
2421.945146596151
 30
0.0
 11
1516.668542843315
 21
2301.945146596151
 31
0.0
  0
LINE
  5
3A1
330
1F
100
AcDbEntity
  8
0-6_扉
  6
Continuous
 62
   200
370
     5
100
AcDbLine
 10
1522.668542843315
 20
2421.945146596151
 30
0.0
 11
1522.668542843315
 21
2301.945146596151
 31
0.0
  0
LINE
  5
3A2
330
1F
100
AcDbEntity
  8
0-6_扉
  6
Continuous
 62
   200
370
     5
100
AcDbLine
 10
2016.918542843325
 20
2421.945146596151
 30
0.0
 11
2016.918542843325
 21
2301.945146596151
 31
0.0
  0
MTEXT
  5
3A3
330
1F
100
AcDbEntity
  8
0-B_寸法
  6
Continuous
 62
     7
370
   211
100
AcDbMText
 10
-1186.271042249587
 20
2287.665146596151
 30
0.0
 40
91.44
 41
120.0
 46
0.0
 71
     7
 72
     1
  1
{\fＭＳ ゴシック|b0|i0|c128|p49;20}
 11
6.123031769111886E-17
 21
1.0
 31
0.0
 73
     1
 44
1.0
  0
LWPOLYLINE
  5
3A4
330
1F
100
AcDbEntity
  8
0-B_寸法
  6
Continuous
 62
     7
370
     5
100
AcDbPolyline
 90
        4
 70
     1
 43
3.0
 10
-1697.082007211409
 20
-1158.980015894358
 42
0.4142135623731
 10
-1698.582007211409
 20
-1157.480015894358
 42
0.4142135623731
 10
-1700.082007211409
 20
-1158.980015894358
 42
0.4142135623731
 10
-1698.582007211409
 20
-1160.480015894358
 42
0.4142135623731
  0
LINE
  5
3A5
330
1F
100
AcDbEntity
  8
0-B_寸法
  6
Continuous
 62
   120
370
     5
100
AcDbLine
 10
-1698.582007211409
 20
-1074.743087315386
 30
0.0
 11
-1698.582007211409
 21
-1158.980015894358
 31
0.0
  0
LINE
  5
3A6
330
1F
100
AcDbEntity
  8
0-6_扉
  6
Continuous
 62
   200
370
     5
100
AcDbLine
 10
-1698.582007211409
 20
-1881.999713176007
 30
0.0
 11
-1698.582007211409
 21
-3157.00033424996
 31
0.0
  0
LINE
  5
3A7
330
1F
100
AcDbEntity
  8
0-6_扉
  6
Continuous
 62
   200
370
     5
100
AcDbLine
 10
-1698.582007211409
 20
-558.9994632617867
 30
0.0
 11
-1698.582007211409
 21
-1761.999713176006
 31
0.0
  0
LWPOLYLINE
  5
3A8
330
1F
100
AcDbEntity
  8
0-B_寸法
  6
Continuous
 62
     7
370
     5
100
AcDbPolyline
 90
        4
 70
     1
 43
3.0
 10
-1817.082007211409
 20
-1158.980015894358
 42
0.4142135623731
 10
-1818.582007211409
 20
-1157.480015894358
 42
0.4142135623731
 10
-1820.082007211409
 20
-1158.980015894358
 42
0.4142135623731
 10
-1818.582007211409
 20
-1160.480015894358
 42
0.4142135623731
  0
LINE
  5
3A9
330
1F
100
AcDbEntity
  8
0-B_寸法
  6
Continuous
 62
   120
370
     5
100
AcDbLine
 10
-1818.582007211409
 20
-1074.743087315386
 30
0.0
 11
-1818.582007211409
 21
-1158.980015894358
 31
0.0
  0
LINE
  5
3AA
330
1F
100
AcDbEntity
  8
0-6_扉
  6
Continuous
 62
   200
370
     5
100
AcDbLine
 10
-1818.582007211409
 20
-1881.999713176007
 30
0.0
 11
-1818.582007211409
 21
-3157.00033424996
 31
0.0
  0
LINE
  5
3AB
330
1F
100
AcDbEntity
  8
0-6_扉
  6
Continuous
 62
   200
370
     5
100
AcDbLine
 10
-1818.582007211409
 20
-558.9994632617867
 30
0.0
 11
-1818.582007211409
 21
-1761.999713176006
 31
0.0
  0
LINE
  5
3AC
330
1F
100
AcDbEntity
  8
0-6_扉
  6
Continuous
 62
   200
370
     5
100
AcDbLine
 10
-1818.580908578607
 20
-3157.00033424996
 30
0.0
 11
-1698.580908578593
 21
-3157.00033424996
 31
0.0
  0
LINE
  5
3AD
330
1F
100
AcDbEntity
  8
0-B_寸法
  6
Continuous
 62
   120
370
     5
100
AcDbLine
 10
-1698.582007211409
 20
-1158.980015894358
 30
0.0
 11
-1818.582007211409
 21
-1158.980015894358
 31
0.0
  0
LINE
  5
3AE
330
1F
100
AcDbEntity
  8
0-6_扉
  6
Continuous
 62
   200
370
     5
100
AcDbLine
 10
-1818.582007211409
 20
-558.9994632617867
 30
0.0
 11
-1698.582007211409
 21
-558.9994632617867
 31
0.0
  0
MTEXT
  5
3AF
330
1F
100
AcDbEntity
  8
0-B_寸法
  6
Continuous
 62
     7
370
     0
100
AcDbMText
 10
-1811.082001952829
 20
-1158.259920011229
 30
0.0
 40
91.44000000000001
 41
120.0
 46
0.0
 71
     7
 72
     1
  1
{\fＭＳ ゴシック|b0|i0|c128|p49;20}
 11
0.9999999999914964
 21
-4.124000483563069E-6
 31
0.0
 73
     1
 44
1.0
  0
MTEXT
  5
3B0
330
1F
100
AcDbEntity
  8
F-A_文字
  6
Continuous
 62
     7
370
     0
100
AcDbMText
 10
4889.917891251784
 20
-3945.570773120548
 30
0.0
 40
78.86699999999999
 41
517.5
 46
0.0
 71
     7
 72
     1
  1
{\fＭＳ ゴシック|b0|i0|c128|p49;2024.04.01}
 73
     1
 44
1.0
  0
LINE
  5
3B1
330
1F
100
AcDbEntity
  8
1-6_扉
  6
JWW_DASHED2
 62
     7
370
     5
100
AcDbLine
 10
3611.56123187922
 20
-848.772366184064
 30
0.0
 11
3611.56123187922
 21
-2495.77534733006
 31
0.0
  0
LINE
  5
3B2
330
1F
100
AcDbEntity
  8
1-6_扉
  6
JWW_DASHED2
 62
     7
370
     5
100
AcDbLine
 10
3311.56123187922
 20
-848.772366184064
 30
0.0
 11
3311.56123187922
 21
-2495.77534733006
 31
0.0
  0
LINE
  5
3B3
330
1F
100
AcDbEntity
  8
1-6_扉
  6
JWW_DASHED2
 62
     7
370
     5
100
AcDbLine
 10
3311.56123187922
 20
-2495.77534733006
 30
0.0
 11
3611.56123187922
 21
-2495.77534733006
 31
0.0
  0
ENDSEC
  0
SECTION
  2
OBJECTS
  0
DICTIONARY
  5
C
330
0
100
AcDbDictionary
281
     1
  3
ACAD_GROUP
350
D
  3
ACAD_LAYOUT
350
1A
  3
ACAD_MATERIAL
350
3B
  3
ACAD_MLEADERSTYLE
350
3B5
  3
ACAD_MLINESTYLE
350
17
  3
ACAD_PLOTSETTINGS
350
19
  3
ACAD_PLOTSTYLENAME
350
E
  3
ACAD_TABLESTYLE
350
3B4
  3
ACAD_VISUALSTYLE
350
2A
  0
DICTIONARY
  5
D
102
{ACAD_REACTORS
330
C
102
}
330
C
100
AcDbDictionary
281
     1
  0
DICTIONARY
  5
1A
102
{ACAD_REACTORS
330
C
102
}
330
C
100
AcDbDictionary
281
     1
  3
Layout1
350
1E
  3
Layout2
350
26
  3
Model
350
22
  0
DICTIONARY
  5
3B
102
{ACAD_REACTORS
330
C
102
}
330
C
100
AcDbDictionary
281
     1
  3
ByBlock
350
3D
  3
ByLayer
350
3C
  3
Global
350
3E
  0
DICTIONARY
  5
3B5
102
{ACAD_REACTORS
330
C
102
}
330
C
100
AcDbDictionary
281
     1
  0
DICTIONARY
  5
17
102
{ACAD_REACTORS
330
C
102
}
330
C
100
AcDbDictionary
281
     1
  3
Standard
350
18
  0
DICTIONARY
  5
19
102
{ACAD_REACTORS
330
C
102
}
330
C
100
AcDbDictionary
281
     1
  0
ACDBDICTIONARYWDFLT
  5
E
102
{ACAD_REACTORS
330
C
102
}
330
C
100
AcDbDictionary
281
     1
  3
Normal
350
F
100
AcDbDictionaryWithDefault
340
F
  0
DICTIONARY
  5
3B4
102
{ACAD_REACTORS
330
C
102
}
330
C
100
AcDbDictionary
281
     1
  0
DICTIONARY
  5
2A
102
{ACAD_REACTORS
330
C
102
}
330
C
100
AcDbDictionary
281
     1
  3
2dWireframe
350
2F
  3
3D Hidden
350
31
  3
3dWireframe
350
30
  3
Basic
350
32
  3
Brighten
350
36
  3
ColorChange
350
3A
  3
Conceptual
350
34
  3
Dim
350
35
  3
Facepattern
350
39
  3
Flat
350
2B
  3
FlatWithEdges
350
2C
  3
Gouraud
350
2D
  3
GouraudWithEdges
350
2E
  3
Linepattern
350
38
  3
Realistic
350
33
  3
Thicken
350
37
  0
LAYOUT
  5
1E
102
{ACAD_REACTORS
330
1A
102
}
330
1A
100
AcDbPlotSettings
  1

  2
none_device
  4

  6

 40
0.0
 41
0.0
 42
0.0
 43
0.0
 44
0.0
 45
0.0
 46
0.0
 47
0.0
 48
0.0
 49
0.0
140
0.0
141
0.0
142
1.0
143
1.0
 70
   688
 72
     0
 73
     0
 74
     5
  7

 75
    16
 76
     0
 77
     5
 78
   300
147
1.0
148
0.0
149
0.0
100
AcDbLayout
  1
Layout1
 70
     1
 71
     1
 10
0.0
 20
0.0
 11
420.0
 21
297.0
 12
0.0
 22
0.0
 32
0.0
 14
1.000000000000000E+20
 24
1.000000000000000E+20
 34
1.000000000000000E+20
 15
-1.000000000000000E+20
 25
-1.000000000000000E+20
 35
-1.000000000000000E+20
146
0.0
 13
0.0
 23
0.0
 33
0.0
 16
1.0
 26
0.0
 36
0.0
 17
0.0
 27
1.0
 37
0.0
 76
     0
330
1B
  0
LAYOUT
  5
26
102
{ACAD_REACTORS
330
1A
102
}
330
1A
100
AcDbPlotSettings
  1

  2
none_device
  4

  6

 40
0.0
 41
0.0
 42
0.0
 43
0.0
 44
0.0
 45
0.0
 46
0.0
 47
0.0
 48
0.0
 49
0.0
140
0.0
141
0.0
142
1.0
143
1.0
 70
   688
 72
     0
 73
     0
 74
     5
  7

 75
    16
 76
     0
 77
     5
 78
   300
147
1.0
148
0.0
149
0.0
100
AcDbLayout
  1
Layout2
 70
     1
 71
     2
 10
0.0
 20
0.0
 11
0.0
 21
0.0
 12
0.0
 22
0.0
 32
0.0
 14
0.0
 24
0.0
 34
0.0
 15
0.0
 25
0.0
 35
0.0
146
0.0
 13
0.0
 23
0.0
 33
0.0
 16
1.0
 26
0.0
 36
0.0
 17
0.0
 27
1.0
 37
0.0
 76
     0
330
23
  0
LAYOUT
  5
22
102
{ACAD_REACTORS
330
1A
102
}
330
1A
100
AcDbPlotSettings
  1

  2
none_device
  4

  6

 40
0.0
 41
0.0
 42
0.0
 43
0.0
 44
0.0
 45
0.0
 46
0.0
 47
0.0
 48
0.0
 49
0.0
140
0.0
141
0.0
142
1.0
143
1.0
 70
  1712
 72
     0
 73
     0
 74
     0
  7

 75
     0
 76
     0
 77
     5
 78
   300
147
1.0
148
0.0
149
0.0
100
AcDbLayout
  1
Model
 70
     1
 71
     0
 10
-6300.0
 20
-4455.0
 11
6300.0
 21
4455.0
 12
0.0
 22
0.0
 32
0.0
 14
-6300.0
 24
-4455.0
 34
0.0
 15
6300.0
 25
4455.0
 35
0.0
146
0.0
 13
0.0
 23
0.0
 33
0.0
 16
1.0
 26
0.0
 36
0.0
 17
0.0
 27
1.0
 37
0.0
 76
     0
330
1F
331
29
  0
MATERIAL
  5
3D
102
{ACAD_REACTORS
330
3B
102
}
330
3B
100
AcDbMaterial
  1
ByBlock
 72
     1
 94
      127
  0
MATERIAL
  5
3C
102
{ACAD_REACTORS
330
3B
102
}
330
3B
100
AcDbMaterial
  1
ByLayer
 72
     1
 94
      127
  0
MATERIAL
  5
3E
102
{ACAD_REACTORS
330
3B
102
}
330
3B
100
AcDbMaterial
  1
Global
 72
     1
 94
      127
  0
MLINESTYLE
  5
18
102
{ACAD_REACTORS
330
17
102
}
330
17
100
AcDbMlineStyle
  2
Standard
 70
     0
  3

 62
   256
 51
90.0
 52
90.0
 71
     2
 49
0.5
 62
   256
  6
BYLAYER
 49
-0.5
 62
   256
  6
BYLAYER
  0
ACDBPLACEHOLDER
  5
F
102
{ACAD_REACTORS
330
E
102
}
330
E
  0
VISUALSTYLE
  5
2F
102
{ACAD_REACTORS
330
2A
102
}
330
2A
100
AcDbVisualStyle
  2
2dWireframe
 70
     4
177
     2
291
     0
 71
     0
176
     1
 72
     2
176
     1
 73
     0
176
     1
 90
        0
176
     1
 40
-0.6
176
     1
 41
-30.0
176
     1
 62
     5
 63
     7
421
 16777215
176
     1
 74
     1
176
     1
 91
        4
176
     1
 64
     7
176
     1
 65
   257
176
     1
 75
     1
176
     1
175
     1
176
     1
 42
1.0
176
     1
 92
        0
176
     1
 66
   257
176
     1
 43
1.0
176
     1
 76
     1
176
     1
 77
     6
176
     1
 78
     2
176
     1
 67
     7
176
     1
 79
     5
176
     1
170
     0
176
     1
171
     0
176
     1
290
     0
176
     1
 93
        1
176
     1
 44
0.0
176
     1
173
     0
176
     1
  0
VISUALSTYLE
  5
31
102
{ACAD_REACTORS
330
2A
102
}
330
2A
100
AcDbVisualStyle
  2
3D Hidden
 70
     6
177
     2
291
     0
 71
     1
176
     1
 72
     2
176
     1
 73
     2
176
     1
 90
        0
176
     1
 40
-0.6
176
     1
 41
-30.0
176
     1
 62
     5
 63
     7
421
 16777215
176
     1
 74
     2
176
     1
 91
        2
176
     1
 64
     7
176
     1
 65
   257
176
     1
 75
     2
176
     1
175
     1
176
     1
 42
40.0
176
     1
 92
        0
176
     1
 66
   257
176
     1
 43
1.0
176
     1
 76
     1
176
     1
 77
     6
176
     1
 78
     2
176
     1
 67
     7
176
     1
 79
     3
176
     1
170
     0
176
     1
171
     0
176
     1
290
     0
176
     1
 93
        1
176
     1
 44
0.0
176
     1
173
     0
176
     1
  0
VISUALSTYLE
  5
30
102
{ACAD_REACTORS
330
2A
102
}
330
2A
100
AcDbVisualStyle
  2
3dWireframe
 70
     5
177
     2
291
     0
 71
     0
176
     1
 72
     2
176
     1
 73
     0
176
     1
 90
        0
176
     1
 40
-0.6
176
     1
 41
-30.0
176
     1
 62
     5
 63
     7
421
 16777215
176
     1
 74
     1
176
     1
 91
        4
176
     1
 64
     7
176
     1
 65
   257
176
     1
 75
     1
176
     1
175
     1
176
     1
 42
1.0
176
     1
 92
        0
176
     1
 66
   257
176
     1
 43
1.0
176
     1
 76
     1
176
     1
 77
     6
176
     1
 78
     2
176
     1
 67
     7
176
     1
 79
     5
176
     1
170
     0
176
     1
171
     0
176
     1
290
     0
176
     1
 93
        1
176
     1
 44
0.0
176
     1
173
     0
176
     1
  0
VISUALSTYLE
  5
32
102
{ACAD_REACTORS
330
2A
102
}
330
2A
100
AcDbVisualStyle
  2
Basic
 70
     7
177
     2
291
     1
 71
     1
176
     1
 72
     0
176
     1
 73
     1
176
     1
 90
        0
176
     1
 40
-0.6
176
     1
 41
-30.0
176
     1
 62
     5
 63
     7
421
 16777215
176
     1
 74
     0
176
     1
 91
        4
176
     1
 64
     7
176
     1
 65
   257
176
     1
 75
     1
176
     1
175
     1
176
     1
 42
1.0
176
     1
 92
        8
176
     1
 66
     7
176
     1
 43
1.0
176
     1
 76
     1
176
     1
 77
     6
176
     1
 78
     2
176
     1
 67
     7
176
     1
 79
     5
176
     1
170
     0
176
     1
171
     0
176
     1
290
     0
176
     1
 93
        1
176
     1
 44
0.0
176
     1
173
     0
176
     1
  0
VISUALSTYLE
  5
36
102
{ACAD_REACTORS
330
2A
102
}
330
2A
100
AcDbVisualStyle
  2
Brighten
 70
    12
177
     2
291
     1
 71
     2
176
     1
 72
     2
176
     1
 73
     0
176
     1
 90
        0
176
     1
 40
-0.6
176
     1
 41
-30.0
176
     1
 62
     5
 63
     7
421
 16777215
176
     1
 74
     1
176
     1
 91
        4
176
     1
 64
     7
176
     1
 65
   257
176
     1
 75
     1
176
     1
175
     1
176
     1
 42
1.0
176
     1
 92
        8
176
     1
 66
     7
176
     1
 43
1.0
176
     1
 76
     1
176
     1
 77
     6
176
     1
 78
     2
176
     1
 67
     7
176
     1
 79
     5
176
     1
170
     0
176
     1
171
     0
176
     1
290
     0
176
     1
 93
        1
176
     1
 44
50.0
176
     1
173
     0
176
     1
  0
VISUALSTYLE
  5
3A
102
{ACAD_REACTORS
330
2A
102
}
330
2A
100
AcDbVisualStyle
  2
ColorChange
 70
    16
177
     2
291
     1
 71
     2
176
     1
 72
     2
176
     1
 73
     3
176
     1
 90
        0
176
     1
 40
-0.6
176
     1
 41
-30.0
176
     1
 62
     5
 63
     8
421
  8421504
176
     1
 74
     1
176
     1
 91
        4
176
     1
 64
     7
176
     1
 65
   257
176
     1
 75
     1
176
     1
175
     1
176
     1
 42
1.0
176
     1
 92
        8
176
     1
 66
     8
424
  8421504
176
     1
 43
1.0
176
     1
 76
     1
176
     1
 77
     6
176
     1
 78
     2
176
     1
 67
     7
176
     1
 79
     5
176
     1
170
     0
176
     1
171
     0
176
     1
290
     0
176
     1
 93
        1
176
     1
 44
0.0
176
     1
173
     0
176
     1
  0
VISUALSTYLE
  5
34
102
{ACAD_REACTORS
330
2A
102
}
330
2A
100
AcDbVisualStyle
  2
Conceptual
 70
     9
177
     2
291
     0
 71
     3
176
     1
 72
     2
176
     1
 73
     0
176
     1
 90
        0
176
     1
 40
-0.6
176
     1
 41
-30.0
176
     1
 62
     5
 63
     7
421
 16777215
176
     1
 74
     2
176
     1
 91
        2
176
     1
 64
     7
176
     1
 65
   257
176
     1
 75
     1
176
     1
175
     1
176
     1
 42
40.0
176
     1
 92
        8
176
     1
 66
     7
176
     1
 43
1.0
176
     1
 76
     1
176
     1
 77
     6
176
     1
 78
     2
176
     1
 67
     7
176
     1
 79
     3
176
     1
170
     0
176
     1
171
     0
176
     1
290
     0
176
     1
 93
        1
176
     1
 44
0.0
176
     1
173
     0
176
     1
  0
VISUALSTYLE
  5
35
102
{ACAD_REACTORS
330
2A
102
}
330
2A
100
AcDbVisualStyle
  2
Dim
 70
    11
177
     2
291
     1
 71
     2
176
     1
 72
     2
176
     1
 73
     0
176
     1
 90
        0
176
     1
 40
-0.6
176
     1
 41
-30.0
176
     1
 62
     5
 63
     7
421
 16777215
176
     1
 74
     1
176
     1
 91
        4
176
     1
 64
     7
176
     1
 65
   257
176
     1
 75
     1
176
     1
175
     1
176
     1
 42
1.0
176
     1
 92
        8
176
     1
 66
     7
176
     1
 43
1.0
176
     1
 76
     1
176
     1
 77
     6
176
     1
 78
     2
176
     1
 67
     7
176
     1
 79
     5
176
     1
170
     0
176
     1
171
     0
176
     1
290
     0
176
     1
 93
        1
176
     1
 44
-50.0
176
     1
173
     0
176
     1
  0
VISUALSTYLE
  5
39
102
{ACAD_REACTORS
330
2A
102
}
330
2A
100
AcDbVisualStyle
  2
Facepattern
 70
    15
177
     2
291
     1
 71
     2
176
     1
 72
     2
176
     1
 73
     0
176
     1
 90
        0
176
     1
 40
-0.6
176
     1
 41
-30.0
176
     1
 62
     5
 63
     7
421
 16777215
176
     1
 74
     1
176
     1
 91
        4
176
     1
 64
     7
176
     1
 65
   257
176
     1
 75
     1
176
     1
175
     1
176
     1
 42
1.0
176
     1
 92
        8
176
     1
 66
     7
176
     1
 43
1.0
176
     1
 76
     1
176
     1
 77
     6
176
     1
 78
     2
176
     1
 67
     7
176
     1
 79
     5
176
     1
170
     0
176
     1
171
     0
176
     1
290
     0
176
     1
 93
        1
176
     1
 44
0.0
176
     1
173
     0
176
     1
  0
VISUALSTYLE
  5
2B
102
{ACAD_REACTORS
330
2A
102
}
330
2A
100
AcDbVisualStyle
  2
Flat
 70
     0
177
     2
291
     1
 71
     2
176
     1
 72
     1
176
     1
 73
     1
176
     1
 90
        2
176
     1
 40
-0.6
176
     1
 41
30.0
176
     1
 62
     5
 63
     7
421
 16777215
176
     1
 74
     0
176
     1
 91
        4
176
     1
 64
     7
176
     1
 65
   257
176
     1
 75
     1
176
     1
175
     1
176
     1
 42
1.0
176
     1
 92
        8
176
     1
 66
     7
176
     1
 43
1.0
176
     1
 76
     1
176
     1
 77
     6
176
     1
 78
     2
176
     1
 67
     7
176
     1
 79
     5
176
     1
170
     0
176
     1
171
     0
176
     1
290
     0
176
     1
 93
       13
176
     1
 44
0.0
176
     1
173
     0
176
     1
  0
VISUALSTYLE
  5
2C
102
{ACAD_REACTORS
330
2A
102
}
330
2A
100
AcDbVisualStyle
  2
FlatWithEdges
 70
     1
177
     2
291
     1
 71
     2
176
     1
 72
     1
176
     1
 73
     1
176
     1
 90
        2
176
     1
 40
-0.6
176
     1
 41
30.0
176
     1
 62
     5
 63
     7
421
 16777215
176
     1
 74
     1
176
     1
 91
        4
176
     1
 64
     7
176
     1
 65
   257
176
     1
 75
     1
176
     1
175
     1
176
     1
 42
1.0
176
     1
 92
        0
176
     1
 66
   257
176
     1
 43
1.0
176
     1
 76
     1
176
     1
 77
     6
176
     1
 78
     2
176
     1
 67
     7
176
     1
 79
     5
176
     1
170
     0
176
     1
171
     0
176
     1
290
     0
176
     1
 93
       13
176
     1
 44
0.0
176
     1
173
     0
176
     1
  0
VISUALSTYLE
  5
2D
102
{ACAD_REACTORS
330
2A
102
}
330
2A
100
AcDbVisualStyle
  2
Gouraud
 70
     2
177
     2
291
     1
 71
     2
176
     1
 72
     2
176
     1
 73
     1
176
     1
 90
        2
176
     1
 40
-0.6
176
     1
 41
30.0
176
     1
 62
     5
 63
     7
421
 16777215
176
     1
 74
     0
176
     1
 91
        4
176
     1
 64
     7
176
     1
 65
   257
176
     1
 75
     1
176
     1
175
     1
176
     1
 42
1.0
176
     1
 92
        0
176
     1
 66
     7
176
     1
 43
1.0
176
     1
 76
     1
176
     1
 77
     6
176
     1
 78
     2
176
     1
 67
     7
176
     1
 79
     5
176
     1
170
     0
176
     1
171
     0
176
     1
290
     0
176
     1
 93
       13
176
     1
 44
0.0
176
     1
173
     0
176
     1
  0
VISUALSTYLE
  5
2E
102
{ACAD_REACTORS
330
2A
102
}
330
2A
100
AcDbVisualStyle
  2
GouraudWithEdges
 70
     3
177
     2
291
     1
 71
     2
176
     1
 72
     2
176
     1
 73
     1
176
     1
 90
        2
176
     1
 40
-0.6
176
     1
 41
30.0
176
     1
 62
     5
 63
     7
421
 16777215
176
     1
 74
     1
176
     1
 91
        4
176
     1
 64
     7
176
     1
 65
   257
176
     1
 75
     1
176
     1
175
     1
176
     1
 42
1.0
176
     1
 92
        0
176
     1
 66
   257
176
     1
 43
1.0
176
     1
 76
     1
176
     1
 77
     6
176
     1
 78
     2
176
     1
 67
     7
176
     1
 79
     5
176
     1
170
     0
176
     1
171
     0
176
     1
290
     0
176
     1
 93
       13
176
     1
 44
0.0
176
     1
173
     0
176
     1
  0
VISUALSTYLE
  5
38
102
{ACAD_REACTORS
330
2A
102
}
330
2A
100
AcDbVisualStyle
  2
Linepattern
 70
    14
177
     2
291
     1
 71
     2
176
     1
 72
     2
176
     1
 73
     0
176
     1
 90
        0
176
     1
 40
-0.6
176
     1
 41
-30.0
176
     1
 62
     5
 63
     7
421
 16777215
176
     1
 74
     1
176
     1
 91
        4
176
     1
 64
     7
176
     1
 65
   257
176
     1
 75
     7
176
     1
175
     7
176
     1
 42
1.0
176
     1
 92
        8
176
     1
 66
     7
176
     1
 43
1.0
176
     1
 76
     1
176
     1
 77
     6
176
     1
 78
     2
176
     1
 67
     7
176
     1
 79
     5
176
     1
170
     0
176
     1
171
     0
176
     1
290
     0
176
     1
 93
        1
176
     1
 44
0.0
176
     1
173
     0
176
     1
  0
VISUALSTYLE
  5
33
102
{ACAD_REACTORS
330
2A
102
}
330
2A
100
AcDbVisualStyle
  2
Realistic
 70
     8
177
     2
291
     0
 71
     2
176
     1
 72
     2
176
     1
 73
     0
176
     1
 90
        0
176
     1
 40
-0.6
176
     1
 41
-30.0
176
     1
 62
     5
 63
     7
421
 16777215
176
     1
 74
     1
176
     1
 91
        0
176
     1
 64
     7
176
     1
 65
   257
176
     1
 75
     1
176
     1
175
     1
176
     1
 42
1.0
176
     1
 92
        8
176
     1
 66
     8
424
  7895160
176
     1
 43
1.0
176
     1
 76
     1
176
     1
 77
     6
176
     1
 78
     2
176
     1
 67
     7
176
     1
 79
     5
176
     1
170
     0
176
     1
171
     0
176
     1
290
     0
176
     1
 93
       13
176
     1
 44
0.0
176
     1
173
     0
176
     1
  0
VISUALSTYLE
  5
37
102
{ACAD_REACTORS
330
2A
102
}
330
2A
100
AcDbVisualStyle
  2
Thicken
 70
    13
177
     2
291
     1
 71
     2
176
     1
 72
     2
176
     1
 73
     0
176
     1
 90
        0
176
     1
 40
-0.6
176
     1
 41
-30.0
176
     1
 62
     5
 63
     7
421
 16777215
176
     1
 74
     1
176
     1
 91
        4
176
     1
 64
     7
176
     1
 65
   257
176
     1
 75
     1
176
     1
175
     1
176
     1
 42
1.0
176
     1
 92
       12
176
     1
 66
     7
176
     1
 43
1.0
176
     1
 76
     1
176
     1
 77
     6
176
     1
 78
     2
176
     1
 67
     7
176
     1
 79
     5
176
     1
170
     0
176
     1
171
     0
176
     1
290
     0
176
     1
 93
        1
176
     1
 44
0.0
176
     1
173
     0
176
     1
  0
ENDSEC
  0
EOF
