  0
SECTION
  2
HEADER
  9
$ACADVER
  1
AC1024
  9
$ACADMAINTVER
 70
     6
  9
$DWGCODEPAGE
  3
ANSI_932
  9
$INSBASE
 10
0.0
 20
0.0
 30
0.0
  9
$EXTMIN
 10
-6300.0
 20
-4455.0
 30
0.0
  9
$EXTMAX
 10
6300.0
 20
4455.0
 30
0.0
  9
$LIMMIN
 10
-6300.0
 20
-4455.0
  9
$LIMMAX
 10
6300.0
 20
4455.0
  9
$ORTHOMODE
 70
     0
  9
$REGENMODE
 70
     1
  9
$FILLMODE
 70
     1
  9
$QTEXTMODE
 70
     0
  9
$MIRRTEXT
 70
     1
  9
$LTSCALE
 40
30.0
  9
$ATTMODE
 70
     1
  9
$TEXTSIZE
 40
2.5
  9
$TRACEWID
 40
1.0
  9
$TEXTSTYLE
  7
Standard
  9
$CLAYER
  8
0
  9
$CELTYPE
  6
ByLayer
  9
$CECOLOR
 62
   256
  9
$CELTSCALE
 40
1.0
  9
$DISPSILH
 70
     0
  9
$DIMSCALE
 40
1.0
  9
$DIMASZ
 40
2.5
  9
$DIMEXO
 40
0.625
  9
$DIMDLI
 40
3.75
  9
$DIMRND
 40
0.0
  9
$DIMDLE
 40
0.0
  9
$DIMEXE
 40
1.25
  9
$DIMTP
 40
0.0
  9
$DIMTM
 40
0.0
  9
$DIMTXT
 40
2.5
  9
$DIMCEN
 40
2.5
  9
$DIMTSZ
 40
0.0
  9
$DIMTOL
 70
     0
  9
$DIMLIM
 70
     0
  9
$DIMTIH
 70
     0
  9
$DIMTOH
 70
     0
  9
$DIMSE1
 70
     0
  9
$DIMSE2
 70
     0
  9
$DIMTAD
 70
     1
  9
$DIMZIN
 70
     8
  9
$DIMBLK
  1

  9
$DIMASO
 70
     1
  9
$DIMSHO
 70
     1
  9
$DIMPOST
  1

  9
$DIMAPOST
  1

  9
$DIMALT
 70
     0
  9
$DIMALTD
 70
     3
  9
$DIMALTF
 40
0.03937007874016
  9
$DIMLFAC
 40
1.0
  9
$DIMTOFL
 70
     1
  9
$DIMTVP
 40
0.0
  9
$DIMTIX
 70
     0
  9
$DIMSOXD
 70
     0
  9
$DIMSAH
 70
     0
  9
$DIMBLK1
  1

  9
$DIMBLK2
  1

  9
$DIMSTYLE
  2
ISO-25
  9
$DIMCLRD
 70
     0
  9
$DIMCLRE
 70
     0
  9
$DIMCLRT
 70
     0
  9
$DIMTFAC
 40
1.0
  9
$DIMGAP
 40
0.625
  9
$DIMJUST
 70
     0
  9
$DIMSD1
 70
     0
  9
$DIMSD2
 70
     0
  9
$DIMTOLJ
 70
     0
  9
$DIMTZIN
 70
     8
  9
$DIMALTZ
 70
     0
  9
$DIMALTTZ
 70
     0
  9
$DIMUPT
 70
     0
  9
$DIMDEC
 70
     2
  9
$DIMTDEC
 70
     2
  9
$DIMALTU
 70
     2
  9
$DIMALTTD
 70
     3
  9
$DIMTXSTY
  7
Standard
  9
$DIMAUNIT
 70
     0
  9
$DIMADEC
 70
     0
  9
$DIMALTRND
 40
0.0
  9
$DIMAZIN
 70
     0
  9
$DIMDSEP
 70
    44
  9
$DIMATFIT
 70
     3
  9
$DIMFRAC
 70
     0
  9
$DIMLDRBLK
  1

  9
$DIMLUNIT
 70
     2
  9
$DIMLWD
 70
    -2
  9
$DIMLWE
 70
    -2
  9
$DIMTMOVE
 70
     0
  9
$DIMFXL
 40
1.0
  9
$DIMFXLON
 70
     0
  9
$DIMJOGANG
 40
0.7853981633974483
  9
$DIMTFILL
 70
     0
  9
$DIMTFILLCLR
 70
     0
  9
$DIMARCSYM
 70
     0
  9
$DIMLTYPE
  6

  9
$DIMLTEX1
  6

  9
$DIMLTEX2
  6

  9
$DIMTXTDIRECTION
 70
     0
  9
$LUNITS
 70
     2
  9
$LUPREC
 70
     4
  9
$SKETCHINC
 40
1.0
  9
$FILLETRAD
 40
10.0
  9
$AUNITS
 70
     0
  9
$AUPREC
 70
     0
  9
$MENU
  1
.
  9
$ELEVATION
 40
0.0
  9
$PELEVATION
 40
0.0
  9
$THICKNESS
 40
0.0
  9
$LIMCHECK
 70
     0
  9
$CHAMFERA
 40
10.0
  9
$CHAMFERB
 40
10.0
  9
$CHAMFERC
 40
20.0
  9
$CHAMFERD
 40
0.0
  9
$SKPOLY
 70
     0
  9
$TDCREATE
 40
2460327.685051053
  9
$TDUCREATE
 40
2460327.310051053
  9
$TDUPDATE
 40
2460327.685051065
  9
$TDUUPDATE
 40
2460327.310051065
  9
$TDINDWG
 40
0.0000000116
  9
$TDUSRTIMER
 40
0.0000000116
  9
$USRTIMER
 70
     1
  9
$ANGBASE
 50
0.0
  9
$ANGDIR
 70
     0
  9
$PDMODE
 70
     0
  9
$PDSIZE
 40
0.0
  9
$PLINEWID
 40
0.0
  9
$SPLFRAME
 70
     0
  9
$SPLINETYPE
 70
     6
  9
$SPLINESEGS
 70
     8
  9
$HANDSEED
  5
43C
  9
$SURFTAB1
 70
     6
  9
$SURFTAB2
 70
     6
  9
$SURFTYPE
 70
     6
  9
$SURFU
 70
     6
  9
$SURFV
 70
     6
  9
$UCSBASE
  2

  9
$UCSNAME
  2

  9
$UCSORG
 10
0.0
 20
0.0
 30
0.0
  9
$UCSXDIR
 10
1.0
 20
0.0
 30
0.0
  9
$UCSYDIR
 10
0.0
 20
1.0
 30
0.0
  9
$UCSORTHOREF
  2

  9
$UCSORTHOVIEW
 70
     0
  9
$UCSORGTOP
 10
0.0
 20
0.0
 30
0.0
  9
$UCSORGBOTTOM
 10
0.0
 20
0.0
 30
0.0
  9
$UCSORGLEFT
 10
0.0
 20
0.0
 30
0.0
  9
$UCSORGRIGHT
 10
0.0
 20
0.0
 30
0.0
  9
$UCSORGFRONT
 10
0.0
 20
0.0
 30
0.0
  9
$UCSORGBACK
 10
0.0
 20
0.0
 30
0.0
  9
$PUCSBASE
  2

  9
$PUCSNAME
  2

  9
$PUCSORG
 10
0.0
 20
0.0
 30
0.0
  9
$PUCSXDIR
 10
1.0
 20
0.0
 30
0.0
  9
$PUCSYDIR
 10
0.0
 20
1.0
 30
0.0
  9
$PUCSORTHOREF
  2

  9
$PUCSORTHOVIEW
 70
     0
  9
$PUCSORGTOP
 10
0.0
 20
0.0
 30
0.0
  9
$PUCSORGBOTTOM
 10
0.0
 20
0.0
 30
0.0
  9
$PUCSORGLEFT
 10
0.0
 20
0.0
 30
0.0
  9
$PUCSORGRIGHT
 10
0.0
 20
0.0
 30
0.0
  9
$PUCSORGFRONT
 10
0.0
 20
0.0
 30
0.0
  9
$PUCSORGBACK
 10
0.0
 20
0.0
 30
0.0
  9
$USERI1
 70
     0
  9
$USERI2
 70
     0
  9
$USERI3
 70
     0
  9
$USERI4
 70
     0
  9
$USERI5
 70
     0
  9
$USERR1
 40
0.0
  9
$USERR2
 40
0.0
  9
$USERR3
 40
0.0
  9
$USERR4
 40
0.0
  9
$USERR5
 40
0.0
  9
$WORLDVIEW
 70
     1
  9
$SHADEDGE
 70
     3
  9
$SHADEDIF
 70
    70
  9
$TILEMODE
 70
     1
  9
$MAXACTVP
 70
    64
  9
$PINSBASE
 10
0.0
 20
0.0
 30
0.0
  9
$PLIMCHECK
 70
     0
  9
$PEXTMIN
 10
1.000000000000000E+20
 20
1.000000000000000E+20
 30
1.000000000000000E+20
  9
$PEXTMAX
 10
-1.000000000000000E+20
 20
-1.000000000000000E+20
 30
-1.000000000000000E+20
  9
$PLIMMIN
 10
0.0
 20
0.0
  9
$PLIMMAX
 10
420.0
 20
297.0
  9
$UNITMODE
 70
     0
  9
$VISRETAIN
 70
     1
  9
$PLINEGEN
 70
     0
  9
$PSLTSCALE
 70
     1
  9
$TREEDEPTH
 70
  3020
  9
$CMLSTYLE
  2
Standard
  9
$CMLJUST
 70
     0
  9
$CMLSCALE
 40
20.0
  9
$PROXYGRAPHICS
 70
     1
  9
$MEASUREMENT
 70
     1
  9
$CELWEIGHT
370
    -1
  9
$ENDCAPS
280
     0
  9
$JOINSTYLE
280
     0
  9
$LWDISPLAY
290
     0
  9
$INSUNITS
 70
     4
  9
$HYPERLINKBASE
  1

  9
$STYLESHEET
  1

  9
$XEDIT
290
     1
  9
$CEPSNTYPE
380
     0
  9
$PSTYLEMODE
290
     1
  9
$FINGERPRINTGUID
  2
{D8B881FF-EA8E-4E1D-B6FE-8F8A74419DBC}
  9
$VERSIONGUID
  2
{FAEB1C32-E019-11D5-929B-00C0DF256EC4}
  9
$EXTNAMES
290
     1
  9
$PSVPSCALE
 40
0.0
  9
$OLESTARTUP
290
     0
  9
$SORTENTS
280
   127
  9
$INDEXCTL
280
     0
  9
$HIDETEXT
280
     1
  9
$XCLIPFRAME
280
     2
  9
$HALOGAP
280
     0
  9
$OBSCOLOR
 70
   257
  9
$OBSLTYPE
280
     0
  9
$INTERSECTIONDISPLAY
280
     0
  9
$INTERSECTIONCOLOR
 70
   257
  9
$DIMASSOC
280
     2
  9
$PROJECTNAME
  1

  9
$CAMERADISPLAY
290
     0
  9
$LENSLENGTH
 40
50.0
  9
$CAMERAHEIGHT
 40
0.0
  9
$STEPSPERSEC
 40
2.0
  9
$STEPSIZE
 40
6.0
  9
$3DDWFPREC
 40
2.0
  9
$PSOLWIDTH
 40
5.0
  9
$PSOLHEIGHT
 40
80.0
  9
$LOFTANG1
 40
1.570796326794897
  9
$LOFTANG2
 40
1.570796326794897
  9
$LOFTMAG1
 40
0.0
  9
$LOFTMAG2
 40
0.0
  9
$LOFTPARAM
 70
     7
  9
$LOFTNORMALS
280
     1
  9
$LATITUDE
 40
37.795
  9
$LONGITUDE
 40
-122.394
  9
$NORTHDIRECTION
 40
0.0
  9
$TIMEZONE
 70
 -8000
  9
$LIGHTGLYPHDISPLAY
280
     1
  9
$TILEMODELIGHTSYNCH
280
     1
  9
$SOLIDHIST
280
     1
  9
$SHOWHIST
280
     1
  9
$DWFFRAME
280
     2
  9
$DGNFRAME
280
     2
  9
$REALWORLDSCALE
290
     1
  9
$INTERFERECOLOR
 62
   256
  9
$CSHADOW
280
     0
  9
$SHADOWPLANELOCATION
 40
0.0
  0
ENDSEC
  0
SECTION
  2
CLASSES
  0
CLASS
  1
ACDBDICTIONARYWDFLT
  2
AcDbDictionaryWithDefault
  3
ObjectDBX Classes
 90
        0
 91
        4
280
     0
281
     0
  0
CLASS
  1
VISUALSTYLE
  2
AcDbVisualStyle
  3
ObjectDBX Classes
 90
     4095
 91
        4
280
     0
281
     0
  0
CLASS
  1
MATERIAL
  2
AcDbMaterial
  3
ObjectDBX Classes
 90
     1153
 91
        4
280
     0
281
     0
  0
ENDSEC
  0
SECTION
  2
TABLES
  0
TABLE
  2
VPORT
  5
8
330
0
100
AcDbSymbolTable
 70
     1
  0
VPORT
  5
29
330
8
100
AcDbSymbolTableRecord
100
AcDbViewportTableRecord
  2
*Active
 70
     0
 10
0.0
 20
0.0
 11
1.0
 21
1.0
 12
0.0
 22
0.0
 13
0.0
 23
0.0
 14
10.0
 24
10.0
 15
10.0
 25
10.0
 16
0.0
 26
0.0
 36
1.0
 17
0.0
 27
0.0
 37
0.0
 40
9801.0
 41
1.414141414141414
 42
50.0
 43
0.0
 44
0.0
 50
0.0
 51
0.0
 71
     0
 72
 10000
 73
     1
 74
     3
 75
     0
 76
     0
 77
     0
 78
     0
281
     0
 65
     1
110
0.0
120
0.0
130
0.0
111
1.0
121
0.0
131
0.0
112
0.0
122
1.0
132
0.0
 79
     0
146
0.0
 60
     3
 61
     5
292
     1
282
     1
141
0.0
142
0.0
 63
   250
  0
ENDTAB
  0
TABLE
  2
LTYPE
  5
5
330
0
100
AcDbSymbolTable
 70
     5
  0
LTYPE
  5
14
330
5
100
AcDbSymbolTableRecord
100
AcDbLinetypeTableRecord
  2
ByBlock
 70
     0
  3

 72
    65
 73
     0
 40
0.0
  0
LTYPE
  5
15
330
5
100
AcDbSymbolTableRecord
100
AcDbLinetypeTableRecord
  2
ByLayer
 70
     0
  3

 72
    65
 73
     0
 40
0.0
  0
LTYPE
  5
16
330
5
100
AcDbSymbolTableRecord
100
AcDbLinetypeTableRecord
  2
Continuous
 70
     0
  3
Solid line
 72
    65
 73
     0
 40
0.0
  0
LTYPE
  5
3F
330
5
100
AcDbSymbolTableRecord
100
AcDbLinetypeTableRecord
  2
JWW_HOJO
 70
     0
  3
  -   -   -   -   -   -   -   - 
 72
    65
 73
     2
 40
1.693333333333333
 49
-1.27
 74
     0
 49
0.4233333333333333
 74
     0
  0
LTYPE
  5
40
330
5
100
AcDbSymbolTableRecord
100
AcDbLinetypeTableRecord
  2
JWW_DASHED2
 70
     0
  3
--    ----    ----    ----    --
 72
    65
 73
     2
 40
3.386666666666667
 49
1.693333333333333
 74
     0
 49
-1.693333333333333
 74
     0
  0
LTYPE
  5
41
330
5
100
AcDbSymbolTableRecord
100
AcDbLinetypeTableRecord
  2
JWW_CENTER1
 70
     0
  3
-----  --  ----------  --  -----
 72
    65
 73
     4
 40
6.773333333333333
 49
4.233333333333333
 74
     0
 49
-0.8466666666666667
 74
     0
 49
0.8466666666666667
 74
     0
 49
-0.8466666666666667
 74
     0
  0
LTYPE
  5
42
330
5
100
AcDbSymbolTableRecord
100
AcDbLinetypeTableRecord
  2
JWW_DASHED1
 70
     0
  3
-  --  --  --  --  --  --  --  -
 72
    65
 73
     2
 40
1.693333333333333
 49
0.8466666666666667
 74
     0
 49
-0.8466666666666667
 74
     0
  0
ENDTAB
  0
TABLE
  2
LAYER
  5
2
330
0
100
AcDbSymbolTable
 70
    23
  0
LAYER
  5
10
330
2
100
AcDbSymbolTableRecord
100
AcDbLayerTableRecord
  2
0
 70
     0
 62
     7
  6
Continuous
370
    -3
390
F
347
3E
  0
LAYER
  5
43
330
2
100
AcDbSymbolTableRecord
100
AcDbLayerTableRecord
  2
F-0_補助線
 70
     0
 62
     7
  6
Continuous
370
    -3
390
F
347
3E
  0
LAYER
  5
44
330
2
100
AcDbSymbolTableRecord
100
AcDbLayerTableRecord
  2
F-1_枠
 70
     0
 62
     7
  6
Continuous
370
    -3
390
F
347
3E
  0
LAYER
  5
45
330
2
100
AcDbSymbolTableRecord
100
AcDbLayerTableRecord
  2
F-A_文字
 70
     0
 62
     7
  6
Continuous
370
    -3
390
F
347
3E
  0
LAYER
  5
46
330
2
100
AcDbSymbolTableRecord
100
AcDbLayerTableRecord
  2
0-A_文字
 70
     0
 62
     7
  6
Continuous
370
    -3
390
F
347
3E
  0
LAYER
  5
47
330
2
100
AcDbSymbolTableRecord
100
AcDbLayerTableRecord
  2
戸当り
 70
     0
 62
     7
  6
Continuous
370
    -3
390
F
347
3E
  0
LAYER
  5
48
330
2
100
AcDbSymbolTableRecord
100
AcDbLayerTableRecord
  2
0-0_補助線
 70
     0
 62
     7
  6
Continuous
370
    -3
390
F
347
3E
  0
LAYER
  5
49
330
2
100
AcDbSymbolTableRecord
100
AcDbLayerTableRecord
  2
0-1_通り芯
 70
     0
 62
     7
  6
Continuous
370
    -3
390
F
347
3E
  0
LAYER
  5
4A
330
2
100
AcDbSymbolTableRecord
100
AcDbLayerTableRecord
  2
0-C_ハッチ
 70
     0
 62
     7
  6
Continuous
370
    -3
390
F
347
3E
  0
LAYER
  5
4B
330
2
100
AcDbSymbolTableRecord
100
AcDbLayerTableRecord
  2
0-4_枠
 70
     0
 62
     7
  6
Continuous
370
    -3
390
F
347
3E
  0
LAYER
  5
4C
330
2
100
AcDbSymbolTableRecord
100
AcDbLayerTableRecord
  2
0-7_金物
 70
     0
 62
     7
  6
Continuous
370
    -3
390
F
347
3E
  0
LAYER
  5
4D
330
2
100
AcDbSymbolTableRecord
100
AcDbLayerTableRecord
  2
0-3_仕上げ
 70
     0
 62
     7
  6
Continuous
370
    -3
390
F
347
3E
  0
LAYER
  5
4E
330
2
100
AcDbSymbolTableRecord
100
AcDbLayerTableRecord
  2
0-B_寸法
 70
     0
 62
     7
  6
Continuous
370
    -3
390
F
347
3E
  0
LAYER
  5
4F
330
2
100
AcDbSymbolTableRecord
100
AcDbLayerTableRecord
  2
0-6_扉
 70
     0
 62
     7
  6
Continuous
370
    -3
390
F
347
3E
  0
LAYER
  5
50
330
2
100
AcDbSymbolTableRecord
100
AcDbLayerTableRecord
  2
2-4_枠
 70
     0
 62
     7
  6
Continuous
370
    -3
390
F
347
3E
  0
LAYER
  5
51
330
2
100
AcDbSymbolTableRecord
100
AcDbLayerTableRecord
  2
2-B_寸法
 70
     0
 62
     7
  6
Continuous
370
    -3
390
F
347
3E
  0
LAYER
  5
52
330
2
100
AcDbSymbolTableRecord
100
AcDbLayerTableRecord
  2
2-0_補助線
 70
     0
 62
     7
  6
Continuous
370
    -3
390
F
347
3E
  0
LAYER
  5
53
330
2
100
AcDbSymbolTableRecord
100
AcDbLayerTableRecord
  2
1-A_文字
 70
     0
 62
     7
  6
Continuous
370
    -3
390
F
347
3E
  0
LAYER
  5
54
330
2
100
AcDbSymbolTableRecord
100
AcDbLayerTableRecord
  2
1-3_仕上げ
 70
     0
 62
     7
  6
Continuous
370
    -3
390
F
347
3E
  0
LAYER
  5
55
330
2
100
AcDbSymbolTableRecord
100
AcDbLayerTableRecord
  2
1-0_補助線
 70
     0
 62
     7
  6
Continuous
370
    -3
390
F
347
3E
  0
LAYER
  5
56
330
2
100
AcDbSymbolTableRecord
100
AcDbLayerTableRecord
  2
1-B_寸法
 70
     0
 62
     7
  6
Continuous
370
    -3
390
F
347
3E
  0
LAYER
  5
57
330
2
100
AcDbSymbolTableRecord
100
AcDbLayerTableRecord
  2
1-C_ハッチ
 70
     0
 62
     7
  6
Continuous
370
    -3
390
F
347
3E
  0
LAYER
  5
58
330
2
100
AcDbSymbolTableRecord
100
AcDbLayerTableRecord
  2
1-7_金物
 70
     0
 62
     7
  6
Continuous
370
    -3
390
F
347
3E
  0
ENDTAB
  0
TABLE
  2
STYLE
  5
3
330
0
100
AcDbSymbolTable
 70
     1
  0
STYLE
  5
11
330
3
100
AcDbSymbolTableRecord
100
AcDbTextStyleTableRecord
  2
Standard
 70
     0
 40
0.0
 41
1.0
 50
0.0
 71
     0
 42
2.5
  3
txt
  4

  0
ENDTAB
  0
TABLE
  2
VIEW
  5
6
330
0
100
AcDbSymbolTable
 70
     0
  0
ENDTAB
  0
TABLE
  2
UCS
  5
7
330
0
100
AcDbSymbolTable
 70
     0
  0
ENDTAB
  0
TABLE
  2
APPID
  5
9
330
0
100
AcDbSymbolTable
 70
     1
  0
APPID
  5
12
330
9
100
AcDbSymbolTableRecord
100
AcDbRegAppTableRecord
  2
ACAD
 70
     0
  0
ENDTAB
  0
TABLE
  2
DIMSTYLE
  5
A
330
0
100
AcDbSymbolTable
 70
     1
100
AcDbDimStyleTable
  0
DIMSTYLE
105
27
330
A
100
AcDbSymbolTableRecord
100
AcDbDimStyleTableRecord
  2
ISO-25
 70
     0
 41
2.5
 42
0.625
 43
3.75
 44
1.25
 73
     0
 74
     0
 77
     1
 78
     8
140
2.5
141
2.5
143
0.03937007874016
147
0.625
171
     3
172
     1
178
     0
271
     2
272
     2
274
     3
278
    44
283
     0
284
     8
340
11
  0
ENDTAB
  0
TABLE
  2
BLOCK_RECORD
  5
1
330
0
100
AcDbSymbolTable
 70
     2
  0
BLOCK_RECORD
  5
1F
330
1
100
AcDbSymbolTableRecord
100
AcDbBlockTableRecord
  2
*Model_Space
340
22
 70
     0
280
     1
281
     0
  0
BLOCK_RECORD
  5
1B
330
1
100
AcDbSymbolTableRecord
100
AcDbBlockTableRecord
  2
*Paper_Space
340
1E
 70
     0
280
     1
281
     0
  0
BLOCK_RECORD
  5
23
330
1
100
AcDbSymbolTableRecord
100
AcDbBlockTableRecord
  2
*Paper_Space0
340
26
 70
     0
280
     1
281
     0
  0
BLOCK_RECORD
  5
59
330
1
100
AcDbSymbolTableRecord
100
AcDbBlockTableRecord
  2
01@@SfigorgFlag@@4
340
0
102
{BLKREFS
331
38B
102
}
 70
     0
280
     1
281
     0
  0
ENDTAB
  0
ENDSEC
  0
SECTION
  2
BLOCKS
  0
BLOCK
  5
20
330
1F
100
AcDbEntity
  8
0
100
AcDbBlockBegin
  2
*Model_Space
 70
     0
 10
0.0
 20
0.0
 30
0.0
  3
*Model_Space
  1

  0
ENDBLK
  5
21
330
1F
100
AcDbEntity
  8
0
100
AcDbBlockEnd
  0
BLOCK
  5
1C
330
1B
100
AcDbEntity
 67
     1
  8
0
100
AcDbBlockBegin
  2
*Paper_Space
 70
     0
 10
0.0
 20
0.0
 30
0.0
  3
*Paper_Space
  1

  0
ENDBLK
  5
1D
330
1B
100
AcDbEntity
 67
     1
  8
0
100
AcDbBlockEnd
  0
BLOCK
  5
24
330
23
100
AcDbEntity
  8
0
100
AcDbBlockBegin
  2
*Paper_Space0
 70
     0
 10
0.0
 20
0.0
 30
0.0
  3
*Paper_Space0
  1

  0
ENDBLK
  5
25
330
23
100
AcDbEntity
  8
0
100
AcDbBlockEnd
  0
BLOCK
  5
5A
330
59
100
AcDbEntity
  8
0
100
AcDbBlockBegin
  2
01@@SfigorgFlag@@4
 70
     0
 10
0.0
 20
0.0
 30
0.0
  3
01@@SfigorgFlag@@4
  1

  0
LINE
  5
413
330
59
100
AcDbEntity
  8
0-0_補助線
  6
Continuous
 62
     7
370
     5
100
AcDbLine
 10
-4.25
 20
-1.491025641025665
 30
0.0
 11
-3.25
 21
-1.491025641025665
 31
0.0
  0
LINE
  5
414
330
59
100
AcDbEntity
  8
0-0_補助線
  6
Continuous
 62
     7
370
     5
100
AcDbLine
 10
-2.75
 20
-1.491025641025665
 30
0.0
 11
-0.1500000000000909
 21
-1.491025641025665
 31
0.0
  0
LINE
  5
415
330
59
100
AcDbEntity
  8
0-0_補助線
  6
Continuous
 62
     7
370
     5
100
AcDbLine
 10
-0.1500000000000909
 20
-1.491025641025665
 30
0.0
 11
0.0
 21
-1.641025641025642
 31
0.0
  0
LINE
  5
416
330
59
100
AcDbEntity
  8
0-0_補助線
  6
Continuous
 62
     7
370
     5
100
AcDbLine
 10
0.0
 20
-1.641025641025642
 30
0.0
 11
0.1500000000000909
 21
-1.491025641025665
 31
0.0
  0
LINE
  5
417
330
59
100
AcDbEntity
  8
0-0_補助線
  6
Continuous
 62
     7
370
     5
100
AcDbLine
 10
0.1500000000000909
 20
-1.491025641025665
 30
0.0
 11
2.75
 21
-1.491025641025665
 31
0.0
  0
LINE
  5
418
330
59
100
AcDbEntity
  8
0-0_補助線
  6
Continuous
 62
     7
370
     5
100
AcDbLine
 10
3.25
 20
-1.491025641025665
 30
0.0
 11
4.25
 21
-1.491025641025665
 31
0.0
  0
LINE
  5
419
330
59
100
AcDbEntity
  8
0-0_補助線
  6
Continuous
 62
     7
370
     5
100
AcDbLine
 10
7.849999999999909
 20
1.408974358974312
 30
0.0
 11
4.849999999999909
 21
1.408974358974312
 31
0.0
  0
LINE
  5
41A
330
59
100
AcDbEntity
  8
0-0_補助線
  6
Continuous
 62
     7
370
     5
100
AcDbLine
 10
-4.849999999999909
 20
1.408974358974312
 30
0.0
 11
-7.849999999999909
 21
1.408974358974312
 31
0.0
  0
LINE
  5
41B
330
59
100
AcDbEntity
  8
0-0_補助線
  6
Continuous
 62
     7
370
     5
100
AcDbLine
 10
-4.849999999999909
 20
2.008974358974335
 30
0.0
 11
-7.849999999999909
 21
1.70897435897438
 31
0.0
  0
ARC
  5
41C
330
59
100
AcDbEntity
  8
0-0_補助線
  6
Continuous
 62
     7
370
     5
100
AcDbCircle
 10
-7.849999999999909
 20
1.558974358974403
 30
0.0
 40
0.15
100
AcDbArc
 50
90.0
 51
270.0
  0
ARC
  5
41D
330
59
100
AcDbEntity
  8
0-0_補助線
  6
Continuous
 62
     7
370
     5
100
AcDbCircle
 10
7.849999999999909
 20
1.558974358974403
 30
0.0
 40
0.15
100
AcDbArc
 50
270.0
 51
89.99999999999997
  0
LINE
  5
41E
330
59
100
AcDbEntity
  8
0-0_補助線
  6
Continuous
 62
     7
370
     5
100
AcDbLine
 10
7.849999999999909
 20
1.70897435897438
 30
0.0
 11
4.849999999999909
 21
2.008974358974335
 31
0.0
  0
LINE
  5
41F
330
59
100
AcDbEntity
  8
0-0_補助線
  6
Continuous
 62
     7
370
     5
100
AcDbLine
 10
-3.050000000000182
 20
2.008974358974335
 30
0.0
 11
-4.849999999999909
 21
2.008974358974335
 31
0.0
  0
ARC
  5
420
330
59
100
AcDbEntity
  8
0-0_補助線
  6
Continuous
 62
     7
370
     5
100
AcDbCircle
 10
-3.050000000000182
 20
1.70897435897438
 30
0.0
 40
0.3
100
AcDbArc
 50
0.0
 51
90.0
  0
ARC
  5
421
330
59
100
AcDbEntity
  8
0-0_補助線
  6
Continuous
 62
     7
370
     5
100
AcDbCircle
 10
-3.050000000000182
 20
1.70897435897438
 30
0.0
 40
0.3
100
AcDbArc
 50
270.0
 51
0.0
  0
ARC
  5
422
330
59
100
AcDbEntity
  8
0-0_補助線
  6
Continuous
 62
     7
370
     5
100
AcDbCircle
 10
3.050000000000182
 20
1.70897435897438
 30
0.0
 40
0.3
100
AcDbArc
 50
180.0
 51
270.0
  0
LINE
  5
423
330
59
100
AcDbEntity
  8
0-0_補助線
  6
Continuous
 62
     7
370
     5
100
AcDbLine
 10
3.050000000000182
 20
2.008974358974335
 30
0.0
 11
4.849999999999909
 21
2.008974358974335
 31
0.0
  0
ARC
  5
424
330
59
100
AcDbEntity
  8
0-0_補助線
  6
Continuous
 62
     7
370
     5
100
AcDbCircle
 10
3.050000000000182
 20
1.70897435897438
 30
0.0
 40
0.3
100
AcDbArc
 50
90.0
 51
180.0
  0
LINE
  5
425
330
59
100
AcDbEntity
  8
0-0_補助線
  6
Continuous
 62
     7
370
     5
100
AcDbLine
 10
4.849999999999909
 20
-1.341025641025688
 30
0.0
 11
4.849999999999909
 21
1.408974358974312
 31
0.0
  0
ARC
  5
426
330
59
100
AcDbEntity
  8
0-0_補助線
  6
Continuous
 62
     7
370
     5
100
AcDbCircle
 10
4.099999999999909
 20
-1.341025641025688
 30
0.0
 40
0.75
100
AcDbArc
 50
270.0
 51
0.0
  0
LINE
  5
427
330
59
100
AcDbEntity
  8
0-0_補助線
  6
Continuous
 62
     7
370
     5
100
AcDbLine
 10
-4.849999999999909
 20
-1.341025641025688
 30
0.0
 11
-4.849999999999909
 21
1.408974358974312
 31
0.0
  0
LINE
  5
428
330
59
100
AcDbEntity
  8
0-0_補助線
  6
Continuous
 62
     7
370
     5
100
AcDbLine
 10
-4.099999999999909
 20
-2.091025641025688
 30
0.0
 11
4.099999999999909
 21
-2.091025641025688
 31
0.0
  0
ARC
  5
429
330
59
100
AcDbEntity
  8
0-0_補助線
  6
Continuous
 62
     7
370
     5
100
AcDbCircle
 10
-4.099999999999909
 20
-1.341025641025688
 30
0.0
 40
0.75
100
AcDbArc
 50
180.0
 51
270.0
  0
LINE
  5
42A
330
59
100
AcDbEntity
  8
0-0_補助線
  6
Continuous
 62
     7
370
     5
100
AcDbLine
 10
-4.0
 20
1.408974358974312
 30
0.0
 11
-3.050000000000182
 21
1.408974358974312
 31
0.0
  0
LINE
  5
42B
330
59
100
AcDbEntity
  8
0-0_補助線
  6
Continuous
 62
     7
370
     5
100
AcDbLine
 10
-4.25
 20
1.158974358974312
 30
0.0
 11
-4.25
 21
-1.491025641025665
 31
0.0
  0
ARC
  5
42C
330
59
100
AcDbEntity
  8
0-0_補助線
  6
Continuous
 62
     7
370
     5
100
AcDbCircle
 10
-4.0
 20
1.158974358974312
 30
0.0
 40
0.25
100
AcDbArc
 50
90.0
 51
180.0
  0
LINE
  5
42D
330
59
100
AcDbEntity
  8
0-0_補助線
  6
Continuous
 62
     7
370
     5
100
AcDbLine
 10
4.0
 20
1.408974358974312
 30
0.0
 11
3.050000000000182
 21
1.408974358974312
 31
0.0
  0
LINE
  5
42E
330
59
100
AcDbEntity
  8
0-0_補助線
  6
Continuous
 62
     7
370
     5
100
AcDbLine
 10
4.25
 20
1.158974358974312
 30
0.0
 11
4.25
 21
-1.491025641025665
 31
0.0
  0
ARC
  5
42F
330
59
100
AcDbEntity
  8
0-0_補助線
  6
Continuous
 62
     7
370
     5
100
AcDbCircle
 10
4.0
 20
1.158974358974312
 30
0.0
 40
0.25
100
AcDbArc
 50
0.0
 51
90.0
  0
LINE
  5
430
330
59
100
AcDbEntity
  8
0-0_補助線
  6
Continuous
 62
     7
370
     5
100
AcDbLine
 10
-3.25
 20
-1.091025641025688
 30
0.0
 11
-3.25
 21
-1.491025641025665
 31
0.0
  0
ARC
  5
431
330
59
100
AcDbEntity
  8
0-0_補助線
  6
Continuous
 62
     7
370
     5
100
AcDbCircle
 10
-3.150000000000091
 20
-1.091025641025688
 30
0.0
 40
0.1
100
AcDbArc
 50
90.0
 51
180.0
  0
LINE
  5
432
330
59
100
AcDbEntity
  8
0-0_補助線
  6
Continuous
 62
     7
370
     5
100
AcDbLine
 10
-2.849999999999909
 20
-0.991025641025665
 30
0.0
 11
-3.150000000000091
 21
-0.991025641025665
 31
0.0
  0
LINE
  5
433
330
59
100
AcDbEntity
  8
0-0_補助線
  6
Continuous
 62
     7
370
     5
100
AcDbLine
 10
-2.75
 20
-1.091025641025688
 30
0.0
 11
-2.75
 21
-1.491025641025665
 31
0.0
  0
ARC
  5
434
330
59
100
AcDbEntity
  8
0-0_補助線
  6
Continuous
 62
     7
370
     5
100
AcDbCircle
 10
-2.849999999999909
 20
-1.091025641025688
 30
0.0
 40
0.1
100
AcDbArc
 50
0.0
 51
90.0
  0
LINE
  5
435
330
59
100
AcDbEntity
  8
0-0_補助線
  6
Continuous
 62
     7
370
     5
100
AcDbLine
 10
2.75
 20
-1.091025641025688
 30
0.0
 11
2.75
 21
-1.491025641025665
 31
0.0
  0
ARC
  5
436
330
59
100
AcDbEntity
  8
0-0_補助線
  6
Continuous
 62
     7
370
     5
100
AcDbCircle
 10
2.849999999999909
 20
-1.091025641025688
 30
0.0
 40
0.1
100
AcDbArc
 50
90.0
 51
180.0
  0
LINE
  5
437
330
59
100
AcDbEntity
  8
0-0_補助線
  6
Continuous
 62
     7
370
     5
100
AcDbLine
 10
3.150000000000091
 20
-0.991025641025665
 30
0.0
 11
2.849999999999909
 21
-0.991025641025665
 31
0.0
  0
LINE
  5
438
330
59
100
AcDbEntity
  8
0-0_補助線
  6
Continuous
 62
     7
370
     5
100
AcDbLine
 10
3.25
 20
-1.091025641025688
 30
0.0
 11
3.25
 21
-1.491025641025665
 31
0.0
  0
ARC
  5
439
330
59
100
AcDbEntity
  8
0-0_補助線
  6
Continuous
 62
     7
370
     5
100
AcDbCircle
 10
3.150000000000091
 20
-1.091025641025688
 30
0.0
 40
0.1
100
AcDbArc
 50
0.0
 51
90.0
  0
ENDBLK
  5
5B
330
59
100
AcDbEntity
  8
0
100
AcDbBlockEnd
  0
ENDSEC
  0
SECTION
  2
ENTITIES
  0
LINE
  5
5C
330
1F
100
AcDbEntity
  8
F-0_補助線
  6
JWW_HOJO
 62
   120
370
     5
100
AcDbLine
 10
-6140.081333436773
 20
-4455.0
 30
0.0
 11
-6140.081333436773
 21
4424.999604096284
 31
0.0
  0
LINE
  5
5D
330
1F
100
AcDbEntity
  8
F-0_補助線
  6
JWW_HOJO
 62
   120
370
     5
100
AcDbLine
 10
-6140.081333436773
 20
4424.999604096284
 30
0.0
 11
6159.917676803936
 21
4424.999604096284
 31
0.0
  0
LINE
  5
5E
330
1F
100
AcDbEntity
  8
F-0_補助線
  6
JWW_HOJO
 62
   120
370
     5
100
AcDbLine
 10
6159.917676803936
 20
4424.999604096284
 30
0.0
 11
6159.917676803936
 21
-4455.0
 31
0.0
  0
LINE
  5
5F
330
1F
100
AcDbEntity
  8
F-0_補助線
  6
JWW_HOJO
 62
   120
370
     5
100
AcDbLine
 10
6159.917676803936
 20
-4455.0
 30
0.0
 11
-6140.081333436773
 21
-4455.0
 31
0.0
  0
LINE
  5
60
330
1F
100
AcDbEntity
  8
F-0_補助線
  6
JWW_HOJO
 62
     7
370
     5
100
AcDbLine
 10
509.9185840832865
 20
-3795.000003092998
 30
0.0
 11
509.9185840832865
 21
-4195.000008247994
 31
0.0
  0
LINE
  5
61
330
1F
100
AcDbEntity
  8
F-1_枠
  6
Continuous
 62
   200
370
     5
100
AcDbLine
 10
5859.917429364118
 20
4174.999769056166
 30
0.0
 11
5859.917429364118
 21
-4205.000164959882
 31
0.0
  0
LINE
  5
62
330
1F
100
AcDbEntity
  8
F-1_枠
  6
Continuous
 62
   200
370
     5
100
AcDbLine
 10
-5840.081317971782
 20
4174.999769056166
 30
0.0
 11
-5840.081317971782
 21
-4205.000164959882
 31
0.0
  0
LINE
  5
63
330
1F
100
AcDbEntity
  8
F-1_枠
  6
Continuous
 62
   200
370
     5
100
AcDbLine
 10
5859.917429364118
 20
-4205.000002577499
 30
0.0
 11
-5840.081085996952
 21
-4205.000002577499
 31
0.0
  0
LINE
  5
64
330
1F
100
AcDbEntity
  8
F-1_枠
  6
Continuous
 62
   200
370
     5
100
AcDbLine
 10
-5830.081323642278
 20
4174.999769056166
 30
0.0
 11
-5830.081323642278
 21
-4205.000164959882
 31
0.0
  0
LINE
  5
65
330
1F
100
AcDbEntity
  8
F-1_枠
  6
Continuous
 62
   200
370
     5
100
AcDbLine
 10
-5835.081309208292
 20
4174.999769056166
 30
0.0
 11
-5835.081309208292
 21
-4205.000164959882
 31
0.0
  0
LINE
  5
66
330
1F
100
AcDbEntity
  8
F-1_枠
  6
Continuous
 62
   200
370
     5
100
AcDbLine
 10
5854.917165428305
 20
4174.999769056166
 30
0.0
 11
5854.917165428305
 21
-4205.000164959882
 31
0.0
  0
LINE
  5
67
330
1F
100
AcDbEntity
  8
F-1_枠
  6
Continuous
 62
   200
370
     5
100
AcDbLine
 10
5849.917643811961
 20
4174.999769056166
 30
0.0
 11
5849.917643811961
 21
-4205.000164959882
 31
0.0
  0
LINE
  5
68
330
1F
100
AcDbEntity
  8
F-1_枠
  6
Continuous
 62
   200
370
     5
100
AcDbLine
 10
5859.917429364118
 20
-4199.999993814004
 30
0.0
 11
-5840.081085996952
 21
-4199.999993814004
 31
0.0
  0
LINE
  5
69
330
1F
100
AcDbEntity
  8
F-1_枠
  6
Continuous
 62
   200
370
     5
100
AcDbLine
 10
5859.917429364118
 20
-4195.000008247994
 30
0.0
 11
-5840.081085996952
 21
-4195.000008247994
 31
0.0
  0
LINE
  5
6A
330
1F
100
AcDbEntity
  8
F-1_枠
  6
Continuous
 62
   200
370
     5
100
AcDbLine
 10
4349.917891251784
 20
-3795.000003092998
 30
0.0
 11
4349.917891251784
 21
-4195.000008247994
 31
0.0
  0
LINE
  5
6B
330
1F
100
AcDbEntity
  8
F-1_枠
  6
Continuous
 62
   200
370
     5
100
AcDbLine
 10
2849.91739637214
 20
-3795.000003092998
 30
0.0
 11
2849.91739637214
 21
-4195.000008247994
 31
0.0
  0
LINE
  5
6C
330
1F
100
AcDbEntity
  8
F-1_枠
  6
Continuous
 62
   200
370
     5
100
AcDbLine
 10
9.918542843317937
 20
-3795.000003092998
 30
0.0
 11
9.918542843317937
 21
-4195.000008247994
 31
0.0
  0
LINE
  5
6D
330
1F
100
AcDbEntity
  8
F-1_枠
  6
Continuous
 62
   200
370
     5
100
AcDbLine
 10
9.918542843317937
 20
-3994.999936078045
 30
0.0
 11
5849.917643811961
 21
-3995.005364289155
 31
0.0
  0
LINE
  5
6E
330
1F
100
AcDbEntity
  8
F-1_枠
  6
Continuous
 62
   200
370
     5
100
AcDbLine
 10
-5840.081085996952
 20
4174.999769056166
 30
0.0
 11
5859.917429364118
 21
4174.999769056166
 31
0.0
  0
LINE
  5
6F
330
1F
100
AcDbEntity
  8
F-1_枠
  6
Continuous
 62
   200
370
     5
100
AcDbLine
 10
-5840.081085996952
 20
4164.999983504013
 30
0.0
 11
5859.917429364118
 21
4164.999983504013
 31
0.0
  0
LINE
  5
70
330
1F
100
AcDbEntity
  8
F-1_枠
  6
Continuous
 62
   200
370
     5
100
AcDbLine
 10
-5840.081085996952
 20
4169.999505120355
 30
0.0
 11
5859.917429364118
 21
4169.999505120355
 31
0.0
  0
LINE
  5
71
330
1F
100
AcDbEntity
  8
F-0_補助線
  6
JWW_HOJO
 62
     7
370
     5
100
AcDbLine
 10
-5830.081323642278
 20
-3994.99993607839
 30
0.0
 11
9.918542843317937
 21
-3994.99993607839
 31
0.0
  0
LINE
  5
72
330
1F
100
AcDbEntity
  8
F-0_補助線
  6
JWW_HOJO
 62
     7
370
     5
100
AcDbLine
 10
-5830.081323642278
 20
-3904.99993607839
 30
0.0
 11
9.918542843317937
 21
-3904.99993607839
 31
0.0
  0
LINE
  5
73
330
1F
100
AcDbEntity
  8
F-0_補助線
  6
JWW_HOJO
 62
     7
370
     5
100
AcDbLine
 10
-5830.081323642278
 20
-4084.99993607839
 30
0.0
 11
9.918542843317937
 21
-4084.99993607839
 31
0.0
  0
LINE
  5
74
330
1F
100
AcDbEntity
  8
F-0_補助線
  6
JWW_HOJO
 62
     7
370
     5
100
AcDbLine
 10
9.918408067690052
 20
-4139.999739777984
 30
0.0
 11
5849.917509036333
 21
-4140.005167989091
 31
0.0
  0
LINE
  5
75
330
1F
100
AcDbEntity
  8
F-0_補助線
  6
JWW_HOJO
 62
     7
370
     5
100
AcDbLine
 10
9.918491721641658
 20
-4049.999739778022
 30
0.0
 11
5849.917592690285
 21
-4050.005167989132
 31
0.0
  0
LINE
  5
76
330
1F
100
AcDbEntity
  8
F-0_補助線
  6
JWW_HOJO
 62
     7
370
     5
100
AcDbLine
 10
9.91859396535915
 20
-3939.99973721807
 30
0.0
 11
5849.917694934006
 21
-3940.005165429179
 31
0.0
  0
LINE
  5
77
330
1F
100
AcDbEntity
  8
F-0_補助線
  6
JWW_HOJO
 62
     7
370
     5
100
AcDbLine
 10
9.918677619310756
 20
-3849.999737218109
 30
0.0
 11
5849.917778587951
 21
-3850.005165429218
 31
0.0
  0
LINE
  5
78
330
1F
100
AcDbEntity
  8
F-0_補助線
  6
JWW_HOJO
 62
     7
370
     5
100
AcDbLine
 10
2939.91739637214
 20
-3795.000003092998
 30
0.0
 11
2939.91739637214
 21
-4195.000008247994
 31
0.0
  0
LINE
  5
79
330
1F
100
AcDbEntity
  8
F-0_補助線
  6
JWW_HOJO
 62
     7
370
     5
100
AcDbLine
 10
99.91854284331794
 20
-3795.000003092998
 30
0.0
 11
99.91854284331794
 21
-4195.000008247994
 31
0.0
  0
LINE
  5
7A
330
1F
100
AcDbEntity
  8
F-0_補助線
  6
JWW_HOJO
 62
     7
370
     5
100
AcDbLine
 10
4439.917891251784
 20
-3795.000003092998
 30
0.0
 11
4439.917891251784
 21
-4195.000008247994
 31
0.0
  0
LINE
  5
7B
330
1F
100
AcDbEntity
  8
F-1_枠
  6
Continuous
 62
   200
370
     5
100
AcDbLine
 10
5859.917429364118
 20
-3795.000003092998
 30
0.0
 11
-5840.081085996952
 21
-3795.000003092998
 31
0.0
  0
LINE
  5
7C
330
1F
100
AcDbEntity
  8
F-1_枠
  6
Continuous
 62
   200
370
     5
100
AcDbLine
 10
5859.917429364118
 20
-3790.000017526988
 30
0.0
 11
-5840.081085996952
 21
-3790.000017526988
 31
0.0
  0
LINE
  5
7D
330
1F
100
AcDbEntity
  8
F-0_補助線
  6
JWW_HOJO
 62
     7
370
     5
100
AcDbLine
 10
-5087.628710189612
 20
-3795.000003093
 30
0.0
 11
-5087.628710189612
 21
-4205.000164959882
 31
0.0
  0
LINE
  5
7E
330
1F
100
AcDbEntity
  8
F-0_補助線
  6
JWW_HOJO
 62
     7
370
     5
100
AcDbLine
 10
-50.08145715668206
 20
-3795.000003092998
 30
0.0
 11
-50.08145715668206
 21
-4195.000008247994
 31
0.0
  0
MTEXT
  5
7F
330
1F
100
AcDbEntity
  8
F-A_文字
  6
Continuous
 62
     7
370
     0
100
AcDbMText
 10
99.91854284331794
 20
-3887.139820871936
 30
0.0
 40
45.72
 41
180.0
 46
0.0
 71
     7
 72
     1
  1
{\fＭＳ ゴシック|b0|i0|c128|p49;図面名}
 73
     1
 44
1.0
  0
MTEXT
  5
80
330
1F
100
AcDbEntity
  8
F-A_文字
  6
Continuous
 62
     7
370
     0
100
AcDbMText
 10
2939.91739637214
 20
-3887.142460617775
 30
0.0
 40
45.72
 41
300.0
 46
0.0
 71
     7
 72
     1
  1
{\fＭＳ ゴシック|b0|i0|c128|p49;ＳＣＡＬＥ}
 73
     1
 44
1.0
  0
MTEXT
  5
81
330
1F
100
AcDbEntity
  8
F-A_文字
  6
Continuous
 62
     7
370
     0
100
AcDbMText
 10
4439.917891251784
 20
-3887.143854850754
 30
0.0
 40
45.72
 41
240.0
 46
0.0
 71
     7
 72
     1
  1
{\fＭＳ ゴシック|b0|i0|c128|p49;ＤＡＴＥ}
 73
     1
 44
1.0
  0
MTEXT
  5
82
330
1F
100
AcDbEntity
  8
F-A_文字
  6
Continuous
 62
     7
370
     0
100
AcDbMText
 10
2939.91739637214
 20
-4087.142463177859
 30
0.0
 40
45.72
 41
240.0
 46
0.0
 71
     7
 72
     1
  1
{\fＭＳ ゴシック|b0|i0|c128|p49;ＦＩＬＥ}
 73
     1
 44
1.0
  0
MTEXT
  5
83
330
1F
100
AcDbEntity
  8
F-A_文字
  6
Continuous
 62
     7
370
     0
100
AcDbMText
 10
4439.917891251784
 20
-4087.143857410839
 30
0.0
 40
45.72
 41
180.0
 46
0.0
 71
     7
 72
     1
  1
{\fＭＳ ゴシック|b0|i0|c128|p49;ＮＯ．}
 73
     1
 44
1.0
  0
MTEXT
  5
84
330
1F
100
AcDbEntity
  8
F-A_文字
  6
Continuous
 62
     7
370
     0
100
AcDbMText
 10
1394.917396372136
 20
-4096.140669266148
 30
0.0
 40
45.72
 41
120.0
 46
0.0
 71
     7
 72
     1
  1
{\fＭＳ ゴシック|b0|i0|c128|p49;株式}
 73
     1
 44
1.0
  0
MTEXT
  5
85
330
1F
100
AcDbEntity
  8
F-A_文字
  6
Continuous
 62
     7
370
     0
100
AcDbMText
 10
1604.917396372136
 20
-4164.281754523929
 30
0.0
 40
101.44125
 41
1065.0
 46
0.0
 71
     7
 72
     1
  1
{\fＭＳ ゴシック|b0|i0|c128|p49;ウッドワン・・・}
 73
     1
 44
1.0
  0
MTEXT
  5
86
330
1F
100
AcDbEntity
  8
F-A_文字
  6
Continuous
 62
     7
370
     0
100
AcDbMText
 10
1394.917396372136
 20
-4168.140669266188
 30
0.0
 40
45.72
 41
120.0
 46
0.0
 71
     7
 72
     1
  1
{\fＭＳ ゴシック|b0|i0|c128|p49;会社}
 73
     1
 44
1.0
  0
MTEXT
  5
87
330
1F
100
AcDbEntity
  8
F-A_文字
  6
Continuous
 62
     7
370
     0
100
AcDbMText
 10
5768.321977672936
 20
-4314.841419020918
 30
0.0
 40
68.58
 41
90.0
 46
0.0
 71
     7
 72
     1
  1
{\fＭＳ ゴシック|b0|i0|c128|p49;）}
 73
     1
 44
1.0
  0
MTEXT
  5
88
330
1F
100
AcDbEntity
  8
F-A_文字
  6
Continuous
 62
     7
370
     0
100
AcDbMText
 10
5350.114617405298
 20
-4316.235443869857
 30
0.0
 40
68.58
 41
45.0
 46
0.0
 71
     7
 72
     1
  1
{\fＭＳ ゴシック|b0|i0|c128|p49;,}
 73
     1
 44
1.0
  0
MTEXT
  5
89
330
1F
100
AcDbEntity
  8
F-A_文字
  6
Continuous
 62
     7
370
     0
100
AcDbMText
 10
5083.855928478601
 20
-4314.771967288282
 30
0.0
 40
74.295
 41
97.5
 46
0.0
 71
     7
 72
     1
  1
{\fＭＳ ゴシック|b0|i0|c128|p49;$y}
 73
     1
 44
1.0
  0
MTEXT
  5
8A
330
1F
100
AcDbEntity
  8
F-A_文字
  6
Continuous
 62
     7
370
     0
100
AcDbMText
 10
5238.592649517422
 20
-4314.771967288282
 30
0.0
 40
74.295
 41
97.5
 46
0.0
 71
     7
 72
     1
  1
{\fＭＳ ゴシック|b0|i0|c128|p49;$m}
 73
     1
 44
1.0
  0
MTEXT
  5
8B
330
1F
100
AcDbEntity
  8
F-A_文字
  6
Continuous
 62
     7
370
     0
100
AcDbMText
 10
5393.32938200033
 20
-4314.771967288282
 30
0.0
 40
74.295
 41
97.5
 46
0.0
 71
     7
 72
     1
  1
{\fＭＳ ゴシック|b0|i0|c128|p49;$d}
 73
     1
 44
1.0
  0
MTEXT
  5
8C
330
1F
100
AcDbEntity
  8
F-A_文字
  6
Continuous
 62
     7
370
     0
100
AcDbMText
 10
5548.066114483236
 20
-4314.771967288282
 30
0.0
 40
74.295
 41
195.0
 46
0.0
 71
     7
 72
     1
  1
{\fＭＳ ゴシック|b0|i0|c128|p49;印刷}
 73
     1
 44
1.0
  0
MTEXT
  5
8D
330
1F
100
AcDbEntity
  8
F-A_文字
  6
Continuous
 62
     7
370
     0
100
AcDbMText
 10
4943.952040816226
 20
-4319.023493567732
 30
0.0
 40
68.58
 41
90.0
 46
0.0
 71
     7
 72
     1
  1
{\fＭＳ ゴシック|b0|i0|c128|p49;（}
 73
     1
 44
1.0
  0
MTEXT
  5
8E
330
1F
100
AcDbEntity
  8
F-A_文字
  6
Continuous
 62
     7
370
     0
100
AcDbMText
 10
5191.195810375571
 20
-4319.023493567732
 30
0.0
 40
68.58
 41
45.0
 46
0.0
 71
     7
 72
     1
  1
{\fＭＳ ゴシック|b0|i0|c128|p49;,}
 73
     1
 44
1.0
  0
MTEXT
  5
8F
330
1F
100
AcDbEntity
  8
F-A_文字
  6
Continuous
 62
     7
370
     5
100
AcDbMText
 10
5096.167700144057
 20
-4147.857012699984
 30
0.0
 40
74.295
 41
97.5
 46
0.0
 71
     7
 72
     1
  1
{\fＭＳ ゴシック|b0|i0|c128|p49;03}
 73
     1
 44
1.0
  0
LINE
  5
90
330
1F
100
AcDbEntity
  8
0-A_文字
  6
Continuous
 62
    92
370
     5
100
AcDbLine
 10
-5659.999495325865
 20
3730.00018145587
 30
0.0
 11
-5659.999495325865
 21
4000.00018145587
 31
0.0
  0
ELLIPSE
  5
91
330
1F
100
AcDbEntity
  8
戸当り
  6
Continuous
 62
    92
370
     5
100
AcDbEllipse
 10
4855.430917458078
 20
2876.053590301512
 30
0.0
 11
11.36181697857171
 21
42.40287823032828
 31
0.0
210
0.0
220
0.0
230
0.9999999999999999
 40
0.6
 41
1.570796326794897
 42
4.71238898038469
  0
LINE
  5
92
330
1F
100
AcDbEntity
  8
戸当り
  6
Continuous
 62
    92
370
     5
100
AcDbLine
 10
4880.872644396272
 20
2869.236500114369
 30
0.0
 11
4829.989190519878
 21
2882.870680488654
 31
0.0
  0
LINE
  5
93
330
1F
100
AcDbEntity
  8
戸当り
  6
Continuous
 62
    92
370
     5
100
AcDbLine
 10
4884.133764364564
 20
2881.407165525611
 30
0.0
 11
4833.25031048817
 21
2895.041345899897
 31
0.0
  0
ELLIPSE
  5
94
330
1F
100
AcDbEntity
  8
戸当り
  6
Continuous
 62
    92
370
     5
100
AcDbEllipse
 10
4879.604310755758
 20
2966.269922279796
 30
0.0
 11
21.86569797210526
 21
81.6038957748525
 31
0.0
210
0.0
220
0.0
230
1.0
 40
0.5
 41
4.340591432030095
 42
8.225779182329084
  0
ELLIPSE
  5
95
330
1F
100
AcDbEntity
  8
戸当り
  6
Continuous
 62
    92
370
     5
100
AcDbEllipse
 10
4878.978687882654
 20
2963.935065931005
 30
0.0
 11
26.49533313827761
 21
98.88192943551533
 31
0.0
210
0.0
220
0.0
230
0.9999999999999999
 40
0.4
 41
3.840308517104466
 42
4.432552034522944
  0
ELLIPSE
  5
96
330
1F
100
AcDbEntity
  8
戸当り
  6
Continuous
 62
    92
370
     5
100
AcDbEllipse
 10
4878.978687882654
 20
2963.935065931005
 30
0.0
 11
26.49533313827761
 21
98.88192943551533
 31
0.0
210
0.0
220
0.0
230
0.9999999999999999
 40
0.4
 41
1.850633272656679
 42
2.442876790075129
  0
ELLIPSE
  5
97
330
1F
100
AcDbEntity
  8
戸当り
  6
Continuous
 62
    92
370
     5
100
AcDbEllipse
 10
4740.316707711373
 20
2838.284846937211
 30
0.0
 11
-7.622927487939132
 21
43.23177007461331
 31
0.0
210
0.0
220
0.0
230
1.0
 40
0.6000000000000001
 41
1.570796326794897
 42
4.71238898038469
  0
LINE
  5
98
330
1F
100
AcDbEntity
  8
戸当り
  6
Continuous
 62
    92
370
     5
100
AcDbLine
 10
4766.255769756144
 20
2842.858603429975
 30
0.0
 11
4714.377645666606
 21
2833.711090444447
 31
0.0
  0
LINE
  5
99
330
1F
100
AcDbEntity
  8
戸当り
  6
Continuous
 62
    92
370
     5
100
AcDbLine
 10
4764.067802717541
 20
2855.267181117928
 30
0.0
 11
4712.189678628002
 21
2846.119668132401
 31
0.0
  0
ELLIPSE
  5
9A
330
1F
100
AcDbEntity
  8
戸当り
  6
Continuous
 62
    92
370
     5
100
AcDbEllipse
 10
4724.098172894875
 20
2930.264728582854
 30
0.0
 11
-14.67024424252691
 21
83.19908946199426
 31
0.0
210
0.0
220
0.0
230
1.0
 40
0.5
 41
4.340591432030095
 42
8.225779182329084
  0
ELLIPSE
  5
9B
330
1F
100
AcDbEntity
  8
戸当り
  6
Continuous
 62
    92
370
     5
100
AcDbEllipse
 10
4724.517918944779
 20
2927.884230441198
 30
0.0
 11
-17.7763823922528
 21
100.8148742797557
 31
0.0
210
0.0
220
0.0
230
1.0
 40
0.4000000000000001
 41
3.840308517104466
 42
4.432552034522944
  0
ELLIPSE
  5
9C
330
1F
100
AcDbEntity
  8
戸当り
  6
Continuous
 62
    92
370
     5
100
AcDbEllipse
 10
4724.517918944779
 20
2927.884230441198
 30
0.0
 11
-17.7763823922528
 21
100.8148742797557
 31
0.0
210
0.0
220
0.0
230
1.0
 40
0.4000000000000001
 41
1.850633272656679
 42
2.442876790075129
  0
LINE
  5
9D
330
1F
100
AcDbEntity
  8
0-A_文字
  6
Continuous
 62
    92
370
     5
100
AcDbLine
 10
5369.917643811961
 20
3684.999983504013
 30
0.0
 11
5369.917643811961
 21
2718.999983504014
 31
0.0
  0
LINE
  5
9E
330
1F
100
AcDbEntity
  8
0-A_文字
  6
Continuous
 62
    92
370
     5
100
AcDbLine
 10
5369.917643811961
 20
2718.999983504014
 30
0.0
 11
4229.917643811961
 21
2718.999983504014
 31
0.0
  0
LINE
  5
9F
330
1F
100
AcDbEntity
  8
0-A_文字
  6
Continuous
 62
    92
370
     5
100
AcDbLine
 10
4229.917643811961
 20
3684.999983504013
 30
0.0
 11
4229.917643811961
 21
2718.999983504014
 31
0.0
  0
LINE
  5
A0
330
1F
100
AcDbEntity
  8
0-0_補助線
  6
JWW_HOJO
 62
   120
370
     5
100
AcDbLine
 10
5339.917643811961
 20
3684.999983504013
 30
0.0
 11
5339.917643811961
 21
2718.999983504014
 31
0.0
  0
LINE
  5
A1
330
1F
100
AcDbEntity
  8
0-0_補助線
  6
JWW_HOJO
 62
   120
370
     5
100
AcDbLine
 10
4259.917643811961
 20
3684.999983504013
 30
0.0
 11
4259.917643811961
 21
2718.999983504014
 31
0.0
  0
LINE
  5
A2
330
1F
100
AcDbEntity
  8
0-0_補助線
  6
JWW_HOJO
 62
   120
370
     5
100
AcDbLine
 10
4799.917643811961
 20
3684.999983504013
 30
0.0
 11
4799.917643811961
 21
2718.999983504014
 31
0.0
  0
CIRCLE
  5
A3
330
1F
100
AcDbEntity
  8
0-0_補助線
  6
JWW_HOJO
 62
   120
370
     5
100
AcDbCircle
 10
5159.917643811961
 20
3385.50401118275
 30
0.0
 40
240.0
  0
CIRCLE
  5
A4
330
1F
100
AcDbEntity
  8
0-0_補助線
  6
JWW_HOJO
 62
   120
370
     5
100
AcDbCircle
 10
4799.917643811961
 20
3385.50401118275
 30
0.0
 40
240.0
  0
CIRCLE
  5
A5
330
1F
100
AcDbEntity
  8
0-0_補助線
  6
JWW_HOJO
 62
   120
370
     5
100
AcDbCircle
 10
4444.047372024825
 20
3385.50401118275
 30
0.0
 40
240.0
  0
LINE
  5
A6
330
1F
100
AcDbEntity
  8
戸当り
  6
Continuous
 62
    40
370
     5
100
AcDbLine
 10
4502.034214636565
 20
3153.681812873372
 30
0.0
 11
4564.150785461171
 21
3385.50401118275
 31
0.0
  0
LINE
  5
A7
330
1F
100
AcDbEntity
  8
戸当り
  6
Continuous
 62
    40
370
     5
100
AcDbLine
 10
4502.034214636565
 20
3153.681812873372
 30
0.0
 11
4439.917643811961
 21
3385.50401118275
 31
0.0
  0
LINE
  5
A8
330
1F
100
AcDbEntity
  8
戸当り
  6
Continuous
 62
    40
370
     5
100
AcDbLine
 10
5035.684502162752
 20
3385.50401118275
 30
0.0
 11
5097.801072987355
 21
3153.681812873372
 31
0.0
  0
LINE
  5
A9
330
1F
100
AcDbEntity
  8
戸当り
  6
Continuous
 62
    40
370
     5
100
AcDbLine
 10
5159.917643811961
 20
3385.50401118275
 30
0.0
 11
5097.801072987355
 21
3153.681812873372
 31
0.0
  0
LINE
  5
AA
330
1F
100
AcDbEntity
  8
戸当り
  6
JWW_DASHED2
 62
     7
370
     5
100
AcDbLine
 10
5159.917643811961
 20
3385.50401118275
 30
0.0
 11
4439.917643811961
 21
3385.50401118275
 31
0.0
  0
LINE
  5
AB
330
1F
100
AcDbEntity
  8
戸当り
  6
Continuous
 62
    40
370
     5
100
AcDbLine
 10
5159.917643811961
 20
3439.504011182749
 30
0.0
 11
5159.917643811961
 21
3385.50401118275
 31
0.0
  0
LINE
  5
AC
330
1F
100
AcDbEntity
  8
戸当り
  6
Continuous
 62
    40
370
     5
100
AcDbLine
 10
5159.917643811961
 20
3439.504011182749
 30
0.0
 11
5339.917643811961
 21
3439.504011182749
 31
0.0
  0
LINE
  5
AD
330
1F
100
AcDbEntity
  8
戸当り
  6
Continuous
 62
    40
370
     5
100
AcDbLine
 10
5159.917643811961
 20
3385.50401118275
 30
0.0
 11
5339.917643811961
 21
3385.50401118275
 31
0.0
  0
LINE
  5
AE
330
1F
100
AcDbEntity
  8
戸当り
  6
Continuous
 62
    40
370
     5
100
AcDbLine
 10
4439.917643811961
 20
3439.504011182749
 30
0.0
 11
4439.917643811961
 21
3385.50401118275
 31
0.0
  0
LINE
  5
AF
330
1F
100
AcDbEntity
  8
戸当り
  6
Continuous
 62
    40
370
     5
100
AcDbLine
 10
4439.917643811961
 20
3439.504011182749
 30
0.0
 11
4259.917643811961
 21
3439.504011182749
 31
0.0
  0
LINE
  5
B0
330
1F
100
AcDbEntity
  8
戸当り
  6
Continuous
 62
    40
370
     5
100
AcDbLine
 10
4439.917643811961
 20
3385.50401118275
 30
0.0
 11
4259.917643811961
 21
3385.50401118275
 31
0.0
  0
LINE
  5
B1
330
1F
100
AcDbEntity
  8
0-A_文字
  6
Continuous
 62
    92
370
     5
100
AcDbLine
 10
5369.917643811961
 20
3540.999983504012
 30
0.0
 11
4229.917643811961
 21
3540.999983504012
 31
0.0
  0
LINE
  5
B2
330
1F
100
AcDbEntity
  8
0-A_文字
  6
Continuous
 62
    92
370
     5
100
AcDbLine
 10
5369.917643811961
 20
3684.999983504013
 30
0.0
 11
4229.917643811961
 21
3684.999983504013
 31
0.0
  0
MTEXT
  5
B3
330
1F
100
AcDbEntity
  8
0-A_文字
  6
Continuous
 62
     7
370
     5
100
AcDbMText
 10
4278.667643811961
 20
3554.775383504013
 30
0.0
 40
63.55080000000001
 41
1042.5
 46
0.0
 71
     7
 72
     1
  1
{\fＭＳ ゴシック|b0|i0|c128|p49;上吊軸固定/フリーオープン}
 73
     1
 44
1.0
  0
LINE
  5
B4
330
1F
100
AcDbEntity
  8
0-0_補助線
  6
JWW_HOJO
 62
     7
370
     5
100
AcDbLine
 10
-851.6902140241154
 20
1086.945146596495
 30
0.0
 11
-851.6902140241154
 21
3321.945146596496
 31
0.0
  0
LINE
  5
B5
330
1F
100
AcDbEntity
  8
0-0_補助線
  6
JWW_HOJO
 62
   120
370
     5
100
AcDbLine
 10
-3623.690016072255
 20
1266.945146596495
 30
0.0
 11
-3623.690016072255
 21
3141.945146596496
 31
0.0
  0
LINE
  5
B6
330
1F
100
AcDbEntity
  8
0-0_補助線
  6
JWW_HOJO
 62
   120
370
     5
100
AcDbLine
 10
1920.309588024032
 20
1266.945146596495
 30
0.0
 11
1920.309588024032
 21
3141.945146596496
 31
0.0
  0
LINE
  5
B7
330
1F
100
AcDbEntity
  8
0-0_補助線
  6
JWW_HOJO
 62
   120
370
     5
100
AcDbLine
 10
1920.309588024032
 20
2781.945146596496
 30
0.0
 11
-3623.690016072255
 21
2781.945146596496
 31
0.0
  0
LINE
  5
B8
330
1F
100
AcDbEntity
  8
0-0_補助線
  6
JWW_HOJO
 62
   120
370
     5
100
AcDbLine
 10
1920.309588024032
 20
1626.945146596495
 30
0.0
 11
-3623.690016072255
 21
1626.945146596495
 31
0.0
  0
LINE
  5
B9
330
1F
100
AcDbEntity
  8
0-0_補助線
  6
JWW_HOJO
 62
   120
370
     5
100
AcDbLine
 10
1920.309588024032
 20
1446.945146596495
 30
0.0
 11
-3623.690016072255
 21
1446.945146596495
 31
0.0
  0
LINE
  5
BA
330
1F
100
AcDbEntity
  8
0-0_補助線
  6
JWW_HOJO
 62
   120
370
     5
100
AcDbLine
 10
1920.309588024032
 20
1266.945146596495
 30
0.0
 11
-3623.690016072255
 21
1266.945146596495
 31
0.0
  0
LINE
  5
BB
330
1F
100
AcDbEntity
  8
0-0_補助線
  6
JWW_HOJO
 62
   120
370
     5
100
AcDbLine
 10
1920.309588024032
 20
3141.945146596496
 30
0.0
 11
-3623.690016072255
 21
3141.945146596496
 31
0.0
  0
LINE
  5
BC
330
1F
100
AcDbEntity
  8
0-0_補助線
  6
JWW_HOJO
 62
   120
370
     5
100
AcDbLine
 10
1920.309588024032
 20
2961.945146596496
 30
0.0
 11
-3623.690016072255
 21
2961.945146596496
 31
0.0
  0
LINE
  5
BD
330
1F
100
AcDbEntity
  8
0-0_補助線
  6
JWW_HOJO
 62
     7
370
     5
100
AcDbLine
 10
-2843.690214024115
 20
1086.945146596495
 30
0.0
 11
-2843.690214024115
 21
3321.945146596496
 31
0.0
  0
LINE
  5
BE
330
1F
100
AcDbEntity
  8
0-0_補助線
  6
JWW_HOJO
 62
     7
370
     5
100
AcDbLine
 10
1140.309785975885
 20
1086.945146596495
 30
0.0
 11
1140.309785975885
 21
3321.945146596496
 31
0.0
  0
LINE
  5
BF
330
1F
100
AcDbEntity
  8
0-1_通り芯
  6
JWW_CENTER1
 62
   120
370
     5
100
AcDbLine
 10
1920.309588024032
 20
2361.945146596496
 30
0.0
 11
-3623.690016072255
 21
2361.945146596496
 31
0.0
  0
LINE
  5
C0
330
1F
100
AcDbEntity
  8
0-C_ハッチ
  6
Continuous
 62
   120
370
     5
100
AcDbLine
 10
-3023.690214024128
 20
2565.455682251162
 30
0.0
 11
-2972.200749678789
 21
2616.945146596504
 31
0.0
  0
LINE
  5
C1
330
1F
100
AcDbEntity
  8
0-C_ハッチ
  6
Continuous
 62
   120
370
     5
100
AcDbLine
 10
-3023.690214024111
 20
2506.058712631533
 30
0.0
 11
-2912.803780059158
 21
2616.945146596485
 31
0.0
  0
LINE
  5
C2
330
1F
100
AcDbEntity
  8
0-C_ハッチ
  6
Continuous
 62
   120
370
     5
100
AcDbLine
 10
-3023.690214024125
 20
2446.661743011819
 30
0.0
 11
-2857.548512231781
 21
2612.803444804163
 31
0.0
  0
LINE
  5
C3
330
1F
100
AcDbEntity
  8
0-C_ハッチ
  6
Continuous
 62
   120
370
     5
100
AcDbLine
 10
-3023.690214024111
 20
2387.264773392185
 30
0.0
 11
-2843.690214024115
 21
2567.264773392183
 31
0.0
  0
LINE
  5
C4
330
1F
100
AcDbEntity
  8
0-C_ハッチ
  6
Continuous
 62
   120
370
     5
100
AcDbLine
 10
-3023.690214024118
 20
2327.867803772477
 30
0.0
 11
-2843.690214024125
 21
2507.867803772467
 31
0.0
  0
LINE
  5
C5
330
1F
100
AcDbEntity
  8
0-C_ハッチ
  6
Continuous
 62
   120
370
     5
100
AcDbLine
 10
-3023.690214024115
 20
2268.470834152834
 30
0.0
 11
-2874.592197264866
 21
2417.568850912079
 31
0.0
  0
LINE
  5
C6
330
1F
100
AcDbEntity
  8
0-C_ハッチ
  6
Continuous
 62
   120
370
     5
100
AcDbLine
 10
-3023.690214024108
 20
2209.073864533191
 30
0.0
 11
-2879.565193245286
 21
2353.198885312012
 31
0.0
  0
LINE
  5
C7
330
1F
100
AcDbEntity
  8
0-C_ハッチ
  6
Continuous
 62
   120
370
     5
100
AcDbLine
 10
-3023.690214024125
 20
2149.676894913473
 30
0.0
 11
-2873.356818160479
 21
2300.010290777117
 31
0.0
  0
LINE
  5
C8
330
1F
100
AcDbEntity
  8
0-C_ハッチ
  6
Continuous
 62
   120
370
     5
100
AcDbLine
 10
-3007.02499272145
 20
2106.945146596498
 30
0.0
 11
-2860.005204617988
 21
2253.96493469996
 31
0.0
  0
LINE
  5
C9
330
1F
100
AcDbEntity
  8
0-C_ハッチ
  6
Continuous
 62
   120
370
     5
100
AcDbLine
 10
-2947.628023101752
 20
2106.945146596498
 30
0.0
 11
-2843.690214024115
 21
2210.882955674132
 31
0.0
  0
LINE
  5
CA
330
1F
100
AcDbEntity
  8
0-C_ハッチ
  6
Continuous
 62
   120
370
     5
100
AcDbLine
 10
-2888.231053482111
 20
2106.945146596491
 30
0.0
 11
-2843.690214024122
 21
2151.485986054482
 31
0.0
  0
ARC
  5
CB
330
1F
100
AcDbEntity
  8
0-4_枠
  6
Continuous
 62
    92
370
     5
100
AcDbCircle
 10
-2573.690214024111
 20
2361.945146596496
 30
0.0
 40
306.0000000000022
100
AcDbArc
 50
151.9275130641473
 51
208.0724869358527
  0
LINE
  5
CC
330
1F
100
AcDbEntity
  8
0-4_枠
  6
Continuous
 62
    92
370
     5
100
AcDbLine
 10
-2843.690214024115
 20
2505.945146596496
 30
0.0
 11
-2843.690214024115
 21
2598.945146596496
 31
0.0
  0
LINE
  5
CD
330
1F
100
AcDbEntity
  8
0-4_枠
  6
Continuous
 62
    92
370
     5
100
AcDbLine
 10
-2843.690214024115
 20
2124.945146596496
 30
0.0
 11
-2843.690214024115
 21
2217.945146596494
 31
0.0
  0
LINE
  5
CE
330
1F
100
AcDbEntity
  8
0-4_枠
  6
Continuous
 62
    92
370
     5
100
AcDbLine
 10
-2843.690214024115
 20
2124.945146596496
 30
0.0
 11
-2861.690214024115
 21
2106.945146596495
 31
0.0
  0
LINE
  5
CF
330
1F
100
AcDbEntity
  8
0-4_枠
  6
Continuous
 62
    92
370
     5
100
AcDbLine
 10
-2861.690214024115
 20
2106.945146596495
 30
0.0
 11
-3023.690214024115
 21
2106.945146596495
 31
0.0
  0
LINE
  5
D0
330
1F
100
AcDbEntity
  8
0-4_枠
  6
Continuous
 62
    92
370
     5
100
AcDbLine
 10
-2861.690214024115
 20
2616.945146596496
 30
0.0
 11
-2843.690214024115
 21
2598.945146596496
 31
0.0
  0
LINE
  5
D1
330
1F
100
AcDbEntity
  8
0-4_枠
  6
Continuous
 62
    92
370
     5
100
AcDbLine
 10
-2861.690214024115
 20
2616.945146596496
 30
0.0
 11
-3023.690214024115
 21
2616.945146596496
 31
0.0
  0
LINE
  5
D2
330
1F
100
AcDbEntity
  8
0-4_枠
  6
Continuous
 62
    92
370
     5
100
AcDbLine
 10
-3023.690214024115
 20
2106.945146596495
 30
0.0
 11
-3023.690214024115
 21
2616.945146596496
 31
0.0
  0
LINE
  5
D3
330
1F
100
AcDbEntity
  8
0-0_補助線
  6
Continuous
 62
   120
370
     5
100
AcDbLine
 10
-2843.690214024115
 20
2324.359196304034
 30
0.0
 11
-2858.690214024115
 21
2324.359196304034
 31
0.0
  0
LWPOLYLINE
  5
D4
330
1F
100
AcDbEntity
  8
0-0_補助線
  6
Continuous
 62
     7
370
     5
100
AcDbPolyline
 90
        4
 70
     1
 43
3.0
 10
-2842.190214024115
 20
2324.359196304034
 42
0.4142135623731
 10
-2843.690214024115
 20
2325.859196304033
 42
0.4142135623731
 10
-2845.190214024115
 20
2324.359196304034
 42
0.4142135623731
 10
-2843.690214024115
 20
2322.859196304034
 42
0.4142135623731
  0
LWPOLYLINE
  5
D5
330
1F
100
AcDbEntity
  8
0-0_補助線
  6
Continuous
 62
     7
370
     5
100
AcDbPolyline
 90
        4
 70
     1
 43
3.0
 10
-2857.190214024115
 20
2324.359196304034
 42
0.4142135623731
 10
-2858.690214024115
 20
2325.859196304033
 42
0.4142135623731
 10
-2860.190214024115
 20
2324.359196304034
 42
0.4142135623731
 10
-2858.690214024115
 20
2322.859196304034
 42
0.4142135623731
  0
LINE
  5
D6
330
1F
100
AcDbEntity
  8
0-0_補助線
  6
Continuous
 62
   120
370
     5
100
AcDbLine
 10
-2858.690214024115
 20
2324.359196304034
 30
0.0
 11
-2879.690214024113
 21
2324.359196304034
 31
0.0
  0
LWPOLYLINE
  5
D7
330
1F
100
AcDbEntity
  8
0-0_補助線
  6
Continuous
 62
     7
370
     5
100
AcDbPolyline
 90
        4
 70
     1
 43
3.0
 10
-2878.190214024113
 20
2324.359196304034
 42
0.4142135623731
 10
-2879.690214024113
 20
2325.859196304033
 42
0.4142135623731
 10
-2881.190214024113
 20
2324.359196304034
 42
0.4142135623731
 10
-2879.690214024113
 20
2322.859196304034
 42
0.4142135623731
  0
LINE
  5
D8
330
1F
100
AcDbEntity
  8
0-0_補助線
  6
Continuous
 62
   120
370
     5
100
AcDbLine
 10
-2879.690214024113
 20
2324.359196304034
 30
0.0
 11
-2879.690214024113
 21
2405.688459527219
 31
0.0
  0
MTEXT
  5
D9
330
1F
100
AcDbEntity
  8
0-0_補助線
  6
Continuous
 62
     7
370
   211
100
AcDbMText
 10
-2833.303759111765
 20
2325.079196304033
 30
0.0
 40
91.44
 41
180.0
 46
0.0
 71
     7
 72
     1
  1
{\fＭＳ ゴシック|b0|i0|c128|p49;2.5}
 73
     1
 44
1.0
  0
LINE
  5
DA
330
1F
100
AcDbEntity
  8
0-C_ハッチ
  6
Continuous
 62
   120
370
     5
100
AcDbLine
 10
1140.30978597587
 20
2547.831580561425
 30
0.0
 11
1209.423352010945
 21
2616.9451465965
 31
0.0
  0
LINE
  5
DB
330
1F
100
AcDbEntity
  8
0-C_ハッチ
  6
Continuous
 62
   120
370
     5
100
AcDbLine
 10
1146.195359096245
 20
2494.320184062154
 30
0.0
 11
1268.82032163058
 21
2616.945146596488
 31
0.0
  0
LINE
  5
DC
330
1F
100
AcDbEntity
  8
0-C_ハッチ
  6
Continuous
 62
   120
370
     5
100
AcDbLine
 10
1162.879043153739
 20
2451.606898499946
 30
0.0
 11
1320.30978597588
 21
2609.037641322085
 31
0.0
  0
LINE
  5
DD
330
1F
100
AcDbEntity
  8
0-C_ハッチ
  6
Continuous
 62
   120
370
     5
100
AcDbLine
 10
1173.558190180433
 20
2402.889075906993
 30
0.0
 11
1320.309785975898
 21
2549.640671702457
 31
0.0
  0
LINE
  5
DE
330
1F
100
AcDbEntity
  8
0-C_ハッチ
  6
Continuous
 62
   120
370
     5
100
AcDbLine
 10
1175.884539234662
 20
2345.818455341574
 30
0.0
 11
1320.309785975888
 21
2490.243702082801
 31
0.0
  0
LINE
  5
DF
330
1F
100
AcDbEntity
  8
0-C_ハッチ
  6
Continuous
 62
   120
370
     5
100
AcDbLine
 10
1163.372405268746
 20
2273.909351755957
 30
0.0
 11
1320.309785975875
 21
2430.846732463083
 31
0.0
  0
LINE
  5
E0
330
1F
100
AcDbEntity
  8
0-C_ハッチ
  6
Continuous
 62
   120
370
     5
100
AcDbLine
 10
1140.309785975887
 20
2191.44976284345
 30
0.0
 11
1320.309785975887
 21
2371.44976284345
 31
0.0
  0
LINE
  5
E1
330
1F
100
AcDbEntity
  8
0-C_ハッチ
  6
Continuous
 62
   120
370
     5
100
AcDbLine
 10
1140.309785975874
 20
2132.052793223736
 30
0.0
 11
1320.30978597588
 21
2312.052793223739
 31
0.0
  0
LINE
  5
E2
330
1F
100
AcDbEntity
  8
0-C_ハッチ
  6
Continuous
 62
   120
370
     5
100
AcDbLine
 10
1174.599108968288
 20
2106.945146596502
 30
0.0
 11
1320.309785975888
 21
2252.655823604102
 31
0.0
  0
LINE
  5
E3
330
1F
100
AcDbEntity
  8
0-C_ハッチ
  6
Continuous
 62
   120
370
     5
100
AcDbLine
 10
1233.996078587978
 20
2106.945146596491
 30
0.0
 11
1320.309785975885
 21
2193.258853984396
 31
0.0
  0
LINE
  5
E4
330
1F
100
AcDbEntity
  8
0-C_ハッチ
  6
Continuous
 62
   120
370
     5
100
AcDbLine
 10
1293.393048207641
 20
2106.945146596505
 30
0.0
 11
1320.309785975874
 21
2133.861884364738
 31
0.0
  0
ARC
  5
E5
330
1F
100
AcDbEntity
  8
0-4_枠
  6
Continuous
 62
    92
370
     5
100
AcDbCircle
 10
870.3097859758822
 20
2361.945146596496
 30
0.0
 40
306.0000000000022
100
AcDbArc
 50
331.9275130641473
 51
28.07248693585271
  0
LINE
  5
E6
330
1F
100
AcDbEntity
  8
0-4_枠
  6
Continuous
 62
    92
370
     5
100
AcDbLine
 10
1140.309785975885
 20
2505.945146596496
 30
0.0
 11
1140.309785975885
 21
2598.945146596496
 31
0.0
  0
LINE
  5
E7
330
1F
100
AcDbEntity
  8
0-4_枠
  6
Continuous
 62
    92
370
     5
100
AcDbLine
 10
1140.309785975885
 20
2124.945146596496
 30
0.0
 11
1140.309785975885
 21
2217.945146596494
 31
0.0
  0
LINE
  5
E8
330
1F
100
AcDbEntity
  8
0-4_枠
  6
Continuous
 62
    92
370
     5
100
AcDbLine
 10
1140.309785975885
 20
2124.945146596496
 30
0.0
 11
1158.309785975885
 21
2106.945146596495
 31
0.0
  0
LINE
  5
E9
330
1F
100
AcDbEntity
  8
0-4_枠
  6
Continuous
 62
    92
370
     5
100
AcDbLine
 10
1158.309785975885
 20
2106.945146596495
 30
0.0
 11
1320.309785975886
 21
2106.945146596495
 31
0.0
  0
LINE
  5
EA
330
1F
100
AcDbEntity
  8
0-4_枠
  6
Continuous
 62
    92
370
     5
100
AcDbLine
 10
1158.309785975885
 20
2616.945146596496
 30
0.0
 11
1140.309785975885
 21
2598.945146596496
 31
0.0
  0
LINE
  5
EB
330
1F
100
AcDbEntity
  8
0-4_枠
  6
Continuous
 62
    92
370
     5
100
AcDbLine
 10
1158.309785975885
 20
2616.945146596496
 30
0.0
 11
1320.309785975886
 21
2616.945146596496
 31
0.0
  0
LINE
  5
EC
330
1F
100
AcDbEntity
  8
0-4_枠
  6
Continuous
 62
    92
370
     5
100
AcDbLine
 10
1320.309785975886
 20
2106.945146596495
 30
0.0
 11
1320.309785975886
 21
2616.945146596496
 31
0.0
  0
LINE
  5
ED
330
1F
100
AcDbEntity
  8
0-7_金物
  6
Continuous
 62
     7
370
     5
100
AcDbLine
 10
1338.309449457727
 20
2271.945220828442
 30
0.0
 11
1338.309449457727
 21
2451.945072364548
 31
0.0
  0
LINE
  5
EE
330
1F
100
AcDbEntity
  8
0-7_金物
  6
Continuous
 62
     7
370
     5
100
AcDbLine
 10
1350.309785975886
 20
2451.945072364548
 30
0.0
 11
1338.309449457727
 21
2451.945072364548
 31
0.0
  0
LINE
  5
EF
330
1F
100
AcDbEntity
  8
0-7_金物
  6
Continuous
 62
     7
370
     5
100
AcDbLine
 10
1350.309785975886
 20
2271.945220828442
 30
0.0
 11
1338.309449457727
 21
2271.945220828442
 31
0.0
  0
LINE
  5
F0
330
1F
100
AcDbEntity
  8
0-7_金物
  6
Continuous
 62
     7
370
     5
100
AcDbLine
 10
1338.309449457727
 20
2301.945319804371
 30
0.0
 11
1326.309855259036
 21
2301.945319804371
 31
0.0
  0
LINE
  5
F1
330
1F
100
AcDbEntity
  8
0-7_金物
  6
Continuous
 62
     7
370
     5
100
AcDbLine
 10
1338.309449457727
 20
2421.944973388618
 30
0.0
 11
1326.309855259036
 21
2421.944973388618
 31
0.0
  0
LINE
  5
F2
330
1F
100
AcDbEntity
  8
0-7_金物
  6
Continuous
 62
     7
370
     5
100
AcDbLine
 10
1326.309855259036
 20
2301.945319804371
 30
0.0
 11
1326.309855259036
 21
2421.944973388618
 31
0.0
  0
LINE
  5
F3
330
1F
100
AcDbEntity
  8
0-7_金物
  6
Continuous
 62
     7
370
     5
100
AcDbLine
 10
1326.309855259036
 20
2415.945547449008
 30
0.0
 11
1320.309785975886
 21
2415.945547449008
 31
0.0
  0
LINE
  5
F4
330
1F
100
AcDbEntity
  8
0-7_金物
  6
Continuous
 62
     7
370
     5
100
AcDbLine
 10
1326.309855259036
 20
2307.945488063449
 30
0.0
 11
1320.309785975886
 21
2307.945488063449
 31
0.0
  0
LINE
  5
F5
330
1F
100
AcDbEntity
  8
0-7_金物
  6
Continuous
 62
     7
370
     5
100
AcDbLine
 10
1350.309785975886
 20
2271.945220828442
 30
0.0
 11
1350.309785975886
 21
2451.945072364548
 31
0.0
  0
LINE
  5
F6
330
1F
100
AcDbEntity
  8
0-3_仕上げ
  6
Continuous
 62
    40
370
     5
100
AcDbLine
 10
1320.309785975886
 20
2178.945146596496
 30
0.0
 11
1920.309588024032
 21
2178.945146596496
 31
0.0
  0
LINE
  5
F7
330
1F
100
AcDbEntity
  8
0-3_仕上げ
  6
Continuous
 62
    40
370
     5
100
AcDbLine
 10
1320.309785975886
 20
2253.945146596496
 30
0.0
 11
1920.309588024032
 21
2253.945146596496
 31
0.0
  0
LINE
  5
F8
330
1F
100
AcDbEntity
  8
0-C_ハッチ
  6
JWW_DASHED1
 62
   120
370
     5
100
AcDbLine
 10
1908.289850182835
 20
2178.945146596503
 30
0.0
 11
1920.309588024025
 21
2190.964884437691
 31
0.0
  0
LINE
  5
F9
330
1F
100
AcDbEntity
  8
0-C_ハッチ
  6
JWW_DASHED1
 62
   120
370
     5
100
AcDbLine
 10
1865.863443311639
 20
2178.945146596507
 30
0.0
 11
1920.309588024015
 21
2233.391291308883
 31
0.0
  0
LINE
  5
FA
330
1F
100
AcDbEntity
  8
0-C_ハッチ
  6
JWW_DASHED1
 62
   120
370
     5
100
AcDbLine
 10
1823.437036440442
 20
2178.945146596509
 30
0.0
 11
1898.437036440452
 21
2253.945146596521
 31
0.0
  0
LINE
  5
FB
330
1F
100
AcDbEntity
  8
0-C_ハッチ
  6
JWW_DASHED1
 62
   120
370
     5
100
AcDbLine
 10
1781.010629569234
 20
2178.945146596501
 30
0.0
 11
1856.010629569227
 21
2253.945146596494
 31
0.0
  0
LINE
  5
FC
330
1F
100
AcDbEntity
  8
0-C_ハッチ
  6
JWW_DASHED1
 62
   120
370
     5
100
AcDbLine
 10
1738.584222698034
 20
2178.945146596501
 30
0.0
 11
1813.584222698028
 21
2253.945146596496
 31
0.0
  0
LINE
  5
FD
330
1F
100
AcDbEntity
  8
0-C_ハッチ
  6
JWW_DASHED1
 62
   120
370
     5
100
AcDbLine
 10
1696.157815826838
 20
2178.945146596504
 30
0.0
 11
1771.157815826832
 21
2253.9451465965
 31
0.0
  0
LINE
  5
FE
330
1F
100
AcDbEntity
  8
0-C_ハッチ
  6
JWW_DASHED1
 62
   120
370
     5
100
AcDbLine
 10
1653.7314089557
 20
2178.945146596514
 30
0.0
 11
1728.731408955695
 21
2253.945146596508
 31
0.0
  0
LINE
  5
FF
330
1F
100
AcDbEntity
  8
0-C_ハッチ
  6
JWW_DASHED1
 62
   120
370
     5
100
AcDbLine
 10
1611.305002084503
 20
2178.945146596516
 30
0.0
 11
1686.305002084499
 21
2253.945146596512
 31
0.0
  0
LINE
  5
100
330
1F
100
AcDbEntity
  8
0-C_ハッチ
  6
JWW_DASHED1
 62
   120
370
     5
100
AcDbLine
 10
1568.878595213292
 20
2178.945146596504
 30
0.0
 11
1643.878595213303
 21
2253.945146596515
 31
0.0
  0
LINE
  5
101
330
1F
100
AcDbEntity
  8
0-C_ハッチ
  6
JWW_DASHED1
 62
   120
370
     5
100
AcDbLine
 10
1526.452188342096
 20
2178.945146596508
 30
0.0
 11
1601.452188342107
 21
2253.945146596519
 31
0.0
  0
LINE
  5
102
330
1F
100
AcDbEntity
  8
0-C_ハッチ
  6
JWW_DASHED1
 62
   120
370
     5
100
AcDbLine
 10
1484.025781470899
 20
2178.945146596512
 30
0.0
 11
1559.025781470895
 21
2253.945146596507
 31
0.0
  0
LINE
  5
103
330
1F
100
AcDbEntity
  8
0-C_ハッチ
  6
JWW_DASHED1
 62
   120
370
     5
100
AcDbLine
 10
1441.599374599686
 20
2178.9451465965
 30
0.0
 11
1516.599374599683
 21
2253.945146596494
 31
0.0
  0
LINE
  5
104
330
1F
100
AcDbEntity
  8
0-C_ハッチ
  6
JWW_DASHED1
 62
   120
370
     5
100
AcDbLine
 10
1399.17296772849
 20
2178.945146596503
 30
0.0
 11
1474.172967728486
 21
2253.945146596498
 31
0.0
  0
LINE
  5
105
330
1F
100
AcDbEntity
  8
0-C_ハッチ
  6
JWW_DASHED1
 62
   120
370
     5
100
AcDbLine
 10
1356.746560857295
 20
2178.945146596507
 30
0.0
 11
1431.74656085729
 21
2253.945146596503
 31
0.0
  0
LINE
  5
106
330
1F
100
AcDbEntity
  8
0-C_ハッチ
  6
JWW_DASHED1
 62
   120
370
     5
100
AcDbLine
 10
1320.309785975868
 20
2184.934778586226
 30
0.0
 11
1389.320153986153
 21
2253.945146596509
 31
0.0
  0
LINE
  5
107
330
1F
100
AcDbEntity
  8
0-C_ハッチ
  6
JWW_DASHED1
 62
   120
370
     5
100
AcDbLine
 10
1320.309785975873
 20
2227.361185457431
 30
0.0
 11
1346.893747114956
 21
2253.945146596514
 31
0.0
  0
LINE
  5
108
330
1F
100
AcDbEntity
  8
0-3_仕上げ
  6
Continuous
 62
    40
370
     5
100
AcDbLine
 10
-3623.690016072242
 20
2178.945146596496
 30
0.0
 11
-3023.690214024098
 21
2178.945146596496
 31
0.0
  0
LINE
  5
109
330
1F
100
AcDbEntity
  8
0-3_仕上げ
  6
Continuous
 62
    40
370
     5
100
AcDbLine
 10
-3623.690016072242
 20
2253.945146596496
 30
0.0
 11
-3023.690214024098
 21
2253.945146596496
 31
0.0
  0
LINE
  5
10A
330
1F
100
AcDbEntity
  8
0-C_ハッチ
  6
JWW_DASHED1
 62
   120
370
     5
100
AcDbLine
 10
-3035.709951865294
 20
2178.945146596503
 30
0.0
 11
-3023.690214024105
 21
2190.964884437691
 31
0.0
  0
LINE
  5
10B
330
1F
100
AcDbEntity
  8
0-C_ハッチ
  6
JWW_DASHED1
 62
   120
370
     5
100
AcDbLine
 10
-3078.136358736491
 20
2178.945146596507
 30
0.0
 11
-3023.690214024115
 21
2233.391291308883
 31
0.0
  0
LINE
  5
10C
330
1F
100
AcDbEntity
  8
0-C_ハッチ
  6
JWW_DASHED1
 62
   120
370
     5
100
AcDbLine
 10
-3120.562765607688
 20
2178.945146596509
 30
0.0
 11
-3045.562765607678
 21
2253.945146596521
 31
0.0
  0
LINE
  5
10D
330
1F
100
AcDbEntity
  8
0-C_ハッチ
  6
JWW_DASHED1
 62
   120
370
     5
100
AcDbLine
 10
-3162.989172478894
 20
2178.945146596501
 30
0.0
 11
-3087.989172478901
 21
2253.945146596494
 31
0.0
  0
LINE
  5
10E
330
1F
100
AcDbEntity
  8
0-C_ハッチ
  6
JWW_DASHED1
 62
   120
370
     5
100
AcDbLine
 10
-3205.415579350095
 20
2178.945146596501
 30
0.0
 11
-3130.415579350101
 21
2253.945146596496
 31
0.0
  0
LINE
  5
10F
330
1F
100
AcDbEntity
  8
0-C_ハッチ
  6
JWW_DASHED1
 62
   120
370
     5
100
AcDbLine
 10
-3247.841986221291
 20
2178.945146596504
 30
0.0
 11
-3172.841986221298
 21
2253.9451465965
 31
0.0
  0
LINE
  5
110
330
1F
100
AcDbEntity
  8
0-C_ハッチ
  6
JWW_DASHED1
 62
   120
370
     5
100
AcDbLine
 10
-3290.26839309243
 20
2178.945146596514
 30
0.0
 11
-3215.268393092433
 21
2253.945146596508
 31
0.0
  0
LINE
  5
111
330
1F
100
AcDbEntity
  8
0-C_ハッチ
  6
JWW_DASHED1
 62
   120
370
     5
100
AcDbLine
 10
-3332.694799963626
 20
2178.945146596516
 30
0.0
 11
-3257.69479996363
 21
2253.945146596512
 31
0.0
  0
LINE
  5
112
330
1F
100
AcDbEntity
  8
0-C_ハッチ
  6
JWW_DASHED1
 62
   120
370
     5
100
AcDbLine
 10
-3375.121206834837
 20
2178.945146596504
 30
0.0
 11
-3300.121206834826
 21
2253.945146596515
 31
0.0
  0
LINE
  5
113
330
1F
100
AcDbEntity
  8
0-C_ハッチ
  6
JWW_DASHED1
 62
   120
370
     5
100
AcDbLine
 10
-3417.547613706033
 20
2178.945146596508
 30
0.0
 11
-3342.547613706023
 21
2253.945146596519
 31
0.0
  0
LINE
  5
114
330
1F
100
AcDbEntity
  8
0-C_ハッチ
  6
JWW_DASHED1
 62
   120
370
     5
100
AcDbLine
 10
-3459.97402057723
 20
2178.945146596512
 30
0.0
 11
-3384.974020577237
 21
2253.945146596507
 31
0.0
  0
LINE
  5
115
330
1F
100
AcDbEntity
  8
0-C_ハッチ
  6
JWW_DASHED1
 62
   120
370
     5
100
AcDbLine
 10
-3502.400427448443
 20
2178.9451465965
 30
0.0
 11
-3427.400427448447
 21
2253.945146596494
 31
0.0
  0
LINE
  5
116
330
1F
100
AcDbEntity
  8
0-C_ハッチ
  6
JWW_DASHED1
 62
   120
370
     5
100
AcDbLine
 10
-3544.82683431964
 20
2178.945146596503
 30
0.0
 11
-3469.826834319643
 21
2253.945146596498
 31
0.0
  0
LINE
  5
117
330
1F
100
AcDbEntity
  8
0-C_ハッチ
  6
JWW_DASHED1
 62
   120
370
     5
100
AcDbLine
 10
-3587.253241190833
 20
2178.945146596507
 30
0.0
 11
-3512.25324119084
 21
2253.945146596503
 31
0.0
  0
LINE
  5
118
330
1F
100
AcDbEntity
  8
0-C_ハッチ
  6
JWW_DASHED1
 62
   120
370
     5
100
AcDbLine
 10
-3623.690016072262
 20
2184.934778586226
 30
0.0
 11
-3554.679648061979
 21
2253.945146596509
 31
0.0
  0
LINE
  5
119
330
1F
100
AcDbEntity
  8
0-C_ハッチ
  6
JWW_DASHED1
 62
   120
370
     5
100
AcDbLine
 10
-3623.690016072255
 20
2227.361185457431
 30
0.0
 11
-3597.106054933172
 21
2253.945146596514
 31
0.0
  0
LINE
  5
11A
330
1F
100
AcDbEntity
  8
0-7_金物
  6
Continuous
 62
     7
370
     5
100
AcDbLine
 10
-3041.689877505955
 20
2271.945220828442
 30
0.0
 11
-3041.689877505955
 21
2451.945072364548
 31
0.0
  0
LINE
  5
11B
330
1F
100
AcDbEntity
  8
0-7_金物
  6
Continuous
 62
     7
370
     5
100
AcDbLine
 10
-3053.690214024115
 20
2451.945072364548
 30
0.0
 11
-3041.689877505955
 21
2451.945072364548
 31
0.0
  0
LINE
  5
11C
330
1F
100
AcDbEntity
  8
0-7_金物
  6
Continuous
 62
     7
370
     5
100
AcDbLine
 10
-3053.690214024115
 20
2271.945220828442
 30
0.0
 11
-3041.689877505955
 21
2271.945220828442
 31
0.0
  0
LINE
  5
11D
330
1F
100
AcDbEntity
  8
0-7_金物
  6
Continuous
 62
     7
370
     5
100
AcDbLine
 10
-3041.689877505955
 20
2301.945319804371
 30
0.0
 11
-3029.690283307265
 21
2301.945319804371
 31
0.0
  0
LINE
  5
11E
330
1F
100
AcDbEntity
  8
0-7_金物
  6
Continuous
 62
     7
370
     5
100
AcDbLine
 10
-3041.689877505955
 20
2421.944973388618
 30
0.0
 11
-3029.690283307265
 21
2421.944973388618
 31
0.0
  0
LINE
  5
11F
330
1F
100
AcDbEntity
  8
0-7_金物
  6
Continuous
 62
     7
370
     5
100
AcDbLine
 10
-3029.690283307265
 20
2301.945319804371
 30
0.0
 11
-3029.690283307265
 21
2421.944973388618
 31
0.0
  0
LINE
  5
120
330
1F
100
AcDbEntity
  8
0-7_金物
  6
Continuous
 62
     7
370
     5
100
AcDbLine
 10
-3029.690283307265
 20
2415.945547449008
 30
0.0
 11
-3023.690214024115
 21
2415.945547449008
 31
0.0
  0
LINE
  5
121
330
1F
100
AcDbEntity
  8
0-7_金物
  6
Continuous
 62
     7
370
     5
100
AcDbLine
 10
-3029.690283307265
 20
2307.945488063449
 30
0.0
 11
-3023.690214024115
 21
2307.945488063449
 31
0.0
  0
LINE
  5
122
330
1F
100
AcDbEntity
  8
0-7_金物
  6
Continuous
 62
     7
370
     5
100
AcDbLine
 10
-3053.690214024115
 20
2271.945220828442
 30
0.0
 11
-3053.690214024115
 21
2451.945072364548
 31
0.0
  0
MTEXT
  5
123
330
1F
100
AcDbEntity
  8
0-0_補助線
  6
Continuous
 62
     7
370
   211
100
AcDbMText
 10
-3037.09543571546
 20
2325.079196304033
 30
0.0
 40
91.44
 41
180.0
 46
0.0
 71
     7
 72
     1
  1
{\fＭＳ ゴシック|b0|i0|c128|p49;3.5}
 73
     1
 44
1.0
  0
LINE
  5
124
330
1F
100
AcDbEntity
  8
0-B_寸法
  6
Continuous
 62
   120
370
     5
100
AcDbLine
 10
-2414.488886602363
 20
2616.945146596485
 30
0.0
 11
-2414.488886602363
 21
2106.945146596498
 31
0.0
  0
LWPOLYLINE
  5
125
330
1F
100
AcDbEntity
  8
0-B_寸法
  6
Continuous
 62
     7
370
     5
100
AcDbPolyline
 90
        4
 70
     1
 43
3.0
 10
-2412.988886602363
 20
2616.945146596485
 42
0.4142135623731
 10
-2414.488886602363
 20
2618.445146596484
 42
0.4142135623731
 10
-2415.988886602363
 20
2616.945146596485
 42
0.4142135623731
 10
-2414.488886602363
 20
2615.445146596485
 42
0.4142135623731
  0
LWPOLYLINE
  5
126
330
1F
100
AcDbEntity
  8
0-B_寸法
  6
Continuous
 62
     7
370
     5
100
AcDbPolyline
 90
        4
 70
     1
 43
3.0
 10
-2412.988886602363
 20
2106.945146596498
 42
0.4142135623731
 10
-2414.488886602363
 20
2108.445146596497
 42
0.4142135623731
 10
-2415.988886602363
 20
2106.945146596498
 42
0.4142135623731
 10
-2414.488886602363
 20
2105.445146596498
 42
0.4142135623731
  0
LINE
  5
127
330
1F
100
AcDbEntity
  8
0-B_寸法
  6
Continuous
 62
   120
370
     5
100
AcDbLine
 10
-2414.488886602363
 20
2616.945146596485
 30
0.0
 11
-2533.264455384035
 21
2616.945146596485
 31
0.0
  0
LINE
  5
128
330
1F
100
AcDbEntity
  8
0-B_寸法
  6
Continuous
 62
   120
370
     5
100
AcDbLine
 10
-2414.488886602363
 20
2106.945146596498
 30
0.0
 11
-2533.264455384035
 21
2106.945146596498
 31
0.0
  0
MTEXT
  5
129
330
1F
100
AcDbEntity
  8
0-B_寸法
  6
Continuous
 62
     7
370
   211
100
AcDbMText
 10
-2429.488886602363
 20
2287.665146596491
 30
0.0
 40
91.44
 41
120.0
 46
0.0
 71
     7
 72
     1
  1
{\fＭＳ ゴシック|b0|i0|c128|p49;85}
 11
6.123031769111886E-17
 21
1.0
 31
0.0
 73
     1
 44
1.0
  0
LINE
  5
12A
330
1F
100
AcDbEntity
  8
0-0_補助線
  6
JWW_HOJO
 62
   120
370
     5
100
AcDbLine
 10
1920.309588024032
 20
1806.945146596495
 30
0.0
 11
-3623.690016072255
 21
1806.945146596495
 31
0.0
  0
LINE
  5
12B
330
1F
100
AcDbEntity
  8
0-0_補助線
  6
JWW_HOJO
 62
   120
370
     5
100
AcDbLine
 10
1920.309588024032
 20
1986.945146596495
 30
0.0
 11
-3623.690016072255
 21
1986.945146596495
 31
0.0
  0
LINE
  5
12C
330
1F
100
AcDbEntity
  8
0-B_寸法
  6
Continuous
 62
   120
370
     5
100
AcDbLine
 10
-3023.690214024115
 20
1446.945146596495
 30
0.0
 11
-2843.690214024115
 21
1446.945146596495
 31
0.0
  0
LWPOLYLINE
  5
12D
330
1F
100
AcDbEntity
  8
0-B_寸法
  6
Continuous
 62
     7
370
     5
100
AcDbPolyline
 90
        4
 70
     1
 43
3.0
 10
-3022.190214024115
 20
1446.945146596495
 42
0.4142135623731
 10
-3023.690214024115
 20
1448.445146596495
 42
0.4142135623731
 10
-3025.190214024115
 20
1446.945146596495
 42
0.4142135623731
 10
-3023.690214024115
 20
1445.445146596495
 42
0.4142135623731
  0
LWPOLYLINE
  5
12E
330
1F
100
AcDbEntity
  8
0-B_寸法
  6
Continuous
 62
     7
370
     5
100
AcDbPolyline
 90
        4
 70
     1
 43
3.0
 10
-2842.190214024115
 20
1446.945146596495
 42
0.4142135623731
 10
-2843.690214024115
 20
1448.445146596495
 42
0.4142135623731
 10
-2845.190214024115
 20
1446.945146596495
 42
0.4142135623731
 10
-2843.690214024115
 20
1445.445146596495
 42
0.4142135623731
  0
LINE
  5
12F
330
1F
100
AcDbEntity
  8
0-B_寸法
  6
Continuous
 62
   120
370
     5
100
AcDbLine
 10
-3023.690214024115
 20
1446.945146596495
 30
0.0
 11
-3023.690214024115
 21
1806.945146596495
 31
0.0
  0
LINE
  5
130
330
1F
100
AcDbEntity
  8
0-B_寸法
  6
Continuous
 62
   120
370
     5
100
AcDbLine
 10
-2843.690214024115
 20
1446.945146596495
 30
0.0
 11
-2843.690214024115
 21
1806.945146596495
 31
0.0
  0
MTEXT
  5
131
330
1F
100
AcDbEntity
  8
0-B_寸法
  6
Continuous
 62
     7
370
   211
100
AcDbMText
 10
-2993.690214024115
 20
1447.665146596495
 30
0.0
 40
91.44
 41
120.0
 46
0.0
 71
     7
 72
     1
  1
{\fＭＳ ゴシック|b0|i0|c128|p49;30}
 73
     1
 44
1.0
  0
LINE
  5
132
330
1F
100
AcDbEntity
  8
0-B_寸法
  6
Continuous
 62
   120
370
     5
100
AcDbLine
 10
-2843.690214024115
 20
1446.945146596495
 30
0.0
 11
1140.309785975885
 21
1446.945146596495
 31
0.0
  0
LWPOLYLINE
  5
133
330
1F
100
AcDbEntity
  8
0-B_寸法
  6
Continuous
 62
     7
370
     5
100
AcDbPolyline
 90
        4
 70
     1
 43
3.0
 10
1141.809785975885
 20
1446.945146596495
 42
0.4142135623731
 10
1140.309785975885
 20
1448.445146596495
 42
0.4142135623731
 10
1138.809785975886
 20
1446.945146596495
 42
0.4142135623731
 10
1140.309785975885
 20
1445.445146596495
 42
0.4142135623731
  0
LINE
  5
134
330
1F
100
AcDbEntity
  8
0-B_寸法
  6
Continuous
 62
   120
370
     5
100
AcDbLine
 10
1140.309785975885
 20
1446.945146596495
 30
0.0
 11
1140.309785975885
 21
1806.945146596495
 31
0.0
  0
LINE
  5
135
330
1F
100
AcDbEntity
  8
0-B_寸法
  6
Continuous
 62
   120
370
     5
100
AcDbLine
 10
1140.309785975885
 20
1446.945146596495
 30
0.0
 11
1320.309785975886
 21
1446.945146596495
 31
0.0
  0
LWPOLYLINE
  5
136
330
1F
100
AcDbEntity
  8
0-B_寸法
  6
Continuous
 62
     7
370
     5
100
AcDbPolyline
 90
        4
 70
     1
 43
3.0
 10
1321.809785975886
 20
1446.945146596495
 42
0.4142135623731
 10
1320.309785975886
 20
1448.445146596495
 42
0.4142135623731
 10
1318.809785975887
 20
1446.945146596495
 42
0.4142135623731
 10
1320.309785975886
 20
1445.445146596495
 42
0.4142135623731
  0
LINE
  5
137
330
1F
100
AcDbEntity
  8
0-B_寸法
  6
Continuous
 62
   120
370
     5
100
AcDbLine
 10
1320.309785975886
 20
1446.945146596495
 30
0.0
 11
1320.309785975886
 21
1806.945146596495
 31
0.0
  0
MTEXT
  5
138
330
1F
100
AcDbEntity
  8
0-B_寸法
  6
Continuous
 62
     7
370
   211
100
AcDbMText
 10
1170.309785975886
 20
1447.665146596495
 30
0.0
 40
91.44
 41
120.0
 46
0.0
 71
     7
 72
     1
  1
{\fＭＳ ゴシック|b0|i0|c128|p49;30}
 73
     1
 44
1.0
  0
LINE
  5
139
330
1F
100
AcDbEntity
  8
0-B_寸法
  6
Continuous
 62
   120
370
     5
100
AcDbLine
 10
-3023.690214024115
 20
1266.945146596495
 30
0.0
 11
1320.309785975886
 21
1266.945146596495
 31
0.0
  0
LWPOLYLINE
  5
13A
330
1F
100
AcDbEntity
  8
0-B_寸法
  6
Continuous
 62
     7
370
     5
100
AcDbPolyline
 90
        4
 70
     1
 43
3.0
 10
-3022.190214024115
 20
1266.945146596495
 42
0.4142135623731
 10
-3023.690214024115
 20
1268.445146596495
 42
0.4142135623731
 10
-3025.190214024115
 20
1266.945146596495
 42
0.4142135623731
 10
-3023.690214024115
 20
1265.445146596495
 42
0.4142135623731
  0
LWPOLYLINE
  5
13B
330
1F
100
AcDbEntity
  8
0-B_寸法
  6
Continuous
 62
     7
370
     5
100
AcDbPolyline
 90
        4
 70
     1
 43
3.0
 10
1321.809785975886
 20
1266.945146596495
 42
0.4142135623731
 10
1320.309785975886
 20
1268.445146596495
 42
0.4142135623731
 10
1318.809785975887
 20
1266.945146596495
 42
0.4142135623731
 10
1320.309785975886
 20
1265.445146596495
 42
0.4142135623731
  0
LINE
  5
13C
330
1F
100
AcDbEntity
  8
0-B_寸法
  6
Continuous
 62
   120
370
     5
100
AcDbLine
 10
-3023.690214024115
 20
1266.945146596495
 30
0.0
 11
-3023.690214024115
 21
1446.945146596495
 31
0.0
  0
LINE
  5
13D
330
1F
100
AcDbEntity
  8
0-B_寸法
  6
Continuous
 62
   120
370
     5
100
AcDbLine
 10
1320.309785975886
 20
1266.945146596495
 30
0.0
 11
1320.309785975886
 21
1446.945146596495
 31
0.0
  0
LINE
  5
13E
330
1F
100
AcDbEntity
  8
0-B_寸法
  6
Continuous
 62
   120
370
     5
100
AcDbLine
 10
-3053.690214024115
 20
3141.945146596496
 30
0.0
 11
1350.309785975886
 21
3141.945146596496
 31
0.0
  0
LWPOLYLINE
  5
13F
330
1F
100
AcDbEntity
  8
0-B_寸法
  6
Continuous
 62
     7
370
     5
100
AcDbPolyline
 90
        4
 70
     1
 43
3.0
 10
-3052.190214024115
 20
3141.945146596496
 42
0.4142135623731
 10
-3053.690214024115
 20
3143.445146596496
 42
0.4142135623731
 10
-3055.190214024115
 20
3141.945146596496
 42
0.4142135623731
 10
-3053.690214024115
 20
3140.445146596496
 42
0.4142135623731
  0
LWPOLYLINE
  5
140
330
1F
100
AcDbEntity
  8
0-B_寸法
  6
Continuous
 62
     7
370
     5
100
AcDbPolyline
 90
        4
 70
     1
 43
3.0
 10
1351.809785975886
 20
3141.945146596496
 42
0.4142135623731
 10
1350.309785975886
 20
3143.445146596496
 42
0.4142135623731
 10
1348.809785975887
 20
3141.945146596496
 42
0.4142135623731
 10
1350.309785975886
 20
3140.445146596496
 42
0.4142135623731
  0
LINE
  5
141
330
1F
100
AcDbEntity
  8
0-B_寸法
  6
Continuous
 62
   120
370
     5
100
AcDbLine
 10
-3053.690214024115
 20
3141.945146596496
 30
0.0
 11
-3053.690214024115
 21
2781.945146596496
 31
0.0
  0
LINE
  5
142
330
1F
100
AcDbEntity
  8
0-B_寸法
  6
Continuous
 62
   120
370
     5
100
AcDbLine
 10
1350.309785975886
 20
3141.945146596496
 30
0.0
 11
1350.309785975886
 21
2781.945146596496
 31
0.0
  0
ARC
  5
143
330
1F
100
AcDbEntity
  8
0-6_扉
  6
JWW_DASHED2
 62
    40
370
     5
100
AcDbCircle
 10
859.2264258655325
 20
2557.712520566675
 30
0.0
 40
18.0
100
AcDbArc
 50
85.6539792783598
 51
175.65397927836
  0
LINE
  5
144
330
1F
100
AcDbEntity
  8
0-6_扉
  6
JWW_DASHED2
 62
    40
370
     5
100
AcDbLine
 10
950.3316725677666
 20
2568.840594224114
 30
0.0
 11
860.590459650727
 21
2575.660763150083
 31
0.0
  0
ARC
  5
145
330
1F
100
AcDbEntity
  8
0-6_扉
  6
JWW_DASHED2
 62
    40
370
     5
100
AcDbCircle
 10
948.9676387825739
 20
2550.892351640705
 30
0.0
 40
18.0
100
AcDbArc
 50
355.6539792783599
 51
85.6539792783597
  0
ARC
  5
146
330
1F
100
AcDbEntity
  8
0-6_扉
  6
JWW_DASHED2
 62
    40
370
     5
100
AcDbCircle
 10
515.9992414763306
 20
2557.712520566678
 30
0.0
 40
18.0
100
AcDbArc
 50
4.346020721638975
 51
94.34602072163908
  0
LINE
  5
147
330
1F
100
AcDbEntity
  8
0-6_扉
  6
JWW_DASHED2
 62
    40
370
     5
100
AcDbLine
 10
424.8939947740999
 20
2568.84059422412
 30
0.0
 11
514.6352076911378
 21
2575.660763150086
 31
0.0
  0
ARC
  5
148
330
1F
100
AcDbEntity
  8
0-6_扉
  6
JWW_DASHED2
 62
    40
370
     5
100
AcDbCircle
 10
426.2580285592927
 20
2550.89235164071
 30
0.0
 40
18.0
100
AcDbArc
 50
94.34602072163908
 51
184.3460207216391
  0
LINE
  5
149
330
1F
100
AcDbEntity
  8
0-6_扉
  6
JWW_DASHED2
 62
    40
370
     5
100
AcDbLine
 10
966.9158813659794
 20
2549.528317855515
 30
0.0
 11
933.2803654902614
 21
2106.945146596495
 31
0.0
  0
LINE
  5
14A
330
1F
100
AcDbEntity
  8
0-6_扉
  6
JWW_DASHED2
 62
    40
370
     5
100
AcDbLine
 10
408.3097859758871
 20
2549.528317855521
 30
0.0
 11
441.9453018515983
 21
2106.945146596495
 31
0.0
  0
LINE
  5
14B
330
1F
100
AcDbEntity
  8
0-6_扉
  6
JWW_DASHED2
 62
    40
370
     5
100
AcDbLine
 10
533.9474840597395
 20
2559.076554351873
 30
0.0
 11
568.3086485391791
 21
2106.945146596495
 31
0.0
  0
LINE
  5
14C
330
1F
100
AcDbEntity
  8
0-6_扉
  6
JWW_DASHED2
 62
    40
370
     5
100
AcDbLine
 10
841.278183282127
 20
2559.076554351869
 30
0.0
 11
806.9170188026771
 21
2106.945146596495
 31
0.0
  0
LINE
  5
14D
330
1F
100
AcDbEntity
  8
0-1_通り芯
  6
JWW_CENTER1
 62
   120
370
     5
100
AcDbLine
 10
408.3097859758837
 20
2781.945146596496
 30
0.0
 11
408.3097859758837
 21
2549.528317855521
 31
0.0
  0
LWPOLYLINE
  5
14E
330
1F
100
AcDbEntity
  8
0-B_寸法
  6
Continuous
 62
     7
370
     5
100
AcDbPolyline
 90
        4
 70
     1
 43
3.0
 10
409.8097859758837
 20
2961.945146596496
 42
0.4142135623731
 10
408.3097859758837
 20
2963.445146596496
 42
0.4142135623731
 10
406.8097859758837
 20
2961.945146596496
 42
0.4142135623731
 10
408.3097859758837
 20
2960.445146596496
 42
0.4142135623731
  0
LINE
  5
14F
330
1F
100
AcDbEntity
  8
0-B_寸法
  6
Continuous
 62
   120
370
     5
100
AcDbLine
 10
408.3097859758837
 20
2961.945146596496
 30
0.0
 11
408.3097859758837
 21
2781.945146596496
 31
0.0
  0
LINE
  5
150
330
1F
100
AcDbEntity
  8
0-0_補助線
  6
JWW_HOJO
 62
     7
370
     5
100
AcDbLine
 10
-1858.190214024114
 20
1086.945146596495
 30
0.0
 11
-1858.190214024114
 21
3321.945146596496
 31
0.0
  0
LINE
  5
151
330
1F
100
AcDbEntity
  8
0-0_補助線
  6
JWW_HOJO
 62
     7
370
     5
100
AcDbLine
 10
154.8097859758857
 20
1086.945146596495
 30
0.0
 11
154.8097859758857
 21
3321.945146596496
 31
0.0
  0
LINE
  5
152
330
1F
100
AcDbEntity
  8
0-B_寸法
  6
Continuous
 62
   120
370
     5
100
AcDbLine
 10
-2858.690214024115
 20
1806.945146596495
 30
0.0
 11
-1861.190214024115
 21
1806.945146596495
 31
0.0
  0
LWPOLYLINE
  5
153
330
1F
100
AcDbEntity
  8
0-B_寸法
  6
Continuous
 62
     7
370
     5
100
AcDbPolyline
 90
        4
 70
     1
 43
3.0
 10
-2857.190214024115
 20
1806.945146596495
 42
0.4142135623731
 10
-2858.690214024115
 20
1808.445146596495
 42
0.4142135623731
 10
-2860.190214024115
 20
1806.945146596495
 42
0.4142135623731
 10
-2858.690214024115
 20
1805.445146596495
 42
0.4142135623731
  0
LWPOLYLINE
  5
154
330
1F
100
AcDbEntity
  8
0-B_寸法
  6
Continuous
 62
     7
370
     5
100
AcDbPolyline
 90
        4
 70
     1
 43
3.0
 10
-1859.690214024115
 20
1806.945146596495
 42
0.4142135623731
 10
-1861.190214024115
 20
1808.445146596495
 42
0.4142135623731
 10
-1862.690214024115
 20
1806.945146596495
 42
0.4142135623731
 10
-1861.190214024115
 20
1805.445146596495
 42
0.4142135623731
  0
LINE
  5
155
330
1F
100
AcDbEntity
  8
0-B_寸法
  6
Continuous
 62
   120
370
     5
100
AcDbLine
 10
-2858.690214024115
 20
1626.945146596495
 30
0.0
 11
-2858.690214024115
 21
1986.945146596495
 31
0.0
  0
LINE
  5
156
330
1F
100
AcDbEntity
  8
0-B_寸法
  6
Continuous
 62
   120
370
     5
100
AcDbLine
 10
-1861.190214024115
 20
1806.945146596495
 30
0.0
 11
-1861.190214024115
 21
1986.945146596495
 31
0.0
  0
LINE
  5
157
330
1F
100
AcDbEntity
  8
0-B_寸法
  6
Continuous
 62
   120
370
     5
100
AcDbLine
 10
-1855.190214024113
 20
1806.945146596495
 30
0.0
 11
-857.6902140241134
 21
1806.945146596495
 31
0.0
  0
LWPOLYLINE
  5
158
330
1F
100
AcDbEntity
  8
0-B_寸法
  6
Continuous
 62
     7
370
     5
100
AcDbPolyline
 90
        4
 70
     1
 43
3.0
 10
-1853.690214024113
 20
1806.945146596495
 42
0.4142135623731
 10
-1855.190214024113
 20
1808.445146596495
 42
0.4142135623731
 10
-1856.690214024113
 20
1806.945146596495
 42
0.4142135623731
 10
-1855.190214024113
 20
1805.445146596495
 42
0.4142135623731
  0
LWPOLYLINE
  5
159
330
1F
100
AcDbEntity
  8
0-B_寸法
  6
Continuous
 62
     7
370
     5
100
AcDbPolyline
 90
        4
 70
     1
 43
3.0
 10
-856.1902140241134
 20
1806.945146596495
 42
0.4142135623731
 10
-857.6902140241134
 20
1808.445146596495
 42
0.4142135623731
 10
-859.1902140241134
 20
1806.945146596495
 42
0.4142135623731
 10
-857.6902140241134
 20
1805.445146596495
 42
0.4142135623731
  0
LINE
  5
15A
330
1F
100
AcDbEntity
  8
0-B_寸法
  6
Continuous
 62
   120
370
     5
100
AcDbLine
 10
-1855.190214024113
 20
1806.945146596495
 30
0.0
 11
-1855.190214024113
 21
1986.945146596495
 31
0.0
  0
LINE
  5
15B
330
1F
100
AcDbEntity
  8
0-B_寸法
  6
Continuous
 62
   120
370
     5
100
AcDbLine
 10
-857.6902140241134
 20
1626.945146596495
 30
0.0
 11
-857.6902140241134
 21
1986.945146596495
 31
0.0
  0
LINE
  5
15C
330
1F
100
AcDbEntity
  8
0-B_寸法
  6
Continuous
 62
   120
370
     5
100
AcDbLine
 10
-845.6902140241141
 20
1806.945146596495
 30
0.0
 11
151.8097859758851
 21
1806.945146596495
 31
0.0
  0
LWPOLYLINE
  5
15D
330
1F
100
AcDbEntity
  8
0-B_寸法
  6
Continuous
 62
     7
370
     5
100
AcDbPolyline
 90
        4
 70
     1
 43
3.0
 10
-844.1902140241141
 20
1806.945146596495
 42
0.4142135623731
 10
-845.6902140241141
 20
1808.445146596495
 42
0.4142135623731
 10
-847.1902140241141
 20
1806.945146596495
 42
0.4142135623731
 10
-845.6902140241141
 20
1805.445146596495
 42
0.4142135623731
  0
LWPOLYLINE
  5
15E
330
1F
100
AcDbEntity
  8
0-B_寸法
  6
Continuous
 62
     7
370
     5
100
AcDbPolyline
 90
        4
 70
     1
 43
3.0
 10
153.3097859758851
 20
1806.945146596495
 42
0.4142135623731
 10
151.8097859758851
 20
1808.445146596495
 42
0.4142135623731
 10
150.3097859758851
 20
1806.945146596495
 42
0.4142135623731
 10
151.8097859758851
 20
1805.445146596495
 42
0.4142135623731
  0
LINE
  5
15F
330
1F
100
AcDbEntity
  8
0-B_寸法
  6
Continuous
 62
   120
370
     5
100
AcDbLine
 10
-845.6902140241141
 20
1626.945146596495
 30
0.0
 11
-845.6902140241141
 21
1986.945146596495
 31
0.0
  0
LINE
  5
160
330
1F
100
AcDbEntity
  8
0-B_寸法
  6
Continuous
 62
   120
370
     5
100
AcDbLine
 10
151.8097859758851
 20
1806.945146596495
 30
0.0
 11
151.8097859758851
 21
1986.945146596495
 31
0.0
  0
LINE
  5
161
330
1F
100
AcDbEntity
  8
0-B_寸法
  6
Continuous
 62
   120
370
     5
100
AcDbLine
 10
157.8097859758864
 20
1806.945146596495
 30
0.0
 11
1155.309785975889
 21
1806.945146596495
 31
0.0
  0
LWPOLYLINE
  5
162
330
1F
100
AcDbEntity
  8
0-B_寸法
  6
Continuous
 62
     7
370
     5
100
AcDbPolyline
 90
        4
 70
     1
 43
3.0
 10
159.3097859758864
 20
1806.945146596495
 42
0.4142135623731
 10
157.8097859758864
 20
1808.445146596495
 42
0.4142135623731
 10
156.3097859758864
 20
1806.945146596495
 42
0.4142135623731
 10
157.8097859758864
 20
1805.445146596495
 42
0.4142135623731
  0
LWPOLYLINE
  5
163
330
1F
100
AcDbEntity
  8
0-B_寸法
  6
Continuous
 62
     7
370
     5
100
AcDbPolyline
 90
        4
 70
     1
 43
3.0
 10
1156.809785975889
 20
1806.945146596495
 42
0.4142135623731
 10
1155.309785975889
 20
1808.445146596495
 42
0.4142135623731
 10
1153.809785975889
 20
1806.945146596495
 42
0.4142135623731
 10
1155.309785975889
 20
1805.445146596495
 42
0.4142135623731
  0
LINE
  5
164
330
1F
100
AcDbEntity
  8
0-B_寸法
  6
Continuous
 62
   120
370
     5
100
AcDbLine
 10
157.8097859758864
 20
1806.945146596495
 30
0.0
 11
157.8097859758864
 21
1986.945146596495
 31
0.0
  0
LINE
  5
165
330
1F
100
AcDbEntity
  8
0-B_寸法
  6
Continuous
 62
   120
370
     5
100
AcDbLine
 10
1155.309785975889
 20
1626.945146596495
 30
0.0
 11
1155.309785975889
 21
1986.945146596495
 31
0.0
  0
LINE
  5
166
330
1F
100
AcDbEntity
  8
0-B_寸法
  6
Continuous
 62
   120
370
     5
100
AcDbLine
 10
-2858.690214024115
 20
1626.945146596495
 30
0.0
 11
-857.6902140241134
 21
1626.945146596495
 31
0.0
  0
LWPOLYLINE
  5
167
330
1F
100
AcDbEntity
  8
0-B_寸法
  6
Continuous
 62
     7
370
     5
100
AcDbPolyline
 90
        4
 70
     1
 43
3.0
 10
-2857.190214024115
 20
1626.945146596495
 42
0.4142135623731
 10
-2858.690214024115
 20
1628.445146596495
 42
0.4142135623731
 10
-2860.190214024115
 20
1626.945146596495
 42
0.4142135623731
 10
-2858.690214024115
 20
1625.445146596495
 42
0.4142135623731
  0
LWPOLYLINE
  5
168
330
1F
100
AcDbEntity
  8
0-B_寸法
  6
Continuous
 62
     7
370
     5
100
AcDbPolyline
 90
        4
 70
     1
 43
3.0
 10
-856.1902140241134
 20
1626.945146596495
 42
0.4142135623731
 10
-857.6902140241134
 20
1628.445146596495
 42
0.4142135623731
 10
-859.1902140241134
 20
1626.945146596495
 42
0.4142135623731
 10
-857.6902140241134
 20
1625.445146596495
 42
0.4142135623731
  0
LINE
  5
169
330
1F
100
AcDbEntity
  8
0-B_寸法
  6
Continuous
 62
   120
370
     5
100
AcDbLine
 10
-857.6902140241134
 20
1626.945146596495
 30
0.0
 11
-845.6902140241141
 21
1626.945146596495
 31
0.0
  0
LWPOLYLINE
  5
16A
330
1F
100
AcDbEntity
  8
0-B_寸法
  6
Continuous
 62
     7
370
     5
100
AcDbPolyline
 90
        4
 70
     1
 43
3.0
 10
-844.1902140241141
 20
1626.945146596495
 42
0.4142135623731
 10
-845.6902140241141
 20
1628.445146596495
 42
0.4142135623731
 10
-847.1902140241141
 20
1626.945146596495
 42
0.4142135623731
 10
-845.6902140241141
 20
1625.445146596495
 42
0.4142135623731
  0
LINE
  5
16B
330
1F
100
AcDbEntity
  8
0-B_寸法
  6
Continuous
 62
   120
370
     5
100
AcDbLine
 10
-845.6902140241141
 20
1626.945146596495
 30
0.0
 11
1155.309785975889
 21
1626.945146596495
 31
0.0
  0
LWPOLYLINE
  5
16C
330
1F
100
AcDbEntity
  8
0-B_寸法
  6
Continuous
 62
     7
370
     5
100
AcDbPolyline
 90
        4
 70
     1
 43
3.0
 10
1156.809785975889
 20
1626.945146596495
 42
0.4142135623731
 10
1155.309785975889
 20
1628.445146596495
 42
0.4142135623731
 10
1153.809785975889
 20
1626.945146596495
 42
0.4142135623731
 10
1155.309785975889
 20
1625.445146596495
 42
0.4142135623731
  0
ARC
  5
16D
330
1F
100
AcDbEntity
  8
0-6_扉
  6
JWW_DASHED2
 62
    40
370
     5
100
AcDbCircle
 10
-2562.606853913763
 20
2557.712520566675
 30
0.0
 40
18.0
100
AcDbArc
 50
4.346020721640005
 51
94.34602072164022
  0
LINE
  5
16E
330
1F
100
AcDbEntity
  8
0-6_扉
  6
JWW_DASHED2
 62
    40
370
     5
100
AcDbLine
 10
-2653.712100615998
 20
2568.840594224114
 30
0.0
 11
-2563.970887698956
 21
2575.660763150083
 31
0.0
  0
ARC
  5
16F
330
1F
100
AcDbEntity
  8
0-6_扉
  6
JWW_DASHED2
 62
    40
370
     5
100
AcDbCircle
 10
-2652.348066830801
 20
2550.892351640705
 30
0.0
 40
18.0
100
AcDbArc
 50
94.3460207216403
 51
184.3460207216401
  0
ARC
  5
170
330
1F
100
AcDbEntity
  8
0-6_扉
  6
JWW_DASHED2
 62
    40
370
     5
100
AcDbCircle
 10
-2219.379669524562
 20
2557.712520566678
 30
0.0
 40
18.0
100
AcDbArc
 50
85.65397927836092
 51
175.653979278361
  0
LINE
  5
171
330
1F
100
AcDbEntity
  8
0-6_扉
  6
JWW_DASHED2
 62
    40
370
     5
100
AcDbLine
 10
-2128.274422822328
 20
2568.84059422412
 30
0.0
 11
-2218.015635739366
 21
2575.660763150086
 31
0.0
  0
ARC
  5
172
330
1F
100
AcDbEntity
  8
0-6_扉
  6
JWW_DASHED2
 62
    40
370
     5
100
AcDbCircle
 10
-2129.638456607521
 20
2550.89235164071
 30
0.0
 40
18.0
100
AcDbArc
 50
355.653979278361
 51
85.65397927836094
  0
LINE
  5
173
330
1F
100
AcDbEntity
  8
0-6_扉
  6
JWW_DASHED2
 62
    40
370
     5
100
AcDbLine
 10
-2670.296309414211
 20
2549.528317855515
 30
0.0
 11
-2636.660793538489
 21
2106.945146596495
 31
0.0
  0
LINE
  5
174
330
1F
100
AcDbEntity
  8
0-6_扉
  6
JWW_DASHED2
 62
    40
370
     5
100
AcDbLine
 10
-2111.690214024115
 20
2549.528317855521
 30
0.0
 11
-2145.325729899827
 21
2106.945146596495
 31
0.0
  0
LINE
  5
175
330
1F
100
AcDbEntity
  8
0-6_扉
  6
JWW_DASHED2
 62
    40
370
     5
100
AcDbLine
 10
-2237.327912107968
 20
2559.076554351873
 30
0.0
 11
-2271.689076587408
 21
2106.945146596495
 31
0.0
  0
LINE
  5
176
330
1F
100
AcDbEntity
  8
0-6_扉
  6
JWW_DASHED2
 62
    40
370
     5
100
AcDbLine
 10
-2544.658611330355
 20
2559.076554351869
 30
0.0
 11
-2510.297446850908
 21
2106.945146596495
 31
0.0
  0
LINE
  5
177
330
1F
100
AcDbEntity
  8
0-1_通り芯
  6
JWW_CENTER1
 62
   120
370
     5
100
AcDbLine
 10
-2111.690214024115
 20
2781.945146596496
 30
0.0
 11
-2111.690214024115
 21
2549.528317855521
 31
0.0
  0
LWPOLYLINE
  5
178
330
1F
100
AcDbEntity
  8
0-B_寸法
  6
Continuous
 62
     7
370
     5
100
AcDbPolyline
 90
        4
 70
     1
 43
3.0
 10
-2110.190214024115
 20
2961.945146596496
 42
0.4142135623731
 10
-2111.690214024115
 20
2963.445146596496
 42
0.4142135623731
 10
-2113.190214024115
 20
2961.945146596496
 42
0.4142135623731
 10
-2111.690214024115
 20
2960.445146596496
 42
0.4142135623731
  0
LINE
  5
179
330
1F
100
AcDbEntity
  8
0-B_寸法
  6
Continuous
 62
   120
370
     5
100
AcDbLine
 10
-2111.690214024115
 20
2961.945146596496
 30
0.0
 11
-2111.690214024115
 21
2781.945146596496
 31
0.0
  0
LINE
  5
17A
330
1F
100
AcDbEntity
  8
0-B_寸法
  6
Continuous
 62
   120
370
     5
100
AcDbLine
 10
-2111.690214024115
 20
2961.945146596496
 30
0.0
 11
408.3097859758837
 21
2961.945146596496
 31
0.0
  0
MTEXT
  5
17B
330
1F
100
AcDbEntity
  8
0-B_寸法
  6
Continuous
 62
     7
370
   211
100
AcDbMText
 10
-2629.940214024115
 20
1807.665146596495
 30
0.0
 40
91.43999999999998
 41
540.0
 46
0.0
 71
     7
 72
     1
  1
{\fＭＳ ゴシック|b0|i0|c128|p49;ＤＷ＝394}
 73
     1
 44
1.0
  0
MTEXT
  5
17C
330
1F
100
AcDbEntity
  8
0-B_寸法
  6
Continuous
 62
     7
370
   211
100
AcDbMText
 10
-1626.440214024113
 20
1807.665146596495
 30
0.0
 40
91.43999999999942
 41
539.9999999999966
 46
0.0
 71
     7
 72
     1
  1
{\fＭＳ ゴシック|b0|i0|c128|p49;ＤＷ＝394}
 73
     1
 44
1.0
  0
MTEXT
  5
17D
330
1F
100
AcDbEntity
  8
0-B_寸法
  6
Continuous
 62
     7
370
   211
100
AcDbMText
 10
-616.9402140241141
 20
1807.665146596495
 30
0.0
 40
91.43999999999984
 41
539.9999999999991
 46
0.0
 71
     7
 72
     1
  1
{\fＭＳ ゴシック|b0|i0|c128|p49;ＤＷ＝394}
 73
     1
 44
1.0
  0
MTEXT
  5
17E
330
1F
100
AcDbEntity
  8
0-B_寸法
  6
Continuous
 62
     7
370
   211
100
AcDbMText
 10
386.5597859758865
 20
1807.665146596495
 30
0.0
 40
91.44000000000015
 41
540.0000000000009
 46
0.0
 71
     7
 72
     1
  1
{\fＭＳ ゴシック|b0|i0|c128|p49;ＤＷ＝394}
 73
     1
 44
1.0
  0
MTEXT
  5
17F
330
1F
100
AcDbEntity
  8
0-B_寸法
  6
Continuous
 62
     7
370
   211
100
AcDbMText
 10
-2308.190214024114
 20
1627.665146596495
 30
0.0
 40
91.43999999999998
 41
900.0
 46
0.0
 71
     7
 72
     1
  1
{\fＭＳ ゴシック|b0|i0|c128|p49;折戸：ＤＷ＝789}
 73
     1
 44
1.0
  0
MTEXT
  5
180
330
1F
100
AcDbEntity
  8
0-B_寸法
  6
Continuous
 62
     7
370
   211
100
AcDbMText
 10
-295.1902140241143
 20
1627.665146596495
 30
0.0
 40
91.43999999999998
 41
900.0
 46
0.0
 71
     7
 72
     1
  1
{\fＭＳ ゴシック|b0|i0|c128|p49;折戸：ＤＷ＝789}
 73
     1
 44
1.0
  0
MTEXT
  5
181
330
1F
100
AcDbEntity
  8
0-B_寸法
  6
Continuous
 62
     7
370
   211
100
AcDbMText
 10
-1181.690214024115
 20
1447.665146596495
 30
0.0
 40
91.43999999999997
 41
660.0
 46
0.0
 71
     7
 72
     1
  1
{\fＭＳ ゴシック|b0|i0|c128|p49;枠内＝1,575}
 73
     1
 44
1.0
  0
MTEXT
  5
182
330
1F
100
AcDbEntity
  8
0-B_寸法
  6
Continuous
 62
     7
370
   211
100
AcDbMText
 10
-1181.690214024115
 20
1267.665146596495
 30
0.0
 40
91.43999999999997
 41
660.0
 46
0.0
 71
     7
 72
     1
  1
{\fＭＳ ゴシック|b0|i0|c128|p49;枠外＝1,635}
 73
     1
 44
1.0
  0
MTEXT
  5
183
330
1F
100
AcDbEntity
  8
0-B_寸法
  6
Continuous
 62
     7
370
   211
100
AcDbMText
 10
-1241.690214024115
 20
3142.665146596496
 30
0.0
 40
91.43999999999997
 41
780.0
 46
0.0
 71
     7
 72
     1
  1
{\fＭＳ ゴシック|b0|i0|c128|p49;ＲＯＷ＝1,645}
 73
     1
 44
1.0
  0
MTEXT
  5
184
330
1F
100
AcDbEntity
  8
0-B_寸法
  6
Continuous
 62
     7
370
   211
100
AcDbMText
 10
-821.6902140241154
 20
1627.665146596495
 30
0.0
 40
91.44
 41
60.0
 46
0.0
 71
     7
 72
     1
  1
{\fＭＳ ゴシック|b0|i0|c128|p49;2}
 73
     1
 44
1.0
  0
MTEXT
  5
185
330
1F
100
AcDbEntity
  8
0-B_寸法
  6
Continuous
 62
     7
370
   211
100
AcDbMText
 10
-1405.791799731589
 20
2962.665146596496
 30
0.0
 40
91.43999999999991
 41
1139.999999999999
 46
0.0
 71
     7
 72
     1
  1
{\fＭＳ ゴシック|b0|i0|c128|p49;有効開口寸法＝1,331}
 73
     1
 44
1.0
  0
MTEXT
  5
186
330
1F
100
AcDbEntity
  8
0-A_文字
  6
Continuous
 62
     7
370
     5
100
AcDbMText
 10
-3590.223429306707
 20
3310.355192579902
 30
0.0
 40
100.584
 41
660.0
 46
0.0
 71
     7
 72
     1
  1
{\fＭＳ ゴシック|b0|i0|c128|p49;■横断面図}
 73
     1
 44
1.0
  0
MTEXT
  5
187
330
1F
100
AcDbEntity
  8
F-A_文字
  6
Continuous
 62
     7
370
     0
100
AcDbMText
 10
3689.917643811962
 20
-3946.903115907308
 30
0.0
 40
76.19999999999999
 41
150.0
 46
0.0
 71
     7
 72
     1
  1
{\fＭＳ ゴシック|b0|i0|c128|p49;1/5}
 73
     1
 44
1.0
  0
LINE
  5
188
330
1F
100
AcDbEntity
  8
0-A_文字
  6
JWW_HOJO
 62
   120
370
     5
100
AcDbLine
 10
-851.6902140241137
 20
1127.636821344158
 30
0.0
 11
1557.833595499696
 21
1127.636821344158
 31
0.0
  0
LINE
  5
189
330
1F
100
AcDbEntity
  8
0-A_文字
  6
JWW_HOJO
 62
   120
370
     5
100
AcDbLine
 10
-851.6902140241137
 20
1007.636821344158
 30
0.0
 11
1557.833595499696
 21
1007.636821344158
 31
0.0
  0
LINE
  5
18A
330
1F
100
AcDbEntity
  8
0-A_文字
  6
JWW_HOJO
 62
   120
370
     5
100
AcDbLine
 10
-851.6902140241137
 20
887.6368213441579
 30
0.0
 11
1557.833595499696
 21
887.6368213441579
 31
0.0
  0
MTEXT
  5
18B
330
1F
100
AcDbEntity
  8
0-A_文字
  6
Continuous
 62
     7
370
     5
100
AcDbMText
 10
-851.6902140241136
 20
1122.382048616885
 30
0.0
 40
79.49045454545455
 41
2295.0
 46
0.0
 71
     7
 72
     1
  1
{\fＭＳ ゴシック|b0|i0|c128|p49;※有効開口寸法にはハンドルの突出は含まない。}
 73
     1
 44
1.0
  0
MTEXT
  5
18C
330
1F
100
AcDbEntity
  8
0-A_文字
  6
Continuous
 62
     7
370
     5
100
AcDbMText
 10
-851.6902140241135
 20
1002.430154677491
 30
0.0
 40
79.58666666666667
 41
2820.0
 46
0.0
 71
     7
 72
     1
  1
{\fＭＳ ゴシック|b0|i0|c128|p49;※有効開口寸法は扉の厚さや調整によって若干異なります。}
 73
     1
 44
1.0
  0
MTEXT
  5
18D
330
1F
100
AcDbEntity
  8
0-A_文字
  6
Continuous
 62
     7
370
     0
100
AcDbMText
 10
-851.6902140241137
 20
876.9268213441578
 30
0.0
 40
68.58
 41
1350.0
 46
0.0
 71
     7
 72
     1
  1
{\fＭＳ ゴシック|b0|i0|c128|p49;※扉厚（　）内はルーバーの場合}
 73
     1
 44
1.0
  0
MTEXT
  5
18E
330
1F
100
AcDbEntity
  8
0-A_文字
  6
Continuous
 62
     7
370
   211
100
AcDbMText
 10
-1883.654241086887
 20
2227.665146596496
 30
0.0
 40
91.44
 41
240.0
 46
0.0
 71
     7
 72
     1
  1
{\fＭＳ ゴシック|b0|i0|c128|p49;(24)}
 11
6.123031769111886E-17
 21
1.0
 31
0.0
 73
     1
 44
1.0
  0
MTEXT
  5
18F
330
1F
100
AcDbEntity
  8
0-A_文字
  6
Continuous
 62
    92
370
     5
100
AcDbMText
 10
-5592.499495325861
 20
3758.959004985282
 30
0.0
 40
147.9176470588235
 41
3300.0
 46
0.0
 71
     7
 72
     1
  1
{\fＭＳ ゴシック|b0|i0|c128|p49;クローゼットドア　固定枠　間口６尺}
 73
     1
 44
1.0
  0
LINE
  5
190
330
1F
100
AcDbEntity
  8
0-A_文字
  6
Continuous
 62
    92
370
     5
100
AcDbLine
 10
-5659.999495325865
 20
3730.00018145587
 30
0.0
 11
-2221.428571428571
 21
3730.00018145587
 31
0.0
  0
LINE
  5
191
330
1F
100
AcDbEntity
  8
0-A_文字
  6
Continuous
 62
    92
370
     5
100
AcDbLine
 10
-5659.999495325865
 20
4000.00018145587
 30
0.0
 11
-2221.428571428571
 21
4000.00018145587
 31
0.0
  0
LINE
  5
192
330
1F
100
AcDbEntity
  8
0-A_文字
  6
Continuous
 62
    92
370
     5
100
AcDbLine
 10
-2221.428571428571
 20
3730.00018145587
 30
0.0
 11
-2221.428571428571
 21
4000.00018145587
 31
0.0
  0
MTEXT
  5
193
330
1F
100
AcDbEntity
  8
F-A_文字
  6
Continuous
 62
     7
370
     0
100
AcDbMText
 10
-5080.081323642278
 20
-4045.06637357839
 30
0.0
 40
79.86712499999994
 41
4192.5
 46
0.0
 71
     7
 72
     1
  1
{\fＭＳ ゴシック|b0|i0|c128|p49;ドレタス　クローゼットドア  固定枠　３方枠＋埋め込みレール枠外H2,348　枠外W1,635}
 73
     1
 44
1.0
  0
MTEXT
  5
194
330
1F
100
AcDbEntity
  8
0-3_仕上げ
  6
Continuous
 62
     7
370
   211
100
AcDbMText
 10
-2732.690016072247
 20
-2721.78143128852
 30
0.0
 40
91.44
 41
120.0
 46
0.0
 71
     7
 72
     1
  1
{\fＭＳ ゴシック|b0|i0|c128|p49;32}
 73
     1
 44
1.0
  0
LINE
  5
195
330
1F
100
AcDbEntity
  8
0-3_仕上げ
  6
Continuous
 62
    40
370
     5
100
AcDbLine
 10
-3263.690016072255
 20
-3118.000311980379
 30
0.0
 11
-1919.204036528104
 21
-3118.000311980379
 31
0.0
  0
LWPOLYLINE
  5
196
330
1F
100
AcDbEntity
  8
0-B_寸法
  6
Continuous
 62
     7
370
     5
100
AcDbPolyline
 90
        4
 70
     1
 43
3.0
 10
-3622.190016072255
 20
-3118.000311980379
 42
0.4142135623731
 10
-3623.690016072255
 20
-3116.500311980379
 42
0.4142135623731
 10
-3625.190016072255
 20
-3118.000311980379
 42
0.4142135623731
 10
-3623.690016072255
 20
-3119.500311980379
 42
0.4142135623731
  0
LINE
  5
197
330
1F
100
AcDbEntity
  8
0-B_寸法
  6
Continuous
 62
   120
370
     5
100
AcDbLine
 10
-3263.690016072255
 20
-3118.000311980379
 30
0.0
 11
-3623.690016072255
 21
-3118.000311980379
 31
0.0
  0
LINE
  5
198
330
1F
100
AcDbEntity
  8
0-0_補助線
  6
JWW_HOJO
 62
   120
370
     5
100
AcDbLine
 10
-1919.204036528104
 20
-3117.999940974257
 30
0.0
 11
-3623.690016072255
 21
-3117.999940974257
 31
0.0
  0
LINE
  5
199
330
1F
100
AcDbEntity
  8
0-0_補助線
  6
JWW_HOJO
 62
   120
370
     5
100
AcDbLine
 10
-3088.461302036449
 20
-1582.000084335741
 30
0.0
 11
-2280.918318120757
 21
-1582.000084335741
 31
0.0
  0
LINE
  5
19A
330
1F
100
AcDbEntity
  8
0-0_補助線
  6
JWW_HOJO
 62
   120
370
     5
100
AcDbLine
 10
-3088.461302036449
 20
-1702.000084335741
 30
0.0
 11
-2280.918318120757
 21
-1702.000084335741
 31
0.0
  0
MTEXT
  5
19B
330
1F
100
AcDbEntity
  8
0-A_文字
  6
Continuous
 62
     7
370
     5
100
AcDbMText
 10
-3623.690016072255
 20
265.7710320445403
 30
0.0
 40
91.44
 41
1800.0
 46
0.0
 71
     7
 72
     1
  1
{\fＭＳ ゴシック|b0|i0|c128|p49;　[３方枠＋レール(レール埋込)]}
 73
     1
 44
1.0
  0
LINE
  5
19C
330
1F
100
AcDbEntity
  8
0-7_金物
  6
Continuous
 62
     7
370
     5
100
AcDbLine
 10
-2607.694555561993
 20
-339.9998344215203
 30
0.0
 11
-2570.690668385482
 21
-339.9998344215203
 31
0.0
  0
LINE
  5
19D
330
1F
100
AcDbEntity
  8
0-7_金物
  6
Continuous
 62
     7
370
     5
100
AcDbLine
 10
-2642.688974659904
 20
-333.9997428687866
 30
0.0
 11
-2702.690662663445
 21
-333.9997428687866
 31
0.0
  0
LINE
  5
19E
330
1F
100
AcDbEntity
  8
0-7_金物
  6
Continuous
 62
     7
370
     5
100
AcDbLine
 10
-2606.870580952618
 20
-320.7874931129265
 30
0.0
 11
-2642.688974659904
 21
-320.7874931129265
 31
0.0
  0
LINE
  5
19F
330
1F
100
AcDbEntity
  8
0-7_金物
  6
Continuous
 62
     7
370
     5
100
AcDbLine
 10
-2702.690662663445
 20
-320.7874931129265
 30
0.0
 11
-2738.869828503593
 21
-320.7874931129265
 31
0.0
  0
LINE
  5
1A0
330
1F
100
AcDbEntity
  8
0-7_金物
  6
Continuous
 62
     7
370
     5
100
AcDbLine
 10
-2684.690902989364
 20
-378.9998344215223
 30
0.0
 11
-2684.690902989364
 21
-333.9997428687866
 31
0.0
  0
LINE
  5
1A1
330
1F
100
AcDbEntity
  8
0-7_金物
  6
Continuous
 62
     7
370
     5
100
AcDbLine
 10
-2660.690222065905
 20
-333.9997428687866
 30
0.0
 11
-2660.690222065905
 21
-378.9998344215223
 31
0.0
  0
LINE
  5
1A2
330
1F
100
AcDbEntity
  8
0-7_金物
  6
Continuous
 62
     7
370
     5
100
AcDbLine
 10
-2660.690222065905
 20
-378.9998344215223
 30
0.0
 11
-2684.690902989364
 21
-378.9998344215223
 31
0.0
  0
LINE
  5
1A3
330
1F
100
AcDbEntity
  8
0-7_金物
  6
Continuous
 62
     7
370
     5
100
AcDbLine
 10
-2774.68897036837
 20
-333.9997428687866
 30
0.0
 11
-2774.68897036837
 21
-339.9998344215203
 31
0.0
  0
LINE
  5
1A4
330
1F
100
AcDbEntity
  8
0-7_金物
  6
Continuous
 62
     7
370
     5
100
AcDbLine
 10
-2736.904168408373
 20
-339.9998344215203
 30
0.0
 11
-2774.68897036837
 21
-339.9998344215203
 31
0.0
  0
LINE
  5
1A5
330
1F
100
AcDbEntity
  8
0-7_金物
  6
Continuous
 62
     7
370
     5
100
AcDbLine
 10
-2570.690668385482
 20
-333.9997428687866
 30
0.0
 11
-2570.690668385482
 21
-339.9998344215203
 31
0.0
  0
LINE
  5
1A6
330
1F
100
AcDbEntity
  8
0-7_金物
  6
Continuous
 62
     7
370
     5
100
AcDbLine
 10
-2736.904168408373
 20
-333.9997428687866
 30
0.0
 11
-2744.691098969447
 21
-333.9997428687866
 31
0.0
  0
LINE
  5
1A7
330
1F
100
AcDbEntity
  8
0-7_金物
  6
Continuous
 62
     7
370
     5
100
AcDbLine
 10
-2736.904168408373
 20
-339.9998344215203
 30
0.0
 11
-2736.904168408373
 21
-333.9997428687866
 31
0.0
  0
LINE
  5
1A8
330
1F
100
AcDbEntity
  8
0-7_金物
  6
Continuous
 62
     7
370
     5
100
AcDbLine
 10
-2756.69069234656
 20
-333.9997428687866
 30
0.0
 11
-2774.68897036837
 21
-333.9997428687866
 31
0.0
  0
LINE
  5
1A9
330
1F
100
AcDbEntity
  8
0-7_金物
  6
Continuous
 62
     7
370
     5
100
AcDbLine
 10
-2600.690771382306
 20
-333.9997428687866
 30
0.0
 11
-2607.694555561993
 21
-333.9997428687866
 31
0.0
  0
LINE
  5
1AA
330
1F
100
AcDbEntity
  8
0-7_金物
  6
Continuous
 62
     7
370
     5
100
AcDbLine
 10
-2607.694555561993
 20
-339.9998344215203
 30
0.0
 11
-2607.694555561993
 21
-333.9997428687866
 31
0.0
  0
LINE
  5
1AB
330
1F
100
AcDbEntity
  8
0-7_金物
  6
Continuous
 62
     7
370
     5
100
AcDbLine
 10
-2588.690439503644
 20
-333.9997428687866
 30
0.0
 11
-2570.690668385482
 21
-333.9997428687866
 31
0.0
  0
LINE
  5
1AC
330
1F
100
AcDbEntity
  8
0-7_金物
  6
Continuous
 62
     7
370
     5
100
AcDbLine
 10
-2642.688974659904
 20
-254.7874931129286
 30
0.0
 11
-2606.870580952618
 21
-254.7874931129286
 31
0.0
  0
LINE
  5
1AD
330
1F
100
AcDbEntity
  8
0-7_金物
  6
Continuous
 62
     7
370
     5
100
AcDbLine
 10
-2606.870580952618
 20
-254.7874931129286
 30
0.0
 11
-2606.870580952618
 21
-320.7874931129265
 31
0.0
  0
LINE
  5
1AE
330
1F
100
AcDbEntity
  8
0-7_金物
  6
Continuous
 62
     7
370
     5
100
AcDbLine
 10
-2642.688974659904
 20
-237.9992851051168
 30
0.0
 11
-2642.688974659904
 21
-333.9997428687866
 31
0.0
  0
LINE
  5
1AF
330
1F
100
AcDbEntity
  8
0-7_金物
  6
Continuous
 62
     7
370
     5
100
AcDbLine
 10
-2702.690662663445
 20
-237.9992851051168
 30
0.0
 11
-2642.688974659904
 21
-237.9992851051168
 31
0.0
  0
LINE
  5
1B0
330
1F
100
AcDbEntity
  8
0-7_金物
  6
Continuous
 62
     7
370
     5
100
AcDbLine
 10
-2702.690662663445
 20
-333.9997428687866
 30
0.0
 11
-2702.690662663445
 21
-237.9992851051168
 31
0.0
  0
LINE
  5
1B1
330
1F
100
AcDbEntity
  8
0-7_金物
  6
Continuous
 62
     7
370
     5
100
AcDbLine
 10
-2738.869828503593
 20
-254.7874931129286
 30
0.0
 11
-2702.690662663445
 21
-254.7874931129286
 31
0.0
  0
LINE
  5
1B2
330
1F
100
AcDbEntity
  8
0-7_金物
  6
Continuous
 62
     7
370
     5
100
AcDbLine
 10
-2738.869828503593
 20
-320.7874931129265
 30
0.0
 11
-2738.869828503593
 21
-254.7874931129286
 31
0.0
  0
LINE
  5
1B3
330
1F
100
AcDbEntity
  8
0-7_金物
  6
Continuous
 62
     7
370
     5
100
AcDbLine
 10
-2744.691098969447
 20
-333.9997428687866
 30
0.0
 11
-2744.691098969447
 21
-225.9996513160536
 31
0.0
  0
LINE
  5
1B4
330
1F
100
AcDbEntity
  8
0-7_金物
  6
Continuous
 62
     7
370
     5
100
AcDbLine
 10
-2744.691098969447
 20
-225.9996513160536
 30
0.0
 11
-2600.690771382306
 21
-225.9996513160536
 31
0.0
  0
LINE
  5
1B5
330
1F
100
AcDbEntity
  8
0-7_金物
  6
Continuous
 62
     7
370
     5
100
AcDbLine
 10
-2600.690771382306
 20
-225.9996513160536
 30
0.0
 11
-2600.690771382306
 21
-333.9997428687866
 31
0.0
  0
LINE
  5
1B6
330
1F
100
AcDbEntity
  8
0-4_枠
  6
Continuous
 62
    92
370
     5
100
AcDbLine
 10
-2588.690439503644
 20
-213.9992851051147
 30
0.0
 11
-2588.690439503644
 21
-333.9997428687866
 31
0.0
  0
LINE
  5
1B7
330
1F
100
AcDbEntity
  8
0-4_枠
  6
Continuous
 62
    92
370
     5
100
AcDbLine
 10
-2756.69069234656
 20
-213.9992851051147
 30
0.0
 11
-2588.690439503644
 21
-213.9992851051147
 31
0.0
  0
LINE
  5
1B8
330
1F
100
AcDbEntity
  8
0-4_枠
  6
Continuous
 62
    92
370
     5
100
AcDbLine
 10
-2756.69069234656
 20
-333.9997428687866
 30
0.0
 11
-2756.69069234656
 21
-213.9992851051147
 31
0.0
  0
LINE
  5
1B9
330
1F
100
AcDbEntity
  8
0-4_枠
  6
Continuous
 62
    92
370
     5
100
AcDbLine
 10
-2441.690016072253
 20
-333.9997428687866
 30
0.0
 11
-2588.690439503644
 21
-333.9997428687866
 31
0.0
  0
LINE
  5
1BA
330
1F
100
AcDbEntity
  8
0-4_枠
  6
Continuous
 62
    92
370
     5
100
AcDbLine
 10
-2903.690016072255
 20
-333.9997428687866
 30
0.0
 11
-2756.69069234656
 21
-333.9997428687866
 31
0.0
  0
LINE
  5
1BB
330
1F
100
AcDbEntity
  8
0-4_枠
  6
Continuous
 62
    92
370
     5
100
AcDbLine
 10
-2441.690016072253
 20
-117.9999259742567
 30
0.0
 11
-2441.690016072253
 21
-333.9997428687866
 31
0.0
  0
LINE
  5
1BC
330
1F
100
AcDbEntity
  8
0-4_枠
  6
Continuous
 62
    92
370
     5
100
AcDbLine
 10
-2903.690016072255
 20
-117.9999259742567
 30
0.0
 11
-2903.690016072255
 21
-333.9997428687866
 31
0.0
  0
LINE
  5
1BD
330
1F
100
AcDbEntity
  8
0-4_枠
  6
Continuous
 62
    92
370
     5
100
AcDbLine
 10
-2903.690016072255
 20
-117.9999259742567
 30
0.0
 11
-2441.690016072253
 21
-117.9999259742567
 31
0.0
  0
LINE
  5
1BE
330
1F
100
AcDbEntity
  8
0-B_寸法
  6
Continuous
 62
   120
370
     5
100
AcDbLine
 10
-2441.690016072253
 20
-629.4822652783932
 30
0.0
 11
-2441.690016072253
 21
-475.7713178564973
 31
0.0
  0
LWPOLYLINE
  5
1BF
330
1F
100
AcDbEntity
  8
0-B_寸法
  6
Continuous
 62
     7
370
     5
100
AcDbPolyline
 90
        4
 70
     1
 43
3.0
 10
-2440.190016072253
 20
-629.4822652783932
 42
0.4142135623731
 10
-2441.690016072253
 20
-627.9822652783932
 42
0.4142135623731
 10
-2443.190016072253
 20
-629.4822652783932
 42
0.4142135623731
 10
-2441.690016072253
 20
-630.9822652783932
 42
0.4142135623731
  0
LINE
  5
1C0
330
1F
100
AcDbEntity
  8
0-B_寸法
  6
Continuous
 62
   120
370
     5
100
AcDbLine
 10
-2903.690016072255
 20
-629.4822652783932
 30
0.0
 11
-2903.690016072255
 21
-475.7713178564973
 31
0.0
  0
LWPOLYLINE
  5
1C1
330
1F
100
AcDbEntity
  8
0-B_寸法
  6
Continuous
 62
     7
370
     5
100
AcDbPolyline
 90
        4
 70
     1
 43
3.0
 10
-2902.190016072255
 20
-629.4822652783932
 42
0.4142135623731
 10
-2903.690016072255
 20
-627.9822652783932
 42
0.4142135623731
 10
-2905.190016072255
 20
-629.4822652783932
 42
0.4142135623731
 10
-2903.690016072255
 20
-630.9822652783932
 42
0.4142135623731
  0
LINE
  5
1C2
330
1F
100
AcDbEntity
  8
0-B_寸法
  6
Continuous
 62
   120
370
     5
100
AcDbLine
 10
-2441.690016072253
 20
-629.4822652783932
 30
0.0
 11
-2903.690016072255
 21
-629.4822652783932
 31
0.0
  0
LINE
  5
1C3
330
1F
100
AcDbEntity
  8
0-C_ハッチ
  6
Continuous
 62
   120
370
     5
100
AcDbLine
 10
-2898.391204837417
 20
-333.9997428687934
 30
0.0
 11
-2903.690016072255
 21
-328.7009316339481
 31
0.0
  0
LINE
  5
1C4
330
1F
100
AcDbEntity
  8
0-C_ハッチ
  6
Continuous
 62
   120
370
     5
100
AcDbLine
 10
-2838.994235217715
 20
-333.99974286879
 30
0.0
 11
-2903.690016072255
 21
-269.3039620142497
 31
0.0
  0
LINE
  5
1C5
330
1F
100
AcDbEntity
  8
0-C_ハッチ
  6
Continuous
 62
   120
370
     5
100
AcDbLine
 10
-2779.597265598081
 20
-333.9997428687832
 30
0.0
 11
-2903.690016072255
 21
-209.906992394599
 31
0.0
  0
LINE
  5
1C6
330
1F
100
AcDbEntity
  8
0-C_ハッチ
  6
Continuous
 62
   120
370
     5
100
AcDbLine
 10
-2756.690692346547
 20
-297.5093465006091
 30
0.0
 11
-2903.690016072269
 21
-150.5100227748937
 31
0.0
  0
LINE
  5
1C7
330
1F
100
AcDbEntity
  8
0-C_ハッチ
  6
Continuous
 62
   120
370
     5
100
AcDbLine
 10
-2756.69069234656
 20
-238.1123768809516
 30
0.0
 11
-2876.803143253255
 21
-117.9999259742567
 31
0.0
  0
LINE
  5
1C8
330
1F
100
AcDbEntity
  8
0-C_ハッチ
  6
Continuous
 62
   120
370
     5
100
AcDbLine
 10
-2721.406814502743
 20
-213.9992851051147
 30
0.0
 11
-2817.406173633594
 21
-117.9999259742678
 31
0.0
  0
LINE
  5
1C9
330
1F
100
AcDbEntity
  8
0-C_ハッチ
  6
Continuous
 62
   120
370
     5
100
AcDbLine
 10
-2542.009387119369
 20
-333.99974286879
 30
0.0
 11
-2588.690439503644
 21
-287.318690484509
 31
0.0
  0
LINE
  5
1CA
330
1F
100
AcDbEntity
  8
0-C_ハッチ
  6
Continuous
 62
   120
370
     5
100
AcDbLine
 10
-2662.009844883041
 20
-213.9992851051147
 30
0.0
 11
-2758.009204013906
 21
-117.9999259742533
 31
0.0
  0
LINE
  5
1CB
330
1F
100
AcDbEntity
  8
0-C_ハッチ
  6
Continuous
 62
   120
370
     5
100
AcDbLine
 10
-2482.612417499722
 20
-333.9997428687866
 30
0.0
 11
-2588.690439503644
 21
-227.9217208648656
 31
0.0
  0
LINE
  5
1CC
330
1F
100
AcDbEntity
  8
0-C_ハッチ
  6
Continuous
 62
   120
370
     5
100
AcDbLine
 10
-2602.612875263408
 20
-213.9992851051113
 30
0.0
 11
-2698.612234394245
 21
-117.9999259742635
 31
0.0
  0
LINE
  5
1CD
330
1F
100
AcDbEntity
  8
0-C_ハッチ
  6
Continuous
 62
   120
370
     5
100
AcDbLine
 10
-2441.690016072253
 20
-315.5251746765578
 30
0.0
 11
-2639.215264774557
 21
-117.9999259742533
 31
0.0
  0
LINE
  5
1CE
330
1F
100
AcDbEntity
  8
0-C_ハッチ
  6
Continuous
 62
   120
370
     5
100
AcDbLine
 10
-2441.690016072266
 20
-256.1282050569037
 30
0.0
 11
-2579.81829515491
 21
-117.9999259742567
 31
0.0
  0
LINE
  5
1CF
330
1F
100
AcDbEntity
  8
0-C_ハッチ
  6
Continuous
 62
   120
370
     5
100
AcDbLine
 10
-2441.690016072266
 20
-196.731235437253
 30
0.0
 11
-2520.421325535249
 21
-117.9999259742678
 31
0.0
  0
LINE
  5
1D0
330
1F
100
AcDbEntity
  8
0-C_ハッチ
  6
Continuous
 62
   120
370
     5
100
AcDbLine
 10
-2441.690016072253
 20
-137.3342658175648
 30
0.0
 11
-2461.024355915561
 21
-117.9999259742507
 31
0.0
  0
LINE
  5
1D1
330
1F
100
AcDbEntity
  8
0-4_枠
  6
Continuous
 62
   120
370
     5
100
AcDbLine
 10
-2441.690016072253
 20
-117.9999259742567
 30
0.0
 11
-2417.690016072247
 21
-117.9999259742567
 31
0.0
  0
LINE
  5
1D2
330
1F
100
AcDbEntity
  8
0-4_枠
  6
Continuous
 62
   120
370
     5
100
AcDbLine
 10
-2903.690016072255
 20
-117.9999259742567
 30
0.0
 11
-2927.690016072261
 21
-117.9999259742567
 31
0.0
  0
LINE
  5
1D3
330
1F
100
AcDbEntity
  8
0-4_枠
  6
Continuous
 62
   120
370
     5
100
AcDbLine
 10
-2417.690016072247
 20
-3046.000334249962
 30
0.0
 11
-2417.690016072247
 21
-1702.000084335741
 31
0.0
  0
LINE
  5
1D4
330
1F
100
AcDbEntity
  8
0-4_枠
  6
Continuous
 62
   120
370
     5
100
AcDbLine
 10
-2417.690016072247
 20
-1582.000084335741
 30
0.0
 11
-2417.690016072247
 21
-117.9999259742567
 31
0.0
  0
LINE
  5
1D5
330
1F
100
AcDbEntity
  8
0-4_枠
  6
Continuous
 62
   120
370
     5
100
AcDbLine
 10
-2927.690016072261
 20
-3046.000334249962
 30
0.0
 11
-2927.690016072261
 21
-1702.000084335741
 31
0.0
  0
LINE
  5
1D6
330
1F
100
AcDbEntity
  8
0-4_枠
  6
Continuous
 62
   120
370
     5
100
AcDbLine
 10
-2927.690016072261
 20
-1582.000084335741
 30
0.0
 11
-2927.690016072261
 21
-117.9999259742567
 31
0.0
  0
LINE
  5
1D7
330
1F
100
AcDbEntity
  8
0-C_ハッチ
  6
JWW_DASHED1
 62
   120
370
     5
100
AcDbLine
 10
-2503.877123881593
 20
-117.9999259742567
 30
0.0
 11
-2522.690016072261
 21
-99.18703378358941
 31
0.0
  0
LINE
  5
1D8
330
1F
100
AcDbEntity
  8
0-C_ハッチ
  6
JWW_DASHED1
 62
   120
370
     5
100
AcDbLine
 10
-2461.450717010393
 20
-117.9999259742465
 30
0.0
 11
-2522.690016072247
 21
-56.76062691239281
 31
0.0
  0
LINE
  5
1D9
330
1F
100
AcDbEntity
  8
0-C_ハッチ
  6
JWW_DASHED1
 62
   120
370
     5
100
AcDbLine
 10
-2447.690016072247
 20
-89.3342200411928
 30
0.0
 11
-2522.690016072247
 21
-14.3342200411962
 31
0.0
  0
LINE
  5
1DA
330
1F
100
AcDbEntity
  8
0-C_ハッチ
  6
JWW_DASHED1
 62
   120
370
     5
100
AcDbLine
 10
-2447.690016072247
 20
-46.90781316999619
 30
0.0
 11
-2522.690016072247
 21
28.0921868300004
 31
0.0
  0
LINE
  5
1DB
330
1F
100
AcDbEntity
  8
0-C_ハッチ
  6
JWW_DASHED1
 62
   120
370
     5
100
AcDbLine
 10
-2447.690016072247
 20
-4.481406298799584
 30
0.0
 11
-2522.690016072247
 21
70.518593701197
 31
0.0
  0
LINE
  5
1DC
330
1F
100
AcDbEntity
  8
0-C_ハッチ
  6
JWW_DASHED1
 62
   120
370
     5
100
AcDbLine
 10
-2447.690016072247
 20
37.94500057239702
 30
0.0
 11
-2522.690016072247
 21
112.9450005723936
 31
0.0
  0
LINE
  5
1DD
330
1F
100
AcDbEntity
  8
0-C_ハッチ
  6
JWW_DASHED1
 62
   120
370
     5
100
AcDbLine
 10
-2447.690016072247
 20
80.37140744354588
 30
0.0
 11
-2522.690016072247
 21
155.3714074435416
 31
0.0
  0
LINE
  5
1DE
330
1F
100
AcDbEntity
  8
0-3_仕上げ
  6
Continuous
 62
    40
370
     5
100
AcDbLine
 10
-2447.690016072247
 20
-117.9999259742567
 30
0.0
 11
-2447.690016072247
 21
182.0000740257433
 31
0.0
  0
LINE
  5
1DF
330
1F
100
AcDbEntity
  8
0-3_仕上げ
  6
Continuous
 62
    40
370
     5
100
AcDbLine
 10
-2522.690016072247
 20
-117.9999259742567
 30
0.0
 11
-2522.690016072247
 21
182.0000740257433
 31
0.0
  0
LINE
  5
1E0
330
1F
100
AcDbEntity
  8
0-C_ハッチ
  6
JWW_DASHED1
 62
   120
370
     5
100
AcDbLine
 10
-2447.690016072247
 20
122.7978143147493
 30
0.0
 11
-2506.892275783248
 21
182.0000740257433
 31
0.0
  0
LINE
  5
1E1
330
1F
100
AcDbEntity
  8
0-C_ハッチ
  6
JWW_DASHED1
 62
   120
370
     5
100
AcDbLine
 10
-2447.690016072247
 20
165.2242211859459
 30
0.0
 11
-2464.465868912048
 21
182.0000740257433
 31
0.0
  0
LWPOLYLINE
  5
1E2
330
1F
100
AcDbEntity
  8
0-B_寸法
  6
Continuous
 62
     7
370
     5
100
AcDbPolyline
 90
        4
 70
     1
 43
3.0
 10
-1467.704036528104
 20
-3045.999963090228
 42
0.4142135623731
 10
-1469.204036528104
 20
-3044.499963090228
 42
0.4142135623731
 10
-1470.704036528104
 20
-3045.999963090228
 42
0.4142135623731
 10
-1469.204036528104
 20
-3047.499963090228
 42
0.4142135623731
  0
LWPOLYLINE
  5
1E3
330
1F
100
AcDbEntity
  8
0-B_寸法
  6
Continuous
 62
     7
370
     5
100
AcDbPolyline
 90
        4
 70
     1
 43
3.0
 10
-1467.704036528104
 20
-3117.999940820646
 42
0.4142135623731
 10
-1469.204036528104
 20
-3116.499940820646
 42
0.4142135623731
 10
-1470.704036528104
 20
-3117.999940820646
 42
0.4142135623731
 10
-1469.204036528104
 20
-3119.499940820646
 42
0.4142135623731
  0
LINE
  5
1E4
330
1F
100
AcDbEntity
  8
0-B_寸法
  6
Continuous
 62
   120
370
     5
100
AcDbLine
 10
-1919.204036528104
 20
-3045.999963090228
 30
0.0
 11
-1469.204036528104
 21
-3045.999963090228
 31
0.0
  0
LINE
  5
1E5
330
1F
100
AcDbEntity
  8
0-B_寸法
  6
Continuous
 62
   120
370
     5
100
AcDbLine
 10
-1649.204036528104
 20
-3117.999940820646
 30
0.0
 11
-1469.204036528104
 21
-3117.999940820646
 31
0.0
  0
LINE
  5
1E6
330
1F
100
AcDbEntity
  8
0-B_寸法
  6
Continuous
 62
   120
370
     5
100
AcDbLine
 10
-1469.204036528104
 20
-3117.999940820646
 30
0.0
 11
-1469.204036528104
 21
-117.9999408206447
 31
0.0
  0
LINE
  5
1E7
330
1F
100
AcDbEntity
  8
0-B_寸法
  6
Continuous
 62
   120
370
     5
100
AcDbLine
 10
-1649.204036528104
 20
-3045.999963090228
 30
0.0
 11
-1649.204036528104
 21
-333.9993172722916
 31
0.0
  0
LINE
  5
1E8
330
1F
100
AcDbEntity
  8
0-B_寸法
  6
Continuous
 62
   120
370
     5
100
AcDbLine
 10
-1919.204036528104
 20
-2994.999831947123
 30
0.0
 11
-1649.204036528104
 21
-2994.999831947123
 31
0.0
  0
MTEXT
  5
1E9
330
1F
100
AcDbEntity
  8
0-B_寸法
  6
Continuous
 62
     7
370
   211
100
AcDbMText
 10
-1304.204036528104
 20
-78.71664122671521
 30
0.0
 40
91.44
 41
60.0
 46
0.0
 71
     7
 72
     1
  1
{\fＭＳ ゴシック|b0|i0|c128|p49;8}
 11
6.123031769111886E-17
 21
1.0
 31
0.0
 73
     1
 44
1.0
  0
LWPOLYLINE
  5
1EA
330
1F
100
AcDbEntity
  8
0-B_寸法
  6
Continuous
 62
     7
370
     5
100
AcDbPolyline
 90
        4
 70
     1
 43
3.0
 10
-1647.704036528104
 20
-3045.999963090228
 42
0.4142135623731
 10
-1649.204036528104
 20
-3044.499963090228
 42
0.4142135623731
 10
-1650.704036528104
 20
-3045.999963090228
 42
0.4142135623731
 10
-1649.204036528104
 20
-3047.499963090228
 42
0.4142135623731
  0
LWPOLYLINE
  5
1EB
330
1F
100
AcDbEntity
  8
0-B_寸法
  6
Continuous
 62
     7
370
     5
100
AcDbPolyline
 90
        4
 70
     1
 43
3.0
 10
-1647.704036528104
 20
-2994.999831947123
 42
0.4142135623731
 10
-1649.204036528104
 20
-2993.499831947123
 42
0.4142135623731
 10
-1650.704036528104
 20
-2994.999831947123
 42
0.4142135623731
 10
-1649.204036528104
 20
-2996.499831947123
 42
0.4142135623731
  0
LWPOLYLINE
  5
1EC
330
1F
100
AcDbEntity
  8
0-B_寸法
  6
Continuous
 62
     7
370
     5
100
AcDbPolyline
 90
        4
 70
     1
 43
3.0
 10
-1287.704036528104
 20
-3118.000311980379
 42
0.4142135623731
 10
-1289.204036528104
 20
-3116.500311980379
 42
0.4142135623731
 10
-1290.704036528104
 20
-3118.000311980379
 42
0.4142135623731
 10
-1289.204036528104
 20
-3119.500311980379
 42
0.4142135623731
  0
LINE
  5
1ED
330
1F
100
AcDbEntity
  8
0-B_寸法
  6
Continuous
 62
   120
370
     5
100
AcDbLine
 10
-1919.204036528104
 20
-3118.000311980379
 30
0.0
 11
-1289.204036528104
 21
-3118.000311980379
 31
0.0
  0
LWPOLYLINE
  5
1EE
330
1F
100
AcDbEntity
  8
0-B_寸法
  6
Continuous
 62
     7
370
     5
100
AcDbPolyline
 90
        4
 70
     1
 43
3.0
 10
-1467.704036528104
 20
-117.9999408206447
 42
0.4142135623731
 10
-1469.204036528104
 20
-116.4999408206447
 42
0.4142135623731
 10
-1470.704036528104
 20
-117.9999408206447
 42
0.4142135623731
 10
-1469.204036528104
 20
-119.4999408206447
 42
0.4142135623731
  0
LWPOLYLINE
  5
1EF
330
1F
100
AcDbEntity
  8
0-B_寸法
  6
Continuous
 62
     7
370
     5
100
AcDbPolyline
 90
        4
 70
     1
 43
3.0
 10
-1467.704036528104
 20
-333.9989461125572
 42
0.4142135623731
 10
-1469.204036528104
 20
-332.4989461125572
 42
0.4142135623731
 10
-1470.704036528104
 20
-333.9989461125572
 42
0.4142135623731
 10
-1469.204036528104
 20
-335.4989461125572
 42
0.4142135623731
  0
LINE
  5
1F0
330
1F
100
AcDbEntity
  8
0-B_寸法
  6
Continuous
 62
   120
370
     5
100
AcDbLine
 10
-1649.204036528104
 20
-333.9989461125572
 30
0.0
 11
-1469.204036528104
 21
-333.9989461125572
 31
0.0
  0
LINE
  5
1F1
330
1F
100
AcDbEntity
  8
0-B_寸法
  6
Continuous
 62
   120
370
     5
100
AcDbLine
 10
-1919.204036528104
 20
-378.9994657361854
 30
0.0
 11
-1649.204036528104
 21
-378.9994657361854
 31
0.0
  0
LINE
  5
1F2
330
1F
100
AcDbEntity
  8
0-B_寸法
  6
Continuous
 62
   120
370
     5
100
AcDbLine
 10
-1919.204036528104
 20
-333.9993172722916
 30
0.0
 11
-1649.204036528104
 21
-333.9993172722916
 31
0.0
  0
LWPOLYLINE
  5
1F3
330
1F
100
AcDbEntity
  8
0-B_寸法
  6
Continuous
 62
     7
370
     5
100
AcDbPolyline
 90
        4
 70
     1
 43
3.0
 10
-1647.704036528104
 20
-378.9994657361854
 42
0.4142135623731
 10
-1649.204036528104
 20
-377.4994657361854
 42
0.4142135623731
 10
-1650.704036528104
 20
-378.9994657361854
 42
0.4142135623731
 10
-1649.204036528104
 20
-380.4994657361854
 42
0.4142135623731
  0
LWPOLYLINE
  5
1F4
330
1F
100
AcDbEntity
  8
0-B_寸法
  6
Continuous
 62
     7
370
     5
100
AcDbPolyline
 90
        4
 70
     1
 43
3.0
 10
-1647.704036528104
 20
-333.9993172722916
 42
0.4142135623731
 10
-1649.204036528104
 20
-332.4993172722916
 42
0.4142135623731
 10
-1650.704036528104
 20
-333.9993172722916
 42
0.4142135623731
 10
-1649.204036528104
 20
-335.4993172722916
 42
0.4142135623731
  0
LWPOLYLINE
  5
1F5
330
1F
100
AcDbEntity
  8
0-B_寸法
  6
Continuous
 62
     7
370
     5
100
AcDbPolyline
 90
        4
 70
     1
 43
3.0
 10
-1287.704036528104
 20
-117.9999408206447
 42
0.4142135623731
 10
-1289.204036528104
 20
-116.4999408206447
 42
0.4142135623731
 10
-1290.704036528104
 20
-117.9999408206447
 42
0.4142135623731
 10
-1289.204036528104
 20
-119.4999408206447
 42
0.4142135623731
  0
LINE
  5
1F6
330
1F
100
AcDbEntity
  8
0-B_寸法
  6
Continuous
 62
   120
370
     5
100
AcDbLine
 10
-1919.204036528104
 20
-117.9999408206447
 30
0.0
 11
-1289.204036528104
 21
-117.9999408206447
 31
0.0
  0
MTEXT
  5
1F7
330
1F
100
AcDbEntity
  8
0-B_寸法
  6
Continuous
 62
     7
370
     0
100
AcDbMText
 10
-1484.203343696604
 20
-300.2794434666009
 30
0.0
 40
91.44
 41
120.0
 46
0.0
 71
     7
 72
     1
  1
{\fＭＳ ゴシック|b0|i0|c128|p49;36}
 11
6.123031769111886E-17
 21
1.0
 31
0.0
 73
     1
 44
1.0
  0
MTEXT
  5
1F8
330
1F
100
AcDbEntity
  8
0-B_寸法
  6
Continuous
 62
     7
370
     0
100
AcDbMText
 10
-1663.631819108409
 20
-571.2356859272268
 30
0.0
 40
91.44
 41
180.0
 46
0.0
 71
     7
 72
     1
  1
{\fＭＳ ゴシック|b0|i0|c128|p49;7.5}
 11
6.123031769111886E-17
 21
1.0
 31
0.0
 73
     1
 44
1.0
  0
MTEXT
  5
1F9
330
1F
100
AcDbEntity
  8
0-B_寸法
  6
Continuous
 62
     7
370
     0
100
AcDbMText
 10
-2732.690565388662
 20
-628.7622652783932
 30
0.0
 40
91.44
 41
120.0
 46
0.0
 71
     7
 72
     1
  1
{\fＭＳ ゴシック|b0|i0|c128|p49;77}
 73
     1
 44
1.0
  0
LINE
  5
1FA
330
1F
100
AcDbEntity
  8
0-3_仕上げ
  6
Continuous
 62
   120
370
     5
100
AcDbLine
 10
-2768.689570680581
 20
-2722.50143128852
 30
0.0
 11
-2576.690461463941
 21
-2722.50143128852
 31
0.0
  0
LWPOLYLINE
  5
1FB
330
1F
100
AcDbEntity
  8
0-3_仕上げ
  6
Continuous
 62
     7
370
     5
100
AcDbPolyline
 90
        4
 70
     1
 43
3.0
 10
-2767.189570680581
 20
-2722.50143128852
 42
0.4142135623731
 10
-2768.689570680581
 20
-2721.00143128852
 42
0.4142135623731
 10
-2770.189570680581
 20
-2722.50143128852
 42
0.4142135623731
 10
-2768.689570680581
 20
-2724.00143128852
 42
0.4142135623731
  0
LWPOLYLINE
  5
1FC
330
1F
100
AcDbEntity
  8
0-3_仕上げ
  6
Continuous
 62
     7
370
     5
100
AcDbPolyline
 90
        4
 70
     1
 43
3.0
 10
-2575.190461463941
 20
-2722.50143128852
 42
0.4142135623731
 10
-2576.690461463941
 20
-2721.00143128852
 42
0.4142135623731
 10
-2578.190461463941
 20
-2722.50143128852
 42
0.4142135623731
 10
-2576.690461463941
 20
-2724.00143128852
 42
0.4142135623731
  0
LINE
  5
1FD
330
1F
100
AcDbEntity
  8
0-3_仕上げ
  6
Continuous
 62
   120
370
     5
100
AcDbLine
 10
-2768.689570680581
 20
-2722.50143128852
 30
0.0
 11
-2768.689570680581
 21
-2831.209140661786
 31
0.0
  0
LINE
  5
1FE
330
1F
100
AcDbEntity
  8
0-3_仕上げ
  6
Continuous
 62
   120
370
     5
100
AcDbLine
 10
-2576.690461463941
 20
-2722.50143128852
 30
0.0
 11
-2576.690461463941
 21
-2831.209140661786
 31
0.0
  0
LINE
  5
1FF
330
1F
100
AcDbEntity
  8
0-3_仕上げ
  6
Continuous
 62
     7
370
     5
100
AcDbLine
 10
-3263.690016072255
 20
-3058.000114028518
 30
0.0
 11
-2747.689673986697
 21
-3058.000114028518
 31
0.0
  0
LINE
  5
200
330
1F
100
AcDbEntity
  8
0-3_仕上げ
  6
Continuous
 62
     7
370
     5
100
AcDbLine
 10
-3263.690016072255
 20
-3070.000264966812
 30
0.0
 11
-2747.689673986697
 21
-3070.000264966812
 31
0.0
  0
LINE
  5
201
330
1F
100
AcDbEntity
  8
0-3_仕上げ
  6
Continuous
 62
     7
370
     5
100
AcDbLine
 10
-3263.690016072255
 20
-3082.000230325237
 30
0.0
 11
-2747.689673986697
 21
-3082.000230325237
 31
0.0
  0
LINE
  5
202
330
1F
100
AcDbEntity
  8
0-3_仕上げ
  6
Continuous
 62
     7
370
     5
100
AcDbLine
 10
-3263.690016072255
 20
-3094.000195683662
 30
0.0
 11
-2747.689673986697
 21
-3094.000195683662
 31
0.0
  0
LINE
  5
203
330
1F
100
AcDbEntity
  8
0-3_仕上げ
  6
Continuous
 62
     7
370
     5
100
AcDbLine
 10
-3263.690016072255
 20
-3106.000346621954
 30
0.0
 11
-2747.689673986697
 21
-3106.000346621954
 31
0.0
  0
LINE
  5
204
330
1F
100
AcDbEntity
  8
0-3_仕上げ
  6
Continuous
 62
    40
370
     5
100
AcDbLine
 10
-3263.690016072255
 20
-3046.000334249962
 30
0.0
 11
-2747.689673986697
 21
-3046.000334249962
 31
0.0
  0
LINE
  5
205
330
1F
100
AcDbEntity
  8
0-3_仕上げ
  6
Continuous
 62
     7
370
     5
100
AcDbLine
 10
-2597.689673986697
 20
-3058.000114028518
 30
0.0
 11
-1919.204036528104
 21
-3058.000114028518
 31
0.0
  0
LINE
  5
206
330
1F
100
AcDbEntity
  8
0-3_仕上げ
  6
Continuous
 62
     7
370
     5
100
AcDbLine
 10
-2597.689673986697
 20
-3070.000264966812
 30
0.0
 11
-1919.204036528104
 21
-3070.000264966812
 31
0.0
  0
LINE
  5
207
330
1F
100
AcDbEntity
  8
0-3_仕上げ
  6
Continuous
 62
     7
370
     5
100
AcDbLine
 10
-2597.689673986697
 20
-3082.000230325237
 30
0.0
 11
-1919.204036528104
 21
-3082.000230325237
 31
0.0
  0
LINE
  5
208
330
1F
100
AcDbEntity
  8
0-3_仕上げ
  6
Continuous
 62
     7
370
     5
100
AcDbLine
 10
-2597.689673986697
 20
-3094.000195683662
 30
0.0
 11
-1919.204036528104
 21
-3094.000195683662
 31
0.0
  0
LINE
  5
209
330
1F
100
AcDbEntity
  8
0-3_仕上げ
  6
Continuous
 62
     7
370
     5
100
AcDbLine
 10
-2597.689673986697
 20
-3106.000346621954
 30
0.0
 11
-1919.204036528104
 21
-3106.000346621954
 31
0.0
  0
LINE
  5
20A
330
1F
100
AcDbEntity
  8
0-3_仕上げ
  6
Continuous
 62
    40
370
     5
100
AcDbLine
 10
-1919.204036528104
 20
-3046.000334249962
 30
0.0
 11
-2597.689673986697
 21
-3046.000334249962
 31
0.0
  0
LINE
  5
20B
330
1F
100
AcDbEntity
  8
0-3_仕上げ
  6
Continuous
 62
    40
370
     5
100
AcDbLine
 10
-2747.690016072261
 20
-3118.000497560246
 30
0.0
 11
-2747.690016072261
 21
-3046.000705409696
 31
0.0
  0
LINE
  5
20C
330
1F
100
AcDbEntity
  8
0-3_仕上げ
  6
Continuous
 62
    40
370
     5
100
AcDbLine
 10
-2597.690016072247
 20
-3118.000497560246
 30
0.0
 11
-2597.690016072247
 21
-3046.000705409696
 31
0.0
  0
LINE
  5
20D
330
1F
100
AcDbEntity
  8
0-C_ハッチ
  6
Continuous
 62
   120
370
     5
100
AcDbLine
 10
-2741.690016072253
 20
-3096.120416927395
 30
0.0
 11
-2732.690016072261
 21
-3087.120416927396
 31
0.0
  0
LINE
  5
20E
330
1F
100
AcDbEntity
  8
0-7_金物
  6
Continuous
 62
    92
370
     5
100
AcDbLine
 10
-2732.690016072261
 20
-3088.000705256085
 30
0.0
 11
-2612.690016072247
 21
-3088.000705256085
 31
0.0
  0
LINE
  5
20F
330
1F
100
AcDbEntity
  8
0-7_金物
  6
Continuous
 62
    92
370
     5
100
AcDbLine
 10
-2732.690016072261
 20
-3076.000705256086
 30
0.0
 11
-2732.690016072261
 21
-3088.000705256085
 31
0.0
  0
LINE
  5
210
330
1F
100
AcDbEntity
  8
0-7_金物
  6
Continuous
 62
    92
370
     5
100
AcDbLine
 10
-2732.690016072261
 20
-3076.000705256086
 30
0.0
 11
-2741.690074392318
 21
-3076.000705256086
 31
0.0
  0
LINE
  5
211
330
1F
100
AcDbEntity
  8
0-7_金物
  6
Continuous
 62
    92
370
     5
100
AcDbLine
 10
-2612.690016072247
 20
-3076.000705256086
 30
0.0
 11
-2603.879100752615
 21
-3076.000705256086
 31
0.0
  0
LINE
  5
212
330
1F
100
AcDbEntity
  8
0-7_金物
  6
Continuous
 62
    92
370
     5
100
AcDbLine
 10
-2612.690016072247
 20
-3076.000705256086
 30
0.0
 11
-2612.690016072247
 21
-3088.000705256085
 31
0.0
  0
LINE
  5
213
330
1F
100
AcDbEntity
  8
0-7_金物
  6
Continuous
 62
    92
370
     5
100
AcDbLine
 10
-2603.879159072681
 20
-3076.000482925787
 30
0.0
 11
-2603.879159072681
 21
-3118.000705256085
 31
0.0
  0
LINE
  5
214
330
1F
100
AcDbEntity
  8
0-7_金物
  6
Continuous
 62
    92
370
     5
100
AcDbLine
 10
-2741.690016072253
 20
-3076.000482925787
 30
0.0
 11
-2741.690016072253
 21
-3118.000705256085
 31
0.0
  0
LINE
  5
215
330
1F
100
AcDbEntity
  8
0-7_金物
  6
Continuous
 62
    92
370
     5
100
AcDbLine
 10
-2741.690016072253
 20
-3118.000705256085
 30
0.0
 11
-2603.879159072681
 21
-3118.000705256085
 31
0.0
  0
LINE
  5
216
330
1F
100
AcDbEntity
  8
0-C_ハッチ
  6
Continuous
 62
   120
370
     5
100
AcDbLine
 10
-2610.835239664648
 20
-3118.000705256085
 30
0.0
 11
-2603.879159072681
 21
-3111.044624664115
 31
0.0
  0
LINE
  5
217
330
1F
100
AcDbEntity
  8
0-C_ハッチ
  6
Continuous
 62
   120
370
     5
100
AcDbLine
 10
-2738.114460278221
 20
-3118.000705256085
 30
0.0
 11
-2708.114460278221
 21
-3088.000705256085
 31
0.0
  0
LINE
  5
218
330
1F
100
AcDbEntity
  8
0-C_ハッチ
  6
Continuous
 62
   120
370
     5
100
AcDbLine
 10
-2661.746927910085
 20
-3118.000705256085
 30
0.0
 11
-2631.746927910085
 21
-3088.000705256085
 31
0.0
  0
LINE
  5
219
330
1F
100
AcDbEntity
  8
0-C_ハッチ
  6
Continuous
 62
   120
370
     5
100
AcDbLine
 10
-2687.202772032811
 20
-3118.000705256085
 30
0.0
 11
-2657.202772032811
 21
-3088.000705256085
 31
0.0
  0
LINE
  5
21A
330
1F
100
AcDbEntity
  8
0-C_ハッチ
  6
Continuous
 62
   120
370
     5
100
AcDbLine
 10
-2712.658616155522
 20
-3118.000705256085
 30
0.0
 11
-2682.658616155522
 21
-3088.000705256082
 31
0.0
  0
LINE
  5
21B
330
1F
100
AcDbEntity
  8
0-C_ハッチ
  6
Continuous
 62
   120
370
     5
100
AcDbLine
 10
-2636.291083787373
 20
-3118.000705256085
 30
0.0
 11
-2603.879159072681
 21
-3085.588780541396
 31
0.0
  0
LINE
  5
21C
330
1F
100
AcDbEntity
  8
0-7_金物
  6
Continuous
 62
     7
370
     5
100
AcDbLine
 10
-2630.689380461204
 20
-3049.36774589031
 30
0.0
 11
-2714.690251449379
 21
-3049.36774589031
 31
0.0
  0
LINE
  5
21D
330
1F
100
AcDbEntity
  8
0-7_金物
  6
Continuous
 62
     7
370
     5
100
AcDbLine
 10
-2663.689934726417
 20
-2995.000705256085
 30
0.0
 11
-2663.689934726417
 21
-3049.36774589031
 31
0.0
  0
LINE
  5
21E
330
1F
100
AcDbEntity
  8
0-7_金物
  6
Continuous
 62
     7
370
     5
100
AcDbLine
 10
-2681.689697184179
 20
-2995.000705256085
 30
0.0
 11
-2681.689697184179
 21
-3049.36774589031
 31
0.0
  0
LINE
  5
21F
330
1F
100
AcDbEntity
  8
0-7_金物
  6
Continuous
 62
     7
370
     5
100
AcDbLine
 10
-2648.690627557917
 20
-3061.367745890309
 30
0.0
 11
-2696.690488991617
 21
-3061.367745890309
 31
0.0
  0
LINE
  5
220
330
1F
100
AcDbEntity
  8
0-7_金物
  6
Continuous
 62
     7
370
     5
100
AcDbLine
 10
-2663.689934726417
 20
-3066.065143483216
 30
0.0
 11
-2681.689697184179
 21
-3066.065143483216
 31
0.0
  0
LINE
  5
221
330
1F
100
AcDbEntity
  8
0-7_金物
  6
Continuous
 62
     7
370
     5
100
AcDbLine
 10
-2663.689934726417
 20
-3061.367745890309
 30
0.0
 11
-2663.689934726417
 21
-3066.065143483216
 31
0.0
  0
LINE
  5
222
330
1F
100
AcDbEntity
  8
0-7_金物
  6
Continuous
 62
     7
370
     5
100
AcDbLine
 10
-2681.689697184179
 20
-3061.367745890309
 30
0.0
 11
-2681.689697184179
 21
-3066.065143483216
 31
0.0
  0
LINE
  5
223
330
1F
100
AcDbEntity
  8
0-7_金物
  6
Continuous
 62
     7
370
     5
100
AcDbLine
 10
-2648.690627557917
 20
-3061.367745890309
 30
0.0
 11
-2648.690627557917
 21
-3073.367745890312
 31
0.0
  0
LINE
  5
224
330
1F
100
AcDbEntity
  8
0-7_金物
  6
Continuous
 62
     7
370
     5
100
AcDbLine
 10
-2630.689380461204
 20
-3049.36774589031
 30
0.0
 11
-2630.689380461204
 21
-3073.367745890312
 31
0.0
  0
LINE
  5
225
330
1F
100
AcDbEntity
  8
0-7_金物
  6
Continuous
 62
     7
370
     5
100
AcDbLine
 10
-2696.690488991617
 20
-3061.367745890309
 30
0.0
 11
-2696.690488991617
 21
-3073.367745890312
 31
0.0
  0
LINE
  5
226
330
1F
100
AcDbEntity
  8
0-7_金物
  6
Continuous
 62
     7
370
     5
100
AcDbLine
 10
-2714.690251449379
 20
-3049.36774589031
 30
0.0
 11
-2714.690251449379
 21
-3073.367745890312
 31
0.0
  0
LINE
  5
227
330
1F
100
AcDbEntity
  8
0-7_金物
  6
Continuous
 62
     7
370
     5
100
AcDbLine
 10
-2714.690251449379
 20
-3073.367745890312
 30
0.0
 11
-2630.689380461204
 21
-3073.367745890312
 31
0.0
  0
LINE
  5
228
330
1F
100
AcDbEntity
  8
0-7_金物
  6
Continuous
 62
     7
370
     5
100
AcDbLine
 10
-2723.690016072255
 20
-3080.800705256085
 30
0.0
 11
-2711.690016072253
 21
-3080.800705256085
 31
0.0
  0
LINE
  5
229
330
1F
100
AcDbEntity
  8
0-7_金物
  6
Continuous
 62
     7
370
     5
100
AcDbLine
 10
-2705.690016072258
 20
-3080.800705256085
 30
0.0
 11
-2674.490016072259
 21
-3080.800705256085
 31
0.0
  0
LINE
  5
22A
330
1F
100
AcDbEntity
  8
0-7_金物
  6
Continuous
 62
     7
370
     5
100
AcDbLine
 10
-2674.490016072259
 20
-3080.800705256085
 30
0.0
 11
-2672.690016072247
 21
-3082.600705256087
 31
0.0
  0
LINE
  5
22B
330
1F
100
AcDbEntity
  8
0-7_金物
  6
Continuous
 62
     7
370
     5
100
AcDbLine
 10
-2672.690016072247
 20
-3082.600705256087
 30
0.0
 11
-2670.890016072262
 21
-3080.800705256085
 31
0.0
  0
LINE
  5
22C
330
1F
100
AcDbEntity
  8
0-7_金物
  6
Continuous
 62
     7
370
     5
100
AcDbLine
 10
-2670.890016072262
 20
-3080.800705256085
 30
0.0
 11
-2639.69001607225
 21
-3080.800705256085
 31
0.0
  0
LINE
  5
22D
330
1F
100
AcDbEntity
  8
0-7_金物
  6
Continuous
 62
     7
370
     5
100
AcDbLine
 10
-2633.690016072255
 20
-3080.800705256085
 30
0.0
 11
-2621.690016072253
 21
-3080.800705256085
 31
0.0
  0
LINE
  5
22E
330
1F
100
AcDbEntity
  8
0-7_金物
  6
Continuous
 62
     7
370
     5
100
AcDbLine
 10
-2578.490016072251
 20
-3046.000705256086
 30
0.0
 11
-2614.490016072259
 21
-3046.000705256086
 31
0.0
  0
LINE
  5
22F
330
1F
100
AcDbEntity
  8
0-7_金物
  6
Continuous
 62
     7
370
     5
100
AcDbLine
 10
-2730.890016072262
 20
-3046.000705256086
 30
0.0
 11
-2766.890016072257
 21
-3046.000705256086
 31
0.0
  0
LINE
  5
230
330
1F
100
AcDbEntity
  8
0-7_金物
  6
Continuous
 62
     7
370
     5
100
AcDbLine
 10
-2730.890016072262
 20
-3038.800705256086
 30
0.0
 11
-2766.890016072257
 21
-3042.400705256086
 31
0.0
  0
ARC
  5
231
330
1F
100
AcDbEntity
  8
0-7_金物
  6
Continuous
 62
     7
370
     5
100
AcDbCircle
 10
-2766.890016072257
 20
-3044.200705256088
 30
0.0
 40
1.8
100
AcDbArc
 50
90.0
 51
270.0
  0
ARC
  5
232
330
1F
100
AcDbEntity
  8
0-7_金物
  6
Continuous
 62
     7
370
     5
100
AcDbCircle
 10
-2578.490016072251
 20
-3044.200705256088
 30
0.0
 40
1.8
100
AcDbArc
 50
270.0
 51
89.99999999999997
  0
LINE
  5
233
330
1F
100
AcDbEntity
  8
0-7_金物
  6
Continuous
 62
     7
370
     5
100
AcDbLine
 10
-2578.490016072251
 20
-3042.400705256086
 30
0.0
 11
-2614.490016072259
 21
-3038.800705256086
 31
0.0
  0
LINE
  5
234
330
1F
100
AcDbEntity
  8
0-7_金物
  6
Continuous
 62
     7
370
     5
100
AcDbLine
 10
-2709.290016072255
 20
-3038.800705256086
 30
0.0
 11
-2730.890016072262
 21
-3038.800705256086
 31
0.0
  0
ARC
  5
235
330
1F
100
AcDbEntity
  8
0-7_金物
  6
Continuous
 62
     7
370
     5
100
AcDbCircle
 10
-2709.290016072255
 20
-3042.400705256086
 30
0.0
 40
3.600000000000001
100
AcDbArc
 50
0.0
 51
90.0
  0
ARC
  5
236
330
1F
100
AcDbEntity
  8
0-7_金物
  6
Continuous
 62
     7
370
     5
100
AcDbCircle
 10
-2709.290016072255
 20
-3042.400705256086
 30
0.0
 40
3.600000000000001
100
AcDbArc
 50
270.0
 51
0.0
  0
ARC
  5
237
330
1F
100
AcDbEntity
  8
0-7_金物
  6
Continuous
 62
     7
370
     5
100
AcDbCircle
 10
-2636.090016072253
 20
-3042.400705256086
 30
0.0
 40
3.600000000000001
100
AcDbArc
 50
180.0
 51
270.0
  0
LINE
  5
238
330
1F
100
AcDbEntity
  8
0-7_金物
  6
Continuous
 62
     7
370
     5
100
AcDbLine
 10
-2636.090016072253
 20
-3038.800705256086
 30
0.0
 11
-2614.490016072259
 21
-3038.800705256086
 31
0.0
  0
ARC
  5
239
330
1F
100
AcDbEntity
  8
0-7_金物
  6
Continuous
 62
     7
370
     5
100
AcDbCircle
 10
-2636.090016072253
 20
-3042.400705256086
 30
0.0
 40
3.600000000000001
100
AcDbArc
 50
90.0
 51
180.0
  0
LINE
  5
23A
330
1F
100
AcDbEntity
  8
0-7_金物
  6
Continuous
 62
     7
370
     5
100
AcDbLine
 10
-2614.490016072259
 20
-3079.000705256087
 30
0.0
 11
-2614.490016072259
 21
-3046.000705256086
 31
0.0
  0
ARC
  5
23B
330
1F
100
AcDbEntity
  8
0-7_金物
  6
Continuous
 62
     7
370
     5
100
AcDbCircle
 10
-2623.490016072251
 20
-3079.000705256087
 30
0.0
 40
9.000000000000002
100
AcDbArc
 50
270.0
 51
0.0
  0
LINE
  5
23C
330
1F
100
AcDbEntity
  8
0-7_金物
  6
Continuous
 62
     7
370
     5
100
AcDbLine
 10
-2730.890016072262
 20
-3079.000705256087
 30
0.0
 11
-2730.890016072262
 21
-3046.000705256086
 31
0.0
  0
LINE
  5
23D
330
1F
100
AcDbEntity
  8
0-7_金物
  6
Continuous
 62
     7
370
     5
100
AcDbLine
 10
-2721.890016072257
 20
-3088.000705256085
 30
0.0
 11
-2623.490016072251
 21
-3088.000705256085
 31
0.0
  0
ARC
  5
23E
330
1F
100
AcDbEntity
  8
0-7_金物
  6
Continuous
 62
     7
370
     5
100
AcDbCircle
 10
-2721.890016072257
 20
-3079.000705256087
 30
0.0
 40
9.000000000000002
100
AcDbArc
 50
180.0
 51
270.0
  0
LINE
  5
23F
330
1F
100
AcDbEntity
  8
0-7_金物
  6
Continuous
 62
     7
370
     5
100
AcDbLine
 10
-2720.690016072258
 20
-3046.000705256086
 30
0.0
 11
-2709.290016072255
 21
-3046.000705256086
 31
0.0
  0
LINE
  5
240
330
1F
100
AcDbEntity
  8
0-7_金物
  6
Continuous
 62
     7
370
     5
100
AcDbLine
 10
-2723.690016072255
 20
-3049.000705256087
 30
0.0
 11
-2723.690016072255
 21
-3080.800705256085
 31
0.0
  0
ARC
  5
241
330
1F
100
AcDbEntity
  8
0-7_金物
  6
Continuous
 62
     7
370
     5
100
AcDbCircle
 10
-2720.690016072258
 20
-3049.000705256087
 30
0.0
 40
3.0
100
AcDbArc
 50
90.0
 51
180.0
  0
LINE
  5
242
330
1F
100
AcDbEntity
  8
0-7_金物
  6
Continuous
 62
     7
370
     5
100
AcDbLine
 10
-2624.69001607225
 20
-3046.000705256086
 30
0.0
 11
-2636.090016072253
 21
-3046.000705256086
 31
0.0
  0
LINE
  5
243
330
1F
100
AcDbEntity
  8
0-7_金物
  6
Continuous
 62
     7
370
     5
100
AcDbLine
 10
-2621.690016072253
 20
-3049.000705256087
 30
0.0
 11
-2621.690016072253
 21
-3080.800705256085
 31
0.0
  0
ARC
  5
244
330
1F
100
AcDbEntity
  8
0-7_金物
  6
Continuous
 62
     7
370
     5
100
AcDbCircle
 10
-2624.69001607225
 20
-3049.000705256087
 30
0.0
 40
3.0
100
AcDbArc
 50
0.0
 51
90.0
  0
LINE
  5
245
330
1F
100
AcDbEntity
  8
0-7_金物
  6
Continuous
 62
     7
370
     5
100
AcDbLine
 10
-2711.690016072253
 20
-3076.000705256086
 30
0.0
 11
-2711.690016072253
 21
-3080.800705256085
 31
0.0
  0
ARC
  5
246
330
1F
100
AcDbEntity
  8
0-7_金物
  6
Continuous
 62
     7
370
     5
100
AcDbCircle
 10
-2710.490016072254
 20
-3076.000705256086
 30
0.0
 40
1.2
100
AcDbArc
 50
90.0
 51
180.0
  0
LINE
  5
247
330
1F
100
AcDbEntity
  8
0-7_金物
  6
Continuous
 62
     7
370
     5
100
AcDbLine
 10
-2706.890016072257
 20
-3074.800705256087
 30
0.0
 11
-2710.490016072254
 21
-3074.800705256087
 31
0.0
  0
LINE
  5
248
330
1F
100
AcDbEntity
  8
0-7_金物
  6
Continuous
 62
     7
370
     5
100
AcDbLine
 10
-2705.690016072258
 20
-3076.000705256086
 30
0.0
 11
-2705.690016072258
 21
-3080.800705256085
 31
0.0
  0
ARC
  5
249
330
1F
100
AcDbEntity
  8
0-7_金物
  6
Continuous
 62
     7
370
     5
100
AcDbCircle
 10
-2706.890016072257
 20
-3076.000705256086
 30
0.0
 40
1.2
100
AcDbArc
 50
0.0
 51
90.0
  0
LINE
  5
24A
330
1F
100
AcDbEntity
  8
0-7_金物
  6
Continuous
 62
     7
370
     5
100
AcDbLine
 10
-2639.69001607225
 20
-3076.000705256086
 30
0.0
 11
-2639.69001607225
 21
-3080.800705256085
 31
0.0
  0
ARC
  5
24B
330
1F
100
AcDbEntity
  8
0-7_金物
  6
Continuous
 62
     7
370
     5
100
AcDbCircle
 10
-2638.490016072251
 20
-3076.000705256086
 30
0.0
 40
1.2
100
AcDbArc
 50
90.0
 51
180.0
  0
LINE
  5
24C
330
1F
100
AcDbEntity
  8
0-7_金物
  6
Continuous
 62
     7
370
     5
100
AcDbLine
 10
-2634.890016072254
 20
-3074.800705256087
 30
0.0
 11
-2638.490016072251
 21
-3074.800705256087
 31
0.0
  0
LINE
  5
24D
330
1F
100
AcDbEntity
  8
0-7_金物
  6
Continuous
 62
     7
370
     5
100
AcDbLine
 10
-2633.690016072255
 20
-3076.000705256086
 30
0.0
 11
-2633.690016072255
 21
-3080.800705256085
 31
0.0
  0
ARC
  5
24E
330
1F
100
AcDbEntity
  8
0-7_金物
  6
Continuous
 62
     7
370
     5
100
AcDbCircle
 10
-2634.890016072254
 20
-3076.000705256086
 30
0.0
 40
1.2
100
AcDbArc
 50
0.0
 51
90.0
  0
ARC
  5
24F
330
1F
100
AcDbEntity
  8
0-7_金物
  6
JWW_DASHED1
 62
     7
370
     5
100
AcDbCircle
 10
-2766.890016072257
 20
-3044.200705256088
 30
0.0
 40
1.8
100
AcDbArc
 50
270.0
 51
90.0
  0
ARC
  5
250
330
1F
100
AcDbEntity
  8
0-7_金物
  6
JWW_DASHED1
 62
     7
370
     5
100
AcDbCircle
 10
-2578.490016072251
 20
-3044.200705256088
 30
0.0
 40
1.8
100
AcDbArc
 50
90.0
 51
270.0
  0
LINE
  5
251
330
1F
100
AcDbEntity
  8
0-B_寸法
  6
Continuous
 62
   120
370
     5
100
AcDbLine
 10
-1289.204036528104
 20
-69.99994082064745
 30
0.0
 11
-1919.204036528104
 21
-69.99994082064745
 31
0.0
  0
LINE
  5
252
330
1F
100
AcDbEntity
  8
0-0_補助線
  6
JWW_HOJO
 62
   120
370
     5
100
AcDbLine
 10
-3623.690016072255
 20
170.000074025744
 30
0.0
 11
-3623.690016072255
 21
-3117.999940974257
 31
0.0
  0
LINE
  5
253
330
1F
100
AcDbEntity
  8
0-0_補助線
  6
JWW_HOJO
 62
   120
370
     5
100
AcDbLine
 10
-3263.690016072255
 20
-3117.999940974257
 30
0.0
 11
-3263.690016072255
 21
170.000074025744
 31
0.0
  0
LINE
  5
254
330
1F
100
AcDbEntity
  8
0-0_補助線
  6
JWW_HOJO
 62
   120
370
     5
100
AcDbLine
 10
-1919.204036528104
 20
-3117.999940974257
 30
0.0
 11
-1919.204036528104
 21
170.000074025744
 31
0.0
  0
LINE
  5
255
330
1F
100
AcDbEntity
  8
0-0_補助線
  6
JWW_HOJO
 62
   120
370
     5
100
AcDbLine
 10
-3623.690016072255
 20
170.000074025744
 30
0.0
 11
-1919.204036528104
 21
170.000074025744
 31
0.0
  0
LINE
  5
256
330
1F
100
AcDbEntity
  8
0-7_金物
  6
Continuous
 62
     7
370
     5
100
AcDbLine
 10
-2618.689981739972
 20
-117.9999259742567
 30
0.0
 11
-2618.689981739972
 21
-93.99985730970798
 31
0.0
  0
LINE
  5
257
330
1F
100
AcDbEntity
  8
0-7_金物
  6
Continuous
 62
     7
370
     5
100
AcDbLine
 10
-2726.690050404536
 20
-93.99985730970798
 30
0.0
 11
-2726.690050404536
 21
-117.9999259742567
 31
0.0
  0
LINE
  5
258
330
1F
100
AcDbEntity
  8
0-7_金物
  6
Continuous
 62
     7
370
     5
100
AcDbLine
 10
-2732.690216343867
 20
-93.99985730970798
 30
0.0
 11
-2612.690559666607
 21
-93.99985730970798
 31
0.0
  0
LINE
  5
259
330
1F
100
AcDbEntity
  8
0-7_金物
  6
Continuous
 62
     7
370
     5
100
AcDbLine
 10
-2612.690559666607
 20
-82.0002635749654
 30
0.0
 11
-2612.690559666607
 21
-93.99985730970798
 31
0.0
  0
LINE
  5
25A
330
1F
100
AcDbEntity
  8
0-7_金物
  6
Continuous
 62
     7
370
     5
100
AcDbLine
 10
-2732.690216343867
 20
-82.0002635749654
 30
0.0
 11
-2732.690216343867
 21
-93.99985730970798
 31
0.0
  0
LINE
  5
25B
330
1F
100
AcDbEntity
  8
0-7_金物
  6
Continuous
 62
     7
370
     5
100
AcDbLine
 10
-2762.690319340691
 20
-69.99992597425688
 30
0.0
 11
-2762.690319340691
 21
-82.0002635749654
 31
0.0
  0
LINE
  5
25C
330
1F
100
AcDbEntity
  8
0-7_金物
  6
Continuous
 62
     7
370
     5
100
AcDbLine
 10
-2582.690456669784
 20
-69.99992597425688
 30
0.0
 11
-2582.690456669784
 21
-82.0002635749654
 31
0.0
  0
LINE
  5
25D
330
1F
100
AcDbEntity
  8
0-7_金物
  6
Continuous
 62
     7
370
     5
100
AcDbLine
 10
-2762.690319340691
 20
-82.0002635749654
 30
0.0
 11
-2582.690456669784
 21
-82.0002635749654
 31
0.0
  0
LINE
  5
25E
330
1F
100
AcDbEntity
  8
0-7_金物
  6
Continuous
 62
     7
370
     5
100
AcDbLine
 10
-2822.690319340691
 20
-69.99992597425688
 30
0.0
 11
-2642.690456669798
 21
-69.99992597425688
 31
0.0
  0
LINE
  5
25F
330
1F
100
AcDbEntity
  8
0-3_仕上げ
  6
Continuous
 62
   120
370
     5
100
AcDbLine
 10
-2942.690016072261
 20
-69.99992597425688
 30
0.0
 11
-2522.690016072247
 21
-69.99992597425688
 31
0.0
  0
LINE
  5
260
330
1F
100
AcDbEntity
  8
0-3_仕上げ
  6
Continuous
 62
   120
370
     5
100
AcDbLine
 10
-2522.690016072247
 20
110.0000740257431
 30
0.0
 11
-2942.690016072261
 21
110.0000740257431
 31
0.0
  0
LINE
  5
261
330
1F
100
AcDbEntity
  8
0-3_仕上げ
  6
Continuous
 62
   120
370
     5
100
AcDbLine
 10
-2942.690016072261
 20
110.0000740257431
 30
0.0
 11
-2942.690016072261
 21
-69.99992597425688
 31
0.0
  0
LINE
  5
262
330
1F
100
AcDbEntity
  8
0-3_仕上げ
  6
Continuous
 62
   120
370
     5
100
AcDbLine
 10
-2522.690016072247
 20
110.0000740257431
 30
0.0
 11
-2942.690016072261
 21
-69.99992597425688
 31
0.0
  0
LINE
  5
263
330
1F
100
AcDbEntity
  8
0-B_寸法
  6
Continuous
 62
   120
370
     5
100
AcDbLine
 10
-3623.690016072255
 20
-69.99992597425688
 30
0.0
 11
-3623.690016072255
 21
-3118.000311980379
 31
0.0
  0
LWPOLYLINE
  5
264
330
1F
100
AcDbEntity
  8
0-B_寸法
  6
Continuous
 62
     7
370
     5
100
AcDbPolyline
 90
        4
 70
     1
 43
3.0
 10
-3622.190016072255
 20
-69.99992597425688
 42
0.4142135623731
 10
-3623.690016072255
 20
-68.49992597425688
 42
0.4142135623731
 10
-3625.190016072255
 20
-69.99992597425688
 42
0.4142135623731
 10
-3623.690016072255
 20
-71.49992597425688
 42
0.4142135623731
  0
LINE
  5
265
330
1F
100
AcDbEntity
  8
0-B_寸法
  6
Continuous
 62
   120
370
     5
100
AcDbLine
 10
-3623.690016072255
 20
-69.99992597425688
 30
0.0
 11
-3263.690016072255
 21
-69.99992597425688
 31
0.0
  0
LWPOLYLINE
  5
266
330
1F
100
AcDbEntity
  8
0-B_寸法
  6
Continuous
 62
     7
370
     5
100
AcDbPolyline
 90
        4
 70
     1
 43
3.0
 10
-1287.704036528104
 20
-69.99994082064745
 42
0.4142135623731
 10
-1289.204036528104
 20
-68.49994082064745
 42
0.4142135623731
 10
-1290.704036528104
 20
-69.99994082064745
 42
0.4142135623731
 10
-1289.204036528104
 20
-71.49994082064745
 42
0.4142135623731
  0
LINE
  5
267
330
1F
100
AcDbEntity
  8
0-B_寸法
  6
Continuous
 62
   120
370
     5
100
AcDbLine
 10
-1289.204036528104
 20
-69.99994082064745
 30
0.0
 11
-1289.204036528104
 21
-3118.000311980379
 31
0.0
  0
LINE
  5
268
330
1F
100
AcDbEntity
  8
0-1_通り芯
  6
JWW_CENTER1
 62
   120
370
     5
100
AcDbLine
 10
-2672.690016072247
 20
-3211.070445315379
 30
0.0
 11
-2672.690016072247
 21
170.000074025744
 31
0.0
  0
MTEXT
  5
269
330
1F
100
AcDbEntity
  8
0-B_寸法
  6
Continuous
 62
     7
370
     0
100
AcDbMText
 10
-1663.670531775524
 20
-3011.412100971977
 30
0.0
 40
91.44
 41
180.0
 46
0.0
 71
     7
 72
     1
  1
{\fＭＳ ゴシック|b0|i0|c128|p49;8.5}
 11
6.123031769111886E-17
 21
1.0
 31
0.0
 73
     1
 44
1.0
  0
MTEXT
  5
26A
330
1F
100
AcDbEntity
  8
0-B_寸法
  6
Continuous
 62
     7
370
     0
100
AcDbMText
 10
-1484.203343696604
 20
-3260.006540481251
 30
0.0
 40
91.44
 41
120.0
 46
0.0
 71
     7
 72
     1
  1
{\fＭＳ ゴシック|b0|i0|c128|p49;12}
 11
6.123031769111886E-17
 21
1.0
 31
0.0
 73
     1
 44
1.0
  0
MTEXT
  5
26B
330
1F
100
AcDbEntity
  8
0-A_文字
  6
Continuous
 62
     7
370
     5
100
AcDbMText
 10
-3623.690016072255
 20
414.2912972119836
 30
0.0
 40
91.44
 41
600.0
 46
0.0
 71
     7
 72
     1
  1
{\fＭＳ ゴシック|b0|i0|c128|p49;■縦断面図}
 73
     1
 44
1.0
  0
MTEXT
  5
26C
330
1F
100
AcDbEntity
  8
0-B_寸法
  6
Continuous
 62
     7
370
   211
100
AcDbMText
 10
-3638.690016072255
 20
-2046.280084335741
 30
0.0
 40
91.43999999999997
 41
780.0
 46
0.0
 71
     7
 72
     1
  1
{\fＭＳ ゴシック|b0|i0|c128|p49;ＲＯＨ＝2,356}
 11
6.123031769111886E-17
 21
1.0
 31
0.0
 73
     1
 44
1.0
  0
MTEXT
  5
26D
330
1F
100
AcDbEntity
  8
0-B_寸法
  6
Continuous
 62
     7
370
     0
100
AcDbMText
 10
-1664.203343696604
 20
-1986.280084335741
 30
0.0
 40
91.43999999999997
 41
660.0
 46
0.0
 71
     7
 72
     1
  1
{\fＭＳ ゴシック|b0|i0|c128|p49;ＤＨ＝2,284}
 11
6.123031769111886E-17
 21
1.0
 31
0.0
 73
     1
 44
1.0
  0
MTEXT
  5
26E
330
1F
100
AcDbEntity
  8
0-B_寸法
  6
Continuous
 62
     7
370
     0
100
AcDbMText
 10
-1484.203343696604
 20
-1986.280084335741
 30
0.0
 40
91.43999999999997
 41
660.0
 46
0.0
 71
     7
 72
     1
  1
{\fＭＳ ゴシック|b0|i0|c128|p49;枠内＝2,300}
 11
6.123031769111886E-17
 21
1.0
 31
0.0
 73
     1
 44
1.0
  0
MTEXT
  5
26F
330
1F
100
AcDbEntity
  8
0-B_寸法
  6
Continuous
 62
     7
370
     0
100
AcDbMText
 10
-1304.204828335542
 20
-1986.280084335741
 30
0.0
 40
91.43999999999997
 41
660.0
 46
0.0
 71
     7
 72
     1
  1
{\fＭＳ ゴシック|b0|i0|c128|p49;枠外＝2,348}
 11
6.123031769111886E-17
 21
1.0
 31
0.0
 73
     1
 44
1.0
  0
MTEXT
  5
270
330
1F
100
AcDbEntity
  8
0-A_文字
  6
Continuous
 62
     7
370
   211
100
AcDbMText
 10
-2792.690016072247
 20
-1144.495429699595
 30
0.0
 40
91.44
 41
240.0
 46
0.0
 71
     7
 72
     1
  1
{\fＭＳ ゴシック|b0|i0|c128|p49;(24)}
 73
     1
 44
1.0
  0
MTEXT
  5
271
330
1F
100
AcDbEntity
  8
0-A_文字
  6
Continuous
 62
     7
370
     0
100
AcDbMText
 10
-2685.574686855652
 20
-3486.907689278275
 30
0.0
 40
68.57999999999996
 41
1349.999999999999
 46
0.0
 71
     7
 72
     1
  1
{\fＭＳ ゴシック|b0|i0|c128|p49;※扉厚（　）内はルーバーの場合}
 73
     1
 44
1.0
  0
LINE
  5
272
330
1F
100
AcDbEntity
  8
0-A_文字
  6
JWW_HOJO
 62
   120
370
     5
100
AcDbLine
 10
-2685.574686855652
 20
-3476.197689278275
 30
0.0
 11
-276.0508773318418
 21
-3476.197689278275
 31
0.0
  0
LINE
  5
273
330
1F
100
AcDbEntity
  8
2-4_枠
  6
Continuous
 62
    92
370
     5
100
AcDbLine
 10
737.2629790225412
 20
-1038.811791068876
 30
0.0
 11
737.2629790225412
 21
-988.8123065685035
 31
0.0
  0
LINE
  5
274
330
1F
100
AcDbEntity
  8
2-4_枠
  6
Continuous
 62
    92
370
     5
100
AcDbLine
 10
507.2627150867285
 20
-1038.811791068876
 30
0.0
 11
507.2627150867285
 21
-988.8123065685035
 31
0.0
  0
LINE
  5
275
330
1F
100
AcDbEntity
  8
2-4_枠
  6
Continuous
 62
    92
370
     5
100
AcDbLine
 10
522.2620222552289
 20
-1058.812104492651
 30
0.0
 11
722.2621872151169
 21
-1058.812104492651
 31
0.0
  0
LINE
  5
276
330
1F
100
AcDbEntity
  8
2-4_枠
  6
Continuous
 62
    92
370
     5
100
AcDbLine
 10
507.2627150867285
 20
-1038.811791068876
 30
0.0
 11
522.2620222552289
 21
-1038.811791068876
 31
0.0
  0
LINE
  5
277
330
1F
100
AcDbEntity
  8
2-4_枠
  6
Continuous
 62
    92
370
     5
100
AcDbLine
 10
522.2620222552289
 20
-1058.812104492651
 30
0.0
 11
522.2620222552289
 21
-1038.811791068876
 31
0.0
  0
LINE
  5
278
330
1F
100
AcDbEntity
  8
2-4_枠
  6
Continuous
 62
    92
370
     5
100
AcDbLine
 10
722.2621872151169
 20
-1058.812104492651
 30
0.0
 11
722.2621872151169
 21
-1038.811791068876
 31
0.0
  0
LINE
  5
279
330
1F
100
AcDbEntity
  8
2-4_枠
  6
Continuous
 62
    92
370
     5
100
AcDbLine
 10
737.2629790225412
 20
-1038.811791068876
 30
0.0
 11
722.2621872151169
 21
-1038.811791068876
 31
0.0
  0
LINE
  5
27A
330
1F
100
AcDbEntity
  8
2-B_寸法
  6
Continuous
 62
   120
370
     5
100
AcDbLine
 10
197.2619232792997
 20
-54.97908008765918
 30
0.0
 11
1047.262286191046
 21
-54.97908008765918
 31
0.0
  0
LWPOLYLINE
  5
27B
330
1F
100
AcDbEntity
  8
2-B_寸法
  6
Continuous
 62
     7
370
     5
100
AcDbPolyline
 90
        4
 70
     1
 43
3.0
 10
198.7619232792997
 20
-54.97908008765918
 42
0.4142135623731
 10
197.2619232792997
 20
-53.47908008765918
 42
0.4142135623731
 10
195.7619232792997
 20
-54.97908008765918
 42
0.4142135623731
 10
197.2619232792997
 20
-56.47908008765918
 42
0.4142135623731
  0
LWPOLYLINE
  5
27C
330
1F
100
AcDbEntity
  8
2-B_寸法
  6
Continuous
 62
     7
370
     5
100
AcDbPolyline
 90
        4
 70
     1
 43
3.0
 10
1048.762286191046
 20
-54.97908008765918
 42
0.4142135623731
 10
1047.262286191046
 20
-53.47908008765918
 42
0.4142135623731
 10
1045.762286191046
 20
-54.97908008765918
 42
0.4142135623731
 10
1047.262286191046
 20
-56.47908008765918
 42
0.4142135623731
  0
LINE
  5
27D
330
1F
100
AcDbEntity
  8
2-B_寸法
  6
Continuous
 62
   120
370
     5
100
AcDbLine
 10
197.2619232792997
 20
-54.97908008765918
 30
0.0
 11
197.2619232792997
 21
-198.52112988766
 31
0.0
  0
LINE
  5
27E
330
1F
100
AcDbEntity
  8
2-B_寸法
  6
Continuous
 62
   120
370
     5
100
AcDbLine
 10
1047.262286191046
 20
-54.97908008765918
 30
0.0
 11
1047.262286191046
 21
-198.52112988766
 31
0.0
  0
LINE
  5
27F
330
1F
100
AcDbEntity
  8
2-0_補助線
  6
JWW_HOJO
 62
   120
370
     5
100
AcDbLine
 10
179.0924973164439
 20
-1186.321758769733
 30
0.0
 11
1322.262632591034
 21
-1186.321758769733
 31
0.0
  0
LINE
  5
280
330
1F
100
AcDbEntity
  8
2-0_補助線
  6
JWW_HOJO
 62
   120
370
     5
100
AcDbLine
 10
179.0924973164439
 20
-1366.321758769733
 30
0.0
 11
1502.262632591034
 21
-1366.321758769733
 31
0.0
  0
LINE
  5
281
330
1F
100
AcDbEntity
  8
2-0_補助線
  6
JWW_HOJO
 62
   120
370
     5
100
AcDbLine
 10
162.2615768635407
 20
-198.52112988766
 30
0.0
 11
1322.262632591034
 21
-198.52112988766
 31
0.0
  0
LINE
  5
282
330
1F
100
AcDbEntity
  8
2-0_補助線
  6
JWW_HOJO
 62
   120
370
     5
100
AcDbLine
 10
162.2615768635407
 20
-54.97908008765918
 30
0.0
 11
1502.262632591034
 21
-54.97908008765918
 31
0.0
  0
LINE
  5
283
330
1F
100
AcDbEntity
  8
2-0_補助線
  6
JWW_HOJO
 62
   120
370
     5
100
AcDbLine
 10
162.2615768635407
 20
-248.5211298876588
 30
0.0
 11
1322.262632591034
 21
-248.5211298876588
 31
0.0
  0
LINE
  5
284
330
1F
100
AcDbEntity
  8
2-0_補助線
  6
JWW_HOJO
 62
   120
370
     5
100
AcDbLine
 10
1502.262632591034
 20
-1366.321758769733
 30
0.0
 11
1502.262632591034
 21
-54.97908008765918
 31
0.0
  0
MTEXT
  5
285
330
1F
100
AcDbEntity
  8
2-B_寸法
  6
Continuous
 62
     7
370
   211
100
AcDbMText
 10
562.2621047351669
 20
-54.25908008765972
 30
0.0
 40
91.43999999999902
 41
119.9999999999987
 46
0.0
 71
     7
 72
     1
  1
{\fＭＳ ゴシック|b0|i0|c128|p49;85}
 73
     1
 44
1.0
  0
LINE
  5
286
330
1F
100
AcDbEntity
  8
2-4_枠
  6
Continuous
 62
    92
370
     5
100
AcDbLine
 10
197.2619232792997
 20
-248.5211298876588
 30
0.0
 11
197.2619232792997
 21
-988.8123065685035
 31
0.0
  0
LINE
  5
287
330
1F
100
AcDbEntity
  8
2-4_枠
  6
Continuous
 62
    92
370
     5
100
AcDbLine
 10
197.2619232792997
 20
-988.8123065685035
 30
0.0
 11
507.2627150867285
 21
-988.8123065685035
 31
0.0
  0
LINE
  5
288
330
1F
100
AcDbEntity
  8
2-4_枠
  6
Continuous
 62
    92
370
     5
100
AcDbLine
 10
737.2629790225412
 20
-988.8123065685035
 30
0.0
 11
1047.262286191046
 21
-988.8123065685035
 31
0.0
  0
LINE
  5
289
330
1F
100
AcDbEntity
  8
2-4_枠
  6
Continuous
 62
    92
370
     5
100
AcDbLine
 10
1047.262286191046
 20
-248.5211298876588
 30
0.0
 11
1047.262286191046
 21
-988.8123065685035
 31
0.0
  0
LINE
  5
28A
330
1F
100
AcDbEntity
  8
2-0_補助線
  6
JWW_HOJO
 62
   120
370
     5
100
AcDbLine
 10
1322.262632591034
 20
-1186.321758769733
 30
0.0
 11
1322.262632591034
 21
-248.5211298876588
 31
0.0
  0
MTEXT
  5
28B
330
1F
100
AcDbEntity
  8
1-A_文字
  6
Continuous
 62
     7
370
     0
100
AcDbMText
 10
2889.997139405479
 20
-1059.474558392066
 30
0.0
 40
91.44
 41
600.0
 46
0.0
 71
     7
 72
     1
  1
{\fＭＳ ゴシック|b0|i0|c128|p49;下地ベース}
 73
     1
 44
1.0
  0
LINE
  5
28C
330
1F
100
AcDbEntity
  8
1-A_文字
  6
Continuous
 62
     7
370
     5
100
AcDbLine
 10
2709.711344149084
 20
-842.1679791267878
 30
0.0
 11
2836.38590890154
 21
-984.8535396092644
 31
0.0
  0
LINE
  5
28D
330
1F
100
AcDbEntity
  8
1-3_仕上げ
  6
Continuous
 62
    40
370
     5
100
AcDbLine
 10
2069.105553558858
 20
-873.6360387978528
 30
0.0
 11
3149.105553558858
 21
-873.6360387978528
 31
0.0
  0
LINE
  5
28E
330
1F
100
AcDbEntity
  8
1-0_補助線
  6
JWW_HOJO
 62
   120
370
     5
100
AcDbLine
 10
2069.105553558858
 20
-1053.124063196087
 30
0.0
 11
3149.105553558858
 21
-1053.124063196087
 31
0.0
  0
LINE
  5
28F
330
1F
100
AcDbEntity
  8
1-B_寸法
  6
Continuous
 62
   120
370
     5
100
AcDbLine
 10
3179.105553558858
 20
-873.6360387978528
 30
0.0
 11
3449.105553558858
 21
-873.6360387978528
 31
0.0
  0
LWPOLYLINE
  5
290
330
1F
100
AcDbEntity
  8
1-B_寸法
  6
Continuous
 62
     7
370
     5
100
AcDbPolyline
 90
        4
 70
     1
 43
3.0
 10
3450.605553558858
 20
-873.6360387978528
 42
0.4142135623731
 10
3449.105553558858
 20
-872.1360387978528
 42
0.4142135623731
 10
3447.605553558859
 20
-873.6360387978528
 42
0.4142135623731
 10
3449.105553558858
 20
-875.1360387978528
 42
0.4142135623731
  0
LINE
  5
291
330
1F
100
AcDbEntity
  8
1-B_寸法
  6
Continuous
 62
   120
370
     5
100
AcDbLine
 10
2421.605553558858
 20
-933.1240631959134
 30
0.0
 11
2421.605553558858
 21
-1053.124063195914
 31
0.0
  0
LWPOLYLINE
  5
292
330
1F
100
AcDbEntity
  8
1-B_寸法
  6
Continuous
 62
     7
370
     5
100
AcDbPolyline
 90
        4
 70
     1
 43
3.0
 10
2423.105553558858
 20
-1053.124063195914
 42
0.4142135623731
 10
2421.605553558858
 20
-1051.624063195914
 42
0.4142135623731
 10
2420.105553558859
 20
-1053.124063195914
 42
0.4142135623731
 10
2421.605553558858
 20
-1054.624063195913
 42
0.4142135623731
  0
MTEXT
  5
293
330
1F
100
AcDbEntity
  8
1-B_寸法
  6
Continuous
 62
     7
370
     0
100
AcDbMText
 10
2549.105553558858
 20
-265.8170671862469
 30
0.0
 40
91.44
 41
120.0
 46
0.0
 71
     7
 72
     1
  1
{\fＭＳ ゴシック|b0|i0|c128|p49;32}
 73
     1
 44
1.0
  0
LINE
  5
294
330
1F
100
AcDbEntity
  8
1-B_寸法
  6
Continuous
 62
   120
370
     5
100
AcDbLine
 10
2796.605553558858
 20
-933.1240631959134
 30
0.0
 11
2796.605553558858
 21
-1053.124063195914
 31
0.0
  0
LWPOLYLINE
  5
295
330
1F
100
AcDbEntity
  8
1-B_寸法
  6
Continuous
 62
     7
370
     5
100
AcDbPolyline
 90
        4
 70
     1
 43
3.0
 10
2798.105553558858
 20
-1053.124063195914
 42
0.4142135623731
 10
2796.605553558858
 20
-1051.624063195914
 42
0.4142135623731
 10
2795.105553558859
 20
-1053.124063195914
 42
0.4142135623731
 10
2796.605553558858
 20
-1054.624063195913
 42
0.4142135623731
  0
MTEXT
  5
296
330
1F
100
AcDbEntity
  8
1-B_寸法
  6
Continuous
 62
     7
370
   211
100
AcDbMText
 10
2133.424438031154
 20
-385.8171572543428
 30
0.0
 40
91.44
 41
240.0
 46
0.0
 71
     7
 72
     1
  1
{\fＭＳ ゴシック|b0|i0|c128|p49;10.5}
 73
     1
 44
1.0
  0
LINE
  5
297
330
1F
100
AcDbEntity
  8
1-B_寸法
  6
Continuous
 62
   120
370
     5
100
AcDbLine
 10
2421.605553558858
 20
-1053.124063195914
 30
0.0
 11
2796.605553558858
 21
-1053.124063195914
 31
0.0
  0
LINE
  5
298
330
1F
100
AcDbEntity
  8
1-B_寸法
  6
Continuous
 62
   120
370
     5
100
AcDbLine
 10
2781.605553558858
 20
-933.1240631959134
 30
0.0
 11
2781.605553558858
 21
-1053.124063195914
 31
0.0
  0
LWPOLYLINE
  5
299
330
1F
100
AcDbEntity
  8
1-B_寸法
  6
Continuous
 62
     7
370
     5
100
AcDbPolyline
 90
        4
 70
     1
 43
3.0
 10
2783.105553558858
 20
-1053.124063195914
 42
0.4142135623731
 10
2781.605553558858
 20
-1051.624063195914
 42
0.4142135623731
 10
2780.105553558859
 20
-1053.124063195914
 42
0.4142135623731
 10
2781.605553558858
 20
-1054.624063195913
 42
0.4142135623731
  0
LINE
  5
29A
330
1F
100
AcDbEntity
  8
1-B_寸法
  6
Continuous
 62
   120
370
     5
100
AcDbLine
 10
2436.605699359022
 20
-933.1240631959134
 30
0.0
 11
2436.605699359022
 21
-1053.124063195914
 31
0.0
  0
LWPOLYLINE
  5
29B
330
1F
100
AcDbEntity
  8
1-B_寸法
  6
Continuous
 62
     7
370
     5
100
AcDbPolyline
 90
        4
 70
     1
 43
3.0
 10
2438.105699359022
 20
-1053.124063195914
 42
0.4142135623731
 10
2436.605699359022
 20
-1051.624063195914
 42
0.4142135623731
 10
2435.105699359022
 20
-1053.124063195914
 42
0.4142135623731
 10
2436.605699359022
 20
-1054.624063195913
 42
0.4142135623731
  0
MTEXT
  5
29C
330
1F
100
AcDbEntity
  8
1-B_寸法
  6
Continuous
 62
     7
370
   211
100
AcDbMText
 10
2549.105553558858
 20
-385.8171572543428
 30
0.0
 40
91.44
 41
120.0
 46
0.0
 71
     7
 72
     1
  1
{\fＭＳ ゴシック|b0|i0|c128|p49;11}
 73
     1
 44
1.0
  0
LINE
  5
29D
330
1F
100
AcDbEntity
  8
1-B_寸法
  6
Continuous
 62
   120
370
     5
100
AcDbLine
 10
3179.105553558858
 20
-798.6360387978528
 30
0.0
 11
3449.105553558858
 21
-798.6360387978528
 31
0.0
  0
LWPOLYLINE
  5
29E
330
1F
100
AcDbEntity
  8
1-B_寸法
  6
Continuous
 62
     7
370
     5
100
AcDbPolyline
 90
        4
 70
     1
 43
3.0
 10
3450.605553558858
 20
-798.6360387978528
 42
0.4142135623731
 10
3449.105553558858
 20
-797.1360387978528
 42
0.4142135623731
 10
3447.605553558859
 20
-798.6360387978528
 42
0.4142135623731
 10
3449.105553558858
 20
-800.1360387978528
 42
0.4142135623731
  0
LINE
  5
29F
330
1F
100
AcDbEntity
  8
1-B_寸法
  6
Continuous
 62
   120
370
     5
100
AcDbLine
 10
2369.105553558858
 20
-611.7961018455163
 30
0.0
 11
2369.105553558858
 21
-251.7961018455163
 31
0.0
  0
LWPOLYLINE
  5
2A0
330
1F
100
AcDbEntity
  8
1-B_寸法
  6
Continuous
 62
     7
370
     5
100
AcDbPolyline
 90
        4
 70
     1
 43
3.0
 10
2370.605553558858
 20
-491.7961018455163
 42
0.4142135623731
 10
2369.105553558858
 20
-490.2961018455163
 42
0.4142135623731
 10
2367.605553558859
 20
-491.7961018455163
 42
0.4142135623731
 10
2369.105553558858
 20
-493.2961018455164
 42
0.4142135623731
  0
LWPOLYLINE
  5
2A1
330
1F
100
AcDbEntity
  8
1-B_寸法
  6
Continuous
 62
     7
370
     5
100
AcDbPolyline
 90
        4
 70
     1
 43
3.0
 10
2370.605553558858
 20
-371.7961018455163
 42
0.4142135623731
 10
2369.105553558858
 20
-370.2961018455163
 42
0.4142135623731
 10
2367.605553558859
 20
-371.7961018455163
 42
0.4142135623731
 10
2369.105553558858
 20
-373.2961018455164
 42
0.4142135623731
  0
LWPOLYLINE
  5
2A2
330
1F
100
AcDbEntity
  8
1-B_寸法
  6
Continuous
 62
     7
370
     5
100
AcDbPolyline
 90
        4
 70
     1
 43
3.0
 10
2370.605553558858
 20
-251.7961018455163
 42
0.4142135623731
 10
2369.105553558858
 20
-250.2961018455163
 42
0.4142135623731
 10
2367.605553558859
 20
-251.7961018455163
 42
0.4142135623731
 10
2369.105553558858
 20
-253.2961018455164
 42
0.4142135623731
  0
MTEXT
  5
2A3
330
1F
100
AcDbEntity
  8
1-B_寸法
  6
Continuous
 62
     7
370
   211
100
AcDbMText
 10
2850.35764404384
 20
-385.8171572543428
 30
0.0
 40
91.44
 41
240.0
 46
0.0
 71
     7
 72
     1
  1
{\fＭＳ ゴシック|b0|i0|c128|p49;10.5}
 73
     1
 44
1.0
  0
LINE
  5
2A4
330
1F
100
AcDbEntity
  8
1-0_補助線
  6
JWW_HOJO
 62
   120
370
     5
100
AcDbLine
 10
2069.105553558858
 20
-251.7961018455163
 30
0.0
 11
2069.105553558858
 21
-1053.124063196087
 31
0.0
  0
LINE
  5
2A5
330
1F
100
AcDbEntity
  8
1-0_補助線
  6
JWW_HOJO
 62
   120
370
     5
100
AcDbLine
 10
2369.105553558858
 20
-491.7961018455163
 30
0.0
 11
2849.105553558858
 21
-491.7961018455163
 31
0.0
  0
LINE
  5
2A6
330
1F
100
AcDbEntity
  8
1-0_補助線
  6
JWW_HOJO
 62
   120
370
     5
100
AcDbLine
 10
2369.105553558858
 20
-371.7961018455163
 30
0.0
 11
2849.105553558858
 21
-371.7961018455163
 31
0.0
  0
LINE
  5
2A7
330
1F
100
AcDbEntity
  8
1-B_寸法
  6
Continuous
 62
   120
370
     5
100
AcDbLine
 10
2369.105553558858
 20
-371.7961018455163
 30
0.0
 11
2849.105553558858
 21
-371.7961018455163
 31
0.0
  0
LINE
  5
2A8
330
1F
100
AcDbEntity
  8
1-B_寸法
  6
Continuous
 62
   120
370
     5
100
AcDbLine
 10
2369.105553558858
 20
-251.7961018455163
 30
0.0
 11
2849.105553558858
 21
-251.7961018455163
 31
0.0
  0
LWPOLYLINE
  5
2A9
330
1F
100
AcDbEntity
  8
1-B_寸法
  6
Continuous
 62
     7
370
     5
100
AcDbPolyline
 90
        4
 70
     1
 43
3.0
 10
2850.605553558858
 20
-491.7961018455163
 42
0.4142135623731
 10
2849.105553558858
 20
-490.2961018455163
 42
0.4142135623731
 10
2847.605553558859
 20
-491.7961018455163
 42
0.4142135623731
 10
2849.105553558858
 20
-493.2961018455164
 42
0.4142135623731
  0
LWPOLYLINE
  5
2AA
330
1F
100
AcDbEntity
  8
1-B_寸法
  6
Continuous
 62
     7
370
     5
100
AcDbPolyline
 90
        4
 70
     1
 43
3.0
 10
2850.605553558858
 20
-371.7961018455163
 42
0.4142135623731
 10
2849.105553558858
 20
-370.2961018455163
 42
0.4142135623731
 10
2847.605553558859
 20
-371.7961018455163
 42
0.4142135623731
 10
2849.105553558858
 20
-373.2961018455164
 42
0.4142135623731
  0
LWPOLYLINE
  5
2AB
330
1F
100
AcDbEntity
  8
1-B_寸法
  6
Continuous
 62
     7
370
     5
100
AcDbPolyline
 90
        4
 70
     1
 43
3.0
 10
2850.605553558858
 20
-251.7961018455163
 42
0.4142135623731
 10
2849.105553558858
 20
-250.2961018455163
 42
0.4142135623731
 10
2847.605553558859
 20
-251.7961018455163
 42
0.4142135623731
 10
2849.105553558858
 20
-253.2961018455164
 42
0.4142135623731
  0
LINE
  5
2AC
330
1F
100
AcDbEntity
  8
1-B_寸法
  6
Continuous
 62
   120
370
     5
100
AcDbLine
 10
2849.105553558858
 20
-611.7961018455163
 30
0.0
 11
2849.105553558858
 21
-251.7961018455163
 31
0.0
  0
MTEXT
  5
2AD
330
1F
100
AcDbEntity
  8
1-B_寸法
  6
Continuous
 62
     7
370
   211
100
AcDbMText
 10
2764.506048933383
 20
-505.8171572543428
 30
0.0
 40
91.44
 41
180.0
 46
0.0
 71
     7
 72
     1
  1
{\fＭＳ ゴシック|b0|i0|c128|p49;6.3}
 73
     1
 44
1.0
  0
LINE
  5
2AE
330
1F
100
AcDbEntity
  8
1-0_補助線
  6
JWW_HOJO
 62
   120
370
     5
100
AcDbLine
 10
2069.105553558858
 20
-251.7961018455163
 30
0.0
 11
3149.105553558858
 21
-251.7961018455163
 31
0.0
  0
LINE
  5
2AF
330
1F
100
AcDbEntity
  8
1-0_補助線
  6
JWW_HOJO
 62
   120
370
     5
100
AcDbLine
 10
3149.105553558858
 20
-251.7961018455163
 30
0.0
 11
3149.105553558858
 21
-1053.124063196087
 31
0.0
  0
LINE
  5
2B0
330
1F
100
AcDbEntity
  8
1-B_寸法
  6
Continuous
 62
   120
370
     5
100
AcDbLine
 10
3179.105553558858
 20
-693.6360387978528
 30
0.0
 11
3449.105553558858
 21
-693.6360387978528
 31
0.0
  0
LWPOLYLINE
  5
2B1
330
1F
100
AcDbEntity
  8
1-B_寸法
  6
Continuous
 62
     7
370
     5
100
AcDbPolyline
 90
        4
 70
     1
 43
3.0
 10
3450.605553558858
 20
-693.6360387978528
 42
0.4142135623731
 10
3449.105553558858
 20
-692.1360387978528
 42
0.4142135623731
 10
3447.605553558859
 20
-693.6360387978528
 42
0.4142135623731
 10
3449.105553558858
 20
-695.1360387978528
 42
0.4142135623731
  0
LWPOLYLINE
  5
2B2
330
1F
100
AcDbEntity
  8
1-B_寸法
  6
Continuous
 62
     7
370
     5
100
AcDbPolyline
 90
        4
 70
     1
 43
3.0
 10
2528.105553558858
 20
-371.7961018455163
 42
0.4142135623731
 10
2526.605553558858
 20
-370.2961018455163
 42
0.4142135623731
 10
2525.105553558859
 20
-371.7961018455163
 42
0.4142135623731
 10
2526.605553558858
 20
-373.2961018455164
 42
0.4142135623731
  0
LINE
  5
2B3
330
1F
100
AcDbEntity
  8
1-B_寸法
  6
Continuous
 62
   120
370
     5
100
AcDbLine
 10
2526.605553558858
 20
-371.7961018455163
 30
0.0
 11
2526.605553558858
 21
-611.7961018455163
 31
0.0
  0
LWPOLYLINE
  5
2B4
330
1F
100
AcDbEntity
  8
1-B_寸法
  6
Continuous
 62
     7
370
     5
100
AcDbPolyline
 90
        4
 70
     1
 43
3.0
 10
2693.105553558858
 20
-371.7961018455163
 42
0.4142135623731
 10
2691.605553558858
 20
-370.2961018455163
 42
0.4142135623731
 10
2690.105553558859
 20
-371.7961018455163
 42
0.4142135623731
 10
2691.605553558858
 20
-373.2961018455164
 42
0.4142135623731
  0
LINE
  5
2B5
330
1F
100
AcDbEntity
  8
1-B_寸法
  6
Continuous
 62
   120
370
     5
100
AcDbLine
 10
2691.605553558858
 20
-371.7961018455163
 30
0.0
 11
2691.605553558858
 21
-611.7961018455163
 31
0.0
  0
MTEXT
  5
2B6
330
1F
100
AcDbEntity
  8
1-B_寸法
  6
Continuous
 62
     7
370
   211
100
AcDbMText
 10
2270.951294635813
 20
-508.5247336993826
 30
0.0
 40
91.44
 41
180.0
 46
0.0
 71
     7
 72
     1
  1
{\fＭＳ ゴシック|b0|i0|c128|p49;6.3}
 73
     1
 44
1.0
  0
LINE
  5
2B7
330
1F
100
AcDbEntity
  8
1-3_仕上げ
  6
Continuous
 62
    40
370
     5
100
AcDbLine
 10
2421.821058085927
 20
-693.6360387978528
 30
0.0
 11
2069.105553558858
 21
-693.6360387978528
 31
0.0
  0
LINE
  5
2B8
330
1F
100
AcDbEntity
  8
1-3_仕上げ
  6
Continuous
 62
    40
370
     5
100
AcDbLine
 10
2796.39004903179
 20
-693.6360387978528
 30
0.0
 11
3149.105553558858
 21
-693.6360387978528
 31
0.0
  0
MTEXT
  5
2B9
330
1F
100
AcDbEntity
  8
1-B_寸法
  6
Continuous
 62
     7
370
     0
100
AcDbMText
 10
3443.018814734616
 20
-690.4011058492985
 30
0.0
 40
91.44
 41
180.0
 46
0.0
 71
     7
 72
     1
  1
{\fＭＳ ゴシック|b0|i0|c128|p49;1.2}
 11
6.123031769111886E-17
 21
1.0
 31
0.0
 73
     1
 44
1.0
  0
MTEXT
  5
2BA
330
1F
100
AcDbEntity
  8
1-B_寸法
  6
Continuous
 62
     7
370
     0
100
AcDbMText
 10
3440.49783508404
 20
-790.4160387978528
 30
0.0
 40
91.44
 41
60.0
 46
0.0
 71
     7
 72
     1
  1
{\fＭＳ ゴシック|b0|i0|c128|p49;7}
 11
6.123031769111886E-17
 21
1.0
 31
0.0
 73
     1
 44
1.0
  0
MTEXT
  5
2BB
330
1F
100
AcDbEntity
  8
1-B_寸法
  6
Continuous
 62
     7
370
     0
100
AcDbMText
 10
3441.758324909335
 20
-880.4160387978528
 30
0.0
 40
91.44
 41
60.0
 46
0.0
 71
     7
 72
     1
  1
{\fＭＳ ゴシック|b0|i0|c128|p49;5}
 11
6.123031769111886E-17
 21
1.0
 31
0.0
 73
     1
 44
1.0
  0
LINE
  5
2BC
330
1F
100
AcDbEntity
  8
1-3_仕上げ
  6
Continuous
 62
     7
370
     5
100
AcDbLine
 10
2421.605553558858
 20
-729.6360387978508
 30
0.0
 11
2069.105553558858
 21
-729.6360387978508
 31
0.0
  0
LINE
  5
2BD
330
1F
100
AcDbEntity
  8
1-3_仕上げ
  6
Continuous
 62
     7
370
     5
100
AcDbLine
 10
2421.605553558858
 20
-765.6360387978522
 30
0.0
 11
2069.105553558858
 21
-765.6360387978522
 31
0.0
  0
LINE
  5
2BE
330
1F
100
AcDbEntity
  8
1-3_仕上げ
  6
Continuous
 62
     7
370
     5
100
AcDbLine
 10
2421.605553558858
 20
-801.6360387978501
 30
0.0
 11
2069.105553558858
 21
-801.6360387978501
 31
0.0
  0
LINE
  5
2BF
330
1F
100
AcDbEntity
  8
1-3_仕上げ
  6
Continuous
 62
     7
370
     5
100
AcDbLine
 10
2421.605553558858
 20
-837.6360387978515
 30
0.0
 11
2069.105553558858
 21
-837.6360387978515
 31
0.0
  0
LINE
  5
2C0
330
1F
100
AcDbEntity
  8
1-3_仕上げ
  6
Continuous
 62
     7
370
     5
100
AcDbLine
 10
3149.105553558858
 20
-730.0640090358025
 30
0.0
 11
2796.605553558858
 21
-730.0640090358025
 31
0.0
  0
LINE
  5
2C1
330
1F
100
AcDbEntity
  8
1-3_仕上げ
  6
Continuous
 62
     7
370
     5
100
AcDbLine
 10
3149.105553558858
 20
-766.0640090358039
 30
0.0
 11
2796.605553558858
 21
-766.0640090358039
 31
0.0
  0
LINE
  5
2C2
330
1F
100
AcDbEntity
  8
1-3_仕上げ
  6
Continuous
 62
     7
370
     5
100
AcDbLine
 10
3149.105553558858
 20
-802.0640090358019
 30
0.0
 11
2796.605553558858
 21
-802.0640090358019
 31
0.0
  0
LINE
  5
2C3
330
1F
100
AcDbEntity
  8
1-3_仕上げ
  6
Continuous
 62
     7
370
     5
100
AcDbLine
 10
3149.105553558858
 20
-838.0640090358032
 30
0.0
 11
2796.605553558858
 21
-838.0640090358032
 31
0.0
  0
LINE
  5
2C4
330
1F
100
AcDbEntity
  8
1-B_寸法
  6
Continuous
 62
   120
370
     5
100
AcDbLine
 10
3449.105553558858
 20
-873.6360387978528
 30
0.0
 11
3449.105553558858
 21
-675.6360387978522
 31
0.0
  0
LINE
  5
2C5
330
1F
100
AcDbEntity
  8
1-B_寸法
  6
Continuous
 62
   120
370
     5
100
AcDbLine
 10
3179.105553558858
 20
-675.6360387978522
 30
0.0
 11
3449.105553558858
 21
-675.6360387978522
 31
0.0
  0
LWPOLYLINE
  5
2C6
330
1F
100
AcDbEntity
  8
1-B_寸法
  6
Continuous
 62
     7
370
     5
100
AcDbPolyline
 90
        4
 70
     1
 43
3.0
 10
3450.605553558858
 20
-675.6360387978522
 42
0.4142135623731
 10
3449.105553558858
 20
-674.1360387978522
 42
0.4142135623731
 10
3447.605553558859
 20
-675.6360387978522
 42
0.4142135623731
 10
3449.105553558858
 20
-677.1360387978522
 42
0.4142135623731
  0
LINE
  5
2C7
330
1F
100
AcDbEntity
  8
1-B_寸法
  6
Continuous
 62
   120
370
     5
100
AcDbLine
 10
2754.605553558856
 20
-491.7961018455163
 30
0.0
 11
2849.105553558858
 21
-491.7961018455163
 31
0.0
  0
LWPOLYLINE
  5
2C8
330
1F
100
AcDbEntity
  8
1-B_寸法
  6
Continuous
 62
     7
370
     5
100
AcDbPolyline
 90
        4
 70
     1
 43
3.0
 10
2756.105553558856
 20
-491.7961018455163
 42
0.4142135623731
 10
2754.605553558856
 20
-490.2961018455163
 42
0.4142135623731
 10
2753.105553558856
 20
-491.7961018455163
 42
0.4142135623731
 10
2754.605553558856
 20
-493.2961018455164
 42
0.4142135623731
  0
LINE
  5
2C9
330
1F
100
AcDbEntity
  8
1-B_寸法
  6
Continuous
 62
   120
370
     5
100
AcDbLine
 10
2754.605553558856
 20
-491.7961018455163
 30
0.0
 11
2754.605553558856
 21
-611.7961018455163
 31
0.0
  0
LINE
  5
2CA
330
1F
100
AcDbEntity
  8
1-B_寸法
  6
Continuous
 62
   120
370
     5
100
AcDbLine
 10
2369.105553558858
 20
-491.7961018455163
 30
0.0
 11
2463.605553558861
 21
-491.7961018455163
 31
0.0
  0
LINE
  5
2CB
330
1F
100
AcDbEntity
  8
1-B_寸法
  6
Continuous
 62
   120
370
     5
100
AcDbLine
 10
2463.605553558861
 20
-491.7961018455163
 30
0.0
 11
2463.605553558861
 21
-611.7961018455163
 31
0.0
  0
LWPOLYLINE
  5
2CC
330
1F
100
AcDbEntity
  8
1-B_寸法
  6
Continuous
 62
     7
370
     5
100
AcDbPolyline
 90
        4
 70
     1
 43
3.0
 10
2465.105553558861
 20
-491.7961018455163
 42
0.4142135623731
 10
2463.605553558861
 20
-490.2961018455163
 42
0.4142135623731
 10
2462.105553558862
 20
-491.7961018455163
 42
0.4142135623731
 10
2463.605553558861
 20
-493.2961018455164
 42
0.4142135623731
  0
MTEXT
  5
2CD
330
1F
100
AcDbEntity
  8
1-B_寸法
  6
Continuous
 62
     7
370
     0
100
AcDbMText
 10
2549.105626458933
 20
-1058.01092980503
 30
0.0
 40
91.44
 41
120.0
 46
0.0
 71
     7
 72
     1
  1
{\fＭＳ ゴシック|b0|i0|c128|p49;23}
 73
     1
 44
1.0
  0
MTEXT
  5
2CE
330
1F
100
AcDbEntity
  8
1-B_寸法
  6
Continuous
 62
     7
370
     0
100
AcDbMText
 10
2412.099873165332
 20
-1177.831348439144
 30
0.0
 40
91.44
 41
60.0
 46
0.0
 71
     7
 72
     1
  1
{\fＭＳ ゴシック|b0|i0|c128|p49;1}
 73
     1
 44
1.0
  0
MTEXT
  5
2CF
330
1F
100
AcDbEntity
  8
1-B_寸法
  6
Continuous
 62
     7
370
     0
100
AcDbMText
 10
2762.565323967694
 20
-1177.831348439144
 30
0.0
 40
91.44
 41
60.0
 46
0.0
 71
     7
 72
     1
  1
{\fＭＳ ゴシック|b0|i0|c128|p49;1}
 73
     1
 44
1.0
  0
LINE
  5
2D0
330
1F
100
AcDbEntity
  8
1-C_ハッチ
  6
Continuous
 62
   120
370
     5
100
AcDbLine
 10
2436.605553558858
 20
-818.9353179761259
 30
0.0
 11
2459.105553558858
 21
-796.4353179761225
 31
0.0
  0
LINE
  5
2D1
330
1F
100
AcDbEntity
  8
1-7_金物
  6
Continuous
 62
    92
370
     5
100
AcDbLine
 10
2459.105553558858
 20
-798.6360387978528
 30
0.0
 11
2759.105553558858
 21
-798.6360387978528
 31
0.0
  0
LINE
  5
2D2
330
1F
100
AcDbEntity
  8
1-7_金物
  6
Continuous
 62
    92
370
     5
100
AcDbLine
 10
2459.105553558858
 20
-768.6360387978494
 30
0.0
 11
2459.105553558858
 21
-798.6360387978528
 31
0.0
  0
LINE
  5
2D3
330
1F
100
AcDbEntity
  8
1-7_金物
  6
Continuous
 62
    92
370
     5
100
AcDbLine
 10
2459.105553558858
 20
-768.6360387978494
 30
0.0
 11
2436.605407758695
 21
-768.6360387978494
 31
0.0
  0
LINE
  5
2D4
330
1F
100
AcDbEntity
  8
1-7_金物
  6
Continuous
 62
    92
370
     5
100
AcDbLine
 10
2759.105553558858
 20
-768.6360387978494
 30
0.0
 11
2781.132841857972
 21
-768.6360387978494
 31
0.0
  0
LINE
  5
2D5
330
1F
100
AcDbEntity
  8
1-7_金物
  6
Continuous
 62
    92
370
     5
100
AcDbLine
 10
2759.105553558858
 20
-768.6360387978494
 30
0.0
 11
2759.105553558858
 21
-798.6360387978528
 31
0.0
  0
LINE
  5
2D6
330
1F
100
AcDbEntity
  8
1-7_金物
  6
Continuous
 62
    92
370
     5
100
AcDbLine
 10
2781.132696057795
 20
-768.6354829721041
 30
0.0
 11
2781.132696057795
 21
-873.6360387978528
 31
0.0
  0
LINE
  5
2D7
330
1F
100
AcDbEntity
  8
1-7_金物
  6
Continuous
 62
    92
370
     5
100
AcDbLine
 10
2436.605553558858
 20
-768.6354829721041
 30
0.0
 11
2436.605553558858
 21
-873.6360387978528
 31
0.0
  0
LINE
  5
2D8
330
1F
100
AcDbEntity
  8
1-7_金物
  6
Continuous
 62
    92
370
     5
100
AcDbLine
 10
2436.605553558858
 20
-873.6360387978528
 30
0.0
 11
2781.132696057795
 21
-873.6360387978528
 31
0.0
  0
LINE
  5
2D9
330
1F
100
AcDbEntity
  8
1-C_ハッチ
  6
Continuous
 62
   120
370
     5
100
AcDbLine
 10
2763.742494577884
 20
-873.6360387978528
 30
0.0
 11
2781.132696057795
 21
-856.2458373179244
 31
0.0
  0
LINE
  5
2DA
330
1F
100
AcDbEntity
  8
1-C_ハッチ
  6
Continuous
 62
   120
370
     5
100
AcDbLine
 10
2445.544443043938
 20
-873.6360387978528
 30
0.0
 11
2520.544443043938
 21
-798.6360387978528
 31
0.0
  0
LINE
  5
2DB
330
1F
100
AcDbEntity
  8
1-C_ハッチ
  6
Continuous
 62
   120
370
     5
100
AcDbLine
 10
2636.463273964284
 20
-873.6360387978528
 30
0.0
 11
2711.463273964284
 21
-798.6360387978528
 31
0.0
  0
LINE
  5
2DC
330
1F
100
AcDbEntity
  8
1-C_ハッチ
  6
Continuous
 62
   120
370
     5
100
AcDbLine
 10
2572.823663657484
 20
-873.6360387978528
 30
0.0
 11
2647.823663657484
 21
-798.636038797846
 31
0.0
  0
LINE
  5
2DD
330
1F
100
AcDbEntity
  8
1-C_ハッチ
  6
Continuous
 62
   120
370
     5
100
AcDbLine
 10
2509.184053350684
 20
-873.6360387978528
 30
0.0
 11
2584.184053350684
 21
-798.6360387978426
 31
0.0
  0
LINE
  5
2DE
330
1F
100
AcDbEntity
  8
1-C_ハッチ
  6
Continuous
 62
   120
370
     5
100
AcDbLine
 10
2700.102884271084
 20
-873.6360387978528
 30
0.0
 11
2781.132696057795
 21
-792.6062270111244
 31
0.0
  0
LINE
  5
2DF
330
1F
100
AcDbEntity
  8
1-0_補助線
  6
JWW_HOJO
 62
   120
370
     5
100
AcDbLine
 10
2609.105553558858
 20
-679.1470312105242
 30
0.0
 11
2609.105553558858
 21
-833.3548143941642
 31
0.0
  0
LINE
  5
2E0
330
1F
100
AcDbEntity
  8
1-7_金物
  6
Continuous
 62
     7
370
     5
100
AcDbLine
 10
2481.605553558858
 20
-780.6360387978522
 30
0.0
 11
2511.605553558858
 21
-780.6360387978522
 31
0.0
  0
LINE
  5
2E1
330
1F
100
AcDbEntity
  8
1-7_金物
  6
Continuous
 62
     7
370
     5
100
AcDbLine
 10
2526.605553558858
 20
-780.6360387978522
 30
0.0
 11
2604.605553558856
 21
-780.6360387978522
 31
0.0
  0
LINE
  5
2E2
330
1F
100
AcDbEntity
  8
1-7_金物
  6
Continuous
 62
     7
370
     5
100
AcDbLine
 10
2604.605553558856
 20
-780.6360387978522
 30
0.0
 11
2609.105553558858
 21
-785.1360387978515
 31
0.0
  0
LINE
  5
2E3
330
1F
100
AcDbEntity
  8
1-7_金物
  6
Continuous
 62
     7
370
     5
100
AcDbLine
 10
2609.105553558858
 20
-785.1360387978515
 30
0.0
 11
2613.605553558861
 21
-780.6360387978522
 31
0.0
  0
LINE
  5
2E4
330
1F
100
AcDbEntity
  8
1-7_金物
  6
Continuous
 62
     7
370
     5
100
AcDbLine
 10
2613.605553558861
 20
-780.6360387978522
 30
0.0
 11
2691.605553558858
 21
-780.6360387978522
 31
0.0
  0
LINE
  5
2E5
330
1F
100
AcDbEntity
  8
1-7_金物
  6
Continuous
 62
     7
370
     5
100
AcDbLine
 10
2706.605553558858
 20
-780.6360387978522
 30
0.0
 11
2736.605553558858
 21
-780.6360387978522
 31
0.0
  0
LINE
  5
2E6
330
1F
100
AcDbEntity
  8
1-7_金物
  6
Continuous
 62
     7
370
     5
100
AcDbLine
 10
2844.605553558856
 20
-693.6360387978528
 30
0.0
 11
2754.605553558856
 21
-693.6360387978528
 31
0.0
  0
LINE
  5
2E7
330
1F
100
AcDbEntity
  8
1-7_金物
  6
Continuous
 62
     7
370
     5
100
AcDbLine
 10
2463.605553558861
 20
-693.6360387978528
 30
0.0
 11
2373.605553558861
 21
-693.6360387978528
 31
0.0
  0
LINE
  5
2E8
330
1F
100
AcDbEntity
  8
1-7_金物
  6
Continuous
 62
     7
370
     5
100
AcDbLine
 10
2463.605553558861
 20
-675.6360387978522
 30
0.0
 11
2373.605553558861
 21
-684.6360387978508
 31
0.0
  0
ARC
  5
2E9
330
1F
100
AcDbEntity
  8
1-7_金物
  6
Continuous
 62
     7
370
     5
100
AcDbCircle
 10
2373.605553558861
 20
-689.1360387978501
 30
0.0
 40
4.500000000000001
100
AcDbArc
 50
90.0
 51
270.0
  0
ARC
  5
2EA
330
1F
100
AcDbEntity
  8
1-7_金物
  6
Continuous
 62
     7
370
     5
100
AcDbCircle
 10
2844.605553558856
 20
-689.1360387978501
 30
0.0
 40
4.500000000000001
100
AcDbArc
 50
270.0
 51
89.99999999999997
  0
LINE
  5
2EB
330
1F
100
AcDbEntity
  8
1-7_金物
  6
Continuous
 62
     7
370
     5
100
AcDbLine
 10
2844.605553558856
 20
-684.6360387978508
 30
0.0
 11
2754.605553558856
 21
-675.6360387978522
 31
0.0
  0
LINE
  5
2EC
330
1F
100
AcDbEntity
  8
1-7_金物
  6
Continuous
 62
     7
370
     5
100
AcDbLine
 10
2517.605553558853
 20
-675.6360387978522
 30
0.0
 11
2463.605553558861
 21
-675.6360387978522
 31
0.0
  0
ARC
  5
2ED
330
1F
100
AcDbEntity
  8
1-7_金物
  6
Continuous
 62
     7
370
     5
100
AcDbCircle
 10
2517.605553558853
 20
-684.6360387978508
 30
0.0
 40
9.000000000000002
100
AcDbArc
 50
0.0
 51
90.0
  0
ARC
  5
2EE
330
1F
100
AcDbEntity
  8
1-7_金物
  6
Continuous
 62
     7
370
     5
100
AcDbCircle
 10
2517.605553558853
 20
-684.6360387978508
 30
0.0
 40
9.000000000000002
100
AcDbArc
 50
270.0
 51
0.0
  0
ARC
  5
2EF
330
1F
100
AcDbEntity
  8
1-7_金物
  6
Continuous
 62
     7
370
     5
100
AcDbCircle
 10
2700.605553558864
 20
-684.6360387978508
 30
0.0
 40
9.000000000000002
100
AcDbArc
 50
180.0
 51
270.0
  0
LINE
  5
2F0
330
1F
100
AcDbEntity
  8
1-7_金物
  6
Continuous
 62
     7
370
     5
100
AcDbLine
 10
2700.605553558864
 20
-675.6360387978522
 30
0.0
 11
2754.605553558856
 21
-675.6360387978522
 31
0.0
  0
ARC
  5
2F1
330
1F
100
AcDbEntity
  8
1-7_金物
  6
Continuous
 62
     7
370
     5
100
AcDbCircle
 10
2700.605553558864
 20
-684.6360387978508
 30
0.0
 40
9.000000000000002
100
AcDbArc
 50
90.0
 51
180.0
  0
LINE
  5
2F2
330
1F
100
AcDbEntity
  8
1-7_金物
  6
Continuous
 62
     7
370
     5
100
AcDbLine
 10
2754.605553558856
 20
-776.1360387978528
 30
0.0
 11
2754.605553558856
 21
-693.6360387978528
 31
0.0
  0
ARC
  5
2F3
330
1F
100
AcDbEntity
  8
1-7_金物
  6
Continuous
 62
     7
370
     5
100
AcDbCircle
 10
2732.105553558856
 20
-776.1360387978528
 30
0.0
 40
22.5
100
AcDbArc
 50
270.0
 51
0.0
  0
LINE
  5
2F4
330
1F
100
AcDbEntity
  8
1-7_金物
  6
Continuous
 62
     7
370
     5
100
AcDbLine
 10
2463.605553558861
 20
-776.1360387978528
 30
0.0
 11
2463.605553558861
 21
-693.6360387978528
 31
0.0
  0
LINE
  5
2F5
330
1F
100
AcDbEntity
  8
1-7_金物
  6
Continuous
 62
     7
370
     5
100
AcDbLine
 10
2486.105553558861
 20
-798.6360387978528
 30
0.0
 11
2732.105553558856
 21
-798.6360387978528
 31
0.0
  0
ARC
  5
2F6
330
1F
100
AcDbEntity
  8
1-7_金物
  6
Continuous
 62
     7
370
     5
100
AcDbCircle
 10
2486.105553558861
 20
-776.1360387978528
 30
0.0
 40
22.5
100
AcDbArc
 50
180.0
 51
270.0
  0
LINE
  5
2F7
330
1F
100
AcDbEntity
  8
1-7_金物
  6
Continuous
 62
     7
370
     5
100
AcDbLine
 10
2489.105553558858
 20
-693.6360387978528
 30
0.0
 11
2517.605553558853
 21
-693.6360387978528
 31
0.0
  0
LINE
  5
2F8
330
1F
100
AcDbEntity
  8
1-7_金物
  6
Continuous
 62
     7
370
     5
100
AcDbLine
 10
2481.605553558858
 20
-701.1360387978528
 30
0.0
 11
2481.605553558858
 21
-780.6360387978522
 31
0.0
  0
ARC
  5
2F9
330
1F
100
AcDbEntity
  8
1-7_金物
  6
Continuous
 62
     7
370
     5
100
AcDbCircle
 10
2489.105553558858
 20
-701.1360387978528
 30
0.0
 40
7.5
100
AcDbArc
 50
90.0
 51
180.0
  0
LINE
  5
2FA
330
1F
100
AcDbEntity
  8
1-7_金物
  6
Continuous
 62
     7
370
     5
100
AcDbLine
 10
2729.105553558858
 20
-693.6360387978528
 30
0.0
 11
2700.605553558864
 21
-693.6360387978528
 31
0.0
  0
LINE
  5
2FB
330
1F
100
AcDbEntity
  8
1-7_金物
  6
Continuous
 62
     7
370
     5
100
AcDbLine
 10
2736.605553558858
 20
-701.1360387978528
 30
0.0
 11
2736.605553558858
 21
-780.6360387978522
 31
0.0
  0
ARC
  5
2FC
330
1F
100
AcDbEntity
  8
1-7_金物
  6
Continuous
 62
     7
370
     5
100
AcDbCircle
 10
2729.105553558858
 20
-701.1360387978528
 30
0.0
 40
7.5
100
AcDbArc
 50
0.0
 51
90.0
  0
LINE
  5
2FD
330
1F
100
AcDbEntity
  8
1-7_金物
  6
Continuous
 62
     7
370
     5
100
AcDbLine
 10
2511.605553558858
 20
-768.6360387978528
 30
0.0
 11
2511.605553558858
 21
-780.6360387978522
 31
0.0
  0
ARC
  5
2FE
330
1F
100
AcDbEntity
  8
1-7_金物
  6
Continuous
 62
     7
370
     5
100
AcDbCircle
 10
2514.605553558856
 20
-768.6360387978528
 30
0.0
 40
3.0
100
AcDbArc
 50
90.0
 51
180.0
  0
LINE
  5
2FF
330
1F
100
AcDbEntity
  8
1-7_金物
  6
Continuous
 62
     7
370
     5
100
AcDbLine
 10
2523.605553558861
 20
-765.6360387978522
 30
0.0
 11
2514.605553558856
 21
-765.6360387978522
 31
0.0
  0
LINE
  5
300
330
1F
100
AcDbEntity
  8
1-7_金物
  6
Continuous
 62
     7
370
     5
100
AcDbLine
 10
2526.605553558858
 20
-768.6360387978528
 30
0.0
 11
2526.605553558858
 21
-780.6360387978522
 31
0.0
  0
ARC
  5
301
330
1F
100
AcDbEntity
  8
1-7_金物
  6
Continuous
 62
     7
370
     5
100
AcDbCircle
 10
2523.605553558861
 20
-768.6360387978528
 30
0.0
 40
3.0
100
AcDbArc
 50
0.0
 51
90.0
  0
LINE
  5
302
330
1F
100
AcDbEntity
  8
1-7_金物
  6
Continuous
 62
     7
370
     5
100
AcDbLine
 10
2691.605553558858
 20
-768.6360387978528
 30
0.0
 11
2691.605553558858
 21
-780.6360387978522
 31
0.0
  0
ARC
  5
303
330
1F
100
AcDbEntity
  8
1-7_金物
  6
Continuous
 62
     7
370
     5
100
AcDbCircle
 10
2694.605553558856
 20
-768.6360387978528
 30
0.0
 40
3.0
100
AcDbArc
 50
90.0
 51
180.0
  0
LINE
  5
304
330
1F
100
AcDbEntity
  8
1-7_金物
  6
Continuous
 62
     7
370
     5
100
AcDbLine
 10
2703.605553558861
 20
-765.6360387978522
 30
0.0
 11
2694.605553558856
 21
-765.6360387978522
 31
0.0
  0
LINE
  5
305
330
1F
100
AcDbEntity
  8
1-7_金物
  6
Continuous
 62
     7
370
     5
100
AcDbLine
 10
2706.605553558858
 20
-768.6360387978528
 30
0.0
 11
2706.605553558858
 21
-780.6360387978522
 31
0.0
  0
ARC
  5
306
330
1F
100
AcDbEntity
  8
1-7_金物
  6
Continuous
 62
     7
370
     5
100
AcDbCircle
 10
2703.605553558861
 20
-768.6360387978528
 30
0.0
 40
3.0
100
AcDbArc
 50
0.0
 51
90.0
  0
ARC
  5
307
330
1F
100
AcDbEntity
  8
1-7_金物
  6
JWW_DASHED1
 62
     7
370
     5
100
AcDbCircle
 10
2373.605553558861
 20
-689.1360387978501
 30
0.0
 40
4.500000000000001
100
AcDbArc
 50
270.0
 51
90.0
  0
ARC
  5
308
330
1F
100
AcDbEntity
  8
1-7_金物
  6
JWW_DASHED1
 62
     7
370
     5
100
AcDbCircle
 10
2844.605553558856
 20
-689.1360387978501
 30
0.0
 40
4.500000000000001
100
AcDbArc
 50
90.0
 51
270.0
  0
LINE
  5
309
330
1F
100
AcDbEntity
  8
1-3_仕上げ
  6
Continuous
 62
    40
370
     5
100
AcDbLine
 10
2796.605553558858
 20
-693.6360387978528
 30
0.0
 11
2796.605553558858
 21
-873.6360387978528
 31
0.0
  0
LINE
  5
30A
330
1F
100
AcDbEntity
  8
1-3_仕上げ
  6
Continuous
 62
    40
370
     5
100
AcDbLine
 10
2421.605553558858
 20
-693.6360387978528
 30
0.0
 11
2421.605553558858
 21
-873.6360387978528
 31
0.0
  0
LINE
  5
30B
330
1F
100
AcDbEntity
  8
1-A_文字
  6
Continuous
 62
     7
370
     5
100
AcDbLine
 10
2836.38590890154
 20
-984.8535396092644
 30
0.0
 11
2902.938533378489
 21
-984.8535396092644
 31
0.0
  0
LINE
  5
30C
330
1F
100
AcDbEntity
  8
1-0_補助線
  6
JWW_HOJO
 62
   120
370
     5
100
AcDbLine
 10
2609.105553558858
 20
-1931.425151368338
 30
0.0
 11
2609.105553558858
 21
-2085.632934551978
 31
0.0
  0
LINE
  5
30D
330
1F
100
AcDbEntity
  8
1-C_ハッチ
  6
Continuous
 62
   120
370
     5
100
AcDbLine
 10
2436.605553558858
 20
-2860.420740491863
 30
0.0
 11
2459.105553558858
 21
-2837.92074049186
 31
0.0
  0
LINE
  5
30E
330
1F
100
AcDbEntity
  8
1-7_金物
  6
Continuous
 62
    92
370
     5
100
AcDbLine
 10
2459.105553558858
 20
-2810.121461313587
 30
0.0
 11
2459.105553558858
 21
-2840.12146131359
 31
0.0
  0
LINE
  5
30F
330
1F
100
AcDbEntity
  8
1-7_金物
  6
Continuous
 62
    92
370
     5
100
AcDbLine
 10
2459.105553558858
 20
-2810.121461313587
 30
0.0
 11
2436.605407758695
 21
-2810.121461313587
 31
0.0
  0
LINE
  5
310
330
1F
100
AcDbEntity
  8
1-7_金物
  6
Continuous
 62
    92
370
     5
100
AcDbLine
 10
2436.605553558858
 20
-2810.120905487842
 30
0.0
 11
2436.605553558858
 21
-2915.12146131359
 31
0.0
  0
LINE
  5
311
330
1F
100
AcDbEntity
  8
1-7_金物
  6
Continuous
 62
    92
370
     5
100
AcDbLine
 10
2459.105553558858
 20
-2840.12146131359
 30
0.0
 11
2759.105553558858
 21
-2840.12146131359
 31
0.0
  0
LINE
  5
312
330
1F
100
AcDbEntity
  8
1-C_ハッチ
  6
Continuous
 62
   120
370
     5
100
AcDbLine
 10
2445.544443043938
 20
-2915.12146131359
 30
0.0
 11
2520.544443043938
 21
-2840.12146131359
 31
0.0
  0
LINE
  5
313
330
1F
100
AcDbEntity
  8
1-C_ハッチ
  6
Continuous
 62
   120
370
     5
100
AcDbLine
 10
2509.184053350684
 20
-2915.12146131359
 30
0.0
 11
2584.184053350684
 21
-2840.12146131358
 31
0.0
  0
LINE
  5
314
330
1F
100
AcDbEntity
  8
1-C_ハッチ
  6
Continuous
 62
   120
370
     5
100
AcDbLine
 10
2572.823663657484
 20
-2915.12146131359
 30
0.0
 11
2647.823663657484
 21
-2840.121461313583
 31
0.0
  0
LINE
  5
315
330
1F
100
AcDbEntity
  8
1-C_ハッチ
  6
Continuous
 62
   120
370
     5
100
AcDbLine
 10
2636.463273964284
 20
-2915.12146131359
 30
0.0
 11
2711.463273964284
 21
-2840.12146131359
 31
0.0
  0
LINE
  5
316
330
1F
100
AcDbEntity
  8
1-C_ハッチ
  6
Continuous
 62
   120
370
     5
100
AcDbLine
 10
2700.102884271084
 20
-2915.12146131359
 30
0.0
 11
2781.132696057795
 21
-2834.091649526862
 31
0.0
  0
LINE
  5
317
330
1F
100
AcDbEntity
  8
1-C_ハッチ
  6
Continuous
 62
   120
370
     5
100
AcDbLine
 10
2763.742494577884
 20
-2915.12146131359
 30
0.0
 11
2781.132696057795
 21
-2897.731259833662
 31
0.0
  0
LINE
  5
318
330
1F
100
AcDbEntity
  8
1-7_金物
  6
Continuous
 62
    92
370
     5
100
AcDbLine
 10
2759.105553558858
 20
-2810.121461313587
 30
0.0
 11
2759.105553558858
 21
-2840.12146131359
 31
0.0
  0
LINE
  5
319
330
1F
100
AcDbEntity
  8
1-7_金物
  6
Continuous
 62
    92
370
     5
100
AcDbLine
 10
2759.105553558858
 20
-2810.121461313587
 30
0.0
 11
2781.132841857972
 21
-2810.121461313587
 31
0.0
  0
LINE
  5
31A
330
1F
100
AcDbEntity
  8
1-7_金物
  6
Continuous
 62
    92
370
     5
100
AcDbLine
 10
2781.132696057795
 20
-2810.120905487842
 30
0.0
 11
2781.132696057795
 21
-2915.12146131359
 31
0.0
  0
LINE
  5
31B
330
1F
100
AcDbEntity
  8
1-7_金物
  6
Continuous
 62
    92
370
     5
100
AcDbLine
 10
2436.605553558858
 20
-2915.12146131359
 30
0.0
 11
2781.132696057795
 21
-2915.12146131359
 31
0.0
  0
MTEXT
  5
31C
330
1F
100
AcDbEntity
  8
0-A_文字
  6
Continuous
 62
     7
370
     5
100
AcDbMText
 10
2020.63521920013
 20
176.571375269391
 30
0.0
 40
91.44000000000047
 41
1320.000000000007
 46
0.0
 71
     7
 72
     1
  1
{\fＭＳ ゴシック|b0|i0|c128|p49;レール拡大図（S＝1/2）}
 73
     1
 44
1.0
  0
LINE
  5
31D
330
1F
100
AcDbEntity
  8
0-A_文字
  6
Continuous
 62
    92
370
     5
100
AcDbLine
 10
1687.800538364843
 20
340.8513752693925
 30
0.0
 11
3673.469900035422
 21
340.8513752693925
 31
0.0
  0
LINE
  5
31E
330
1F
100
AcDbEntity
  8
0-A_文字
  6
Continuous
 62
    92
370
     5
100
AcDbLine
 10
1687.800538364843
 20
160.8513752693908
 30
0.0
 11
3673.469900035422
 21
160.8513752693908
 31
0.0
  0
LINE
  5
31F
330
1F
100
AcDbEntity
  8
0-A_文字
  6
Continuous
 62
    92
370
     5
100
AcDbLine
 10
-297.868823305737
 20
160.8513752693925
 30
0.0
 11
1687.800538364843
 21
160.8513752693925
 31
0.0
  0
LINE
  5
320
330
1F
100
AcDbEntity
  8
0-A_文字
  6
Continuous
 62
    92
370
     5
100
AcDbLine
 10
-297.868823305737
 20
340.8513752693925
 30
0.0
 11
1687.800538364843
 21
340.8513752693925
 31
0.0
  0
MTEXT
  5
321
330
1F
100
AcDbEntity
  8
0-A_文字
  6
Continuous
 62
     7
370
     0
100
AcDbMText
 10
-25.03414247044709
 20
176.5713752693925
 30
0.0
 40
91.44000000000003
 41
1440.000000000001
 46
0.0
 71
     7
 72
     1
  1
{\fＭＳ ゴシック|b0|i0|c128|p49;竪枠下端形状図（S＝1/3）}
 73
     1
 44
1.0
  0
LINE
  5
322
330
1F
100
AcDbEntity
  8
0-0_補助線
  6
Continuous
 62
   120
370
     5
100
AcDbLine
 10
1322.262632591034
 20
-988.8123065685039
 30
0.0
 11
1322.262632591034
 21
-1058.812104492651
 31
0.0
  0
LWPOLYLINE
  5
323
330
1F
100
AcDbEntity
  8
0-0_補助線
  6
Continuous
 62
     7
370
     5
100
AcDbPolyline
 90
        4
 70
     1
 43
3.0
 10
1323.762632591034
 20
-988.8123065685039
 42
0.4142135623731
 10
1322.262632591034
 20
-987.312306568504
 42
0.4142135623731
 10
1320.762632591034
 20
-988.8123065685039
 42
0.4142135623731
 10
1322.262632591034
 20
-990.3123065685038
 42
0.4142135623731
  0
LWPOLYLINE
  5
324
330
1F
100
AcDbEntity
  8
0-0_補助線
  6
Continuous
 62
     7
370
     5
100
AcDbPolyline
 90
        4
 70
     1
 43
3.0
 10
1323.762632591034
 20
-1058.812104492651
 42
0.4142135623731
 10
1322.262632591034
 20
-1057.312104492651
 42
0.4142135623731
 10
1320.762632591034
 20
-1058.812104492651
 42
0.4142135623731
 10
1322.262632591034
 20
-1060.312104492651
 42
0.4142135623731
  0
LINE
  5
325
330
1F
100
AcDbEntity
  8
0-0_補助線
  6
Continuous
 62
   120
370
     5
100
AcDbLine
 10
1322.262632591034
 20
-988.8123065685039
 30
0.0
 11
1130.529324954763
 21
-988.8123065685039
 31
0.0
  0
LINE
  5
326
330
1F
100
AcDbEntity
  8
0-0_補助線
  6
Continuous
 62
   120
370
     5
100
AcDbLine
 10
1322.262632591034
 20
-1058.812104492651
 30
0.0
 11
1130.529324954763
 21
-1058.812104492651
 31
0.0
  0
MTEXT
  5
327
330
1F
100
AcDbEntity
  8
0-0_補助線
  6
Continuous
 62
     7
370
   211
100
AcDbMText
 10
1307.262632591034
 20
-1057.022205530577
 30
0.0
 40
68.5800000000013
 41
45.00000000000085
 46
0.0
 71
     7
 72
     1
  1
{\fＭＳ ゴシック|b0|i0|c128|p49;7}
 11
6.123031769111886E-17
 21
1.0
 31
0.0
 73
     1
 44
1.0
  0
LINE
  5
328
330
1F
100
AcDbEntity
  8
0-0_補助線
  6
Continuous
 62
   120
370
     5
100
AcDbLine
 10
197.2619232792997
 20
-1366.321758769733
 30
0.0
 11
507.2627150867285
 21
-1366.321758769733
 31
0.0
  0
LWPOLYLINE
  5
329
330
1F
100
AcDbEntity
  8
0-0_補助線
  6
Continuous
 62
     7
370
     5
100
AcDbPolyline
 90
        4
 70
     1
 43
3.0
 10
198.7619232792997
 20
-1366.321758769733
 42
0.4142135623731
 10
197.2619232792997
 20
-1364.821758769733
 42
0.4142135623731
 10
195.7619232792997
 20
-1366.321758769733
 42
0.4142135623731
 10
197.2619232792997
 20
-1367.821758769733
 42
0.4142135623731
  0
LWPOLYLINE
  5
32A
330
1F
100
AcDbEntity
  8
0-0_補助線
  6
Continuous
 62
     7
370
     5
100
AcDbPolyline
 90
        4
 70
     1
 43
3.0
 10
508.7627150867285
 20
-1366.321758769733
 42
0.4142135623731
 10
507.2627150867285
 20
-1364.821758769733
 42
0.4142135623731
 10
505.7627150867285
 20
-1366.321758769733
 42
0.4142135623731
 10
507.2627150867285
 20
-1367.821758769733
 42
0.4142135623731
  0
LINE
  5
32B
330
1F
100
AcDbEntity
  8
0-0_補助線
  6
Continuous
 62
   120
370
     5
100
AcDbLine
 10
197.2619232792997
 20
-1366.321758769733
 30
0.0
 11
197.2619232792997
 21
-1186.321758769734
 31
0.0
  0
LINE
  5
32C
330
1F
100
AcDbEntity
  8
0-0_補助線
  6
Continuous
 62
   120
370
     5
100
AcDbLine
 10
507.2627150867285
 20
-1366.321758769733
 30
0.0
 11
507.2627150867285
 21
-1186.321758769734
 31
0.0
  0
MTEXT
  5
32D
330
1F
100
AcDbEntity
  8
0-0_補助線
  6
Continuous
 62
     7
370
   211
100
AcDbMText
 10
307.2623191830145
 20
-1362.031758769733
 30
0.0
 40
68.57999999999934
 41
89.99999999999915
 46
0.0
 71
     7
 72
     1
  1
{\fＭＳ ゴシック|b0|i0|c128|p49;31}
 73
     1
 44
1.0
  0
LINE
  5
32E
330
1F
100
AcDbEntity
  8
0-0_補助線
  6
Continuous
 62
   120
370
     5
100
AcDbLine
 10
507.2627150867285
 20
-1366.321758769733
 30
0.0
 11
737.2629790225412
 21
-1366.321758769733
 31
0.0
  0
LWPOLYLINE
  5
32F
330
1F
100
AcDbEntity
  8
0-0_補助線
  6
Continuous
 62
     7
370
     5
100
AcDbPolyline
 90
        4
 70
     1
 43
3.0
 10
738.7629790225412
 20
-1366.321758769733
 42
0.4142135623731
 10
737.2629790225412
 20
-1364.821758769733
 42
0.4142135623731
 10
735.7629790225411
 20
-1366.321758769733
 42
0.4142135623731
 10
737.2629790225412
 20
-1367.821758769733
 42
0.4142135623731
  0
LINE
  5
330
330
1F
100
AcDbEntity
  8
0-0_補助線
  6
Continuous
 62
   120
370
     5
100
AcDbLine
 10
737.2629790225412
 20
-1366.321758769733
 30
0.0
 11
737.2629790225412
 21
-1186.321758769734
 31
0.0
  0
MTEXT
  5
331
330
1F
100
AcDbEntity
  8
0-0_補助線
  6
Continuous
 62
     7
370
   211
100
AcDbMText
 10
577.2628470546362
 20
-1362.031758769734
 30
0.0
 40
68.57999999999838
 41
89.99999999999787
 46
0.0
 71
     7
 72
     1
  1
{\fＭＳ ゴシック|b0|i0|c128|p49;23}
 73
     1
 44
1.0
  0
LINE
  5
332
330
1F
100
AcDbEntity
  8
0-0_補助線
  6
Continuous
 62
   120
370
     5
100
AcDbLine
 10
737.2629790225412
 20
-1366.321758769733
 30
0.0
 11
1047.262286191046
 21
-1366.321758769733
 31
0.0
  0
LWPOLYLINE
  5
333
330
1F
100
AcDbEntity
  8
0-0_補助線
  6
Continuous
 62
     7
370
     5
100
AcDbPolyline
 90
        4
 70
     1
 43
3.0
 10
1048.762286191046
 20
-1366.321758769733
 42
0.4142135623731
 10
1047.262286191046
 20
-1364.821758769733
 42
0.4142135623731
 10
1045.762286191046
 20
-1366.321758769733
 42
0.4142135623731
 10
1047.262286191046
 20
-1367.821758769733
 42
0.4142135623731
  0
LINE
  5
334
330
1F
100
AcDbEntity
  8
0-0_補助線
  6
Continuous
 62
   120
370
     5
100
AcDbLine
 10
1047.262286191046
 20
-1366.321758769733
 30
0.0
 11
1047.262286191046
 21
-1186.321758769734
 31
0.0
  0
MTEXT
  5
335
330
1F
100
AcDbEntity
  8
0-0_補助線
  6
Continuous
 62
     7
370
   211
100
AcDbMText
 10
847.2626326067949
 20
-1362.031758769734
 30
0.0
 40
68.57999999999838
 41
89.99999999999787
 46
0.0
 71
     7
 72
     1
  1
{\fＭＳ ゴシック|b0|i0|c128|p49;31}
 73
     1
 44
1.0
  0
LINE
  5
336
330
1F
100
AcDbEntity
  8
0-A_文字
  6
Continuous
 62
    92
370
     5
100
AcDbLine
 10
-297.868823305737
 20
340.8513752693925
 30
0.0
 11
-297.868823305737
 21
-3264.079081402567
 31
0.0
  0
LINE
  5
337
330
1F
100
AcDbEntity
  8
0-A_文字
  6
Continuous
 62
    92
370
     5
100
AcDbLine
 10
-297.868823305737
 20
-3264.079081402567
 30
0.0
 11
3673.469900035422
 21
-3264.079081402567
 31
0.0
  0
MTEXT
  5
338
330
1F
100
AcDbEntity
  8
0-A_文字
  6
Continuous
 62
     7
370
     5
100
AcDbMText
 10
-175.0341424704471
 20
-1808.359081402566
 30
0.0
 40
91.44000000000004
 41
1740.000000000001
 46
0.0
 71
     7
 72
     1
  1
{\fＭＳ ゴシック|b0|i0|c128|p49;レール埋込時 フロアー貼込位置}
 73
     1
 44
1.0
  0
MTEXT
  5
339
330
1F
100
AcDbEntity
  8
0-A_文字
  6
Continuous
 62
     7
370
     5
100
AcDbMText
 10
-232.4344109609657
 20
-2076.18525194048
 30
0.0
 40
91.43999999999984
 41
359.9999999999994
 46
0.0
 71
     7
 72
     1
  1
{\fＭＳ ゴシック|b0|i0|c128|p49;収納側}
 73
     1
 44
1.0
  0
MTEXT
  5
33A
330
1F
100
AcDbEntity
  8
0-A_文字
  6
Continuous
 62
     7
370
   211
100
AcDbMText
 10
827.7886368852744
 20
-3049.095625738882
 30
0.0
 40
91.4400000000001
 41
900.0000000000009
 46
0.0
 71
     7
 72
     1
  1
{\fＭＳ ゴシック|b0|i0|c128|p49;チリ寸法(任意）}
 73
     1
 44
1.0
  0
MTEXT
  5
33B
330
1F
100
AcDbEntity
  8
0-A_文字
  6
Continuous
 62
     7
370
     5
100
AcDbMText
 10
-217.2170196566068
 20
-3078.18440074749
 30
0.0
 40
91.43999999999986
 41
359.9999999999994
 46
0.0
 71
     7
 72
     1
  1
{\fＭＳ ゴシック|b0|i0|c128|p49;室内側}
 73
     1
 44
1.0
  0
LINE
  5
33C
330
1F
100
AcDbEntity
  8
0-A_文字
  6
Continuous
 62
    92
370
     5
100
AcDbLine
 10
-297.868823305737
 20
-1644.079081402567
 30
0.0
 11
1687.800538364843
 21
-1644.079081402567
 31
0.0
  0
LINE
  5
33D
330
1F
100
AcDbEntity
  8
0-A_文字
  6
Continuous
 62
    92
370
     5
100
AcDbLine
 10
-297.868823305737
 20
-1824.079081402567
 30
0.0
 11
1687.800538364843
 21
-1824.079081402567
 31
0.0
  0
LINE
  5
33E
330
1F
100
AcDbEntity
  8
0-7_金物
  6
Continuous
 62
     7
370
     5
100
AcDbLine
 10
630.7604961798982
 20
-2577.905024295844
 30
0.0
 11
618.760901981211
 21
-2577.905024295844
 31
0.0
  0
LINE
  5
33F
330
1F
100
AcDbEntity
  8
0-7_金物
  6
Continuous
 62
     7
370
     5
100
AcDbLine
 10
618.760901981211
 20
-2577.905024295844
 30
0.0
 11
618.760901981211
 21
-2457.904628392125
 31
0.0
  0
LINE
  5
340
330
1F
100
AcDbEntity
  8
0-7_金物
  6
Continuous
 62
     7
370
     5
100
AcDbLine
 10
618.760901981211
 20
-2457.904628392125
 30
0.0
 11
630.7604961798982
 21
-2457.904628392125
 31
0.0
  0
LINE
  5
341
330
1F
100
AcDbEntity
  8
0-7_金物
  6
Continuous
 62
     7
370
     5
100
AcDbLine
 10
618.760901981211
 20
-2547.904925319913
 30
0.0
 11
600.7603972039735
 21
-2547.904925319913
 31
0.0
  0
LINE
  5
342
330
1F
100
AcDbEntity
  8
0-7_金物
  6
Continuous
 62
     7
370
     5
100
AcDbLine
 10
600.7603972039735
 20
-2487.904727368057
 30
0.0
 11
618.760901981211
 21
-2487.904727368057
 31
0.0
  0
LINE
  5
343
330
1F
100
AcDbEntity
  8
0-7_金物
  6
Continuous
 62
     7
370
     5
100
AcDbLine
 10
612.7607337221364
 20
-2547.904925319913
 30
0.0
 11
612.7607337221364
 21
-2487.904727368057
 31
0.0
  0
ARC
  5
344
330
1F
100
AcDbEntity
  8
0-4_枠
  6
Continuous
 62
    92
370
     5
100
AcDbCircle
 10
-179.2392068923141
 20
-2748.479591111193
 30
0.0
 40
707.5483889193149
100
AcDbArc
 50
25.9889678955078
 51
32.00529479980467
  0
ARC
  5
345
330
1F
100
AcDbEntity
  8
0-4_枠
  6
Continuous
 62
    92
370
     5
100
AcDbCircle
 10
-179.2392068923141
 20
-2286.479996912502
 30
0.0
 40
707.5483889193149
100
AcDbArc
 50
327.9947052001953
 51
334.0110321044921
  0
LINE
  5
346
330
1F
100
AcDbEntity
  8
0-4_枠
  6
Continuous
 62
    92
370
     5
100
AcDbLine
 10
420.7612879873361
 20
-2373.480580870483
 30
0.0
 11
420.7612879873361
 21
-2298.482560389065
 31
0.0
  0
LINE
  5
347
330
1F
100
AcDbEntity
  8
0-4_枠
  6
Continuous
 62
    92
370
     5
100
AcDbLine
 10
420.7612879873361
 20
-2736.482223870905
 30
0.0
 11
456.7608129028733
 21
-2772.482491105915
 31
0.0
  0
LINE
  5
348
330
1F
100
AcDbEntity
  8
0-4_枠
  6
Continuous
 62
    92
370
     5
100
AcDbLine
 10
600.7603972039735
 20
-2772.482491105915
 30
0.0
 11
456.7608129028733
 21
-2772.482491105915
 31
0.0
  0
LINE
  5
349
330
1F
100
AcDbEntity
  8
0-4_枠
  6
Continuous
 62
    92
370
     5
100
AcDbLine
 10
456.7608129028733
 20
-2262.482293154055
 30
0.0
 11
420.7612879873361
 21
-2298.482560389065
 31
0.0
  0
LINE
  5
34A
330
1F
100
AcDbEntity
  8
0-4_枠
  6
Continuous
 62
    92
370
     5
100
AcDbLine
 10
600.7603972039735
 20
-2262.482293154055
 30
0.0
 11
456.7608129028733
 21
-2262.482293154055
 31
0.0
  0
LINE
  5
34B
330
1F
100
AcDbEntity
  8
0-4_枠
  6
Continuous
 62
    92
370
     5
100
AcDbLine
 10
600.7603972039735
 20
-2772.482491105915
 30
0.0
 11
600.7603972039735
 21
-2262.482293154055
 31
0.0
  0
LINE
  5
34C
330
1F
100
AcDbEntity
  8
0-4_枠
  6
Continuous
 62
    92
370
     5
100
AcDbLine
 10
456.7608129028733
 20
-2438.433534312208
 30
0.0
 11
456.7608129028733
 21
-2596.526796030958
 31
0.0
  0
LINE
  5
34D
330
1F
100
AcDbEntity
  8
0-4_枠
  6
Continuous
 62
    92
370
     5
100
AcDbLine
 10
420.7612879873361
 20
-2736.482223870905
 30
0.0
 11
420.7612879873361
 21
-2661.479007153212
 31
0.0
  0
LINE
  5
34E
330
1F
100
AcDbEntity
  8
0-4_枠
  6
Continuous
 62
   120
370
     5
100
AcDbLine
 10
-194.0322895578971
 20
-2442.904400747489
 30
0.0
 11
456.7608129028733
 21
-2442.904400747489
 31
0.0
  0
LINE
  5
34F
330
1F
100
AcDbEntity
  8
0-4_枠
  6
Continuous
 62
   120
370
     5
100
AcDbLine
 10
-194.0322895578971
 20
-2592.904400747489
 30
0.0
 11
456.7608129028733
 21
-2592.904400747489
 31
0.0
  0
LWPOLYLINE
  5
350
330
1F
100
AcDbEntity
  8
0-B_寸法
  6
Continuous
 62
     7
370
     5
100
AcDbPolyline
 90
        4
 70
     1
 43
3.0
 10
697.6174387694903
 20
-2772.482491105915
 42
0.4142135623731
 10
696.1174387694903
 20
-2770.982491105915
 42
0.4142135623731
 10
694.6174387694901
 20
-2772.482491105915
 42
0.4142135623731
 10
696.1174387694903
 20
-2773.982491105915
 42
0.4142135623731
  0
LINE
  5
351
330
1F
100
AcDbEntity
  8
0-B_寸法
  6
Continuous
 62
   120
370
     5
100
AcDbLine
 10
696.1174387694903
 20
-2772.482491105915
 30
0.0
 11
618.9277727329338
 21
-2772.482491105915
 31
0.0
  0
LINE
  5
352
330
1F
100
AcDbEntity
  8
0-0_補助線
  6
JWW_HOJO
 62
   120
370
     5
100
AcDbLine
 10
1248.041929422709
 20
-2625.482491105915
 30
0.0
 11
1248.041929422709
 21
-2700.482491105915
 31
0.0
  0
LINE
  5
353
330
1F
100
AcDbEntity
  8
0-3_仕上げ
  6
Continuous
 62
    40
370
     5
100
AcDbLine
 10
600.7603972039735
 20
-2700.482491105915
 30
0.0
 11
1248.041929422709
 21
-2700.482491105915
 31
0.0
  0
LINE
  5
354
330
1F
100
AcDbEntity
  8
0-3_仕上げ
  6
Continuous
 62
    40
370
     5
100
AcDbLine
 10
600.7603972039735
 20
-2625.482491105915
 30
0.0
 11
1248.041929422709
 21
-2625.482491105915
 31
0.0
  0
LWPOLYLINE
  5
355
330
1F
100
AcDbEntity
  8
0-B_寸法
  6
Continuous
 62
     7
370
     5
100
AcDbPolyline
 90
        4
 70
     1
 43
3.0
 10
697.6174387694903
 20
-2700.482491105915
 42
0.4142135623731
 10
696.1174387694903
 20
-2698.982491105915
 42
0.4142135623731
 10
694.6174387694901
 20
-2700.482491105915
 42
0.4142135623731
 10
696.1174387694903
 20
-2701.982491105915
 42
0.4142135623731
  0
LINE
  5
356
330
1F
100
AcDbEntity
  8
0-B_寸法
  6
Continuous
 62
   120
370
     5
100
AcDbLine
 10
696.1174387694903
 20
-2700.482491105915
 30
0.0
 11
618.9277727329338
 21
-2700.482491105915
 31
0.0
  0
LINE
  5
357
330
1F
100
AcDbEntity
  8
0-B_寸法
  6
Continuous
 62
   120
370
     5
100
AcDbLine
 10
696.1174387694903
 20
-2700.482491105915
 30
0.0
 11
696.1174387694903
 21
-2772.482491105915
 31
0.0
  0
LINE
  5
358
330
1F
100
AcDbEntity
  8
0-3_仕上げ
  6
Continuous
 62
    92
370
     5
100
AcDbLine
 10
630.7604961798982
 20
-2388.904380952305
 30
0.0
 11
630.7604961798982
 21
-2625.482491105915
 31
0.0
  0
LINE
  5
359
330
1F
100
AcDbEntity
  8
0-C_ハッチ
  6
Continuous
 62
   120
370
     5
100
AcDbLine
 10
600.7603972039735
 20
-2730.899981472258
 30
0.0
 11
456.7608129028733
 21
-2586.901881810096
 31
0.0
  0
LINE
  5
35A
330
1F
100
AcDbEntity
  8
0-C_ハッチ
  6
Continuous
 62
   120
370
     5
100
AcDbLine
 10
600.7603972039735
 20
-2773.326508340924
 30
0.0
 11
445.6957989142731
 21
-2618.263394690165
 31
0.0
  0
LINE
  5
35B
330
1F
100
AcDbEntity
  8
0-C_ハッチ
  6
Continuous
 62
   120
370
     5
100
AcDbLine
 10
557.4905954197604
 20
-2772.482491105915
 30
0.0
 11
430.4752805443351
 21
-2645.468660869427
 31
0.0
  0
LINE
  5
35C
330
1F
100
AcDbEntity
  8
0-C_ハッチ
  6
Continuous
 62
   120
370
     5
100
AcDbLine
 10
472.6371705227049
 20
-2772.482491105915
 30
0.0
 11
420.7612879873361
 21
-2720.60697973028
 31
0.0
  0
LINE
  5
35D
330
1F
100
AcDbEntity
  8
0-C_ハッチ
  6
Continuous
 62
   120
370
     5
100
AcDbLine
 10
600.7603972039735
 20
-2646.048412373862
 30
0.0
 11
456.7608129028733
 21
-2502.048085753296
 31
0.0
  0
LINE
  5
35E
330
1F
100
AcDbEntity
  8
0-C_ハッチ
  6
Continuous
 62
   120
370
     5
100
AcDbLine
 10
600.7603972039735
 20
-2688.474196923062
 30
0.0
 11
456.7608129028733
 21
-2544.476097260899
 31
0.0
  0
LINE
  5
35F
330
1F
100
AcDbEntity
  8
0-C_ハッチ
  6
Continuous
 62
   120
370
     5
100
AcDbLine
 10
600.7603972039735
 20
-2603.621885505196
 30
0.0
 11
456.7608129028733
 21
-2459.62155888463
 31
0.0
  0
LINE
  5
360
330
1F
100
AcDbEntity
  8
0-C_ハッチ
  6
Continuous
 62
   120
370
     5
100
AcDbLine
 10
600.7603972039735
 20
-2306.63619742454
 30
0.0
 11
556.6072352529611
 21
-2262.482293154055
 31
0.0
  0
LINE
  5
361
330
1F
100
AcDbEntity
  8
0-C_ハッチ
  6
Continuous
 62
   120
370
     5
100
AcDbLine
 10
600.7603972039735
 20
-2349.062724293206
 30
0.0
 11
514.1803372245543
 21
-2262.482293154055
 31
0.0
  0
LINE
  5
362
330
1F
100
AcDbEntity
  8
0-C_ハッチ
  6
Continuous
 62
   120
370
     5
100
AcDbLine
 10
600.7603972039735
 20
-2391.489251161868
 30
0.0
 11
471.7541815156366
 21
-2262.482293154055
 31
0.0
  0
LINE
  5
363
330
1F
100
AcDbEntity
  8
0-C_ハッチ
  6
Continuous
 62
   120
370
     5
100
AcDbLine
 10
600.7603972039735
 20
-2433.915778030533
 30
0.0
 11
443.0442337749102
 21
-2276.198872282012
 31
0.0
  0
LINE
  5
364
330
1F
100
AcDbEntity
  8
0-C_ハッチ
  6
Continuous
 62
   120
370
     5
100
AcDbLine
 10
600.7603972039735
 20
-2476.342304899199
 30
0.0
 11
421.8317126600616
 21
-2297.412135716346
 31
0.0
  0
LINE
  5
365
330
1F
100
AcDbEntity
  8
0-C_ハッチ
  6
Continuous
 62
   120
370
     5
100
AcDbLine
 10
600.7603972039735
 20
-2518.768831767865
 30
0.0
 11
420.7612879873361
 21
-2338.768237912293
 31
0.0
  0
LINE
  5
366
330
1F
100
AcDbEntity
  8
0-C_ハッチ
  6
Continuous
 62
   120
370
     5
100
AcDbLine
 10
600.7603972039735
 20
-2561.19535863653
 30
0.0
 11
432.7601398665612
 21
-2393.194358979649
 31
0.0
  0
LINE
  5
367
330
1F
100
AcDbEntity
  8
0-C_ハッチ
  6
Continuous
 62
   120
370
     5
100
AcDbLine
 10
515.0629550718916
 20
-2772.482491105915
 30
0.0
 11
420.7612879873361
 21
-2678.181195181083
 31
0.0
  0
LINE
  5
368
330
1F
100
AcDbEntity
  8
0-C_ハッチ
  6
JWW_DASHED1
 62
   120
370
     5
100
AcDbLine
 10
600.7603972039872
 20
-2659.307211514607
 30
0.0
 11
634.5851176126619
 21
-2625.482491105926
 31
0.0
  0
LINE
  5
369
330
1F
100
AcDbEntity
  8
0-C_ハッチ
  6
JWW_DASHED1
 62
   120
370
     5
100
AcDbLine
 10
602.0115244838619
 20
-2700.482491105926
 30
0.0
 11
677.0115244838755
 21
-2625.482491105915
 31
0.0
  0
LINE
  5
36A
330
1F
100
AcDbEntity
  8
0-C_ハッチ
  6
JWW_DASHED1
 62
   120
370
     5
100
AcDbLine
 10
644.4379313550755
 20
-2700.482491105915
 30
0.0
 11
719.4379313550892
 21
-2625.482491105905
 31
0.0
  0
LINE
  5
36B
330
1F
100
AcDbEntity
  8
0-C_ハッチ
  6
JWW_DASHED1
 62
   120
370
     5
100
AcDbLine
 10
686.8643382262755
 20
-2700.482491105915
 30
0.0
 11
761.8643382262892
 21
-2625.482491105905
 31
0.0
  0
LINE
  5
36C
330
1F
100
AcDbEntity
  8
0-C_ハッチ
  6
JWW_DASHED1
 62
   120
370
     5
100
AcDbLine
 10
729.2907450974892
 20
-2700.482491105902
 30
0.0
 11
804.2907450974892
 21
-2625.482491105905
 31
0.0
  0
LINE
  5
36D
330
1F
100
AcDbEntity
  8
0-C_ハッチ
  6
JWW_DASHED1
 62
   120
370
     5
100
AcDbLine
 10
771.717151968621
 20
-2700.482491105912
 30
0.0
 11
846.717151968621
 21
-2625.482491105915
 31
0.0
  0
LINE
  5
36E
330
1F
100
AcDbEntity
  8
0-C_ハッチ
  6
JWW_DASHED1
 62
   120
370
     5
100
AcDbLine
 10
814.143558839821
 20
-2700.482491105912
 30
0.0
 11
889.143558839821
 21
-2625.482491105915
 31
0.0
  0
LINE
  5
36F
330
1F
100
AcDbEntity
  8
0-C_ハッチ
  6
JWW_DASHED1
 62
   120
370
     5
100
AcDbLine
 10
856.569965711021
 20
-2700.482491105915
 30
0.0
 11
931.5699657110074
 21
-2625.482491105919
 31
0.0
  0
LINE
  5
370
330
1F
100
AcDbEntity
  8
0-C_ハッチ
  6
JWW_DASHED1
 62
   120
370
     5
100
AcDbLine
 10
898.9963725822074
 20
-2700.482491105919
 30
0.0
 11
973.9963725822074
 21
-2625.482491105922
 31
0.0
  0
LINE
  5
371
330
1F
100
AcDbEntity
  8
0-C_ハッチ
  6
JWW_DASHED1
 62
   120
370
     5
100
AcDbLine
 10
941.4227794534211
 20
-2700.482491105915
 30
0.0
 11
1016.422779453435
 21
-2625.482491105905
 31
0.0
  0
LINE
  5
372
330
1F
100
AcDbEntity
  8
0-C_ハッチ
  6
JWW_DASHED1
 62
   120
370
     5
100
AcDbLine
 10
983.8491863246074
 20
-2700.482491105919
 30
0.0
 11
1058.849186324621
 21
-2625.482491105909
 31
0.0
  0
LINE
  5
373
330
1F
100
AcDbEntity
  8
0-C_ハッチ
  6
JWW_DASHED1
 62
   120
370
     5
100
AcDbLine
 10
1026.275593195821
 20
-2700.482491105912
 30
0.0
 11
1101.275593195835
 21
-2625.482491105899
 31
0.0
  0
LINE
  5
374
330
1F
100
AcDbEntity
  8
0-C_ハッチ
  6
JWW_DASHED1
 62
   120
370
     5
100
AcDbLine
 10
1068.70200006698
 20
-2700.482491105905
 30
0.0
 11
1143.702000066967
 21
-2625.482491105909
 31
0.0
  0
LINE
  5
375
330
1F
100
AcDbEntity
  8
0-C_ハッチ
  6
JWW_DASHED1
 62
   120
370
     5
100
AcDbLine
 10
1111.128406938167
 20
-2700.482491105905
 30
0.0
 11
1186.128406938167
 21
-2625.482491105909
 31
0.0
  0
LINE
  5
376
330
1F
100
AcDbEntity
  8
0-C_ハッチ
  6
JWW_DASHED1
 62
   120
370
     5
100
AcDbLine
 10
1153.554813809367
 20
-2700.482491105909
 30
0.0
 11
1228.554813809367
 21
-2625.482491105912
 31
0.0
  0
LINE
  5
377
330
1F
100
AcDbEntity
  8
0-C_ハッチ
  6
JWW_DASHED1
 62
   120
370
     5
100
AcDbLine
 10
1195.981220680567
 20
-2700.482491105912
 30
0.0
 11
1248.041929422709
 21
-2648.421782363773
 31
0.0
  0
LINE
  5
378
330
1F
100
AcDbEntity
  8
0-C_ハッチ
  6
JWW_DASHED1
 62
   120
370
     5
100
AcDbLine
 10
1238.407627551767
 20
-2700.482491105915
 30
0.0
 11
1248.041929422709
 21
-2690.84818923497
 31
0.0
  0
LINE
  5
379
330
1F
100
AcDbEntity
  8
0-B_寸法
  6
Continuous
 62
   120
370
     5
100
AcDbLine
 10
142.5756408278741
 20
-2592.482293154055
 30
0.0
 11
257.2022948921514
 21
-2592.482293154055
 31
0.0
  0
LINE
  5
37A
330
1F
100
AcDbEntity
  8
0-B_寸法
  6
Continuous
 62
   120
370
     5
100
AcDbLine
 10
142.5756408278741
 20
-2442.482293154055
 30
0.0
 11
257.2022948921514
 21
-2442.482293154055
 31
0.0
  0
LWPOLYLINE
  5
37B
330
1F
100
AcDbEntity
  8
0-B_寸法
  6
Continuous
 62
     7
370
     5
100
AcDbPolyline
 90
        4
 70
     1
 43
3.0
 10
144.0756408278741
 20
-2592.482293154055
 42
0.4142135623731
 10
142.5756408278741
 20
-2590.982293154055
 42
0.4142135623731
 10
141.0756408278741
 20
-2592.482293154055
 42
0.4142135623731
 10
142.5756408278741
 20
-2593.982293154055
 42
0.4142135623731
  0
LWPOLYLINE
  5
37C
330
1F
100
AcDbEntity
  8
0-B_寸法
  6
Continuous
 62
     7
370
     5
100
AcDbPolyline
 90
        4
 70
     1
 43
3.0
 10
144.0756408278741
 20
-2442.482293154055
 42
0.4142135623731
 10
142.5756408278741
 20
-2440.982293154055
 42
0.4142135623731
 10
141.0756408278741
 20
-2442.482293154055
 42
0.4142135623731
 10
142.5756408278741
 20
-2443.982293154055
 42
0.4142135623731
  0
LINE
  5
37D
330
1F
100
AcDbEntity
  8
0-B_寸法
  6
Continuous
 62
   120
370
     5
100
AcDbLine
 10
-1.769034660462765
 20
-2262.482293154055
 30
0.0
 11
257.2022948921514
 21
-2262.482293154055
 31
0.0
  0
LWPOLYLINE
  5
37E
330
1F
100
AcDbEntity
  8
0-B_寸法
  6
Continuous
 62
     7
370
     5
100
AcDbPolyline
 90
        4
 70
     1
 43
3.0
 10
144.0756408278741
 20
-2262.482293154055
 42
0.4142135623731
 10
142.5756408278741
 20
-2260.982293154055
 42
0.4142135623731
 10
141.0756408278741
 20
-2262.482293154055
 42
0.4142135623731
 10
142.5756408278741
 20
-2263.982293154055
 42
0.4142135623731
  0
LWPOLYLINE
  5
37F
330
1F
100
AcDbEntity
  8
0-B_寸法
  6
Continuous
 62
     7
370
     5
100
AcDbPolyline
 90
        4
 70
     1
 43
3.0
 10
-0.2690346604627648
 20
-2262.482293154055
 42
0.4142135623731
 10
-1.769034660462765
 20
-2260.982293154055
 42
0.4142135623731
 10
-3.269034660462765
 20
-2262.482293154055
 42
0.4142135623731
 10
-1.769034660462765
 20
-2263.982293154055
 42
0.4142135623731
  0
LINE
  5
380
330
1F
100
AcDbEntity
  8
0-B_寸法
  6
Continuous
 62
   120
370
     5
100
AcDbLine
 10
142.5756408278741
 20
-2772.482293154055
 30
0.0
 11
142.5756408278741
 21
-2262.482293154055
 31
0.0
  0
LINE
  5
381
330
1F
100
AcDbEntity
  8
0-B_寸法
  6
Continuous
 62
   120
370
     5
100
AcDbLine
 10
-1.769034660462765
 20
-2772.482293154055
 30
0.0
 11
257.2022948921514
 21
-2772.482293154055
 31
0.0
  0
LWPOLYLINE
  5
382
330
1F
100
AcDbEntity
  8
0-B_寸法
  6
Continuous
 62
     7
370
     5
100
AcDbPolyline
 90
        4
 70
     1
 43
3.0
 10
144.0756408278741
 20
-2772.482293154055
 42
0.4142135623731
 10
142.5756408278741
 20
-2770.982293154055
 42
0.4142135623731
 10
141.0756408278741
 20
-2772.482293154055
 42
0.4142135623731
 10
142.5756408278741
 20
-2773.982293154055
 42
0.4142135623731
  0
LWPOLYLINE
  5
383
330
1F
100
AcDbEntity
  8
0-B_寸法
  6
Continuous
 62
     7
370
     5
100
AcDbPolyline
 90
        4
 70
     1
 43
3.0
 10
-0.2690346604627648
 20
-2772.482293154055
 42
0.4142135623731
 10
-1.769034660462765
 20
-2770.982293154055
 42
0.4142135623731
 10
-3.269034660462765
 20
-2772.482293154055
 42
0.4142135623731
 10
-1.769034660462765
 20
-2773.982293154055
 42
0.4142135623731
  0
LINE
  5
384
330
1F
100
AcDbEntity
  8
0-B_寸法
  6
Continuous
 62
   120
370
     5
100
AcDbLine
 10
-1.769034660462765
 20
-2772.482293154055
 30
0.0
 11
-1.769034660462765
 21
-2262.482293154055
 31
0.0
  0
MTEXT
  5
385
330
1F
100
AcDbEntity
  8
0-B_寸法
  6
Continuous
 62
     7
370
   211
100
AcDbMText
 10
127.5756408278741
 20
-2416.262718750552
 30
0.0
 40
91.43999999999838
 41
119.9999999999979
 46
0.0
 71
     7
 72
     1
  1
{\fＭＳ ゴシック|b0|i0|c128|p49;30}
 11
6.123031769111886E-17
 21
1.0
 31
0.0
 73
     1
 44
1.0
  0
MTEXT
  5
386
330
1F
100
AcDbEntity
  8
0-B_寸法
  6
Continuous
 62
     7
370
   211
100
AcDbMText
 10
127.5756408278741
 20
-2591.762293154054
 30
0.0
 40
91.43999999999838
 41
119.9999999999979
 46
0.0
 71
     7
 72
     1
  1
{\fＭＳ ゴシック|b0|i0|c128|p49;25}
 11
6.123031769111886E-17
 21
1.0
 31
0.0
 73
     1
 44
1.0
  0
MTEXT
  5
387
330
1F
100
AcDbEntity
  8
0-B_寸法
  6
Continuous
 62
     7
370
   211
100
AcDbMText
 10
-16.76903466046298
 20
-2591.762718750549
 30
0.0
 40
91.43999999999838
 41
119.9999999999979
 46
0.0
 71
     7
 72
     1
  1
{\fＭＳ ゴシック|b0|i0|c128|p49;85}
 11
6.123031769111886E-17
 21
1.0
 31
0.0
 73
     1
 44
1.0
  0
MTEXT
  5
388
330
1F
100
AcDbEntity
  8
0-B_寸法
  6
Continuous
 62
     7
370
   211
100
AcDbMText
 10
127.5756408278741
 20
-2756.762293154054
 30
0.0
 40
91.43999999999838
 41
119.9999999999979
 46
0.0
 71
     7
 72
     1
  1
{\fＭＳ ゴシック|b0|i0|c128|p49;30}
 11
6.123031769111886E-17
 21
1.0
 31
0.0
 73
     1
 44
1.0
  0
LINE
  5
389
330
1F
100
AcDbEntity
  8
0-A_文字
  6
Continuous
 62
     7
370
     5
100
AcDbLine
 10
696.1174387694903
 20
-2744.109456410019
 30
0.0
 11
827.1453689418397
 21
-3043.727239051876
 31
0.0
  0
LINE
  5
38A
330
1F
100
AcDbEntity
  8
0-A_文字
  6
Continuous
 62
     7
370
     5
100
AcDbLine
 10
827.1453689418397
 20
-3043.727239051876
 30
0.0
 11
1653.32396017867
 21
-3043.727239051876
 31
0.0
  0
INSERT
  5
38B
330
1F
100
AcDbEntity
  8
0-0_補助線
  6
Continuous
 62
     7
370
     5
100
AcDbBlockReference
  2
01@@SfigorgFlag@@4
 10
2609.105553558858
 20
-1988.183389724896
 30
0.0
 41
30.0
 42
30.0
  0
LWPOLYLINE
  5
38C
330
1F
100
AcDbEntity
  8
0-0_補助線
  6
Continuous
 62
     7
370
     5
100
AcDbPolyline
 90
        4
 70
     1
 43
3.0
 10
2370.605553558862
 20
-1941.414158955665
 42
0.4142135623731
 10
2369.105553558862
 20
-1939.914158955665
 42
0.4142135623731
 10
2367.605553558862
 20
-1941.414158955665
 42
0.4142135623731
 10
2369.105553558862
 20
-1942.914158955665
 42
0.4142135623731
  0
LWPOLYLINE
  5
38D
330
1F
100
AcDbEntity
  8
0-0_補助線
  6
Continuous
 62
     7
370
     5
100
AcDbPolyline
 90
        4
 70
     1
 43
3.0
 10
2850.605553558858
 20
-1941.414158955665
 42
0.4142135623731
 10
2849.105553558858
 20
-1939.914158955665
 42
0.4142135623731
 10
2847.605553558858
 20
-1941.414158955665
 42
0.4142135623731
 10
2849.105553558858
 20
-1942.914158955665
 42
0.4142135623731
  0
LWPOLYLINE
  5
38E
330
1F
100
AcDbEntity
  8
0-0_補助線
  6
Continuous
 62
     7
370
     5
100
AcDbPolyline
 90
        4
 70
     1
 43
3.0
 10
2528.105553558853
 20
-1936.914158955665
 42
0.4142135623731
 10
2526.605553558853
 20
-1935.414158955666
 42
0.4142135623731
 10
2525.105553558853
 20
-1936.914158955665
 42
0.4142135623731
 10
2526.605553558853
 20
-1938.414158955665
 42
0.4142135623731
  0
LWPOLYLINE
  5
38F
330
1F
100
AcDbEntity
  8
0-0_補助線
  6
Continuous
 62
     7
370
     5
100
AcDbPolyline
 90
        4
 70
     1
 43
3.0
 10
2693.105553558864
 20
-1936.914158955665
 42
0.4142135623731
 10
2691.605553558865
 20
-1935.414158955666
 42
0.4142135623731
 10
2690.105553558865
 20
-1936.914158955665
 42
0.4142135623731
 10
2691.605553558865
 20
-1938.414158955665
 42
0.4142135623731
  0
LINE
  5
390
330
1F
100
AcDbEntity
  8
0-0_補助線
  6
Continuous
 62
   120
370
     5
100
AcDbLine
 10
2526.605553558853
 20
-1787.734043022916
 30
0.0
 11
2691.605553558865
 21
-1787.734043022916
 31
0.0
  0
LWPOLYLINE
  5
391
330
1F
100
AcDbEntity
  8
0-0_補助線
  6
Continuous
 62
     7
370
     5
100
AcDbPolyline
 90
        4
 70
     1
 43
3.0
 10
2528.105553558853
 20
-1787.734043022916
 42
0.4142135623731
 10
2526.605553558853
 20
-1786.234043022916
 42
0.4142135623731
 10
2525.105553558853
 20
-1787.734043022916
 42
0.4142135623731
 10
2526.605553558853
 20
-1789.234043022916
 42
0.4142135623731
  0
LWPOLYLINE
  5
392
330
1F
100
AcDbEntity
  8
0-0_補助線
  6
Continuous
 62
     7
370
     5
100
AcDbPolyline
 90
        4
 70
     1
 43
3.0
 10
2693.105553558864
 20
-1787.734043022916
 42
0.4142135623731
 10
2691.605553558865
 20
-1786.234043022916
 42
0.4142135623731
 10
2690.105553558865
 20
-1787.734043022916
 42
0.4142135623731
 10
2691.605553558865
 20
-1789.234043022916
 42
0.4142135623731
  0
LINE
  5
393
330
1F
100
AcDbEntity
  8
0-0_補助線
  6
Continuous
 62
   120
370
     5
100
AcDbLine
 10
2526.605553558853
 20
-1787.734043022916
 30
0.0
 11
2526.605553558853
 21
-1873.598351940863
 31
0.0
  0
LINE
  5
394
330
1F
100
AcDbEntity
  8
0-0_補助線
  6
Continuous
 62
   120
370
     5
100
AcDbLine
 10
2691.605553558865
 20
-1787.734043022916
 30
0.0
 11
2691.605553558865
 21
-1873.598351940863
 31
0.0
  0
MTEXT
  5
395
330
1F
100
AcDbEntity
  8
0-0_補助線
  6
Continuous
 62
     7
370
   211
100
AcDbMText
 10
2564.105553558857
 20
-1783.444043022914
 30
0.0
 40
68.5800000000026
 41
90.00000000000341
 46
0.0
 71
     7
 72
     1
  1
{\fＭＳ ゴシック|b0|i0|c128|p49;11}
 73
     1
 44
1.0
  0
LINE
  5
396
330
1F
100
AcDbEntity
  8
0-0_補助線
  6
Continuous
 62
   120
370
     5
100
AcDbLine
 10
2369.105553558862
 20
-1628.271755032444
 30
0.0
 11
2849.105553558858
 21
-1628.271755032444
 31
0.0
  0
LWPOLYLINE
  5
397
330
1F
100
AcDbEntity
  8
0-0_補助線
  6
Continuous
 62
     7
370
     5
100
AcDbPolyline
 90
        4
 70
     1
 43
3.0
 10
2370.605553558862
 20
-1628.271755032444
 42
0.4142135623731
 10
2369.105553558862
 20
-1626.771755032445
 42
0.4142135623731
 10
2367.605553558862
 20
-1628.271755032444
 42
0.4142135623731
 10
2369.105553558862
 20
-1629.771755032444
 42
0.4142135623731
  0
LWPOLYLINE
  5
398
330
1F
100
AcDbEntity
  8
0-0_補助線
  6
Continuous
 62
     7
370
     5
100
AcDbPolyline
 90
        4
 70
     1
 43
3.0
 10
2850.605553558858
 20
-1628.271755032444
 42
0.4142135623731
 10
2849.105553558858
 20
-1626.771755032445
 42
0.4142135623731
 10
2847.605553558858
 20
-1628.271755032444
 42
0.4142135623731
 10
2849.105553558858
 20
-1629.771755032444
 42
0.4142135623731
  0
LINE
  5
399
330
1F
100
AcDbEntity
  8
0-0_補助線
  6
Continuous
 62
   120
370
     5
100
AcDbLine
 10
2369.105553558862
 20
-1628.271755032444
 30
0.0
 11
2369.105553558862
 21
-1873.598351940863
 31
0.0
  0
LINE
  5
39A
330
1F
100
AcDbEntity
  8
0-0_補助線
  6
Continuous
 62
   120
370
     5
100
AcDbLine
 10
2849.105553558858
 20
-1628.271755032444
 30
0.0
 11
2849.105553558858
 21
-1873.598351940863
 31
0.0
  0
MTEXT
  5
39B
330
1F
100
AcDbEntity
  8
0-0_補助線
  6
Continuous
 62
     7
370
   211
100
AcDbMText
 10
2564.105553558857
 20
-1623.981755032443
 30
0.0
 40
68.58000000000258
 41
90.00000000000341
 46
0.0
 71
     7
 72
     1
  1
{\fＭＳ ゴシック|b0|i0|c128|p49;32}
 73
     1
 44
1.0
  0
LWPOLYLINE
  5
39C
330
1F
100
AcDbEntity
  8
0-0_補助線
  6
Continuous
 62
     7
370
     5
100
AcDbPolyline
 90
        4
 70
     1
 43
3.0
 10
2152.753827819934
 20
-1927.914158955667
 42
0.4142135623731
 10
2151.253827819934
 20
-1926.414158955667
 42
0.4142135623731
 10
2149.753827819934
 20
-1927.914158955667
 42
0.4142135623731
 10
2151.253827819934
 20
-1929.414158955667
 42
0.4142135623731
  0
LWPOLYLINE
  5
39D
330
1F
100
AcDbEntity
  8
0-0_補助線
  6
Continuous
 62
     7
370
     5
100
AcDbPolyline
 90
        4
 70
     1
 43
3.0
 10
2152.753827819934
 20
-1945.914158955668
 42
0.4142135623731
 10
2151.253827819934
 20
-1944.414158955668
 42
0.4142135623731
 10
2149.753827819934
 20
-1945.914158955668
 42
0.4142135623731
 10
2151.253827819934
 20
-1947.414158955668
 42
0.4142135623731
  0
LINE
  5
39E
330
1F
100
AcDbEntity
  8
0-0_補助線
  6
Continuous
 62
   120
370
     5
100
AcDbLine
 10
2151.253827819934
 20
-1927.914158955667
 30
0.0
 11
2282.094679504424
 21
-1927.914158955667
 31
0.0
  0
LINE
  5
39F
330
1F
100
AcDbEntity
  8
0-0_補助線
  6
Continuous
 62
   120
370
     5
100
AcDbLine
 10
2151.253827819934
 20
-1945.914158955668
 30
0.0
 11
2282.094679504424
 21
-1945.914158955668
 31
0.0
  0
LINE
  5
3A0
330
1F
100
AcDbEntity
  8
0-0_補助線
  6
Continuous
 62
   120
370
     5
100
AcDbLine
 10
2151.253827819934
 20
-1945.914158955668
 30
0.0
 11
2151.253827819934
 21
-2050.914158955668
 31
0.0
  0
LWPOLYLINE
  5
3A1
330
1F
100
AcDbEntity
  8
0-0_補助線
  6
Continuous
 62
     7
370
     5
100
AcDbPolyline
 90
        4
 70
     1
 43
3.0
 10
2152.753827819934
 20
-2050.914158955668
 42
0.4142135623731
 10
2151.253827819934
 20
-2049.414158955668
 42
0.4142135623731
 10
2149.753827819934
 20
-2050.914158955668
 42
0.4142135623731
 10
2151.253827819934
 20
-2052.414158955668
 42
0.4142135623731
  0
LINE
  5
3A2
330
1F
100
AcDbEntity
  8
0-0_補助線
  6
Continuous
 62
   120
370
     5
100
AcDbLine
 10
2151.253827819934
 20
-2050.914158955668
 30
0.0
 11
2282.094679504424
 21
-2050.914158955668
 31
0.0
  0
MTEXT
  5
3A3
330
1F
100
AcDbEntity
  8
0-0_補助線
  6
Continuous
 62
     7
370
   211
100
AcDbMText
 10
2136.253827819933
 20
-2031.624158955668
 30
0.0
 40
68.57999999999676
 41
44.99999999999787
 46
0.0
 71
     7
 72
     1
  1
{\fＭＳ ゴシック|b0|i0|c128|p49;7}
 11
6.123031769111886E-17
 21
1.0
 31
0.0
 73
     1
 44
1.0
  0
LINE
  5
3A4
330
1F
100
AcDbEntity
  8
0-0_補助線
  6
Continuous
 62
   120
370
     5
100
AcDbLine
 10
2463.605553558861
 20
-2261.810507766117
 30
0.0
 11
2754.605553558856
 21
-2261.810507766117
 31
0.0
  0
LWPOLYLINE
  5
3A5
330
1F
100
AcDbEntity
  8
0-0_補助線
  6
Continuous
 62
     7
370
     5
100
AcDbPolyline
 90
        4
 70
     1
 43
3.0
 10
2465.105553558861
 20
-2261.810507766117
 42
0.4142135623731
 10
2463.605553558861
 20
-2260.310507766117
 42
0.4142135623731
 10
2462.105553558862
 20
-2261.810507766117
 42
0.4142135623731
 10
2463.605553558861
 20
-2263.310507766117
 42
0.4142135623731
  0
LWPOLYLINE
  5
3A6
330
1F
100
AcDbEntity
  8
0-0_補助線
  6
Continuous
 62
     7
370
     5
100
AcDbPolyline
 90
        4
 70
     1
 43
3.0
 10
2756.105553558856
 20
-2261.810507766117
 42
0.4142135623731
 10
2754.605553558856
 20
-2260.310507766117
 42
0.4142135623731
 10
2753.105553558856
 20
-2261.810507766117
 42
0.4142135623731
 10
2754.605553558856
 20
-2263.310507766117
 42
0.4142135623731
  0
LINE
  5
3A7
330
1F
100
AcDbEntity
  8
0-0_補助線
  6
Continuous
 62
   120
370
     5
100
AcDbLine
 10
2463.605553558861
 20
-2261.810507766117
 30
0.0
 11
2463.605553558861
 21
-2134.194425697967
 31
0.0
  0
LINE
  5
3A8
330
1F
100
AcDbEntity
  8
0-0_補助線
  6
Continuous
 62
   120
370
     5
100
AcDbLine
 10
2754.605553558856
 20
-2261.810507766117
 30
0.0
 11
2754.605553558856
 21
-2134.194425697967
 31
0.0
  0
MTEXT
  5
3A9
330
1F
100
AcDbEntity
  8
0-0_補助線
  6
Continuous
 62
     7
370
   211
100
AcDbMText
 10
2519.105553558861
 20
-2257.520507766113
 30
0.0
 40
68.57999999999836
 41
179.9999999999957
 46
0.0
 71
     7
 72
     1
  1
{\fＭＳ ゴシック|b0|i0|c128|p49;19.4}
 73
     1
 44
1.0
  0
MTEXT
  5
3AA
330
1F
100
AcDbEntity
  8
0-0_補助線
  6
Continuous
 62
     7
370
   211
100
AcDbMText
 10
2136.253827819933
 20
-1919.600849893347
 30
0.0
 40
68.58000000000044
 41
135.0000000000009
 46
0.0
 71
     7
 72
     1
  1
{\fＭＳ ゴシック|b0|i0|c128|p49;1.2}
 11
6.123031769111886E-17
 21
1.0
 31
0.0
 73
     1
 44
1.0
  0
LINE
  5
3AB
330
1F
100
AcDbEntity
  8
0-0_補助線
  6
Continuous
 62
   120
370
     5
100
AcDbLine
 10
2151.253827819934
 20
-1761.42631433136
 30
0.0
 11
2151.253827819934
 21
-1945.914158955668
 31
0.0
  0
LWPOLYLINE
  5
3AC
330
1F
100
AcDbEntity
  8
0-0_補助線
  6
Continuous
 62
     7
370
     5
100
AcDbPolyline
 90
        4
 70
     1
 43
3.0
 10
2438.105553558858
 20
-2633.427539560927
 42
0.4142135623731
 10
2436.605553558858
 20
-2631.927539560927
 42
0.4142135623731
 10
2435.105553558859
 20
-2633.427539560927
 42
0.4142135623731
 10
2436.605553558858
 20
-2634.927539560927
 42
0.4142135623731
  0
LWPOLYLINE
  5
3AD
330
1F
100
AcDbEntity
  8
0-0_補助線
  6
Continuous
 62
     7
370
     5
100
AcDbPolyline
 90
        4
 70
     1
 43
3.0
 10
2460.605553558858
 20
-2633.427539560927
 42
0.4142135623731
 10
2459.105553558858
 20
-2631.927539560927
 42
0.4142135623731
 10
2457.605553558859
 20
-2633.427539560927
 42
0.4142135623731
 10
2459.105553558858
 20
-2634.927539560927
 42
0.4142135623731
  0
LINE
  5
3AE
330
1F
100
AcDbEntity
  8
0-0_補助線
  6
Continuous
 62
   120
370
     5
100
AcDbLine
 10
2436.605553558858
 20
-2633.427539560927
 30
0.0
 11
2436.605553558858
 21
-2737.939891289828
 31
0.0
  0
LINE
  5
3AF
330
1F
100
AcDbEntity
  8
0-0_補助線
  6
Continuous
 62
   120
370
     5
100
AcDbLine
 10
2459.105553558858
 20
-2633.427539560927
 30
0.0
 11
2459.105553558858
 21
-2737.939891289828
 31
0.0
  0
LINE
  5
3B0
330
1F
100
AcDbEntity
  8
0-0_補助線
  6
Continuous
 62
   120
370
     5
100
AcDbLine
 10
2459.105553558858
 20
-2633.427539560927
 30
0.0
 11
2759.105553558858
 21
-2633.427539560927
 31
0.0
  0
LWPOLYLINE
  5
3B1
330
1F
100
AcDbEntity
  8
0-0_補助線
  6
Continuous
 62
     7
370
     5
100
AcDbPolyline
 90
        4
 70
     1
 43
3.0
 10
2760.605553558858
 20
-2633.427539560927
 42
0.4142135623731
 10
2759.105553558858
 20
-2631.927539560927
 42
0.4142135623731
 10
2757.605553558859
 20
-2633.427539560927
 42
0.4142135623731
 10
2759.105553558858
 20
-2634.927539560927
 42
0.4142135623731
  0
LINE
  5
3B2
330
1F
100
AcDbEntity
  8
0-0_補助線
  6
Continuous
 62
   120
370
     5
100
AcDbLine
 10
2759.105553558858
 20
-2633.427539560927
 30
0.0
 11
2759.105553558858
 21
-2737.939891289828
 31
0.0
  0
MTEXT
  5
3B3
330
1F
100
AcDbEntity
  8
0-0_補助線
  6
Continuous
 62
     7
370
   211
100
AcDbMText
 10
2564.105553558857
 20
-2629.137539560927
 30
0.0
 40
68.5800000000026
 41
90.00000000000341
 46
0.0
 71
     7
 72
     1
  1
{\fＭＳ ゴシック|b0|i0|c128|p49;20}
 73
     1
 44
1.0
  0
LWPOLYLINE
  5
3B4
330
1F
100
AcDbEntity
  8
0-0_補助線
  6
Continuous
 62
     7
370
     5
100
AcDbPolyline
 90
        4
 70
     1
 43
3.0
 10
2782.632696057795
 20
-2633.427539560927
 42
0.4142135623731
 10
2781.132696057795
 20
-2631.927539560927
 42
0.4142135623731
 10
2779.632696057796
 20
-2633.427539560927
 42
0.4142135623731
 10
2781.132696057795
 20
-2634.927539560927
 42
0.4142135623731
  0
LINE
  5
3B5
330
1F
100
AcDbEntity
  8
0-0_補助線
  6
Continuous
 62
   120
370
     5
100
AcDbLine
 10
2781.132696057795
 20
-2633.427539560927
 30
0.0
 11
2781.132696057795
 21
-2737.939891289828
 31
0.0
  0
LWPOLYLINE
  5
3B6
330
1F
100
AcDbEntity
  8
0-0_補助線
  6
Continuous
 62
     7
370
     5
100
AcDbPolyline
 90
        4
 70
     1
 43
3.0
 10
2152.753827819934
 20
-2810.120905487842
 42
0.4142135623731
 10
2151.253827819934
 20
-2808.620905487842
 42
0.4142135623731
 10
2149.753827819934
 20
-2810.120905487842
 42
0.4142135623731
 10
2151.253827819934
 20
-2811.620905487841
 42
0.4142135623731
  0
LWPOLYLINE
  5
3B7
330
1F
100
AcDbEntity
  8
0-0_補助線
  6
Continuous
 62
     7
370
     5
100
AcDbPolyline
 90
        4
 70
     1
 43
3.0
 10
2152.753827819934
 20
-2840.121461313583
 42
0.4142135623731
 10
2151.253827819934
 20
-2838.621461313583
 42
0.4142135623731
 10
2149.753827819934
 20
-2840.121461313583
 42
0.4142135623731
 10
2151.253827819934
 20
-2841.621461313583
 42
0.4142135623731
  0
LINE
  5
3B8
330
1F
100
AcDbEntity
  8
0-0_補助線
  6
Continuous
 62
   120
370
     5
100
AcDbLine
 10
2151.253827819934
 20
-2810.120905487842
 30
0.0
 11
2282.094679504424
 21
-2810.120905487842
 31
0.0
  0
LINE
  5
3B9
330
1F
100
AcDbEntity
  8
0-0_補助線
  6
Continuous
 62
   120
370
     5
100
AcDbLine
 10
2151.253827819934
 20
-2840.121461313583
 30
0.0
 11
2282.094679504424
 21
-2840.121461313583
 31
0.0
  0
LINE
  5
3BA
330
1F
100
AcDbEntity
  8
0-0_補助線
  6
Continuous
 62
   120
370
     5
100
AcDbLine
 10
2151.253827819934
 20
-2840.121461313583
 30
0.0
 11
2151.253827819934
 21
-2915.12146131359
 31
0.0
  0
LWPOLYLINE
  5
3BB
330
1F
100
AcDbEntity
  8
0-0_補助線
  6
Continuous
 62
     7
370
     5
100
AcDbPolyline
 90
        4
 70
     1
 43
3.0
 10
2152.753827819934
 20
-2915.12146131359
 42
0.4142135623731
 10
2151.253827819934
 20
-2913.62146131359
 42
0.4142135623731
 10
2149.753827819934
 20
-2915.12146131359
 42
0.4142135623731
 10
2151.253827819934
 20
-2916.62146131359
 42
0.4142135623731
  0
LINE
  5
3BC
330
1F
100
AcDbEntity
  8
0-0_補助線
  6
Continuous
 62
   120
370
     5
100
AcDbLine
 10
2151.253827819934
 20
-2915.12146131359
 30
0.0
 11
2282.094679504424
 21
-2915.12146131359
 31
0.0
  0
MTEXT
  5
3BD
330
1F
100
AcDbEntity
  8
0-0_補助線
  6
Continuous
 62
     7
370
   211
100
AcDbMText
 10
2136.253827819933
 20
-2910.831461313588
 30
0.0
 40
68.57999999999676
 41
44.99999999999787
 46
0.0
 71
     7
 72
     1
  1
{\fＭＳ ゴシック|b0|i0|c128|p49;5}
 11
6.123031769111886E-17
 21
1.0
 31
0.0
 73
     1
 44
1.0
  0
LINE
  5
3BE
330
1F
100
AcDbEntity
  8
0-0_補助線
  6
Continuous
 62
   120
370
     5
100
AcDbLine
 10
1994.810857575939
 20
-2915.12146131359
 30
0.0
 11
1994.810857575939
 21
-2810.120905487842
 31
0.0
  0
LWPOLYLINE
  5
3BF
330
1F
100
AcDbEntity
  8
0-0_補助線
  6
Continuous
 62
     7
370
     5
100
AcDbPolyline
 90
        4
 70
     1
 43
3.0
 10
1996.310857575939
 20
-2915.12146131359
 42
0.4142135623731
 10
1994.810857575939
 20
-2913.62146131359
 42
0.4142135623731
 10
1993.310857575939
 20
-2915.12146131359
 42
0.4142135623731
 10
1994.810857575939
 20
-2916.62146131359
 42
0.4142135623731
  0
LWPOLYLINE
  5
3C0
330
1F
100
AcDbEntity
  8
0-0_補助線
  6
Continuous
 62
     7
370
     5
100
AcDbPolyline
 90
        4
 70
     1
 43
3.0
 10
1996.310857575939
 20
-2810.120905487842
 42
0.4142135623731
 10
1994.810857575939
 20
-2808.620905487842
 42
0.4142135623731
 10
1993.310857575939
 20
-2810.120905487842
 42
0.4142135623731
 10
1994.810857575939
 20
-2811.620905487841
 42
0.4142135623731
  0
LINE
  5
3C1
330
1F
100
AcDbEntity
  8
0-0_補助線
  6
Continuous
 62
   120
370
     5
100
AcDbLine
 10
1994.810857575939
 20
-2915.12146131359
 30
0.0
 11
2151.253827819934
 21
-2915.12146131359
 31
0.0
  0
LINE
  5
3C2
330
1F
100
AcDbEntity
  8
0-0_補助線
  6
Continuous
 62
   120
370
     5
100
AcDbLine
 10
1994.810857575939
 20
-2810.120905487842
 30
0.0
 11
2151.253827819934
 21
-2810.120905487842
 31
0.0
  0
MTEXT
  5
3C3
330
1F
100
AcDbEntity
  8
0-0_補助線
  6
Continuous
 62
     7
370
   211
100
AcDbMText
 10
1979.810857575938
 20
-2895.831183400716
 30
0.0
 40
68.57999999999934
 41
44.99999999999957
 46
0.0
 71
     7
 72
     1
  1
{\fＭＳ ゴシック|b0|i0|c128|p49;7}
 11
6.123031769111886E-17
 21
1.0
 31
0.0
 73
     1
 44
1.0
  0
LWPOLYLINE
  5
3C4
330
1F
100
AcDbEntity
  8
0-0_補助線
  6
Continuous
 62
     7
370
     5
100
AcDbPolyline
 90
        4
 70
     1
 43
3.0
 10
1996.310857575939
 20
-2050.914158955668
 42
0.4142135623731
 10
1994.810857575939
 20
-2049.414158955668
 42
0.4142135623731
 10
1993.310857575939
 20
-2050.914158955668
 42
0.4142135623731
 10
1994.810857575939
 20
-2052.414158955668
 42
0.4142135623731
  0
LINE
  5
3C5
330
1F
100
AcDbEntity
  8
0-0_補助線
  6
Continuous
 62
   120
370
     5
100
AcDbLine
 10
1994.810857575939
 20
-2050.914158955668
 30
0.0
 11
2151.253827819934
 21
-2050.914158955668
 31
0.0
  0
LINE
  5
3C6
330
1F
100
AcDbEntity
  8
0-0_補助線
  6
Continuous
 62
   120
370
     5
100
AcDbLine
 10
1994.810857575939
 20
-2050.914158955668
 30
0.0
 11
1994.810857575939
 21
-1927.914158955667
 31
0.0
  0
LWPOLYLINE
  5
3C7
330
1F
100
AcDbEntity
  8
0-0_補助線
  6
Continuous
 62
     7
370
     5
100
AcDbPolyline
 90
        4
 70
     1
 43
3.0
 10
1996.310857575939
 20
-1927.914158955667
 42
0.4142135623731
 10
1994.810857575939
 20
-1926.414158955667
 42
0.4142135623731
 10
1993.310857575939
 20
-1927.914158955667
 42
0.4142135623731
 10
1994.810857575939
 20
-1929.414158955667
 42
0.4142135623731
  0
LINE
  5
3C8
330
1F
100
AcDbEntity
  8
0-0_補助線
  6
Continuous
 62
   120
370
     5
100
AcDbLine
 10
1994.810857575939
 20
-1927.914158955667
 30
0.0
 11
2151.253827819934
 21
-1927.914158955667
 31
0.0
  0
MTEXT
  5
3C9
330
1F
100
AcDbEntity
  8
0-0_補助線
  6
Continuous
 62
     7
370
   211
100
AcDbMText
 10
1979.810857575938
 20
-2067.624158955667
 30
0.0
 40
68.58000000000044
 41
135.0000000000009
 46
0.0
 71
     7
 72
     1
  1
{\fＭＳ ゴシック|b0|i0|c128|p49;8.2}
 11
6.123031769111886E-17
 21
1.0
 31
0.0
 73
     1
 44
1.0
  0
MTEXT
  5
3CA
330
1F
100
AcDbEntity
  8
0-0_補助線
  6
Continuous
 62
     7
370
   211
100
AcDbMText
 10
2136.253827819933
 20
-2809.252056654432
 30
0.0
 40
68.5800000000026
 41
45.00000000000171
 46
0.0
 71
     7
 72
     1
  1
{\fＭＳ ゴシック|b0|i0|c128|p49;2}
 11
6.123031769111886E-17
 21
1.0
 31
0.0
 73
     1
 44
1.0
  0
LINE
  5
3CB
330
1F
100
AcDbEntity
  8
0-0_補助線
  6
Continuous
 62
   120
370
     5
100
AcDbLine
 10
2151.253827819934
 20
-2743.599609078753
 30
0.0
 11
2151.253827819934
 21
-2840.121461313583
 31
0.0
  0
LINE
  5
3CC
330
1F
100
AcDbEntity
  8
0-0_補助線
  6
Continuous
 62
   120
370
     5
100
AcDbLine
 10
2436.605553558858
 20
-2471.480303903156
 30
0.0
 11
2781.132696057795
 21
-2471.480303903156
 31
0.0
  0
LWPOLYLINE
  5
3CD
330
1F
100
AcDbEntity
  8
0-0_補助線
  6
Continuous
 62
     7
370
     5
100
AcDbPolyline
 90
        4
 70
     1
 43
3.0
 10
2438.105553558858
 20
-2471.480303903156
 42
0.4142135623731
 10
2436.605553558858
 20
-2469.980303903156
 42
0.4142135623731
 10
2435.105553558859
 20
-2471.480303903156
 42
0.4142135623731
 10
2436.605553558858
 20
-2472.980303903156
 42
0.4142135623731
  0
LWPOLYLINE
  5
3CE
330
1F
100
AcDbEntity
  8
0-0_補助線
  6
Continuous
 62
     7
370
     5
100
AcDbPolyline
 90
        4
 70
     1
 43
3.0
 10
2782.632696057795
 20
-2471.480303903156
 42
0.4142135623731
 10
2781.132696057795
 20
-2469.980303903156
 42
0.4142135623731
 10
2779.632696057796
 20
-2471.480303903156
 42
0.4142135623731
 10
2781.132696057795
 20
-2472.980303903156
 42
0.4142135623731
  0
LINE
  5
3CF
330
1F
100
AcDbEntity
  8
0-0_補助線
  6
Continuous
 62
   120
370
     5
100
AcDbLine
 10
2436.605553558858
 20
-2471.480303903156
 30
0.0
 11
2436.605553558858
 21
-2633.427539560927
 31
0.0
  0
LINE
  5
3D0
330
1F
100
AcDbEntity
  8
0-0_補助線
  6
Continuous
 62
   120
370
     5
100
AcDbLine
 10
2781.132696057795
 20
-2471.480303903156
 30
0.0
 11
2781.132696057795
 21
-2633.427539560927
 31
0.0
  0
MTEXT
  5
3D1
330
1F
100
AcDbEntity
  8
0-0_補助線
  6
Continuous
 62
     7
370
   211
100
AcDbMText
 10
2563.869124808326
 20
-2467.190303903155
 30
0.0
 40
68.5800000000026
 41
90.00000000000341
 46
0.0
 71
     7
 72
     1
  1
{\fＭＳ ゴシック|b0|i0|c128|p49;23}
 73
     1
 44
1.0
  0
LINE
  5
3D2
330
1F
100
AcDbEntity
  8
0-0_補助線
  6
Continuous
 62
   120
370
     5
100
AcDbLine
 10
2272.203471781326
 20
-2633.427539560927
 30
0.0
 11
2459.105553558858
 21
-2633.427539560927
 31
0.0
  0
LINE
  5
3D3
330
1F
100
AcDbEntity
  8
0-0_補助線
  6
Continuous
 62
   120
370
     5
100
AcDbLine
 10
2759.105553558858
 20
-2633.427539560927
 30
0.0
 11
2952.414617514154
 21
-2633.427539560927
 31
0.0
  0
MTEXT
  5
3D4
330
1F
100
AcDbEntity
  8
0-0_補助線
  6
Continuous
 62
     7
370
   211
100
AcDbMText
 10
2287.220889460389
 20
-2629.137539560928
 30
0.0
 40
68.58000000000129
 41
135.0000000000026
 46
0.0
 71
     7
 72
     1
  1
{\fＭＳ ゴシック|b0|i0|c128|p49;1.5}
 73
     1
 44
1.0
  0
MTEXT
  5
3D5
330
1F
100
AcDbEntity
  8
0-0_補助線
  6
Continuous
 62
     7
370
   211
100
AcDbMText
 10
2807.972701029622
 20
-2629.137539560929
 30
0.0
 40
68.57999999999826
 41
134.9999999999966
 46
0.0
 71
     7
 72
     1
  1
{\fＭＳ ゴシック|b0|i0|c128|p49;1.5}
 73
     1
 44
1.0
  0
LINE
  5
3D6
330
1F
100
AcDbEntity
  8
0-A_文字
  6
Continuous
 62
    92
370
     5
100
AcDbLine
 10
1687.800538364843
 20
340.8513752693925
 30
0.0
 11
1687.800538364843
 21
-3264.079081402567
 31
0.0
  0
LINE
  5
3D7
330
1F
100
AcDbEntity
  8
0-A_文字
  6
Continuous
 62
    92
370
     5
100
AcDbLine
 10
3673.469900035422
 20
340.8513752693925
 30
0.0
 11
3673.469900035422
 21
-3264.079081402567
 31
0.0
  0
LINE
  5
3D8
330
1F
100
AcDbEntity
  8
F-0_補助線
  6
JWW_HOJO
 62
     7
370
     5
100
AcDbLine
 10
1109.918584083291
 20
-3795.000003092998
 30
0.0
 11
1109.918584083291
 21
-4195.000008247994
 31
0.0
  0
LINE
  5
3D9
330
1F
100
AcDbEntity
  8
F-0_補助線
  6
JWW_HOJO
 62
     7
370
     5
100
AcDbLine
 10
4889.917891251785
 20
-3795.000003092998
 30
0.0
 11
4889.917891251785
 21
-4195.000008247994
 31
0.0
  0
MTEXT
  5
3DA
330
1F
100
AcDbEntity
  8
F-0_補助線
  6
Continuous
 62
     7
370
     0
100
AcDbMText
 10
509.9185840832865
 20
-3945.709576962234
 30
0.0
 40
78.58125
 41
412.5
 46
0.0
 71
     7
 72
     1
  1
{\fＭＳ ゴシック|b0|i0|c128|p49;DOORETUS}
 73
     1
 44
1.0
  0
MTEXT
  5
3DB
330
1F
100
AcDbEntity
  8
F-0_補助線
  6
Continuous
 62
     7
370
     0
100
AcDbMText
 10
1109.918584083291
 20
-3945.948259655243
 30
0.0
 40
78.105
 41
615.0
 46
0.0
 71
     7
 72
     1
  1
{\fＭＳ ゴシック|b0|i0|c128|p49;建具納まり図}
 73
     1
 44
1.0
  0
MTEXT
  5
3DC
330
1F
100
AcDbEntity
  8
0-B_寸法
  6
Continuous
 62
     7
370
     0
100
AcDbMText
 10
-2736.440570646245
 20
-980.2702552013945
 30
0.0
 40
91.43999999999986
 41
119.9999999999998
 46
0.0
 71
     7
 72
     1
  1
{\fＭＳ ゴシック|b0|i0|c128|p49;20}
 11
0.9999999999914964
 21
4.124000500689212E-6
 31
0.0
 73
     1
 44
1.0
  0
MTEXT
  5
3DD
330
1F
100
AcDbEntity
  8
F-A_文字
  6
Continuous
 62
     7
370
     0
100
AcDbMText
 10
4889.917891251785
 20
-3945.570773120548
 30
0.0
 40
78.86699999999999
 41
517.5
 46
0.0
 71
     7
 72
     1
  1
{\fＭＳ ゴシック|b0|i0|c128|p49;2024.04.01}
 73
     1
 44
1.0
  0
MTEXT
  5
3DE
330
1F
100
AcDbEntity
  8
0-B_寸法
  6
Continuous
 62
     7
370
   211
100
AcDbMText
 10
-2047.879799117021
 20
2287.665146596496
 30
0.0
 40
91.44
 41
120.0
 46
0.0
 71
     7
 72
     1
  1
{\fＭＳ ゴシック|b0|i0|c128|p49;20}
 11
6.123031769111886E-17
 21
1.0
 31
0.0
 73
     1
 44
1.0
  0
LINE
  5
3DF
330
1F
100
AcDbEntity
  8
0-0_補助線
  6
Continuous
 62
   120
370
     5
100
AcDbLine
 10
-2843.690214024115
 20
2324.359196304034
 30
0.0
 11
-2843.690214024115
 21
2402.688459527219
 31
0.0
  0
LINE
  5
3E0
330
1F
100
AcDbEntity
  8
0-0_補助線
  6
Continuous
 62
   120
370
     5
100
AcDbLine
 10
-2858.690214024115
 20
2324.359196304034
 30
0.0
 11
-2858.690214024115
 21
2402.688459527219
 31
0.0
  0
LWPOLYLINE
  5
3E1
330
1F
100
AcDbEntity
  8
0-B_寸法
  6
Continuous
 62
     7
370
     5
100
AcDbPolyline
 90
        4
 70
     1
 43
3.0
 10
-2031.379799117021
 20
2421.945146596496
 42
0.4142135623731
 10
-2032.879799117021
 20
2423.445146596496
 42
0.4142135623731
 10
-2034.379799117021
 20
2421.945146596496
 42
0.4142135623731
 10
-2032.879799117021
 20
2420.445146596496
 42
0.4142135623731
  0
LINE
  5
3E2
330
1F
100
AcDbEntity
  8
0-0_補助線
  6
JWW_HOJO
 62
     7
370
     5
100
AcDbLine
 10
-2389.940214024115
 20
2439.945146596495
 30
0.0
 11
-2389.940214024115
 21
2280.944503252956
 31
0.0
  0
LINE
  5
3E3
330
1F
100
AcDbEntity
  8
0-0_補助線
  6
JWW_HOJO
 62
     7
370
     5
100
AcDbLine
 10
-2329.940214024115
 20
2439.945146596495
 30
0.0
 11
-2329.940214024115
 21
2280.944503252956
 31
0.0
  0
LINE
  5
3E4
330
1F
100
AcDbEntity
  8
0-6_扉
  6
Continuous
 62
   200
370
     5
100
AcDbLine
 10
-2858.690214024115
 20
2421.945146596496
 30
0.0
 11
-2389.940214024115
 21
2421.945146596496
 31
0.0
  0
LINE
  5
3E5
330
1F
100
AcDbEntity
  8
0-6_扉
  6
Continuous
 62
   200
370
     5
100
AcDbLine
 10
-2329.940214024115
 20
2421.945146596496
 30
0.0
 11
-1861.190214024115
 21
2421.945146596496
 31
0.0
  0
LINE
  5
3E6
330
1F
100
AcDbEntity
  8
0-0_補助線
  6
JWW_HOJO
 62
     7
370
     5
100
AcDbLine
 10
-1386.440214024113
 20
2439.945146596495
 30
0.0
 11
-1386.440214024113
 21
2280.944503252956
 31
0.0
  0
LINE
  5
3E7
330
1F
100
AcDbEntity
  8
0-0_補助線
  6
JWW_HOJO
 62
     7
370
     5
100
AcDbLine
 10
-1326.440214024117
 20
2439.945146596495
 30
0.0
 11
-1326.440214024117
 21
2280.944503252956
 31
0.0
  0
LINE
  5
3E8
330
1F
100
AcDbEntity
  8
0-0_補助線
  6
JWW_HOJO
 62
     7
370
     5
100
AcDbLine
 10
-376.9402140241115
 20
2439.945146596495
 30
0.0
 11
-376.9402140241115
 21
2280.944503252956
 31
0.0
  0
LINE
  5
3E9
330
1F
100
AcDbEntity
  8
0-0_補助線
  6
JWW_HOJO
 62
     7
370
     5
100
AcDbLine
 10
-316.9402140241115
 20
2439.945146596495
 30
0.0
 11
-316.9402140241115
 21
2280.944503252956
 31
0.0
  0
LINE
  5
3EA
330
1F
100
AcDbEntity
  8
0-0_補助線
  6
JWW_HOJO
 62
     7
370
     5
100
AcDbLine
 10
626.5597859758864
 20
2439.945146596495
 30
0.0
 11
626.5597859758864
 21
2280.944503252956
 31
0.0
  0
LINE
  5
3EB
330
1F
100
AcDbEntity
  8
0-0_補助線
  6
JWW_HOJO
 62
     7
370
     5
100
AcDbLine
 10
686.5597859758873
 20
2439.945146596495
 30
0.0
 11
686.5597859758873
 21
2280.944503252956
 31
0.0
  0
LINE
  5
3EC
330
1F
100
AcDbEntity
  8
0-6_扉
  6
Continuous
 62
   200
370
     5
100
AcDbLine
 10
-1855.190214024113
 20
2421.945146596496
 30
0.0
 11
-1386.440214024113
 21
2421.945146596496
 31
0.0
  0
LINE
  5
3ED
330
1F
100
AcDbEntity
  8
0-6_扉
  6
Continuous
 62
   200
370
     5
100
AcDbLine
 10
-1326.440214024117
 20
2421.945146596496
 30
0.0
 11
-857.6902140241134
 21
2421.945146596496
 31
0.0
  0
LINE
  5
3EE
330
1F
100
AcDbEntity
  8
0-6_扉
  6
Continuous
 62
   200
370
     5
100
AcDbLine
 10
-845.6902140241107
 20
2421.945146596496
 30
0.0
 11
-376.9402140241115
 21
2421.945146596496
 31
0.0
  0
LINE
  5
3EF
330
1F
100
AcDbEntity
  8
0-6_扉
  6
Continuous
 62
   200
370
     5
100
AcDbLine
 10
-316.9402140241115
 20
2421.945146596496
 30
0.0
 11
151.8097859758851
 21
2421.945146596496
 31
0.0
  0
LINE
  5
3F0
330
1F
100
AcDbEntity
  8
0-6_扉
  6
Continuous
 62
   200
370
     5
100
AcDbLine
 10
157.8097859758864
 20
2421.945146596496
 30
0.0
 11
626.5597859758864
 21
2421.945146596496
 31
0.0
  0
LINE
  5
3F1
330
1F
100
AcDbEntity
  8
0-6_扉
  6
Continuous
 62
   200
370
     5
100
AcDbLine
 10
686.5597859758873
 20
2421.945146596496
 30
0.0
 11
1155.309785975889
 21
2421.945146596496
 31
0.0
  0
CIRCLE
  5
3F2
330
1F
100
AcDbEntity
  8
0-7_金物
  6
Continuous
 62
     7
370
     5
100
AcDbCircle
 10
-1858.190214024114
 20
2451.945146596472
 30
0.0
 40
21.00000000000001
  0
CIRCLE
  5
3F3
330
1F
100
AcDbEntity
  8
0-7_金物
  6
Continuous
 62
     7
370
     5
100
AcDbCircle
 10
-1858.190214024114
 20
2451.945146596472
 30
0.0
 40
30.0
  0
CIRCLE
  5
3F4
330
1F
100
AcDbEntity
  8
0-7_金物
  6
Continuous
 62
     7
370
     5
100
AcDbCircle
 10
154.8097859758857
 20
2451.945146596472
 30
0.0
 40
21.00000000000001
  0
CIRCLE
  5
3F5
330
1F
100
AcDbEntity
  8
0-7_金物
  6
Continuous
 62
     7
370
     5
100
AcDbCircle
 10
154.8097859758857
 20
2451.945146596472
 30
0.0
 40
30.0
  0
LWPOLYLINE
  5
3F6
330
1F
100
AcDbEntity
  8
0-B_寸法
  6
Continuous
 62
     7
370
     5
100
AcDbPolyline
 90
        4
 70
     1
 43
3.0
 10
-2031.379799117021
 20
2301.945146596496
 42
0.4142135623731
 10
-2032.879799117021
 20
2303.445146596496
 42
0.4142135623731
 10
-2034.379799117021
 20
2301.945146596496
 42
0.4142135623731
 10
-2032.879799117021
 20
2300.445146596496
 42
0.4142135623731
  0
LINE
  5
3F7
330
1F
100
AcDbEntity
  8
0-6_扉
  6
Continuous
 62
   200
370
     5
100
AcDbLine
 10
-2858.690214024115
 20
2301.945146596496
 30
0.0
 11
-2389.940214024115
 21
2301.945146596496
 31
0.0
  0
LINE
  5
3F8
330
1F
100
AcDbEntity
  8
0-6_扉
  6
Continuous
 62
   200
370
     5
100
AcDbLine
 10
-2329.940214024115
 20
2301.945146596496
 30
0.0
 11
-1861.190214024115
 21
2301.945146596496
 31
0.0
  0
LINE
  5
3F9
330
1F
100
AcDbEntity
  8
0-6_扉
  6
Continuous
 62
   200
370
     5
100
AcDbLine
 10
-1855.190214024113
 20
2301.945146596496
 30
0.0
 11
-1386.440214024113
 21
2301.945146596496
 31
0.0
  0
LINE
  5
3FA
330
1F
100
AcDbEntity
  8
0-6_扉
  6
Continuous
 62
   200
370
     5
100
AcDbLine
 10
-1326.440214024117
 20
2301.945146596496
 30
0.0
 11
-857.6902140241134
 21
2301.945146596496
 31
0.0
  0
LINE
  5
3FB
330
1F
100
AcDbEntity
  8
0-6_扉
  6
Continuous
 62
   200
370
     5
100
AcDbLine
 10
-845.6902140241107
 20
2301.945146596496
 30
0.0
 11
-376.9402140241115
 21
2301.945146596496
 31
0.0
  0
LINE
  5
3FC
330
1F
100
AcDbEntity
  8
0-6_扉
  6
Continuous
 62
   200
370
     5
100
AcDbLine
 10
-316.9402140241115
 20
2301.945146596496
 30
0.0
 11
151.8097859758851
 21
2301.945146596496
 31
0.0
  0
LINE
  5
3FD
330
1F
100
AcDbEntity
  8
0-6_扉
  6
Continuous
 62
   200
370
     5
100
AcDbLine
 10
157.8097859758864
 20
2301.945146596496
 30
0.0
 11
626.5597859758864
 21
2301.945146596496
 31
0.0
  0
LINE
  5
3FE
330
1F
100
AcDbEntity
  8
0-6_扉
  6
Continuous
 62
   200
370
     5
100
AcDbLine
 10
686.5597859758873
 20
2301.945146596496
 30
0.0
 11
1155.309785975889
 21
2301.945146596496
 31
0.0
  0
LINE
  5
3FF
330
1F
100
AcDbEntity
  8
0-6_扉
  6
Continuous
 62
   200
370
     5
100
AcDbLine
 10
-2858.690214024115
 20
2421.945146596496
 30
0.0
 11
-2858.690214024115
 21
2301.945146596496
 31
0.0
  0
LINE
  5
400
330
1F
100
AcDbEntity
  8
0-6_扉
  6
Continuous
 62
   200
370
     5
100
AcDbLine
 10
1155.309785975889
 20
2421.945146596496
 30
0.0
 11
1155.309785975889
 21
2301.945146596496
 31
0.0
  0
LINE
  5
401
330
1F
100
AcDbEntity
  8
0-B_寸法
  6
Continuous
 62
   120
370
     5
100
AcDbLine
 10
-2032.879799117021
 20
2421.945146596496
 30
0.0
 11
-2032.879799117021
 21
2301.945146596496
 31
0.0
  0
LINE
  5
402
330
1F
100
AcDbEntity
  8
0-6_扉
  6
Continuous
 62
   200
370
     5
100
AcDbLine
 10
-857.6902140241134
 20
2421.945146596496
 30
0.0
 11
-857.6902140241134
 21
2301.945146596496
 31
0.0
  0
LINE
  5
403
330
1F
100
AcDbEntity
  8
0-6_扉
  6
Continuous
 62
   200
370
     5
100
AcDbLine
 10
-845.6902140241141
 20
2421.945146596496
 30
0.0
 11
-845.6902140241141
 21
2301.945146596496
 31
0.0
  0
LINE
  5
404
330
1F
100
AcDbEntity
  8
0-6_扉
  6
Continuous
 62
   200
370
     5
100
AcDbLine
 10
-1861.190214024115
 20
2421.945146596496
 30
0.0
 11
-1861.190214024115
 21
2301.945146596496
 31
0.0
  0
LINE
  5
405
330
1F
100
AcDbEntity
  8
0-6_扉
  6
Continuous
 62
   200
370
     5
100
AcDbLine
 10
-1855.190214024113
 20
2421.945146596496
 30
0.0
 11
-1855.190214024113
 21
2301.945146596496
 31
0.0
  0
LINE
  5
406
330
1F
100
AcDbEntity
  8
0-6_扉
  6
Continuous
 62
   200
370
     5
100
AcDbLine
 10
157.8097859758864
 20
2421.945146596496
 30
0.0
 11
157.8097859758864
 21
2301.945146596496
 31
0.0
  0
LINE
  5
407
330
1F
100
AcDbEntity
  8
0-6_扉
  6
Continuous
 62
   200
370
     5
100
AcDbLine
 10
151.8097859758851
 20
2421.945146596496
 30
0.0
 11
151.8097859758851
 21
2301.945146596496
 31
0.0
  0
LINE
  5
408
330
1F
100
AcDbEntity
  8
0-B_寸法
  6
Continuous
 62
   120
370
     5
100
AcDbLine
 10
-2612.690016072247
 20
-896.7529430904893
 30
0.0
 11
-2612.690016072247
 21
-980.9898716694614
 31
0.0
  0
LWPOLYLINE
  5
409
330
1F
100
AcDbEntity
  8
0-B_寸法
  6
Continuous
 62
     7
370
     5
100
AcDbPolyline
 90
        4
 70
     1
 43
3.0
 10
-2611.190016072247
 20
-980.9898716694614
 42
0.4142135623731
 10
-2612.690016072247
 20
-979.4898716694615
 42
0.4142135623731
 10
-2614.190016072247
 20
-980.9898716694614
 42
0.4142135623731
 10
-2612.690016072247
 20
-982.4898716694613
 42
0.4142135623731
  0
LINE
  5
40A
330
1F
100
AcDbEntity
  8
0-6_扉
  6
Continuous
 62
   200
370
     5
100
AcDbLine
 10
-2612.690016072247
 20
-1582.000084335741
 30
0.0
 11
-2612.690016072247
 21
-378.9998344215223
 31
0.0
  0
LINE
  5
40B
330
1F
100
AcDbEntity
  8
0-6_扉
  6
Continuous
 62
   200
370
     5
100
AcDbLine
 10
-2612.690016072247
 20
-2995.00033424996
 30
0.0
 11
-2612.690016072247
 21
-1702.000084335741
 31
0.0
  0
LINE
  5
40C
330
1F
100
AcDbEntity
  8
0-B_寸法
  6
Continuous
 62
   120
370
     5
100
AcDbLine
 10
-2732.690016072247
 20
-896.7529430904893
 30
0.0
 11
-2732.690016072247
 21
-980.9898716694614
 31
0.0
  0
LWPOLYLINE
  5
40D
330
1F
100
AcDbEntity
  8
0-B_寸法
  6
Continuous
 62
     7
370
     5
100
AcDbPolyline
 90
        4
 70
     1
 43
3.0
 10
-2731.190016072247
 20
-980.9898716694614
 42
0.4142135623731
 10
-2732.690016072247
 20
-979.4898716694615
 42
0.4142135623731
 10
-2734.190016072247
 20
-980.9898716694614
 42
0.4142135623731
 10
-2732.690016072247
 20
-982.4898716694613
 42
0.4142135623731
  0
LINE
  5
40E
330
1F
100
AcDbEntity
  8
0-6_扉
  6
Continuous
 62
   200
370
     5
100
AcDbLine
 10
-2732.690016072247
 20
-1582.000084335741
 30
0.0
 11
-2732.690016072247
 21
-378.9998344215223
 31
0.0
  0
LINE
  5
40F
330
1F
100
AcDbEntity
  8
0-6_扉
  6
Continuous
 62
   200
370
     5
100
AcDbLine
 10
-2732.690016072247
 20
-2995.00033424996
 30
0.0
 11
-2732.690016072247
 21
-1702.000084335741
 31
0.0
  0
LINE
  5
410
330
1F
100
AcDbEntity
  8
0-6_扉
  6
Continuous
 62
   200
370
     5
100
AcDbLine
 10
-2732.690016072247
 20
-378.9998344215223
 30
0.0
 11
-2612.690016072247
 21
-378.9998344215223
 31
0.0
  0
LINE
  5
411
330
1F
100
AcDbEntity
  8
0-B_寸法
  6
Continuous
 62
   120
370
     5
100
AcDbLine
 10
-2732.690016072247
 20
-980.9898716694614
 30
0.0
 11
-2612.690016072247
 21
-980.9898716694614
 31
0.0
  0
LINE
  5
412
330
1F
100
AcDbEntity
  8
0-6_扉
  6
Continuous
 62
   200
370
     5
100
AcDbLine
 10
-2612.690016072247
 20
-2995.00033424996
 30
0.0
 11
-2732.690016072247
 21
-2995.00033424996
 31
0.0
  0
ENDSEC
  0
SECTION
  2
OBJECTS
  0
DICTIONARY
  5
C
330
0
100
AcDbDictionary
281
     1
  3
ACAD_GROUP
350
D
  3
ACAD_LAYOUT
350
1A
  3
ACAD_MATERIAL
350
3B
  3
ACAD_MLEADERSTYLE
350
43B
  3
ACAD_MLINESTYLE
350
17
  3
ACAD_PLOTSETTINGS
350
19
  3
ACAD_PLOTSTYLENAME
350
E
  3
ACAD_TABLESTYLE
350
43A
  3
ACAD_VISUALSTYLE
350
2A
  0
DICTIONARY
  5
D
102
{ACAD_REACTORS
330
C
102
}
330
C
100
AcDbDictionary
281
     1
  0
DICTIONARY
  5
1A
102
{ACAD_REACTORS
330
C
102
}
330
C
100
AcDbDictionary
281
     1
  3
Layout1
350
1E
  3
Layout2
350
26
  3
Model
350
22
  0
DICTIONARY
  5
3B
102
{ACAD_REACTORS
330
C
102
}
330
C
100
AcDbDictionary
281
     1
  3
ByBlock
350
3D
  3
ByLayer
350
3C
  3
Global
350
3E
  0
DICTIONARY
  5
43B
102
{ACAD_REACTORS
330
C
102
}
330
C
100
AcDbDictionary
281
     1
  0
DICTIONARY
  5
17
102
{ACAD_REACTORS
330
C
102
}
330
C
100
AcDbDictionary
281
     1
  3
Standard
350
18
  0
DICTIONARY
  5
19
102
{ACAD_REACTORS
330
C
102
}
330
C
100
AcDbDictionary
281
     1
  0
ACDBDICTIONARYWDFLT
  5
E
102
{ACAD_REACTORS
330
C
102
}
330
C
100
AcDbDictionary
281
     1
  3
Normal
350
F
100
AcDbDictionaryWithDefault
340
F
  0
DICTIONARY
  5
43A
102
{ACAD_REACTORS
330
C
102
}
330
C
100
AcDbDictionary
281
     1
  0
DICTIONARY
  5
2A
102
{ACAD_REACTORS
330
C
102
}
330
C
100
AcDbDictionary
281
     1
  3
2dWireframe
350
2F
  3
3D Hidden
350
31
  3
3dWireframe
350
30
  3
Basic
350
32
  3
Brighten
350
36
  3
ColorChange
350
3A
  3
Conceptual
350
34
  3
Dim
350
35
  3
Facepattern
350
39
  3
Flat
350
2B
  3
FlatWithEdges
350
2C
  3
Gouraud
350
2D
  3
GouraudWithEdges
350
2E
  3
Linepattern
350
38
  3
Realistic
350
33
  3
Thicken
350
37
  0
LAYOUT
  5
1E
102
{ACAD_REACTORS
330
1A
102
}
330
1A
100
AcDbPlotSettings
  1

  2
none_device
  4

  6

 40
0.0
 41
0.0
 42
0.0
 43
0.0
 44
0.0
 45
0.0
 46
0.0
 47
0.0
 48
0.0
 49
0.0
140
0.0
141
0.0
142
1.0
143
1.0
 70
   688
 72
     0
 73
     0
 74
     5
  7

 75
    16
 76
     0
 77
     5
 78
   300
147
1.0
148
0.0
149
0.0
100
AcDbLayout
  1
Layout1
 70
     1
 71
     1
 10
0.0
 20
0.0
 11
420.0
 21
297.0
 12
0.0
 22
0.0
 32
0.0
 14
1.000000000000000E+20
 24
1.000000000000000E+20
 34
1.000000000000000E+20
 15
-1.000000000000000E+20
 25
-1.000000000000000E+20
 35
-1.000000000000000E+20
146
0.0
 13
0.0
 23
0.0
 33
0.0
 16
1.0
 26
0.0
 36
0.0
 17
0.0
 27
1.0
 37
0.0
 76
     0
330
1B
  0
LAYOUT
  5
26
102
{ACAD_REACTORS
330
1A
102
}
330
1A
100
AcDbPlotSettings
  1

  2
none_device
  4

  6

 40
0.0
 41
0.0
 42
0.0
 43
0.0
 44
0.0
 45
0.0
 46
0.0
 47
0.0
 48
0.0
 49
0.0
140
0.0
141
0.0
142
1.0
143
1.0
 70
   688
 72
     0
 73
     0
 74
     5
  7

 75
    16
 76
     0
 77
     5
 78
   300
147
1.0
148
0.0
149
0.0
100
AcDbLayout
  1
Layout2
 70
     1
 71
     2
 10
0.0
 20
0.0
 11
0.0
 21
0.0
 12
0.0
 22
0.0
 32
0.0
 14
0.0
 24
0.0
 34
0.0
 15
0.0
 25
0.0
 35
0.0
146
0.0
 13
0.0
 23
0.0
 33
0.0
 16
1.0
 26
0.0
 36
0.0
 17
0.0
 27
1.0
 37
0.0
 76
     0
330
23
  0
LAYOUT
  5
22
102
{ACAD_REACTORS
330
1A
102
}
330
1A
100
AcDbPlotSettings
  1

  2
none_device
  4

  6

 40
0.0
 41
0.0
 42
0.0
 43
0.0
 44
0.0
 45
0.0
 46
0.0
 47
0.0
 48
0.0
 49
0.0
140
0.0
141
0.0
142
1.0
143
1.0
 70
  1712
 72
     0
 73
     0
 74
     0
  7

 75
     0
 76
     0
 77
     5
 78
   300
147
1.0
148
0.0
149
0.0
100
AcDbLayout
  1
Model
 70
     1
 71
     0
 10
-6300.0
 20
-4455.0
 11
6300.0
 21
4455.0
 12
0.0
 22
0.0
 32
0.0
 14
-6300.0
 24
-4455.0
 34
0.0
 15
6300.0
 25
4455.0
 35
0.0
146
0.0
 13
0.0
 23
0.0
 33
0.0
 16
1.0
 26
0.0
 36
0.0
 17
0.0
 27
1.0
 37
0.0
 76
     0
330
1F
331
29
  0
MATERIAL
  5
3D
102
{ACAD_REACTORS
330
3B
102
}
330
3B
100
AcDbMaterial
  1
ByBlock
 72
     1
 94
      127
  0
MATERIAL
  5
3C
102
{ACAD_REACTORS
330
3B
102
}
330
3B
100
AcDbMaterial
  1
ByLayer
 72
     1
 94
      127
  0
MATERIAL
  5
3E
102
{ACAD_REACTORS
330
3B
102
}
330
3B
100
AcDbMaterial
  1
Global
 72
     1
 94
      127
  0
MLINESTYLE
  5
18
102
{ACAD_REACTORS
330
17
102
}
330
17
100
AcDbMlineStyle
  2
Standard
 70
     0
  3

 62
   256
 51
90.0
 52
90.0
 71
     2
 49
0.5
 62
   256
  6
BYLAYER
 49
-0.5
 62
   256
  6
BYLAYER
  0
ACDBPLACEHOLDER
  5
F
102
{ACAD_REACTORS
330
E
102
}
330
E
  0
VISUALSTYLE
  5
2F
102
{ACAD_REACTORS
330
2A
102
}
330
2A
100
AcDbVisualStyle
  2
2dWireframe
 70
     4
177
     2
291
     0
 71
     0
176
     1
 72
     2
176
     1
 73
     0
176
     1
 90
        0
176
     1
 40
-0.6
176
     1
 41
-30.0
176
     1
 62
     5
 63
     7
421
 16777215
176
     1
 74
     1
176
     1
 91
        4
176
     1
 64
     7
176
     1
 65
   257
176
     1
 75
     1
176
     1
175
     1
176
     1
 42
1.0
176
     1
 92
        0
176
     1
 66
   257
176
     1
 43
1.0
176
     1
 76
     1
176
     1
 77
     6
176
     1
 78
     2
176
     1
 67
     7
176
     1
 79
     5
176
     1
170
     0
176
     1
171
     0
176
     1
290
     0
176
     1
 93
        1
176
     1
 44
0.0
176
     1
173
     0
176
     1
  0
VISUALSTYLE
  5
31
102
{ACAD_REACTORS
330
2A
102
}
330
2A
100
AcDbVisualStyle
  2
3D Hidden
 70
     6
177
     2
291
     0
 71
     1
176
     1
 72
     2
176
     1
 73
     2
176
     1
 90
        0
176
     1
 40
-0.6
176
     1
 41
-30.0
176
     1
 62
     5
 63
     7
421
 16777215
176
     1
 74
     2
176
     1
 91
        2
176
     1
 64
     7
176
     1
 65
   257
176
     1
 75
     2
176
     1
175
     1
176
     1
 42
40.0
176
     1
 92
        0
176
     1
 66
   257
176
     1
 43
1.0
176
     1
 76
     1
176
     1
 77
     6
176
     1
 78
     2
176
     1
 67
     7
176
     1
 79
     3
176
     1
170
     0
176
     1
171
     0
176
     1
290
     0
176
     1
 93
        1
176
     1
 44
0.0
176
     1
173
     0
176
     1
  0
VISUALSTYLE
  5
30
102
{ACAD_REACTORS
330
2A
102
}
330
2A
100
AcDbVisualStyle
  2
3dWireframe
 70
     5
177
     2
291
     0
 71
     0
176
     1
 72
     2
176
     1
 73
     0
176
     1
 90
        0
176
     1
 40
-0.6
176
     1
 41
-30.0
176
     1
 62
     5
 63
     7
421
 16777215
176
     1
 74
     1
176
     1
 91
        4
176
     1
 64
     7
176
     1
 65
   257
176
     1
 75
     1
176
     1
175
     1
176
     1
 42
1.0
176
     1
 92
        0
176
     1
 66
   257
176
     1
 43
1.0
176
     1
 76
     1
176
     1
 77
     6
176
     1
 78
     2
176
     1
 67
     7
176
     1
 79
     5
176
     1
170
     0
176
     1
171
     0
176
     1
290
     0
176
     1
 93
        1
176
     1
 44
0.0
176
     1
173
     0
176
     1
  0
VISUALSTYLE
  5
32
102
{ACAD_REACTORS
330
2A
102
}
330
2A
100
AcDbVisualStyle
  2
Basic
 70
     7
177
     2
291
     1
 71
     1
176
     1
 72
     0
176
     1
 73
     1
176
     1
 90
        0
176
     1
 40
-0.6
176
     1
 41
-30.0
176
     1
 62
     5
 63
     7
421
 16777215
176
     1
 74
     0
176
     1
 91
        4
176
     1
 64
     7
176
     1
 65
   257
176
     1
 75
     1
176
     1
175
     1
176
     1
 42
1.0
176
     1
 92
        8
176
     1
 66
     7
176
     1
 43
1.0
176
     1
 76
     1
176
     1
 77
     6
176
     1
 78
     2
176
     1
 67
     7
176
     1
 79
     5
176
     1
170
     0
176
     1
171
     0
176
     1
290
     0
176
     1
 93
        1
176
     1
 44
0.0
176
     1
173
     0
176
     1
  0
VISUALSTYLE
  5
36
102
{ACAD_REACTORS
330
2A
102
}
330
2A
100
AcDbVisualStyle
  2
Brighten
 70
    12
177
     2
291
     1
 71
     2
176
     1
 72
     2
176
     1
 73
     0
176
     1
 90
        0
176
     1
 40
-0.6
176
     1
 41
-30.0
176
     1
 62
     5
 63
     7
421
 16777215
176
     1
 74
     1
176
     1
 91
        4
176
     1
 64
     7
176
     1
 65
   257
176
     1
 75
     1
176
     1
175
     1
176
     1
 42
1.0
176
     1
 92
        8
176
     1
 66
     7
176
     1
 43
1.0
176
     1
 76
     1
176
     1
 77
     6
176
     1
 78
     2
176
     1
 67
     7
176
     1
 79
     5
176
     1
170
     0
176
     1
171
     0
176
     1
290
     0
176
     1
 93
        1
176
     1
 44
50.0
176
     1
173
     0
176
     1
  0
VISUALSTYLE
  5
3A
102
{ACAD_REACTORS
330
2A
102
}
330
2A
100
AcDbVisualStyle
  2
ColorChange
 70
    16
177
     2
291
     1
 71
     2
176
     1
 72
     2
176
     1
 73
     3
176
     1
 90
        0
176
     1
 40
-0.6
176
     1
 41
-30.0
176
     1
 62
     5
 63
     8
421
  8421504
176
     1
 74
     1
176
     1
 91
        4
176
     1
 64
     7
176
     1
 65
   257
176
     1
 75
     1
176
     1
175
     1
176
     1
 42
1.0
176
     1
 92
        8
176
     1
 66
     8
424
  8421504
176
     1
 43
1.0
176
     1
 76
     1
176
     1
 77
     6
176
     1
 78
     2
176
     1
 67
     7
176
     1
 79
     5
176
     1
170
     0
176
     1
171
     0
176
     1
290
     0
176
     1
 93
        1
176
     1
 44
0.0
176
     1
173
     0
176
     1
  0
VISUALSTYLE
  5
34
102
{ACAD_REACTORS
330
2A
102
}
330
2A
100
AcDbVisualStyle
  2
Conceptual
 70
     9
177
     2
291
     0
 71
     3
176
     1
 72
     2
176
     1
 73
     0
176
     1
 90
        0
176
     1
 40
-0.6
176
     1
 41
-30.0
176
     1
 62
     5
 63
     7
421
 16777215
176
     1
 74
     2
176
     1
 91
        2
176
     1
 64
     7
176
     1
 65
   257
176
     1
 75
     1
176
     1
175
     1
176
     1
 42
40.0
176
     1
 92
        8
176
     1
 66
     7
176
     1
 43
1.0
176
     1
 76
     1
176
     1
 77
     6
176
     1
 78
     2
176
     1
 67
     7
176
     1
 79
     3
176
     1
170
     0
176
     1
171
     0
176
     1
290
     0
176
     1
 93
        1
176
     1
 44
0.0
176
     1
173
     0
176
     1
  0
VISUALSTYLE
  5
35
102
{ACAD_REACTORS
330
2A
102
}
330
2A
100
AcDbVisualStyle
  2
Dim
 70
    11
177
     2
291
     1
 71
     2
176
     1
 72
     2
176
     1
 73
     0
176
     1
 90
        0
176
     1
 40
-0.6
176
     1
 41
-30.0
176
     1
 62
     5
 63
     7
421
 16777215
176
     1
 74
     1
176
     1
 91
        4
176
     1
 64
     7
176
     1
 65
   257
176
     1
 75
     1
176
     1
175
     1
176
     1
 42
1.0
176
     1
 92
        8
176
     1
 66
     7
176
     1
 43
1.0
176
     1
 76
     1
176
     1
 77
     6
176
     1
 78
     2
176
     1
 67
     7
176
     1
 79
     5
176
     1
170
     0
176
     1
171
     0
176
     1
290
     0
176
     1
 93
        1
176
     1
 44
-50.0
176
     1
173
     0
176
     1
  0
VISUALSTYLE
  5
39
102
{ACAD_REACTORS
330
2A
102
}
330
2A
100
AcDbVisualStyle
  2
Facepattern
 70
    15
177
     2
291
     1
 71
     2
176
     1
 72
     2
176
     1
 73
     0
176
     1
 90
        0
176
     1
 40
-0.6
176
     1
 41
-30.0
176
     1
 62
     5
 63
     7
421
 16777215
176
     1
 74
     1
176
     1
 91
        4
176
     1
 64
     7
176
     1
 65
   257
176
     1
 75
     1
176
     1
175
     1
176
     1
 42
1.0
176
     1
 92
        8
176
     1
 66
     7
176
     1
 43
1.0
176
     1
 76
     1
176
     1
 77
     6
176
     1
 78
     2
176
     1
 67
     7
176
     1
 79
     5
176
     1
170
     0
176
     1
171
     0
176
     1
290
     0
176
     1
 93
        1
176
     1
 44
0.0
176
     1
173
     0
176
     1
  0
VISUALSTYLE
  5
2B
102
{ACAD_REACTORS
330
2A
102
}
330
2A
100
AcDbVisualStyle
  2
Flat
 70
     0
177
     2
291
     1
 71
     2
176
     1
 72
     1
176
     1
 73
     1
176
     1
 90
        2
176
     1
 40
-0.6
176
     1
 41
30.0
176
     1
 62
     5
 63
     7
421
 16777215
176
     1
 74
     0
176
     1
 91
        4
176
     1
 64
     7
176
     1
 65
   257
176
     1
 75
     1
176
     1
175
     1
176
     1
 42
1.0
176
     1
 92
        8
176
     1
 66
     7
176
     1
 43
1.0
176
     1
 76
     1
176
     1
 77
     6
176
     1
 78
     2
176
     1
 67
     7
176
     1
 79
     5
176
     1
170
     0
176
     1
171
     0
176
     1
290
     0
176
     1
 93
       13
176
     1
 44
0.0
176
     1
173
     0
176
     1
  0
VISUALSTYLE
  5
2C
102
{ACAD_REACTORS
330
2A
102
}
330
2A
100
AcDbVisualStyle
  2
FlatWithEdges
 70
     1
177
     2
291
     1
 71
     2
176
     1
 72
     1
176
     1
 73
     1
176
     1
 90
        2
176
     1
 40
-0.6
176
     1
 41
30.0
176
     1
 62
     5
 63
     7
421
 16777215
176
     1
 74
     1
176
     1
 91
        4
176
     1
 64
     7
176
     1
 65
   257
176
     1
 75
     1
176
     1
175
     1
176
     1
 42
1.0
176
     1
 92
        0
176
     1
 66
   257
176
     1
 43
1.0
176
     1
 76
     1
176
     1
 77
     6
176
     1
 78
     2
176
     1
 67
     7
176
     1
 79
     5
176
     1
170
     0
176
     1
171
     0
176
     1
290
     0
176
     1
 93
       13
176
     1
 44
0.0
176
     1
173
     0
176
     1
  0
VISUALSTYLE
  5
2D
102
{ACAD_REACTORS
330
2A
102
}
330
2A
100
AcDbVisualStyle
  2
Gouraud
 70
     2
177
     2
291
     1
 71
     2
176
     1
 72
     2
176
     1
 73
     1
176
     1
 90
        2
176
     1
 40
-0.6
176
     1
 41
30.0
176
     1
 62
     5
 63
     7
421
 16777215
176
     1
 74
     0
176
     1
 91
        4
176
     1
 64
     7
176
     1
 65
   257
176
     1
 75
     1
176
     1
175
     1
176
     1
 42
1.0
176
     1
 92
        0
176
     1
 66
     7
176
     1
 43
1.0
176
     1
 76
     1
176
     1
 77
     6
176
     1
 78
     2
176
     1
 67
     7
176
     1
 79
     5
176
     1
170
     0
176
     1
171
     0
176
     1
290
     0
176
     1
 93
       13
176
     1
 44
0.0
176
     1
173
     0
176
     1
  0
VISUALSTYLE
  5
2E
102
{ACAD_REACTORS
330
2A
102
}
330
2A
100
AcDbVisualStyle
  2
GouraudWithEdges
 70
     3
177
     2
291
     1
 71
     2
176
     1
 72
     2
176
     1
 73
     1
176
     1
 90
        2
176
     1
 40
-0.6
176
     1
 41
30.0
176
     1
 62
     5
 63
     7
421
 16777215
176
     1
 74
     1
176
     1
 91
        4
176
     1
 64
     7
176
     1
 65
   257
176
     1
 75
     1
176
     1
175
     1
176
     1
 42
1.0
176
     1
 92
        0
176
     1
 66
   257
176
     1
 43
1.0
176
     1
 76
     1
176
     1
 77
     6
176
     1
 78
     2
176
     1
 67
     7
176
     1
 79
     5
176
     1
170
     0
176
     1
171
     0
176
     1
290
     0
176
     1
 93
       13
176
     1
 44
0.0
176
     1
173
     0
176
     1
  0
VISUALSTYLE
  5
38
102
{ACAD_REACTORS
330
2A
102
}
330
2A
100
AcDbVisualStyle
  2
Linepattern
 70
    14
177
     2
291
     1
 71
     2
176
     1
 72
     2
176
     1
 73
     0
176
     1
 90
        0
176
     1
 40
-0.6
176
     1
 41
-30.0
176
     1
 62
     5
 63
     7
421
 16777215
176
     1
 74
     1
176
     1
 91
        4
176
     1
 64
     7
176
     1
 65
   257
176
     1
 75
     7
176
     1
175
     7
176
     1
 42
1.0
176
     1
 92
        8
176
     1
 66
     7
176
     1
 43
1.0
176
     1
 76
     1
176
     1
 77
     6
176
     1
 78
     2
176
     1
 67
     7
176
     1
 79
     5
176
     1
170
     0
176
     1
171
     0
176
     1
290
     0
176
     1
 93
        1
176
     1
 44
0.0
176
     1
173
     0
176
     1
  0
VISUALSTYLE
  5
33
102
{ACAD_REACTORS
330
2A
102
}
330
2A
100
AcDbVisualStyle
  2
Realistic
 70
     8
177
     2
291
     0
 71
     2
176
     1
 72
     2
176
     1
 73
     0
176
     1
 90
        0
176
     1
 40
-0.6
176
     1
 41
-30.0
176
     1
 62
     5
 63
     7
421
 16777215
176
     1
 74
     1
176
     1
 91
        0
176
     1
 64
     7
176
     1
 65
   257
176
     1
 75
     1
176
     1
175
     1
176
     1
 42
1.0
176
     1
 92
        8
176
     1
 66
     8
424
  7895160
176
     1
 43
1.0
176
     1
 76
     1
176
     1
 77
     6
176
     1
 78
     2
176
     1
 67
     7
176
     1
 79
     5
176
     1
170
     0
176
     1
171
     0
176
     1
290
     0
176
     1
 93
       13
176
     1
 44
0.0
176
     1
173
     0
176
     1
  0
VISUALSTYLE
  5
37
102
{ACAD_REACTORS
330
2A
102
}
330
2A
100
AcDbVisualStyle
  2
Thicken
 70
    13
177
     2
291
     1
 71
     2
176
     1
 72
     2
176
     1
 73
     0
176
     1
 90
        0
176
     1
 40
-0.6
176
     1
 41
-30.0
176
     1
 62
     5
 63
     7
421
 16777215
176
     1
 74
     1
176
     1
 91
        4
176
     1
 64
     7
176
     1
 65
   257
176
     1
 75
     1
176
     1
175
     1
176
     1
 42
1.0
176
     1
 92
       12
176
     1
 66
     7
176
     1
 43
1.0
176
     1
 76
     1
176
     1
 77
     6
176
     1
 78
     2
176
     1
 67
     7
176
     1
 79
     5
176
     1
170
     0
176
     1
171
     0
176
     1
290
     0
176
     1
 93
        1
176
     1
 44
0.0
176
     1
173
     0
176
     1
  0
ENDSEC
  0
EOF
