  0
SECTION
  2
HEADER
  9
$ACADVER
  1
AC1024
  9
$ACADMAINTVER
 70
     6
  9
$DWGCODEPAGE
  3
ANSI_932
  9
$INSBASE
 10
0.0
 20
0.0
 30
0.0
  9
$EXTMIN
 10
-6300.0
 20
-4455.0
 30
0.0
  9
$EXTMAX
 10
6300.0
 20
4455.0
 30
0.0
  9
$LIMMIN
 10
-6300.0
 20
-4455.0
  9
$LIMMAX
 10
6300.0
 20
4455.0
  9
$ORTHOMODE
 70
     0
  9
$REGENMODE
 70
     1
  9
$FILLMODE
 70
     1
  9
$QTEXTMODE
 70
     0
  9
$MIRRTEXT
 70
     1
  9
$LTSCALE
 40
30.0
  9
$ATTMODE
 70
     1
  9
$TEXTSIZE
 40
2.5
  9
$TRACEWID
 40
1.0
  9
$TEXTSTYLE
  7
Standard
  9
$CLAYER
  8
0
  9
$CELTYPE
  6
ByLayer
  9
$CECOLOR
 62
   256
  9
$CELTSCALE
 40
1.0
  9
$DISPSILH
 70
     0
  9
$DIMSCALE
 40
1.0
  9
$DIMASZ
 40
2.5
  9
$DIMEXO
 40
0.625
  9
$DIMDLI
 40
3.75
  9
$DIMRND
 40
0.0
  9
$DIMDLE
 40
0.0
  9
$DIMEXE
 40
1.25
  9
$DIMTP
 40
0.0
  9
$DIMTM
 40
0.0
  9
$DIMTXT
 40
2.5
  9
$DIMCEN
 40
2.5
  9
$DIMTSZ
 40
0.0
  9
$DIMTOL
 70
     0
  9
$DIMLIM
 70
     0
  9
$DIMTIH
 70
     0
  9
$DIMTOH
 70
     0
  9
$DIMSE1
 70
     0
  9
$DIMSE2
 70
     0
  9
$DIMTAD
 70
     1
  9
$DIMZIN
 70
     8
  9
$DIMBLK
  1

  9
$DIMASO
 70
     1
  9
$DIMSHO
 70
     1
  9
$DIMPOST
  1

  9
$DIMAPOST
  1

  9
$DIMALT
 70
     0
  9
$DIMALTD
 70
     3
  9
$DIMALTF
 40
0.03937007874016
  9
$DIMLFAC
 40
1.0
  9
$DIMTOFL
 70
     1
  9
$DIMTVP
 40
0.0
  9
$DIMTIX
 70
     0
  9
$DIMSOXD
 70
     0
  9
$DIMSAH
 70
     0
  9
$DIMBLK1
  1

  9
$DIMBLK2
  1

  9
$DIMSTYLE
  2
ISO-25
  9
$DIMCLRD
 70
     0
  9
$DIMCLRE
 70
     0
  9
$DIMCLRT
 70
     0
  9
$DIMTFAC
 40
1.0
  9
$DIMGAP
 40
0.625
  9
$DIMJUST
 70
     0
  9
$DIMSD1
 70
     0
  9
$DIMSD2
 70
     0
  9
$DIMTOLJ
 70
     0
  9
$DIMTZIN
 70
     8
  9
$DIMALTZ
 70
     0
  9
$DIMALTTZ
 70
     0
  9
$DIMUPT
 70
     0
  9
$DIMDEC
 70
     2
  9
$DIMTDEC
 70
     2
  9
$DIMALTU
 70
     2
  9
$DIMALTTD
 70
     3
  9
$DIMTXSTY
  7
Standard
  9
$DIMAUNIT
 70
     0
  9
$DIMADEC
 70
     0
  9
$DIMALTRND
 40
0.0
  9
$DIMAZIN
 70
     0
  9
$DIMDSEP
 70
    44
  9
$DIMATFIT
 70
     3
  9
$DIMFRAC
 70
     0
  9
$DIMLDRBLK
  1

  9
$DIMLUNIT
 70
     2
  9
$DIMLWD
 70
    -2
  9
$DIMLWE
 70
    -2
  9
$DIMTMOVE
 70
     0
  9
$DIMFXL
 40
1.0
  9
$DIMFXLON
 70
     0
  9
$DIMJOGANG
 40
0.7853981633974483
  9
$DIMTFILL
 70
     0
  9
$DIMTFILLCLR
 70
     0
  9
$DIMARCSYM
 70
     0
  9
$DIMLTYPE
  6

  9
$DIMLTEX1
  6

  9
$DIMLTEX2
  6

  9
$DIMTXTDIRECTION
 70
     0
  9
$LUNITS
 70
     2
  9
$LUPREC
 70
     4
  9
$SKETCHINC
 40
1.0
  9
$FILLETRAD
 40
10.0
  9
$AUNITS
 70
     0
  9
$AUPREC
 70
     0
  9
$MENU
  1
.
  9
$ELEVATION
 40
0.0
  9
$PELEVATION
 40
0.0
  9
$THICKNESS
 40
0.0
  9
$LIMCHECK
 70
     0
  9
$CHAMFERA
 40
10.0
  9
$CHAMFERB
 40
10.0
  9
$CHAMFERC
 40
20.0
  9
$CHAMFERD
 40
0.0
  9
$SKPOLY
 70
     0
  9
$TDCREATE
 40
2460327.684658657
  9
$TDUCREATE
 40
2460327.309658657
  9
$TDUPDATE
 40
2460327.684658669
  9
$TDUUPDATE
 40
2460327.309658669
  9
$TDINDWG
 40
0.0000000116
  9
$TDUSRTIMER
 40
0.0000000116
  9
$USRTIMER
 70
     1
  9
$ANGBASE
 50
0.0
  9
$ANGDIR
 70
     0
  9
$PDMODE
 70
     0
  9
$PDSIZE
 40
0.0
  9
$PLINEWID
 40
0.0
  9
$SPLFRAME
 70
     0
  9
$SPLINETYPE
 70
     6
  9
$SPLINESEGS
 70
     8
  9
$HANDSEED
  5
495
  9
$SURFTAB1
 70
     6
  9
$SURFTAB2
 70
     6
  9
$SURFTYPE
 70
     6
  9
$SURFU
 70
     6
  9
$SURFV
 70
     6
  9
$UCSBASE
  2

  9
$UCSNAME
  2

  9
$UCSORG
 10
0.0
 20
0.0
 30
0.0
  9
$UCSXDIR
 10
1.0
 20
0.0
 30
0.0
  9
$UCSYDIR
 10
0.0
 20
1.0
 30
0.0
  9
$UCSORTHOREF
  2

  9
$UCSORTHOVIEW
 70
     0
  9
$UCSORGTOP
 10
0.0
 20
0.0
 30
0.0
  9
$UCSORGBOTTOM
 10
0.0
 20
0.0
 30
0.0
  9
$UCSORGLEFT
 10
0.0
 20
0.0
 30
0.0
  9
$UCSORGRIGHT
 10
0.0
 20
0.0
 30
0.0
  9
$UCSORGFRONT
 10
0.0
 20
0.0
 30
0.0
  9
$UCSORGBACK
 10
0.0
 20
0.0
 30
0.0
  9
$PUCSBASE
  2

  9
$PUCSNAME
  2

  9
$PUCSORG
 10
0.0
 20
0.0
 30
0.0
  9
$PUCSXDIR
 10
1.0
 20
0.0
 30
0.0
  9
$PUCSYDIR
 10
0.0
 20
1.0
 30
0.0
  9
$PUCSORTHOREF
  2

  9
$PUCSORTHOVIEW
 70
     0
  9
$PUCSORGTOP
 10
0.0
 20
0.0
 30
0.0
  9
$PUCSORGBOTTOM
 10
0.0
 20
0.0
 30
0.0
  9
$PUCSORGLEFT
 10
0.0
 20
0.0
 30
0.0
  9
$PUCSORGRIGHT
 10
0.0
 20
0.0
 30
0.0
  9
$PUCSORGFRONT
 10
0.0
 20
0.0
 30
0.0
  9
$PUCSORGBACK
 10
0.0
 20
0.0
 30
0.0
  9
$USERI1
 70
     0
  9
$USERI2
 70
     0
  9
$USERI3
 70
     0
  9
$USERI4
 70
     0
  9
$USERI5
 70
     0
  9
$USERR1
 40
0.0
  9
$USERR2
 40
0.0
  9
$USERR3
 40
0.0
  9
$USERR4
 40
0.0
  9
$USERR5
 40
0.0
  9
$WORLDVIEW
 70
     1
  9
$SHADEDGE
 70
     3
  9
$SHADEDIF
 70
    70
  9
$TILEMODE
 70
     1
  9
$MAXACTVP
 70
    64
  9
$PINSBASE
 10
0.0
 20
0.0
 30
0.0
  9
$PLIMCHECK
 70
     0
  9
$PEXTMIN
 10
1.000000000000000E+20
 20
1.000000000000000E+20
 30
1.000000000000000E+20
  9
$PEXTMAX
 10
-1.000000000000000E+20
 20
-1.000000000000000E+20
 30
-1.000000000000000E+20
  9
$PLIMMIN
 10
0.0
 20
0.0
  9
$PLIMMAX
 10
420.0
 20
297.0
  9
$UNITMODE
 70
     0
  9
$VISRETAIN
 70
     1
  9
$PLINEGEN
 70
     0
  9
$PSLTSCALE
 70
     1
  9
$TREEDEPTH
 70
  3020
  9
$CMLSTYLE
  2
Standard
  9
$CMLJUST
 70
     0
  9
$CMLSCALE
 40
20.0
  9
$PROXYGRAPHICS
 70
     1
  9
$MEASUREMENT
 70
     1
  9
$CELWEIGHT
370
    -1
  9
$ENDCAPS
280
     0
  9
$JOINSTYLE
280
     0
  9
$LWDISPLAY
290
     0
  9
$INSUNITS
 70
     4
  9
$HYPERLINKBASE
  1

  9
$STYLESHEET
  1

  9
$XEDIT
290
     1
  9
$CEPSNTYPE
380
     0
  9
$PSTYLEMODE
290
     1
  9
$FINGERPRINTGUID
  2
{DA4B8AB8-C270-4481-BD35-E292164D56C7}
  9
$VERSIONGUID
  2
{FAEB1C32-E019-11D5-929B-00C0DF256EC4}
  9
$EXTNAMES
290
     1
  9
$PSVPSCALE
 40
0.0
  9
$OLESTARTUP
290
     0
  9
$SORTENTS
280
   127
  9
$INDEXCTL
280
     0
  9
$HIDETEXT
280
     1
  9
$XCLIPFRAME
280
     2
  9
$HALOGAP
280
     0
  9
$OBSCOLOR
 70
   257
  9
$OBSLTYPE
280
     0
  9
$INTERSECTIONDISPLAY
280
     0
  9
$INTERSECTIONCOLOR
 70
   257
  9
$DIMASSOC
280
     2
  9
$PROJECTNAME
  1

  9
$CAMERADISPLAY
290
     0
  9
$LENSLENGTH
 40
50.0
  9
$CAMERAHEIGHT
 40
0.0
  9
$STEPSPERSEC
 40
2.0
  9
$STEPSIZE
 40
6.0
  9
$3DDWFPREC
 40
2.0
  9
$PSOLWIDTH
 40
5.0
  9
$PSOLHEIGHT
 40
80.0
  9
$LOFTANG1
 40
1.570796326794897
  9
$LOFTANG2
 40
1.570796326794897
  9
$LOFTMAG1
 40
0.0
  9
$LOFTMAG2
 40
0.0
  9
$LOFTPARAM
 70
     7
  9
$LOFTNORMALS
280
     1
  9
$LATITUDE
 40
37.795
  9
$LONGITUDE
 40
-122.394
  9
$NORTHDIRECTION
 40
0.0
  9
$TIMEZONE
 70
 -8000
  9
$LIGHTGLYPHDISPLAY
280
     1
  9
$TILEMODELIGHTSYNCH
280
     1
  9
$SOLIDHIST
280
     1
  9
$SHOWHIST
280
     1
  9
$DWFFRAME
280
     2
  9
$DGNFRAME
280
     2
  9
$REALWORLDSCALE
290
     1
  9
$INTERFERECOLOR
 62
   256
  9
$CSHADOW
280
     0
  9
$SHADOWPLANELOCATION
 40
0.0
  0
ENDSEC
  0
SECTION
  2
CLASSES
  0
CLASS
  1
ACDBDICTIONARYWDFLT
  2
AcDbDictionaryWithDefault
  3
ObjectDBX Classes
 90
        0
 91
        4
280
     0
281
     0
  0
CLASS
  1
VISUALSTYLE
  2
AcDbVisualStyle
  3
ObjectDBX Classes
 90
     4095
 91
        4
280
     0
281
     0
  0
CLASS
  1
MATERIAL
  2
AcDbMaterial
  3
ObjectDBX Classes
 90
     1153
 91
        4
280
     0
281
     0
  0
ENDSEC
  0
SECTION
  2
TABLES
  0
TABLE
  2
VPORT
  5
8
330
0
100
AcDbSymbolTable
 70
     1
  0
VPORT
  5
29
330
8
100
AcDbSymbolTableRecord
100
AcDbViewportTableRecord
  2
*Active
 70
     0
 10
0.0
 20
0.0
 11
1.0
 21
1.0
 12
0.0
 22
0.0
 13
0.0
 23
0.0
 14
10.0
 24
10.0
 15
10.0
 25
10.0
 16
0.0
 26
0.0
 36
1.0
 17
0.0
 27
0.0
 37
0.0
 40
9801.0
 41
1.414141414141414
 42
50.0
 43
0.0
 44
0.0
 50
0.0
 51
0.0
 71
     0
 72
 10000
 73
     1
 74
     3
 75
     0
 76
     0
 77
     0
 78
     0
281
     0
 65
     1
110
0.0
120
0.0
130
0.0
111
1.0
121
0.0
131
0.0
112
0.0
122
1.0
132
0.0
 79
     0
146
0.0
 60
     3
 61
     5
292
     1
282
     1
141
0.0
142
0.0
 63
   250
  0
ENDTAB
  0
TABLE
  2
LTYPE
  5
5
330
0
100
AcDbSymbolTable
 70
     5
  0
LTYPE
  5
14
330
5
100
AcDbSymbolTableRecord
100
AcDbLinetypeTableRecord
  2
ByBlock
 70
     0
  3

 72
    65
 73
     0
 40
0.0
  0
LTYPE
  5
15
330
5
100
AcDbSymbolTableRecord
100
AcDbLinetypeTableRecord
  2
ByLayer
 70
     0
  3

 72
    65
 73
     0
 40
0.0
  0
LTYPE
  5
16
330
5
100
AcDbSymbolTableRecord
100
AcDbLinetypeTableRecord
  2
Continuous
 70
     0
  3
Solid line
 72
    65
 73
     0
 40
0.0
  0
LTYPE
  5
3F
330
5
100
AcDbSymbolTableRecord
100
AcDbLinetypeTableRecord
  2
JWW_HOJO
 70
     0
  3
  -   -   -   -   -   -   -   - 
 72
    65
 73
     2
 40
1.693333333333333
 49
-1.27
 74
     0
 49
0.4233333333333333
 74
     0
  0
LTYPE
  5
40
330
5
100
AcDbSymbolTableRecord
100
AcDbLinetypeTableRecord
  2
JWW_DASHED2
 70
     0
  3
--    ----    ----    ----    --
 72
    65
 73
     2
 40
3.386666666666667
 49
1.693333333333333
 74
     0
 49
-1.693333333333333
 74
     0
  0
LTYPE
  5
41
330
5
100
AcDbSymbolTableRecord
100
AcDbLinetypeTableRecord
  2
JWW_CENTER1
 70
     0
  3
-----  --  ----------  --  -----
 72
    65
 73
     4
 40
6.773333333333333
 49
4.233333333333333
 74
     0
 49
-0.8466666666666667
 74
     0
 49
0.8466666666666667
 74
     0
 49
-0.8466666666666667
 74
     0
  0
LTYPE
  5
42
330
5
100
AcDbSymbolTableRecord
100
AcDbLinetypeTableRecord
  2
JWW_DASHED1
 70
     0
  3
-  --  --  --  --  --  --  --  -
 72
    65
 73
     2
 40
1.693333333333333
 49
0.8466666666666667
 74
     0
 49
-0.8466666666666667
 74
     0
  0
ENDTAB
  0
TABLE
  2
LAYER
  5
2
330
0
100
AcDbSymbolTable
 70
    23
  0
LAYER
  5
10
330
2
100
AcDbSymbolTableRecord
100
AcDbLayerTableRecord
  2
0
 70
     0
 62
     7
  6
Continuous
370
    -3
390
F
347
3E
  0
LAYER
  5
43
330
2
100
AcDbSymbolTableRecord
100
AcDbLayerTableRecord
  2
F-0_補助線
 70
     0
 62
     7
  6
Continuous
370
    -3
390
F
347
3E
  0
LAYER
  5
44
330
2
100
AcDbSymbolTableRecord
100
AcDbLayerTableRecord
  2
F-1_枠
 70
     0
 62
     7
  6
Continuous
370
    -3
390
F
347
3E
  0
LAYER
  5
45
330
2
100
AcDbSymbolTableRecord
100
AcDbLayerTableRecord
  2
F-A_文字
 70
     0
 62
     7
  6
Continuous
370
    -3
390
F
347
3E
  0
LAYER
  5
46
330
2
100
AcDbSymbolTableRecord
100
AcDbLayerTableRecord
  2
0-A_文字
 70
     0
 62
     7
  6
Continuous
370
    -3
390
F
347
3E
  0
LAYER
  5
47
330
2
100
AcDbSymbolTableRecord
100
AcDbLayerTableRecord
  2
戸当り
 70
     0
 62
     7
  6
Continuous
370
    -3
390
F
347
3E
  0
LAYER
  5
48
330
2
100
AcDbSymbolTableRecord
100
AcDbLayerTableRecord
  2
0-0_補助線
 70
     0
 62
     7
  6
Continuous
370
    -3
390
F
347
3E
  0
LAYER
  5
49
330
2
100
AcDbSymbolTableRecord
100
AcDbLayerTableRecord
  2
0-1_通り芯
 70
     0
 62
     7
  6
Continuous
370
    -3
390
F
347
3E
  0
LAYER
  5
4A
330
2
100
AcDbSymbolTableRecord
100
AcDbLayerTableRecord
  2
0-C_ハッチ
 70
     0
 62
     7
  6
Continuous
370
    -3
390
F
347
3E
  0
LAYER
  5
4B
330
2
100
AcDbSymbolTableRecord
100
AcDbLayerTableRecord
  2
0-4_枠
 70
     0
 62
     7
  6
Continuous
370
    -3
390
F
347
3E
  0
LAYER
  5
4C
330
2
100
AcDbSymbolTableRecord
100
AcDbLayerTableRecord
  2
0-7_金物
 70
     0
 62
     7
  6
Continuous
370
    -3
390
F
347
3E
  0
LAYER
  5
4D
330
2
100
AcDbSymbolTableRecord
100
AcDbLayerTableRecord
  2
0-3_仕上げ
 70
     0
 62
     7
  6
Continuous
370
    -3
390
F
347
3E
  0
LAYER
  5
4E
330
2
100
AcDbSymbolTableRecord
100
AcDbLayerTableRecord
  2
0-B_寸法
 70
     0
 62
     7
  6
Continuous
370
    -3
390
F
347
3E
  0
LAYER
  5
4F
330
2
100
AcDbSymbolTableRecord
100
AcDbLayerTableRecord
  2
0-6_扉
 70
     0
 62
     7
  6
Continuous
370
    -3
390
F
347
3E
  0
LAYER
  5
50
330
2
100
AcDbSymbolTableRecord
100
AcDbLayerTableRecord
  2
1-A_文字
 70
     0
 62
     7
  6
Continuous
370
    -3
390
F
347
3E
  0
LAYER
  5
51
330
2
100
AcDbSymbolTableRecord
100
AcDbLayerTableRecord
  2
1-3_仕上げ
 70
     0
 62
     7
  6
Continuous
370
    -3
390
F
347
3E
  0
LAYER
  5
52
330
2
100
AcDbSymbolTableRecord
100
AcDbLayerTableRecord
  2
1-0_補助線
 70
     0
 62
     7
  6
Continuous
370
    -3
390
F
347
3E
  0
LAYER
  5
53
330
2
100
AcDbSymbolTableRecord
100
AcDbLayerTableRecord
  2
1-B_寸法
 70
     0
 62
     7
  6
Continuous
370
    -3
390
F
347
3E
  0
LAYER
  5
54
330
2
100
AcDbSymbolTableRecord
100
AcDbLayerTableRecord
  2
1-C_ハッチ
 70
     0
 62
     7
  6
Continuous
370
    -3
390
F
347
3E
  0
LAYER
  5
55
330
2
100
AcDbSymbolTableRecord
100
AcDbLayerTableRecord
  2
1-7_金物
 70
     0
 62
     7
  6
Continuous
370
    -3
390
F
347
3E
  0
LAYER
  5
56
330
2
100
AcDbSymbolTableRecord
100
AcDbLayerTableRecord
  2
2-4_枠
 70
     0
 62
     7
  6
Continuous
370
    -3
390
F
347
3E
  0
LAYER
  5
57
330
2
100
AcDbSymbolTableRecord
100
AcDbLayerTableRecord
  2
2-B_寸法
 70
     0
 62
     7
  6
Continuous
370
    -3
390
F
347
3E
  0
LAYER
  5
58
330
2
100
AcDbSymbolTableRecord
100
AcDbLayerTableRecord
  2
2-0_補助線
 70
     0
 62
     7
  6
Continuous
370
    -3
390
F
347
3E
  0
ENDTAB
  0
TABLE
  2
STYLE
  5
3
330
0
100
AcDbSymbolTable
 70
     1
  0
STYLE
  5
11
330
3
100
AcDbSymbolTableRecord
100
AcDbTextStyleTableRecord
  2
Standard
 70
     0
 40
0.0
 41
1.0
 50
0.0
 71
     0
 42
2.5
  3
txt
  4

  0
ENDTAB
  0
TABLE
  2
VIEW
  5
6
330
0
100
AcDbSymbolTable
 70
     0
  0
ENDTAB
  0
TABLE
  2
UCS
  5
7
330
0
100
AcDbSymbolTable
 70
     0
  0
ENDTAB
  0
TABLE
  2
APPID
  5
9
330
0
100
AcDbSymbolTable
 70
     1
  0
APPID
  5
12
330
9
100
AcDbSymbolTableRecord
100
AcDbRegAppTableRecord
  2
ACAD
 70
     0
  0
ENDTAB
  0
TABLE
  2
DIMSTYLE
  5
A
330
0
100
AcDbSymbolTable
 70
     1
100
AcDbDimStyleTable
  0
DIMSTYLE
105
27
330
A
100
AcDbSymbolTableRecord
100
AcDbDimStyleTableRecord
  2
ISO-25
 70
     0
 41
2.5
 42
0.625
 43
3.75
 44
1.25
 73
     0
 74
     0
 77
     1
 78
     8
140
2.5
141
2.5
143
0.03937007874016
147
0.625
171
     3
172
     1
178
     0
271
     2
272
     2
274
     3
278
    44
283
     0
284
     8
340
11
  0
ENDTAB
  0
TABLE
  2
BLOCK_RECORD
  5
1
330
0
100
AcDbSymbolTable
 70
     2
  0
BLOCK_RECORD
  5
1F
330
1
100
AcDbSymbolTableRecord
100
AcDbBlockTableRecord
  2
*Model_Space
340
22
 70
     0
280
     1
281
     0
  0
BLOCK_RECORD
  5
1B
330
1
100
AcDbSymbolTableRecord
100
AcDbBlockTableRecord
  2
*Paper_Space
340
1E
 70
     0
280
     1
281
     0
  0
BLOCK_RECORD
  5
23
330
1
100
AcDbSymbolTableRecord
100
AcDbBlockTableRecord
  2
*Paper_Space0
340
26
 70
     0
280
     1
281
     0
  0
BLOCK_RECORD
  5
59
330
1
100
AcDbSymbolTableRecord
100
AcDbBlockTableRecord
  2
01@@SfigorgFlag@@4
340
0
102
{BLKREFS
331
324
102
}
 70
     0
280
     1
281
     0
  0
ENDTAB
  0
ENDSEC
  0
SECTION
  2
BLOCKS
  0
BLOCK
  5
20
330
1F
100
AcDbEntity
  8
0
100
AcDbBlockBegin
  2
*Model_Space
 70
     0
 10
0.0
 20
0.0
 30
0.0
  3
*Model_Space
  1

  0
ENDBLK
  5
21
330
1F
100
AcDbEntity
  8
0
100
AcDbBlockEnd
  0
BLOCK
  5
1C
330
1B
100
AcDbEntity
 67
     1
  8
0
100
AcDbBlockBegin
  2
*Paper_Space
 70
     0
 10
0.0
 20
0.0
 30
0.0
  3
*Paper_Space
  1

  0
ENDBLK
  5
1D
330
1B
100
AcDbEntity
 67
     1
  8
0
100
AcDbBlockEnd
  0
BLOCK
  5
24
330
23
100
AcDbEntity
  8
0
100
AcDbBlockBegin
  2
*Paper_Space0
 70
     0
 10
0.0
 20
0.0
 30
0.0
  3
*Paper_Space0
  1

  0
ENDBLK
  5
25
330
23
100
AcDbEntity
  8
0
100
AcDbBlockEnd
  0
BLOCK
  5
5A
330
59
100
AcDbEntity
  8
0
100
AcDbBlockBegin
  2
01@@SfigorgFlag@@4
 70
     0
 10
0.0
 20
0.0
 30
0.0
  3
01@@SfigorgFlag@@4
  1

  0
LINE
  5
46C
330
59
100
AcDbEntity
  8
0-0_補助線
  6
Continuous
 62
     7
370
     5
100
AcDbLine
 10
-4.25
 20
-1.491025641025665
 30
0.0
 11
-3.25
 21
-1.491025641025665
 31
0.0
  0
LINE
  5
46D
330
59
100
AcDbEntity
  8
0-0_補助線
  6
Continuous
 62
     7
370
     5
100
AcDbLine
 10
-2.75
 20
-1.491025641025665
 30
0.0
 11
-0.1500000000000909
 21
-1.491025641025665
 31
0.0
  0
LINE
  5
46E
330
59
100
AcDbEntity
  8
0-0_補助線
  6
Continuous
 62
     7
370
     5
100
AcDbLine
 10
-0.1500000000000909
 20
-1.491025641025665
 30
0.0
 11
0.0
 21
-1.641025641025642
 31
0.0
  0
LINE
  5
46F
330
59
100
AcDbEntity
  8
0-0_補助線
  6
Continuous
 62
     7
370
     5
100
AcDbLine
 10
0.0
 20
-1.641025641025642
 30
0.0
 11
0.1500000000000909
 21
-1.491025641025665
 31
0.0
  0
LINE
  5
470
330
59
100
AcDbEntity
  8
0-0_補助線
  6
Continuous
 62
     7
370
     5
100
AcDbLine
 10
0.1500000000000909
 20
-1.491025641025665
 30
0.0
 11
2.75
 21
-1.491025641025665
 31
0.0
  0
LINE
  5
471
330
59
100
AcDbEntity
  8
0-0_補助線
  6
Continuous
 62
     7
370
     5
100
AcDbLine
 10
3.25
 20
-1.491025641025665
 30
0.0
 11
4.25
 21
-1.491025641025665
 31
0.0
  0
LINE
  5
472
330
59
100
AcDbEntity
  8
0-0_補助線
  6
Continuous
 62
     7
370
     5
100
AcDbLine
 10
7.849999999999909
 20
1.408974358974312
 30
0.0
 11
4.849999999999909
 21
1.408974358974312
 31
0.0
  0
LINE
  5
473
330
59
100
AcDbEntity
  8
0-0_補助線
  6
Continuous
 62
     7
370
     5
100
AcDbLine
 10
-4.849999999999909
 20
1.408974358974312
 30
0.0
 11
-7.849999999999909
 21
1.408974358974312
 31
0.0
  0
LINE
  5
474
330
59
100
AcDbEntity
  8
0-0_補助線
  6
Continuous
 62
     7
370
     5
100
AcDbLine
 10
-4.849999999999909
 20
2.008974358974335
 30
0.0
 11
-7.849999999999909
 21
1.70897435897438
 31
0.0
  0
ARC
  5
475
330
59
100
AcDbEntity
  8
0-0_補助線
  6
Continuous
 62
     7
370
     5
100
AcDbCircle
 10
-7.849999999999909
 20
1.558974358974403
 30
0.0
 40
0.15
100
AcDbArc
 50
90.0
 51
270.0
  0
ARC
  5
476
330
59
100
AcDbEntity
  8
0-0_補助線
  6
Continuous
 62
     7
370
     5
100
AcDbCircle
 10
7.849999999999909
 20
1.558974358974403
 30
0.0
 40
0.15
100
AcDbArc
 50
270.0
 51
89.99999999999997
  0
LINE
  5
477
330
59
100
AcDbEntity
  8
0-0_補助線
  6
Continuous
 62
     7
370
     5
100
AcDbLine
 10
7.849999999999909
 20
1.70897435897438
 30
0.0
 11
4.849999999999909
 21
2.008974358974335
 31
0.0
  0
LINE
  5
478
330
59
100
AcDbEntity
  8
0-0_補助線
  6
Continuous
 62
     7
370
     5
100
AcDbLine
 10
-3.050000000000182
 20
2.008974358974335
 30
0.0
 11
-4.849999999999909
 21
2.008974358974335
 31
0.0
  0
ARC
  5
479
330
59
100
AcDbEntity
  8
0-0_補助線
  6
Continuous
 62
     7
370
     5
100
AcDbCircle
 10
-3.050000000000182
 20
1.70897435897438
 30
0.0
 40
0.3
100
AcDbArc
 50
0.0
 51
90.0
  0
ARC
  5
47A
330
59
100
AcDbEntity
  8
0-0_補助線
  6
Continuous
 62
     7
370
     5
100
AcDbCircle
 10
-3.050000000000182
 20
1.70897435897438
 30
0.0
 40
0.3
100
AcDbArc
 50
270.0
 51
0.0
  0
ARC
  5
47B
330
59
100
AcDbEntity
  8
0-0_補助線
  6
Continuous
 62
     7
370
     5
100
AcDbCircle
 10
3.050000000000182
 20
1.70897435897438
 30
0.0
 40
0.3
100
AcDbArc
 50
180.0
 51
270.0
  0
LINE
  5
47C
330
59
100
AcDbEntity
  8
0-0_補助線
  6
Continuous
 62
     7
370
     5
100
AcDbLine
 10
3.050000000000182
 20
2.008974358974335
 30
0.0
 11
4.849999999999909
 21
2.008974358974335
 31
0.0
  0
ARC
  5
47D
330
59
100
AcDbEntity
  8
0-0_補助線
  6
Continuous
 62
     7
370
     5
100
AcDbCircle
 10
3.050000000000182
 20
1.70897435897438
 30
0.0
 40
0.3
100
AcDbArc
 50
90.0
 51
180.0
  0
LINE
  5
47E
330
59
100
AcDbEntity
  8
0-0_補助線
  6
Continuous
 62
     7
370
     5
100
AcDbLine
 10
4.849999999999909
 20
-1.341025641025688
 30
0.0
 11
4.849999999999909
 21
1.408974358974312
 31
0.0
  0
ARC
  5
47F
330
59
100
AcDbEntity
  8
0-0_補助線
  6
Continuous
 62
     7
370
     5
100
AcDbCircle
 10
4.099999999999909
 20
-1.341025641025688
 30
0.0
 40
0.75
100
AcDbArc
 50
270.0
 51
0.0
  0
LINE
  5
480
330
59
100
AcDbEntity
  8
0-0_補助線
  6
Continuous
 62
     7
370
     5
100
AcDbLine
 10
-4.849999999999909
 20
-1.341025641025688
 30
0.0
 11
-4.849999999999909
 21
1.408974358974312
 31
0.0
  0
LINE
  5
481
330
59
100
AcDbEntity
  8
0-0_補助線
  6
Continuous
 62
     7
370
     5
100
AcDbLine
 10
-4.099999999999909
 20
-2.091025641025688
 30
0.0
 11
4.099999999999909
 21
-2.091025641025688
 31
0.0
  0
ARC
  5
482
330
59
100
AcDbEntity
  8
0-0_補助線
  6
Continuous
 62
     7
370
     5
100
AcDbCircle
 10
-4.099999999999909
 20
-1.341025641025688
 30
0.0
 40
0.75
100
AcDbArc
 50
180.0
 51
270.0
  0
LINE
  5
483
330
59
100
AcDbEntity
  8
0-0_補助線
  6
Continuous
 62
     7
370
     5
100
AcDbLine
 10
-4.0
 20
1.408974358974312
 30
0.0
 11
-3.050000000000182
 21
1.408974358974312
 31
0.0
  0
LINE
  5
484
330
59
100
AcDbEntity
  8
0-0_補助線
  6
Continuous
 62
     7
370
     5
100
AcDbLine
 10
-4.25
 20
1.158974358974312
 30
0.0
 11
-4.25
 21
-1.491025641025665
 31
0.0
  0
ARC
  5
485
330
59
100
AcDbEntity
  8
0-0_補助線
  6
Continuous
 62
     7
370
     5
100
AcDbCircle
 10
-4.0
 20
1.158974358974312
 30
0.0
 40
0.25
100
AcDbArc
 50
90.0
 51
180.0
  0
LINE
  5
486
330
59
100
AcDbEntity
  8
0-0_補助線
  6
Continuous
 62
     7
370
     5
100
AcDbLine
 10
4.0
 20
1.408974358974312
 30
0.0
 11
3.050000000000182
 21
1.408974358974312
 31
0.0
  0
LINE
  5
487
330
59
100
AcDbEntity
  8
0-0_補助線
  6
Continuous
 62
     7
370
     5
100
AcDbLine
 10
4.25
 20
1.158974358974312
 30
0.0
 11
4.25
 21
-1.491025641025665
 31
0.0
  0
ARC
  5
488
330
59
100
AcDbEntity
  8
0-0_補助線
  6
Continuous
 62
     7
370
     5
100
AcDbCircle
 10
4.0
 20
1.158974358974312
 30
0.0
 40
0.25
100
AcDbArc
 50
0.0
 51
90.0
  0
LINE
  5
489
330
59
100
AcDbEntity
  8
0-0_補助線
  6
Continuous
 62
     7
370
     5
100
AcDbLine
 10
-3.25
 20
-1.091025641025688
 30
0.0
 11
-3.25
 21
-1.491025641025665
 31
0.0
  0
ARC
  5
48A
330
59
100
AcDbEntity
  8
0-0_補助線
  6
Continuous
 62
     7
370
     5
100
AcDbCircle
 10
-3.150000000000091
 20
-1.091025641025688
 30
0.0
 40
0.1
100
AcDbArc
 50
90.0
 51
180.0
  0
LINE
  5
48B
330
59
100
AcDbEntity
  8
0-0_補助線
  6
Continuous
 62
     7
370
     5
100
AcDbLine
 10
-2.849999999999909
 20
-0.991025641025665
 30
0.0
 11
-3.150000000000091
 21
-0.991025641025665
 31
0.0
  0
LINE
  5
48C
330
59
100
AcDbEntity
  8
0-0_補助線
  6
Continuous
 62
     7
370
     5
100
AcDbLine
 10
-2.75
 20
-1.091025641025688
 30
0.0
 11
-2.75
 21
-1.491025641025665
 31
0.0
  0
ARC
  5
48D
330
59
100
AcDbEntity
  8
0-0_補助線
  6
Continuous
 62
     7
370
     5
100
AcDbCircle
 10
-2.849999999999909
 20
-1.091025641025688
 30
0.0
 40
0.1
100
AcDbArc
 50
0.0
 51
90.0
  0
LINE
  5
48E
330
59
100
AcDbEntity
  8
0-0_補助線
  6
Continuous
 62
     7
370
     5
100
AcDbLine
 10
2.75
 20
-1.091025641025688
 30
0.0
 11
2.75
 21
-1.491025641025665
 31
0.0
  0
ARC
  5
48F
330
59
100
AcDbEntity
  8
0-0_補助線
  6
Continuous
 62
     7
370
     5
100
AcDbCircle
 10
2.849999999999909
 20
-1.091025641025688
 30
0.0
 40
0.1
100
AcDbArc
 50
90.0
 51
180.0
  0
LINE
  5
490
330
59
100
AcDbEntity
  8
0-0_補助線
  6
Continuous
 62
     7
370
     5
100
AcDbLine
 10
3.150000000000091
 20
-0.991025641025665
 30
0.0
 11
2.849999999999909
 21
-0.991025641025665
 31
0.0
  0
LINE
  5
491
330
59
100
AcDbEntity
  8
0-0_補助線
  6
Continuous
 62
     7
370
     5
100
AcDbLine
 10
3.25
 20
-1.091025641025688
 30
0.0
 11
3.25
 21
-1.491025641025665
 31
0.0
  0
ARC
  5
492
330
59
100
AcDbEntity
  8
0-0_補助線
  6
Continuous
 62
     7
370
     5
100
AcDbCircle
 10
3.150000000000091
 20
-1.091025641025688
 30
0.0
 40
0.1
100
AcDbArc
 50
0.0
 51
90.0
  0
ENDBLK
  5
5B
330
59
100
AcDbEntity
  8
0
100
AcDbBlockEnd
  0
ENDSEC
  0
SECTION
  2
ENTITIES
  0
LINE
  5
5C
330
1F
100
AcDbEntity
  8
F-0_補助線
  6
JWW_HOJO
 62
   120
370
     5
100
AcDbLine
 10
-6140.081333436773
 20
-4455.0
 30
0.0
 11
-6140.081333436773
 21
4424.999604096284
 31
0.0
  0
LINE
  5
5D
330
1F
100
AcDbEntity
  8
F-0_補助線
  6
JWW_HOJO
 62
   120
370
     5
100
AcDbLine
 10
-6140.081333436773
 20
4424.999604096284
 30
0.0
 11
6159.917676803936
 21
4424.999604096284
 31
0.0
  0
LINE
  5
5E
330
1F
100
AcDbEntity
  8
F-0_補助線
  6
JWW_HOJO
 62
   120
370
     5
100
AcDbLine
 10
6159.917676803936
 20
4424.999604096284
 30
0.0
 11
6159.917676803936
 21
-4455.0
 31
0.0
  0
LINE
  5
5F
330
1F
100
AcDbEntity
  8
F-0_補助線
  6
JWW_HOJO
 62
   120
370
     5
100
AcDbLine
 10
6159.917676803936
 20
-4455.0
 30
0.0
 11
-6140.081333436773
 21
-4455.0
 31
0.0
  0
LINE
  5
60
330
1F
100
AcDbEntity
  8
F-0_補助線
  6
JWW_HOJO
 62
     7
370
     5
100
AcDbLine
 10
509.9185840832865
 20
-3795.000003092998
 30
0.0
 11
509.9185840832865
 21
-4195.000008247994
 31
0.0
  0
LINE
  5
61
330
1F
100
AcDbEntity
  8
F-1_枠
  6
Continuous
 62
   200
370
     5
100
AcDbLine
 10
5859.917429364114
 20
4174.999769056166
 30
0.0
 11
5859.917429364114
 21
-4205.000164959882
 31
0.0
  0
LINE
  5
62
330
1F
100
AcDbEntity
  8
F-1_枠
  6
Continuous
 62
   200
370
     5
100
AcDbLine
 10
-5840.081317971782
 20
4174.999769056166
 30
0.0
 11
-5840.081317971782
 21
-4205.000164959882
 31
0.0
  0
LINE
  5
63
330
1F
100
AcDbEntity
  8
F-1_枠
  6
Continuous
 62
   200
370
     5
100
AcDbLine
 10
5859.917429364114
 20
-4205.000002577499
 30
0.0
 11
-5840.081085996952
 21
-4205.000002577499
 31
0.0
  0
LINE
  5
64
330
1F
100
AcDbEntity
  8
F-1_枠
  6
Continuous
 62
   200
370
     5
100
AcDbLine
 10
-5830.081323642279
 20
4174.999769056166
 30
0.0
 11
-5830.081323642279
 21
-4205.000164959882
 31
0.0
  0
LINE
  5
65
330
1F
100
AcDbEntity
  8
F-1_枠
  6
Continuous
 62
   200
370
     5
100
AcDbLine
 10
-5835.081309208291
 20
4174.999769056166
 30
0.0
 11
-5835.081309208291
 21
-4205.000164959882
 31
0.0
  0
LINE
  5
66
330
1F
100
AcDbEntity
  8
F-1_枠
  6
Continuous
 62
   200
370
     5
100
AcDbLine
 10
5854.917165428305
 20
4174.999769056166
 30
0.0
 11
5854.917165428305
 21
-4205.000164959882
 31
0.0
  0
LINE
  5
67
330
1F
100
AcDbEntity
  8
F-1_枠
  6
Continuous
 62
   200
370
     5
100
AcDbLine
 10
5849.917643811961
 20
4174.999769056166
 30
0.0
 11
5849.917643811961
 21
-4205.000164959882
 31
0.0
  0
LINE
  5
68
330
1F
100
AcDbEntity
  8
F-1_枠
  6
Continuous
 62
   200
370
     5
100
AcDbLine
 10
5859.917429364114
 20
-4199.999993814004
 30
0.0
 11
-5840.081085996952
 21
-4199.999993814004
 31
0.0
  0
LINE
  5
69
330
1F
100
AcDbEntity
  8
F-1_枠
  6
Continuous
 62
   200
370
     5
100
AcDbLine
 10
5859.917429364114
 20
-4195.000008247994
 30
0.0
 11
-5840.081085996952
 21
-4195.000008247994
 31
0.0
  0
LINE
  5
6A
330
1F
100
AcDbEntity
  8
F-1_枠
  6
Continuous
 62
   200
370
     5
100
AcDbLine
 10
4349.917891251784
 20
-3795.000003092998
 30
0.0
 11
4349.917891251784
 21
-4195.000008247994
 31
0.0
  0
LINE
  5
6B
330
1F
100
AcDbEntity
  8
F-1_枠
  6
Continuous
 62
   200
370
     5
100
AcDbLine
 10
2849.91739637214
 20
-3795.000003092998
 30
0.0
 11
2849.91739637214
 21
-4195.000008247994
 31
0.0
  0
LINE
  5
6C
330
1F
100
AcDbEntity
  8
F-1_枠
  6
Continuous
 62
   200
370
     5
100
AcDbLine
 10
9.918542843316231
 20
-3795.000003092998
 30
0.0
 11
9.918542843316231
 21
-4195.000008247994
 31
0.0
  0
LINE
  5
6D
330
1F
100
AcDbEntity
  8
F-1_枠
  6
Continuous
 62
   200
370
     5
100
AcDbLine
 10
9.918542843316231
 20
-3994.999936078045
 30
0.0
 11
5849.917643811961
 21
-3995.005364289155
 31
0.0
  0
LINE
  5
6E
330
1F
100
AcDbEntity
  8
F-1_枠
  6
Continuous
 62
   200
370
     5
100
AcDbLine
 10
-5840.081085996952
 20
4174.999769056166
 30
0.0
 11
5859.917429364114
 21
4174.999769056166
 31
0.0
  0
LINE
  5
6F
330
1F
100
AcDbEntity
  8
F-1_枠
  6
Continuous
 62
   200
370
     5
100
AcDbLine
 10
-5840.081085996952
 20
4164.999983504013
 30
0.0
 11
5859.917429364114
 21
4164.999983504013
 31
0.0
  0
LINE
  5
70
330
1F
100
AcDbEntity
  8
F-1_枠
  6
Continuous
 62
   200
370
     5
100
AcDbLine
 10
-5840.081085996952
 20
4169.999505120355
 30
0.0
 11
5859.917429364114
 21
4169.999505120355
 31
0.0
  0
LINE
  5
71
330
1F
100
AcDbEntity
  8
F-0_補助線
  6
JWW_HOJO
 62
     7
370
     5
100
AcDbLine
 10
-5830.081323642279
 20
-3994.99993607839
 30
0.0
 11
9.918542843316231
 21
-3994.99993607839
 31
0.0
  0
LINE
  5
72
330
1F
100
AcDbEntity
  8
F-0_補助線
  6
JWW_HOJO
 62
     7
370
     5
100
AcDbLine
 10
-5830.081323642279
 20
-3904.99993607839
 30
0.0
 11
9.918542843316231
 21
-3904.99993607839
 31
0.0
  0
LINE
  5
73
330
1F
100
AcDbEntity
  8
F-0_補助線
  6
JWW_HOJO
 62
     7
370
     5
100
AcDbLine
 10
-5830.081323642279
 20
-4084.99993607839
 30
0.0
 11
9.918542843316231
 21
-4084.99993607839
 31
0.0
  0
LINE
  5
74
330
1F
100
AcDbEntity
  8
F-0_補助線
  6
JWW_HOJO
 62
     7
370
     5
100
AcDbLine
 10
9.918408067688347
 20
-4139.999739777984
 30
0.0
 11
5849.917509036333
 21
-4140.005167989091
 31
0.0
  0
LINE
  5
75
330
1F
100
AcDbEntity
  8
F-0_補助線
  6
JWW_HOJO
 62
     7
370
     5
100
AcDbLine
 10
9.918491721639953
 20
-4049.999739778022
 30
0.0
 11
5849.917592690285
 21
-4050.005167989132
 31
0.0
  0
LINE
  5
76
330
1F
100
AcDbEntity
  8
F-0_補助線
  6
JWW_HOJO
 62
     7
370
     5
100
AcDbLine
 10
9.91859396535915
 20
-3939.99973721807
 30
0.0
 11
5849.917694934003
 21
-3940.005165429179
 31
0.0
  0
LINE
  5
77
330
1F
100
AcDbEntity
  8
F-0_補助線
  6
JWW_HOJO
 62
     7
370
     5
100
AcDbLine
 10
9.918677619310756
 20
-3849.999737218109
 30
0.0
 11
5849.917778587955
 21
-3850.005165429218
 31
0.0
  0
LINE
  5
78
330
1F
100
AcDbEntity
  8
F-0_補助線
  6
JWW_HOJO
 62
     7
370
     5
100
AcDbLine
 10
2939.91739637214
 20
-3795.000003092998
 30
0.0
 11
2939.91739637214
 21
-4195.000008247994
 31
0.0
  0
LINE
  5
79
330
1F
100
AcDbEntity
  8
F-0_補助線
  6
JWW_HOJO
 62
     7
370
     5
100
AcDbLine
 10
99.91854284331623
 20
-3795.000003092998
 30
0.0
 11
99.91854284331623
 21
-4195.000008247994
 31
0.0
  0
LINE
  5
7A
330
1F
100
AcDbEntity
  8
F-0_補助線
  6
JWW_HOJO
 62
     7
370
     5
100
AcDbLine
 10
4439.917891251784
 20
-3795.000003092998
 30
0.0
 11
4439.917891251784
 21
-4195.000008247994
 31
0.0
  0
LINE
  5
7B
330
1F
100
AcDbEntity
  8
F-1_枠
  6
Continuous
 62
   200
370
     5
100
AcDbLine
 10
5859.917429364114
 20
-3795.000003092998
 30
0.0
 11
-5840.081085996952
 21
-3795.000003092998
 31
0.0
  0
LINE
  5
7C
330
1F
100
AcDbEntity
  8
F-1_枠
  6
Continuous
 62
   200
370
     5
100
AcDbLine
 10
5859.917429364114
 20
-3790.000017526988
 30
0.0
 11
-5840.081085996952
 21
-3790.000017526988
 31
0.0
  0
LINE
  5
7D
330
1F
100
AcDbEntity
  8
F-0_補助線
  6
JWW_HOJO
 62
     7
370
     5
100
AcDbLine
 10
-5087.628710189611
 20
-3795.000003093
 30
0.0
 11
-5087.628710189611
 21
-4205.000164959882
 31
0.0
  0
LINE
  5
7E
330
1F
100
AcDbEntity
  8
F-0_補助線
  6
JWW_HOJO
 62
     7
370
     5
100
AcDbLine
 10
-50.08145715668377
 20
-3795.000003092998
 30
0.0
 11
-50.08145715668377
 21
-4195.000008247994
 31
0.0
  0
MTEXT
  5
7F
330
1F
100
AcDbEntity
  8
F-A_文字
  6
Continuous
 62
     7
370
     0
100
AcDbMText
 10
99.91854284331623
 20
-3887.139820871936
 30
0.0
 40
45.72
 41
180.0
 46
0.0
 71
     7
 72
     1
  1
{\fＭＳ ゴシック|b0|i0|c128|p49;図面名}
 73
     1
 44
1.0
  0
MTEXT
  5
80
330
1F
100
AcDbEntity
  8
F-A_文字
  6
Continuous
 62
     7
370
     0
100
AcDbMText
 10
2939.91739637214
 20
-3887.142460617775
 30
0.0
 40
45.72
 41
300.0
 46
0.0
 71
     7
 72
     1
  1
{\fＭＳ ゴシック|b0|i0|c128|p49;ＳＣＡＬＥ}
 73
     1
 44
1.0
  0
MTEXT
  5
81
330
1F
100
AcDbEntity
  8
F-A_文字
  6
Continuous
 62
     7
370
     0
100
AcDbMText
 10
4439.917891251784
 20
-3887.143854850754
 30
0.0
 40
45.72
 41
240.0
 46
0.0
 71
     7
 72
     1
  1
{\fＭＳ ゴシック|b0|i0|c128|p49;ＤＡＴＥ}
 73
     1
 44
1.0
  0
MTEXT
  5
82
330
1F
100
AcDbEntity
  8
F-A_文字
  6
Continuous
 62
     7
370
     0
100
AcDbMText
 10
2939.91739637214
 20
-4087.142463177859
 30
0.0
 40
45.72
 41
240.0
 46
0.0
 71
     7
 72
     1
  1
{\fＭＳ ゴシック|b0|i0|c128|p49;ＦＩＬＥ}
 73
     1
 44
1.0
  0
MTEXT
  5
83
330
1F
100
AcDbEntity
  8
F-A_文字
  6
Continuous
 62
     7
370
     0
100
AcDbMText
 10
4439.917891251784
 20
-4087.143857410839
 30
0.0
 40
45.72
 41
180.0
 46
0.0
 71
     7
 72
     1
  1
{\fＭＳ ゴシック|b0|i0|c128|p49;ＮＯ．}
 73
     1
 44
1.0
  0
MTEXT
  5
84
330
1F
100
AcDbEntity
  8
F-A_文字
  6
Continuous
 62
     7
370
     0
100
AcDbMText
 10
1394.917396372138
 20
-4096.140669266148
 30
0.0
 40
45.72
 41
120.0
 46
0.0
 71
     7
 72
     1
  1
{\fＭＳ ゴシック|b0|i0|c128|p49;株式}
 73
     1
 44
1.0
  0
MTEXT
  5
85
330
1F
100
AcDbEntity
  8
F-A_文字
  6
Continuous
 62
     7
370
     0
100
AcDbMText
 10
1604.917396372138
 20
-4164.281754523929
 30
0.0
 40
101.44125
 41
1065.0
 46
0.0
 71
     7
 72
     1
  1
{\fＭＳ ゴシック|b0|i0|c128|p49;ウッドワン・・・}
 73
     1
 44
1.0
  0
MTEXT
  5
86
330
1F
100
AcDbEntity
  8
F-A_文字
  6
Continuous
 62
     7
370
     0
100
AcDbMText
 10
1394.917396372138
 20
-4168.140669266188
 30
0.0
 40
45.72
 41
120.0
 46
0.0
 71
     7
 72
     1
  1
{\fＭＳ ゴシック|b0|i0|c128|p49;会社}
 73
     1
 44
1.0
  0
MTEXT
  5
87
330
1F
100
AcDbEntity
  8
F-A_文字
  6
Continuous
 62
     7
370
     0
100
AcDbMText
 10
5768.321977672939
 20
-4314.841419020918
 30
0.0
 40
68.58
 41
90.0
 46
0.0
 71
     7
 72
     1
  1
{\fＭＳ ゴシック|b0|i0|c128|p49;）}
 73
     1
 44
1.0
  0
MTEXT
  5
88
330
1F
100
AcDbEntity
  8
F-A_文字
  6
Continuous
 62
     7
370
     0
100
AcDbMText
 10
5350.114617405298
 20
-4316.235443869857
 30
0.0
 40
68.58
 41
45.0
 46
0.0
 71
     7
 72
     1
  1
{\fＭＳ ゴシック|b0|i0|c128|p49;,}
 73
     1
 44
1.0
  0
MTEXT
  5
89
330
1F
100
AcDbEntity
  8
F-A_文字
  6
Continuous
 62
     7
370
     0
100
AcDbMText
 10
5083.855928478601
 20
-4314.771967288282
 30
0.0
 40
74.295
 41
97.5
 46
0.0
 71
     7
 72
     1
  1
{\fＭＳ ゴシック|b0|i0|c128|p49;$y}
 73
     1
 44
1.0
  0
MTEXT
  5
8A
330
1F
100
AcDbEntity
  8
F-A_文字
  6
Continuous
 62
     7
370
     0
100
AcDbMText
 10
5238.592649517422
 20
-4314.771967288282
 30
0.0
 40
74.295
 41
97.5
 46
0.0
 71
     7
 72
     1
  1
{\fＭＳ ゴシック|b0|i0|c128|p49;$m}
 73
     1
 44
1.0
  0
MTEXT
  5
8B
330
1F
100
AcDbEntity
  8
F-A_文字
  6
Continuous
 62
     7
370
     0
100
AcDbMText
 10
5393.32938200033
 20
-4314.771967288282
 30
0.0
 40
74.295
 41
97.5
 46
0.0
 71
     7
 72
     1
  1
{\fＭＳ ゴシック|b0|i0|c128|p49;$d}
 73
     1
 44
1.0
  0
MTEXT
  5
8C
330
1F
100
AcDbEntity
  8
F-A_文字
  6
Continuous
 62
     7
370
     0
100
AcDbMText
 10
5548.066114483239
 20
-4314.771967288282
 30
0.0
 40
74.295
 41
195.0
 46
0.0
 71
     7
 72
     1
  1
{\fＭＳ ゴシック|b0|i0|c128|p49;印刷}
 73
     1
 44
1.0
  0
MTEXT
  5
8D
330
1F
100
AcDbEntity
  8
F-A_文字
  6
Continuous
 62
     7
370
     0
100
AcDbMText
 10
4943.952040816226
 20
-4319.023493567732
 30
0.0
 40
68.58
 41
90.0
 46
0.0
 71
     7
 72
     1
  1
{\fＭＳ ゴシック|b0|i0|c128|p49;（}
 73
     1
 44
1.0
  0
MTEXT
  5
8E
330
1F
100
AcDbEntity
  8
F-A_文字
  6
Continuous
 62
     7
370
     0
100
AcDbMText
 10
5191.195810375571
 20
-4319.023493567732
 30
0.0
 40
68.58
 41
45.0
 46
0.0
 71
     7
 72
     1
  1
{\fＭＳ ゴシック|b0|i0|c128|p49;,}
 73
     1
 44
1.0
  0
MTEXT
  5
8F
330
1F
100
AcDbEntity
  8
F-A_文字
  6
Continuous
 62
     7
370
     5
100
AcDbMText
 10
5096.167700144057
 20
-4147.857012699984
 30
0.0
 40
74.295
 41
97.5
 46
0.0
 71
     7
 72
     1
  1
{\fＭＳ ゴシック|b0|i0|c128|p49;05}
 73
     1
 44
1.0
  0
LINE
  5
90
330
1F
100
AcDbEntity
  8
0-A_文字
  6
Continuous
 62
    92
370
     5
100
AcDbLine
 10
-5659.999495325866
 20
3730.00018145587
 30
0.0
 11
-5659.999495325866
 21
4000.00018145587
 31
0.0
  0
ELLIPSE
  5
91
330
1F
100
AcDbEntity
  8
戸当り
  6
Continuous
 62
    92
370
     5
100
AcDbEllipse
 10
4675.430917458078
 20
2876.05359030151
 30
0.0
 11
11.36181697857171
 21
42.40287823032828
 31
0.0
210
0.0
220
0.0
230
0.9999999999999999
 40
0.6
 41
1.570796326794897
 42
4.71238898038469
  0
LINE
  5
92
330
1F
100
AcDbEntity
  8
戸当り
  6
Continuous
 62
    92
370
     5
100
AcDbLine
 10
4700.872644396272
 20
2869.236500114367
 30
0.0
 11
4649.989190519879
 21
2882.870680488653
 31
0.0
  0
LINE
  5
93
330
1F
100
AcDbEntity
  8
戸当り
  6
Continuous
 62
    92
370
     5
100
AcDbLine
 10
4704.133764364565
 20
2881.407165525608
 30
0.0
 11
4653.25031048817
 21
2895.041345899895
 31
0.0
  0
ELLIPSE
  5
94
330
1F
100
AcDbEntity
  8
戸当り
  6
Continuous
 62
    92
370
     5
100
AcDbEllipse
 10
4699.604310755758
 20
2966.269922279795
 30
0.0
 11
21.86569797210526
 21
81.6038957748525
 31
0.0
210
0.0
220
0.0
230
1.0
 40
0.5
 41
4.340591432030095
 42
8.225779182329084
  0
ELLIPSE
  5
95
330
1F
100
AcDbEntity
  8
戸当り
  6
Continuous
 62
    92
370
     5
100
AcDbEllipse
 10
4698.978687882654
 20
2963.935065931004
 30
0.0
 11
26.49533313827761
 21
98.88192943551533
 31
0.0
210
0.0
220
0.0
230
0.9999999999999999
 40
0.4
 41
3.840308517104466
 42
4.432552034522944
  0
ELLIPSE
  5
96
330
1F
100
AcDbEntity
  8
戸当り
  6
Continuous
 62
    92
370
     5
100
AcDbEllipse
 10
4698.978687882654
 20
2963.935065931004
 30
0.0
 11
26.49533313827761
 21
98.88192943551533
 31
0.0
210
0.0
220
0.0
230
0.9999999999999999
 40
0.4
 41
1.850633272656679
 42
2.442876790075129
  0
ELLIPSE
  5
97
330
1F
100
AcDbEntity
  8
戸当り
  6
Continuous
 62
    92
370
     5
100
AcDbEllipse
 10
4560.316707711374
 20
2838.28484693721
 30
0.0
 11
-7.622927487939132
 21
43.23177007461331
 31
0.0
210
0.0
220
0.0
230
1.0
 40
0.6000000000000001
 41
1.570796326794897
 42
4.71238898038469
  0
LINE
  5
98
330
1F
100
AcDbEntity
  8
戸当り
  6
Continuous
 62
    92
370
     5
100
AcDbLine
 10
4586.255769756144
 20
2842.858603429972
 30
0.0
 11
4534.377645666606
 21
2833.711090444446
 31
0.0
  0
LINE
  5
99
330
1F
100
AcDbEntity
  8
戸当り
  6
Continuous
 62
    92
370
     5
100
AcDbLine
 10
4584.067802717541
 20
2855.267181117928
 30
0.0
 11
4532.189678628003
 21
2846.1196681324
 31
0.0
  0
ELLIPSE
  5
9A
330
1F
100
AcDbEntity
  8
戸当り
  6
Continuous
 62
    92
370
     5
100
AcDbEllipse
 10
4544.098172894875
 20
2930.264728582853
 30
0.0
 11
-14.67024424252691
 21
83.19908946199426
 31
0.0
210
0.0
220
0.0
230
1.0
 40
0.5
 41
4.340591432030095
 42
8.225779182329084
  0
ELLIPSE
  5
9B
330
1F
100
AcDbEntity
  8
戸当り
  6
Continuous
 62
    92
370
     5
100
AcDbEllipse
 10
4544.51791894478
 20
2927.884230441196
 30
0.0
 11
-17.7763823922528
 21
100.8148742797557
 31
0.0
210
0.0
220
0.0
230
1.0
 40
0.4000000000000001
 41
3.840308517104466
 42
4.432552034522944
  0
ELLIPSE
  5
9C
330
1F
100
AcDbEntity
  8
戸当り
  6
Continuous
 62
    92
370
     5
100
AcDbEllipse
 10
4544.51791894478
 20
2927.884230441196
 30
0.0
 11
-17.7763823922528
 21
100.8148742797557
 31
0.0
210
0.0
220
0.0
230
1.0
 40
0.4000000000000001
 41
1.850633272656679
 42
2.442876790075129
  0
LINE
  5
9D
330
1F
100
AcDbEntity
  8
0-0_補助線
  6
JWW_HOJO
 62
   120
370
     5
100
AcDbLine
 10
4619.917643811961
 20
2718.999983504013
 30
0.0
 11
4619.917643811961
 21
3536.444090120684
 31
0.0
  0
LINE
  5
9E
330
1F
100
AcDbEntity
  8
0-A_文字
  6
Continuous
 62
    92
370
     5
100
AcDbLine
 10
3869.917643811962
 20
3684.999983504013
 30
0.0
 11
3869.917643811962
 21
2718.999983504013
 31
0.0
  0
LINE
  5
9F
330
1F
100
AcDbEntity
  8
0-0_補助線
  6
JWW_HOJO
 62
   120
370
     5
100
AcDbLine
 10
3899.917643811962
 20
3684.999983504013
 30
0.0
 11
3899.917643811962
 21
2718.999983504013
 31
0.0
  0
LINE
  5
A0
330
1F
100
AcDbEntity
  8
0-A_文字
  6
Continuous
 62
    92
370
     5
100
AcDbLine
 10
5369.917643811961
 20
2718.999983504013
 30
0.0
 11
3869.917643811962
 21
2718.999983504013
 31
0.0
  0
LINE
  5
A1
330
1F
100
AcDbEntity
  8
0-A_文字
  6
Continuous
 62
    92
370
     5
100
AcDbLine
 10
5369.917643811961
 20
3684.999983504013
 30
0.0
 11
5369.917643811961
 21
2718.999983504013
 31
0.0
  0
LINE
  5
A2
330
1F
100
AcDbEntity
  8
0-0_補助線
  6
JWW_HOJO
 62
   120
370
     5
100
AcDbLine
 10
5339.917643811961
 20
3684.999983504013
 30
0.0
 11
5339.917643811961
 21
2718.999983504013
 31
0.0
  0
LINE
  5
A3
330
1F
100
AcDbEntity
  8
戸当り
  6
Continuous
 62
    40
370
     5
100
AcDbLine
 10
4889.917643811961
 20
3385.504011182747
 30
0.0
 11
4854.977072723121
 21
3255.104024633724
 31
0.0
  0
LINE
  5
A4
330
1F
100
AcDbEntity
  8
戸当り
  6
Continuous
 62
    40
370
     5
100
AcDbLine
 10
4820.036501634283
 20
3385.504011182747
 30
0.0
 11
4854.977072723121
 21
3255.104024633724
 31
0.0
  0
LINE
  5
A5
330
1F
100
AcDbEntity
  8
戸当り
  6
Continuous
 62
    40
370
     5
100
AcDbLine
 10
4419.798785989644
 20
3385.504011182747
 30
0.0
 11
4384.858214900803
 21
3255.104024633724
 31
0.0
  0
LINE
  5
A6
330
1F
100
AcDbEntity
  8
戸当り
  6
Continuous
 62
    40
370
     5
100
AcDbLine
 10
4349.917643811961
 20
3385.504011182747
 30
0.0
 11
4384.858214900803
 21
3255.104024633724
 31
0.0
  0
LINE
  5
A7
330
1F
100
AcDbEntity
  8
戸当り
  6
Continuous
 62
    40
370
     5
100
AcDbLine
 10
5159.917643811961
 20
3385.504011182747
 30
0.0
 11
5124.977072723121
 21
3255.104024633724
 31
0.0
  0
LINE
  5
A8
330
1F
100
AcDbEntity
  8
戸当り
  6
Continuous
 62
    40
370
     5
100
AcDbLine
 10
5090.036501634283
 20
3385.504011182747
 30
0.0
 11
5124.977072723121
 21
3255.104024633724
 31
0.0
  0
LINE
  5
A9
330
1F
100
AcDbEntity
  8
戸当り
  6
Continuous
 62
    40
370
     5
100
AcDbLine
 10
4149.798785989644
 20
3385.504011182747
 30
0.0
 11
4114.858214900803
 21
3255.104024633724
 31
0.0
  0
LINE
  5
AA
330
1F
100
AcDbEntity
  8
戸当り
  6
Continuous
 62
    40
370
     5
100
AcDbLine
 10
4079.917643811962
 20
3385.504011182747
 30
0.0
 11
4114.858214900803
 21
3255.104024633724
 31
0.0
  0
CIRCLE
  5
AB
330
1F
100
AcDbEntity
  8
0-0_補助線
  6
JWW_HOJO
 62
   120
370
     5
100
AcDbCircle
 10
5159.917643811961
 20
3385.504011182747
 30
0.0
 40
135.0
  0
CIRCLE
  5
AC
330
1F
100
AcDbEntity
  8
0-0_補助線
  6
JWW_HOJO
 62
   120
370
     5
100
AcDbCircle
 10
4079.917643811962
 20
3385.504011182747
 30
0.0
 40
135.0
  0
CIRCLE
  5
AD
330
1F
100
AcDbEntity
  8
0-0_補助線
  6
JWW_HOJO
 62
   120
370
     5
100
AcDbCircle
 10
5024.917643811961
 20
3385.504011182747
 30
0.0
 40
135.0
  0
CIRCLE
  5
AE
330
1F
100
AcDbEntity
  8
0-0_補助線
  6
JWW_HOJO
 62
   120
370
     5
100
AcDbCircle
 10
4754.917643811961
 20
3385.504011182747
 30
0.0
 40
135.0
  0
CIRCLE
  5
AF
330
1F
100
AcDbEntity
  8
0-0_補助線
  6
JWW_HOJO
 62
   120
370
     5
100
AcDbCircle
 10
4484.917643811961
 20
3385.504011182747
 30
0.0
 40
135.0
  0
CIRCLE
  5
B0
330
1F
100
AcDbEntity
  8
0-0_補助線
  6
JWW_HOJO
 62
   120
370
     5
100
AcDbCircle
 10
4214.917643811963
 20
3385.504011182747
 30
0.0
 40
135.0
  0
LINE
  5
B1
330
1F
100
AcDbEntity
  8
戸当り
  6
JWW_DASHED2
 62
     7
370
     5
100
AcDbLine
 10
5159.917643811961
 20
3385.504011182747
 30
0.0
 11
4079.917643811962
 21
3385.504011182747
 31
0.0
  0
LINE
  5
B2
330
1F
100
AcDbEntity
  8
戸当り
  6
Continuous
 62
    40
370
     5
100
AcDbLine
 10
4079.917643811962
 20
3439.504011182748
 30
0.0
 11
4079.917643811962
 21
3385.504011182747
 31
0.0
  0
LINE
  5
B3
330
1F
100
AcDbEntity
  8
戸当り
  6
Continuous
 62
    40
370
     5
100
AcDbLine
 10
4079.917643811962
 20
3439.504011182748
 30
0.0
 11
3899.917643811962
 21
3439.504011182748
 31
0.0
  0
LINE
  5
B4
330
1F
100
AcDbEntity
  8
戸当り
  6
Continuous
 62
    40
370
     5
100
AcDbLine
 10
4079.917643811962
 20
3385.504011182747
 30
0.0
 11
3899.917643811962
 21
3385.504011182747
 31
0.0
  0
LINE
  5
B5
330
1F
100
AcDbEntity
  8
戸当り
  6
Continuous
 62
    40
370
     5
100
AcDbLine
 10
5159.917643811961
 20
3439.504011182748
 30
0.0
 11
5159.917643811961
 21
3385.504011182747
 31
0.0
  0
LINE
  5
B6
330
1F
100
AcDbEntity
  8
戸当り
  6
Continuous
 62
    40
370
     5
100
AcDbLine
 10
5159.917643811961
 20
3439.504011182748
 30
0.0
 11
5339.917643811961
 21
3439.504011182748
 31
0.0
  0
LINE
  5
B7
330
1F
100
AcDbEntity
  8
戸当り
  6
Continuous
 62
    40
370
     5
100
AcDbLine
 10
5159.917643811961
 20
3385.504011182747
 30
0.0
 11
5339.917643811961
 21
3385.504011182747
 31
0.0
  0
LINE
  5
B8
330
1F
100
AcDbEntity
  8
0-A_文字
  6
Continuous
 62
    92
370
     5
100
AcDbLine
 10
5369.917643811961
 20
3540.999983504013
 30
0.0
 11
3869.917643811962
 21
3540.999983504013
 31
0.0
  0
LINE
  5
B9
330
1F
100
AcDbEntity
  8
0-A_文字
  6
Continuous
 62
    92
370
     5
100
AcDbLine
 10
5369.917643811961
 20
3684.999983504013
 30
0.0
 11
3869.917643811962
 21
3684.999983504013
 31
0.0
  0
MTEXT
  5
BA
330
1F
100
AcDbEntity
  8
0-A_文字
  6
Continuous
 62
     7
370
     5
100
AcDbMText
 10
4259.917643811961
 20
3562.188554932585
 30
0.0
 40
78.37714285714286
 41
720.0
 46
0.0
 71
     7
 72
     1
  1
{\fＭＳ ゴシック|b0|i0|c128|p49;フリーオープン}
 73
     1
 44
1.0
  0
LINE
  5
BB
330
1F
100
AcDbEntity
  8
0-0_補助線
  6
JWW_HOJO
 62
   120
370
     5
100
AcDbLine
 10
-3623.689459194384
 20
1266.945146597185
 30
0.0
 11
-3623.689459194384
 21
3141.945146597186
 31
0.0
  0
LINE
  5
BC
330
1F
100
AcDbEntity
  8
0-0_補助線
  6
JWW_HOJO
 62
   120
370
     5
100
AcDbLine
 10
1920.310144901905
 20
1266.945146597185
 30
0.0
 11
1920.310144901905
 21
3141.945146597186
 31
0.0
  0
LINE
  5
BD
330
1F
100
AcDbEntity
  8
0-0_補助線
  6
JWW_HOJO
 62
   120
370
     5
100
AcDbLine
 10
1920.310144901905
 20
2781.945146597186
 30
0.0
 11
-3623.689459194384
 21
2781.945146597186
 31
0.0
  0
LINE
  5
BE
330
1F
100
AcDbEntity
  8
0-0_補助線
  6
JWW_HOJO
 62
   120
370
     5
100
AcDbLine
 10
1920.310144901905
 20
1626.945146597185
 30
0.0
 11
-3623.689459194384
 21
1626.945146597185
 31
0.0
  0
LINE
  5
BF
330
1F
100
AcDbEntity
  8
0-0_補助線
  6
JWW_HOJO
 62
   120
370
     5
100
AcDbLine
 10
1920.310144901905
 20
1446.945146597185
 30
0.0
 11
-3623.689459194384
 21
1446.945146597185
 31
0.0
  0
LINE
  5
C0
330
1F
100
AcDbEntity
  8
0-0_補助線
  6
JWW_HOJO
 62
   120
370
     5
100
AcDbLine
 10
1920.310144901905
 20
1266.945146597185
 30
0.0
 11
-3623.689459194384
 21
1266.945146597185
 31
0.0
  0
LINE
  5
C1
330
1F
100
AcDbEntity
  8
0-0_補助線
  6
JWW_HOJO
 62
   120
370
     5
100
AcDbLine
 10
1920.310144901905
 20
3141.945146597186
 30
0.0
 11
-3623.689459194384
 21
3141.945146597186
 31
0.0
  0
LINE
  5
C2
330
1F
100
AcDbEntity
  8
0-0_補助線
  6
JWW_HOJO
 62
   120
370
     5
100
AcDbLine
 10
1920.310144901905
 20
2961.945146597186
 30
0.0
 11
-3623.689459194384
 21
2961.945146597186
 31
0.0
  0
LINE
  5
C3
330
1F
100
AcDbEntity
  8
0-1_通り芯
  6
JWW_CENTER1
 62
   120
370
     5
100
AcDbLine
 10
1920.310144901905
 20
2361.945146597186
 30
0.0
 11
-3623.689459194384
 21
2361.945146597186
 31
0.0
  0
LINE
  5
C4
330
1F
100
AcDbEntity
  8
0-C_ハッチ
  6
Continuous
 62
   120
370
     5
100
AcDbLine
 10
-3023.689657146258
 20
2565.455682251853
 30
0.0
 11
-2972.200192800914
 21
2616.945146597194
 31
0.0
  0
LINE
  5
C5
330
1F
100
AcDbEntity
  8
0-C_ハッチ
  6
Continuous
 62
   120
370
     5
100
AcDbLine
 10
-3023.68965714624
 20
2506.058712632224
 30
0.0
 11
-2912.803223181288
 21
2616.945146597176
 31
0.0
  0
LINE
  5
C6
330
1F
100
AcDbEntity
  8
0-C_ハッチ
  6
Continuous
 62
   120
370
     5
100
AcDbLine
 10
-3023.689657146251
 20
2446.661743012509
 30
0.0
 11
-2857.547955353907
 21
2612.803444804853
 31
0.0
  0
LINE
  5
C7
330
1F
100
AcDbEntity
  8
0-C_ハッチ
  6
Continuous
 62
   120
370
     5
100
AcDbLine
 10
-3023.689657146237
 20
2387.264773392876
 30
0.0
 11
-2843.68965714624
 21
2567.264773392873
 31
0.0
  0
LINE
  5
C8
330
1F
100
AcDbEntity
  8
0-C_ハッチ
  6
Continuous
 62
   120
370
     5
100
AcDbLine
 10
-3023.689657146244
 20
2327.867803773166
 30
0.0
 11
-2843.689657146254
 21
2507.867803773158
 31
0.0
  0
LINE
  5
C9
330
1F
100
AcDbEntity
  8
0-C_ハッチ
  6
Continuous
 62
   120
370
     5
100
AcDbLine
 10
-3023.689657146241
 20
2268.470834153522
 30
0.0
 11
-2874.591640386995
 21
2417.56885091277
 31
0.0
  0
LINE
  5
CA
330
1F
100
AcDbEntity
  8
0-C_ハッチ
  6
Continuous
 62
   120
370
     5
100
AcDbLine
 10
-3023.689657146237
 20
2209.073864533881
 30
0.0
 11
-2879.564636367415
 21
2353.198885312703
 31
0.0
  0
LINE
  5
CB
330
1F
100
AcDbEntity
  8
0-C_ハッチ
  6
Continuous
 62
   120
370
     5
100
AcDbLine
 10
-3023.689657146251
 20
2149.676894914164
 30
0.0
 11
-2873.356261282608
 21
2300.010290777808
 31
0.0
  0
LINE
  5
CC
330
1F
100
AcDbEntity
  8
0-C_ハッチ
  6
Continuous
 62
   120
370
     5
100
AcDbLine
 10
-3007.024435843579
 20
2106.945146597188
 30
0.0
 11
-2860.004647740117
 21
2253.964934700652
 31
0.0
  0
LINE
  5
CD
330
1F
100
AcDbEntity
  8
0-C_ハッチ
  6
Continuous
 62
   120
370
     5
100
AcDbLine
 10
-2947.627466223877
 20
2106.945146597187
 30
0.0
 11
-2843.689657146244
 21
2210.882955674823
 31
0.0
  0
LINE
  5
CE
330
1F
100
AcDbEntity
  8
0-C_ハッチ
  6
Continuous
 62
   120
370
     5
100
AcDbLine
 10
-2888.23049660424
 20
2106.945146597181
 30
0.0
 11
-2843.689657146247
 21
2151.485986055172
 31
0.0
  0
ARC
  5
CF
330
1F
100
AcDbEntity
  8
0-4_枠
  6
Continuous
 62
    92
370
     5
100
AcDbCircle
 10
-2573.68965714624
 20
2361.945146597186
 30
0.0
 40
306.0000000000022
100
AcDbArc
 50
151.9275130641473
 51
208.0724869358527
  0
LINE
  5
D0
330
1F
100
AcDbEntity
  8
0-4_枠
  6
Continuous
 62
    92
370
     5
100
AcDbLine
 10
-2843.689657146241
 20
2505.945146597186
 30
0.0
 11
-2843.689657146241
 21
2598.945146597186
 31
0.0
  0
LINE
  5
D1
330
1F
100
AcDbEntity
  8
0-4_枠
  6
Continuous
 62
    92
370
     5
100
AcDbLine
 10
-2843.689657146241
 20
2124.945146597184
 30
0.0
 11
-2843.689657146241
 21
2217.945146597185
 31
0.0
  0
LINE
  5
D2
330
1F
100
AcDbEntity
  8
0-4_枠
  6
Continuous
 62
    92
370
     5
100
AcDbLine
 10
-2843.689657146241
 20
2124.945146597184
 30
0.0
 11
-2861.689657146241
 21
2106.945146597185
 31
0.0
  0
LINE
  5
D3
330
1F
100
AcDbEntity
  8
0-4_枠
  6
Continuous
 62
    92
370
     5
100
AcDbLine
 10
-2861.689657146241
 20
2106.945146597185
 30
0.0
 11
-3023.689657146241
 21
2106.945146597185
 31
0.0
  0
LINE
  5
D4
330
1F
100
AcDbEntity
  8
0-4_枠
  6
Continuous
 62
    92
370
     5
100
AcDbLine
 10
-2861.689657146241
 20
2616.945146597186
 30
0.0
 11
-2843.689657146241
 21
2598.945146597186
 31
0.0
  0
LINE
  5
D5
330
1F
100
AcDbEntity
  8
0-4_枠
  6
Continuous
 62
    92
370
     5
100
AcDbLine
 10
-2861.689657146241
 20
2616.945146597186
 30
0.0
 11
-3023.689657146241
 21
2616.945146597186
 31
0.0
  0
LINE
  5
D6
330
1F
100
AcDbEntity
  8
0-4_枠
  6
Continuous
 62
    92
370
     5
100
AcDbLine
 10
-3023.689657146241
 20
2106.945146597185
 30
0.0
 11
-3023.689657146241
 21
2616.945146597186
 31
0.0
  0
LINE
  5
D7
330
1F
100
AcDbEntity
  8
0-0_補助線
  6
Continuous
 62
   120
370
     5
100
AcDbLine
 10
-2843.689657146241
 20
2324.359196304723
 30
0.0
 11
-2858.689657146241
 21
2324.359196304723
 31
0.0
  0
LWPOLYLINE
  5
D8
330
1F
100
AcDbEntity
  8
0-0_補助線
  6
Continuous
 62
     7
370
     5
100
AcDbPolyline
 90
        4
 70
     1
 43
3.0
 10
-2842.189657146241
 20
2324.359196304723
 42
0.4142135623731
 10
-2843.689657146241
 20
2325.859196304723
 42
0.4142135623731
 10
-2845.189657146241
 20
2324.359196304723
 42
0.4142135623731
 10
-2843.689657146241
 20
2322.859196304723
 42
0.4142135623731
  0
LWPOLYLINE
  5
D9
330
1F
100
AcDbEntity
  8
0-0_補助線
  6
Continuous
 62
     7
370
     5
100
AcDbPolyline
 90
        4
 70
     1
 43
3.0
 10
-2857.189657146241
 20
2324.359196304723
 42
0.4142135623731
 10
-2858.689657146241
 20
2325.859196304723
 42
0.4142135623731
 10
-2860.189657146241
 20
2324.359196304723
 42
0.4142135623731
 10
-2858.689657146241
 20
2322.859196304723
 42
0.4142135623731
  0
LINE
  5
DA
330
1F
100
AcDbEntity
  8
0-0_補助線
  6
Continuous
 62
   120
370
     5
100
AcDbLine
 10
-2858.689657146241
 20
2324.359196304723
 30
0.0
 11
-2879.689657146242
 21
2324.359196304723
 31
0.0
  0
LWPOLYLINE
  5
DB
330
1F
100
AcDbEntity
  8
0-0_補助線
  6
Continuous
 62
     7
370
     5
100
AcDbPolyline
 90
        4
 70
     1
 43
3.0
 10
-2878.189657146242
 20
2324.359196304723
 42
0.4142135623731
 10
-2879.689657146242
 20
2325.859196304723
 42
0.4142135623731
 10
-2881.189657146242
 20
2324.359196304723
 42
0.4142135623731
 10
-2879.689657146242
 20
2322.859196304723
 42
0.4142135623731
  0
LINE
  5
DC
330
1F
100
AcDbEntity
  8
0-0_補助線
  6
Continuous
 62
   120
370
     5
100
AcDbLine
 10
-2879.689657146242
 20
2324.359196304723
 30
0.0
 11
-2879.689657146242
 21
2405.688459527909
 31
0.0
  0
MTEXT
  5
DD
330
1F
100
AcDbEntity
  8
0-0_補助線
  6
Continuous
 62
     7
370
   211
100
AcDbMText
 10
-2833.303202233893
 20
2325.079196304723
 30
0.0
 40
91.44
 41
180.0
 46
0.0
 71
     7
 72
     1
  1
{\fＭＳ ゴシック|b0|i0|c128|p49;2.5}
 73
     1
 44
1.0
  0
LINE
  5
DE
330
1F
100
AcDbEntity
  8
0-C_ハッチ
  6
Continuous
 62
   120
370
     5
100
AcDbLine
 10
1140.310342853744
 20
2547.831580562116
 30
0.0
 11
1209.423908888819
 21
2616.945146597191
 31
0.0
  0
LINE
  5
DF
330
1F
100
AcDbEntity
  8
0-C_ハッチ
  6
Continuous
 62
   120
370
     5
100
AcDbLine
 10
1146.19591597412
 20
2494.320184062844
 30
0.0
 11
1268.820878508454
 21
2616.945146597179
 31
0.0
  0
LINE
  5
E0
330
1F
100
AcDbEntity
  8
0-C_ハッチ
  6
Continuous
 62
   120
370
     5
100
AcDbLine
 10
1162.879600031613
 20
2451.606898500635
 30
0.0
 11
1320.310342853753
 21
2609.037641322776
 31
0.0
  0
LINE
  5
E1
330
1F
100
AcDbEntity
  8
0-C_ハッチ
  6
Continuous
 62
   120
370
     5
100
AcDbLine
 10
1173.558747058307
 20
2402.889075907683
 30
0.0
 11
1320.310342853772
 21
2549.640671703147
 31
0.0
  0
LINE
  5
E2
330
1F
100
AcDbEntity
  8
0-C_ハッチ
  6
Continuous
 62
   120
370
     5
100
AcDbLine
 10
1175.885096112536
 20
2345.818455342264
 30
0.0
 11
1320.310342853762
 21
2490.243702083491
 31
0.0
  0
LINE
  5
E3
330
1F
100
AcDbEntity
  8
0-C_ハッチ
  6
Continuous
 62
   120
370
     5
100
AcDbLine
 10
1163.37296214662
 20
2273.909351756647
 30
0.0
 11
1320.310342853748
 21
2430.846732463774
 31
0.0
  0
LINE
  5
E4
330
1F
100
AcDbEntity
  8
0-C_ハッチ
  6
Continuous
 62
   120
370
     5
100
AcDbLine
 10
1140.310342853762
 20
2191.44976284414
 30
0.0
 11
1320.310342853762
 21
2371.44976284414
 31
0.0
  0
LINE
  5
E5
330
1F
100
AcDbEntity
  8
0-C_ハッチ
  6
Continuous
 62
   120
370
     5
100
AcDbLine
 10
1140.310342853749
 20
2132.052793224426
 30
0.0
 11
1320.310342853753
 21
2312.052793224431
 31
0.0
  0
LINE
  5
E6
330
1F
100
AcDbEntity
  8
0-C_ハッチ
  6
Continuous
 62
   120
370
     5
100
AcDbLine
 10
1174.599665846163
 20
2106.945146597192
 30
0.0
 11
1320.310342853762
 21
2252.655823604791
 31
0.0
  0
LINE
  5
E7
330
1F
100
AcDbEntity
  8
0-C_ハッチ
  6
Continuous
 62
   120
370
     5
100
AcDbLine
 10
1233.996635465853
 20
2106.945146597181
 30
0.0
 11
1320.310342853758
 21
2193.258853985086
 31
0.0
  0
LINE
  5
E8
330
1F
100
AcDbEntity
  8
0-C_ハッチ
  6
Continuous
 62
   120
370
     5
100
AcDbLine
 10
1293.393605085515
 20
2106.945146597195
 30
0.0
 11
1320.310342853748
 21
2133.861884365429
 31
0.0
  0
ARC
  5
E9
330
1F
100
AcDbEntity
  8
0-4_枠
  6
Continuous
 62
    92
370
     5
100
AcDbCircle
 10
870.3103428537565
 20
2361.945146597186
 30
0.0
 40
306.0000000000022
100
AcDbArc
 50
331.9275130641473
 51
28.07248693585271
  0
LINE
  5
EA
330
1F
100
AcDbEntity
  8
0-4_枠
  6
Continuous
 62
    92
370
     5
100
AcDbLine
 10
1140.31034285376
 20
2505.945146597186
 30
0.0
 11
1140.31034285376
 21
2598.945146597186
 31
0.0
  0
LINE
  5
EB
330
1F
100
AcDbEntity
  8
0-4_枠
  6
Continuous
 62
    92
370
     5
100
AcDbLine
 10
1140.31034285376
 20
2124.945146597184
 30
0.0
 11
1140.31034285376
 21
2217.945146597185
 31
0.0
  0
LINE
  5
EC
330
1F
100
AcDbEntity
  8
0-4_枠
  6
Continuous
 62
    92
370
     5
100
AcDbLine
 10
1140.31034285376
 20
2124.945146597184
 30
0.0
 11
1158.310342853759
 21
2106.945146597185
 31
0.0
  0
LINE
  5
ED
330
1F
100
AcDbEntity
  8
0-4_枠
  6
Continuous
 62
    92
370
     5
100
AcDbLine
 10
1158.310342853759
 20
2106.945146597185
 30
0.0
 11
1320.31034285376
 21
2106.945146597185
 31
0.0
  0
LINE
  5
EE
330
1F
100
AcDbEntity
  8
0-4_枠
  6
Continuous
 62
    92
370
     5
100
AcDbLine
 10
1158.310342853759
 20
2616.945146597186
 30
0.0
 11
1140.31034285376
 21
2598.945146597186
 31
0.0
  0
LINE
  5
EF
330
1F
100
AcDbEntity
  8
0-4_枠
  6
Continuous
 62
    92
370
     5
100
AcDbLine
 10
1158.310342853759
 20
2616.945146597186
 30
0.0
 11
1320.31034285376
 21
2616.945146597186
 31
0.0
  0
LINE
  5
F0
330
1F
100
AcDbEntity
  8
0-4_枠
  6
Continuous
 62
    92
370
     5
100
AcDbLine
 10
1320.31034285376
 20
2106.945146597185
 30
0.0
 11
1320.31034285376
 21
2616.945146597186
 31
0.0
  0
LINE
  5
F1
330
1F
100
AcDbEntity
  8
0-7_金物
  6
Continuous
 62
     7
370
     5
100
AcDbLine
 10
1338.310006335601
 20
2271.945220829133
 30
0.0
 11
1338.310006335601
 21
2451.945072365239
 31
0.0
  0
LINE
  5
F2
330
1F
100
AcDbEntity
  8
0-7_金物
  6
Continuous
 62
     7
370
     5
100
AcDbLine
 10
1350.31034285376
 20
2451.945072365239
 30
0.0
 11
1338.310006335601
 21
2451.945072365239
 31
0.0
  0
LINE
  5
F3
330
1F
100
AcDbEntity
  8
0-7_金物
  6
Continuous
 62
     7
370
     5
100
AcDbLine
 10
1350.31034285376
 20
2271.945220829133
 30
0.0
 11
1338.310006335601
 21
2271.945220829133
 31
0.0
  0
LINE
  5
F4
330
1F
100
AcDbEntity
  8
0-7_金物
  6
Continuous
 62
     7
370
     5
100
AcDbLine
 10
1338.310006335601
 20
2301.945319805062
 30
0.0
 11
1326.31041213691
 21
2301.945319805062
 31
0.0
  0
LINE
  5
F5
330
1F
100
AcDbEntity
  8
0-7_金物
  6
Continuous
 62
     7
370
     5
100
AcDbLine
 10
1338.310006335601
 20
2421.944973389309
 30
0.0
 11
1326.31041213691
 21
2421.944973389309
 31
0.0
  0
LINE
  5
F6
330
1F
100
AcDbEntity
  8
0-7_金物
  6
Continuous
 62
     7
370
     5
100
AcDbLine
 10
1326.31041213691
 20
2301.945319805062
 30
0.0
 11
1326.31041213691
 21
2421.944973389309
 31
0.0
  0
LINE
  5
F7
330
1F
100
AcDbEntity
  8
0-7_金物
  6
Continuous
 62
     7
370
     5
100
AcDbLine
 10
1326.31041213691
 20
2415.9455474497
 30
0.0
 11
1320.31034285376
 21
2415.9455474497
 31
0.0
  0
LINE
  5
F8
330
1F
100
AcDbEntity
  8
0-7_金物
  6
Continuous
 62
     7
370
     5
100
AcDbLine
 10
1326.31041213691
 20
2307.94548806414
 30
0.0
 11
1320.31034285376
 21
2307.94548806414
 31
0.0
  0
LINE
  5
F9
330
1F
100
AcDbEntity
  8
0-7_金物
  6
Continuous
 62
     7
370
     5
100
AcDbLine
 10
1350.31034285376
 20
2271.945220829133
 30
0.0
 11
1350.31034285376
 21
2451.945072365239
 31
0.0
  0
LINE
  5
FA
330
1F
100
AcDbEntity
  8
0-3_仕上げ
  6
Continuous
 62
    40
370
     5
100
AcDbLine
 10
1320.31034285376
 20
2178.945146597187
 30
0.0
 11
1920.310144901905
 21
2178.945146597187
 31
0.0
  0
LINE
  5
FB
330
1F
100
AcDbEntity
  8
0-3_仕上げ
  6
Continuous
 62
    40
370
     5
100
AcDbLine
 10
1320.31034285376
 20
2253.945146597187
 30
0.0
 11
1920.310144901905
 21
2253.945146597187
 31
0.0
  0
LINE
  5
FC
330
1F
100
AcDbEntity
  8
0-C_ハッチ
  6
JWW_DASHED1
 62
   120
370
     5
100
AcDbLine
 10
1908.290407060709
 20
2178.945146597192
 30
0.0
 11
1920.310144901899
 21
2190.964884438382
 31
0.0
  0
LINE
  5
FD
330
1F
100
AcDbEntity
  8
0-C_ハッチ
  6
JWW_DASHED1
 62
   120
370
     5
100
AcDbLine
 10
1865.864000189512
 20
2178.945146597197
 30
0.0
 11
1920.310144901889
 21
2233.391291309573
 31
0.0
  0
LINE
  5
FE
330
1F
100
AcDbEntity
  8
0-C_ハッチ
  6
JWW_DASHED1
 62
   120
370
     5
100
AcDbLine
 10
1823.437593318316
 20
2178.9451465972
 30
0.0
 11
1898.437593318327
 21
2253.945146597211
 31
0.0
  0
LINE
  5
FF
330
1F
100
AcDbEntity
  8
0-C_ハッチ
  6
JWW_DASHED1
 62
   120
370
     5
100
AcDbLine
 10
1781.011186447109
 20
2178.945146597192
 30
0.0
 11
1856.011186447102
 21
2253.945146597186
 31
0.0
  0
LINE
  5
100
330
1F
100
AcDbEntity
  8
0-C_ハッチ
  6
JWW_DASHED1
 62
   120
370
     5
100
AcDbLine
 10
1738.584779575909
 20
2178.945146597192
 30
0.0
 11
1813.584779575903
 21
2253.945146597187
 31
0.0
  0
LINE
  5
101
330
1F
100
AcDbEntity
  8
0-C_ハッチ
  6
JWW_DASHED1
 62
   120
370
     5
100
AcDbLine
 10
1696.158372704712
 20
2178.945146597195
 30
0.0
 11
1771.158372704706
 21
2253.94514659719
 31
0.0
  0
LINE
  5
102
330
1F
100
AcDbEntity
  8
0-C_ハッチ
  6
JWW_DASHED1
 62
   120
370
     5
100
AcDbLine
 10
1653.731965833574
 20
2178.945146597203
 30
0.0
 11
1728.73196583357
 21
2253.945146597199
 31
0.0
  0
LINE
  5
103
330
1F
100
AcDbEntity
  8
0-C_ハッチ
  6
JWW_DASHED1
 62
   120
370
     5
100
AcDbLine
 10
1611.305558962378
 20
2178.945146597207
 30
0.0
 11
1686.305558962373
 21
2253.945146597202
 31
0.0
  0
LINE
  5
104
330
1F
100
AcDbEntity
  8
0-C_ハッチ
  6
JWW_DASHED1
 62
   120
370
     5
100
AcDbLine
 10
1568.879152091167
 20
2178.945146597195
 30
0.0
 11
1643.879152091177
 21
2253.945146597206
 31
0.0
  0
LINE
  5
105
330
1F
100
AcDbEntity
  8
0-C_ハッチ
  6
JWW_DASHED1
 62
   120
370
     5
100
AcDbLine
 10
1526.45274521997
 20
2178.945146597199
 30
0.0
 11
1601.45274521998
 21
2253.945146597211
 31
0.0
  0
LINE
  5
106
330
1F
100
AcDbEntity
  8
0-C_ハッチ
  6
JWW_DASHED1
 62
   120
370
     5
100
AcDbLine
 10
1484.026338348773
 20
2178.945146597202
 30
0.0
 11
1559.026338348768
 21
2253.945146597197
 31
0.0
  0
LINE
  5
107
330
1F
100
AcDbEntity
  8
0-C_ハッチ
  6
JWW_DASHED1
 62
   120
370
     5
100
AcDbLine
 10
1441.599931477561
 20
2178.94514659719
 30
0.0
 11
1516.599931477556
 21
2253.945146597186
 31
0.0
  0
LINE
  5
108
330
1F
100
AcDbEntity
  8
0-C_ハッチ
  6
JWW_DASHED1
 62
   120
370
     5
100
AcDbLine
 10
1399.173524606364
 20
2178.945146597193
 30
0.0
 11
1474.17352460636
 21
2253.94514659719
 31
0.0
  0
LINE
  5
109
330
1F
100
AcDbEntity
  8
0-C_ハッチ
  6
JWW_DASHED1
 62
   120
370
     5
100
AcDbLine
 10
1356.747117735168
 20
2178.945146597197
 30
0.0
 11
1431.747117735163
 21
2253.945146597193
 31
0.0
  0
LINE
  5
10A
330
1F
100
AcDbEntity
  8
0-C_ハッチ
  6
JWW_DASHED1
 62
   120
370
     5
100
AcDbLine
 10
1320.310342853742
 20
2184.934778586917
 30
0.0
 11
1389.320710864026
 21
2253.9451465972
 31
0.0
  0
LINE
  5
10B
330
1F
100
AcDbEntity
  8
0-C_ハッチ
  6
JWW_DASHED1
 62
   120
370
     5
100
AcDbLine
 10
1320.310342853746
 20
2227.361185458123
 30
0.0
 11
1346.89430399283
 21
2253.945146597203
 31
0.0
  0
LINE
  5
10C
330
1F
100
AcDbEntity
  8
0-3_仕上げ
  6
Continuous
 62
    40
370
     5
100
AcDbLine
 10
-3623.68945919437
 20
2178.945146597187
 30
0.0
 11
-3023.689657146223
 21
2178.945146597187
 31
0.0
  0
LINE
  5
10D
330
1F
100
AcDbEntity
  8
0-3_仕上げ
  6
Continuous
 62
    40
370
     5
100
AcDbLine
 10
-3623.68945919437
 20
2253.945146597187
 30
0.0
 11
-3023.689657146223
 21
2253.945146597187
 31
0.0
  0
LINE
  5
10E
330
1F
100
AcDbEntity
  8
0-C_ハッチ
  6
JWW_DASHED1
 62
   120
370
     5
100
AcDbLine
 10
-3035.70939498742
 20
2178.945146597192
 30
0.0
 11
-3023.689657146233
 21
2190.964884438382
 31
0.0
  0
LINE
  5
10F
330
1F
100
AcDbEntity
  8
0-C_ハッチ
  6
JWW_DASHED1
 62
   120
370
     5
100
AcDbLine
 10
-3078.135801858617
 20
2178.945146597197
 30
0.0
 11
-3023.689657146241
 21
2233.391291309573
 31
0.0
  0
LINE
  5
110
330
1F
100
AcDbEntity
  8
0-C_ハッチ
  6
JWW_DASHED1
 62
   120
370
     5
100
AcDbLine
 10
-3120.562208729813
 20
2178.9451465972
 30
0.0
 11
-3045.562208729804
 21
2253.945146597211
 31
0.0
  0
LINE
  5
111
330
1F
100
AcDbEntity
  8
0-C_ハッチ
  6
JWW_DASHED1
 62
   120
370
     5
100
AcDbLine
 10
-3162.988615601023
 20
2178.945146597192
 30
0.0
 11
-3087.98861560103
 21
2253.945146597186
 31
0.0
  0
LINE
  5
112
330
1F
100
AcDbEntity
  8
0-C_ハッチ
  6
JWW_DASHED1
 62
   120
370
     5
100
AcDbLine
 10
-3205.415022472223
 20
2178.945146597192
 30
0.0
 11
-3130.415022472227
 21
2253.945146597187
 31
0.0
  0
LINE
  5
113
330
1F
100
AcDbEntity
  8
0-C_ハッチ
  6
JWW_DASHED1
 62
   120
370
     5
100
AcDbLine
 10
-3247.84142934342
 20
2178.945146597195
 30
0.0
 11
-3172.841429343424
 21
2253.94514659719
 31
0.0
  0
LINE
  5
114
330
1F
100
AcDbEntity
  8
0-C_ハッチ
  6
JWW_DASHED1
 62
   120
370
     5
100
AcDbLine
 10
-3290.267836214556
 20
2178.945146597203
 30
0.0
 11
-3215.267836214562
 21
2253.945146597199
 31
0.0
  0
LINE
  5
115
330
1F
100
AcDbEntity
  8
0-C_ハッチ
  6
JWW_DASHED1
 62
   120
370
     5
100
AcDbLine
 10
-3332.694243085753
 20
2178.945146597207
 30
0.0
 11
-3257.694243085758
 21
2253.945146597202
 31
0.0
  0
LINE
  5
116
330
1F
100
AcDbEntity
  8
0-C_ハッチ
  6
JWW_DASHED1
 62
   120
370
     5
100
AcDbLine
 10
-3375.120649956965
 20
2178.945146597195
 30
0.0
 11
-3300.120649956955
 21
2253.945146597206
 31
0.0
  0
LINE
  5
117
330
1F
100
AcDbEntity
  8
0-C_ハッチ
  6
JWW_DASHED1
 62
   120
370
     5
100
AcDbLine
 10
-3417.547056828162
 20
2178.945146597199
 30
0.0
 11
-3342.547056828149
 21
2253.945146597211
 31
0.0
  0
LINE
  5
118
330
1F
100
AcDbEntity
  8
0-C_ハッチ
  6
JWW_DASHED1
 62
   120
370
     5
100
AcDbLine
 10
-3459.973463699358
 20
2178.945146597202
 30
0.0
 11
-3384.973463699363
 21
2253.945146597197
 31
0.0
  0
LINE
  5
119
330
1F
100
AcDbEntity
  8
0-C_ハッチ
  6
JWW_DASHED1
 62
   120
370
     5
100
AcDbLine
 10
-3502.39987057057
 20
2178.94514659719
 30
0.0
 11
-3427.399870570575
 21
2253.945146597186
 31
0.0
  0
LINE
  5
11A
330
1F
100
AcDbEntity
  8
0-C_ハッチ
  6
JWW_DASHED1
 62
   120
370
     5
100
AcDbLine
 10
-3544.826277441767
 20
2178.945146597193
 30
0.0
 11
-3469.826277441772
 21
2253.94514659719
 31
0.0
  0
LINE
  5
11B
330
1F
100
AcDbEntity
  8
0-C_ハッチ
  6
JWW_DASHED1
 62
   120
370
     5
100
AcDbLine
 10
-3587.252684312962
 20
2178.945146597197
 30
0.0
 11
-3512.252684312967
 21
2253.945146597193
 31
0.0
  0
LINE
  5
11C
330
1F
100
AcDbEntity
  8
0-C_ハッチ
  6
JWW_DASHED1
 62
   120
370
     5
100
AcDbLine
 10
-3623.689459194389
 20
2184.934778586917
 30
0.0
 11
-3554.679091184105
 21
2253.9451465972
 31
0.0
  0
LINE
  5
11D
330
1F
100
AcDbEntity
  8
0-C_ハッチ
  6
JWW_DASHED1
 62
   120
370
     5
100
AcDbLine
 10
-3623.689459194384
 20
2227.361185458123
 30
0.0
 11
-3597.1054980553
 21
2253.945146597203
 31
0.0
  0
LINE
  5
11E
330
1F
100
AcDbEntity
  8
0-7_金物
  6
Continuous
 62
     7
370
     5
100
AcDbLine
 10
-3041.689320628084
 20
2271.945220829133
 30
0.0
 11
-3041.689320628084
 21
2451.945072365239
 31
0.0
  0
LINE
  5
11F
330
1F
100
AcDbEntity
  8
0-7_金物
  6
Continuous
 62
     7
370
     5
100
AcDbLine
 10
-3053.689657146244
 20
2451.945072365239
 30
0.0
 11
-3041.689320628084
 21
2451.945072365239
 31
0.0
  0
LINE
  5
120
330
1F
100
AcDbEntity
  8
0-7_金物
  6
Continuous
 62
     7
370
     5
100
AcDbLine
 10
-3053.689657146244
 20
2271.945220829133
 30
0.0
 11
-3041.689320628084
 21
2271.945220829133
 31
0.0
  0
LINE
  5
121
330
1F
100
AcDbEntity
  8
0-7_金物
  6
Continuous
 62
     7
370
     5
100
AcDbLine
 10
-3041.689320628084
 20
2301.945319805062
 30
0.0
 11
-3029.689726429394
 21
2301.945319805062
 31
0.0
  0
LINE
  5
122
330
1F
100
AcDbEntity
  8
0-7_金物
  6
Continuous
 62
     7
370
     5
100
AcDbLine
 10
-3041.689320628084
 20
2421.944973389309
 30
0.0
 11
-3029.689726429394
 21
2421.944973389309
 31
0.0
  0
LINE
  5
123
330
1F
100
AcDbEntity
  8
0-7_金物
  6
Continuous
 62
     7
370
     5
100
AcDbLine
 10
-3029.689726429394
 20
2301.945319805062
 30
0.0
 11
-3029.689726429394
 21
2421.944973389309
 31
0.0
  0
LINE
  5
124
330
1F
100
AcDbEntity
  8
0-7_金物
  6
Continuous
 62
     7
370
     5
100
AcDbLine
 10
-3029.689726429394
 20
2415.9455474497
 30
0.0
 11
-3023.689657146244
 21
2415.9455474497
 31
0.0
  0
LINE
  5
125
330
1F
100
AcDbEntity
  8
0-7_金物
  6
Continuous
 62
     7
370
     5
100
AcDbLine
 10
-3029.689726429394
 20
2307.94548806414
 30
0.0
 11
-3023.689657146244
 21
2307.94548806414
 31
0.0
  0
LINE
  5
126
330
1F
100
AcDbEntity
  8
0-7_金物
  6
Continuous
 62
     7
370
     5
100
AcDbLine
 10
-3053.689657146244
 20
2271.945220829133
 30
0.0
 11
-3053.689657146244
 21
2451.945072365239
 31
0.0
  0
MTEXT
  5
127
330
1F
100
AcDbEntity
  8
0-0_補助線
  6
Continuous
 62
     7
370
   211
100
AcDbMText
 10
-3037.094878837588
 20
2325.079196304723
 30
0.0
 40
91.44
 41
180.0
 46
0.0
 71
     7
 72
     1
  1
{\fＭＳ ゴシック|b0|i0|c128|p49;3.5}
 73
     1
 44
1.0
  0
LINE
  5
128
330
1F
100
AcDbEntity
  8
0-B_寸法
  6
Continuous
 62
   120
370
     5
100
AcDbLine
 10
-2414.48832972449
 20
2616.945146597176
 30
0.0
 11
-2414.48832972449
 21
2106.945146597187
 31
0.0
  0
LWPOLYLINE
  5
129
330
1F
100
AcDbEntity
  8
0-B_寸法
  6
Continuous
 62
     7
370
     5
100
AcDbPolyline
 90
        4
 70
     1
 43
3.0
 10
-2412.98832972449
 20
2616.945146597176
 42
0.4142135623731
 10
-2414.48832972449
 20
2618.445146597176
 42
0.4142135623731
 10
-2415.98832972449
 20
2616.945146597176
 42
0.4142135623731
 10
-2414.48832972449
 20
2615.445146597176
 42
0.4142135623731
  0
LWPOLYLINE
  5
12A
330
1F
100
AcDbEntity
  8
0-B_寸法
  6
Continuous
 62
     7
370
     5
100
AcDbPolyline
 90
        4
 70
     1
 43
3.0
 10
-2412.98832972449
 20
2106.945146597187
 42
0.4142135623731
 10
-2414.48832972449
 20
2108.445146597187
 42
0.4142135623731
 10
-2415.98832972449
 20
2106.945146597187
 42
0.4142135623731
 10
-2414.48832972449
 20
2105.445146597187
 42
0.4142135623731
  0
LINE
  5
12B
330
1F
100
AcDbEntity
  8
0-B_寸法
  6
Continuous
 62
   120
370
     5
100
AcDbLine
 10
-2414.48832972449
 20
2616.945146597176
 30
0.0
 11
-2533.26389850616
 21
2616.945146597176
 31
0.0
  0
LINE
  5
12C
330
1F
100
AcDbEntity
  8
0-B_寸法
  6
Continuous
 62
   120
370
     5
100
AcDbLine
 10
-2414.48832972449
 20
2106.945146597187
 30
0.0
 11
-2533.26389850616
 21
2106.945146597187
 31
0.0
  0
MTEXT
  5
12D
330
1F
100
AcDbEntity
  8
0-B_寸法
  6
Continuous
 62
     7
370
   211
100
AcDbMText
 10
-2429.48832972449
 20
2287.665146597181
 30
0.0
 40
91.44
 41
120.0
 46
0.0
 71
     7
 72
     1
  1
{\fＭＳ ゴシック|b0|i0|c128|p49;85}
 11
6.123031769111886E-17
 21
1.0
 31
0.0
 73
     1
 44
1.0
  0
LINE
  5
12E
330
1F
100
AcDbEntity
  8
0-0_補助線
  6
JWW_HOJO
 62
   120
370
     5
100
AcDbLine
 10
1920.310144901905
 20
1806.945146597185
 30
0.0
 11
-3623.689459194384
 21
1806.945146597185
 31
0.0
  0
LINE
  5
12F
330
1F
100
AcDbEntity
  8
0-0_補助線
  6
JWW_HOJO
 62
   120
370
     5
100
AcDbLine
 10
1920.310144901905
 20
1986.945146597185
 30
0.0
 11
-3623.689459194384
 21
1986.945146597185
 31
0.0
  0
LINE
  5
130
330
1F
100
AcDbEntity
  8
0-B_寸法
  6
Continuous
 62
   120
370
     5
100
AcDbLine
 10
-3053.689657146244
 20
3141.945146597186
 30
0.0
 11
1350.31034285376
 21
3141.945146597186
 31
0.0
  0
LWPOLYLINE
  5
131
330
1F
100
AcDbEntity
  8
0-B_寸法
  6
Continuous
 62
     7
370
     5
100
AcDbPolyline
 90
        4
 70
     1
 43
3.0
 10
-3052.189657146244
 20
3141.945146597186
 42
0.4142135623731
 10
-3053.689657146244
 20
3143.445146597186
 42
0.4142135623731
 10
-3055.189657146244
 20
3141.945146597186
 42
0.4142135623731
 10
-3053.689657146244
 20
3140.445146597186
 42
0.4142135623731
  0
LWPOLYLINE
  5
132
330
1F
100
AcDbEntity
  8
0-B_寸法
  6
Continuous
 62
     7
370
     5
100
AcDbPolyline
 90
        4
 70
     1
 43
3.0
 10
1351.81034285376
 20
3141.945146597186
 42
0.4142135623731
 10
1350.31034285376
 20
3143.445146597186
 42
0.4142135623731
 10
1348.81034285376
 20
3141.945146597186
 42
0.4142135623731
 10
1350.31034285376
 20
3140.445146597186
 42
0.4142135623731
  0
LINE
  5
133
330
1F
100
AcDbEntity
  8
0-B_寸法
  6
Continuous
 62
   120
370
     5
100
AcDbLine
 10
-3053.689657146244
 20
3141.945146597186
 30
0.0
 11
-3053.689657146244
 21
2781.945146597186
 31
0.0
  0
LINE
  5
134
330
1F
100
AcDbEntity
  8
0-B_寸法
  6
Continuous
 62
   120
370
     5
100
AcDbLine
 10
1350.31034285376
 20
3141.945146597186
 30
0.0
 11
1350.31034285376
 21
2781.945146597186
 31
0.0
  0
ARC
  5
135
330
1F
100
AcDbEntity
  8
0-6_扉
  6
JWW_DASHED2
 62
    40
370
     5
100
AcDbCircle
 10
859.2269827434077
 20
2557.712520567365
 30
0.0
 40
18.0
100
AcDbArc
 50
85.6539792783598
 51
175.65397927836
  0
LINE
  5
136
330
1F
100
AcDbEntity
  8
0-6_扉
  6
JWW_DASHED2
 62
    40
370
     5
100
AcDbLine
 10
950.3322294456418
 20
2568.840594224805
 30
0.0
 11
860.5910165286024
 21
2575.660763150774
 31
0.0
  0
ARC
  5
137
330
1F
100
AcDbEntity
  8
0-6_扉
  6
JWW_DASHED2
 62
    40
370
     5
100
AcDbCircle
 10
948.9681956604476
 20
2550.892351641396
 30
0.0
 40
18.0
100
AcDbArc
 50
355.6539792783599
 51
85.6539792783597
  0
ARC
  5
138
330
1F
100
AcDbEntity
  8
0-6_扉
  6
JWW_DASHED2
 62
    40
370
     5
100
AcDbCircle
 10
515.9997983542066
 20
2557.712520567369
 30
0.0
 40
18.0
100
AcDbArc
 50
4.346020721638975
 51
94.34602072163908
  0
LINE
  5
139
330
1F
100
AcDbEntity
  8
0-6_扉
  6
JWW_DASHED2
 62
    40
370
     5
100
AcDbLine
 10
424.8945516519743
 20
2568.840594224811
 30
0.0
 11
514.6357645690123
 21
2575.660763150778
 31
0.0
  0
ARC
  5
13A
330
1F
100
AcDbEntity
  8
0-6_扉
  6
JWW_DASHED2
 62
    40
370
     5
100
AcDbCircle
 10
426.258585437167
 20
2550.892351641402
 30
0.0
 40
18.0
100
AcDbArc
 50
94.34602072163908
 51
184.3460207216391
  0
LINE
  5
13B
330
1F
100
AcDbEntity
  8
0-6_扉
  6
JWW_DASHED2
 62
    40
370
     5
100
AcDbLine
 10
966.9164382438546
 20
2549.528317856206
 30
0.0
 11
933.2809223681357
 21
2106.945146597185
 31
0.0
  0
LINE
  5
13C
330
1F
100
AcDbEntity
  8
0-6_扉
  6
JWW_DASHED2
 62
    40
370
     5
100
AcDbLine
 10
408.3103428537615
 20
2549.52831785621
 30
0.0
 11
441.9458587294727
 21
2106.945146597185
 31
0.0
  0
LINE
  5
13D
330
1F
100
AcDbEntity
  8
0-6_扉
  6
JWW_DASHED2
 62
    40
370
     5
100
AcDbLine
 10
533.948040937614
 20
2559.076554352563
 30
0.0
 11
568.3092054170544
 21
2106.945146597185
 31
0.0
  0
LINE
  5
13E
330
1F
100
AcDbEntity
  8
0-6_扉
  6
JWW_DASHED2
 62
    40
370
     5
100
AcDbLine
 10
841.2787401600013
 20
2559.076554352559
 30
0.0
 11
806.9175756805523
 21
2106.945146597185
 31
0.0
  0
LINE
  5
13F
330
1F
100
AcDbEntity
  8
0-1_通り芯
  6
JWW_CENTER1
 62
   120
370
     5
100
AcDbLine
 10
408.3103428537598
 20
2781.945146597186
 30
0.0
 11
408.3103428537598
 21
2549.52831785621
 31
0.0
  0
LWPOLYLINE
  5
140
330
1F
100
AcDbEntity
  8
0-B_寸法
  6
Continuous
 62
     7
370
     5
100
AcDbPolyline
 90
        4
 70
     1
 43
3.0
 10
409.8103428537598
 20
2961.945146597186
 42
0.4142135623731
 10
408.3103428537598
 20
2963.445146597186
 42
0.4142135623731
 10
406.8103428537598
 20
2961.945146597186
 42
0.4142135623731
 10
408.3103428537598
 20
2960.445146597186
 42
0.4142135623731
  0
LINE
  5
141
330
1F
100
AcDbEntity
  8
0-B_寸法
  6
Continuous
 62
   120
370
     5
100
AcDbLine
 10
408.3103428537598
 20
2961.945146597186
 30
0.0
 11
408.3103428537598
 21
2781.945146597186
 31
0.0
  0
ARC
  5
142
330
1F
100
AcDbEntity
  8
0-6_扉
  6
JWW_DASHED2
 62
    40
370
     5
100
AcDbCircle
 10
-2562.606297035888
 20
2557.712520567365
 30
0.0
 40
18.0
100
AcDbArc
 50
4.346020721640005
 51
94.34602072164022
  0
LINE
  5
143
330
1F
100
AcDbEntity
  8
0-6_扉
  6
JWW_DASHED2
 62
    40
370
     5
100
AcDbLine
 10
-2653.711543738123
 20
2568.840594224805
 30
0.0
 11
-2563.970330821085
 21
2575.660763150774
 31
0.0
  0
ARC
  5
144
330
1F
100
AcDbEntity
  8
0-6_扉
  6
JWW_DASHED2
 62
    40
370
     5
100
AcDbCircle
 10
-2652.34750995293
 20
2550.892351641396
 30
0.0
 40
18.0
100
AcDbArc
 50
94.3460207216403
 51
184.3460207216401
  0
ARC
  5
145
330
1F
100
AcDbEntity
  8
0-6_扉
  6
JWW_DASHED2
 62
    40
370
     5
100
AcDbCircle
 10
-2219.379112646688
 20
2557.712520567369
 30
0.0
 40
18.0
100
AcDbArc
 50
85.65397927836092
 51
175.653979278361
  0
LINE
  5
146
330
1F
100
AcDbEntity
  8
0-6_扉
  6
JWW_DASHED2
 62
    40
370
     5
100
AcDbLine
 10
-2128.273865944455
 20
2568.840594224811
 30
0.0
 11
-2218.015078861493
 21
2575.660763150778
 31
0.0
  0
ARC
  5
147
330
1F
100
AcDbEntity
  8
0-6_扉
  6
JWW_DASHED2
 62
    40
370
     5
100
AcDbCircle
 10
-2129.637899729647
 20
2550.892351641402
 30
0.0
 40
18.0
100
AcDbArc
 50
355.653979278361
 51
85.65397927836094
  0
LINE
  5
148
330
1F
100
AcDbEntity
  8
0-6_扉
  6
JWW_DASHED2
 62
    40
370
     5
100
AcDbLine
 10
-2670.295752536335
 20
2549.528317856206
 30
0.0
 11
-2636.660236660618
 21
2106.945146597185
 31
0.0
  0
LINE
  5
149
330
1F
100
AcDbEntity
  8
0-6_扉
  6
JWW_DASHED2
 62
    40
370
     5
100
AcDbLine
 10
-2111.689657146242
 20
2549.52831785621
 30
0.0
 11
-2145.325173021953
 21
2106.945146597185
 31
0.0
  0
LINE
  5
14A
330
1F
100
AcDbEntity
  8
0-6_扉
  6
JWW_DASHED2
 62
    40
370
     5
100
AcDbLine
 10
-2237.327355230094
 20
2559.076554352563
 30
0.0
 11
-2271.688519709534
 21
2106.945146597185
 31
0.0
  0
LINE
  5
14B
330
1F
100
AcDbEntity
  8
0-6_扉
  6
JWW_DASHED2
 62
    40
370
     5
100
AcDbLine
 10
-2544.658054452483
 20
2559.076554352559
 30
0.0
 11
-2510.296889973033
 21
2106.945146597185
 31
0.0
  0
LINE
  5
14C
330
1F
100
AcDbEntity
  8
0-1_通り芯
  6
JWW_CENTER1
 62
   120
370
     5
100
AcDbLine
 10
-2111.689657146241
 20
2781.945146597186
 30
0.0
 11
-2111.689657146241
 21
2549.52831785621
 31
0.0
  0
LWPOLYLINE
  5
14D
330
1F
100
AcDbEntity
  8
0-B_寸法
  6
Continuous
 62
     7
370
     5
100
AcDbPolyline
 90
        4
 70
     1
 43
3.0
 10
-2110.189657146241
 20
2961.945146597186
 42
0.4142135623731
 10
-2111.689657146241
 20
2963.445146597186
 42
0.4142135623731
 10
-2113.189657146241
 20
2961.945146597186
 42
0.4142135623731
 10
-2111.689657146241
 20
2960.445146597186
 42
0.4142135623731
  0
LINE
  5
14E
330
1F
100
AcDbEntity
  8
0-B_寸法
  6
Continuous
 62
   120
370
     5
100
AcDbLine
 10
-2111.689657146241
 20
2961.945146597186
 30
0.0
 11
-2111.689657146241
 21
2781.945146597186
 31
0.0
  0
LINE
  5
14F
330
1F
100
AcDbEntity
  8
0-B_寸法
  6
Continuous
 62
   120
370
     5
100
AcDbLine
 10
-2111.689657146241
 20
2961.945146597186
 30
0.0
 11
408.3103428537598
 21
2961.945146597186
 31
0.0
  0
LINE
  5
150
330
1F
100
AcDbEntity
  8
0-0_補助線
  6
JWW_HOJO
 62
     7
370
     5
100
AcDbLine
 10
-2843.689657146241
 20
1086.945146597185
 30
0.0
 11
-2843.689657146241
 21
3321.945146597186
 31
0.0
  0
LINE
  5
151
330
1F
100
AcDbEntity
  8
0-0_補助線
  6
JWW_HOJO
 62
     7
370
     5
100
AcDbLine
 10
1140.31034285376
 20
1086.945146597185
 30
0.0
 11
1140.31034285376
 21
3321.945146597186
 31
0.0
  0
LINE
  5
152
330
1F
100
AcDbEntity
  8
0-0_補助線
  6
JWW_HOJO
 62
     7
370
     5
100
AcDbLine
 10
-2361.439657146245
 20
1086.945146597185
 30
0.0
 11
-2361.439657146245
 21
3321.945146597186
 31
0.0
  0
LINE
  5
153
330
1F
100
AcDbEntity
  8
0-0_補助線
  6
JWW_HOJO
 62
     7
370
     5
100
AcDbLine
 10
-1858.189657146246
 20
1086.945146597185
 30
0.0
 11
-1858.189657146246
 21
3321.945146597186
 31
0.0
  0
LINE
  5
154
330
1F
100
AcDbEntity
  8
0-0_補助線
  6
JWW_HOJO
 62
     7
370
     5
100
AcDbLine
 10
-1354.939657146243
 20
1086.945146597185
 30
0.0
 11
-1354.939657146243
 21
3321.945146597186
 31
0.0
  0
LINE
  5
155
330
1F
100
AcDbEntity
  8
0-0_補助線
  6
JWW_HOJO
 62
     7
370
     5
100
AcDbLine
 10
-851.6896571462453
 20
1086.945146597185
 30
0.0
 11
-851.6896571462453
 21
3321.945146597186
 31
0.0
  0
LINE
  5
156
330
1F
100
AcDbEntity
  8
0-0_補助線
  6
JWW_HOJO
 62
     7
370
     5
100
AcDbLine
 10
-348.4396571462452
 20
1086.945146597185
 30
0.0
 11
-348.4396571462452
 21
3321.945146597186
 31
0.0
  0
LINE
  5
157
330
1F
100
AcDbEntity
  8
0-0_補助線
  6
JWW_HOJO
 62
     7
370
     5
100
AcDbLine
 10
154.8103428537601
 20
1086.945146597185
 30
0.0
 11
154.8103428537601
 21
3321.945146597186
 31
0.0
  0
LINE
  5
158
330
1F
100
AcDbEntity
  8
0-0_補助線
  6
JWW_HOJO
 62
     7
370
     5
100
AcDbLine
 10
658.0603428537543
 20
1086.945146597185
 30
0.0
 11
658.0603428537543
 21
3321.945146597186
 31
0.0
  0
LINE
  5
159
330
1F
100
AcDbEntity
  8
0-B_寸法
  6
Continuous
 62
   120
370
     5
100
AcDbLine
 10
-2858.689657146244
 20
1806.945146597185
 30
0.0
 11
-2364.439657146246
 21
1806.945146597185
 31
0.0
  0
LWPOLYLINE
  5
15A
330
1F
100
AcDbEntity
  8
0-B_寸法
  6
Continuous
 62
     7
370
     5
100
AcDbPolyline
 90
        4
 70
     1
 43
3.0
 10
-2857.189657146244
 20
1806.945146597185
 42
0.4142135623731
 10
-2858.689657146244
 20
1808.445146597184
 42
0.4142135623731
 10
-2860.189657146244
 20
1806.945146597185
 42
0.4142135623731
 10
-2858.689657146244
 20
1805.445146597185
 42
0.4142135623731
  0
LINE
  5
15B
330
1F
100
AcDbEntity
  8
0-B_寸法
  6
Continuous
 62
   120
370
     5
100
AcDbLine
 10
-2858.689657146244
 20
1806.945146597185
 30
0.0
 11
-2858.689657146244
 21
1986.945146597185
 31
0.0
  0
LINE
  5
15C
330
1F
100
AcDbEntity
  8
0-B_寸法
  6
Continuous
 62
   120
370
     5
100
AcDbLine
 10
-2364.439657146246
 20
1806.945146597185
 30
0.0
 11
-2364.439657146246
 21
1986.945146597185
 31
0.0
  0
LINE
  5
15D
330
1F
100
AcDbEntity
  8
0-B_寸法
  6
Continuous
 62
   120
370
     5
100
AcDbLine
 10
-2358.439657146245
 20
1806.945146597185
 30
0.0
 11
-2358.439657146245
 21
1986.945146597185
 31
0.0
  0
LINE
  5
15E
330
1F
100
AcDbEntity
  8
0-B_寸法
  6
Continuous
 62
   120
370
     5
100
AcDbLine
 10
-1864.189657146245
 20
1806.945146597185
 30
0.0
 11
-1864.189657146245
 21
1986.945146597185
 31
0.0
  0
LINE
  5
15F
330
1F
100
AcDbEntity
  8
0-B_寸法
  6
Continuous
 62
   120
370
     5
100
AcDbLine
 10
-1852.189657146245
 20
1806.945146597185
 30
0.0
 11
-1852.189657146245
 21
1986.945146597185
 31
0.0
  0
LINE
  5
160
330
1F
100
AcDbEntity
  8
0-B_寸法
  6
Continuous
 62
   120
370
     5
100
AcDbLine
 10
-1357.939657146245
 20
1806.945146597185
 30
0.0
 11
-1357.939657146245
 21
1986.945146597185
 31
0.0
  0
LINE
  5
161
330
1F
100
AcDbEntity
  8
0-B_寸法
  6
Continuous
 62
   120
370
     5
100
AcDbLine
 10
-1351.939657146241
 20
1806.945146597185
 30
0.0
 11
-1351.939657146241
 21
1986.945146597185
 31
0.0
  0
LINE
  5
162
330
1F
100
AcDbEntity
  8
0-B_寸法
  6
Continuous
 62
   120
370
     5
100
AcDbLine
 10
-857.689657146245
 20
1806.945146597185
 30
0.0
 11
-857.689657146245
 21
1986.945146597185
 31
0.0
  0
LINE
  5
163
330
1F
100
AcDbEntity
  8
0-B_寸法
  6
Continuous
 62
   120
370
     5
100
AcDbLine
 10
-845.6896571462448
 20
1806.945146597185
 30
0.0
 11
-845.6896571462448
 21
1986.945146597185
 31
0.0
  0
LINE
  5
164
330
1F
100
AcDbEntity
  8
0-B_寸法
  6
Continuous
 62
   120
370
     5
100
AcDbLine
 10
-351.439657146245
 20
1806.945146597185
 30
0.0
 11
-351.439657146245
 21
1986.945146597185
 31
0.0
  0
LINE
  5
165
330
1F
100
AcDbEntity
  8
0-B_寸法
  6
Continuous
 62
   120
370
     5
100
AcDbLine
 10
-345.4396571462453
 20
1806.945146597185
 30
0.0
 11
-345.4396571462453
 21
1986.945146597185
 31
0.0
  0
LINE
  5
166
330
1F
100
AcDbEntity
  8
0-B_寸法
  6
Continuous
 62
   120
370
     5
100
AcDbLine
 10
148.8103428537647
 20
1806.945146597185
 30
0.0
 11
148.8103428537647
 21
1986.945146597185
 31
0.0
  0
LINE
  5
167
330
1F
100
AcDbEntity
  8
0-B_寸法
  6
Continuous
 62
   120
370
     5
100
AcDbLine
 10
160.8103428537547
 20
1806.945146597185
 30
0.0
 11
160.8103428537547
 21
1986.945146597185
 31
0.0
  0
LINE
  5
168
330
1F
100
AcDbEntity
  8
0-B_寸法
  6
Continuous
 62
   120
370
     5
100
AcDbLine
 10
655.0603428537545
 20
1806.945146597185
 30
0.0
 11
655.0603428537545
 21
1986.945146597185
 31
0.0
  0
LINE
  5
169
330
1F
100
AcDbEntity
  8
0-B_寸法
  6
Continuous
 62
   120
370
     5
100
AcDbLine
 10
661.0603428537542
 20
1806.945146597185
 30
0.0
 11
1155.310342853765
 21
1806.945146597185
 31
0.0
  0
LWPOLYLINE
  5
16A
330
1F
100
AcDbEntity
  8
0-B_寸法
  6
Continuous
 62
     7
370
     5
100
AcDbPolyline
 90
        4
 70
     1
 43
3.0
 10
1156.810342853765
 20
1806.945146597185
 42
0.4142135623731
 10
1155.310342853765
 20
1808.445146597184
 42
0.4142135623731
 10
1153.810342853765
 20
1806.945146597185
 42
0.4142135623731
 10
1155.310342853765
 20
1805.445146597185
 42
0.4142135623731
  0
LINE
  5
16B
330
1F
100
AcDbEntity
  8
0-B_寸法
  6
Continuous
 62
   120
370
     5
100
AcDbLine
 10
661.0603428537542
 20
1806.945146597185
 30
0.0
 11
661.0603428537542
 21
1986.945146597185
 31
0.0
  0
LINE
  5
16C
330
1F
100
AcDbEntity
  8
0-B_寸法
  6
Continuous
 62
   120
370
     5
100
AcDbLine
 10
1155.310342853765
 20
1806.945146597185
 30
0.0
 11
1155.310342853765
 21
1986.945146597185
 31
0.0
  0
LINE
  5
16D
330
1F
100
AcDbEntity
  8
0-B_寸法
  6
Continuous
 62
   120
370
     5
100
AcDbLine
 10
-2858.689657146244
 20
1626.945146597185
 30
0.0
 11
-1864.189657146245
 21
1626.945146597185
 31
0.0
  0
LWPOLYLINE
  5
16E
330
1F
100
AcDbEntity
  8
0-B_寸法
  6
Continuous
 62
     7
370
     5
100
AcDbPolyline
 90
        4
 70
     1
 43
3.0
 10
-2857.189657146244
 20
1626.945146597185
 42
0.4142135623731
 10
-2858.689657146244
 20
1628.445146597184
 42
0.4142135623731
 10
-2860.189657146244
 20
1626.945146597185
 42
0.4142135623731
 10
-2858.689657146244
 20
1625.445146597185
 42
0.4142135623731
  0
LINE
  5
16F
330
1F
100
AcDbEntity
  8
0-B_寸法
  6
Continuous
 62
   120
370
     5
100
AcDbLine
 10
-2858.689657146244
 20
1626.945146597185
 30
0.0
 11
-2858.689657146244
 21
1806.945146597185
 31
0.0
  0
LINE
  5
170
330
1F
100
AcDbEntity
  8
0-B_寸法
  6
Continuous
 62
   120
370
     5
100
AcDbLine
 10
160.8103428537547
 20
1626.945146597185
 30
0.0
 11
1155.310342853765
 21
1626.945146597185
 31
0.0
  0
LWPOLYLINE
  5
171
330
1F
100
AcDbEntity
  8
0-B_寸法
  6
Continuous
 62
     7
370
     5
100
AcDbPolyline
 90
        4
 70
     1
 43
3.0
 10
1156.810342853765
 20
1626.945146597185
 42
0.4142135623731
 10
1155.310342853765
 20
1628.445146597184
 42
0.4142135623731
 10
1153.810342853765
 20
1626.945146597185
 42
0.4142135623731
 10
1155.310342853765
 20
1625.445146597185
 42
0.4142135623731
  0
LINE
  5
172
330
1F
100
AcDbEntity
  8
0-B_寸法
  6
Continuous
 62
   120
370
     5
100
AcDbLine
 10
1155.310342853765
 20
1626.945146597185
 30
0.0
 11
1155.310342853765
 21
1806.945146597185
 31
0.0
  0
LWPOLYLINE
  5
173
330
1F
100
AcDbEntity
  8
0-B_寸法
  6
Continuous
 62
     7
370
     5
100
AcDbPolyline
 90
        4
 70
     1
 43
3.0
 10
-2362.939657146246
 20
1806.945146597185
 42
0.4142135623731
 10
-2364.439657146246
 20
1808.445146597184
 42
0.4142135623731
 10
-2365.939657146246
 20
1806.945146597185
 42
0.4142135623731
 10
-2364.439657146246
 20
1805.445146597185
 42
0.4142135623731
  0
LINE
  5
174
330
1F
100
AcDbEntity
  8
0-B_寸法
  6
Continuous
 62
   120
370
     5
100
AcDbLine
 10
-2358.439657146245
 20
1806.945146597185
 30
0.0
 11
-1864.189657146245
 21
1806.945146597185
 31
0.0
  0
LWPOLYLINE
  5
175
330
1F
100
AcDbEntity
  8
0-B_寸法
  6
Continuous
 62
     7
370
     5
100
AcDbPolyline
 90
        4
 70
     1
 43
3.0
 10
-2356.939657146245
 20
1806.945146597185
 42
0.4142135623731
 10
-2358.439657146245
 20
1808.445146597184
 42
0.4142135623731
 10
-2359.939657146245
 20
1806.945146597185
 42
0.4142135623731
 10
-2358.439657146245
 20
1805.445146597185
 42
0.4142135623731
  0
LWPOLYLINE
  5
176
330
1F
100
AcDbEntity
  8
0-B_寸法
  6
Continuous
 62
     7
370
     5
100
AcDbPolyline
 90
        4
 70
     1
 43
3.0
 10
-1862.689657146246
 20
1806.945146597185
 42
0.4142135623731
 10
-1864.189657146245
 20
1808.445146597184
 42
0.4142135623731
 10
-1865.689657146245
 20
1806.945146597185
 42
0.4142135623731
 10
-1864.189657146245
 20
1805.445146597185
 42
0.4142135623731
  0
LINE
  5
177
330
1F
100
AcDbEntity
  8
0-B_寸法
  6
Continuous
 62
   120
370
     5
100
AcDbLine
 10
-1852.189657146245
 20
1806.945146597185
 30
0.0
 11
-1357.939657146245
 21
1806.945146597185
 31
0.0
  0
LWPOLYLINE
  5
178
330
1F
100
AcDbEntity
  8
0-B_寸法
  6
Continuous
 62
     7
370
     5
100
AcDbPolyline
 90
        4
 70
     1
 43
3.0
 10
-1850.689657146245
 20
1806.945146597185
 42
0.4142135623731
 10
-1852.189657146245
 20
1808.445146597184
 42
0.4142135623731
 10
-1853.689657146244
 20
1806.945146597185
 42
0.4142135623731
 10
-1852.189657146245
 20
1805.445146597185
 42
0.4142135623731
  0
LWPOLYLINE
  5
179
330
1F
100
AcDbEntity
  8
0-B_寸法
  6
Continuous
 62
     7
370
     5
100
AcDbPolyline
 90
        4
 70
     1
 43
3.0
 10
-1356.439657146246
 20
1806.945146597185
 42
0.4142135623731
 10
-1357.939657146245
 20
1808.445146597184
 42
0.4142135623731
 10
-1359.439657146245
 20
1806.945146597185
 42
0.4142135623731
 10
-1357.939657146245
 20
1805.445146597185
 42
0.4142135623731
  0
LINE
  5
17A
330
1F
100
AcDbEntity
  8
0-B_寸法
  6
Continuous
 62
   120
370
     5
100
AcDbLine
 10
-1351.939657146241
 20
1806.945146597185
 30
0.0
 11
-857.689657146245
 21
1806.945146597185
 31
0.0
  0
LWPOLYLINE
  5
17B
330
1F
100
AcDbEntity
  8
0-B_寸法
  6
Continuous
 62
     7
370
     5
100
AcDbPolyline
 90
        4
 70
     1
 43
3.0
 10
-1350.439657146241
 20
1806.945146597185
 42
0.4142135623731
 10
-1351.939657146241
 20
1808.445146597184
 42
0.4142135623731
 10
-1353.439657146241
 20
1806.945146597185
 42
0.4142135623731
 10
-1351.939657146241
 20
1805.445146597185
 42
0.4142135623731
  0
LWPOLYLINE
  5
17C
330
1F
100
AcDbEntity
  8
0-B_寸法
  6
Continuous
 62
     7
370
     5
100
AcDbPolyline
 90
        4
 70
     1
 43
3.0
 10
-856.1896571462449
 20
1806.945146597185
 42
0.4142135623731
 10
-857.689657146245
 20
1808.445146597184
 42
0.4142135623731
 10
-859.189657146245
 20
1806.945146597185
 42
0.4142135623731
 10
-857.689657146245
 20
1805.445146597185
 42
0.4142135623731
  0
LINE
  5
17D
330
1F
100
AcDbEntity
  8
0-B_寸法
  6
Continuous
 62
   120
370
     5
100
AcDbLine
 10
-845.6896571462448
 20
1806.945146597185
 30
0.0
 11
-351.439657146245
 21
1806.945146597185
 31
0.0
  0
LWPOLYLINE
  5
17E
330
1F
100
AcDbEntity
  8
0-B_寸法
  6
Continuous
 62
     7
370
     5
100
AcDbPolyline
 90
        4
 70
     1
 43
3.0
 10
-844.1896571462448
 20
1806.945146597185
 42
0.4142135623731
 10
-845.6896571462448
 20
1808.445146597184
 42
0.4142135623731
 10
-847.1896571462448
 20
1806.945146597185
 42
0.4142135623731
 10
-845.6896571462448
 20
1805.445146597185
 42
0.4142135623731
  0
LWPOLYLINE
  5
17F
330
1F
100
AcDbEntity
  8
0-B_寸法
  6
Continuous
 62
     7
370
     5
100
AcDbPolyline
 90
        4
 70
     1
 43
3.0
 10
-349.939657146245
 20
1806.945146597185
 42
0.4142135623731
 10
-351.439657146245
 20
1808.445146597184
 42
0.4142135623731
 10
-352.939657146245
 20
1806.945146597185
 42
0.4142135623731
 10
-351.439657146245
 20
1805.445146597185
 42
0.4142135623731
  0
LINE
  5
180
330
1F
100
AcDbEntity
  8
0-B_寸法
  6
Continuous
 62
   120
370
     5
100
AcDbLine
 10
-345.4396571462453
 20
1806.945146597185
 30
0.0
 11
148.8103428537647
 21
1806.945146597185
 31
0.0
  0
LWPOLYLINE
  5
181
330
1F
100
AcDbEntity
  8
0-B_寸法
  6
Continuous
 62
     7
370
     5
100
AcDbPolyline
 90
        4
 70
     1
 43
3.0
 10
-343.9396571462453
 20
1806.945146597185
 42
0.4142135623731
 10
-345.4396571462453
 20
1808.445146597184
 42
0.4142135623731
 10
-346.9396571462453
 20
1806.945146597185
 42
0.4142135623731
 10
-345.4396571462453
 20
1805.445146597185
 42
0.4142135623731
  0
LWPOLYLINE
  5
182
330
1F
100
AcDbEntity
  8
0-B_寸法
  6
Continuous
 62
     7
370
     5
100
AcDbPolyline
 90
        4
 70
     1
 43
3.0
 10
150.3103428537647
 20
1806.945146597185
 42
0.4142135623731
 10
148.8103428537647
 20
1808.445146597184
 42
0.4142135623731
 10
147.3103428537647
 20
1806.945146597185
 42
0.4142135623731
 10
148.8103428537647
 20
1805.445146597185
 42
0.4142135623731
  0
LINE
  5
183
330
1F
100
AcDbEntity
  8
0-B_寸法
  6
Continuous
 62
   120
370
     5
100
AcDbLine
 10
160.8103428537547
 20
1806.945146597185
 30
0.0
 11
655.0603428537545
 21
1806.945146597185
 31
0.0
  0
LWPOLYLINE
  5
184
330
1F
100
AcDbEntity
  8
0-B_寸法
  6
Continuous
 62
     7
370
     5
100
AcDbPolyline
 90
        4
 70
     1
 43
3.0
 10
162.3103428537547
 20
1806.945146597185
 42
0.4142135623731
 10
160.8103428537547
 20
1808.445146597184
 42
0.4142135623731
 10
159.3103428537547
 20
1806.945146597185
 42
0.4142135623731
 10
160.8103428537547
 20
1805.445146597185
 42
0.4142135623731
  0
LWPOLYLINE
  5
185
330
1F
100
AcDbEntity
  8
0-B_寸法
  6
Continuous
 62
     7
370
     5
100
AcDbPolyline
 90
        4
 70
     1
 43
3.0
 10
656.5603428537545
 20
1806.945146597185
 42
0.4142135623731
 10
655.0603428537545
 20
1808.445146597184
 42
0.4142135623731
 10
653.5603428537545
 20
1806.945146597185
 42
0.4142135623731
 10
655.0603428537545
 20
1805.445146597185
 42
0.4142135623731
  0
LWPOLYLINE
  5
186
330
1F
100
AcDbEntity
  8
0-B_寸法
  6
Continuous
 62
     7
370
     5
100
AcDbPolyline
 90
        4
 70
     1
 43
3.0
 10
662.5603428537542
 20
1806.945146597185
 42
0.4142135623731
 10
661.0603428537542
 20
1808.445146597184
 42
0.4142135623731
 10
659.5603428537542
 20
1806.945146597185
 42
0.4142135623731
 10
661.0603428537542
 20
1805.445146597185
 42
0.4142135623731
  0
LWPOLYLINE
  5
187
330
1F
100
AcDbEntity
  8
0-B_寸法
  6
Continuous
 62
     7
370
     5
100
AcDbPolyline
 90
        4
 70
     1
 43
3.0
 10
-1862.689657146246
 20
1626.945146597185
 42
0.4142135623731
 10
-1864.189657146245
 20
1628.445146597184
 42
0.4142135623731
 10
-1865.689657146245
 20
1626.945146597185
 42
0.4142135623731
 10
-1864.189657146245
 20
1625.445146597185
 42
0.4142135623731
  0
LINE
  5
188
330
1F
100
AcDbEntity
  8
0-B_寸法
  6
Continuous
 62
   120
370
     5
100
AcDbLine
 10
-1864.189657146245
 20
1626.945146597185
 30
0.0
 11
-1864.189657146245
 21
1806.945146597185
 31
0.0
  0
LINE
  5
189
330
1F
100
AcDbEntity
  8
0-B_寸法
  6
Continuous
 62
   120
370
     5
100
AcDbLine
 10
-1864.189657146245
 20
1626.945146597185
 30
0.0
 11
-1852.189657146245
 21
1626.945146597185
 31
0.0
  0
LWPOLYLINE
  5
18A
330
1F
100
AcDbEntity
  8
0-B_寸法
  6
Continuous
 62
     7
370
     5
100
AcDbPolyline
 90
        4
 70
     1
 43
3.0
 10
-1850.689657146245
 20
1626.945146597185
 42
0.4142135623731
 10
-1852.189657146245
 20
1628.445146597184
 42
0.4142135623731
 10
-1853.689657146244
 20
1626.945146597185
 42
0.4142135623731
 10
-1852.189657146245
 20
1625.445146597185
 42
0.4142135623731
  0
LINE
  5
18B
330
1F
100
AcDbEntity
  8
0-B_寸法
  6
Continuous
 62
   120
370
     5
100
AcDbLine
 10
-1852.189657146245
 20
1626.945146597185
 30
0.0
 11
-1852.189657146245
 21
1806.945146597185
 31
0.0
  0
LINE
  5
18C
330
1F
100
AcDbEntity
  8
0-B_寸法
  6
Continuous
 62
   120
370
     5
100
AcDbLine
 10
-1852.189657146245
 20
1626.945146597185
 30
0.0
 11
-857.689657146245
 21
1626.945146597185
 31
0.0
  0
LWPOLYLINE
  5
18D
330
1F
100
AcDbEntity
  8
0-B_寸法
  6
Continuous
 62
     7
370
     5
100
AcDbPolyline
 90
        4
 70
     1
 43
3.0
 10
-856.1896571462449
 20
1626.945146597185
 42
0.4142135623731
 10
-857.689657146245
 20
1628.445146597184
 42
0.4142135623731
 10
-859.189657146245
 20
1626.945146597185
 42
0.4142135623731
 10
-857.689657146245
 20
1625.445146597185
 42
0.4142135623731
  0
LINE
  5
18E
330
1F
100
AcDbEntity
  8
0-B_寸法
  6
Continuous
 62
   120
370
     5
100
AcDbLine
 10
-857.689657146245
 20
1626.945146597185
 30
0.0
 11
-857.689657146245
 21
1806.945146597185
 31
0.0
  0
LINE
  5
18F
330
1F
100
AcDbEntity
  8
0-B_寸法
  6
Continuous
 62
   120
370
     5
100
AcDbLine
 10
-857.689657146245
 20
1626.945146597185
 30
0.0
 11
-845.6896571462448
 21
1626.945146597185
 31
0.0
  0
LWPOLYLINE
  5
190
330
1F
100
AcDbEntity
  8
0-B_寸法
  6
Continuous
 62
     7
370
     5
100
AcDbPolyline
 90
        4
 70
     1
 43
3.0
 10
-844.1896571462448
 20
1626.945146597185
 42
0.4142135623731
 10
-845.6896571462448
 20
1628.445146597184
 42
0.4142135623731
 10
-847.1896571462448
 20
1626.945146597185
 42
0.4142135623731
 10
-845.6896571462448
 20
1625.445146597185
 42
0.4142135623731
  0
LINE
  5
191
330
1F
100
AcDbEntity
  8
0-B_寸法
  6
Continuous
 62
   120
370
     5
100
AcDbLine
 10
-845.6896571462448
 20
1626.945146597185
 30
0.0
 11
-845.6896571462448
 21
1806.945146597185
 31
0.0
  0
LINE
  5
192
330
1F
100
AcDbEntity
  8
0-B_寸法
  6
Continuous
 62
   120
370
     5
100
AcDbLine
 10
-845.6896571462448
 20
1626.945146597185
 30
0.0
 11
148.8103428537647
 21
1626.945146597185
 31
0.0
  0
LWPOLYLINE
  5
193
330
1F
100
AcDbEntity
  8
0-B_寸法
  6
Continuous
 62
     7
370
     5
100
AcDbPolyline
 90
        4
 70
     1
 43
3.0
 10
150.3103428537647
 20
1626.945146597185
 42
0.4142135623731
 10
148.8103428537647
 20
1628.445146597184
 42
0.4142135623731
 10
147.3103428537647
 20
1626.945146597185
 42
0.4142135623731
 10
148.8103428537647
 20
1625.445146597185
 42
0.4142135623731
  0
LINE
  5
194
330
1F
100
AcDbEntity
  8
0-B_寸法
  6
Continuous
 62
   120
370
     5
100
AcDbLine
 10
148.8103428537647
 20
1626.945146597185
 30
0.0
 11
148.8103428537647
 21
1806.945146597185
 31
0.0
  0
LINE
  5
195
330
1F
100
AcDbEntity
  8
0-B_寸法
  6
Continuous
 62
   120
370
     5
100
AcDbLine
 10
148.8103428537647
 20
1626.945146597185
 30
0.0
 11
160.8103428537547
 21
1626.945146597185
 31
0.0
  0
LWPOLYLINE
  5
196
330
1F
100
AcDbEntity
  8
0-B_寸法
  6
Continuous
 62
     7
370
     5
100
AcDbPolyline
 90
        4
 70
     1
 43
3.0
 10
162.3103428537547
 20
1626.945146597185
 42
0.4142135623731
 10
160.8103428537547
 20
1628.445146597184
 42
0.4142135623731
 10
159.3103428537547
 20
1626.945146597185
 42
0.4142135623731
 10
160.8103428537547
 20
1625.445146597185
 42
0.4142135623731
  0
LINE
  5
197
330
1F
100
AcDbEntity
  8
0-B_寸法
  6
Continuous
 62
   120
370
     5
100
AcDbLine
 10
160.8103428537547
 20
1626.945146597185
 30
0.0
 11
160.8103428537547
 21
1806.945146597185
 31
0.0
  0
LINE
  5
198
330
1F
100
AcDbEntity
  8
0-B_寸法
  6
Continuous
 62
   120
370
     5
100
AcDbLine
 10
-3023.689657146251
 20
1446.945146597185
 30
0.0
 11
-2843.689657146247
 21
1446.945146597185
 31
0.0
  0
LWPOLYLINE
  5
199
330
1F
100
AcDbEntity
  8
0-B_寸法
  6
Continuous
 62
     7
370
     5
100
AcDbPolyline
 90
        4
 70
     1
 43
3.0
 10
-3022.189657146251
 20
1446.945146597185
 42
0.4142135623731
 10
-3023.689657146251
 20
1448.445146597184
 42
0.4142135623731
 10
-3025.189657146251
 20
1446.945146597185
 42
0.4142135623731
 10
-3023.689657146251
 20
1445.445146597185
 42
0.4142135623731
  0
LWPOLYLINE
  5
19A
330
1F
100
AcDbEntity
  8
0-B_寸法
  6
Continuous
 62
     7
370
     5
100
AcDbPolyline
 90
        4
 70
     1
 43
3.0
 10
-2842.189657146247
 20
1446.945146597185
 42
0.4142135623731
 10
-2843.689657146247
 20
1448.445146597184
 42
0.4142135623731
 10
-2845.189657146247
 20
1446.945146597185
 42
0.4142135623731
 10
-2843.689657146247
 20
1445.445146597185
 42
0.4142135623731
  0
LINE
  5
19B
330
1F
100
AcDbEntity
  8
0-B_寸法
  6
Continuous
 62
   120
370
     5
100
AcDbLine
 10
-3023.689657146251
 20
1266.945146597185
 30
0.0
 11
-3023.689657146251
 21
1806.945146597185
 31
0.0
  0
LINE
  5
19C
330
1F
100
AcDbEntity
  8
0-B_寸法
  6
Continuous
 62
   120
370
     5
100
AcDbLine
 10
-2843.689657146247
 20
1446.945146597185
 30
0.0
 11
-2843.689657146247
 21
1806.945146597185
 31
0.0
  0
MTEXT
  5
19D
330
1F
100
AcDbEntity
  8
0-B_寸法
  6
Continuous
 62
     7
370
   211
100
AcDbMText
 10
-2978.68965714625
 20
1451.235146597185
 30
0.0
 40
68.58
 41
90.0
 46
0.0
 71
     7
 72
     1
  1
{\fＭＳ ゴシック|b0|i0|c128|p49;30}
 73
     1
 44
1.0
  0
LINE
  5
19E
330
1F
100
AcDbEntity
  8
0-B_寸法
  6
Continuous
 62
   120
370
     5
100
AcDbLine
 10
-2843.689657146247
 20
1446.945146597185
 30
0.0
 11
1140.310342853762
 21
1446.945146597185
 31
0.0
  0
LWPOLYLINE
  5
19F
330
1F
100
AcDbEntity
  8
0-B_寸法
  6
Continuous
 62
     7
370
     5
100
AcDbPolyline
 90
        4
 70
     1
 43
3.0
 10
1141.810342853762
 20
1446.945146597185
 42
0.4142135623731
 10
1140.310342853762
 20
1448.445146597184
 42
0.4142135623731
 10
1138.810342853762
 20
1446.945146597185
 42
0.4142135623731
 10
1140.310342853762
 20
1445.445146597185
 42
0.4142135623731
  0
LINE
  5
1A0
330
1F
100
AcDbEntity
  8
0-B_寸法
  6
Continuous
 62
   120
370
     5
100
AcDbLine
 10
1140.310342853762
 20
1446.945146597185
 30
0.0
 11
1140.310342853762
 21
1806.945146597185
 31
0.0
  0
LINE
  5
1A1
330
1F
100
AcDbEntity
  8
0-B_寸法
  6
Continuous
 62
   120
370
     5
100
AcDbLine
 10
1140.310342853762
 20
1446.945146597185
 30
0.0
 11
1320.310342853748
 21
1446.945146597185
 31
0.0
  0
LWPOLYLINE
  5
1A2
330
1F
100
AcDbEntity
  8
0-B_寸法
  6
Continuous
 62
     7
370
     5
100
AcDbPolyline
 90
        4
 70
     1
 43
3.0
 10
1321.810342853748
 20
1446.945146597185
 42
0.4142135623731
 10
1320.310342853748
 20
1448.445146597184
 42
0.4142135623731
 10
1318.810342853748
 20
1446.945146597185
 42
0.4142135623731
 10
1320.310342853748
 20
1445.445146597185
 42
0.4142135623731
  0
LINE
  5
1A3
330
1F
100
AcDbEntity
  8
0-B_寸法
  6
Continuous
 62
   120
370
     5
100
AcDbLine
 10
1320.310342853748
 20
1266.945146597185
 30
0.0
 11
1320.310342853748
 21
1806.945146597185
 31
0.0
  0
MTEXT
  5
1A4
330
1F
100
AcDbEntity
  8
0-B_寸法
  6
Continuous
 62
     7
370
   211
100
AcDbMText
 10
1170.310342853755
 20
1447.665146597185
 30
0.0
 40
91.44
 41
120.0
 46
0.0
 71
     7
 72
     1
  1
{\fＭＳ ゴシック|b0|i0|c128|p49;30}
 73
     1
 44
1.0
  0
LINE
  5
1A5
330
1F
100
AcDbEntity
  8
0-B_寸法
  6
Continuous
 62
   120
370
     5
100
AcDbLine
 10
-3023.689657146251
 20
1266.945146597185
 30
0.0
 11
1320.310342853748
 21
1266.945146597185
 31
0.0
  0
LWPOLYLINE
  5
1A6
330
1F
100
AcDbEntity
  8
0-B_寸法
  6
Continuous
 62
     7
370
     5
100
AcDbPolyline
 90
        4
 70
     1
 43
3.0
 10
-3022.189657146251
 20
1266.945146597185
 42
0.4142135623731
 10
-3023.689657146251
 20
1268.445146597184
 42
0.4142135623731
 10
-3025.189657146251
 20
1266.945146597185
 42
0.4142135623731
 10
-3023.689657146251
 20
1265.445146597185
 42
0.4142135623731
  0
LWPOLYLINE
  5
1A7
330
1F
100
AcDbEntity
  8
0-B_寸法
  6
Continuous
 62
     7
370
     5
100
AcDbPolyline
 90
        4
 70
     1
 43
3.0
 10
1321.810342853748
 20
1266.945146597185
 42
0.4142135623731
 10
1320.310342853748
 20
1268.445146597184
 42
0.4142135623731
 10
1318.810342853748
 20
1266.945146597185
 42
0.4142135623731
 10
1320.310342853748
 20
1265.445146597185
 42
0.4142135623731
  0
MTEXT
  5
1A8
330
1F
100
AcDbEntity
  8
0-B_寸法
  6
Continuous
 62
     7
370
   211
100
AcDbMText
 10
-1241.68965714624
 20
3142.665146597185
 30
0.0
 40
91.43999999999997
 41
780.0
 46
0.0
 71
     7
 72
     1
  1
{\fＭＳ ゴシック|b0|i0|c128|p49;ＲＯＷ＝3,403}
 73
     1
 44
1.0
  0
MTEXT
  5
1A9
330
1F
100
AcDbEntity
  8
0-B_寸法
  6
Continuous
 62
     7
370
   211
100
AcDbMText
 10
-2821.564657146244
 20
1801.950146597185
 30
0.0
 40
80.00999999999999
 41
420.0
 46
0.0
 71
     7
 72
     1
  1
{\fＭＳ ゴシック|b0|i0|c128|p49;ＤＷ=416}
 73
     1
 44
1.0
  0
MTEXT
  5
1AA
330
1F
100
AcDbEntity
  8
0-B_寸法
  6
Continuous
 62
     7
370
   211
100
AcDbMText
 10
-2321.314657146246
 20
1801.950146597185
 30
0.0
 40
80.00999999999995
 41
419.9999999999998
 46
0.0
 71
     7
 72
     1
  1
{\fＭＳ ゴシック|b0|i0|c128|p49;ＤＷ=416}
 73
     1
 44
1.0
  0
MTEXT
  5
1AB
330
1F
100
AcDbEntity
  8
0-B_寸法
  6
Continuous
 62
     7
370
   211
100
AcDbMText
 10
-1815.064657146247
 20
1801.950146597185
 30
0.0
 40
80.01000000000064
 41
420.0000000000034
 46
0.0
 71
     7
 72
     1
  1
{\fＭＳ ゴシック|b0|i0|c128|p49;ＤＷ=416}
 73
     1
 44
1.0
  0
MTEXT
  5
1AC
330
1F
100
AcDbEntity
  8
0-B_寸法
  6
Continuous
 62
     7
370
   211
100
AcDbMText
 10
-1314.814657146243
 20
1801.950146597185
 30
0.0
 40
80.00999999999998
 41
419.9999999999999
 46
0.0
 71
     7
 72
     1
  1
{\fＭＳ ゴシック|b0|i0|c128|p49;ＤＷ=416}
 73
     1
 44
1.0
  0
MTEXT
  5
1AD
330
1F
100
AcDbEntity
  8
0-B_寸法
  6
Continuous
 62
     7
370
   211
100
AcDbMText
 10
-808.5646571462453
 20
1801.950146597185
 30
0.0
 40
80.00999999999998
 41
419.9999999999999
 46
0.0
 71
     7
 72
     1
  1
{\fＭＳ ゴシック|b0|i0|c128|p49;ＤＷ=416}
 73
     1
 44
1.0
  0
MTEXT
  5
1AE
330
1F
100
AcDbEntity
  8
0-B_寸法
  6
Continuous
 62
     7
370
   211
100
AcDbMText
 10
-308.3146571462407
 20
1801.950146597185
 30
0.0
 40
80.00999999999999
 41
420.0
 46
0.0
 71
     7
 72
     1
  1
{\fＭＳ ゴシック|b0|i0|c128|p49;ＤＷ=416}
 73
     1
 44
1.0
  0
MTEXT
  5
1AF
330
1F
100
AcDbEntity
  8
0-B_寸法
  6
Continuous
 62
     7
370
   211
100
AcDbMText
 10
197.9353428537542
 20
1801.950146597185
 30
0.0
 40
80.00999999999999
 41
420.0
 46
0.0
 71
     7
 72
     1
  1
{\fＭＳ ゴシック|b0|i0|c128|p49;ＤＷ=416}
 73
     1
 44
1.0
  0
MTEXT
  5
1B0
330
1F
100
AcDbEntity
  8
0-B_寸法
  6
Continuous
 62
     7
370
   211
100
AcDbMText
 10
698.1853428537589
 20
1801.950146597185
 30
0.0
 40
80.00999999999999
 41
420.0
 46
0.0
 71
     7
 72
     1
  1
{\fＭＳ ゴシック|b0|i0|c128|p49;ＤＷ=416}
 73
     1
 44
1.0
  0
MTEXT
  5
1B1
330
1F
100
AcDbEntity
  8
0-B_寸法
  6
Continuous
 62
     7
370
   211
100
AcDbMText
 10
-2751.439657146245
 20
1627.665146597185
 30
0.0
 40
91.43999999999998
 41
780.0
 46
0.0
 71
     7
 72
     1
  1
{\fＭＳ ゴシック|b0|i0|c128|p49;折戸:ＤＷ=833}
 73
     1
 44
1.0
  0
MTEXT
  5
1B2
330
1F
100
AcDbEntity
  8
0-B_寸法
  6
Continuous
 62
     7
370
   211
100
AcDbMText
 10
-1828.189657146246
 20
1627.665146597185
 30
0.0
 40
91.44
 41
60.0
 46
0.0
 71
     7
 72
     1
  1
{\fＭＳ ゴシック|b0|i0|c128|p49;2}
 73
     1
 44
1.0
  0
MTEXT
  5
1B3
330
1F
100
AcDbEntity
  8
0-B_寸法
  6
Continuous
 62
     7
370
   211
100
AcDbMText
 10
-1744.939657146245
 20
1627.665146597185
 30
0.0
 40
91.43999999999998
 41
780.0
 46
0.0
 71
     7
 72
     1
  1
{\fＭＳ ゴシック|b0|i0|c128|p49;折戸:ＤＷ=833}
 73
     1
 44
1.0
  0
MTEXT
  5
1B4
330
1F
100
AcDbEntity
  8
0-B_寸法
  6
Continuous
 62
     7
370
   211
100
AcDbMText
 10
-821.6896571462453
 20
1627.665146597185
 30
0.0
 40
91.44
 41
60.0
 46
0.0
 71
     7
 72
     1
  1
{\fＭＳ ゴシック|b0|i0|c128|p49;2}
 73
     1
 44
1.0
  0
MTEXT
  5
1B5
330
1F
100
AcDbEntity
  8
0-B_寸法
  6
Continuous
 62
     7
370
   211
100
AcDbMText
 10
-738.43965714624
 20
1627.665146597185
 30
0.0
 40
91.43999999999998
 41
780.0
 46
0.0
 71
     7
 72
     1
  1
{\fＭＳ ゴシック|b0|i0|c128|p49;折戸:ＤＷ=833}
 73
     1
 44
1.0
  0
MTEXT
  5
1B6
330
1F
100
AcDbEntity
  8
0-B_寸法
  6
Continuous
 62
     7
370
   211
100
AcDbMText
 10
184.8103428537593
 20
1627.665146597185
 30
0.0
 40
91.44
 41
60.0
 46
0.0
 71
     7
 72
     1
  1
{\fＭＳ ゴシック|b0|i0|c128|p49;2}
 73
     1
 44
1.0
  0
MTEXT
  5
1B7
330
1F
100
AcDbEntity
  8
0-B_寸法
  6
Continuous
 62
     7
370
   211
100
AcDbMText
 10
268.0603428537597
 20
1627.665146597185
 30
0.0
 40
91.43999999999998
 41
780.0
 46
0.0
 71
     7
 72
     1
  1
{\fＭＳ ゴシック|b0|i0|c128|p49;折戸:ＤＷ=833}
 73
     1
 44
1.0
  0
MTEXT
  5
1B8
330
1F
100
AcDbEntity
  8
0-B_寸法
  6
Continuous
 62
     7
370
   211
100
AcDbMText
 10
-1181.689657146242
 20
1447.665146597185
 30
0.0
 40
91.43999999999997
 41
660.0
 46
0.0
 71
     7
 72
     1
  1
{\fＭＳ ゴシック|b0|i0|c128|p49;枠内＝3,333}
 73
     1
 44
1.0
  0
MTEXT
  5
1B9
330
1F
100
AcDbEntity
  8
0-B_寸法
  6
Continuous
 62
     7
370
   211
100
AcDbMText
 10
-1181.689657146252
 20
1267.665146597185
 30
0.0
 40
91.43999999999997
 41
660.0
 46
0.0
 71
     7
 72
     1
  1
{\fＭＳ ゴシック|b0|i0|c128|p49;枠外＝3,393}
 73
     1
 44
1.0
  0
MTEXT
  5
1BA
330
1F
100
AcDbEntity
  8
0-B_寸法
  6
Continuous
 62
     7
370
   211
100
AcDbMText
 10
-1405.791242853715
 20
2962.665146597185
 30
0.0
 40
91.43999999999998
 41
1140.0
 46
0.0
 71
     7
 72
     1
  1
{\fＭＳ ゴシック|b0|i0|c128|p49;有効開口寸法＝2,849}
 73
     1
 44
1.0
  0
MTEXT
  5
1BB
330
1F
100
AcDbEntity
  8
0-A_文字
  6
Continuous
 62
     7
370
     5
100
AcDbMText
 10
-3623.689459194384
 20
3310.355192580593
 30
0.0
 40
100.584
 41
660.0
 46
0.0
 71
     7
 72
     1
  1
{\fＭＳ ゴシック|b0|i0|c128|p49;■横断面図}
 73
     1
 44
1.0
  0
MTEXT
  5
1BC
330
1F
100
AcDbEntity
  8
F-A_文字
  6
Continuous
 62
     7
370
     0
100
AcDbMText
 10
3689.917643811962
 20
-3946.903115907308
 30
0.0
 40
76.19999999999999
 41
150.0
 46
0.0
 71
     7
 72
     1
  1
{\fＭＳ ゴシック|b0|i0|c128|p49;1/5}
 73
     1
 44
1.0
  0
LINE
  5
1BD
330
1F
100
AcDbEntity
  8
0-A_文字
  6
JWW_HOJO
 62
   120
370
     5
100
AcDbLine
 10
-851.6896571462437
 20
1127.636821344848
 30
0.0
 11
1557.834152377566
 21
1127.636821344848
 31
0.0
  0
LINE
  5
1BE
330
1F
100
AcDbEntity
  8
0-A_文字
  6
JWW_HOJO
 62
   120
370
     5
100
AcDbLine
 10
-851.6896571462437
 20
1007.636821344848
 30
0.0
 11
1557.834152377566
 21
1007.636821344848
 31
0.0
  0
LINE
  5
1BF
330
1F
100
AcDbEntity
  8
0-A_文字
  6
JWW_HOJO
 62
   120
370
     5
100
AcDbLine
 10
-851.6896571462437
 20
887.6368213448476
 30
0.0
 11
1557.834152377566
 21
887.6368213448476
 31
0.0
  0
MTEXT
  5
1C0
330
1F
100
AcDbEntity
  8
0-A_文字
  6
Continuous
 62
     7
370
     5
100
AcDbMText
 10
-851.6896571462435
 20
1122.382048617575
 30
0.0
 40
79.49045454545455
 41
2295.0
 46
0.0
 71
     7
 72
     1
  1
{\fＭＳ ゴシック|b0|i0|c128|p49;※有効開口寸法にはハンドルの突出は含まない。}
 73
     1
 44
1.0
  0
MTEXT
  5
1C1
330
1F
100
AcDbEntity
  8
0-A_文字
  6
Continuous
 62
     7
370
     5
100
AcDbMText
 10
-851.6896571462443
 20
1002.430154678181
 30
0.0
 40
79.58666666666672
 41
2820.000000000002
 46
0.0
 71
     7
 72
     1
  1
{\fＭＳ ゴシック|b0|i0|c128|p49;※有効開口寸法は扉の厚さや調整によって若干異なります。}
 73
     1
 44
1.0
  0
MTEXT
  5
1C2
330
1F
100
AcDbEntity
  8
0-A_文字
  6
Continuous
 62
     7
370
     0
100
AcDbMText
 10
-851.6896571462437
 20
876.9268213448476
 30
0.0
 40
68.58
 41
1350.0
 46
0.0
 71
     7
 72
     1
  1
{\fＭＳ ゴシック|b0|i0|c128|p49;※扉厚（　）内はルーバーの場合}
 73
     1
 44
1.0
  0
MTEXT
  5
1C3
330
1F
100
AcDbEntity
  8
0-A_文字
  6
Continuous
 62
     7
370
   211
100
AcDbMText
 10
-1883.653684209018
 20
2227.665146597182
 30
0.0
 40
91.44
 41
240.0
 46
0.0
 71
     7
 72
     1
  1
{\fＭＳ ゴシック|b0|i0|c128|p49;(24)}
 11
6.123031769111886E-17
 21
1.0
 31
0.0
 73
     1
 44
1.0
  0
MTEXT
  5
1C4
330
1F
100
AcDbEntity
  8
0-A_文字
  6
Continuous
 62
    92
370
     5
100
AcDbMText
 10
-5592.499495325863
 20
3758.97768145587
 30
0.0
 40
147.955
 41
3495.0
 46
0.0
 71
     7
 72
     1
  1
{\fＭＳ ゴシック|b0|i0|c128|p49;クローゼットドア　固定枠　間口１２尺}
 73
     1
 44
1.0
  0
LINE
  5
1C5
330
1F
100
AcDbEntity
  8
0-A_文字
  6
Continuous
 62
    92
370
     5
100
AcDbLine
 10
-5659.999495325866
 20
3730.00018145587
 30
0.0
 11
-2028.571428571429
 21
3730.00018145587
 31
0.0
  0
LINE
  5
1C6
330
1F
100
AcDbEntity
  8
0-A_文字
  6
Continuous
 62
    92
370
     5
100
AcDbLine
 10
-5659.999495325866
 20
4000.00018145587
 30
0.0
 11
-2028.571428571429
 21
4000.00018145587
 31
0.0
  0
LINE
  5
1C7
330
1F
100
AcDbEntity
  8
0-A_文字
  6
Continuous
 62
    92
370
     5
100
AcDbLine
 10
-2028.571428571429
 20
3730.00018145587
 30
0.0
 11
-2028.571428571429
 21
4000.00018145587
 31
0.0
  0
MTEXT
  5
1C8
330
1F
100
AcDbEntity
  8
F-A_文字
  6
Continuous
 62
     7
370
     0
100
AcDbMText
 10
-5080.081323642279
 20
-4045.064631200341
 30
0.0
 40
79.87060975609751
 41
4297.5
 46
0.0
 71
     7
 72
     1
  1
{\fＭＳ ゴシック|b0|i0|c128|p49;ドレタス　クローゼットドア  固定枠　３方枠＋埋め込みレール　枠外H2,047　枠外W3,393}
 73
     1
 44
1.0
  0
MTEXT
  5
1C9
330
1F
100
AcDbEntity
  8
0-3_仕上げ
  6
Continuous
 62
     7
370
   211
100
AcDbMText
 10
-2732.689459194389
 20
-2721.781431288864
 30
0.0
 40
91.43999999999934
 41
119.9999999999991
 46
0.0
 71
     7
 72
     1
  1
{\fＭＳ ゴシック|b0|i0|c128|p49;32}
 73
     1
 44
1.0
  0
MTEXT
  5
1CA
330
1F
100
AcDbEntity
  8
0-A_文字
  6
Continuous
 62
     7
370
     5
100
AcDbMText
 10
-3623.689459194384
 20
414.2912972116392
 30
0.0
 40
91.44
 41
600.0
 46
0.0
 71
     7
 72
     1
  1
{\fＭＳ ゴシック|b0|i0|c128|p49;■縦断面図}
 73
     1
 44
1.0
  0
MTEXT
  5
1CB
330
1F
100
AcDbEntity
  8
0-A_文字
  6
Continuous
 62
     7
370
     5
100
AcDbMText
 10
-3623.689459194383
 20
265.7710320441958
 30
0.0
 40
91.43999999999998
 41
1800.0
 46
0.0
 71
     7
 72
     1
  1
{\fＭＳ ゴシック|b0|i0|c128|p49;　[３方枠＋レール(レール埋込)]}
 73
     1
 44
1.0
  0
MTEXT
  5
1CC
330
1F
100
AcDbEntity
  8
0-B_寸法
  6
Continuous
 62
     7
370
   211
100
AcDbMText
 10
-1304.203479650232
 20
-78.71664122705968
 30
0.0
 40
91.44
 41
60.0
 46
0.0
 71
     7
 72
     1
  1
{\fＭＳ ゴシック|b0|i0|c128|p49;8}
 11
6.123031769111886E-17
 21
1.0
 31
0.0
 73
     1
 44
1.0
  0
MTEXT
  5
1CD
330
1F
100
AcDbEntity
  8
0-B_寸法
  6
Continuous
 62
     7
370
     0
100
AcDbMText
 10
-1484.202786818733
 20
-300.2794434669463
 30
0.0
 40
91.44
 41
120.0
 46
0.0
 71
     7
 72
     1
  1
{\fＭＳ ゴシック|b0|i0|c128|p49;36}
 11
6.123031769111886E-17
 21
1.0
 31
0.0
 73
     1
 44
1.0
  0
MTEXT
  5
1CE
330
1F
100
AcDbEntity
  8
0-B_寸法
  6
Continuous
 62
     7
370
     0
100
AcDbMText
 10
-1663.631262230538
 20
-571.2356859275721
 30
0.0
 40
91.44
 41
180.0
 46
0.0
 71
     7
 72
     1
  1
{\fＭＳ ゴシック|b0|i0|c128|p49;7.5}
 11
6.123031769111886E-17
 21
1.0
 31
0.0
 73
     1
 44
1.0
  0
MTEXT
  5
1CF
330
1F
100
AcDbEntity
  8
0-B_寸法
  6
Continuous
 62
     7
370
     0
100
AcDbMText
 10
-2732.69000851079
 20
-628.762265278738
 30
0.0
 40
91.43999999999934
 41
119.9999999999991
 46
0.0
 71
     7
 72
     1
  1
{\fＭＳ ゴシック|b0|i0|c128|p49;77}
 73
     1
 44
1.0
  0
MTEXT
  5
1D0
330
1F
100
AcDbEntity
  8
0-B_寸法
  6
Continuous
 62
     7
370
     0
100
AcDbMText
 10
-1663.669974897639
 20
-3011.412100972321
 30
0.0
 40
91.44
 41
180.0
 46
0.0
 71
     7
 72
     1
  1
{\fＭＳ ゴシック|b0|i0|c128|p49;8.5}
 11
6.123031769111886E-17
 21
1.0
 31
0.0
 73
     1
 44
1.0
  0
MTEXT
  5
1D1
330
1F
100
AcDbEntity
  8
0-B_寸法
  6
Continuous
 62
     7
370
     0
100
AcDbMText
 10
-1484.202786818733
 20
-3260.006540481596
 30
0.0
 40
91.44
 41
120.0
 46
0.0
 71
     7
 72
     1
  1
{\fＭＳ ゴシック|b0|i0|c128|p49;12}
 11
6.123031769111886E-17
 21
1.0
 31
0.0
 73
     1
 44
1.0
  0
LINE
  5
1D2
330
1F
100
AcDbEntity
  8
0-3_仕上げ
  6
Continuous
 62
    40
370
     5
100
AcDbLine
 10
-3263.689459194384
 20
-3118.000311980723
 30
0.0
 11
-1919.203479650232
 21
-3118.000311980723
 31
0.0
  0
LWPOLYLINE
  5
1D3
330
1F
100
AcDbEntity
  8
0-B_寸法
  6
Continuous
 62
     7
370
     5
100
AcDbPolyline
 90
        4
 70
     1
 43
3.0
 10
-3622.189459194384
 20
-3118.000311980723
 42
0.4142135623731
 10
-3623.689459194384
 20
-3116.500311980724
 42
0.4142135623731
 10
-3625.189459194384
 20
-3118.000311980723
 42
0.4142135623731
 10
-3623.689459194384
 20
-3119.500311980723
 42
0.4142135623731
  0
LINE
  5
1D4
330
1F
100
AcDbEntity
  8
0-B_寸法
  6
Continuous
 62
   120
370
     5
100
AcDbLine
 10
-3263.689459194384
 20
-3118.000311980723
 30
0.0
 11
-3623.689459194384
 21
-3118.000311980723
 31
0.0
  0
LINE
  5
1D5
330
1F
100
AcDbEntity
  8
0-0_補助線
  6
JWW_HOJO
 62
   120
370
     5
100
AcDbLine
 10
-1919.203479650232
 20
-3117.999940974601
 30
0.0
 11
-3623.689459194384
 21
-3117.999940974601
 31
0.0
  0
LINE
  5
1D6
330
1F
100
AcDbEntity
  8
0-0_補助線
  6
JWW_HOJO
 62
   120
370
     5
100
AcDbLine
 10
-3088.460745158577
 20
-1582.000084336085
 30
0.0
 11
-2280.917761242886
 21
-1582.000084336085
 31
0.0
  0
LINE
  5
1D7
330
1F
100
AcDbEntity
  8
0-0_補助線
  6
JWW_HOJO
 62
   120
370
     5
100
AcDbLine
 10
-3088.460745158577
 20
-1702.000084336085
 30
0.0
 11
-2280.917761242886
 21
-1702.000084336085
 31
0.0
  0
LINE
  5
1D8
330
1F
100
AcDbEntity
  8
0-7_金物
  6
Continuous
 62
     7
370
     5
100
AcDbLine
 10
-2607.693998684135
 20
-339.9998344218648
 30
0.0
 11
-2570.690111507611
 21
-339.9998344218648
 31
0.0
  0
LINE
  5
1D9
330
1F
100
AcDbEntity
  8
0-7_金物
  6
Continuous
 62
     7
370
     5
100
AcDbLine
 10
-2642.688417782033
 20
-333.9997428691311
 30
0.0
 11
-2702.690105785573
 21
-333.9997428691311
 31
0.0
  0
LINE
  5
1DA
330
1F
100
AcDbEntity
  8
0-7_金物
  6
Continuous
 62
     7
370
     5
100
AcDbLine
 10
-2606.87002407476
 20
-320.787493113271
 30
0.0
 11
-2642.688417782033
 21
-320.787493113271
 31
0.0
  0
LINE
  5
1DB
330
1F
100
AcDbEntity
  8
0-7_金物
  6
Continuous
 62
     7
370
     5
100
AcDbLine
 10
-2702.690105785573
 20
-320.787493113271
 30
0.0
 11
-2738.869271625722
 21
-320.787493113271
 31
0.0
  0
LINE
  5
1DC
330
1F
100
AcDbEntity
  8
0-7_金物
  6
Continuous
 62
     7
370
     5
100
AcDbLine
 10
-2684.690346111493
 20
-378.9998344218668
 30
0.0
 11
-2684.690346111493
 21
-333.9997428691311
 31
0.0
  0
LINE
  5
1DD
330
1F
100
AcDbEntity
  8
0-7_金物
  6
Continuous
 62
     7
370
     5
100
AcDbLine
 10
-2660.689665188033
 20
-333.9997428691311
 30
0.0
 11
-2660.689665188033
 21
-378.9998344218668
 31
0.0
  0
LINE
  5
1DE
330
1F
100
AcDbEntity
  8
0-7_金物
  6
Continuous
 62
     7
370
     5
100
AcDbLine
 10
-2660.689665188033
 20
-378.9998344218668
 30
0.0
 11
-2684.690346111493
 21
-378.9998344218668
 31
0.0
  0
LINE
  5
1DF
330
1F
100
AcDbEntity
  8
0-7_金物
  6
Continuous
 62
     7
370
     5
100
AcDbLine
 10
-2774.688413490499
 20
-333.9997428691311
 30
0.0
 11
-2774.688413490499
 21
-339.9998344218648
 31
0.0
  0
LINE
  5
1E0
330
1F
100
AcDbEntity
  8
0-7_金物
  6
Continuous
 62
     7
370
     5
100
AcDbLine
 10
-2736.903611530502
 20
-339.9998344218648
 30
0.0
 11
-2774.688413490499
 21
-339.9998344218648
 31
0.0
  0
LINE
  5
1E1
330
1F
100
AcDbEntity
  8
0-7_金物
  6
Continuous
 62
     7
370
     5
100
AcDbLine
 10
-2570.690111507611
 20
-333.9997428691311
 30
0.0
 11
-2570.690111507611
 21
-339.9998344218648
 31
0.0
  0
LINE
  5
1E2
330
1F
100
AcDbEntity
  8
0-7_金物
  6
Continuous
 62
     7
370
     5
100
AcDbLine
 10
-2736.903611530502
 20
-333.9997428691311
 30
0.0
 11
-2744.690542091575
 21
-333.9997428691311
 31
0.0
  0
LINE
  5
1E3
330
1F
100
AcDbEntity
  8
0-7_金物
  6
Continuous
 62
     7
370
     5
100
AcDbLine
 10
-2736.903611530502
 20
-339.9998344218648
 30
0.0
 11
-2736.903611530502
 21
-333.9997428691311
 31
0.0
  0
LINE
  5
1E4
330
1F
100
AcDbEntity
  8
0-7_金物
  6
Continuous
 62
     7
370
     5
100
AcDbLine
 10
-2756.690135468689
 20
-333.9997428691311
 30
0.0
 11
-2774.688413490499
 21
-333.9997428691311
 31
0.0
  0
LINE
  5
1E5
330
1F
100
AcDbEntity
  8
0-7_金物
  6
Continuous
 62
     7
370
     5
100
AcDbLine
 10
-2600.690214504448
 20
-333.9997428691311
 30
0.0
 11
-2607.693998684135
 21
-333.9997428691311
 31
0.0
  0
LINE
  5
1E6
330
1F
100
AcDbEntity
  8
0-7_金物
  6
Continuous
 62
     7
370
     5
100
AcDbLine
 10
-2607.693998684135
 20
-339.9998344218648
 30
0.0
 11
-2607.693998684135
 21
-333.9997428691311
 31
0.0
  0
LINE
  5
1E7
330
1F
100
AcDbEntity
  8
0-7_金物
  6
Continuous
 62
     7
370
     5
100
AcDbLine
 10
-2588.689882625786
 20
-333.9997428691311
 30
0.0
 11
-2570.690111507611
 21
-333.9997428691311
 31
0.0
  0
LINE
  5
1E8
330
1F
100
AcDbEntity
  8
0-7_金物
  6
Continuous
 62
     7
370
     5
100
AcDbLine
 10
-2642.688417782033
 20
-254.7874931132731
 30
0.0
 11
-2606.87002407476
 21
-254.7874931132731
 31
0.0
  0
LINE
  5
1E9
330
1F
100
AcDbEntity
  8
0-7_金物
  6
Continuous
 62
     7
370
     5
100
AcDbLine
 10
-2606.87002407476
 20
-254.7874931132731
 30
0.0
 11
-2606.87002407476
 21
-320.787493113271
 31
0.0
  0
LINE
  5
1EA
330
1F
100
AcDbEntity
  8
0-7_金物
  6
Continuous
 62
     7
370
     5
100
AcDbLine
 10
-2642.688417782033
 20
-237.9992851054583
 30
0.0
 11
-2642.688417782033
 21
-333.9997428691311
 31
0.0
  0
LINE
  5
1EB
330
1F
100
AcDbEntity
  8
0-7_金物
  6
Continuous
 62
     7
370
     5
100
AcDbLine
 10
-2702.690105785573
 20
-237.9992851054583
 30
0.0
 11
-2642.688417782033
 21
-237.9992851054583
 31
0.0
  0
LINE
  5
1EC
330
1F
100
AcDbEntity
  8
0-7_金物
  6
Continuous
 62
     7
370
     5
100
AcDbLine
 10
-2702.690105785573
 20
-333.9997428691311
 30
0.0
 11
-2702.690105785573
 21
-237.9992851054583
 31
0.0
  0
LINE
  5
1ED
330
1F
100
AcDbEntity
  8
0-7_金物
  6
Continuous
 62
     7
370
     5
100
AcDbLine
 10
-2738.869271625722
 20
-254.7874931132731
 30
0.0
 11
-2702.690105785573
 21
-254.7874931132731
 31
0.0
  0
LINE
  5
1EE
330
1F
100
AcDbEntity
  8
0-7_金物
  6
Continuous
 62
     7
370
     5
100
AcDbLine
 10
-2738.869271625722
 20
-320.787493113271
 30
0.0
 11
-2738.869271625722
 21
-254.7874931132731
 31
0.0
  0
LINE
  5
1EF
330
1F
100
AcDbEntity
  8
0-7_金物
  6
Continuous
 62
     7
370
     5
100
AcDbLine
 10
-2744.690542091575
 20
-333.9997428691311
 30
0.0
 11
-2744.690542091575
 21
-225.9996513163981
 31
0.0
  0
LINE
  5
1F0
330
1F
100
AcDbEntity
  8
0-7_金物
  6
Continuous
 62
     7
370
     5
100
AcDbLine
 10
-2744.690542091575
 20
-225.9996513163981
 30
0.0
 11
-2600.690214504448
 21
-225.9996513163981
 31
0.0
  0
LINE
  5
1F1
330
1F
100
AcDbEntity
  8
0-7_金物
  6
Continuous
 62
     7
370
     5
100
AcDbLine
 10
-2600.690214504448
 20
-225.9996513163981
 30
0.0
 11
-2600.690214504448
 21
-333.9997428691311
 31
0.0
  0
LINE
  5
1F2
330
1F
100
AcDbEntity
  8
0-4_枠
  6
Continuous
 62
    92
370
     5
100
AcDbLine
 10
-2588.689882625786
 20
-213.9992851054592
 30
0.0
 11
-2588.689882625786
 21
-333.9997428691311
 31
0.0
  0
LINE
  5
1F3
330
1F
100
AcDbEntity
  8
0-4_枠
  6
Continuous
 62
    92
370
     5
100
AcDbLine
 10
-2756.690135468689
 20
-213.9992851054592
 30
0.0
 11
-2588.689882625786
 21
-213.9992851054592
 31
0.0
  0
LINE
  5
1F4
330
1F
100
AcDbEntity
  8
0-4_枠
  6
Continuous
 62
    92
370
     5
100
AcDbLine
 10
-2756.690135468689
 20
-333.9997428691311
 30
0.0
 11
-2756.690135468689
 21
-213.9992851054592
 31
0.0
  0
LINE
  5
1F5
330
1F
100
AcDbEntity
  8
0-4_枠
  6
Continuous
 62
    92
370
     5
100
AcDbLine
 10
-2441.689459194381
 20
-333.9997428691311
 30
0.0
 11
-2588.689882625786
 21
-333.9997428691311
 31
0.0
  0
LINE
  5
1F6
330
1F
100
AcDbEntity
  8
0-4_枠
  6
Continuous
 62
    92
370
     5
100
AcDbLine
 10
-2903.689459194384
 20
-333.9997428691311
 30
0.0
 11
-2756.690135468689
 21
-333.9997428691311
 31
0.0
  0
LINE
  5
1F7
330
1F
100
AcDbEntity
  8
0-4_枠
  6
Continuous
 62
    92
370
     5
100
AcDbLine
 10
-2441.689459194381
 20
-117.9999259746012
 30
0.0
 11
-2441.689459194381
 21
-333.9997428691311
 31
0.0
  0
LINE
  5
1F8
330
1F
100
AcDbEntity
  8
0-4_枠
  6
Continuous
 62
    92
370
     5
100
AcDbLine
 10
-2903.689459194384
 20
-117.9999259746012
 30
0.0
 11
-2903.689459194384
 21
-333.9997428691311
 31
0.0
  0
LINE
  5
1F9
330
1F
100
AcDbEntity
  8
0-4_枠
  6
Continuous
 62
    92
370
     5
100
AcDbLine
 10
-2903.689459194384
 20
-117.9999259746012
 30
0.0
 11
-2441.689459194381
 21
-117.9999259746012
 31
0.0
  0
LINE
  5
1FA
330
1F
100
AcDbEntity
  8
0-B_寸法
  6
Continuous
 62
   120
370
     5
100
AcDbLine
 10
-2441.689459194381
 20
-629.4822652787377
 30
0.0
 11
-2441.689459194381
 21
-475.7713178568417
 31
0.0
  0
LWPOLYLINE
  5
1FB
330
1F
100
AcDbEntity
  8
0-B_寸法
  6
Continuous
 62
     7
370
     5
100
AcDbPolyline
 90
        4
 70
     1
 43
3.0
 10
-2440.189459194381
 20
-629.4822652787377
 42
0.4142135623731
 10
-2441.689459194381
 20
-627.9822652787377
 42
0.4142135623731
 10
-2443.189459194381
 20
-629.4822652787377
 42
0.4142135623731
 10
-2441.689459194381
 20
-630.9822652787377
 42
0.4142135623731
  0
LINE
  5
1FC
330
1F
100
AcDbEntity
  8
0-B_寸法
  6
Continuous
 62
   120
370
     5
100
AcDbLine
 10
-2903.689459194384
 20
-629.4822652787377
 30
0.0
 11
-2903.689459194384
 21
-475.7713178568417
 31
0.0
  0
LWPOLYLINE
  5
1FD
330
1F
100
AcDbEntity
  8
0-B_寸法
  6
Continuous
 62
     7
370
     5
100
AcDbPolyline
 90
        4
 70
     1
 43
3.0
 10
-2902.189459194384
 20
-629.4822652787377
 42
0.4142135623731
 10
-2903.689459194384
 20
-627.9822652787377
 42
0.4142135623731
 10
-2905.189459194384
 20
-629.4822652787377
 42
0.4142135623731
 10
-2903.689459194384
 20
-630.9822652787377
 42
0.4142135623731
  0
LINE
  5
1FE
330
1F
100
AcDbEntity
  8
0-B_寸法
  6
Continuous
 62
   120
370
     5
100
AcDbLine
 10
-2441.689459194381
 20
-629.4822652787377
 30
0.0
 11
-2903.689459194384
 21
-629.4822652787377
 31
0.0
  0
LINE
  5
1FF
330
1F
100
AcDbEntity
  8
0-C_ハッチ
  6
Continuous
 62
   120
370
     5
100
AcDbLine
 10
-2898.390647959545
 20
-333.9997428691379
 30
0.0
 11
-2903.689459194384
 21
-328.7009316342926
 31
0.0
  0
LINE
  5
200
330
1F
100
AcDbEntity
  8
0-C_ハッチ
  6
Continuous
 62
   120
370
     5
100
AcDbLine
 10
-2838.993678339843
 20
-333.9997428691345
 30
0.0
 11
-2903.689459194384
 21
-269.3039620145912
 31
0.0
  0
LINE
  5
201
330
1F
100
AcDbEntity
  8
0-C_ハッチ
  6
Continuous
 62
   120
370
     5
100
AcDbLine
 10
-2779.59670872021
 20
-333.9997428691247
 30
0.0
 11
-2903.689459194384
 21
-209.9069923949435
 31
0.0
  0
LINE
  5
202
330
1F
100
AcDbEntity
  8
0-C_ハッチ
  6
Continuous
 62
   120
370
     5
100
AcDbLine
 10
-2756.690135468675
 20
-297.5093465009536
 30
0.0
 11
-2903.689459194384
 21
-150.5100227752382
 31
0.0
  0
LINE
  5
203
330
1F
100
AcDbEntity
  8
0-C_ハッチ
  6
Continuous
 62
   120
370
     5
100
AcDbLine
 10
-2756.690135468689
 20
-238.1123768812961
 30
0.0
 11
-2876.802586375384
 21
-117.9999259746012
 31
0.0
  0
LINE
  5
204
330
1F
100
AcDbEntity
  8
0-C_ハッチ
  6
Continuous
 62
   120
370
     5
100
AcDbLine
 10
-2721.406257624885
 20
-213.9992851054592
 30
0.0
 11
-2817.405616755723
 21
-117.9999259746123
 31
0.0
  0
LINE
  5
205
330
1F
100
AcDbEntity
  8
0-C_ハッチ
  6
Continuous
 62
   120
370
     5
100
AcDbLine
 10
-2542.008830241498
 20
-333.9997428691315
 30
0.0
 11
-2588.689882625786
 21
-287.3186904848535
 31
0.0
  0
LINE
  5
206
330
1F
100
AcDbEntity
  8
0-C_ハッチ
  6
Continuous
 62
   120
370
     5
100
AcDbLine
 10
-2662.009288005183
 20
-213.9992851054592
 30
0.0
 11
-2758.008647136035
 21
-117.9999259745952
 31
0.0
  0
LINE
  5
207
330
1F
100
AcDbEntity
  8
0-C_ハッチ
  6
Continuous
 62
   120
370
     5
100
AcDbLine
 10
-2482.611860621864
 20
-333.9997428691311
 30
0.0
 11
-2588.689882625772
 21
-227.9217208652101
 31
0.0
  0
LINE
  5
208
330
1F
100
AcDbEntity
  8
0-C_ハッチ
  6
Continuous
 62
   120
370
     5
100
AcDbLine
 10
-2602.612318385536
 20
-213.9992851054528
 30
0.0
 11
-2698.611677516374
 21
-117.999925974608
 31
0.0
  0
LINE
  5
209
330
1F
100
AcDbEntity
  8
0-C_ハッチ
  6
Continuous
 62
   120
370
     5
100
AcDbLine
 10
-2441.689459194381
 20
-315.5251746769022
 30
0.0
 11
-2639.214707896685
 21
-117.9999259745978
 31
0.0
  0
LINE
  5
20A
330
1F
100
AcDbEntity
  8
0-C_ハッチ
  6
Continuous
 62
   120
370
     5
100
AcDbLine
 10
-2441.689459194395
 20
-256.1282050572452
 30
0.0
 11
-2579.817738277038
 21
-117.9999259746012
 31
0.0
  0
LINE
  5
20B
330
1F
100
AcDbEntity
  8
0-C_ハッチ
  6
Continuous
 62
   120
370
     5
100
AcDbLine
 10
-2441.689459194395
 20
-196.7312354375974
 30
0.0
 11
-2520.420768657377
 21
-117.9999259746123
 31
0.0
  0
LINE
  5
20C
330
1F
100
AcDbEntity
  8
0-C_ハッチ
  6
Continuous
 62
   120
370
     5
100
AcDbLine
 10
-2441.689459194381
 20
-137.3342658179092
 30
0.0
 11
-2461.023799037689
 21
-117.9999259745952
 31
0.0
  0
LINE
  5
20D
330
1F
100
AcDbEntity
  8
0-4_枠
  6
Continuous
 62
   120
370
     5
100
AcDbLine
 10
-2441.689459194381
 20
-117.9999259746012
 30
0.0
 11
-2417.689459194389
 21
-117.9999259746012
 31
0.0
  0
LINE
  5
20E
330
1F
100
AcDbEntity
  8
0-4_枠
  6
Continuous
 62
   120
370
     5
100
AcDbLine
 10
-2903.689459194384
 20
-117.9999259746012
 30
0.0
 11
-2927.689459194389
 21
-117.9999259746012
 31
0.0
  0
LINE
  5
20F
330
1F
100
AcDbEntity
  8
0-4_枠
  6
Continuous
 62
   120
370
     5
100
AcDbLine
 10
-2417.689459194389
 20
-3046.000334250306
 30
0.0
 11
-2417.689459194389
 21
-1702.000084336085
 31
0.0
  0
LINE
  5
210
330
1F
100
AcDbEntity
  8
0-4_枠
  6
Continuous
 62
   120
370
     5
100
AcDbLine
 10
-2417.689459194389
 20
-1582.000084336085
 30
0.0
 11
-2417.689459194389
 21
-117.9999259746012
 31
0.0
  0
LINE
  5
211
330
1F
100
AcDbEntity
  8
0-4_枠
  6
Continuous
 62
   120
370
     5
100
AcDbLine
 10
-2927.689459194389
 20
-3046.000334250306
 30
0.0
 11
-2927.689459194389
 21
-1702.000084336085
 31
0.0
  0
LINE
  5
212
330
1F
100
AcDbEntity
  8
0-4_枠
  6
Continuous
 62
   120
370
     5
100
AcDbLine
 10
-2927.689459194389
 20
-1582.000084336085
 30
0.0
 11
-2927.689459194389
 21
-117.9999259746012
 31
0.0
  0
LINE
  5
213
330
1F
100
AcDbEntity
  8
0-C_ハッチ
  6
JWW_DASHED1
 62
   120
370
     5
100
AcDbLine
 10
-2503.876567003708
 20
-117.9999259746012
 30
0.0
 11
-2522.689459194389
 21
-99.18703378393388
 31
0.0
  0
LINE
  5
214
330
1F
100
AcDbEntity
  8
0-C_ハッチ
  6
JWW_DASHED1
 62
   120
370
     5
100
AcDbLine
 10
-2461.450160132536
 20
-117.9999259745884
 30
0.0
 11
-2522.689459194389
 21
-56.76062691273728
 31
0.0
  0
LINE
  5
215
330
1F
100
AcDbEntity
  8
0-C_ハッチ
  6
JWW_DASHED1
 62
   120
370
     5
100
AcDbLine
 10
-2447.689459194389
 20
-89.3342200415347
 30
0.0
 11
-2522.689459194376
 21
-14.33422004154068
 31
0.0
  0
LINE
  5
216
330
1F
100
AcDbEntity
  8
0-C_ハッチ
  6
JWW_DASHED1
 62
   120
370
     5
100
AcDbLine
 10
-2447.689459194376
 20
-46.90781317034066
 30
0.0
 11
-2522.689459194376
 21
28.09218682965593
 31
0.0
  0
LINE
  5
217
330
1F
100
AcDbEntity
  8
0-C_ハッチ
  6
JWW_DASHED1
 62
   120
370
     5
100
AcDbLine
 10
-2447.689459194376
 20
-4.481406299141497
 30
0.0
 11
-2522.689459194362
 21
70.51859370085253
 31
0.0
  0
LINE
  5
218
330
1F
100
AcDbEntity
  8
0-C_ハッチ
  6
JWW_DASHED1
 62
   120
370
     5
100
AcDbLine
 10
-2447.689459194362
 20
37.94500057205255
 30
0.0
 11
-2522.689459194362
 21
112.9450005720517
 31
0.0
  0
LINE
  5
219
330
1F
100
AcDbEntity
  8
0-C_ハッチ
  6
JWW_DASHED1
 62
   120
370
     5
100
AcDbLine
 10
-2447.689459194376
 20
80.37140744320396
 30
0.0
 11
-2522.689459194362
 21
155.3714074431971
 31
0.0
  0
LINE
  5
21A
330
1F
100
AcDbEntity
  8
0-3_仕上げ
  6
Continuous
 62
    40
370
     5
100
AcDbLine
 10
-2447.689459194389
 20
-117.9999259746012
 30
0.0
 11
-2447.689459194389
 21
182.0000740253988
 31
0.0
  0
LINE
  5
21B
330
1F
100
AcDbEntity
  8
0-3_仕上げ
  6
Continuous
 62
    40
370
     5
100
AcDbLine
 10
-2522.689459194389
 20
-117.9999259746012
 30
0.0
 11
-2522.689459194389
 21
182.0000740253988
 31
0.0
  0
LINE
  5
21C
330
1F
100
AcDbEntity
  8
0-C_ハッチ
  6
JWW_DASHED1
 62
   120
370
     5
100
AcDbLine
 10
-2447.689459194376
 20
122.7978143144048
 30
0.0
 11
-2506.891718905363
 21
182.0000740253988
 31
0.0
  0
LINE
  5
21D
330
1F
100
AcDbEntity
  8
0-C_ハッチ
  6
JWW_DASHED1
 62
   120
370
     5
100
AcDbLine
 10
-2447.689459194376
 20
165.2242211856014
 30
0.0
 11
-2464.465312034163
 21
182.0000740253988
 31
0.0
  0
LWPOLYLINE
  5
21E
330
1F
100
AcDbEntity
  8
0-B_寸法
  6
Continuous
 62
     7
370
     5
100
AcDbPolyline
 90
        4
 70
     1
 43
3.0
 10
-1467.703479650232
 20
-3045.999963090572
 42
0.4142135623731
 10
-1469.203479650232
 20
-3044.499963090572
 42
0.4142135623731
 10
-1470.703479650232
 20
-3045.999963090572
 42
0.4142135623731
 10
-1469.203479650232
 20
-3047.499963090572
 42
0.4142135623731
  0
LWPOLYLINE
  5
21F
330
1F
100
AcDbEntity
  8
0-B_寸法
  6
Continuous
 62
     7
370
     5
100
AcDbPolyline
 90
        4
 70
     1
 43
3.0
 10
-1467.703479650232
 20
-3117.999940820991
 42
0.4142135623731
 10
-1469.203479650232
 20
-3116.499940820991
 42
0.4142135623731
 10
-1470.703479650232
 20
-3117.999940820991
 42
0.4142135623731
 10
-1469.203479650232
 20
-3119.499940820991
 42
0.4142135623731
  0
LINE
  5
220
330
1F
100
AcDbEntity
  8
0-B_寸法
  6
Continuous
 62
   120
370
     5
100
AcDbLine
 10
-1919.203479650232
 20
-3045.999963090572
 30
0.0
 11
-1469.203479650232
 21
-3045.999963090572
 31
0.0
  0
LINE
  5
221
330
1F
100
AcDbEntity
  8
0-B_寸法
  6
Continuous
 62
   120
370
     5
100
AcDbLine
 10
-1649.203479650232
 20
-3117.999940820991
 30
0.0
 11
-1469.203479650232
 21
-3117.999940820991
 31
0.0
  0
LINE
  5
222
330
1F
100
AcDbEntity
  8
0-B_寸法
  6
Continuous
 62
   120
370
     5
100
AcDbLine
 10
-1469.203479650232
 20
-3117.999940820991
 30
0.0
 11
-1469.203479650232
 21
-117.9999408209892
 31
0.0
  0
LINE
  5
223
330
1F
100
AcDbEntity
  8
0-B_寸法
  6
Continuous
 62
   120
370
     5
100
AcDbLine
 10
-1649.203479650232
 20
-3045.999963090572
 30
0.0
 11
-1649.203479650232
 21
-333.9993172726361
 31
0.0
  0
LINE
  5
224
330
1F
100
AcDbEntity
  8
0-B_寸法
  6
Continuous
 62
   120
370
     5
100
AcDbLine
 10
-1919.203479650232
 20
-2994.999831947467
 30
0.0
 11
-1649.203479650232
 21
-2994.999831947467
 31
0.0
  0
LWPOLYLINE
  5
225
330
1F
100
AcDbEntity
  8
0-B_寸法
  6
Continuous
 62
     7
370
     5
100
AcDbPolyline
 90
        4
 70
     1
 43
3.0
 10
-1647.703479650232
 20
-3045.999963090572
 42
0.4142135623731
 10
-1649.203479650232
 20
-3044.499963090572
 42
0.4142135623731
 10
-1650.703479650232
 20
-3045.999963090572
 42
0.4142135623731
 10
-1649.203479650232
 20
-3047.499963090572
 42
0.4142135623731
  0
LWPOLYLINE
  5
226
330
1F
100
AcDbEntity
  8
0-B_寸法
  6
Continuous
 62
     7
370
     5
100
AcDbPolyline
 90
        4
 70
     1
 43
3.0
 10
-1647.703479650232
 20
-2994.999831947467
 42
0.4142135623731
 10
-1649.203479650232
 20
-2993.499831947468
 42
0.4142135623731
 10
-1650.703479650232
 20
-2994.999831947467
 42
0.4142135623731
 10
-1649.203479650232
 20
-2996.499831947467
 42
0.4142135623731
  0
LWPOLYLINE
  5
227
330
1F
100
AcDbEntity
  8
0-B_寸法
  6
Continuous
 62
     7
370
     5
100
AcDbPolyline
 90
        4
 70
     1
 43
3.0
 10
-1287.703479650232
 20
-3118.000311980723
 42
0.4142135623731
 10
-1289.203479650232
 20
-3116.500311980724
 42
0.4142135623731
 10
-1290.703479650232
 20
-3118.000311980723
 42
0.4142135623731
 10
-1289.203479650232
 20
-3119.500311980723
 42
0.4142135623731
  0
LINE
  5
228
330
1F
100
AcDbEntity
  8
0-B_寸法
  6
Continuous
 62
   120
370
     5
100
AcDbLine
 10
-1919.203479650232
 20
-3118.000311980723
 30
0.0
 11
-1289.203479650232
 21
-3118.000311980723
 31
0.0
  0
LWPOLYLINE
  5
229
330
1F
100
AcDbEntity
  8
0-B_寸法
  6
Continuous
 62
     7
370
     5
100
AcDbPolyline
 90
        4
 70
     1
 43
3.0
 10
-1467.703479650232
 20
-117.9999408209892
 42
0.4142135623731
 10
-1469.203479650232
 20
-116.4999408209892
 42
0.4142135623731
 10
-1470.703479650232
 20
-117.9999408209892
 42
0.4142135623731
 10
-1469.203479650232
 20
-119.4999408209892
 42
0.4142135623731
  0
LWPOLYLINE
  5
22A
330
1F
100
AcDbEntity
  8
0-B_寸法
  6
Continuous
 62
     7
370
     5
100
AcDbPolyline
 90
        4
 70
     1
 43
3.0
 10
-1467.703479650232
 20
-333.9989461129016
 42
0.4142135623731
 10
-1469.203479650232
 20
-332.4989461129016
 42
0.4142135623731
 10
-1470.703479650232
 20
-333.9989461129016
 42
0.4142135623731
 10
-1469.203479650232
 20
-335.4989461129016
 42
0.4142135623731
  0
LINE
  5
22B
330
1F
100
AcDbEntity
  8
0-B_寸法
  6
Continuous
 62
   120
370
     5
100
AcDbLine
 10
-1649.203479650232
 20
-333.9989461129016
 30
0.0
 11
-1469.203479650232
 21
-333.9989461129016
 31
0.0
  0
LINE
  5
22C
330
1F
100
AcDbEntity
  8
0-B_寸法
  6
Continuous
 62
   120
370
     5
100
AcDbLine
 10
-1919.203479650232
 20
-378.9994657365298
 30
0.0
 11
-1649.203479650232
 21
-378.9994657365298
 31
0.0
  0
LINE
  5
22D
330
1F
100
AcDbEntity
  8
0-B_寸法
  6
Continuous
 62
   120
370
     5
100
AcDbLine
 10
-1919.203479650232
 20
-333.9993172726361
 30
0.0
 11
-1649.203479650232
 21
-333.9993172726361
 31
0.0
  0
LWPOLYLINE
  5
22E
330
1F
100
AcDbEntity
  8
0-B_寸法
  6
Continuous
 62
     7
370
     5
100
AcDbPolyline
 90
        4
 70
     1
 43
3.0
 10
-1647.703479650232
 20
-378.9994657365298
 42
0.4142135623731
 10
-1649.203479650232
 20
-377.4994657365298
 42
0.4142135623731
 10
-1650.703479650232
 20
-378.9994657365298
 42
0.4142135623731
 10
-1649.203479650232
 20
-380.4994657365298
 42
0.4142135623731
  0
LWPOLYLINE
  5
22F
330
1F
100
AcDbEntity
  8
0-B_寸法
  6
Continuous
 62
     7
370
     5
100
AcDbPolyline
 90
        4
 70
     1
 43
3.0
 10
-1647.703479650232
 20
-333.9993172726361
 42
0.4142135623731
 10
-1649.203479650232
 20
-332.4993172726361
 42
0.4142135623731
 10
-1650.703479650232
 20
-333.9993172726361
 42
0.4142135623731
 10
-1649.203479650232
 20
-335.4993172726361
 42
0.4142135623731
  0
LWPOLYLINE
  5
230
330
1F
100
AcDbEntity
  8
0-B_寸法
  6
Continuous
 62
     7
370
     5
100
AcDbPolyline
 90
        4
 70
     1
 43
3.0
 10
-1287.703479650232
 20
-117.9999408209892
 42
0.4142135623731
 10
-1289.203479650232
 20
-116.4999408209892
 42
0.4142135623731
 10
-1290.703479650232
 20
-117.9999408209892
 42
0.4142135623731
 10
-1289.203479650232
 20
-119.4999408209892
 42
0.4142135623731
  0
LINE
  5
231
330
1F
100
AcDbEntity
  8
0-B_寸法
  6
Continuous
 62
   120
370
     5
100
AcDbLine
 10
-1919.203479650232
 20
-117.9999408209892
 30
0.0
 11
-1289.203479650232
 21
-117.9999408209892
 31
0.0
  0
LINE
  5
232
330
1F
100
AcDbEntity
  8
0-3_仕上げ
  6
Continuous
 62
   120
370
     5
100
AcDbLine
 10
-2768.689013802696
 20
-2722.501431288864
 30
0.0
 11
-2576.689904586055
 21
-2722.501431288864
 31
0.0
  0
LWPOLYLINE
  5
233
330
1F
100
AcDbEntity
  8
0-3_仕上げ
  6
Continuous
 62
     7
370
     5
100
AcDbPolyline
 90
        4
 70
     1
 43
3.0
 10
-2767.189013802696
 20
-2722.501431288864
 42
0.4142135623731
 10
-2768.689013802696
 20
-2721.001431288864
 42
0.4142135623731
 10
-2770.189013802696
 20
-2722.501431288864
 42
0.4142135623731
 10
-2768.689013802696
 20
-2724.001431288864
 42
0.4142135623731
  0
LWPOLYLINE
  5
234
330
1F
100
AcDbEntity
  8
0-3_仕上げ
  6
Continuous
 62
     7
370
     5
100
AcDbPolyline
 90
        4
 70
     1
 43
3.0
 10
-2575.189904586055
 20
-2722.501431288864
 42
0.4142135623731
 10
-2576.689904586055
 20
-2721.001431288864
 42
0.4142135623731
 10
-2578.189904586055
 20
-2722.501431288864
 42
0.4142135623731
 10
-2576.689904586055
 20
-2724.001431288864
 42
0.4142135623731
  0
LINE
  5
235
330
1F
100
AcDbEntity
  8
0-3_仕上げ
  6
Continuous
 62
   120
370
     5
100
AcDbLine
 10
-2768.689013802696
 20
-2722.501431288864
 30
0.0
 11
-2768.689013802696
 21
-2831.209140662131
 31
0.0
  0
LINE
  5
236
330
1F
100
AcDbEntity
  8
0-3_仕上げ
  6
Continuous
 62
   120
370
     5
100
AcDbLine
 10
-2576.689904586055
 20
-2722.501431288864
 30
0.0
 11
-2576.689904586055
 21
-2831.209140662131
 31
0.0
  0
LINE
  5
237
330
1F
100
AcDbEntity
  8
0-3_仕上げ
  6
Continuous
 62
     7
370
     5
100
AcDbLine
 10
-3263.689459194384
 20
-3058.000114028862
 30
0.0
 11
-2747.689117108839
 21
-3058.000114028862
 31
0.0
  0
LINE
  5
238
330
1F
100
AcDbEntity
  8
0-3_仕上げ
  6
Continuous
 62
     7
370
     5
100
AcDbLine
 10
-3263.689459194384
 20
-3070.000264967156
 30
0.0
 11
-2747.689117108839
 21
-3070.000264967156
 31
0.0
  0
LINE
  5
239
330
1F
100
AcDbEntity
  8
0-3_仕上げ
  6
Continuous
 62
     7
370
     5
100
AcDbLine
 10
-3263.689459194384
 20
-3082.000230325581
 30
0.0
 11
-2747.689117108839
 21
-3082.000230325581
 31
0.0
  0
LINE
  5
23A
330
1F
100
AcDbEntity
  8
0-3_仕上げ
  6
Continuous
 62
     7
370
     5
100
AcDbLine
 10
-3263.689459194384
 20
-3094.000195684006
 30
0.0
 11
-2747.689117108839
 21
-3094.000195684006
 31
0.0
  0
LINE
  5
23B
330
1F
100
AcDbEntity
  8
0-3_仕上げ
  6
Continuous
 62
     7
370
     5
100
AcDbLine
 10
-3263.689459194384
 20
-3106.000346622299
 30
0.0
 11
-2747.689117108839
 21
-3106.000346622299
 31
0.0
  0
LINE
  5
23C
330
1F
100
AcDbEntity
  8
0-3_仕上げ
  6
Continuous
 62
    40
370
     5
100
AcDbLine
 10
-3263.689459194384
 20
-3046.000334250306
 30
0.0
 11
-2747.689117108839
 21
-3046.000334250306
 31
0.0
  0
LINE
  5
23D
330
1F
100
AcDbEntity
  8
0-3_仕上げ
  6
Continuous
 62
     7
370
     5
100
AcDbLine
 10
-2597.689117108839
 20
-3058.000114028862
 30
0.0
 11
-1919.203479650232
 21
-3058.000114028862
 31
0.0
  0
LINE
  5
23E
330
1F
100
AcDbEntity
  8
0-3_仕上げ
  6
Continuous
 62
     7
370
     5
100
AcDbLine
 10
-2597.689117108839
 20
-3070.000264967156
 30
0.0
 11
-1919.203479650232
 21
-3070.000264967156
 31
0.0
  0
LINE
  5
23F
330
1F
100
AcDbEntity
  8
0-3_仕上げ
  6
Continuous
 62
     7
370
     5
100
AcDbLine
 10
-2597.689117108839
 20
-3082.000230325581
 30
0.0
 11
-1919.203479650232
 21
-3082.000230325581
 31
0.0
  0
LINE
  5
240
330
1F
100
AcDbEntity
  8
0-3_仕上げ
  6
Continuous
 62
     7
370
     5
100
AcDbLine
 10
-2597.689117108839
 20
-3094.000195684006
 30
0.0
 11
-1919.203479650232
 21
-3094.000195684006
 31
0.0
  0
LINE
  5
241
330
1F
100
AcDbEntity
  8
0-3_仕上げ
  6
Continuous
 62
     7
370
     5
100
AcDbLine
 10
-2597.689117108839
 20
-3106.000346622299
 30
0.0
 11
-1919.203479650232
 21
-3106.000346622299
 31
0.0
  0
LINE
  5
242
330
1F
100
AcDbEntity
  8
0-3_仕上げ
  6
Continuous
 62
    40
370
     5
100
AcDbLine
 10
-1919.203479650232
 20
-3046.000334250306
 30
0.0
 11
-2597.689117108839
 21
-3046.000334250306
 31
0.0
  0
LINE
  5
243
330
1F
100
AcDbEntity
  8
0-3_仕上げ
  6
Continuous
 62
    40
370
     5
100
AcDbLine
 10
-2747.689459194389
 20
-3118.000497560591
 30
0.0
 11
-2747.689459194389
 21
-3046.000705410041
 31
0.0
  0
LINE
  5
244
330
1F
100
AcDbEntity
  8
0-3_仕上げ
  6
Continuous
 62
    40
370
     5
100
AcDbLine
 10
-2597.689459194389
 20
-3118.000497560591
 30
0.0
 11
-2597.689459194389
 21
-3046.000705410041
 31
0.0
  0
LINE
  5
245
330
1F
100
AcDbEntity
  8
0-C_ハッチ
  6
Continuous
 62
   120
370
     5
100
AcDbLine
 10
-2741.689459194381
 20
-3096.12041692774
 30
0.0
 11
-2732.689459194389
 21
-3087.120416927741
 31
0.0
  0
LINE
  5
246
330
1F
100
AcDbEntity
  8
0-7_金物
  6
Continuous
 62
    92
370
     5
100
AcDbLine
 10
-2732.689459194389
 20
-3088.00070525643
 30
0.0
 11
-2612.689459194389
 21
-3088.00070525643
 31
0.0
  0
LINE
  5
247
330
1F
100
AcDbEntity
  8
0-7_金物
  6
Continuous
 62
    92
370
     5
100
AcDbLine
 10
-2732.689459194389
 20
-3076.000705256431
 30
0.0
 11
-2732.689459194389
 21
-3088.00070525643
 31
0.0
  0
LINE
  5
248
330
1F
100
AcDbEntity
  8
0-7_金物
  6
Continuous
 62
    92
370
     5
100
AcDbLine
 10
-2732.689459194389
 20
-3076.000705256431
 30
0.0
 11
-2741.68951751446
 21
-3076.000705256431
 31
0.0
  0
LINE
  5
249
330
1F
100
AcDbEntity
  8
0-7_金物
  6
Continuous
 62
    92
370
     5
100
AcDbLine
 10
-2612.689459194389
 20
-3076.000705256431
 30
0.0
 11
-2603.878543874744
 21
-3076.000705256431
 31
0.0
  0
LINE
  5
24A
330
1F
100
AcDbEntity
  8
0-7_金物
  6
Continuous
 62
    92
370
     5
100
AcDbLine
 10
-2612.689459194389
 20
-3076.000705256431
 30
0.0
 11
-2612.689459194389
 21
-3088.00070525643
 31
0.0
  0
LINE
  5
24B
330
1F
100
AcDbEntity
  8
0-7_金物
  6
Continuous
 62
    92
370
     5
100
AcDbLine
 10
-2603.878602194809
 20
-3076.000482926132
 30
0.0
 11
-2603.878602194809
 21
-3118.00070525643
 31
0.0
  0
LINE
  5
24C
330
1F
100
AcDbEntity
  8
0-7_金物
  6
Continuous
 62
    92
370
     5
100
AcDbLine
 10
-2741.689459194381
 20
-3076.000482926132
 30
0.0
 11
-2741.689459194381
 21
-3118.00070525643
 31
0.0
  0
LINE
  5
24D
330
1F
100
AcDbEntity
  8
0-7_金物
  6
Continuous
 62
    92
370
     5
100
AcDbLine
 10
-2741.689459194381
 20
-3118.00070525643
 30
0.0
 11
-2603.878602194809
 21
-3118.00070525643
 31
0.0
  0
LINE
  5
24E
330
1F
100
AcDbEntity
  8
0-C_ハッチ
  6
Continuous
 62
   120
370
     5
100
AcDbLine
 10
-2610.834682786776
 20
-3118.00070525643
 30
0.0
 11
-2603.878602194809
 21
-3111.044624664459
 31
0.0
  0
LINE
  5
24F
330
1F
100
AcDbEntity
  8
0-C_ハッチ
  6
Continuous
 62
   120
370
     5
100
AcDbLine
 10
-2738.113903400363
 20
-3118.00070525643
 30
0.0
 11
-2708.113903400363
 21
-3088.00070525643
 31
0.0
  0
LINE
  5
250
330
1F
100
AcDbEntity
  8
0-C_ハッチ
  6
Continuous
 62
   120
370
     5
100
AcDbLine
 10
-2661.746371032214
 20
-3118.00070525643
 30
0.0
 11
-2631.746371032214
 21
-3088.00070525643
 31
0.0
  0
LINE
  5
251
330
1F
100
AcDbEntity
  8
0-C_ハッチ
  6
Continuous
 62
   120
370
     5
100
AcDbLine
 10
-2687.202215154939
 20
-3118.00070525643
 30
0.0
 11
-2657.202215154939
 21
-3088.00070525643
 31
0.0
  0
LINE
  5
252
330
1F
100
AcDbEntity
  8
0-C_ハッチ
  6
Continuous
 62
   120
370
     5
100
AcDbLine
 10
-2712.658059277665
 20
-3118.00070525643
 30
0.0
 11
-2682.658059277651
 21
-3088.000705256426
 31
0.0
  0
LINE
  5
253
330
1F
100
AcDbEntity
  8
0-C_ハッチ
  6
Continuous
 62
   120
370
     5
100
AcDbLine
 10
-2636.290526909488
 20
-3118.00070525643
 30
0.0
 11
-2603.878602194809
 21
-3085.588780541741
 31
0.0
  0
LINE
  5
254
330
1F
100
AcDbEntity
  8
0-7_金物
  6
Continuous
 62
     7
370
     5
100
AcDbLine
 10
-2630.688823583332
 20
-3049.367745890655
 30
0.0
 11
-2714.689694571507
 21
-3049.367745890655
 31
0.0
  0
LINE
  5
255
330
1F
100
AcDbEntity
  8
0-7_金物
  6
Continuous
 62
     7
370
     5
100
AcDbLine
 10
-2663.689377848532
 20
-2995.000705256429
 30
0.0
 11
-2663.689377848532
 21
-3049.367745890655
 31
0.0
  0
LINE
  5
256
330
1F
100
AcDbEntity
  8
0-7_金物
  6
Continuous
 62
     7
370
     5
100
AcDbLine
 10
-2681.689140306307
 20
-2995.000705256429
 30
0.0
 11
-2681.689140306307
 21
-3049.367745890655
 31
0.0
  0
LINE
  5
257
330
1F
100
AcDbEntity
  8
0-7_金物
  6
Continuous
 62
     7
370
     5
100
AcDbLine
 10
-2648.690070680045
 20
-3061.367745890654
 30
0.0
 11
-2696.689932113745
 21
-3061.367745890654
 31
0.0
  0
LINE
  5
258
330
1F
100
AcDbEntity
  8
0-7_金物
  6
Continuous
 62
     7
370
     5
100
AcDbLine
 10
-2663.689377848532
 20
-3066.06514348356
 30
0.0
 11
-2681.689140306307
 21
-3066.06514348356
 31
0.0
  0
LINE
  5
259
330
1F
100
AcDbEntity
  8
0-7_金物
  6
Continuous
 62
     7
370
     5
100
AcDbLine
 10
-2663.689377848532
 20
-3061.367745890654
 30
0.0
 11
-2663.689377848532
 21
-3066.06514348356
 31
0.0
  0
LINE
  5
25A
330
1F
100
AcDbEntity
  8
0-7_金物
  6
Continuous
 62
     7
370
     5
100
AcDbLine
 10
-2681.689140306307
 20
-3061.367745890654
 30
0.0
 11
-2681.689140306307
 21
-3066.06514348356
 31
0.0
  0
LINE
  5
25B
330
1F
100
AcDbEntity
  8
0-7_金物
  6
Continuous
 62
     7
370
     5
100
AcDbLine
 10
-2648.690070680045
 20
-3061.367745890654
 30
0.0
 11
-2648.690070680045
 21
-3073.367745890657
 31
0.0
  0
LINE
  5
25C
330
1F
100
AcDbEntity
  8
0-7_金物
  6
Continuous
 62
     7
370
     5
100
AcDbLine
 10
-2630.688823583332
 20
-3049.367745890655
 30
0.0
 11
-2630.688823583332
 21
-3073.367745890657
 31
0.0
  0
LINE
  5
25D
330
1F
100
AcDbEntity
  8
0-7_金物
  6
Continuous
 62
     7
370
     5
100
AcDbLine
 10
-2696.689932113745
 20
-3061.367745890654
 30
0.0
 11
-2696.689932113745
 21
-3073.367745890657
 31
0.0
  0
LINE
  5
25E
330
1F
100
AcDbEntity
  8
0-7_金物
  6
Continuous
 62
     7
370
     5
100
AcDbLine
 10
-2714.689694571507
 20
-3049.367745890655
 30
0.0
 11
-2714.689694571507
 21
-3073.367745890657
 31
0.0
  0
LINE
  5
25F
330
1F
100
AcDbEntity
  8
0-7_金物
  6
Continuous
 62
     7
370
     5
100
AcDbLine
 10
-2714.689694571507
 20
-3073.367745890657
 30
0.0
 11
-2630.688823583332
 21
-3073.367745890657
 31
0.0
  0
LINE
  5
260
330
1F
100
AcDbEntity
  8
0-7_金物
  6
Continuous
 62
     7
370
     5
100
AcDbLine
 10
-2723.689459194384
 20
-3080.800705256429
 30
0.0
 11
-2711.689459194381
 21
-3080.800705256429
 31
0.0
  0
LINE
  5
261
330
1F
100
AcDbEntity
  8
0-7_金物
  6
Continuous
 62
     7
370
     5
100
AcDbLine
 10
-2705.689459194386
 20
-3080.800705256429
 30
0.0
 11
-2674.489459194374
 21
-3080.800705256429
 31
0.0
  0
LINE
  5
262
330
1F
100
AcDbEntity
  8
0-7_金物
  6
Continuous
 62
     7
370
     5
100
AcDbLine
 10
-2674.489459194374
 20
-3080.800705256429
 30
0.0
 11
-2672.689459194389
 21
-3082.600705256431
 31
0.0
  0
LINE
  5
263
330
1F
100
AcDbEntity
  8
0-7_金物
  6
Continuous
 62
     7
370
     5
100
AcDbLine
 10
-2672.689459194389
 20
-3082.600705256431
 30
0.0
 11
-2670.889459194377
 21
-3080.800705256429
 31
0.0
  0
LINE
  5
264
330
1F
100
AcDbEntity
  8
0-7_金物
  6
Continuous
 62
     7
370
     5
100
AcDbLine
 10
-2670.889459194377
 20
-3080.800705256429
 30
0.0
 11
-2639.689459194378
 21
-3080.800705256429
 31
0.0
  0
LINE
  5
265
330
1F
100
AcDbEntity
  8
0-7_金物
  6
Continuous
 62
     7
370
     5
100
AcDbLine
 10
-2633.689459194384
 20
-3080.800705256429
 30
0.0
 11
-2621.689459194381
 21
-3080.800705256429
 31
0.0
  0
LINE
  5
266
330
1F
100
AcDbEntity
  8
0-7_金物
  6
Continuous
 62
     7
370
     5
100
AcDbLine
 10
-2578.489459194379
 20
-3046.000705256431
 30
0.0
 11
-2614.489459194374
 21
-3046.000705256431
 31
0.0
  0
LINE
  5
267
330
1F
100
AcDbEntity
  8
0-7_金物
  6
Continuous
 62
     7
370
     5
100
AcDbLine
 10
-2730.889459194377
 20
-3046.000705256431
 30
0.0
 11
-2766.889459194385
 21
-3046.000705256431
 31
0.0
  0
LINE
  5
268
330
1F
100
AcDbEntity
  8
0-7_金物
  6
Continuous
 62
     7
370
     5
100
AcDbLine
 10
-2730.889459194377
 20
-3038.80070525643
 30
0.0
 11
-2766.889459194385
 21
-3042.40070525643
 31
0.0
  0
ARC
  5
269
330
1F
100
AcDbEntity
  8
0-7_金物
  6
Continuous
 62
     7
370
     5
100
AcDbCircle
 10
-2766.889459194385
 20
-3044.200705256432
 30
0.0
 40
1.8
100
AcDbArc
 50
90.0
 51
270.0
  0
ARC
  5
26A
330
1F
100
AcDbEntity
  8
0-7_金物
  6
Continuous
 62
     7
370
     5
100
AcDbCircle
 10
-2578.489459194379
 20
-3044.200705256432
 30
0.0
 40
1.8
100
AcDbArc
 50
270.0
 51
89.99999999999997
  0
LINE
  5
26B
330
1F
100
AcDbEntity
  8
0-7_金物
  6
Continuous
 62
     7
370
     5
100
AcDbLine
 10
-2578.489459194379
 20
-3042.40070525643
 30
0.0
 11
-2614.489459194374
 21
-3038.80070525643
 31
0.0
  0
LINE
  5
26C
330
1F
100
AcDbEntity
  8
0-7_金物
  6
Continuous
 62
     7
370
     5
100
AcDbLine
 10
-2709.289459194383
 20
-3038.80070525643
 30
0.0
 11
-2730.889459194377
 21
-3038.80070525643
 31
0.0
  0
ARC
  5
26D
330
1F
100
AcDbEntity
  8
0-7_金物
  6
Continuous
 62
     7
370
     5
100
AcDbCircle
 10
-2709.289459194383
 20
-3042.40070525643
 30
0.0
 40
3.600000000000001
100
AcDbArc
 50
0.0
 51
90.0
  0
ARC
  5
26E
330
1F
100
AcDbEntity
  8
0-7_金物
  6
Continuous
 62
     7
370
     5
100
AcDbCircle
 10
-2709.289459194383
 20
-3042.40070525643
 30
0.0
 40
3.600000000000001
100
AcDbArc
 50
270.0
 51
0.0
  0
ARC
  5
26F
330
1F
100
AcDbEntity
  8
0-7_金物
  6
Continuous
 62
     7
370
     5
100
AcDbCircle
 10
-2636.089459194382
 20
-3042.40070525643
 30
0.0
 40
3.600000000000001
100
AcDbArc
 50
180.0
 51
270.0
  0
LINE
  5
270
330
1F
100
AcDbEntity
  8
0-7_金物
  6
Continuous
 62
     7
370
     5
100
AcDbLine
 10
-2636.089459194382
 20
-3038.80070525643
 30
0.0
 11
-2614.489459194374
 21
-3038.80070525643
 31
0.0
  0
ARC
  5
271
330
1F
100
AcDbEntity
  8
0-7_金物
  6
Continuous
 62
     7
370
     5
100
AcDbCircle
 10
-2636.089459194382
 20
-3042.40070525643
 30
0.0
 40
3.600000000000001
100
AcDbArc
 50
90.0
 51
180.0
  0
LINE
  5
272
330
1F
100
AcDbEntity
  8
0-7_金物
  6
Continuous
 62
     7
370
     5
100
AcDbLine
 10
-2614.489459194374
 20
-3079.000705256431
 30
0.0
 11
-2614.489459194374
 21
-3046.000705256431
 31
0.0
  0
ARC
  5
273
330
1F
100
AcDbEntity
  8
0-7_金物
  6
Continuous
 62
     7
370
     5
100
AcDbCircle
 10
-2623.489459194379
 20
-3079.000705256431
 30
0.0
 40
9.000000000000002
100
AcDbArc
 50
270.0
 51
0.0
  0
LINE
  5
274
330
1F
100
AcDbEntity
  8
0-7_金物
  6
Continuous
 62
     7
370
     5
100
AcDbLine
 10
-2730.889459194377
 20
-3079.000705256431
 30
0.0
 11
-2730.889459194377
 21
-3046.000705256431
 31
0.0
  0
LINE
  5
275
330
1F
100
AcDbEntity
  8
0-7_金物
  6
Continuous
 62
     7
370
     5
100
AcDbLine
 10
-2721.889459194385
 20
-3088.00070525643
 30
0.0
 11
-2623.489459194379
 21
-3088.00070525643
 31
0.0
  0
ARC
  5
276
330
1F
100
AcDbEntity
  8
0-7_金物
  6
Continuous
 62
     7
370
     5
100
AcDbCircle
 10
-2721.889459194385
 20
-3079.000705256431
 30
0.0
 40
9.000000000000002
100
AcDbArc
 50
180.0
 51
270.0
  0
LINE
  5
277
330
1F
100
AcDbEntity
  8
0-7_金物
  6
Continuous
 62
     7
370
     5
100
AcDbLine
 10
-2720.689459194386
 20
-3046.000705256431
 30
0.0
 11
-2709.289459194383
 21
-3046.000705256431
 31
0.0
  0
LINE
  5
278
330
1F
100
AcDbEntity
  8
0-7_金物
  6
Continuous
 62
     7
370
     5
100
AcDbLine
 10
-2723.689459194384
 20
-3049.000705256431
 30
0.0
 11
-2723.689459194384
 21
-3080.800705256429
 31
0.0
  0
ARC
  5
279
330
1F
100
AcDbEntity
  8
0-7_金物
  6
Continuous
 62
     7
370
     5
100
AcDbCircle
 10
-2720.689459194386
 20
-3049.000705256431
 30
0.0
 40
3.0
100
AcDbArc
 50
90.0
 51
180.0
  0
LINE
  5
27A
330
1F
100
AcDbEntity
  8
0-7_金物
  6
Continuous
 62
     7
370
     5
100
AcDbLine
 10
-2624.689459194378
 20
-3046.000705256431
 30
0.0
 11
-2636.089459194382
 21
-3046.000705256431
 31
0.0
  0
LINE
  5
27B
330
1F
100
AcDbEntity
  8
0-7_金物
  6
Continuous
 62
     7
370
     5
100
AcDbLine
 10
-2621.689459194381
 20
-3049.000705256431
 30
0.0
 11
-2621.689459194381
 21
-3080.800705256429
 31
0.0
  0
ARC
  5
27C
330
1F
100
AcDbEntity
  8
0-7_金物
  6
Continuous
 62
     7
370
     5
100
AcDbCircle
 10
-2624.689459194378
 20
-3049.000705256431
 30
0.0
 40
3.0
100
AcDbArc
 50
0.0
 51
90.0
  0
LINE
  5
27D
330
1F
100
AcDbEntity
  8
0-7_金物
  6
Continuous
 62
     7
370
     5
100
AcDbLine
 10
-2711.689459194381
 20
-3076.000705256431
 30
0.0
 11
-2711.689459194381
 21
-3080.800705256429
 31
0.0
  0
ARC
  5
27E
330
1F
100
AcDbEntity
  8
0-7_金物
  6
Continuous
 62
     7
370
     5
100
AcDbCircle
 10
-2710.489459194382
 20
-3076.000705256431
 30
0.0
 40
1.2
100
AcDbArc
 50
90.0
 51
180.0
  0
LINE
  5
27F
330
1F
100
AcDbEntity
  8
0-7_金物
  6
Continuous
 62
     7
370
     5
100
AcDbLine
 10
-2706.889459194385
 20
-3074.800705256432
 30
0.0
 11
-2710.489459194382
 21
-3074.800705256432
 31
0.0
  0
LINE
  5
280
330
1F
100
AcDbEntity
  8
0-7_金物
  6
Continuous
 62
     7
370
     5
100
AcDbLine
 10
-2705.689459194386
 20
-3076.000705256431
 30
0.0
 11
-2705.689459194386
 21
-3080.800705256429
 31
0.0
  0
ARC
  5
281
330
1F
100
AcDbEntity
  8
0-7_金物
  6
Continuous
 62
     7
370
     5
100
AcDbCircle
 10
-2706.889459194385
 20
-3076.000705256431
 30
0.0
 40
1.2
100
AcDbArc
 50
0.0
 51
90.0
  0
LINE
  5
282
330
1F
100
AcDbEntity
  8
0-7_金物
  6
Continuous
 62
     7
370
     5
100
AcDbLine
 10
-2639.689459194378
 20
-3076.000705256431
 30
0.0
 11
-2639.689459194378
 21
-3080.800705256429
 31
0.0
  0
ARC
  5
283
330
1F
100
AcDbEntity
  8
0-7_金物
  6
Continuous
 62
     7
370
     5
100
AcDbCircle
 10
-2638.489459194379
 20
-3076.000705256431
 30
0.0
 40
1.2
100
AcDbArc
 50
90.0
 51
180.0
  0
LINE
  5
284
330
1F
100
AcDbEntity
  8
0-7_金物
  6
Continuous
 62
     7
370
     5
100
AcDbLine
 10
-2634.889459194383
 20
-3074.800705256432
 30
0.0
 11
-2638.489459194379
 21
-3074.800705256432
 31
0.0
  0
LINE
  5
285
330
1F
100
AcDbEntity
  8
0-7_金物
  6
Continuous
 62
     7
370
     5
100
AcDbLine
 10
-2633.689459194384
 20
-3076.000705256431
 30
0.0
 11
-2633.689459194384
 21
-3080.800705256429
 31
0.0
  0
ARC
  5
286
330
1F
100
AcDbEntity
  8
0-7_金物
  6
Continuous
 62
     7
370
     5
100
AcDbCircle
 10
-2634.889459194383
 20
-3076.000705256431
 30
0.0
 40
1.2
100
AcDbArc
 50
0.0
 51
90.0
  0
ARC
  5
287
330
1F
100
AcDbEntity
  8
0-7_金物
  6
JWW_DASHED1
 62
     7
370
     5
100
AcDbCircle
 10
-2766.889459194385
 20
-3044.200705256432
 30
0.0
 40
1.8
100
AcDbArc
 50
270.0
 51
90.0
  0
ARC
  5
288
330
1F
100
AcDbEntity
  8
0-7_金物
  6
JWW_DASHED1
 62
     7
370
     5
100
AcDbCircle
 10
-2578.489459194379
 20
-3044.200705256432
 30
0.0
 40
1.8
100
AcDbArc
 50
90.0
 51
270.0
  0
LINE
  5
289
330
1F
100
AcDbEntity
  8
0-B_寸法
  6
Continuous
 62
   120
370
     5
100
AcDbLine
 10
-1289.203479650232
 20
-69.99994082099192
 30
0.0
 11
-1919.203479650232
 21
-69.99994082099192
 31
0.0
  0
LINE
  5
28A
330
1F
100
AcDbEntity
  8
0-0_補助線
  6
JWW_HOJO
 62
   120
370
     5
100
AcDbLine
 10
-3623.689459194384
 20
170.0000740253995
 30
0.0
 11
-3623.689459194384
 21
-3117.999940974601
 31
0.0
  0
LINE
  5
28B
330
1F
100
AcDbEntity
  8
0-0_補助線
  6
JWW_HOJO
 62
   120
370
     5
100
AcDbLine
 10
-3263.689459194384
 20
-3117.999940974601
 30
0.0
 11
-3263.689459194384
 21
170.0000740253995
 31
0.0
  0
LINE
  5
28C
330
1F
100
AcDbEntity
  8
0-0_補助線
  6
JWW_HOJO
 62
   120
370
     5
100
AcDbLine
 10
-1919.203479650232
 20
-3117.999940974601
 30
0.0
 11
-1919.203479650232
 21
170.0000740253995
 31
0.0
  0
LINE
  5
28D
330
1F
100
AcDbEntity
  8
0-0_補助線
  6
JWW_HOJO
 62
   120
370
     5
100
AcDbLine
 10
-3623.689459194384
 20
170.0000740253995
 30
0.0
 11
-1919.203479650232
 21
170.0000740253995
 31
0.0
  0
LINE
  5
28E
330
1F
100
AcDbEntity
  8
0-7_金物
  6
Continuous
 62
     7
370
     5
100
AcDbLine
 10
-2618.689424862114
 20
-117.9999259746012
 30
0.0
 11
-2618.689424862114
 21
-93.99985731005245
 31
0.0
  0
LINE
  5
28F
330
1F
100
AcDbEntity
  8
0-7_金物
  6
Continuous
 62
     7
370
     5
100
AcDbLine
 10
-2726.689493526665
 20
-93.99985731005245
 30
0.0
 11
-2726.689493526665
 21
-117.9999259746012
 31
0.0
  0
LINE
  5
290
330
1F
100
AcDbEntity
  8
0-7_金物
  6
Continuous
 62
     7
370
     5
100
AcDbLine
 10
-2732.689659465996
 20
-93.99985731005245
 30
0.0
 11
-2612.69000278875
 21
-93.99985731005245
 31
0.0
  0
LINE
  5
291
330
1F
100
AcDbEntity
  8
0-7_金物
  6
Continuous
 62
     7
370
     5
100
AcDbLine
 10
-2612.69000278875
 20
-82.00026357530987
 30
0.0
 11
-2612.69000278875
 21
-93.99985731005245
 31
0.0
  0
LINE
  5
292
330
1F
100
AcDbEntity
  8
0-7_金物
  6
Continuous
 62
     7
370
     5
100
AcDbLine
 10
-2732.689659465996
 20
-82.00026357530987
 30
0.0
 11
-2732.689659465996
 21
-93.99985731005245
 31
0.0
  0
LINE
  5
293
330
1F
100
AcDbEntity
  8
0-7_金物
  6
Continuous
 62
     7
370
     5
100
AcDbLine
 10
-2762.689762462805
 20
-69.99992597460135
 30
0.0
 11
-2762.689762462805
 21
-82.00026357530987
 31
0.0
  0
LINE
  5
294
330
1F
100
AcDbEntity
  8
0-7_金物
  6
Continuous
 62
     7
370
     5
100
AcDbLine
 10
-2582.689899791912
 20
-69.99992597460135
 30
0.0
 11
-2582.689899791912
 21
-82.00026357530987
 31
0.0
  0
LINE
  5
295
330
1F
100
AcDbEntity
  8
0-7_金物
  6
Continuous
 62
     7
370
     5
100
AcDbLine
 10
-2762.689762462805
 20
-82.00026357530987
 30
0.0
 11
-2582.689899791912
 21
-82.00026357530987
 31
0.0
  0
LINE
  5
296
330
1F
100
AcDbEntity
  8
0-7_金物
  6
Continuous
 62
     7
370
     5
100
AcDbLine
 10
-2822.689762462819
 20
-69.99992597460135
 30
0.0
 11
-2642.689899791912
 21
-69.99992597460135
 31
0.0
  0
LINE
  5
297
330
1F
100
AcDbEntity
  8
0-3_仕上げ
  6
Continuous
 62
   120
370
     5
100
AcDbLine
 10
-2942.689459194389
 20
-69.99992597460135
 30
0.0
 11
-2522.689459194389
 21
-69.99992597460135
 31
0.0
  0
LINE
  5
298
330
1F
100
AcDbEntity
  8
0-3_仕上げ
  6
Continuous
 62
   120
370
     5
100
AcDbLine
 10
-2522.689459194389
 20
110.0000740253986
 30
0.0
 11
-2942.689459194389
 21
110.0000740253986
 31
0.0
  0
LINE
  5
299
330
1F
100
AcDbEntity
  8
0-3_仕上げ
  6
Continuous
 62
   120
370
     5
100
AcDbLine
 10
-2942.689459194389
 20
110.0000740253986
 30
0.0
 11
-2942.689459194389
 21
-69.99992597460135
 31
0.0
  0
LINE
  5
29A
330
1F
100
AcDbEntity
  8
0-3_仕上げ
  6
Continuous
 62
   120
370
     5
100
AcDbLine
 10
-2522.689459194389
 20
110.0000740253986
 30
0.0
 11
-2942.689459194389
 21
-69.99992597460135
 31
0.0
  0
LINE
  5
29B
330
1F
100
AcDbEntity
  8
0-B_寸法
  6
Continuous
 62
   120
370
     5
100
AcDbLine
 10
-3623.689459194384
 20
-69.99992597460135
 30
0.0
 11
-3623.689459194384
 21
-3118.000311980723
 31
0.0
  0
LWPOLYLINE
  5
29C
330
1F
100
AcDbEntity
  8
0-B_寸法
  6
Continuous
 62
     7
370
     5
100
AcDbPolyline
 90
        4
 70
     1
 43
3.0
 10
-3622.189459194384
 20
-69.99992597460135
 42
0.4142135623731
 10
-3623.689459194384
 20
-68.49992597460135
 42
0.4142135623731
 10
-3625.189459194384
 20
-69.99992597460135
 42
0.4142135623731
 10
-3623.689459194384
 20
-71.49992597460135
 42
0.4142135623731
  0
LINE
  5
29D
330
1F
100
AcDbEntity
  8
0-B_寸法
  6
Continuous
 62
   120
370
     5
100
AcDbLine
 10
-3623.689459194384
 20
-69.99992597460135
 30
0.0
 11
-3263.689459194384
 21
-69.99992597460135
 31
0.0
  0
LWPOLYLINE
  5
29E
330
1F
100
AcDbEntity
  8
0-B_寸法
  6
Continuous
 62
     7
370
     5
100
AcDbPolyline
 90
        4
 70
     1
 43
3.0
 10
-1287.703479650232
 20
-69.99994082099192
 42
0.4142135623731
 10
-1289.203479650232
 20
-68.49994082099192
 42
0.4142135623731
 10
-1290.703479650232
 20
-69.99994082099192
 42
0.4142135623731
 10
-1289.203479650232
 20
-71.49994082099192
 42
0.4142135623731
  0
LINE
  5
29F
330
1F
100
AcDbEntity
  8
0-B_寸法
  6
Continuous
 62
   120
370
     5
100
AcDbLine
 10
-1289.203479650232
 20
-69.99994082099192
 30
0.0
 11
-1289.203479650232
 21
-3118.000311980723
 31
0.0
  0
LINE
  5
2A0
330
1F
100
AcDbEntity
  8
0-1_通り芯
  6
JWW_CENTER1
 62
   120
370
     5
100
AcDbLine
 10
-2672.689459194389
 20
-3211.070445315723
 30
0.0
 11
-2672.689459194389
 21
170.0000740253995
 31
0.0
  0
MTEXT
  5
2A1
330
1F
100
AcDbEntity
  8
0-B_寸法
  6
Continuous
 62
     7
370
   211
100
AcDbMText
 10
-3638.689459194384
 20
-1986.280130112453
 30
0.0
 40
91.43999999999997
 41
780.0
 46
0.0
 71
     7
 72
     1
  1
{\fＭＳ ゴシック|b0|i0|c128|p49;ＲＯＨ＝2,055}
 11
6.123031769111886E-17
 21
1.0
 31
0.0
 73
     1
 44
1.0
  0
MTEXT
  5
2A2
330
1F
100
AcDbEntity
  8
0-B_寸法
  6
Continuous
 62
     7
370
     0
100
AcDbMText
 10
-1664.202786818733
 20
-2031.279648841997
 30
0.0
 40
91.43999999999997
 41
660.0
 46
0.0
 71
     7
 72
     1
  1
{\fＭＳ ゴシック|b0|i0|c128|p49;ＤＨ＝1,983}
 11
6.123031769111886E-17
 21
1.0
 31
0.0
 73
     1
 44
1.0
  0
MTEXT
  5
2A3
330
1F
100
AcDbEntity
  8
0-B_寸法
  6
Continuous
 62
     7
370
     0
100
AcDbMText
 10
-1484.202786818733
 20
-2031.279648841997
 30
0.0
 40
91.43999999999997
 41
660.0
 46
0.0
 71
     7
 72
     1
  1
{\fＭＳ ゴシック|b0|i0|c128|p49;枠内＝1,999}
 11
6.123031769111886E-17
 21
1.0
 31
0.0
 73
     1
 44
1.0
  0
MTEXT
  5
2A4
330
1F
100
AcDbEntity
  8
0-B_寸法
  6
Continuous
 62
     7
370
     0
100
AcDbMText
 10
-1304.20427145767
 20
-2031.279648841997
 30
0.0
 40
91.43999999999997
 41
660.0
 46
0.0
 71
     7
 72
     1
  1
{\fＭＳ ゴシック|b0|i0|c128|p49;枠外＝2,047}
 11
6.123031769111886E-17
 21
1.0
 31
0.0
 73
     1
 44
1.0
  0
MTEXT
  5
2A5
330
1F
100
AcDbEntity
  8
0-A_文字
  6
Continuous
 62
     7
370
     0
100
AcDbMText
 10
-2685.57412997778
 20
-3486.907689278619
 30
0.0
 40
68.57999999999996
 41
1349.999999999999
 46
0.0
 71
     7
 72
     1
  1
{\fＭＳ ゴシック|b0|i0|c128|p49;※扉厚（　）内はルーバーの場合}
 73
     1
 44
1.0
  0
LINE
  5
2A6
330
1F
100
AcDbEntity
  8
0-A_文字
  6
JWW_HOJO
 62
   120
370
     5
100
AcDbLine
 10
-2685.574129977781
 20
-3476.197689278619
 30
0.0
 11
-276.0503204539704
 21
-3476.197689278619
 31
0.0
  0
MTEXT
  5
2A7
330
1F
100
AcDbEntity
  8
0-A_文字
  6
Continuous
 62
     7
370
   211
100
AcDbMText
 10
-2792.689459194389
 20
-1144.49542969994
 30
0.0
 40
91.44
 41
240.0
 46
0.0
 71
     7
 72
     1
  1
{\fＭＳ ゴシック|b0|i0|c128|p49;(24)}
 73
     1
 44
1.0
  0
MTEXT
  5
2A8
330
1F
100
AcDbEntity
  8
0-0_補助線
  6
Continuous
 62
     7
370
   211
100
AcDbMText
 10
1307.263189468905
 20
-1057.022205530921
 30
0.0
 40
68.5800000000013
 41
45.00000000000085
 46
0.0
 71
     7
 72
     1
  1
{\fＭＳ ゴシック|b0|i0|c128|p49;7}
 11
6.123031769111886E-17
 21
1.0
 31
0.0
 73
     1
 44
1.0
  0
LINE
  5
2A9
330
1F
100
AcDbEntity
  8
0-A_文字
  6
Continuous
 62
    92
370
     5
100
AcDbLine
 10
1687.801095242714
 20
340.851375269048
 30
0.0
 11
3673.470456913294
 21
340.851375269048
 31
0.0
  0
LINE
  5
2AA
330
1F
100
AcDbEntity
  8
0-A_文字
  6
Continuous
 62
    92
370
     5
100
AcDbLine
 10
1687.801095242714
 20
160.8513752690463
 30
0.0
 11
3673.470456913294
 21
160.8513752690463
 31
0.0
  0
MTEXT
  5
2AB
330
1F
100
AcDbEntity
  8
0-0_補助線
  6
Continuous
 62
     7
370
   211
100
AcDbMText
 10
307.2628760608859
 20
-1362.031758770077
 30
0.0
 40
68.57999999999934
 41
89.99999999999915
 46
0.0
 71
     7
 72
     1
  1
{\fＭＳ ゴシック|b0|i0|c128|p49;31}
 73
     1
 44
1.0
  0
MTEXT
  5
2AC
330
1F
100
AcDbEntity
  8
0-0_補助線
  6
Continuous
 62
     7
370
   211
100
AcDbMText
 10
577.2634039325076
 20
-1362.031758770078
 30
0.0
 40
68.57999999999838
 41
89.99999999999787
 46
0.0
 71
     7
 72
     1
  1
{\fＭＳ ゴシック|b0|i0|c128|p49;23}
 73
     1
 44
1.0
  0
MTEXT
  5
2AD
330
1F
100
AcDbEntity
  8
0-0_補助線
  6
Continuous
 62
     7
370
   211
100
AcDbMText
 10
847.2631894846663
 20
-1362.031758770078
 30
0.0
 40
68.57999999999838
 41
89.99999999999787
 46
0.0
 71
     7
 72
     1
  1
{\fＭＳ ゴシック|b0|i0|c128|p49;31}
 73
     1
 44
1.0
  0
MTEXT
  5
2AE
330
1F
100
AcDbEntity
  8
0-0_補助線
  6
Continuous
 62
     7
370
   211
100
AcDbMText
 10
2564.106110436728
 20
-1623.981755032788
 30
0.0
 40
68.58000000000258
 41
90.00000000000341
 46
0.0
 71
     7
 72
     1
  1
{\fＭＳ ゴシック|b0|i0|c128|p49;32}
 73
     1
 44
1.0
  0
MTEXT
  5
2AF
330
1F
100
AcDbEntity
  8
0-0_補助線
  6
Continuous
 62
     7
370
   211
100
AcDbMText
 10
2564.106110436728
 20
-1783.444043023258
 30
0.0
 40
68.5800000000026
 41
90.00000000000341
 46
0.0
 71
     7
 72
     1
  1
{\fＭＳ ゴシック|b0|i0|c128|p49;11}
 73
     1
 44
1.0
  0
MTEXT
  5
2B0
330
1F
100
AcDbEntity
  8
0-0_補助線
  6
Continuous
 62
     7
370
   211
100
AcDbMText
 10
2136.254384697804
 20
-1919.600849893691
 30
0.0
 40
68.58000000000044
 41
135.0000000000009
 46
0.0
 71
     7
 72
     1
  1
{\fＭＳ ゴシック|b0|i0|c128|p49;1.2}
 11
6.123031769111886E-17
 21
1.0
 31
0.0
 73
     1
 44
1.0
  0
MTEXT
  5
2B1
330
1F
100
AcDbEntity
  8
0-0_補助線
  6
Continuous
 62
     7
370
   211
100
AcDbMText
 10
2136.254384697804
 20
-2031.624158956012
 30
0.0
 40
68.57999999999676
 41
44.99999999999787
 46
0.0
 71
     7
 72
     1
  1
{\fＭＳ ゴシック|b0|i0|c128|p49;7}
 11
6.123031769111886E-17
 21
1.0
 31
0.0
 73
     1
 44
1.0
  0
MTEXT
  5
2B2
330
1F
100
AcDbEntity
  8
0-0_補助線
  6
Continuous
 62
     7
370
   211
100
AcDbMText
 10
1979.811414453809
 20
-2067.624158956011
 30
0.0
 40
68.58000000000044
 41
135.0000000000009
 46
0.0
 71
     7
 72
     1
  1
{\fＭＳ ゴシック|b0|i0|c128|p49;8.2}
 11
6.123031769111886E-17
 21
1.0
 31
0.0
 73
     1
 44
1.0
  0
MTEXT
  5
2B3
330
1F
100
AcDbEntity
  8
0-0_補助線
  6
Continuous
 62
     7
370
   211
100
AcDbMText
 10
2519.106110436733
 20
-2257.520507766457
 30
0.0
 40
68.57999999999836
 41
179.9999999999957
 46
0.0
 71
     7
 72
     1
  1
{\fＭＳ ゴシック|b0|i0|c128|p49;19.4}
 73
     1
 44
1.0
  0
MTEXT
  5
2B4
330
1F
100
AcDbEntity
  8
0-0_補助線
  6
Continuous
 62
     7
370
   211
100
AcDbMText
 10
2563.869681686197
 20
-2467.1903039035
 30
0.0
 40
68.5800000000026
 41
90.00000000000341
 46
0.0
 71
     7
 72
     1
  1
{\fＭＳ ゴシック|b0|i0|c128|p49;23}
 73
     1
 44
1.0
  0
MTEXT
  5
2B5
330
1F
100
AcDbEntity
  8
0-0_補助線
  6
Continuous
 62
     7
370
   211
100
AcDbMText
 10
2287.22144633826
 20
-2629.137539561272
 30
0.0
 40
68.58000000000129
 41
135.0000000000026
 46
0.0
 71
     7
 72
     1
  1
{\fＭＳ ゴシック|b0|i0|c128|p49;1.5}
 73
     1
 44
1.0
  0
MTEXT
  5
2B6
330
1F
100
AcDbEntity
  8
0-0_補助線
  6
Continuous
 62
     7
370
   211
100
AcDbMText
 10
2564.106110436728
 20
-2629.137539561271
 30
0.0
 40
68.5800000000026
 41
90.00000000000341
 46
0.0
 71
     7
 72
     1
  1
{\fＭＳ ゴシック|b0|i0|c128|p49;20}
 73
     1
 44
1.0
  0
MTEXT
  5
2B7
330
1F
100
AcDbEntity
  8
0-0_補助線
  6
Continuous
 62
     7
370
   211
100
AcDbMText
 10
2807.973257907493
 20
-2629.137539561274
 30
0.0
 40
68.57999999999826
 41
134.9999999999966
 46
0.0
 71
     7
 72
     1
  1
{\fＭＳ ゴシック|b0|i0|c128|p49;1.5}
 73
     1
 44
1.0
  0
LINE
  5
2B8
330
1F
100
AcDbEntity
  8
0-A_文字
  6
Continuous
 62
    92
370
     5
100
AcDbLine
 10
-297.8682664278656
 20
160.851375269048
 30
0.0
 11
1687.801095242714
 21
160.851375269048
 31
0.0
  0
LINE
  5
2B9
330
1F
100
AcDbEntity
  8
0-A_文字
  6
Continuous
 62
    92
370
     5
100
AcDbLine
 10
-297.8682664278656
 20
340.851375269048
 30
0.0
 11
1687.801095242714
 21
340.851375269048
 31
0.0
  0
MTEXT
  5
2BA
330
1F
100
AcDbEntity
  8
0-0_補助線
  6
Continuous
 62
     7
370
   211
100
AcDbMText
 10
2136.254384697804
 20
-2809.252056654776
 30
0.0
 40
68.5800000000026
 41
45.00000000000171
 46
0.0
 71
     7
 72
     1
  1
{\fＭＳ ゴシック|b0|i0|c128|p49;2}
 11
6.123031769111886E-17
 21
1.0
 31
0.0
 73
     1
 44
1.0
  0
MTEXT
  5
2BB
330
1F
100
AcDbEntity
  8
0-0_補助線
  6
Continuous
 62
     7
370
   211
100
AcDbMText
 10
1979.811414453809
 20
-2895.831183401061
 30
0.0
 40
68.57999999999934
 41
44.99999999999957
 46
0.0
 71
     7
 72
     1
  1
{\fＭＳ ゴシック|b0|i0|c128|p49;7}
 11
6.123031769111886E-17
 21
1.0
 31
0.0
 73
     1
 44
1.0
  0
LINE
  5
2BC
330
1F
100
AcDbEntity
  8
0-0_補助線
  6
Continuous
 62
   120
370
     5
100
AcDbLine
 10
1322.263189468906
 20
-988.8123065688484
 30
0.0
 11
1322.263189468906
 21
-1058.812104492995
 31
0.0
  0
LWPOLYLINE
  5
2BD
330
1F
100
AcDbEntity
  8
0-0_補助線
  6
Continuous
 62
     7
370
     5
100
AcDbPolyline
 90
        4
 70
     1
 43
3.0
 10
1323.763189468906
 20
-988.8123065688484
 42
0.4142135623731
 10
1322.263189468906
 20
-987.3123065688485
 42
0.4142135623731
 10
1320.763189468906
 20
-988.8123065688484
 42
0.4142135623731
 10
1322.263189468906
 20
-990.3123065688483
 42
0.4142135623731
  0
LWPOLYLINE
  5
2BE
330
1F
100
AcDbEntity
  8
0-0_補助線
  6
Continuous
 62
     7
370
     5
100
AcDbPolyline
 90
        4
 70
     1
 43
3.0
 10
1323.763189468906
 20
-1058.812104492995
 42
0.4142135623731
 10
1322.263189468906
 20
-1057.312104492996
 42
0.4142135623731
 10
1320.763189468906
 20
-1058.812104492995
 42
0.4142135623731
 10
1322.263189468906
 20
-1060.312104492995
 42
0.4142135623731
  0
LINE
  5
2BF
330
1F
100
AcDbEntity
  8
0-0_補助線
  6
Continuous
 62
   120
370
     5
100
AcDbLine
 10
1322.263189468906
 20
-988.8123065688484
 30
0.0
 11
1130.529881832634
 21
-988.8123065688484
 31
0.0
  0
LINE
  5
2C0
330
1F
100
AcDbEntity
  8
0-0_補助線
  6
Continuous
 62
   120
370
     5
100
AcDbLine
 10
1322.263189468906
 20
-1058.812104492995
 30
0.0
 11
1130.529881832634
 21
-1058.812104492995
 31
0.0
  0
MTEXT
  5
2C1
330
1F
100
AcDbEntity
  8
0-0_補助線
  6
Continuous
 62
     7
370
   211
100
AcDbMText
 10
2136.254384697804
 20
-2910.831461313932
 30
0.0
 40
68.57999999999676
 41
44.99999999999787
 46
0.0
 71
     7
 72
     1
  1
{\fＭＳ ゴシック|b0|i0|c128|p49;5}
 11
6.123031769111886E-17
 21
1.0
 31
0.0
 73
     1
 44
1.0
  0
LINE
  5
2C2
330
1F
100
AcDbEntity
  8
0-0_補助線
  6
Continuous
 62
   120
370
     5
100
AcDbLine
 10
197.262480157171
 20
-1366.321758770078
 30
0.0
 11
507.2632719645999
 21
-1366.321758770078
 31
0.0
  0
LWPOLYLINE
  5
2C3
330
1F
100
AcDbEntity
  8
0-0_補助線
  6
Continuous
 62
     7
370
     5
100
AcDbPolyline
 90
        4
 70
     1
 43
3.0
 10
198.762480157171
 20
-1366.321758770078
 42
0.4142135623731
 10
197.262480157171
 20
-1364.821758770078
 42
0.4142135623731
 10
195.762480157171
 20
-1366.321758770078
 42
0.4142135623731
 10
197.262480157171
 20
-1367.821758770078
 42
0.4142135623731
  0
LWPOLYLINE
  5
2C4
330
1F
100
AcDbEntity
  8
0-0_補助線
  6
Continuous
 62
     7
370
     5
100
AcDbPolyline
 90
        4
 70
     1
 43
3.0
 10
508.7632719645999
 20
-1366.321758770078
 42
0.4142135623731
 10
507.2632719645999
 20
-1364.821758770078
 42
0.4142135623731
 10
505.7632719645999
 20
-1366.321758770078
 42
0.4142135623731
 10
507.2632719645999
 20
-1367.821758770078
 42
0.4142135623731
  0
LINE
  5
2C5
330
1F
100
AcDbEntity
  8
0-0_補助線
  6
Continuous
 62
   120
370
     5
100
AcDbLine
 10
197.262480157171
 20
-1366.321758770078
 30
0.0
 11
197.262480157171
 21
-1186.321758770078
 31
0.0
  0
LINE
  5
2C6
330
1F
100
AcDbEntity
  8
0-0_補助線
  6
Continuous
 62
   120
370
     5
100
AcDbLine
 10
507.2632719645999
 20
-1366.321758770078
 30
0.0
 11
507.2632719645999
 21
-1186.321758770078
 31
0.0
  0
MTEXT
  5
2C7
330
1F
100
AcDbEntity
  8
0-A_文字
  6
Continuous
 62
     7
370
     0
100
AcDbMText
 10
-25.0335855925757
 20
176.571375269048
 30
0.0
 40
91.44000000000003
 41
1440.000000000001
 46
0.0
 71
     7
 72
     1
  1
{\fＭＳ ゴシック|b0|i0|c128|p49;竪枠下端形状図（S＝1/3）}
 73
     1
 44
1.0
  0
LINE
  5
2C8
330
1F
100
AcDbEntity
  8
0-0_補助線
  6
Continuous
 62
   120
370
     5
100
AcDbLine
 10
507.2632719645999
 20
-1366.321758770078
 30
0.0
 11
737.2635359004125
 21
-1366.321758770078
 31
0.0
  0
LWPOLYLINE
  5
2C9
330
1F
100
AcDbEntity
  8
0-0_補助線
  6
Continuous
 62
     7
370
     5
100
AcDbPolyline
 90
        4
 70
     1
 43
3.0
 10
738.7635359004125
 20
-1366.321758770078
 42
0.4142135623731
 10
737.2635359004125
 20
-1364.821758770078
 42
0.4142135623731
 10
735.7635359004125
 20
-1366.321758770078
 42
0.4142135623731
 10
737.2635359004125
 20
-1367.821758770078
 42
0.4142135623731
  0
LINE
  5
2CA
330
1F
100
AcDbEntity
  8
0-0_補助線
  6
Continuous
 62
   120
370
     5
100
AcDbLine
 10
737.2635359004125
 20
-1366.321758770078
 30
0.0
 11
737.2635359004125
 21
-1186.321758770078
 31
0.0
  0
MTEXT
  5
2CB
330
1F
100
AcDbEntity
  8
0-A_文字
  6
Continuous
 62
     7
370
     5
100
AcDbMText
 10
2020.635776078001
 20
176.5713752690465
 30
0.0
 40
91.44000000000047
 41
1320.000000000007
 46
0.0
 71
     7
 72
     1
  1
{\fＭＳ ゴシック|b0|i0|c128|p49;レール拡大図（S＝1/2）}
 73
     1
 44
1.0
  0
LINE
  5
2CC
330
1F
100
AcDbEntity
  8
0-0_補助線
  6
Continuous
 62
   120
370
     5
100
AcDbLine
 10
737.2635359004125
 20
-1366.321758770078
 30
0.0
 11
1047.262843068917
 21
-1366.321758770078
 31
0.0
  0
LWPOLYLINE
  5
2CD
330
1F
100
AcDbEntity
  8
0-0_補助線
  6
Continuous
 62
     7
370
     5
100
AcDbPolyline
 90
        4
 70
     1
 43
3.0
 10
1048.762843068917
 20
-1366.321758770078
 42
0.4142135623731
 10
1047.262843068917
 20
-1364.821758770078
 42
0.4142135623731
 10
1045.762843068917
 20
-1366.321758770078
 42
0.4142135623731
 10
1047.262843068917
 20
-1367.821758770078
 42
0.4142135623731
  0
LINE
  5
2CE
330
1F
100
AcDbEntity
  8
0-0_補助線
  6
Continuous
 62
   120
370
     5
100
AcDbLine
 10
1047.262843068917
 20
-1366.321758770078
 30
0.0
 11
1047.262843068917
 21
-1186.321758770078
 31
0.0
  0
MTEXT
  5
2CF
330
1F
100
AcDbEntity
  8
0-A_文字
  6
Continuous
 62
     7
370
     5
100
AcDbMText
 10
-175.0335855925757
 20
-1808.359081402911
 30
0.0
 40
91.44000000000004
 41
1740.000000000001
 46
0.0
 71
     7
 72
     1
  1
{\fＭＳ ゴシック|b0|i0|c128|p49;レール埋込時 フロアー貼込位置}
 73
     1
 44
1.0
  0
LINE
  5
2D0
330
1F
100
AcDbEntity
  8
0-A_文字
  6
Continuous
 62
    92
370
     5
100
AcDbLine
 10
-297.8682664278656
 20
340.851375269048
 30
0.0
 11
-297.8682664278656
 21
-3264.079081402911
 31
0.0
  0
LINE
  5
2D1
330
1F
100
AcDbEntity
  8
0-A_文字
  6
Continuous
 62
    92
370
     5
100
AcDbLine
 10
-297.8682664278656
 20
-3264.079081402911
 30
0.0
 11
3673.470456913294
 21
-3264.079081402911
 31
0.0
  0
MTEXT
  5
2D2
330
1F
100
AcDbEntity
  8
0-A_文字
  6
Continuous
 62
     7
370
     5
100
AcDbMText
 10
-232.4338540830943
 20
-2076.185251940825
 30
0.0
 40
91.43999999999984
 41
359.9999999999994
 46
0.0
 71
     7
 72
     1
  1
{\fＭＳ ゴシック|b0|i0|c128|p49;収納側}
 73
     1
 44
1.0
  0
MTEXT
  5
2D3
330
1F
100
AcDbEntity
  8
0-A_文字
  6
Continuous
 62
     7
370
   211
100
AcDbMText
 10
827.7891937631457
 20
-3049.095625739226
 30
0.0
 40
91.4400000000001
 41
900.0000000000009
 46
0.0
 71
     7
 72
     1
  1
{\fＭＳ ゴシック|b0|i0|c128|p49;チリ寸法(任意）}
 73
     1
 44
1.0
  0
MTEXT
  5
2D4
330
1F
100
AcDbEntity
  8
0-A_文字
  6
Continuous
 62
     7
370
     5
100
AcDbMText
 10
-217.2164627787354
 20
-3078.184400747834
 30
0.0
 40
91.43999999999986
 41
359.9999999999994
 46
0.0
 71
     7
 72
     1
  1
{\fＭＳ ゴシック|b0|i0|c128|p49;室内側}
 73
     1
 44
1.0
  0
MTEXT
  5
2D5
330
1F
100
AcDbEntity
  8
0-B_寸法
  6
Continuous
 62
     7
370
   211
100
AcDbMText
 10
127.5761977057455
 20
-2416.262718750897
 30
0.0
 40
91.43999999999838
 41
119.9999999999979
 46
0.0
 71
     7
 72
     1
  1
{\fＭＳ ゴシック|b0|i0|c128|p49;30}
 11
6.123031769111886E-17
 21
1.0
 31
0.0
 73
     1
 44
1.0
  0
LINE
  5
2D6
330
1F
100
AcDbEntity
  8
0-A_文字
  6
Continuous
 62
    92
370
     5
100
AcDbLine
 10
-297.8682664278656
 20
-1644.079081402911
 30
0.0
 11
1687.801095242714
 21
-1644.079081402911
 31
0.0
  0
LINE
  5
2D7
330
1F
100
AcDbEntity
  8
0-A_文字
  6
Continuous
 62
    92
370
     5
100
AcDbLine
 10
-297.8682664278656
 20
-1824.079081402911
 30
0.0
 11
1687.801095242714
 21
-1824.079081402911
 31
0.0
  0
LINE
  5
2D8
330
1F
100
AcDbEntity
  8
0-7_金物
  6
Continuous
 62
     7
370
     5
100
AcDbLine
 10
630.7610530577695
 20
-2577.905024296188
 30
0.0
 11
618.7614588590823
 21
-2577.905024296188
 31
0.0
  0
LINE
  5
2D9
330
1F
100
AcDbEntity
  8
0-7_金物
  6
Continuous
 62
     7
370
     5
100
AcDbLine
 10
618.7614588590823
 20
-2577.905024296188
 30
0.0
 11
618.7614588590823
 21
-2457.90462839247
 31
0.0
  0
LINE
  5
2DA
330
1F
100
AcDbEntity
  8
0-7_金物
  6
Continuous
 62
     7
370
     5
100
AcDbLine
 10
618.7614588590823
 20
-2457.90462839247
 30
0.0
 11
630.7610530577695
 21
-2457.90462839247
 31
0.0
  0
LINE
  5
2DB
330
1F
100
AcDbEntity
  8
0-7_金物
  6
Continuous
 62
     7
370
     5
100
AcDbLine
 10
618.7614588590823
 20
-2547.904925320257
 30
0.0
 11
600.7609540818448
 21
-2547.904925320257
 31
0.0
  0
LINE
  5
2DC
330
1F
100
AcDbEntity
  8
0-7_金物
  6
Continuous
 62
     7
370
     5
100
AcDbLine
 10
600.7609540818448
 20
-2487.904727368401
 30
0.0
 11
618.7614588590823
 21
-2487.904727368401
 31
0.0
  0
LINE
  5
2DD
330
1F
100
AcDbEntity
  8
0-7_金物
  6
Continuous
 62
     7
370
     5
100
AcDbLine
 10
612.7612906000077
 20
-2547.904925320257
 30
0.0
 11
612.7612906000077
 21
-2487.904727368401
 31
0.0
  0
ARC
  5
2DE
330
1F
100
AcDbEntity
  8
0-4_枠
  6
Continuous
 62
    92
370
     5
100
AcDbCircle
 10
-179.2386500144428
 20
-2748.479591111537
 30
0.0
 40
707.5483889193149
100
AcDbArc
 50
25.9889678955078
 51
32.00529479980467
  0
ARC
  5
2DF
330
1F
100
AcDbEntity
  8
0-4_枠
  6
Continuous
 62
    92
370
     5
100
AcDbCircle
 10
-179.2386500144428
 20
-2286.479996912847
 30
0.0
 40
707.5483889193149
100
AcDbArc
 50
327.9947052001953
 51
334.0110321044921
  0
LINE
  5
2E0
330
1F
100
AcDbEntity
  8
0-4_枠
  6
Continuous
 62
    92
370
     5
100
AcDbLine
 10
420.7618448652074
 20
-2373.480580870828
 30
0.0
 11
420.7618448652074
 21
-2298.482560389409
 31
0.0
  0
LINE
  5
2E1
330
1F
100
AcDbEntity
  8
0-4_枠
  6
Continuous
 62
    92
370
     5
100
AcDbLine
 10
420.7618448652074
 20
-2736.48222387125
 30
0.0
 11
456.7613697807446
 21
-2772.482491106259
 31
0.0
  0
LINE
  5
2E2
330
1F
100
AcDbEntity
  8
0-4_枠
  6
Continuous
 62
    92
370
     5
100
AcDbLine
 10
600.7609540818448
 20
-2772.482491106259
 30
0.0
 11
456.7613697807446
 21
-2772.482491106259
 31
0.0
  0
LINE
  5
2E3
330
1F
100
AcDbEntity
  8
0-4_枠
  6
Continuous
 62
    92
370
     5
100
AcDbLine
 10
456.7613697807446
 20
-2262.482293154399
 30
0.0
 11
420.7618448652074
 21
-2298.482560389409
 31
0.0
  0
LINE
  5
2E4
330
1F
100
AcDbEntity
  8
0-4_枠
  6
Continuous
 62
    92
370
     5
100
AcDbLine
 10
600.7609540818448
 20
-2262.482293154399
 30
0.0
 11
456.7613697807446
 21
-2262.482293154399
 31
0.0
  0
LINE
  5
2E5
330
1F
100
AcDbEntity
  8
0-4_枠
  6
Continuous
 62
    92
370
     5
100
AcDbLine
 10
600.7609540818448
 20
-2772.482491106259
 30
0.0
 11
600.7609540818448
 21
-2262.482293154399
 31
0.0
  0
LINE
  5
2E6
330
1F
100
AcDbEntity
  8
0-4_枠
  6
Continuous
 62
    92
370
     5
100
AcDbLine
 10
456.7613697807446
 20
-2438.433534312553
 30
0.0
 11
456.7613697807446
 21
-2596.526796031303
 31
0.0
  0
LINE
  5
2E7
330
1F
100
AcDbEntity
  8
0-4_枠
  6
Continuous
 62
    92
370
     5
100
AcDbLine
 10
420.7618448652074
 20
-2736.48222387125
 30
0.0
 11
420.7618448652074
 21
-2661.479007153556
 31
0.0
  0
LINE
  5
2E8
330
1F
100
AcDbEntity
  8
0-4_枠
  6
Continuous
 62
   120
370
     5
100
AcDbLine
 10
-194.0317326800257
 20
-2442.904400747834
 30
0.0
 11
456.7613697807446
 21
-2442.904400747834
 31
0.0
  0
LINE
  5
2E9
330
1F
100
AcDbEntity
  8
0-4_枠
  6
Continuous
 62
   120
370
     5
100
AcDbLine
 10
-194.0317326800257
 20
-2592.904400747834
 30
0.0
 11
456.7613697807446
 21
-2592.904400747834
 31
0.0
  0
LWPOLYLINE
  5
2EA
330
1F
100
AcDbEntity
  8
0-B_寸法
  6
Continuous
 62
     7
370
     5
100
AcDbPolyline
 90
        4
 70
     1
 43
3.0
 10
697.6179956473616
 20
-2772.482491106259
 42
0.4142135623731
 10
696.1179956473616
 20
-2770.982491106259
 42
0.4142135623731
 10
694.6179956473616
 20
-2772.482491106259
 42
0.4142135623731
 10
696.1179956473616
 20
-2773.982491106259
 42
0.4142135623731
  0
LINE
  5
2EB
330
1F
100
AcDbEntity
  8
0-B_寸法
  6
Continuous
 62
   120
370
     5
100
AcDbLine
 10
696.1179956473616
 20
-2772.482491106259
 30
0.0
 11
618.9283296108051
 21
-2772.482491106259
 31
0.0
  0
LINE
  5
2EC
330
1F
100
AcDbEntity
  8
0-0_補助線
  6
JWW_HOJO
 62
   120
370
     5
100
AcDbLine
 10
1248.04248630058
 20
-2625.48249110626
 30
0.0
 11
1248.04248630058
 21
-2700.48249110626
 31
0.0
  0
LINE
  5
2ED
330
1F
100
AcDbEntity
  8
0-3_仕上げ
  6
Continuous
 62
    40
370
     5
100
AcDbLine
 10
600.7609540818448
 20
-2700.48249110626
 30
0.0
 11
1248.04248630058
 21
-2700.48249110626
 31
0.0
  0
LINE
  5
2EE
330
1F
100
AcDbEntity
  8
0-3_仕上げ
  6
Continuous
 62
    40
370
     5
100
AcDbLine
 10
600.7609540818448
 20
-2625.48249110626
 30
0.0
 11
1248.04248630058
 21
-2625.48249110626
 31
0.0
  0
LWPOLYLINE
  5
2EF
330
1F
100
AcDbEntity
  8
0-B_寸法
  6
Continuous
 62
     7
370
     5
100
AcDbPolyline
 90
        4
 70
     1
 43
3.0
 10
697.6179956473616
 20
-2700.48249110626
 42
0.4142135623731
 10
696.1179956473616
 20
-2698.98249110626
 42
0.4142135623731
 10
694.6179956473616
 20
-2700.48249110626
 42
0.4142135623731
 10
696.1179956473616
 20
-2701.98249110626
 42
0.4142135623731
  0
LINE
  5
2F0
330
1F
100
AcDbEntity
  8
0-B_寸法
  6
Continuous
 62
   120
370
     5
100
AcDbLine
 10
696.1179956473616
 20
-2700.48249110626
 30
0.0
 11
618.9283296108051
 21
-2700.48249110626
 31
0.0
  0
LINE
  5
2F1
330
1F
100
AcDbEntity
  8
0-B_寸法
  6
Continuous
 62
   120
370
     5
100
AcDbLine
 10
696.1179956473616
 20
-2700.48249110626
 30
0.0
 11
696.1179956473616
 21
-2772.482491106259
 31
0.0
  0
LINE
  5
2F2
330
1F
100
AcDbEntity
  8
0-3_仕上げ
  6
Continuous
 62
    92
370
     5
100
AcDbLine
 10
630.7610530577695
 20
-2388.904380952649
 30
0.0
 11
630.7610530577695
 21
-2625.48249110626
 31
0.0
  0
LINE
  5
2F3
330
1F
100
AcDbEntity
  8
0-C_ハッチ
  6
Continuous
 62
   120
370
     5
100
AcDbLine
 10
600.7609540818448
 20
-2730.899981472603
 30
0.0
 11
456.7613697807446
 21
-2586.90188181044
 31
0.0
  0
LINE
  5
2F4
330
1F
100
AcDbEntity
  8
0-C_ハッチ
  6
Continuous
 62
   120
370
     5
100
AcDbLine
 10
600.7609540818448
 20
-2773.326508341269
 30
0.0
 11
445.6963557921445
 21
-2618.263394690509
 31
0.0
  0
LINE
  5
2F5
330
1F
100
AcDbEntity
  8
0-C_ハッチ
  6
Continuous
 62
   120
370
     5
100
AcDbLine
 10
557.4911522976317
 20
-2772.482491106259
 30
0.0
 11
430.4758374222065
 21
-2645.468660869772
 31
0.0
  0
LINE
  5
2F6
330
1F
100
AcDbEntity
  8
0-C_ハッチ
  6
Continuous
 62
   120
370
     5
100
AcDbLine
 10
472.6377274005763
 20
-2772.482491106259
 30
0.0
 11
420.7618448652074
 21
-2720.606979730625
 31
0.0
  0
LINE
  5
2F7
330
1F
100
AcDbEntity
  8
0-C_ハッチ
  6
Continuous
 62
   120
370
     5
100
AcDbLine
 10
600.7609540818448
 20
-2646.048412374206
 30
0.0
 11
456.7613697807446
 21
-2502.04808575364
 31
0.0
  0
LINE
  5
2F8
330
1F
100
AcDbEntity
  8
0-C_ハッチ
  6
Continuous
 62
   120
370
     5
100
AcDbLine
 10
600.7609540818448
 20
-2688.474196923406
 30
0.0
 11
456.7613697807446
 21
-2544.476097261244
 31
0.0
  0
LINE
  5
2F9
330
1F
100
AcDbEntity
  8
0-C_ハッチ
  6
Continuous
 62
   120
370
     5
100
AcDbLine
 10
600.7609540818448
 20
-2603.62188550554
 30
0.0
 11
456.7613697807446
 21
-2459.621558884975
 31
0.0
  0
LINE
  5
2FA
330
1F
100
AcDbEntity
  8
0-C_ハッチ
  6
Continuous
 62
   120
370
     5
100
AcDbLine
 10
600.7609540818448
 20
-2306.636197424884
 30
0.0
 11
556.6077921308324
 21
-2262.482293154399
 31
0.0
  0
LINE
  5
2FB
330
1F
100
AcDbEntity
  8
0-C_ハッチ
  6
Continuous
 62
   120
370
     5
100
AcDbLine
 10
600.7609540818448
 20
-2349.06272429355
 30
0.0
 11
514.1808941024256
 21
-2262.482293154399
 31
0.0
  0
LINE
  5
2FC
330
1F
100
AcDbEntity
  8
0-C_ハッチ
  6
Continuous
 62
   120
370
     5
100
AcDbLine
 10
600.7609540818448
 20
-2391.489251162212
 30
0.0
 11
471.754738393508
 21
-2262.482293154399
 31
0.0
  0
LINE
  5
2FD
330
1F
100
AcDbEntity
  8
0-C_ハッチ
  6
Continuous
 62
   120
370
     5
100
AcDbLine
 10
600.7609540818448
 20
-2433.915778030878
 30
0.0
 11
443.0447906527816
 21
-2276.198872282356
 31
0.0
  0
LINE
  5
2FE
330
1F
100
AcDbEntity
  8
0-C_ハッチ
  6
Continuous
 62
   120
370
     5
100
AcDbLine
 10
600.7609540818448
 20
-2476.342304899544
 30
0.0
 11
421.8322695379329
 21
-2297.41213571669
 31
0.0
  0
LINE
  5
2FF
330
1F
100
AcDbEntity
  8
0-C_ハッチ
  6
Continuous
 62
   120
370
     5
100
AcDbLine
 10
600.7609540818448
 20
-2518.768831768209
 30
0.0
 11
420.7618448652074
 21
-2338.768237912637
 31
0.0
  0
LINE
  5
300
330
1F
100
AcDbEntity
  8
0-C_ハッチ
  6
Continuous
 62
   120
370
     5
100
AcDbLine
 10
600.7609540818448
 20
-2561.195358636875
 30
0.0
 11
432.7606967444326
 21
-2393.194358979994
 31
0.0
  0
LINE
  5
301
330
1F
100
AcDbEntity
  8
0-C_ハッチ
  6
Continuous
 62
   120
370
     5
100
AcDbLine
 10
515.0635119497629
 20
-2772.482491106259
 30
0.0
 11
420.7618448652074
 21
-2678.181195181428
 31
0.0
  0
LINE
  5
302
330
1F
100
AcDbEntity
  8
0-C_ハッチ
  6
JWW_DASHED1
 62
   120
370
     5
100
AcDbLine
 10
600.7609540818585
 20
-2659.307211514952
 30
0.0
 11
634.5856744905332
 21
-2625.48249110627
 31
0.0
  0
LINE
  5
303
330
1F
100
AcDbEntity
  8
0-C_ハッチ
  6
JWW_DASHED1
 62
   120
370
     5
100
AcDbLine
 10
602.0120813617332
 20
-2700.48249110627
 30
0.0
 11
677.0120813617468
 21
-2625.48249110626
 31
0.0
  0
LINE
  5
304
330
1F
100
AcDbEntity
  8
0-C_ハッチ
  6
JWW_DASHED1
 62
   120
370
     5
100
AcDbLine
 10
644.4384882329468
 20
-2700.48249110626
 30
0.0
 11
719.4384882329605
 21
-2625.48249110625
 31
0.0
  0
LINE
  5
305
330
1F
100
AcDbEntity
  8
0-C_ハッチ
  6
JWW_DASHED1
 62
   120
370
     5
100
AcDbLine
 10
686.8648951041469
 20
-2700.48249110626
 30
0.0
 11
761.8648951041605
 21
-2625.48249110625
 31
0.0
  0
LINE
  5
306
330
1F
100
AcDbEntity
  8
0-C_ハッチ
  6
JWW_DASHED1
 62
   120
370
     5
100
AcDbLine
 10
729.2913019753605
 20
-2700.482491106246
 30
0.0
 11
804.2913019753605
 21
-2625.48249110625
 31
0.0
  0
LINE
  5
307
330
1F
100
AcDbEntity
  8
0-C_ハッチ
  6
JWW_DASHED1
 62
   120
370
     5
100
AcDbLine
 10
771.7177088464923
 20
-2700.482491106256
 30
0.0
 11
846.7177088464923
 21
-2625.48249110626
 31
0.0
  0
LINE
  5
308
330
1F
100
AcDbEntity
  8
0-C_ハッチ
  6
JWW_DASHED1
 62
   120
370
     5
100
AcDbLine
 10
814.1441157176923
 20
-2700.482491106256
 30
0.0
 11
889.1441157176923
 21
-2625.48249110626
 31
0.0
  0
LINE
  5
309
330
1F
100
AcDbEntity
  8
0-C_ハッチ
  6
JWW_DASHED1
 62
   120
370
     5
100
AcDbLine
 10
856.5705225888923
 20
-2700.48249110626
 30
0.0
 11
931.5705225888787
 21
-2625.482491106263
 31
0.0
  0
LINE
  5
30A
330
1F
100
AcDbEntity
  8
0-C_ハッチ
  6
JWW_DASHED1
 62
   120
370
     5
100
AcDbLine
 10
898.9969294600787
 20
-2700.482491106263
 30
0.0
 11
973.9969294600787
 21
-2625.482491106267
 31
0.0
  0
LINE
  5
30B
330
1F
100
AcDbEntity
  8
0-C_ハッチ
  6
JWW_DASHED1
 62
   120
370
     5
100
AcDbLine
 10
941.4233363312924
 20
-2700.48249110626
 30
0.0
 11
1016.423336331306
 21
-2625.48249110625
 31
0.0
  0
LINE
  5
30C
330
1F
100
AcDbEntity
  8
0-C_ハッチ
  6
JWW_DASHED1
 62
   120
370
     5
100
AcDbLine
 10
983.8497432024787
 20
-2700.482491106263
 30
0.0
 11
1058.849743202492
 21
-2625.482491106253
 31
0.0
  0
LINE
  5
30D
330
1F
100
AcDbEntity
  8
0-C_ハッチ
  6
JWW_DASHED1
 62
   120
370
     5
100
AcDbLine
 10
1026.276150073692
 20
-2700.482491106256
 30
0.0
 11
1101.276150073706
 21
-2625.482491106243
 31
0.0
  0
LINE
  5
30E
330
1F
100
AcDbEntity
  8
0-C_ハッチ
  6
JWW_DASHED1
 62
   120
370
     5
100
AcDbLine
 10
1068.702556944851
 20
-2700.48249110625
 30
0.0
 11
1143.702556944838
 21
-2625.482491106253
 31
0.0
  0
LINE
  5
30F
330
1F
100
AcDbEntity
  8
0-C_ハッチ
  6
JWW_DASHED1
 62
   120
370
     5
100
AcDbLine
 10
1111.128963816038
 20
-2700.48249110625
 30
0.0
 11
1186.128963816038
 21
-2625.482491106253
 31
0.0
  0
LINE
  5
310
330
1F
100
AcDbEntity
  8
0-C_ハッチ
  6
JWW_DASHED1
 62
   120
370
     5
100
AcDbLine
 10
1153.555370687238
 20
-2700.482491106253
 30
0.0
 11
1228.555370687238
 21
-2625.482491106256
 31
0.0
  0
LINE
  5
311
330
1F
100
AcDbEntity
  8
0-C_ハッチ
  6
JWW_DASHED1
 62
   120
370
     5
100
AcDbLine
 10
1195.981777558438
 20
-2700.482491106256
 30
0.0
 11
1248.04248630058
 21
-2648.421782364117
 31
0.0
  0
LINE
  5
312
330
1F
100
AcDbEntity
  8
0-C_ハッチ
  6
JWW_DASHED1
 62
   120
370
     5
100
AcDbLine
 10
1238.408184429638
 20
-2700.48249110626
 30
0.0
 11
1248.04248630058
 21
-2690.848189235314
 31
0.0
  0
LINE
  5
313
330
1F
100
AcDbEntity
  8
0-B_寸法
  6
Continuous
 62
   120
370
     5
100
AcDbLine
 10
142.5761977057455
 20
-2592.482293154399
 30
0.0
 11
257.2028517700228
 21
-2592.482293154399
 31
0.0
  0
LINE
  5
314
330
1F
100
AcDbEntity
  8
0-B_寸法
  6
Continuous
 62
   120
370
     5
100
AcDbLine
 10
142.5761977057455
 20
-2442.482293154399
 30
0.0
 11
257.2028517700228
 21
-2442.482293154399
 31
0.0
  0
LWPOLYLINE
  5
315
330
1F
100
AcDbEntity
  8
0-B_寸法
  6
Continuous
 62
     7
370
     5
100
AcDbPolyline
 90
        4
 70
     1
 43
3.0
 10
144.0761977057455
 20
-2592.482293154399
 42
0.4142135623731
 10
142.5761977057455
 20
-2590.9822931544
 42
0.4142135623731
 10
141.0761977057455
 20
-2592.482293154399
 42
0.4142135623731
 10
142.5761977057455
 20
-2593.982293154399
 42
0.4142135623731
  0
LWPOLYLINE
  5
316
330
1F
100
AcDbEntity
  8
0-B_寸法
  6
Continuous
 62
     7
370
     5
100
AcDbPolyline
 90
        4
 70
     1
 43
3.0
 10
144.0761977057455
 20
-2442.482293154399
 42
0.4142135623731
 10
142.5761977057455
 20
-2440.9822931544
 42
0.4142135623731
 10
141.0761977057455
 20
-2442.482293154399
 42
0.4142135623731
 10
142.5761977057455
 20
-2443.982293154399
 42
0.4142135623731
  0
LINE
  5
317
330
1F
100
AcDbEntity
  8
0-B_寸法
  6
Continuous
 62
   120
370
     5
100
AcDbLine
 10
-1.768477782591376
 20
-2262.482293154399
 30
0.0
 11
257.2028517700228
 21
-2262.482293154399
 31
0.0
  0
LWPOLYLINE
  5
318
330
1F
100
AcDbEntity
  8
0-B_寸法
  6
Continuous
 62
     7
370
     5
100
AcDbPolyline
 90
        4
 70
     1
 43
3.0
 10
144.0761977057455
 20
-2262.482293154399
 42
0.4142135623731
 10
142.5761977057455
 20
-2260.9822931544
 42
0.4142135623731
 10
141.0761977057455
 20
-2262.482293154399
 42
0.4142135623731
 10
142.5761977057455
 20
-2263.982293154399
 42
0.4142135623731
  0
LWPOLYLINE
  5
319
330
1F
100
AcDbEntity
  8
0-B_寸法
  6
Continuous
 62
     7
370
     5
100
AcDbPolyline
 90
        4
 70
     1
 43
3.0
 10
-0.2684777825913754
 20
-2262.482293154399
 42
0.4142135623731
 10
-1.768477782591376
 20
-2260.9822931544
 42
0.4142135623731
 10
-3.268477782591376
 20
-2262.482293154399
 42
0.4142135623731
 10
-1.768477782591376
 20
-2263.982293154399
 42
0.4142135623731
  0
LINE
  5
31A
330
1F
100
AcDbEntity
  8
0-B_寸法
  6
Continuous
 62
   120
370
     5
100
AcDbLine
 10
142.5761977057455
 20
-2772.482293154399
 30
0.0
 11
142.5761977057455
 21
-2262.482293154399
 31
0.0
  0
LINE
  5
31B
330
1F
100
AcDbEntity
  8
0-B_寸法
  6
Continuous
 62
   120
370
     5
100
AcDbLine
 10
-1.768477782591376
 20
-2772.482293154399
 30
0.0
 11
257.2028517700228
 21
-2772.482293154399
 31
0.0
  0
LWPOLYLINE
  5
31C
330
1F
100
AcDbEntity
  8
0-B_寸法
  6
Continuous
 62
     7
370
     5
100
AcDbPolyline
 90
        4
 70
     1
 43
3.0
 10
144.0761977057455
 20
-2772.482293154399
 42
0.4142135623731
 10
142.5761977057455
 20
-2770.9822931544
 42
0.4142135623731
 10
141.0761977057455
 20
-2772.482293154399
 42
0.4142135623731
 10
142.5761977057455
 20
-2773.982293154399
 42
0.4142135623731
  0
LWPOLYLINE
  5
31D
330
1F
100
AcDbEntity
  8
0-B_寸法
  6
Continuous
 62
     7
370
     5
100
AcDbPolyline
 90
        4
 70
     1
 43
3.0
 10
-0.2684777825913754
 20
-2772.482293154399
 42
0.4142135623731
 10
-1.768477782591376
 20
-2770.9822931544
 42
0.4142135623731
 10
-3.268477782591376
 20
-2772.482293154399
 42
0.4142135623731
 10
-1.768477782591376
 20
-2773.982293154399
 42
0.4142135623731
  0
LINE
  5
31E
330
1F
100
AcDbEntity
  8
0-B_寸法
  6
Continuous
 62
   120
370
     5
100
AcDbLine
 10
-1.768477782591376
 20
-2772.482293154399
 30
0.0
 11
-1.768477782591376
 21
-2262.482293154399
 31
0.0
  0
MTEXT
  5
31F
330
1F
100
AcDbEntity
  8
0-B_寸法
  6
Continuous
 62
     7
370
   211
100
AcDbMText
 10
127.5761977057455
 20
-2591.762293154399
 30
0.0
 40
91.43999999999838
 41
119.9999999999979
 46
0.0
 71
     7
 72
     1
  1
{\fＭＳ ゴシック|b0|i0|c128|p49;25}
 11
6.123031769111886E-17
 21
1.0
 31
0.0
 73
     1
 44
1.0
  0
MTEXT
  5
320
330
1F
100
AcDbEntity
  8
0-B_寸法
  6
Continuous
 62
     7
370
   211
100
AcDbMText
 10
-16.76847778259159
 20
-2591.762718750894
 30
0.0
 40
91.43999999999838
 41
119.9999999999979
 46
0.0
 71
     7
 72
     1
  1
{\fＭＳ ゴシック|b0|i0|c128|p49;85}
 11
6.123031769111886E-17
 21
1.0
 31
0.0
 73
     1
 44
1.0
  0
MTEXT
  5
321
330
1F
100
AcDbEntity
  8
0-B_寸法
  6
Continuous
 62
     7
370
   211
100
AcDbMText
 10
127.5761977057455
 20
-2756.762293154399
 30
0.0
 40
91.43999999999838
 41
119.9999999999979
 46
0.0
 71
     7
 72
     1
  1
{\fＭＳ ゴシック|b0|i0|c128|p49;30}
 11
6.123031769111886E-17
 21
1.0
 31
0.0
 73
     1
 44
1.0
  0
LINE
  5
322
330
1F
100
AcDbEntity
  8
0-A_文字
  6
Continuous
 62
     7
370
     5
100
AcDbLine
 10
696.1179956473616
 20
-2744.109456410363
 30
0.0
 11
827.145925819711
 21
-3043.72723905222
 31
0.0
  0
LINE
  5
323
330
1F
100
AcDbEntity
  8
0-A_文字
  6
Continuous
 62
     7
370
     5
100
AcDbLine
 10
827.145925819711
 20
-3043.72723905222
 30
0.0
 11
1653.324517056541
 21
-3043.72723905222
 31
0.0
  0
INSERT
  5
324
330
1F
100
AcDbEntity
  8
0-0_補助線
  6
Continuous
 62
     7
370
     5
100
AcDbBlockReference
  2
01@@SfigorgFlag@@4
 10
2609.10611043673
 20
-1988.183389725241
 30
0.0
 41
30.0
 42
30.0
  0
LWPOLYLINE
  5
325
330
1F
100
AcDbEntity
  8
0-0_補助線
  6
Continuous
 62
     7
370
     5
100
AcDbPolyline
 90
        4
 70
     1
 43
3.0
 10
2370.606110436733
 20
-1941.414158956009
 42
0.4142135623731
 10
2369.106110436734
 20
-1939.914158956009
 42
0.4142135623731
 10
2367.606110436734
 20
-1941.414158956009
 42
0.4142135623731
 10
2369.106110436734
 20
-1942.914158956009
 42
0.4142135623731
  0
LWPOLYLINE
  5
326
330
1F
100
AcDbEntity
  8
0-0_補助線
  6
Continuous
 62
     7
370
     5
100
AcDbPolyline
 90
        4
 70
     1
 43
3.0
 10
2850.606110436729
 20
-1941.414158956009
 42
0.4142135623731
 10
2849.106110436729
 20
-1939.914158956009
 42
0.4142135623731
 10
2847.606110436729
 20
-1941.414158956009
 42
0.4142135623731
 10
2849.106110436729
 20
-1942.914158956009
 42
0.4142135623731
  0
LWPOLYLINE
  5
327
330
1F
100
AcDbEntity
  8
0-0_補助線
  6
Continuous
 62
     7
370
     5
100
AcDbPolyline
 90
        4
 70
     1
 43
3.0
 10
2528.106110436725
 20
-1936.91415895601
 42
0.4142135623731
 10
2526.606110436725
 20
-1935.41415895601
 42
0.4142135623731
 10
2525.106110436725
 20
-1936.91415895601
 42
0.4142135623731
 10
2526.606110436725
 20
-1938.41415895601
 42
0.4142135623731
  0
LWPOLYLINE
  5
328
330
1F
100
AcDbEntity
  8
0-0_補助線
  6
Continuous
 62
     7
370
     5
100
AcDbPolyline
 90
        4
 70
     1
 43
3.0
 10
2693.106110436736
 20
-1936.91415895601
 42
0.4142135623731
 10
2691.606110436736
 20
-1935.41415895601
 42
0.4142135623731
 10
2690.106110436736
 20
-1936.91415895601
 42
0.4142135623731
 10
2691.606110436736
 20
-1938.41415895601
 42
0.4142135623731
  0
LINE
  5
329
330
1F
100
AcDbEntity
  8
0-0_補助線
  6
Continuous
 62
   120
370
     5
100
AcDbLine
 10
2526.606110436725
 20
-1787.734043023261
 30
0.0
 11
2691.606110436736
 21
-1787.734043023261
 31
0.0
  0
LWPOLYLINE
  5
32A
330
1F
100
AcDbEntity
  8
0-0_補助線
  6
Continuous
 62
     7
370
     5
100
AcDbPolyline
 90
        4
 70
     1
 43
3.0
 10
2528.106110436725
 20
-1787.734043023261
 42
0.4142135623731
 10
2526.606110436725
 20
-1786.234043023261
 42
0.4142135623731
 10
2525.106110436725
 20
-1787.734043023261
 42
0.4142135623731
 10
2526.606110436725
 20
-1789.234043023261
 42
0.4142135623731
  0
LWPOLYLINE
  5
32B
330
1F
100
AcDbEntity
  8
0-0_補助線
  6
Continuous
 62
     7
370
     5
100
AcDbPolyline
 90
        4
 70
     1
 43
3.0
 10
2693.106110436736
 20
-1787.734043023261
 42
0.4142135623731
 10
2691.606110436736
 20
-1786.234043023261
 42
0.4142135623731
 10
2690.106110436736
 20
-1787.734043023261
 42
0.4142135623731
 10
2691.606110436736
 20
-1789.234043023261
 42
0.4142135623731
  0
LINE
  5
32C
330
1F
100
AcDbEntity
  8
0-0_補助線
  6
Continuous
 62
   120
370
     5
100
AcDbLine
 10
2526.606110436725
 20
-1787.734043023261
 30
0.0
 11
2526.606110436725
 21
-1873.598351941208
 31
0.0
  0
LINE
  5
32D
330
1F
100
AcDbEntity
  8
0-0_補助線
  6
Continuous
 62
   120
370
     5
100
AcDbLine
 10
2691.606110436736
 20
-1787.734043023261
 30
0.0
 11
2691.606110436736
 21
-1873.598351941208
 31
0.0
  0
LINE
  5
32E
330
1F
100
AcDbEntity
  8
0-0_補助線
  6
Continuous
 62
   120
370
     5
100
AcDbLine
 10
2369.106110436734
 20
-1628.271755032789
 30
0.0
 11
2849.106110436729
 21
-1628.271755032789
 31
0.0
  0
LWPOLYLINE
  5
32F
330
1F
100
AcDbEntity
  8
0-0_補助線
  6
Continuous
 62
     7
370
     5
100
AcDbPolyline
 90
        4
 70
     1
 43
3.0
 10
2370.606110436733
 20
-1628.271755032789
 42
0.4142135623731
 10
2369.106110436734
 20
-1626.771755032789
 42
0.4142135623731
 10
2367.606110436734
 20
-1628.271755032789
 42
0.4142135623731
 10
2369.106110436734
 20
-1629.771755032789
 42
0.4142135623731
  0
LWPOLYLINE
  5
330
330
1F
100
AcDbEntity
  8
0-0_補助線
  6
Continuous
 62
     7
370
     5
100
AcDbPolyline
 90
        4
 70
     1
 43
3.0
 10
2850.606110436729
 20
-1628.271755032789
 42
0.4142135623731
 10
2849.106110436729
 20
-1626.771755032789
 42
0.4142135623731
 10
2847.606110436729
 20
-1628.271755032789
 42
0.4142135623731
 10
2849.106110436729
 20
-1629.771755032789
 42
0.4142135623731
  0
LINE
  5
331
330
1F
100
AcDbEntity
  8
0-0_補助線
  6
Continuous
 62
   120
370
     5
100
AcDbLine
 10
2369.106110436734
 20
-1628.271755032789
 30
0.0
 11
2369.106110436734
 21
-1873.598351941208
 31
0.0
  0
LINE
  5
332
330
1F
100
AcDbEntity
  8
0-0_補助線
  6
Continuous
 62
   120
370
     5
100
AcDbLine
 10
2849.106110436729
 20
-1628.271755032789
 30
0.0
 11
2849.106110436729
 21
-1873.598351941208
 31
0.0
  0
LWPOLYLINE
  5
333
330
1F
100
AcDbEntity
  8
0-0_補助線
  6
Continuous
 62
     7
370
     5
100
AcDbPolyline
 90
        4
 70
     1
 43
3.0
 10
2152.754384697805
 20
-1927.914158956011
 42
0.4142135623731
 10
2151.254384697805
 20
-1926.414158956011
 42
0.4142135623731
 10
2149.754384697805
 20
-1927.914158956011
 42
0.4142135623731
 10
2151.254384697805
 20
-1929.414158956011
 42
0.4142135623731
  0
LWPOLYLINE
  5
334
330
1F
100
AcDbEntity
  8
0-0_補助線
  6
Continuous
 62
     7
370
     5
100
AcDbPolyline
 90
        4
 70
     1
 43
3.0
 10
2152.754384697805
 20
-1945.914158956012
 42
0.4142135623731
 10
2151.254384697805
 20
-1944.414158956012
 42
0.4142135623731
 10
2149.754384697805
 20
-1945.914158956012
 42
0.4142135623731
 10
2151.254384697805
 20
-1947.414158956012
 42
0.4142135623731
  0
LINE
  5
335
330
1F
100
AcDbEntity
  8
0-0_補助線
  6
Continuous
 62
   120
370
     5
100
AcDbLine
 10
2151.254384697805
 20
-1927.914158956011
 30
0.0
 11
2282.095236382296
 21
-1927.914158956011
 31
0.0
  0
LINE
  5
336
330
1F
100
AcDbEntity
  8
0-0_補助線
  6
Continuous
 62
   120
370
     5
100
AcDbLine
 10
2151.254384697805
 20
-1945.914158956012
 30
0.0
 11
2282.095236382296
 21
-1945.914158956012
 31
0.0
  0
LINE
  5
337
330
1F
100
AcDbEntity
  8
0-0_補助線
  6
Continuous
 62
   120
370
     5
100
AcDbLine
 10
2151.254384697805
 20
-1945.914158956012
 30
0.0
 11
2151.254384697805
 21
-2050.914158956012
 31
0.0
  0
LWPOLYLINE
  5
338
330
1F
100
AcDbEntity
  8
0-0_補助線
  6
Continuous
 62
     7
370
     5
100
AcDbPolyline
 90
        4
 70
     1
 43
3.0
 10
2152.754384697805
 20
-2050.914158956012
 42
0.4142135623731
 10
2151.254384697805
 20
-2049.414158956012
 42
0.4142135623731
 10
2149.754384697805
 20
-2050.914158956012
 42
0.4142135623731
 10
2151.254384697805
 20
-2052.414158956012
 42
0.4142135623731
  0
LINE
  5
339
330
1F
100
AcDbEntity
  8
0-0_補助線
  6
Continuous
 62
   120
370
     5
100
AcDbLine
 10
2151.254384697805
 20
-2050.914158956012
 30
0.0
 11
2282.095236382296
 21
-2050.914158956012
 31
0.0
  0
LINE
  5
33A
330
1F
100
AcDbEntity
  8
0-0_補助線
  6
Continuous
 62
   120
370
     5
100
AcDbLine
 10
2463.606110436733
 20
-2261.810507766461
 30
0.0
 11
2754.606110436727
 21
-2261.810507766461
 31
0.0
  0
LWPOLYLINE
  5
33B
330
1F
100
AcDbEntity
  8
0-0_補助線
  6
Continuous
 62
     7
370
     5
100
AcDbPolyline
 90
        4
 70
     1
 43
3.0
 10
2465.106110436733
 20
-2261.810507766461
 42
0.4142135623731
 10
2463.606110436733
 20
-2260.310507766461
 42
0.4142135623731
 10
2462.106110436733
 20
-2261.810507766461
 42
0.4142135623731
 10
2463.606110436733
 20
-2263.310507766461
 42
0.4142135623731
  0
LWPOLYLINE
  5
33C
330
1F
100
AcDbEntity
  8
0-0_補助線
  6
Continuous
 62
     7
370
     5
100
AcDbPolyline
 90
        4
 70
     1
 43
3.0
 10
2756.106110436727
 20
-2261.810507766461
 42
0.4142135623731
 10
2754.606110436727
 20
-2260.310507766461
 42
0.4142135623731
 10
2753.106110436727
 20
-2261.810507766461
 42
0.4142135623731
 10
2754.606110436727
 20
-2263.310507766461
 42
0.4142135623731
  0
LINE
  5
33D
330
1F
100
AcDbEntity
  8
0-0_補助線
  6
Continuous
 62
   120
370
     5
100
AcDbLine
 10
2463.606110436733
 20
-2261.810507766461
 30
0.0
 11
2463.606110436733
 21
-2134.194425698312
 31
0.0
  0
LINE
  5
33E
330
1F
100
AcDbEntity
  8
0-0_補助線
  6
Continuous
 62
   120
370
     5
100
AcDbLine
 10
2754.606110436727
 20
-2261.810507766461
 30
0.0
 11
2754.606110436727
 21
-2134.194425698312
 31
0.0
  0
LINE
  5
33F
330
1F
100
AcDbEntity
  8
0-0_補助線
  6
Continuous
 62
   120
370
     5
100
AcDbLine
 10
2151.254384697805
 20
-1761.426314331704
 30
0.0
 11
2151.254384697805
 21
-1945.914158956012
 31
0.0
  0
LWPOLYLINE
  5
340
330
1F
100
AcDbEntity
  8
0-0_補助線
  6
Continuous
 62
     7
370
     5
100
AcDbPolyline
 90
        4
 70
     1
 43
3.0
 10
2438.10611043673
 20
-2633.427539561271
 42
0.4142135623731
 10
2436.60611043673
 20
-2631.927539561271
 42
0.4142135623731
 10
2435.10611043673
 20
-2633.427539561271
 42
0.4142135623731
 10
2436.60611043673
 20
-2634.927539561271
 42
0.4142135623731
  0
LWPOLYLINE
  5
341
330
1F
100
AcDbEntity
  8
0-0_補助線
  6
Continuous
 62
     7
370
     5
100
AcDbPolyline
 90
        4
 70
     1
 43
3.0
 10
2460.60611043673
 20
-2633.427539561271
 42
0.4142135623731
 10
2459.10611043673
 20
-2631.927539561271
 42
0.4142135623731
 10
2457.60611043673
 20
-2633.427539561271
 42
0.4142135623731
 10
2459.10611043673
 20
-2634.927539561271
 42
0.4142135623731
  0
LINE
  5
342
330
1F
100
AcDbEntity
  8
0-0_補助線
  6
Continuous
 62
   120
370
     5
100
AcDbLine
 10
2436.60611043673
 20
-2633.427539561271
 30
0.0
 11
2436.60611043673
 21
-2737.939891290172
 31
0.0
  0
LINE
  5
343
330
1F
100
AcDbEntity
  8
0-0_補助線
  6
Continuous
 62
   120
370
     5
100
AcDbLine
 10
2459.10611043673
 20
-2633.427539561271
 30
0.0
 11
2459.10611043673
 21
-2737.939891290172
 31
0.0
  0
LINE
  5
344
330
1F
100
AcDbEntity
  8
0-0_補助線
  6
Continuous
 62
   120
370
     5
100
AcDbLine
 10
2459.10611043673
 20
-2633.427539561271
 30
0.0
 11
2759.10611043673
 21
-2633.427539561271
 31
0.0
  0
LWPOLYLINE
  5
345
330
1F
100
AcDbEntity
  8
0-0_補助線
  6
Continuous
 62
     7
370
     5
100
AcDbPolyline
 90
        4
 70
     1
 43
3.0
 10
2760.60611043673
 20
-2633.427539561271
 42
0.4142135623731
 10
2759.10611043673
 20
-2631.927539561271
 42
0.4142135623731
 10
2757.60611043673
 20
-2633.427539561271
 42
0.4142135623731
 10
2759.10611043673
 20
-2634.927539561271
 42
0.4142135623731
  0
LINE
  5
346
330
1F
100
AcDbEntity
  8
0-0_補助線
  6
Continuous
 62
   120
370
     5
100
AcDbLine
 10
2759.10611043673
 20
-2633.427539561271
 30
0.0
 11
2759.10611043673
 21
-2737.939891290172
 31
0.0
  0
LWPOLYLINE
  5
347
330
1F
100
AcDbEntity
  8
0-0_補助線
  6
Continuous
 62
     7
370
     5
100
AcDbPolyline
 90
        4
 70
     1
 43
3.0
 10
2782.633252935667
 20
-2633.427539561271
 42
0.4142135623731
 10
2781.133252935667
 20
-2631.927539561271
 42
0.4142135623731
 10
2779.633252935667
 20
-2633.427539561271
 42
0.4142135623731
 10
2781.133252935667
 20
-2634.927539561271
 42
0.4142135623731
  0
LINE
  5
348
330
1F
100
AcDbEntity
  8
0-0_補助線
  6
Continuous
 62
   120
370
     5
100
AcDbLine
 10
2781.133252935667
 20
-2633.427539561271
 30
0.0
 11
2781.133252935667
 21
-2737.939891290172
 31
0.0
  0
LWPOLYLINE
  5
349
330
1F
100
AcDbEntity
  8
0-0_補助線
  6
Continuous
 62
     7
370
     5
100
AcDbPolyline
 90
        4
 70
     1
 43
3.0
 10
2152.754384697805
 20
-2810.120905488186
 42
0.4142135623731
 10
2151.254384697805
 20
-2808.620905488186
 42
0.4142135623731
 10
2149.754384697805
 20
-2810.120905488186
 42
0.4142135623731
 10
2151.254384697805
 20
-2811.620905488186
 42
0.4142135623731
  0
LWPOLYLINE
  5
34A
330
1F
100
AcDbEntity
  8
0-0_補助線
  6
Continuous
 62
     7
370
     5
100
AcDbPolyline
 90
        4
 70
     1
 43
3.0
 10
2152.754384697805
 20
-2840.121461313928
 42
0.4142135623731
 10
2151.254384697805
 20
-2838.621461313928
 42
0.4142135623731
 10
2149.754384697805
 20
-2840.121461313928
 42
0.4142135623731
 10
2151.254384697805
 20
-2841.621461313928
 42
0.4142135623731
  0
LINE
  5
34B
330
1F
100
AcDbEntity
  8
0-0_補助線
  6
Continuous
 62
   120
370
     5
100
AcDbLine
 10
2151.254384697805
 20
-2810.120905488186
 30
0.0
 11
2282.095236382296
 21
-2810.120905488186
 31
0.0
  0
LINE
  5
34C
330
1F
100
AcDbEntity
  8
0-0_補助線
  6
Continuous
 62
   120
370
     5
100
AcDbLine
 10
2151.254384697805
 20
-2840.121461313928
 30
0.0
 11
2282.095236382296
 21
-2840.121461313928
 31
0.0
  0
LINE
  5
34D
330
1F
100
AcDbEntity
  8
0-0_補助線
  6
Continuous
 62
   120
370
     5
100
AcDbLine
 10
2151.254384697805
 20
-2840.121461313928
 30
0.0
 11
2151.254384697805
 21
-2915.121461313935
 31
0.0
  0
LWPOLYLINE
  5
34E
330
1F
100
AcDbEntity
  8
0-0_補助線
  6
Continuous
 62
     7
370
     5
100
AcDbPolyline
 90
        4
 70
     1
 43
3.0
 10
2152.754384697805
 20
-2915.121461313935
 42
0.4142135623731
 10
2151.254384697805
 20
-2913.621461313935
 42
0.4142135623731
 10
2149.754384697805
 20
-2915.121461313935
 42
0.4142135623731
 10
2151.254384697805
 20
-2916.621461313935
 42
0.4142135623731
  0
LINE
  5
34F
330
1F
100
AcDbEntity
  8
0-0_補助線
  6
Continuous
 62
   120
370
     5
100
AcDbLine
 10
2151.254384697805
 20
-2915.121461313935
 30
0.0
 11
2282.095236382296
 21
-2915.121461313935
 31
0.0
  0
LINE
  5
350
330
1F
100
AcDbEntity
  8
0-0_補助線
  6
Continuous
 62
   120
370
     5
100
AcDbLine
 10
1994.81141445381
 20
-2915.121461313935
 30
0.0
 11
1994.81141445381
 21
-2810.120905488186
 31
0.0
  0
LWPOLYLINE
  5
351
330
1F
100
AcDbEntity
  8
0-0_補助線
  6
Continuous
 62
     7
370
     5
100
AcDbPolyline
 90
        4
 70
     1
 43
3.0
 10
1996.31141445381
 20
-2915.121461313935
 42
0.4142135623731
 10
1994.81141445381
 20
-2913.621461313935
 42
0.4142135623731
 10
1993.31141445381
 20
-2915.121461313935
 42
0.4142135623731
 10
1994.81141445381
 20
-2916.621461313935
 42
0.4142135623731
  0
LWPOLYLINE
  5
352
330
1F
100
AcDbEntity
  8
0-0_補助線
  6
Continuous
 62
     7
370
     5
100
AcDbPolyline
 90
        4
 70
     1
 43
3.0
 10
1996.31141445381
 20
-2810.120905488186
 42
0.4142135623731
 10
1994.81141445381
 20
-2808.620905488186
 42
0.4142135623731
 10
1993.31141445381
 20
-2810.120905488186
 42
0.4142135623731
 10
1994.81141445381
 20
-2811.620905488186
 42
0.4142135623731
  0
LINE
  5
353
330
1F
100
AcDbEntity
  8
0-0_補助線
  6
Continuous
 62
   120
370
     5
100
AcDbLine
 10
1994.81141445381
 20
-2915.121461313935
 30
0.0
 11
2151.254384697805
 21
-2915.121461313935
 31
0.0
  0
LINE
  5
354
330
1F
100
AcDbEntity
  8
0-0_補助線
  6
Continuous
 62
   120
370
     5
100
AcDbLine
 10
1994.81141445381
 20
-2810.120905488186
 30
0.0
 11
2151.254384697805
 21
-2810.120905488186
 31
0.0
  0
LWPOLYLINE
  5
355
330
1F
100
AcDbEntity
  8
0-0_補助線
  6
Continuous
 62
     7
370
     5
100
AcDbPolyline
 90
        4
 70
     1
 43
3.0
 10
1996.31141445381
 20
-2050.914158956012
 42
0.4142135623731
 10
1994.81141445381
 20
-2049.414158956012
 42
0.4142135623731
 10
1993.31141445381
 20
-2050.914158956012
 42
0.4142135623731
 10
1994.81141445381
 20
-2052.414158956012
 42
0.4142135623731
  0
LINE
  5
356
330
1F
100
AcDbEntity
  8
0-0_補助線
  6
Continuous
 62
   120
370
     5
100
AcDbLine
 10
1994.81141445381
 20
-2050.914158956012
 30
0.0
 11
2151.254384697805
 21
-2050.914158956012
 31
0.0
  0
LINE
  5
357
330
1F
100
AcDbEntity
  8
0-0_補助線
  6
Continuous
 62
   120
370
     5
100
AcDbLine
 10
1994.81141445381
 20
-2050.914158956012
 30
0.0
 11
1994.81141445381
 21
-1927.914158956011
 31
0.0
  0
LWPOLYLINE
  5
358
330
1F
100
AcDbEntity
  8
0-0_補助線
  6
Continuous
 62
     7
370
     5
100
AcDbPolyline
 90
        4
 70
     1
 43
3.0
 10
1996.31141445381
 20
-1927.914158956011
 42
0.4142135623731
 10
1994.81141445381
 20
-1926.414158956011
 42
0.4142135623731
 10
1993.31141445381
 20
-1927.914158956011
 42
0.4142135623731
 10
1994.81141445381
 20
-1929.414158956011
 42
0.4142135623731
  0
LINE
  5
359
330
1F
100
AcDbEntity
  8
0-0_補助線
  6
Continuous
 62
   120
370
     5
100
AcDbLine
 10
1994.81141445381
 20
-1927.914158956011
 30
0.0
 11
2151.254384697805
 21
-1927.914158956011
 31
0.0
  0
LINE
  5
35A
330
1F
100
AcDbEntity
  8
0-0_補助線
  6
Continuous
 62
   120
370
     5
100
AcDbLine
 10
2151.254384697805
 20
-2743.599609079098
 30
0.0
 11
2151.254384697805
 21
-2840.121461313928
 31
0.0
  0
LINE
  5
35B
330
1F
100
AcDbEntity
  8
0-0_補助線
  6
Continuous
 62
   120
370
     5
100
AcDbLine
 10
2436.60611043673
 20
-2471.4803039035
 30
0.0
 11
2781.133252935667
 21
-2471.4803039035
 31
0.0
  0
LWPOLYLINE
  5
35C
330
1F
100
AcDbEntity
  8
0-0_補助線
  6
Continuous
 62
     7
370
     5
100
AcDbPolyline
 90
        4
 70
     1
 43
3.0
 10
2438.10611043673
 20
-2471.4803039035
 42
0.4142135623731
 10
2436.60611043673
 20
-2469.980303903501
 42
0.4142135623731
 10
2435.10611043673
 20
-2471.4803039035
 42
0.4142135623731
 10
2436.60611043673
 20
-2472.9803039035
 42
0.4142135623731
  0
LWPOLYLINE
  5
35D
330
1F
100
AcDbEntity
  8
0-0_補助線
  6
Continuous
 62
     7
370
     5
100
AcDbPolyline
 90
        4
 70
     1
 43
3.0
 10
2782.633252935667
 20
-2471.4803039035
 42
0.4142135623731
 10
2781.133252935667
 20
-2469.980303903501
 42
0.4142135623731
 10
2779.633252935667
 20
-2471.4803039035
 42
0.4142135623731
 10
2781.133252935667
 20
-2472.9803039035
 42
0.4142135623731
  0
LINE
  5
35E
330
1F
100
AcDbEntity
  8
0-0_補助線
  6
Continuous
 62
   120
370
     5
100
AcDbLine
 10
2436.60611043673
 20
-2471.4803039035
 30
0.0
 11
2436.60611043673
 21
-2633.427539561271
 31
0.0
  0
LINE
  5
35F
330
1F
100
AcDbEntity
  8
0-0_補助線
  6
Continuous
 62
   120
370
     5
100
AcDbLine
 10
2781.133252935667
 20
-2471.4803039035
 30
0.0
 11
2781.133252935667
 21
-2633.427539561271
 31
0.0
  0
LINE
  5
360
330
1F
100
AcDbEntity
  8
0-0_補助線
  6
Continuous
 62
   120
370
     5
100
AcDbLine
 10
2272.204028659197
 20
-2633.427539561271
 30
0.0
 11
2459.10611043673
 21
-2633.427539561271
 31
0.0
  0
LINE
  5
361
330
1F
100
AcDbEntity
  8
0-0_補助線
  6
Continuous
 62
   120
370
     5
100
AcDbLine
 10
2759.10611043673
 20
-2633.427539561271
 30
0.0
 11
2952.415174392025
 21
-2633.427539561271
 31
0.0
  0
LINE
  5
362
330
1F
100
AcDbEntity
  8
0-A_文字
  6
Continuous
 62
    92
370
     5
100
AcDbLine
 10
1687.801095242714
 20
340.851375269048
 30
0.0
 11
1687.801095242714
 21
-3264.079081402911
 31
0.0
  0
LINE
  5
363
330
1F
100
AcDbEntity
  8
0-A_文字
  6
Continuous
 62
    92
370
     5
100
AcDbLine
 10
3673.470456913294
 20
340.851375269048
 30
0.0
 11
3673.470456913294
 21
-3264.079081402911
 31
0.0
  0
MTEXT
  5
364
330
1F
100
AcDbEntity
  8
1-A_文字
  6
Continuous
 62
     7
370
     0
100
AcDbMText
 10
2889.997696283351
 20
-1059.47455839241
 30
0.0
 40
91.44
 41
600.0
 46
0.0
 71
     7
 72
     1
  1
{\fＭＳ ゴシック|b0|i0|c128|p49;下地ベース}
 73
     1
 44
1.0
  0
LINE
  5
365
330
1F
100
AcDbEntity
  8
1-A_文字
  6
Continuous
 62
     7
370
     5
100
AcDbLine
 10
2709.711901026955
 20
-842.1679791271323
 30
0.0
 11
2836.386465779412
 21
-984.8535396096089
 31
0.0
  0
LINE
  5
366
330
1F
100
AcDbEntity
  8
1-3_仕上げ
  6
Continuous
 62
    40
370
     5
100
AcDbLine
 10
2069.10611043673
 20
-873.6360387981973
 30
0.0
 11
3149.10611043673
 21
-873.6360387981973
 31
0.0
  0
LINE
  5
367
330
1F
100
AcDbEntity
  8
1-0_補助線
  6
JWW_HOJO
 62
   120
370
     5
100
AcDbLine
 10
2069.10611043673
 20
-1053.124063196432
 30
0.0
 11
3149.10611043673
 21
-1053.124063196432
 31
0.0
  0
LINE
  5
368
330
1F
100
AcDbEntity
  8
1-B_寸法
  6
Continuous
 62
   120
370
     5
100
AcDbLine
 10
3179.10611043673
 20
-873.6360387981973
 30
0.0
 11
3449.10611043673
 21
-873.6360387981973
 31
0.0
  0
LWPOLYLINE
  5
369
330
1F
100
AcDbEntity
  8
1-B_寸法
  6
Continuous
 62
     7
370
     5
100
AcDbPolyline
 90
        4
 70
     1
 43
3.0
 10
3450.60611043673
 20
-873.6360387981973
 42
0.4142135623731
 10
3449.10611043673
 20
-872.1360387981973
 42
0.4142135623731
 10
3447.60611043673
 20
-873.6360387981973
 42
0.4142135623731
 10
3449.10611043673
 20
-875.1360387981973
 42
0.4142135623731
  0
LINE
  5
36A
330
1F
100
AcDbEntity
  8
1-B_寸法
  6
Continuous
 62
   120
370
     5
100
AcDbLine
 10
2421.60611043673
 20
-933.1240631962579
 30
0.0
 11
2421.60611043673
 21
-1053.124063196258
 31
0.0
  0
LWPOLYLINE
  5
36B
330
1F
100
AcDbEntity
  8
1-B_寸法
  6
Continuous
 62
     7
370
     5
100
AcDbPolyline
 90
        4
 70
     1
 43
3.0
 10
2423.10611043673
 20
-1053.124063196258
 42
0.4142135623731
 10
2421.60611043673
 20
-1051.624063196258
 42
0.4142135623731
 10
2420.10611043673
 20
-1053.124063196258
 42
0.4142135623731
 10
2421.60611043673
 20
-1054.624063196258
 42
0.4142135623731
  0
MTEXT
  5
36C
330
1F
100
AcDbEntity
  8
1-B_寸法
  6
Continuous
 62
     7
370
     0
100
AcDbMText
 10
2549.10611043673
 20
-265.8170671865914
 30
0.0
 40
91.44
 41
120.0
 46
0.0
 71
     7
 72
     1
  1
{\fＭＳ ゴシック|b0|i0|c128|p49;32}
 73
     1
 44
1.0
  0
LINE
  5
36D
330
1F
100
AcDbEntity
  8
1-B_寸法
  6
Continuous
 62
   120
370
     5
100
AcDbLine
 10
2796.60611043673
 20
-933.1240631962579
 30
0.0
 11
2796.60611043673
 21
-1053.124063196258
 31
0.0
  0
LWPOLYLINE
  5
36E
330
1F
100
AcDbEntity
  8
1-B_寸法
  6
Continuous
 62
     7
370
     5
100
AcDbPolyline
 90
        4
 70
     1
 43
3.0
 10
2798.10611043673
 20
-1053.124063196258
 42
0.4142135623731
 10
2796.60611043673
 20
-1051.624063196258
 42
0.4142135623731
 10
2795.10611043673
 20
-1053.124063196258
 42
0.4142135623731
 10
2796.60611043673
 20
-1054.624063196258
 42
0.4142135623731
  0
MTEXT
  5
36F
330
1F
100
AcDbEntity
  8
1-B_寸法
  6
Continuous
 62
     7
370
   211
100
AcDbMText
 10
2133.424994909025
 20
-385.8171572546872
 30
0.0
 40
91.44
 41
240.0
 46
0.0
 71
     7
 72
     1
  1
{\fＭＳ ゴシック|b0|i0|c128|p49;10.5}
 73
     1
 44
1.0
  0
LINE
  5
370
330
1F
100
AcDbEntity
  8
1-B_寸法
  6
Continuous
 62
   120
370
     5
100
AcDbLine
 10
2421.60611043673
 20
-1053.124063196258
 30
0.0
 11
2796.60611043673
 21
-1053.124063196258
 31
0.0
  0
LINE
  5
371
330
1F
100
AcDbEntity
  8
1-B_寸法
  6
Continuous
 62
   120
370
     5
100
AcDbLine
 10
2781.60611043673
 20
-933.1240631962579
 30
0.0
 11
2781.60611043673
 21
-1053.124063196258
 31
0.0
  0
LWPOLYLINE
  5
372
330
1F
100
AcDbEntity
  8
1-B_寸法
  6
Continuous
 62
     7
370
     5
100
AcDbPolyline
 90
        4
 70
     1
 43
3.0
 10
2783.10611043673
 20
-1053.124063196258
 42
0.4142135623731
 10
2781.60611043673
 20
-1051.624063196258
 42
0.4142135623731
 10
2780.10611043673
 20
-1053.124063196258
 42
0.4142135623731
 10
2781.60611043673
 20
-1054.624063196258
 42
0.4142135623731
  0
LINE
  5
373
330
1F
100
AcDbEntity
  8
1-B_寸法
  6
Continuous
 62
   120
370
     5
100
AcDbLine
 10
2436.606256236893
 20
-933.1240631962579
 30
0.0
 11
2436.606256236893
 21
-1053.124063196258
 31
0.0
  0
LWPOLYLINE
  5
374
330
1F
100
AcDbEntity
  8
1-B_寸法
  6
Continuous
 62
     7
370
     5
100
AcDbPolyline
 90
        4
 70
     1
 43
3.0
 10
2438.106256236893
 20
-1053.124063196258
 42
0.4142135623731
 10
2436.606256236893
 20
-1051.624063196258
 42
0.4142135623731
 10
2435.106256236893
 20
-1053.124063196258
 42
0.4142135623731
 10
2436.606256236893
 20
-1054.624063196258
 42
0.4142135623731
  0
MTEXT
  5
375
330
1F
100
AcDbEntity
  8
1-B_寸法
  6
Continuous
 62
     7
370
   211
100
AcDbMText
 10
2549.10611043673
 20
-385.8171572546872
 30
0.0
 40
91.44
 41
120.0
 46
0.0
 71
     7
 72
     1
  1
{\fＭＳ ゴシック|b0|i0|c128|p49;11}
 73
     1
 44
1.0
  0
LINE
  5
376
330
1F
100
AcDbEntity
  8
1-B_寸法
  6
Continuous
 62
   120
370
     5
100
AcDbLine
 10
3179.10611043673
 20
-798.6360387981973
 30
0.0
 11
3449.10611043673
 21
-798.6360387981973
 31
0.0
  0
LWPOLYLINE
  5
377
330
1F
100
AcDbEntity
  8
1-B_寸法
  6
Continuous
 62
     7
370
     5
100
AcDbPolyline
 90
        4
 70
     1
 43
3.0
 10
3450.60611043673
 20
-798.6360387981973
 42
0.4142135623731
 10
3449.10611043673
 20
-797.1360387981973
 42
0.4142135623731
 10
3447.60611043673
 20
-798.6360387981973
 42
0.4142135623731
 10
3449.10611043673
 20
-800.1360387981973
 42
0.4142135623731
  0
LINE
  5
378
330
1F
100
AcDbEntity
  8
1-B_寸法
  6
Continuous
 62
   120
370
     5
100
AcDbLine
 10
2369.10611043673
 20
-611.7961018458608
 30
0.0
 11
2369.10611043673
 21
-251.7961018458608
 31
0.0
  0
LWPOLYLINE
  5
379
330
1F
100
AcDbEntity
  8
1-B_寸法
  6
Continuous
 62
     7
370
     5
100
AcDbPolyline
 90
        4
 70
     1
 43
3.0
 10
2370.60611043673
 20
-491.7961018458608
 42
0.4142135623731
 10
2369.10611043673
 20
-490.2961018458608
 42
0.4142135623731
 10
2367.60611043673
 20
-491.7961018458608
 42
0.4142135623731
 10
2369.10611043673
 20
-493.2961018458608
 42
0.4142135623731
  0
LWPOLYLINE
  5
37A
330
1F
100
AcDbEntity
  8
1-B_寸法
  6
Continuous
 62
     7
370
     5
100
AcDbPolyline
 90
        4
 70
     1
 43
3.0
 10
2370.60611043673
 20
-371.7961018458608
 42
0.4142135623731
 10
2369.10611043673
 20
-370.2961018458608
 42
0.4142135623731
 10
2367.60611043673
 20
-371.7961018458608
 42
0.4142135623731
 10
2369.10611043673
 20
-373.2961018458608
 42
0.4142135623731
  0
LWPOLYLINE
  5
37B
330
1F
100
AcDbEntity
  8
1-B_寸法
  6
Continuous
 62
     7
370
     5
100
AcDbPolyline
 90
        4
 70
     1
 43
3.0
 10
2370.60611043673
 20
-251.7961018458608
 42
0.4142135623731
 10
2369.10611043673
 20
-250.2961018458608
 42
0.4142135623731
 10
2367.60611043673
 20
-251.7961018458608
 42
0.4142135623731
 10
2369.10611043673
 20
-253.2961018458608
 42
0.4142135623731
  0
MTEXT
  5
37C
330
1F
100
AcDbEntity
  8
1-B_寸法
  6
Continuous
 62
     7
370
   211
100
AcDbMText
 10
2850.358200921712
 20
-385.8171572546872
 30
0.0
 40
91.44
 41
240.0
 46
0.0
 71
     7
 72
     1
  1
{\fＭＳ ゴシック|b0|i0|c128|p49;10.5}
 73
     1
 44
1.0
  0
LINE
  5
37D
330
1F
100
AcDbEntity
  8
1-0_補助線
  6
JWW_HOJO
 62
   120
370
     5
100
AcDbLine
 10
2069.10611043673
 20
-251.7961018458608
 30
0.0
 11
2069.10611043673
 21
-1053.124063196432
 31
0.0
  0
LINE
  5
37E
330
1F
100
AcDbEntity
  8
1-0_補助線
  6
JWW_HOJO
 62
   120
370
     5
100
AcDbLine
 10
2369.10611043673
 20
-491.7961018458608
 30
0.0
 11
2849.10611043673
 21
-491.7961018458608
 31
0.0
  0
LINE
  5
37F
330
1F
100
AcDbEntity
  8
1-0_補助線
  6
JWW_HOJO
 62
   120
370
     5
100
AcDbLine
 10
2369.10611043673
 20
-371.7961018458608
 30
0.0
 11
2849.10611043673
 21
-371.7961018458608
 31
0.0
  0
LINE
  5
380
330
1F
100
AcDbEntity
  8
1-B_寸法
  6
Continuous
 62
   120
370
     5
100
AcDbLine
 10
2369.10611043673
 20
-371.7961018458608
 30
0.0
 11
2849.10611043673
 21
-371.7961018458608
 31
0.0
  0
LINE
  5
381
330
1F
100
AcDbEntity
  8
1-B_寸法
  6
Continuous
 62
   120
370
     5
100
AcDbLine
 10
2369.10611043673
 20
-251.7961018458608
 30
0.0
 11
2849.10611043673
 21
-251.7961018458608
 31
0.0
  0
LWPOLYLINE
  5
382
330
1F
100
AcDbEntity
  8
1-B_寸法
  6
Continuous
 62
     7
370
     5
100
AcDbPolyline
 90
        4
 70
     1
 43
3.0
 10
2850.60611043673
 20
-491.7961018458608
 42
0.4142135623731
 10
2849.10611043673
 20
-490.2961018458608
 42
0.4142135623731
 10
2847.60611043673
 20
-491.7961018458608
 42
0.4142135623731
 10
2849.10611043673
 20
-493.2961018458608
 42
0.4142135623731
  0
LWPOLYLINE
  5
383
330
1F
100
AcDbEntity
  8
1-B_寸法
  6
Continuous
 62
     7
370
     5
100
AcDbPolyline
 90
        4
 70
     1
 43
3.0
 10
2850.60611043673
 20
-371.7961018458608
 42
0.4142135623731
 10
2849.10611043673
 20
-370.2961018458608
 42
0.4142135623731
 10
2847.60611043673
 20
-371.7961018458608
 42
0.4142135623731
 10
2849.10611043673
 20
-373.2961018458608
 42
0.4142135623731
  0
LWPOLYLINE
  5
384
330
1F
100
AcDbEntity
  8
1-B_寸法
  6
Continuous
 62
     7
370
     5
100
AcDbPolyline
 90
        4
 70
     1
 43
3.0
 10
2850.60611043673
 20
-251.7961018458608
 42
0.4142135623731
 10
2849.10611043673
 20
-250.2961018458608
 42
0.4142135623731
 10
2847.60611043673
 20
-251.7961018458608
 42
0.4142135623731
 10
2849.10611043673
 20
-253.2961018458608
 42
0.4142135623731
  0
LINE
  5
385
330
1F
100
AcDbEntity
  8
1-B_寸法
  6
Continuous
 62
   120
370
     5
100
AcDbLine
 10
2849.10611043673
 20
-611.7961018458608
 30
0.0
 11
2849.10611043673
 21
-251.7961018458608
 31
0.0
  0
MTEXT
  5
386
330
1F
100
AcDbEntity
  8
1-B_寸法
  6
Continuous
 62
     7
370
   211
100
AcDbMText
 10
2764.506605811254
 20
-505.8171572546872
 30
0.0
 40
91.44
 41
180.0
 46
0.0
 71
     7
 72
     1
  1
{\fＭＳ ゴシック|b0|i0|c128|p49;6.3}
 73
     1
 44
1.0
  0
LINE
  5
387
330
1F
100
AcDbEntity
  8
1-0_補助線
  6
JWW_HOJO
 62
   120
370
     5
100
AcDbLine
 10
2069.10611043673
 20
-251.7961018458608
 30
0.0
 11
3149.10611043673
 21
-251.7961018458608
 31
0.0
  0
LINE
  5
388
330
1F
100
AcDbEntity
  8
1-0_補助線
  6
JWW_HOJO
 62
   120
370
     5
100
AcDbLine
 10
3149.10611043673
 20
-251.7961018458608
 30
0.0
 11
3149.10611043673
 21
-1053.124063196432
 31
0.0
  0
LINE
  5
389
330
1F
100
AcDbEntity
  8
1-B_寸法
  6
Continuous
 62
   120
370
     5
100
AcDbLine
 10
3179.10611043673
 20
-693.6360387981973
 30
0.0
 11
3449.10611043673
 21
-693.6360387981973
 31
0.0
  0
LWPOLYLINE
  5
38A
330
1F
100
AcDbEntity
  8
1-B_寸法
  6
Continuous
 62
     7
370
     5
100
AcDbPolyline
 90
        4
 70
     1
 43
3.0
 10
3450.60611043673
 20
-693.6360387981973
 42
0.4142135623731
 10
3449.10611043673
 20
-692.1360387981973
 42
0.4142135623731
 10
3447.60611043673
 20
-693.6360387981973
 42
0.4142135623731
 10
3449.10611043673
 20
-695.1360387981973
 42
0.4142135623731
  0
LWPOLYLINE
  5
38B
330
1F
100
AcDbEntity
  8
1-B_寸法
  6
Continuous
 62
     7
370
     5
100
AcDbPolyline
 90
        4
 70
     1
 43
3.0
 10
2528.10611043673
 20
-371.7961018458608
 42
0.4142135623731
 10
2526.60611043673
 20
-370.2961018458608
 42
0.4142135623731
 10
2525.10611043673
 20
-371.7961018458608
 42
0.4142135623731
 10
2526.60611043673
 20
-373.2961018458608
 42
0.4142135623731
  0
LINE
  5
38C
330
1F
100
AcDbEntity
  8
1-B_寸法
  6
Continuous
 62
   120
370
     5
100
AcDbLine
 10
2526.60611043673
 20
-371.7961018458608
 30
0.0
 11
2526.60611043673
 21
-611.7961018458608
 31
0.0
  0
LWPOLYLINE
  5
38D
330
1F
100
AcDbEntity
  8
1-B_寸法
  6
Continuous
 62
     7
370
     5
100
AcDbPolyline
 90
        4
 70
     1
 43
3.0
 10
2693.10611043673
 20
-371.7961018458608
 42
0.4142135623731
 10
2691.60611043673
 20
-370.2961018458608
 42
0.4142135623731
 10
2690.10611043673
 20
-371.7961018458608
 42
0.4142135623731
 10
2691.60611043673
 20
-373.2961018458608
 42
0.4142135623731
  0
LINE
  5
38E
330
1F
100
AcDbEntity
  8
1-B_寸法
  6
Continuous
 62
   120
370
     5
100
AcDbLine
 10
2691.60611043673
 20
-371.7961018458608
 30
0.0
 11
2691.60611043673
 21
-611.7961018458608
 31
0.0
  0
MTEXT
  5
38F
330
1F
100
AcDbEntity
  8
1-B_寸法
  6
Continuous
 62
     7
370
   211
100
AcDbMText
 10
2270.951851513684
 20
-508.5247336997271
 30
0.0
 40
91.44
 41
180.0
 46
0.0
 71
     7
 72
     1
  1
{\fＭＳ ゴシック|b0|i0|c128|p49;6.3}
 73
     1
 44
1.0
  0
LINE
  5
390
330
1F
100
AcDbEntity
  8
1-3_仕上げ
  6
Continuous
 62
    40
370
     5
100
AcDbLine
 10
2421.821614963798
 20
-693.6360387981973
 30
0.0
 11
2069.10611043673
 21
-693.6360387981973
 31
0.0
  0
LINE
  5
391
330
1F
100
AcDbEntity
  8
1-3_仕上げ
  6
Continuous
 62
    40
370
     5
100
AcDbLine
 10
2796.390605909662
 20
-693.6360387981973
 30
0.0
 11
3149.10611043673
 21
-693.6360387981973
 31
0.0
  0
MTEXT
  5
392
330
1F
100
AcDbEntity
  8
1-B_寸法
  6
Continuous
 62
     7
370
     0
100
AcDbMText
 10
3443.019371612488
 20
-690.4011058496429
 30
0.0
 40
91.44
 41
180.0
 46
0.0
 71
     7
 72
     1
  1
{\fＭＳ ゴシック|b0|i0|c128|p49;1.2}
 11
6.123031769111886E-17
 21
1.0
 31
0.0
 73
     1
 44
1.0
  0
MTEXT
  5
393
330
1F
100
AcDbEntity
  8
1-B_寸法
  6
Continuous
 62
     7
370
     0
100
AcDbMText
 10
3440.498391961912
 20
-790.4160387981973
 30
0.0
 40
91.44
 41
60.0
 46
0.0
 71
     7
 72
     1
  1
{\fＭＳ ゴシック|b0|i0|c128|p49;7}
 11
6.123031769111886E-17
 21
1.0
 31
0.0
 73
     1
 44
1.0
  0
MTEXT
  5
394
330
1F
100
AcDbEntity
  8
1-B_寸法
  6
Continuous
 62
     7
370
     0
100
AcDbMText
 10
3441.758881787207
 20
-880.4160387981973
 30
0.0
 40
91.44
 41
60.0
 46
0.0
 71
     7
 72
     1
  1
{\fＭＳ ゴシック|b0|i0|c128|p49;5}
 11
6.123031769111886E-17
 21
1.0
 31
0.0
 73
     1
 44
1.0
  0
LINE
  5
395
330
1F
100
AcDbEntity
  8
1-3_仕上げ
  6
Continuous
 62
     7
370
     5
100
AcDbLine
 10
2421.60611043673
 20
-729.6360387981953
 30
0.0
 11
2069.10611043673
 21
-729.6360387981953
 31
0.0
  0
LINE
  5
396
330
1F
100
AcDbEntity
  8
1-3_仕上げ
  6
Continuous
 62
     7
370
     5
100
AcDbLine
 10
2421.60611043673
 20
-765.6360387981966
 30
0.0
 11
2069.10611043673
 21
-765.6360387981966
 31
0.0
  0
LINE
  5
397
330
1F
100
AcDbEntity
  8
1-3_仕上げ
  6
Continuous
 62
     7
370
     5
100
AcDbLine
 10
2421.60611043673
 20
-801.6360387981946
 30
0.0
 11
2069.10611043673
 21
-801.6360387981946
 31
0.0
  0
LINE
  5
398
330
1F
100
AcDbEntity
  8
1-3_仕上げ
  6
Continuous
 62
     7
370
     5
100
AcDbLine
 10
2421.60611043673
 20
-837.636038798196
 30
0.0
 11
2069.10611043673
 21
-837.636038798196
 31
0.0
  0
LINE
  5
399
330
1F
100
AcDbEntity
  8
1-3_仕上げ
  6
Continuous
 62
     7
370
     5
100
AcDbLine
 10
3149.10611043673
 20
-730.064009036147
 30
0.0
 11
2796.60611043673
 21
-730.064009036147
 31
0.0
  0
LINE
  5
39A
330
1F
100
AcDbEntity
  8
1-3_仕上げ
  6
Continuous
 62
     7
370
     5
100
AcDbLine
 10
3149.10611043673
 20
-766.0640090361484
 30
0.0
 11
2796.60611043673
 21
-766.0640090361484
 31
0.0
  0
LINE
  5
39B
330
1F
100
AcDbEntity
  8
1-3_仕上げ
  6
Continuous
 62
     7
370
     5
100
AcDbLine
 10
3149.10611043673
 20
-802.0640090361463
 30
0.0
 11
2796.60611043673
 21
-802.0640090361463
 31
0.0
  0
LINE
  5
39C
330
1F
100
AcDbEntity
  8
1-3_仕上げ
  6
Continuous
 62
     7
370
     5
100
AcDbLine
 10
3149.10611043673
 20
-838.0640090361477
 30
0.0
 11
2796.60611043673
 21
-838.0640090361477
 31
0.0
  0
LINE
  5
39D
330
1F
100
AcDbEntity
  8
1-B_寸法
  6
Continuous
 62
   120
370
     5
100
AcDbLine
 10
3449.10611043673
 20
-873.6360387981973
 30
0.0
 11
3449.10611043673
 21
-675.6360387981966
 31
0.0
  0
LINE
  5
39E
330
1F
100
AcDbEntity
  8
1-B_寸法
  6
Continuous
 62
   120
370
     5
100
AcDbLine
 10
3179.10611043673
 20
-675.6360387981966
 30
0.0
 11
3449.10611043673
 21
-675.6360387981966
 31
0.0
  0
LWPOLYLINE
  5
39F
330
1F
100
AcDbEntity
  8
1-B_寸法
  6
Continuous
 62
     7
370
     5
100
AcDbPolyline
 90
        4
 70
     1
 43
3.0
 10
3450.60611043673
 20
-675.6360387981966
 42
0.4142135623731
 10
3449.10611043673
 20
-674.1360387981966
 42
0.4142135623731
 10
3447.60611043673
 20
-675.6360387981966
 42
0.4142135623731
 10
3449.10611043673
 20
-677.1360387981966
 42
0.4142135623731
  0
LINE
  5
3A0
330
1F
100
AcDbEntity
  8
1-B_寸法
  6
Continuous
 62
   120
370
     5
100
AcDbLine
 10
2754.606110436727
 20
-491.7961018458608
 30
0.0
 11
2849.10611043673
 21
-491.7961018458608
 31
0.0
  0
LWPOLYLINE
  5
3A1
330
1F
100
AcDbEntity
  8
1-B_寸法
  6
Continuous
 62
     7
370
     5
100
AcDbPolyline
 90
        4
 70
     1
 43
3.0
 10
2756.106110436727
 20
-491.7961018458608
 42
0.4142135623731
 10
2754.606110436727
 20
-490.2961018458608
 42
0.4142135623731
 10
2753.106110436727
 20
-491.7961018458608
 42
0.4142135623731
 10
2754.606110436727
 20
-493.2961018458608
 42
0.4142135623731
  0
LINE
  5
3A2
330
1F
100
AcDbEntity
  8
1-B_寸法
  6
Continuous
 62
   120
370
     5
100
AcDbLine
 10
2754.606110436727
 20
-491.7961018458608
 30
0.0
 11
2754.606110436727
 21
-611.7961018458608
 31
0.0
  0
LINE
  5
3A3
330
1F
100
AcDbEntity
  8
1-B_寸法
  6
Continuous
 62
   120
370
     5
100
AcDbLine
 10
2369.10611043673
 20
-491.7961018458608
 30
0.0
 11
2463.606110436733
 21
-491.7961018458608
 31
0.0
  0
LINE
  5
3A4
330
1F
100
AcDbEntity
  8
1-B_寸法
  6
Continuous
 62
   120
370
     5
100
AcDbLine
 10
2463.606110436733
 20
-491.7961018458608
 30
0.0
 11
2463.606110436733
 21
-611.7961018458608
 31
0.0
  0
LWPOLYLINE
  5
3A5
330
1F
100
AcDbEntity
  8
1-B_寸法
  6
Continuous
 62
     7
370
     5
100
AcDbPolyline
 90
        4
 70
     1
 43
3.0
 10
2465.106110436733
 20
-491.7961018458608
 42
0.4142135623731
 10
2463.606110436733
 20
-490.2961018458608
 42
0.4142135623731
 10
2462.106110436733
 20
-491.7961018458608
 42
0.4142135623731
 10
2463.606110436733
 20
-493.2961018458608
 42
0.4142135623731
  0
MTEXT
  5
3A6
330
1F
100
AcDbEntity
  8
1-B_寸法
  6
Continuous
 62
     7
370
     0
100
AcDbMText
 10
2549.106183336805
 20
-1058.010929805374
 30
0.0
 40
91.44
 41
120.0
 46
0.0
 71
     7
 72
     1
  1
{\fＭＳ ゴシック|b0|i0|c128|p49;23}
 73
     1
 44
1.0
  0
MTEXT
  5
3A7
330
1F
100
AcDbEntity
  8
1-B_寸法
  6
Continuous
 62
     7
370
     0
100
AcDbMText
 10
2412.100430043203
 20
-1177.831348439488
 30
0.0
 40
91.44
 41
60.0
 46
0.0
 71
     7
 72
     1
  1
{\fＭＳ ゴシック|b0|i0|c128|p49;1}
 73
     1
 44
1.0
  0
MTEXT
  5
3A8
330
1F
100
AcDbEntity
  8
1-B_寸法
  6
Continuous
 62
     7
370
     0
100
AcDbMText
 10
2762.565880845566
 20
-1177.831348439488
 30
0.0
 40
91.44
 41
60.0
 46
0.0
 71
     7
 72
     1
  1
{\fＭＳ ゴシック|b0|i0|c128|p49;1}
 73
     1
 44
1.0
  0
LINE
  5
3A9
330
1F
100
AcDbEntity
  8
1-C_ハッチ
  6
Continuous
 62
   120
370
     5
100
AcDbLine
 10
2436.60611043673
 20
-818.9353179764704
 30
0.0
 11
2459.10611043673
 21
-796.435317976467
 31
0.0
  0
LINE
  5
3AA
330
1F
100
AcDbEntity
  8
1-7_金物
  6
Continuous
 62
    92
370
     5
100
AcDbLine
 10
2459.10611043673
 20
-798.6360387981973
 30
0.0
 11
2759.10611043673
 21
-798.6360387981973
 31
0.0
  0
LINE
  5
3AB
330
1F
100
AcDbEntity
  8
1-7_金物
  6
Continuous
 62
    92
370
     5
100
AcDbLine
 10
2459.10611043673
 20
-768.6360387981939
 30
0.0
 11
2459.10611043673
 21
-798.6360387981973
 31
0.0
  0
LINE
  5
3AC
330
1F
100
AcDbEntity
  8
1-7_金物
  6
Continuous
 62
    92
370
     5
100
AcDbLine
 10
2459.10611043673
 20
-768.6360387981939
 30
0.0
 11
2436.605964636567
 21
-768.6360387981939
 31
0.0
  0
LINE
  5
3AD
330
1F
100
AcDbEntity
  8
1-7_金物
  6
Continuous
 62
    92
370
     5
100
AcDbLine
 10
2759.10611043673
 20
-768.6360387981939
 30
0.0
 11
2781.133398735844
 21
-768.6360387981939
 31
0.0
  0
LINE
  5
3AE
330
1F
100
AcDbEntity
  8
1-7_金物
  6
Continuous
 62
    92
370
     5
100
AcDbLine
 10
2759.10611043673
 20
-768.6360387981939
 30
0.0
 11
2759.10611043673
 21
-798.6360387981973
 31
0.0
  0
LINE
  5
3AF
330
1F
100
AcDbEntity
  8
1-7_金物
  6
Continuous
 62
    92
370
     5
100
AcDbLine
 10
2781.133252935667
 20
-768.6354829724486
 30
0.0
 11
2781.133252935667
 21
-873.6360387981973
 31
0.0
  0
LINE
  5
3B0
330
1F
100
AcDbEntity
  8
1-7_金物
  6
Continuous
 62
    92
370
     5
100
AcDbLine
 10
2436.60611043673
 20
-768.6354829724486
 30
0.0
 11
2436.60611043673
 21
-873.6360387981973
 31
0.0
  0
LINE
  5
3B1
330
1F
100
AcDbEntity
  8
1-7_金物
  6
Continuous
 62
    92
370
     5
100
AcDbLine
 10
2436.60611043673
 20
-873.6360387981973
 30
0.0
 11
2781.133252935667
 21
-873.6360387981973
 31
0.0
  0
LINE
  5
3B2
330
1F
100
AcDbEntity
  8
1-C_ハッチ
  6
Continuous
 62
   120
370
     5
100
AcDbLine
 10
2763.743051455755
 20
-873.6360387981973
 30
0.0
 11
2781.133252935667
 21
-856.2458373182689
 31
0.0
  0
LINE
  5
3B3
330
1F
100
AcDbEntity
  8
1-C_ハッチ
  6
Continuous
 62
   120
370
     5
100
AcDbLine
 10
2445.54499992181
 20
-873.6360387981973
 30
0.0
 11
2520.54499992181
 21
-798.6360387981973
 31
0.0
  0
LINE
  5
3B4
330
1F
100
AcDbEntity
  8
1-C_ハッチ
  6
Continuous
 62
   120
370
     5
100
AcDbLine
 10
2636.463830842155
 20
-873.6360387981973
 30
0.0
 11
2711.463830842155
 21
-798.6360387981973
 31
0.0
  0
LINE
  5
3B5
330
1F
100
AcDbEntity
  8
1-C_ハッチ
  6
Continuous
 62
   120
370
     5
100
AcDbLine
 10
2572.824220535355
 20
-873.6360387981973
 30
0.0
 11
2647.824220535355
 21
-798.6360387981905
 31
0.0
  0
LINE
  5
3B6
330
1F
100
AcDbEntity
  8
1-C_ハッチ
  6
Continuous
 62
   120
370
     5
100
AcDbLine
 10
2509.184610228555
 20
-873.6360387981973
 30
0.0
 11
2584.184610228555
 21
-798.6360387981871
 31
0.0
  0
LINE
  5
3B7
330
1F
100
AcDbEntity
  8
1-C_ハッチ
  6
Continuous
 62
   120
370
     5
100
AcDbLine
 10
2700.103441148955
 20
-873.6360387981973
 30
0.0
 11
2781.133252935667
 21
-792.6062270114688
 31
0.0
  0
LINE
  5
3B8
330
1F
100
AcDbEntity
  8
1-0_補助線
  6
JWW_HOJO
 62
   120
370
     5
100
AcDbLine
 10
2609.10611043673
 20
-679.1470312108687
 30
0.0
 11
2609.10611043673
 21
-833.3548143945087
 31
0.0
  0
LINE
  5
3B9
330
1F
100
AcDbEntity
  8
1-7_金物
  6
Continuous
 62
     7
370
     5
100
AcDbLine
 10
2481.60611043673
 20
-780.6360387981966
 30
0.0
 11
2511.60611043673
 21
-780.6360387981966
 31
0.0
  0
LINE
  5
3BA
330
1F
100
AcDbEntity
  8
1-7_金物
  6
Continuous
 62
     7
370
     5
100
AcDbLine
 10
2526.60611043673
 20
-780.6360387981966
 30
0.0
 11
2604.606110436727
 21
-780.6360387981966
 31
0.0
  0
LINE
  5
3BB
330
1F
100
AcDbEntity
  8
1-7_金物
  6
Continuous
 62
     7
370
     5
100
AcDbLine
 10
2604.606110436727
 20
-780.6360387981966
 30
0.0
 11
2609.10611043673
 21
-785.136038798196
 31
0.0
  0
LINE
  5
3BC
330
1F
100
AcDbEntity
  8
1-7_金物
  6
Continuous
 62
     7
370
     5
100
AcDbLine
 10
2609.10611043673
 20
-785.136038798196
 30
0.0
 11
2613.606110436733
 21
-780.6360387981966
 31
0.0
  0
LINE
  5
3BD
330
1F
100
AcDbEntity
  8
1-7_金物
  6
Continuous
 62
     7
370
     5
100
AcDbLine
 10
2613.606110436733
 20
-780.6360387981966
 30
0.0
 11
2691.60611043673
 21
-780.6360387981966
 31
0.0
  0
LINE
  5
3BE
330
1F
100
AcDbEntity
  8
1-7_金物
  6
Continuous
 62
     7
370
     5
100
AcDbLine
 10
2706.60611043673
 20
-780.6360387981966
 30
0.0
 11
2736.60611043673
 21
-780.6360387981966
 31
0.0
  0
LINE
  5
3BF
330
1F
100
AcDbEntity
  8
1-7_金物
  6
Continuous
 62
     7
370
     5
100
AcDbLine
 10
2844.606110436727
 20
-693.6360387981973
 30
0.0
 11
2754.606110436727
 21
-693.6360387981973
 31
0.0
  0
LINE
  5
3C0
330
1F
100
AcDbEntity
  8
1-7_金物
  6
Continuous
 62
     7
370
     5
100
AcDbLine
 10
2463.606110436733
 20
-693.6360387981973
 30
0.0
 11
2373.606110436733
 21
-693.6360387981973
 31
0.0
  0
LINE
  5
3C1
330
1F
100
AcDbEntity
  8
1-7_金物
  6
Continuous
 62
     7
370
     5
100
AcDbLine
 10
2463.606110436733
 20
-675.6360387981966
 30
0.0
 11
2373.606110436733
 21
-684.6360387981953
 31
0.0
  0
ARC
  5
3C2
330
1F
100
AcDbEntity
  8
1-7_金物
  6
Continuous
 62
     7
370
     5
100
AcDbCircle
 10
2373.606110436733
 20
-689.1360387981946
 30
0.0
 40
4.500000000000001
100
AcDbArc
 50
90.0
 51
270.0
  0
ARC
  5
3C3
330
1F
100
AcDbEntity
  8
1-7_金物
  6
Continuous
 62
     7
370
     5
100
AcDbCircle
 10
2844.606110436727
 20
-689.1360387981946
 30
0.0
 40
4.500000000000001
100
AcDbArc
 50
270.0
 51
89.99999999999997
  0
LINE
  5
3C4
330
1F
100
AcDbEntity
  8
1-7_金物
  6
Continuous
 62
     7
370
     5
100
AcDbLine
 10
2844.606110436727
 20
-684.6360387981953
 30
0.0
 11
2754.606110436727
 21
-675.6360387981966
 31
0.0
  0
LINE
  5
3C5
330
1F
100
AcDbEntity
  8
1-7_金物
  6
Continuous
 62
     7
370
     5
100
AcDbLine
 10
2517.606110436725
 20
-675.6360387981966
 30
0.0
 11
2463.606110436733
 21
-675.6360387981966
 31
0.0
  0
ARC
  5
3C6
330
1F
100
AcDbEntity
  8
1-7_金物
  6
Continuous
 62
     7
370
     5
100
AcDbCircle
 10
2517.606110436725
 20
-684.6360387981953
 30
0.0
 40
9.000000000000002
100
AcDbArc
 50
0.0
 51
90.0
  0
ARC
  5
3C7
330
1F
100
AcDbEntity
  8
1-7_金物
  6
Continuous
 62
     7
370
     5
100
AcDbCircle
 10
2517.606110436725
 20
-684.6360387981953
 30
0.0
 40
9.000000000000002
100
AcDbArc
 50
270.0
 51
0.0
  0
ARC
  5
3C8
330
1F
100
AcDbEntity
  8
1-7_金物
  6
Continuous
 62
     7
370
     5
100
AcDbCircle
 10
2700.606110436735
 20
-684.6360387981953
 30
0.0
 40
9.000000000000002
100
AcDbArc
 50
180.0
 51
270.0
  0
LINE
  5
3C9
330
1F
100
AcDbEntity
  8
1-7_金物
  6
Continuous
 62
     7
370
     5
100
AcDbLine
 10
2700.606110436735
 20
-675.6360387981966
 30
0.0
 11
2754.606110436727
 21
-675.6360387981966
 31
0.0
  0
ARC
  5
3CA
330
1F
100
AcDbEntity
  8
1-7_金物
  6
Continuous
 62
     7
370
     5
100
AcDbCircle
 10
2700.606110436735
 20
-684.6360387981953
 30
0.0
 40
9.000000000000002
100
AcDbArc
 50
90.0
 51
180.0
  0
LINE
  5
3CB
330
1F
100
AcDbEntity
  8
1-7_金物
  6
Continuous
 62
     7
370
     5
100
AcDbLine
 10
2754.606110436727
 20
-776.1360387981973
 30
0.0
 11
2754.606110436727
 21
-693.6360387981973
 31
0.0
  0
ARC
  5
3CC
330
1F
100
AcDbEntity
  8
1-7_金物
  6
Continuous
 62
     7
370
     5
100
AcDbCircle
 10
2732.106110436727
 20
-776.1360387981973
 30
0.0
 40
22.5
100
AcDbArc
 50
270.0
 51
0.0
  0
LINE
  5
3CD
330
1F
100
AcDbEntity
  8
1-7_金物
  6
Continuous
 62
     7
370
     5
100
AcDbLine
 10
2463.606110436733
 20
-776.1360387981973
 30
0.0
 11
2463.606110436733
 21
-693.6360387981973
 31
0.0
  0
LINE
  5
3CE
330
1F
100
AcDbEntity
  8
1-7_金物
  6
Continuous
 62
     7
370
     5
100
AcDbLine
 10
2486.106110436733
 20
-798.6360387981973
 30
0.0
 11
2732.106110436727
 21
-798.6360387981973
 31
0.0
  0
ARC
  5
3CF
330
1F
100
AcDbEntity
  8
1-7_金物
  6
Continuous
 62
     7
370
     5
100
AcDbCircle
 10
2486.106110436733
 20
-776.1360387981973
 30
0.0
 40
22.5
100
AcDbArc
 50
180.0
 51
270.0
  0
LINE
  5
3D0
330
1F
100
AcDbEntity
  8
1-7_金物
  6
Continuous
 62
     7
370
     5
100
AcDbLine
 10
2489.10611043673
 20
-693.6360387981973
 30
0.0
 11
2517.606110436725
 21
-693.6360387981973
 31
0.0
  0
LINE
  5
3D1
330
1F
100
AcDbEntity
  8
1-7_金物
  6
Continuous
 62
     7
370
     5
100
AcDbLine
 10
2481.60611043673
 20
-701.1360387981973
 30
0.0
 11
2481.60611043673
 21
-780.6360387981966
 31
0.0
  0
ARC
  5
3D2
330
1F
100
AcDbEntity
  8
1-7_金物
  6
Continuous
 62
     7
370
     5
100
AcDbCircle
 10
2489.10611043673
 20
-701.1360387981973
 30
0.0
 40
7.5
100
AcDbArc
 50
90.0
 51
180.0
  0
LINE
  5
3D3
330
1F
100
AcDbEntity
  8
1-7_金物
  6
Continuous
 62
     7
370
     5
100
AcDbLine
 10
2729.10611043673
 20
-693.6360387981973
 30
0.0
 11
2700.606110436735
 21
-693.6360387981973
 31
0.0
  0
LINE
  5
3D4
330
1F
100
AcDbEntity
  8
1-7_金物
  6
Continuous
 62
     7
370
     5
100
AcDbLine
 10
2736.60611043673
 20
-701.1360387981973
 30
0.0
 11
2736.60611043673
 21
-780.6360387981966
 31
0.0
  0
ARC
  5
3D5
330
1F
100
AcDbEntity
  8
1-7_金物
  6
Continuous
 62
     7
370
     5
100
AcDbCircle
 10
2729.10611043673
 20
-701.1360387981973
 30
0.0
 40
7.5
100
AcDbArc
 50
0.0
 51
90.0
  0
LINE
  5
3D6
330
1F
100
AcDbEntity
  8
1-7_金物
  6
Continuous
 62
     7
370
     5
100
AcDbLine
 10
2511.60611043673
 20
-768.6360387981973
 30
0.0
 11
2511.60611043673
 21
-780.6360387981966
 31
0.0
  0
ARC
  5
3D7
330
1F
100
AcDbEntity
  8
1-7_金物
  6
Continuous
 62
     7
370
     5
100
AcDbCircle
 10
2514.606110436727
 20
-768.6360387981973
 30
0.0
 40
3.0
100
AcDbArc
 50
90.0
 51
180.0
  0
LINE
  5
3D8
330
1F
100
AcDbEntity
  8
1-7_金物
  6
Continuous
 62
     7
370
     5
100
AcDbLine
 10
2523.606110436733
 20
-765.6360387981966
 30
0.0
 11
2514.606110436727
 21
-765.6360387981966
 31
0.0
  0
LINE
  5
3D9
330
1F
100
AcDbEntity
  8
1-7_金物
  6
Continuous
 62
     7
370
     5
100
AcDbLine
 10
2526.60611043673
 20
-768.6360387981973
 30
0.0
 11
2526.60611043673
 21
-780.6360387981966
 31
0.0
  0
ARC
  5
3DA
330
1F
100
AcDbEntity
  8
1-7_金物
  6
Continuous
 62
     7
370
     5
100
AcDbCircle
 10
2523.606110436733
 20
-768.6360387981973
 30
0.0
 40
3.0
100
AcDbArc
 50
0.0
 51
90.0
  0
LINE
  5
3DB
330
1F
100
AcDbEntity
  8
1-7_金物
  6
Continuous
 62
     7
370
     5
100
AcDbLine
 10
2691.60611043673
 20
-768.6360387981973
 30
0.0
 11
2691.60611043673
 21
-780.6360387981966
 31
0.0
  0
ARC
  5
3DC
330
1F
100
AcDbEntity
  8
1-7_金物
  6
Continuous
 62
     7
370
     5
100
AcDbCircle
 10
2694.606110436727
 20
-768.6360387981973
 30
0.0
 40
3.0
100
AcDbArc
 50
90.0
 51
180.0
  0
LINE
  5
3DD
330
1F
100
AcDbEntity
  8
1-7_金物
  6
Continuous
 62
     7
370
     5
100
AcDbLine
 10
2703.606110436733
 20
-765.6360387981966
 30
0.0
 11
2694.606110436727
 21
-765.6360387981966
 31
0.0
  0
LINE
  5
3DE
330
1F
100
AcDbEntity
  8
1-7_金物
  6
Continuous
 62
     7
370
     5
100
AcDbLine
 10
2706.60611043673
 20
-768.6360387981973
 30
0.0
 11
2706.60611043673
 21
-780.6360387981966
 31
0.0
  0
ARC
  5
3DF
330
1F
100
AcDbEntity
  8
1-7_金物
  6
Continuous
 62
     7
370
     5
100
AcDbCircle
 10
2703.606110436733
 20
-768.6360387981973
 30
0.0
 40
3.0
100
AcDbArc
 50
0.0
 51
90.0
  0
ARC
  5
3E0
330
1F
100
AcDbEntity
  8
1-7_金物
  6
JWW_DASHED1
 62
     7
370
     5
100
AcDbCircle
 10
2373.606110436733
 20
-689.1360387981946
 30
0.0
 40
4.500000000000001
100
AcDbArc
 50
270.0
 51
90.0
  0
ARC
  5
3E1
330
1F
100
AcDbEntity
  8
1-7_金物
  6
JWW_DASHED1
 62
     7
370
     5
100
AcDbCircle
 10
2844.606110436727
 20
-689.1360387981946
 30
0.0
 40
4.500000000000001
100
AcDbArc
 50
90.0
 51
270.0
  0
LINE
  5
3E2
330
1F
100
AcDbEntity
  8
1-3_仕上げ
  6
Continuous
 62
    40
370
     5
100
AcDbLine
 10
2796.60611043673
 20
-693.6360387981973
 30
0.0
 11
2796.60611043673
 21
-873.6360387981973
 31
0.0
  0
LINE
  5
3E3
330
1F
100
AcDbEntity
  8
1-3_仕上げ
  6
Continuous
 62
    40
370
     5
100
AcDbLine
 10
2421.60611043673
 20
-693.6360387981973
 30
0.0
 11
2421.60611043673
 21
-873.6360387981973
 31
0.0
  0
LINE
  5
3E4
330
1F
100
AcDbEntity
  8
1-A_文字
  6
Continuous
 62
     7
370
     5
100
AcDbLine
 10
2836.386465779412
 20
-984.8535396096089
 30
0.0
 11
2902.939090256361
 21
-984.8535396096089
 31
0.0
  0
LINE
  5
3E5
330
1F
100
AcDbEntity
  8
1-0_補助線
  6
JWW_HOJO
 62
   120
370
     5
100
AcDbLine
 10
2609.10611043673
 20
-1931.425151368683
 30
0.0
 11
2609.10611043673
 21
-2085.632934552323
 31
0.0
  0
LINE
  5
3E6
330
1F
100
AcDbEntity
  8
1-C_ハッチ
  6
Continuous
 62
   120
370
     5
100
AcDbLine
 10
2436.60611043673
 20
-2860.420740492208
 30
0.0
 11
2459.10611043673
 21
-2837.920740492204
 31
0.0
  0
LINE
  5
3E7
330
1F
100
AcDbEntity
  8
1-7_金物
  6
Continuous
 62
    92
370
     5
100
AcDbLine
 10
2459.10611043673
 20
-2810.121461313931
 30
0.0
 11
2459.10611043673
 21
-2840.121461313935
 31
0.0
  0
LINE
  5
3E8
330
1F
100
AcDbEntity
  8
1-7_金物
  6
Continuous
 62
    92
370
     5
100
AcDbLine
 10
2459.10611043673
 20
-2810.121461313931
 30
0.0
 11
2436.605964636567
 21
-2810.121461313931
 31
0.0
  0
LINE
  5
3E9
330
1F
100
AcDbEntity
  8
1-7_金物
  6
Continuous
 62
    92
370
     5
100
AcDbLine
 10
2436.60611043673
 20
-2810.120905488186
 30
0.0
 11
2436.60611043673
 21
-2915.121461313935
 31
0.0
  0
LINE
  5
3EA
330
1F
100
AcDbEntity
  8
1-7_金物
  6
Continuous
 62
    92
370
     5
100
AcDbLine
 10
2459.10611043673
 20
-2840.121461313935
 30
0.0
 11
2759.10611043673
 21
-2840.121461313935
 31
0.0
  0
LINE
  5
3EB
330
1F
100
AcDbEntity
  8
1-C_ハッチ
  6
Continuous
 62
   120
370
     5
100
AcDbLine
 10
2445.54499992181
 20
-2915.121461313935
 30
0.0
 11
2520.54499992181
 21
-2840.121461313935
 31
0.0
  0
LINE
  5
3EC
330
1F
100
AcDbEntity
  8
1-C_ハッチ
  6
Continuous
 62
   120
370
     5
100
AcDbLine
 10
2509.184610228555
 20
-2915.121461313935
 30
0.0
 11
2584.184610228555
 21
-2840.121461313925
 31
0.0
  0
LINE
  5
3ED
330
1F
100
AcDbEntity
  8
1-C_ハッチ
  6
Continuous
 62
   120
370
     5
100
AcDbLine
 10
2572.824220535355
 20
-2915.121461313935
 30
0.0
 11
2647.824220535355
 21
-2840.121461313928
 31
0.0
  0
LINE
  5
3EE
330
1F
100
AcDbEntity
  8
1-C_ハッチ
  6
Continuous
 62
   120
370
     5
100
AcDbLine
 10
2636.463830842155
 20
-2915.121461313935
 30
0.0
 11
2711.463830842155
 21
-2840.121461313935
 31
0.0
  0
LINE
  5
3EF
330
1F
100
AcDbEntity
  8
1-C_ハッチ
  6
Continuous
 62
   120
370
     5
100
AcDbLine
 10
2700.103441148955
 20
-2915.121461313935
 30
0.0
 11
2781.133252935667
 21
-2834.091649527206
 31
0.0
  0
LINE
  5
3F0
330
1F
100
AcDbEntity
  8
1-C_ハッチ
  6
Continuous
 62
   120
370
     5
100
AcDbLine
 10
2763.743051455755
 20
-2915.121461313935
 30
0.0
 11
2781.133252935667
 21
-2897.731259834006
 31
0.0
  0
LINE
  5
3F1
330
1F
100
AcDbEntity
  8
1-7_金物
  6
Continuous
 62
    92
370
     5
100
AcDbLine
 10
2759.10611043673
 20
-2810.121461313931
 30
0.0
 11
2759.10611043673
 21
-2840.121461313935
 31
0.0
  0
LINE
  5
3F2
330
1F
100
AcDbEntity
  8
1-7_金物
  6
Continuous
 62
    92
370
     5
100
AcDbLine
 10
2759.10611043673
 20
-2810.121461313931
 30
0.0
 11
2781.133398735844
 21
-2810.121461313931
 31
0.0
  0
LINE
  5
3F3
330
1F
100
AcDbEntity
  8
1-7_金物
  6
Continuous
 62
    92
370
     5
100
AcDbLine
 10
2781.133252935667
 20
-2810.120905488186
 30
0.0
 11
2781.133252935667
 21
-2915.121461313935
 31
0.0
  0
LINE
  5
3F4
330
1F
100
AcDbEntity
  8
1-7_金物
  6
Continuous
 62
    92
370
     5
100
AcDbLine
 10
2436.60611043673
 20
-2915.121461313935
 30
0.0
 11
2781.133252935667
 21
-2915.121461313935
 31
0.0
  0
LINE
  5
3F5
330
1F
100
AcDbEntity
  8
2-4_枠
  6
Continuous
 62
    92
370
     5
100
AcDbLine
 10
737.2635359004125
 20
-1038.81179106922
 30
0.0
 11
737.2635359004125
 21
-988.8123065688479
 31
0.0
  0
LINE
  5
3F6
330
1F
100
AcDbEntity
  8
2-4_枠
  6
Continuous
 62
    92
370
     5
100
AcDbLine
 10
507.2632719645999
 20
-1038.81179106922
 30
0.0
 11
507.2632719645999
 21
-988.8123065688479
 31
0.0
  0
LINE
  5
3F7
330
1F
100
AcDbEntity
  8
2-4_枠
  6
Continuous
 62
    92
370
     5
100
AcDbLine
 10
522.2625791331002
 20
-1058.812104492995
 30
0.0
 11
722.2627440929882
 21
-1058.812104492995
 31
0.0
  0
LINE
  5
3F8
330
1F
100
AcDbEntity
  8
2-4_枠
  6
Continuous
 62
    92
370
     5
100
AcDbLine
 10
507.2632719645999
 20
-1038.81179106922
 30
0.0
 11
522.2625791331002
 21
-1038.81179106922
 31
0.0
  0
LINE
  5
3F9
330
1F
100
AcDbEntity
  8
2-4_枠
  6
Continuous
 62
    92
370
     5
100
AcDbLine
 10
522.2625791331002
 20
-1058.812104492995
 30
0.0
 11
522.2625791331002
 21
-1038.81179106922
 31
0.0
  0
LINE
  5
3FA
330
1F
100
AcDbEntity
  8
2-4_枠
  6
Continuous
 62
    92
370
     5
100
AcDbLine
 10
722.2627440929882
 20
-1058.812104492995
 30
0.0
 11
722.2627440929882
 21
-1038.81179106922
 31
0.0
  0
LINE
  5
3FB
330
1F
100
AcDbEntity
  8
2-4_枠
  6
Continuous
 62
    92
370
     5
100
AcDbLine
 10
737.2635359004125
 20
-1038.81179106922
 30
0.0
 11
722.2627440929882
 21
-1038.81179106922
 31
0.0
  0
LINE
  5
3FC
330
1F
100
AcDbEntity
  8
2-B_寸法
  6
Continuous
 62
   120
370
     5
100
AcDbLine
 10
197.262480157171
 20
-54.97908008800366
 30
0.0
 11
1047.262843068917
 21
-54.97908008800366
 31
0.0
  0
LWPOLYLINE
  5
3FD
330
1F
100
AcDbEntity
  8
2-B_寸法
  6
Continuous
 62
     7
370
     5
100
AcDbPolyline
 90
        4
 70
     1
 43
3.0
 10
198.762480157171
 20
-54.97908008800366
 42
0.4142135623731
 10
197.262480157171
 20
-53.47908008800366
 42
0.4142135623731
 10
195.762480157171
 20
-54.97908008800366
 42
0.4142135623731
 10
197.262480157171
 20
-56.47908008800366
 42
0.4142135623731
  0
LWPOLYLINE
  5
3FE
330
1F
100
AcDbEntity
  8
2-B_寸法
  6
Continuous
 62
     7
370
     5
100
AcDbPolyline
 90
        4
 70
     1
 43
3.0
 10
1048.762843068917
 20
-54.97908008800366
 42
0.4142135623731
 10
1047.262843068917
 20
-53.47908008800366
 42
0.4142135623731
 10
1045.762843068917
 20
-54.97908008800366
 42
0.4142135623731
 10
1047.262843068917
 20
-56.47908008800366
 42
0.4142135623731
  0
LINE
  5
3FF
330
1F
100
AcDbEntity
  8
2-B_寸法
  6
Continuous
 62
   120
370
     5
100
AcDbLine
 10
197.262480157171
 20
-54.97908008800366
 30
0.0
 11
197.262480157171
 21
-198.5211298880044
 31
0.0
  0
LINE
  5
400
330
1F
100
AcDbEntity
  8
2-B_寸法
  6
Continuous
 62
   120
370
     5
100
AcDbLine
 10
1047.262843068917
 20
-54.97908008800366
 30
0.0
 11
1047.262843068917
 21
-198.5211298880044
 31
0.0
  0
LINE
  5
401
330
1F
100
AcDbEntity
  8
2-0_補助線
  6
JWW_HOJO
 62
   120
370
     5
100
AcDbLine
 10
179.0930541943153
 20
-1186.321758770077
 30
0.0
 11
1322.263189468906
 21
-1186.321758770077
 31
0.0
  0
LINE
  5
402
330
1F
100
AcDbEntity
  8
2-0_補助線
  6
JWW_HOJO
 62
   120
370
     5
100
AcDbLine
 10
179.0930541943153
 20
-1366.321758770077
 30
0.0
 11
1502.263189468906
 21
-1366.321758770077
 31
0.0
  0
LINE
  5
403
330
1F
100
AcDbEntity
  8
2-0_補助線
  6
JWW_HOJO
 62
   120
370
     5
100
AcDbLine
 10
162.2621337414121
 20
-198.5211298880044
 30
0.0
 11
1322.263189468906
 21
-198.5211298880044
 31
0.0
  0
LINE
  5
404
330
1F
100
AcDbEntity
  8
2-0_補助線
  6
JWW_HOJO
 62
   120
370
     5
100
AcDbLine
 10
162.2621337414121
 20
-54.97908008800366
 30
0.0
 11
1502.263189468906
 21
-54.97908008800366
 31
0.0
  0
LINE
  5
405
330
1F
100
AcDbEntity
  8
2-0_補助線
  6
JWW_HOJO
 62
   120
370
     5
100
AcDbLine
 10
162.2621337414121
 20
-248.5211298880033
 30
0.0
 11
1322.263189468906
 21
-248.5211298880033
 31
0.0
  0
LINE
  5
406
330
1F
100
AcDbEntity
  8
2-0_補助線
  6
JWW_HOJO
 62
   120
370
     5
100
AcDbLine
 10
1502.263189468906
 20
-1366.321758770077
 30
0.0
 11
1502.263189468906
 21
-54.97908008800366
 31
0.0
  0
MTEXT
  5
407
330
1F
100
AcDbEntity
  8
2-B_寸法
  6
Continuous
 62
     7
370
   211
100
AcDbMText
 10
562.2626616130383
 20
-54.25908008800419
 30
0.0
 40
91.43999999999902
 41
119.9999999999987
 46
0.0
 71
     7
 72
     1
  1
{\fＭＳ ゴシック|b0|i0|c128|p49;85}
 73
     1
 44
1.0
  0
LINE
  5
408
330
1F
100
AcDbEntity
  8
2-4_枠
  6
Continuous
 62
    92
370
     5
100
AcDbLine
 10
197.262480157171
 20
-248.5211298880033
 30
0.0
 11
197.262480157171
 21
-988.8123065688479
 31
0.0
  0
LINE
  5
409
330
1F
100
AcDbEntity
  8
2-4_枠
  6
Continuous
 62
    92
370
     5
100
AcDbLine
 10
197.262480157171
 20
-988.8123065688479
 30
0.0
 11
507.2632719645999
 21
-988.8123065688479
 31
0.0
  0
LINE
  5
40A
330
1F
100
AcDbEntity
  8
2-4_枠
  6
Continuous
 62
    92
370
     5
100
AcDbLine
 10
737.2635359004125
 20
-988.8123065688479
 30
0.0
 11
1047.262843068917
 21
-988.8123065688479
 31
0.0
  0
LINE
  5
40B
330
1F
100
AcDbEntity
  8
2-4_枠
  6
Continuous
 62
    92
370
     5
100
AcDbLine
 10
1047.262843068917
 20
-248.5211298880033
 30
0.0
 11
1047.262843068917
 21
-988.8123065688479
 31
0.0
  0
LINE
  5
40C
330
1F
100
AcDbEntity
  8
2-0_補助線
  6
JWW_HOJO
 62
   120
370
     5
100
AcDbLine
 10
1322.263189468906
 20
-1186.321758770077
 30
0.0
 11
1322.263189468906
 21
-248.5211298880033
 31
0.0
  0
LINE
  5
40D
330
1F
100
AcDbEntity
  8
F-0_補助線
  6
JWW_HOJO
 62
     7
370
     5
100
AcDbLine
 10
1109.918584083287
 20
-3795.000003092998
 30
0.0
 11
1109.918584083287
 21
-4195.000008247994
 31
0.0
  0
LINE
  5
40E
330
1F
100
AcDbEntity
  8
F-0_補助線
  6
JWW_HOJO
 62
     7
370
     5
100
AcDbLine
 10
4889.917891251784
 20
-3795.000003092998
 30
0.0
 11
4889.917891251784
 21
-4195.000008247994
 31
0.0
  0
MTEXT
  5
40F
330
1F
100
AcDbEntity
  8
F-0_補助線
  6
Continuous
 62
     7
370
     0
100
AcDbMText
 10
1109.918584083287
 20
-3945.948259655243
 30
0.0
 40
78.105
 41
615.0
 46
0.0
 71
     7
 72
     1
  1
{\fＭＳ ゴシック|b0|i0|c128|p49;建具納まり図}
 73
     1
 44
1.0
  0
MTEXT
  5
410
330
1F
100
AcDbEntity
  8
F-0_補助線
  6
Continuous
 62
     7
370
     0
100
AcDbMText
 10
509.9185840832865
 20
-3950.710201962234
 30
0.0
 40
68.58000000000001
 41
360.0
 46
0.0
 71
     7
 72
     1
  1
{\fＭＳ ゴシック|b0|i0|c128|p49;DOORETUS}
 73
     1
 44
1.0
  0
MTEXT
  5
411
330
1F
100
AcDbEntity
  8
0-B_寸法
  6
Continuous
 62
     7
370
     0
100
AcDbMText
 10
-2736.440013768373
 20
-980.270255201739
 30
0.0
 40
91.43999999999986
 41
119.9999999999998
 46
0.0
 71
     7
 72
     1
  1
{\fＭＳ ゴシック|b0|i0|c128|p49;20}
 11
0.9999999999914964
 21
4.124000500689212E-6
 31
0.0
 73
     1
 44
1.0
  0
MTEXT
  5
412
330
1F
100
AcDbEntity
  8
0-B_寸法
  6
Continuous
 62
     7
370
   211
100
AcDbMText
 10
-2047.879242239148
 20
2287.665146597185
 30
0.0
 40
91.44
 41
120.0
 46
0.0
 71
     7
 72
     1
  1
{\fＭＳ ゴシック|b0|i0|c128|p49;20}
 11
6.123031769111886E-17
 21
1.0
 31
0.0
 73
     1
 44
1.0
  0
MTEXT
  5
413
330
1F
100
AcDbEntity
  8
F-A_文字
  6
Continuous
 62
     7
370
     0
100
AcDbMText
 10
4889.917891251784
 20
-3945.570773120548
 30
0.0
 40
78.86699999999999
 41
517.5
 46
0.0
 71
     7
 72
     1
  1
{\fＭＳ ゴシック|b0|i0|c128|p49;2024.04.01}
 73
     1
 44
1.0
  0
LINE
  5
414
330
1F
100
AcDbEntity
  8
0-0_補助線
  6
Continuous
 62
   120
370
     5
100
AcDbLine
 10
-2843.689657146241
 20
2324.359196304723
 30
0.0
 11
-2843.689657146241
 21
2402.688459527908
 31
0.0
  0
LINE
  5
415
330
1F
100
AcDbEntity
  8
0-0_補助線
  6
Continuous
 62
   120
370
     5
100
AcDbLine
 10
-2858.689657146241
 20
2324.359196304723
 30
0.0
 11
-2858.689657146241
 21
2402.688459527908
 31
0.0
  0
LWPOLYLINE
  5
416
330
1F
100
AcDbEntity
  8
0-B_寸法
  6
Continuous
 62
     7
370
     5
100
AcDbPolyline
 90
        4
 70
     1
 43
3.0
 10
-2031.379242239148
 20
2421.945146597186
 42
0.4142135623731
 10
-2032.879242239148
 20
2423.445146597186
 42
0.4142135623731
 10
-2034.379242239148
 20
2421.945146597186
 42
0.4142135623731
 10
-2032.879242239148
 20
2420.445146597186
 42
0.4142135623731
  0
LINE
  5
417
330
1F
100
AcDbEntity
  8
0-0_補助線
  6
JWW_HOJO
 62
     7
370
     5
100
AcDbLine
 10
-2581.564657146245
 20
2439.945146597184
 30
0.0
 11
-2581.564657146245
 21
2280.944503253647
 31
0.0
  0
LINE
  5
418
330
1F
100
AcDbEntity
  8
0-0_補助線
  6
JWW_HOJO
 62
     7
370
     5
100
AcDbLine
 10
-2641.564657146245
 20
2439.945146597184
 30
0.0
 11
-2641.564657146245
 21
2280.944503253647
 31
0.0
  0
LINE
  5
419
330
1F
100
AcDbEntity
  8
0-6_扉
  6
Continuous
 62
   200
370
     5
100
AcDbLine
 10
-2641.564657146245
 20
2421.945146597186
 30
0.0
 11
-2858.689657146244
 21
2421.945146597186
 31
0.0
  0
LINE
  5
41A
330
1F
100
AcDbEntity
  8
0-6_扉
  6
Continuous
 62
   200
370
     5
100
AcDbLine
 10
-2364.439657146246
 20
2421.945146597186
 30
0.0
 11
-2581.564657146245
 21
2421.945146597186
 31
0.0
  0
LINE
  5
41B
330
1F
100
AcDbEntity
  8
0-6_扉
  6
Continuous
 62
   200
370
     5
100
AcDbLine
 10
-1864.189657146245
 20
2421.945146597186
 30
0.0
 11
-2081.314657146246
 21
2421.945146597186
 31
0.0
  0
LINE
  5
41C
330
1F
100
AcDbEntity
  8
0-6_扉
  6
Continuous
 62
   200
370
     5
100
AcDbLine
 10
-2141.314657146246
 20
2421.945146597186
 30
0.0
 11
-2358.439657146245
 21
2421.945146597186
 31
0.0
  0
LINE
  5
41D
330
1F
100
AcDbEntity
  8
0-0_補助線
  6
JWW_HOJO
 62
     7
370
     5
100
AcDbLine
 10
-2141.314657146246
 20
2439.945146597184
 30
0.0
 11
-2141.314657146246
 21
2280.944503253647
 31
0.0
  0
LINE
  5
41E
330
1F
100
AcDbEntity
  8
0-0_補助線
  6
JWW_HOJO
 62
     7
370
     5
100
AcDbLine
 10
-2081.314657146246
 20
2439.945146597184
 30
0.0
 11
-2081.314657146246
 21
2280.944503253647
 31
0.0
  0
LINE
  5
41F
330
1F
100
AcDbEntity
  8
0-0_補助線
  6
JWW_HOJO
 62
     7
370
     5
100
AcDbLine
 10
-1575.064657146245
 20
2439.945146597184
 30
0.0
 11
-1575.064657146245
 21
2280.944503253647
 31
0.0
  0
LINE
  5
420
330
1F
100
AcDbEntity
  8
0-0_補助線
  6
JWW_HOJO
 62
     7
370
     5
100
AcDbLine
 10
-1635.064657146246
 20
2439.945146597184
 30
0.0
 11
-1635.064657146246
 21
2280.944503253647
 31
0.0
  0
LINE
  5
421
330
1F
100
AcDbEntity
  8
0-6_扉
  6
Continuous
 62
   200
370
     5
100
AcDbLine
 10
-1635.064657146246
 20
2421.945146597186
 30
0.0
 11
-1852.189657146245
 21
2421.945146597186
 31
0.0
  0
LINE
  5
422
330
1F
100
AcDbEntity
  8
0-6_扉
  6
Continuous
 62
   200
370
     5
100
AcDbLine
 10
-1357.939657146245
 20
2421.945146597186
 30
0.0
 11
-1575.064657146245
 21
2421.945146597186
 31
0.0
  0
LINE
  5
423
330
1F
100
AcDbEntity
  8
0-0_補助線
  6
JWW_HOJO
 62
     7
370
     5
100
AcDbLine
 10
-1134.814657146243
 20
2439.945146597184
 30
0.0
 11
-1134.814657146243
 21
2280.944503253647
 31
0.0
  0
LINE
  5
424
330
1F
100
AcDbEntity
  8
0-0_補助線
  6
JWW_HOJO
 62
     7
370
     5
100
AcDbLine
 10
-1074.814657146243
 20
2439.945146597184
 30
0.0
 11
-1074.814657146243
 21
2280.944503253647
 31
0.0
  0
LINE
  5
425
330
1F
100
AcDbEntity
  8
0-6_扉
  6
Continuous
 62
   200
370
     5
100
AcDbLine
 10
-1351.939657146241
 20
2421.945146597186
 30
0.0
 11
-1134.814657146243
 21
2421.945146597186
 31
0.0
  0
LINE
  5
426
330
1F
100
AcDbEntity
  8
0-6_扉
  6
Continuous
 62
   200
370
     5
100
AcDbLine
 10
-1074.814657146243
 20
2421.945146597186
 30
0.0
 11
-857.689657146245
 21
2421.945146597186
 31
0.0
  0
LINE
  5
427
330
1F
100
AcDbEntity
  8
0-0_補助線
  6
JWW_HOJO
 62
     7
370
     5
100
AcDbLine
 10
-628.5646571462453
 20
2439.945146597184
 30
0.0
 11
-628.5646571462453
 21
2280.944503253647
 31
0.0
  0
LINE
  5
428
330
1F
100
AcDbEntity
  8
0-0_補助線
  6
JWW_HOJO
 62
     7
370
     5
100
AcDbLine
 10
-568.5646571462453
 20
2439.945146597184
 30
0.0
 11
-568.5646571462453
 21
2280.944503253647
 31
0.0
  0
LINE
  5
429
330
1F
100
AcDbEntity
  8
0-6_扉
  6
Continuous
 62
   200
370
     5
100
AcDbLine
 10
-845.6896571462448
 20
2421.945146597186
 30
0.0
 11
-628.5646571462453
 21
2421.945146597186
 31
0.0
  0
LINE
  5
42A
330
1F
100
AcDbEntity
  8
0-6_扉
  6
Continuous
 62
   200
370
     5
100
AcDbLine
 10
-568.5646571462453
 20
2421.945146597186
 30
0.0
 11
-351.439657146245
 21
2421.945146597186
 31
0.0
  0
LINE
  5
42B
330
1F
100
AcDbEntity
  8
0-0_補助線
  6
JWW_HOJO
 62
     7
370
     5
100
AcDbLine
 10
-128.3146571462458
 20
2439.945146597184
 30
0.0
 11
-128.3146571462458
 21
2280.944503253647
 31
0.0
  0
LINE
  5
42C
330
1F
100
AcDbEntity
  8
0-0_補助線
  6
JWW_HOJO
 62
     7
370
     5
100
AcDbLine
 10
-68.31465714624585
 20
2439.945146597184
 30
0.0
 11
-68.31465714624585
 21
2280.944503253647
 31
0.0
  0
LINE
  5
42D
330
1F
100
AcDbEntity
  8
0-6_扉
  6
Continuous
 62
   200
370
     5
100
AcDbLine
 10
-345.4396571462453
 20
2421.945146597186
 30
0.0
 11
-128.3146571462458
 21
2421.945146597186
 31
0.0
  0
LINE
  5
42E
330
1F
100
AcDbEntity
  8
0-6_扉
  6
Continuous
 62
   200
370
     5
100
AcDbLine
 10
-68.31465714624585
 20
2421.945146597186
 30
0.0
 11
148.8103428537647
 21
2421.945146597186
 31
0.0
  0
LINE
  5
42F
330
1F
100
AcDbEntity
  8
0-0_補助線
  6
JWW_HOJO
 62
     7
370
     5
100
AcDbLine
 10
377.935342853755
 20
2439.945146597184
 30
0.0
 11
377.935342853755
 21
2280.944503253647
 31
0.0
  0
LINE
  5
430
330
1F
100
AcDbEntity
  8
0-0_補助線
  6
JWW_HOJO
 62
     7
370
     5
100
AcDbLine
 10
437.935342853755
 20
2439.945146597184
 30
0.0
 11
437.935342853755
 21
2280.944503253647
 31
0.0
  0
LINE
  5
431
330
1F
100
AcDbEntity
  8
0-6_扉
  6
Continuous
 62
   200
370
     5
100
AcDbLine
 10
160.8103428537547
 20
2421.945146597186
 30
0.0
 11
377.935342853755
 21
2421.945146597186
 31
0.0
  0
LINE
  5
432
330
1F
100
AcDbEntity
  8
0-6_扉
  6
Continuous
 62
   200
370
     5
100
AcDbLine
 10
437.935342853755
 20
2421.945146597186
 30
0.0
 11
655.0603428537545
 21
2421.945146597186
 31
0.0
  0
LINE
  5
433
330
1F
100
AcDbEntity
  8
0-0_補助線
  6
JWW_HOJO
 62
     7
370
     5
100
AcDbLine
 10
878.1853428537536
 20
2439.945146597184
 30
0.0
 11
878.1853428537536
 21
2280.944503253647
 31
0.0
  0
LINE
  5
434
330
1F
100
AcDbEntity
  8
0-0_補助線
  6
JWW_HOJO
 62
     7
370
     5
100
AcDbLine
 10
938.1853428537536
 20
2439.945146597184
 30
0.0
 11
938.1853428537536
 21
2280.944503253647
 31
0.0
  0
LINE
  5
435
330
1F
100
AcDbEntity
  8
0-6_扉
  6
Continuous
 62
   200
370
     5
100
AcDbLine
 10
661.0603428537542
 20
2421.945146597186
 30
0.0
 11
878.1853428537536
 21
2421.945146597186
 31
0.0
  0
LINE
  5
436
330
1F
100
AcDbEntity
  8
0-6_扉
  6
Continuous
 62
   200
370
     5
100
AcDbLine
 10
938.1853428537536
 20
2421.945146597186
 30
0.0
 11
1155.310342853765
 21
2421.945146597186
 31
0.0
  0
CIRCLE
  5
437
330
1F
100
AcDbEntity
  8
0-7_金物
  6
Continuous
 62
     7
370
     5
100
AcDbCircle
 10
-2361.439657146245
 20
2451.945146597161
 30
0.0
 40
21.00000000000001
  0
CIRCLE
  5
438
330
1F
100
AcDbEntity
  8
0-7_金物
  6
Continuous
 62
     7
370
     5
100
AcDbCircle
 10
-2361.439657146245
 20
2451.945146597161
 30
0.0
 40
30.0
  0
CIRCLE
  5
439
330
1F
100
AcDbEntity
  8
0-7_金物
  6
Continuous
 62
     7
370
     5
100
AcDbCircle
 10
-1354.939657146243
 20
2451.945146597161
 30
0.0
 40
21.00000000000001
  0
CIRCLE
  5
43A
330
1F
100
AcDbEntity
  8
0-7_金物
  6
Continuous
 62
     7
370
     5
100
AcDbCircle
 10
-1354.939657146243
 20
2451.945146597161
 30
0.0
 40
30.0
  0
CIRCLE
  5
43B
330
1F
100
AcDbEntity
  8
0-7_金物
  6
Continuous
 62
     7
370
     5
100
AcDbCircle
 10
658.0603428537543
 20
2451.945146597161
 30
0.0
 40
21.00000000000001
  0
CIRCLE
  5
43C
330
1F
100
AcDbEntity
  8
0-7_金物
  6
Continuous
 62
     7
370
     5
100
AcDbCircle
 10
658.0603428537543
 20
2451.945146597161
 30
0.0
 40
30.0
  0
CIRCLE
  5
43D
330
1F
100
AcDbEntity
  8
0-7_金物
  6
Continuous
 62
     7
370
     5
100
AcDbCircle
 10
-348.4396571462452
 20
2451.945146597161
 30
0.0
 40
21.00000000000001
  0
CIRCLE
  5
43E
330
1F
100
AcDbEntity
  8
0-7_金物
  6
Continuous
 62
     7
370
     5
100
AcDbCircle
 10
-348.4396571462452
 20
2451.945146597161
 30
0.0
 40
30.0
  0
LWPOLYLINE
  5
43F
330
1F
100
AcDbEntity
  8
0-B_寸法
  6
Continuous
 62
     7
370
     5
100
AcDbPolyline
 90
        4
 70
     1
 43
3.0
 10
-2031.379242239148
 20
2301.945146597186
 42
0.4142135623731
 10
-2032.879242239148
 20
2303.445146597186
 42
0.4142135623731
 10
-2034.379242239148
 20
2301.945146597186
 42
0.4142135623731
 10
-2032.879242239148
 20
2300.445146597186
 42
0.4142135623731
  0
LINE
  5
440
330
1F
100
AcDbEntity
  8
0-6_扉
  6
Continuous
 62
   200
370
     5
100
AcDbLine
 10
-2641.564657146245
 20
2301.945146597186
 30
0.0
 11
-2858.689657146244
 21
2301.945146597186
 31
0.0
  0
LINE
  5
441
330
1F
100
AcDbEntity
  8
0-6_扉
  6
Continuous
 62
   200
370
     5
100
AcDbLine
 10
-2364.439657146246
 20
2301.945146597186
 30
0.0
 11
-2581.564657146245
 21
2301.945146597186
 31
0.0
  0
LINE
  5
442
330
1F
100
AcDbEntity
  8
0-6_扉
  6
Continuous
 62
   200
370
     5
100
AcDbLine
 10
-1864.189657146245
 20
2301.945146597186
 30
0.0
 11
-2081.314657146246
 21
2301.945146597186
 31
0.0
  0
LINE
  5
443
330
1F
100
AcDbEntity
  8
0-6_扉
  6
Continuous
 62
   200
370
     5
100
AcDbLine
 10
-2141.314657146246
 20
2301.945146597186
 30
0.0
 11
-2358.439657146245
 21
2301.945146597186
 31
0.0
  0
LINE
  5
444
330
1F
100
AcDbEntity
  8
0-6_扉
  6
Continuous
 62
   200
370
     5
100
AcDbLine
 10
-1635.064657146246
 20
2301.945146597186
 30
0.0
 11
-1852.189657146245
 21
2301.945146597186
 31
0.0
  0
LINE
  5
445
330
1F
100
AcDbEntity
  8
0-6_扉
  6
Continuous
 62
   200
370
     5
100
AcDbLine
 10
-1357.939657146245
 20
2301.945146597186
 30
0.0
 11
-1575.064657146245
 21
2301.945146597186
 31
0.0
  0
LINE
  5
446
330
1F
100
AcDbEntity
  8
0-6_扉
  6
Continuous
 62
   200
370
     5
100
AcDbLine
 10
-1351.939657146241
 20
2301.945146597186
 30
0.0
 11
-1134.814657146243
 21
2301.945146597186
 31
0.0
  0
LINE
  5
447
330
1F
100
AcDbEntity
  8
0-6_扉
  6
Continuous
 62
   200
370
     5
100
AcDbLine
 10
-1074.814657146243
 20
2301.945146597186
 30
0.0
 11
-857.689657146245
 21
2301.945146597186
 31
0.0
  0
LINE
  5
448
330
1F
100
AcDbEntity
  8
0-6_扉
  6
Continuous
 62
   200
370
     5
100
AcDbLine
 10
-845.6896571462448
 20
2301.945146597186
 30
0.0
 11
-628.5646571462453
 21
2301.945146597186
 31
0.0
  0
LINE
  5
449
330
1F
100
AcDbEntity
  8
0-6_扉
  6
Continuous
 62
   200
370
     5
100
AcDbLine
 10
-568.5646571462453
 20
2301.945146597186
 30
0.0
 11
-351.439657146245
 21
2301.945146597186
 31
0.0
  0
LINE
  5
44A
330
1F
100
AcDbEntity
  8
0-6_扉
  6
Continuous
 62
   200
370
     5
100
AcDbLine
 10
-345.4396571462453
 20
2301.945146597186
 30
0.0
 11
-128.3146571462458
 21
2301.945146597186
 31
0.0
  0
LINE
  5
44B
330
1F
100
AcDbEntity
  8
0-6_扉
  6
Continuous
 62
   200
370
     5
100
AcDbLine
 10
-68.31465714624585
 20
2301.945146597186
 30
0.0
 11
148.8103428537647
 21
2301.945146597186
 31
0.0
  0
LINE
  5
44C
330
1F
100
AcDbEntity
  8
0-6_扉
  6
Continuous
 62
   200
370
     5
100
AcDbLine
 10
160.8103428537547
 20
2301.945146597186
 30
0.0
 11
377.935342853755
 21
2301.945146597186
 31
0.0
  0
LINE
  5
44D
330
1F
100
AcDbEntity
  8
0-6_扉
  6
Continuous
 62
   200
370
     5
100
AcDbLine
 10
437.935342853755
 20
2301.945146597186
 30
0.0
 11
655.0603428537545
 21
2301.945146597186
 31
0.0
  0
LINE
  5
44E
330
1F
100
AcDbEntity
  8
0-6_扉
  6
Continuous
 62
   200
370
     5
100
AcDbLine
 10
661.0603428537542
 20
2301.945146597186
 30
0.0
 11
878.1853428537536
 21
2301.945146597186
 31
0.0
  0
LINE
  5
44F
330
1F
100
AcDbEntity
  8
0-6_扉
  6
Continuous
 62
   200
370
     5
100
AcDbLine
 10
938.1853428537536
 20
2301.945146597186
 30
0.0
 11
1155.310342853765
 21
2301.945146597186
 31
0.0
  0
LINE
  5
450
330
1F
100
AcDbEntity
  8
0-B_寸法
  6
Continuous
 62
   120
370
     5
100
AcDbLine
 10
-2032.879242239148
 20
2421.945146597186
 30
0.0
 11
-2032.879242239148
 21
2301.945146597186
 31
0.0
  0
LINE
  5
451
330
1F
100
AcDbEntity
  8
0-6_扉
  6
Continuous
 62
   200
370
     5
100
AcDbLine
 10
-2858.689657146244
 20
2421.945146597186
 30
0.0
 11
-2858.689657146244
 21
2301.945146597186
 31
0.0
  0
LINE
  5
452
330
1F
100
AcDbEntity
  8
0-6_扉
  6
Continuous
 62
   200
370
     5
100
AcDbLine
 10
-2358.439657146245
 20
2421.945146597186
 30
0.0
 11
-2358.439657146245
 21
2301.945146597186
 31
0.0
  0
LINE
  5
453
330
1F
100
AcDbEntity
  8
0-6_扉
  6
Continuous
 62
   200
370
     5
100
AcDbLine
 10
-2364.439657146246
 20
2421.945146597186
 30
0.0
 11
-2364.439657146246
 21
2301.945146597186
 31
0.0
  0
LINE
  5
454
330
1F
100
AcDbEntity
  8
0-6_扉
  6
Continuous
 62
   200
370
     5
100
AcDbLine
 10
-1852.189657146245
 20
2421.945146597186
 30
0.0
 11
-1852.189657146245
 21
2301.945146597186
 31
0.0
  0
LINE
  5
455
330
1F
100
AcDbEntity
  8
0-6_扉
  6
Continuous
 62
   200
370
     5
100
AcDbLine
 10
-1864.189657146245
 20
2421.945146597186
 30
0.0
 11
-1864.189657146245
 21
2301.945146597186
 31
0.0
  0
LINE
  5
456
330
1F
100
AcDbEntity
  8
0-6_扉
  6
Continuous
 62
   200
370
     5
100
AcDbLine
 10
-1351.939657146241
 20
2421.945146597186
 30
0.0
 11
-1351.939657146241
 21
2301.945146597186
 31
0.0
  0
LINE
  5
457
330
1F
100
AcDbEntity
  8
0-6_扉
  6
Continuous
 62
   200
370
     5
100
AcDbLine
 10
-1357.939657146245
 20
2421.945146597186
 30
0.0
 11
-1357.939657146245
 21
2301.945146597186
 31
0.0
  0
LINE
  5
458
330
1F
100
AcDbEntity
  8
0-6_扉
  6
Continuous
 62
   200
370
     5
100
AcDbLine
 10
-857.689657146245
 20
2421.945146597186
 30
0.0
 11
-857.689657146245
 21
2301.945146597186
 31
0.0
  0
LINE
  5
459
330
1F
100
AcDbEntity
  8
0-6_扉
  6
Continuous
 62
   200
370
     5
100
AcDbLine
 10
-845.6896571462448
 20
2421.945146597186
 30
0.0
 11
-845.6896571462448
 21
2301.945146597186
 31
0.0
  0
LINE
  5
45A
330
1F
100
AcDbEntity
  8
0-6_扉
  6
Continuous
 62
   200
370
     5
100
AcDbLine
 10
-351.439657146245
 20
2421.945146597186
 30
0.0
 11
-351.439657146245
 21
2301.945146597186
 31
0.0
  0
LINE
  5
45B
330
1F
100
AcDbEntity
  8
0-6_扉
  6
Continuous
 62
   200
370
     5
100
AcDbLine
 10
-345.4396571462453
 20
2421.945146597186
 30
0.0
 11
-345.4396571462453
 21
2301.945146597186
 31
0.0
  0
LINE
  5
45C
330
1F
100
AcDbEntity
  8
0-6_扉
  6
Continuous
 62
   200
370
     5
100
AcDbLine
 10
148.8103428537647
 20
2421.945146597186
 30
0.0
 11
148.8103428537647
 21
2301.945146597186
 31
0.0
  0
LINE
  5
45D
330
1F
100
AcDbEntity
  8
0-6_扉
  6
Continuous
 62
   200
370
     5
100
AcDbLine
 10
160.8103428537547
 20
2421.945146597186
 30
0.0
 11
160.8103428537547
 21
2301.945146597186
 31
0.0
  0
LINE
  5
45E
330
1F
100
AcDbEntity
  8
0-6_扉
  6
Continuous
 62
   200
370
     5
100
AcDbLine
 10
655.0603428537545
 20
2421.945146597186
 30
0.0
 11
655.0603428537545
 21
2301.945146597186
 31
0.0
  0
LINE
  5
45F
330
1F
100
AcDbEntity
  8
0-6_扉
  6
Continuous
 62
   200
370
     5
100
AcDbLine
 10
661.0603428537542
 20
2421.945146597186
 30
0.0
 11
661.0603428537542
 21
2301.945146597186
 31
0.0
  0
LINE
  5
460
330
1F
100
AcDbEntity
  8
0-6_扉
  6
Continuous
 62
   200
370
     5
100
AcDbLine
 10
1155.310342853765
 20
2421.945146597186
 30
0.0
 11
1155.310342853765
 21
2301.945146597186
 31
0.0
  0
LINE
  5
461
330
1F
100
AcDbEntity
  8
0-B_寸法
  6
Continuous
 62
   120
370
     5
100
AcDbLine
 10
-2612.689459194389
 20
-896.7529430908338
 30
0.0
 11
-2612.689459194389
 21
-980.9898716698059
 31
0.0
  0
LWPOLYLINE
  5
462
330
1F
100
AcDbEntity
  8
0-B_寸法
  6
Continuous
 62
     7
370
     5
100
AcDbPolyline
 90
        4
 70
     1
 43
3.0
 10
-2611.189459194389
 20
-980.9898716698059
 42
0.4142135623731
 10
-2612.689459194389
 20
-979.489871669806
 42
0.4142135623731
 10
-2614.189459194389
 20
-980.9898716698059
 42
0.4142135623731
 10
-2612.689459194389
 20
-982.4898716698058
 42
0.4142135623731
  0
LINE
  5
463
330
1F
100
AcDbEntity
  8
0-6_扉
  6
Continuous
 62
   200
370
     5
100
AcDbLine
 10
-2612.689459194389
 20
-1582.000084336085
 30
0.0
 11
-2612.689459194389
 21
-378.9998344218668
 31
0.0
  0
LINE
  5
464
330
1F
100
AcDbEntity
  8
0-6_扉
  6
Continuous
 62
   200
370
     5
100
AcDbLine
 10
-2612.689459194389
 20
-2995.000334250305
 30
0.0
 11
-2612.689459194389
 21
-1702.000084336085
 31
0.0
  0
LINE
  5
465
330
1F
100
AcDbEntity
  8
0-B_寸法
  6
Continuous
 62
   120
370
     5
100
AcDbLine
 10
-2732.689459194389
 20
-896.7529430908338
 30
0.0
 11
-2732.689459194389
 21
-980.9898716698059
 31
0.0
  0
LWPOLYLINE
  5
466
330
1F
100
AcDbEntity
  8
0-B_寸法
  6
Continuous
 62
     7
370
     5
100
AcDbPolyline
 90
        4
 70
     1
 43
3.0
 10
-2731.189459194389
 20
-980.9898716698059
 42
0.4142135623731
 10
-2732.689459194389
 20
-979.489871669806
 42
0.4142135623731
 10
-2734.189459194389
 20
-980.9898716698059
 42
0.4142135623731
 10
-2732.689459194389
 20
-982.4898716698058
 42
0.4142135623731
  0
LINE
  5
467
330
1F
100
AcDbEntity
  8
0-6_扉
  6
Continuous
 62
   200
370
     5
100
AcDbLine
 10
-2732.689459194389
 20
-1582.000084336085
 30
0.0
 11
-2732.689459194389
 21
-378.9998344218668
 31
0.0
  0
LINE
  5
468
330
1F
100
AcDbEntity
  8
0-6_扉
  6
Continuous
 62
   200
370
     5
100
AcDbLine
 10
-2732.689459194389
 20
-2995.000334250305
 30
0.0
 11
-2732.689459194389
 21
-1702.000084336085
 31
0.0
  0
LINE
  5
469
330
1F
100
AcDbEntity
  8
0-6_扉
  6
Continuous
 62
   200
370
     5
100
AcDbLine
 10
-2732.689459194389
 20
-378.9998344218668
 30
0.0
 11
-2612.689459194389
 21
-378.9998344218668
 31
0.0
  0
LINE
  5
46A
330
1F
100
AcDbEntity
  8
0-B_寸法
  6
Continuous
 62
   120
370
     5
100
AcDbLine
 10
-2732.689459194389
 20
-980.9898716698059
 30
0.0
 11
-2612.689459194389
 21
-980.9898716698059
 31
0.0
  0
LINE
  5
46B
330
1F
100
AcDbEntity
  8
0-6_扉
  6
Continuous
 62
   200
370
     5
100
AcDbLine
 10
-2612.689459194389
 20
-2995.000334250305
 30
0.0
 11
-2732.689459194389
 21
-2995.000334250305
 31
0.0
  0
ENDSEC
  0
SECTION
  2
OBJECTS
  0
DICTIONARY
  5
C
330
0
100
AcDbDictionary
281
     1
  3
ACAD_GROUP
350
D
  3
ACAD_LAYOUT
350
1A
  3
ACAD_MATERIAL
350
3B
  3
ACAD_MLEADERSTYLE
350
494
  3
ACAD_MLINESTYLE
350
17
  3
ACAD_PLOTSETTINGS
350
19
  3
ACAD_PLOTSTYLENAME
350
E
  3
ACAD_TABLESTYLE
350
493
  3
ACAD_VISUALSTYLE
350
2A
  0
DICTIONARY
  5
D
102
{ACAD_REACTORS
330
C
102
}
330
C
100
AcDbDictionary
281
     1
  0
DICTIONARY
  5
1A
102
{ACAD_REACTORS
330
C
102
}
330
C
100
AcDbDictionary
281
     1
  3
Layout1
350
1E
  3
Layout2
350
26
  3
Model
350
22
  0
DICTIONARY
  5
3B
102
{ACAD_REACTORS
330
C
102
}
330
C
100
AcDbDictionary
281
     1
  3
ByBlock
350
3D
  3
ByLayer
350
3C
  3
Global
350
3E
  0
DICTIONARY
  5
494
102
{ACAD_REACTORS
330
C
102
}
330
C
100
AcDbDictionary
281
     1
  0
DICTIONARY
  5
17
102
{ACAD_REACTORS
330
C
102
}
330
C
100
AcDbDictionary
281
     1
  3
Standard
350
18
  0
DICTIONARY
  5
19
102
{ACAD_REACTORS
330
C
102
}
330
C
100
AcDbDictionary
281
     1
  0
ACDBDICTIONARYWDFLT
  5
E
102
{ACAD_REACTORS
330
C
102
}
330
C
100
AcDbDictionary
281
     1
  3
Normal
350
F
100
AcDbDictionaryWithDefault
340
F
  0
DICTIONARY
  5
493
102
{ACAD_REACTORS
330
C
102
}
330
C
100
AcDbDictionary
281
     1
  0
DICTIONARY
  5
2A
102
{ACAD_REACTORS
330
C
102
}
330
C
100
AcDbDictionary
281
     1
  3
2dWireframe
350
2F
  3
3D Hidden
350
31
  3
3dWireframe
350
30
  3
Basic
350
32
  3
Brighten
350
36
  3
ColorChange
350
3A
  3
Conceptual
350
34
  3
Dim
350
35
  3
Facepattern
350
39
  3
Flat
350
2B
  3
FlatWithEdges
350
2C
  3
Gouraud
350
2D
  3
GouraudWithEdges
350
2E
  3
Linepattern
350
38
  3
Realistic
350
33
  3
Thicken
350
37
  0
LAYOUT
  5
1E
102
{ACAD_REACTORS
330
1A
102
}
330
1A
100
AcDbPlotSettings
  1

  2
none_device
  4

  6

 40
0.0
 41
0.0
 42
0.0
 43
0.0
 44
0.0
 45
0.0
 46
0.0
 47
0.0
 48
0.0
 49
0.0
140
0.0
141
0.0
142
1.0
143
1.0
 70
   688
 72
     0
 73
     0
 74
     5
  7

 75
    16
 76
     0
 77
     5
 78
   300
147
1.0
148
0.0
149
0.0
100
AcDbLayout
  1
Layout1
 70
     1
 71
     1
 10
0.0
 20
0.0
 11
420.0
 21
297.0
 12
0.0
 22
0.0
 32
0.0
 14
1.000000000000000E+20
 24
1.000000000000000E+20
 34
1.000000000000000E+20
 15
-1.000000000000000E+20
 25
-1.000000000000000E+20
 35
-1.000000000000000E+20
146
0.0
 13
0.0
 23
0.0
 33
0.0
 16
1.0
 26
0.0
 36
0.0
 17
0.0
 27
1.0
 37
0.0
 76
     0
330
1B
  0
LAYOUT
  5
26
102
{ACAD_REACTORS
330
1A
102
}
330
1A
100
AcDbPlotSettings
  1

  2
none_device
  4

  6

 40
0.0
 41
0.0
 42
0.0
 43
0.0
 44
0.0
 45
0.0
 46
0.0
 47
0.0
 48
0.0
 49
0.0
140
0.0
141
0.0
142
1.0
143
1.0
 70
   688
 72
     0
 73
     0
 74
     5
  7

 75
    16
 76
     0
 77
     5
 78
   300
147
1.0
148
0.0
149
0.0
100
AcDbLayout
  1
Layout2
 70
     1
 71
     2
 10
0.0
 20
0.0
 11
0.0
 21
0.0
 12
0.0
 22
0.0
 32
0.0
 14
0.0
 24
0.0
 34
0.0
 15
0.0
 25
0.0
 35
0.0
146
0.0
 13
0.0
 23
0.0
 33
0.0
 16
1.0
 26
0.0
 36
0.0
 17
0.0
 27
1.0
 37
0.0
 76
     0
330
23
  0
LAYOUT
  5
22
102
{ACAD_REACTORS
330
1A
102
}
330
1A
100
AcDbPlotSettings
  1

  2
none_device
  4

  6

 40
0.0
 41
0.0
 42
0.0
 43
0.0
 44
0.0
 45
0.0
 46
0.0
 47
0.0
 48
0.0
 49
0.0
140
0.0
141
0.0
142
1.0
143
1.0
 70
  1712
 72
     0
 73
     0
 74
     0
  7

 75
     0
 76
     0
 77
     5
 78
   300
147
1.0
148
0.0
149
0.0
100
AcDbLayout
  1
Model
 70
     1
 71
     0
 10
-6300.0
 20
-4455.0
 11
6300.0
 21
4455.0
 12
0.0
 22
0.0
 32
0.0
 14
-6300.0
 24
-4455.0
 34
0.0
 15
6300.0
 25
4455.0
 35
0.0
146
0.0
 13
0.0
 23
0.0
 33
0.0
 16
1.0
 26
0.0
 36
0.0
 17
0.0
 27
1.0
 37
0.0
 76
     0
330
1F
331
29
  0
MATERIAL
  5
3D
102
{ACAD_REACTORS
330
3B
102
}
330
3B
100
AcDbMaterial
  1
ByBlock
 72
     1
 94
      127
  0
MATERIAL
  5
3C
102
{ACAD_REACTORS
330
3B
102
}
330
3B
100
AcDbMaterial
  1
ByLayer
 72
     1
 94
      127
  0
MATERIAL
  5
3E
102
{ACAD_REACTORS
330
3B
102
}
330
3B
100
AcDbMaterial
  1
Global
 72
     1
 94
      127
  0
MLINESTYLE
  5
18
102
{ACAD_REACTORS
330
17
102
}
330
17
100
AcDbMlineStyle
  2
Standard
 70
     0
  3

 62
   256
 51
90.0
 52
90.0
 71
     2
 49
0.5
 62
   256
  6
BYLAYER
 49
-0.5
 62
   256
  6
BYLAYER
  0
ACDBPLACEHOLDER
  5
F
102
{ACAD_REACTORS
330
E
102
}
330
E
  0
VISUALSTYLE
  5
2F
102
{ACAD_REACTORS
330
2A
102
}
330
2A
100
AcDbVisualStyle
  2
2dWireframe
 70
     4
177
     2
291
     0
 71
     0
176
     1
 72
     2
176
     1
 73
     0
176
     1
 90
        0
176
     1
 40
-0.6
176
     1
 41
-30.0
176
     1
 62
     5
 63
     7
421
 16777215
176
     1
 74
     1
176
     1
 91
        4
176
     1
 64
     7
176
     1
 65
   257
176
     1
 75
     1
176
     1
175
     1
176
     1
 42
1.0
176
     1
 92
        0
176
     1
 66
   257
176
     1
 43
1.0
176
     1
 76
     1
176
     1
 77
     6
176
     1
 78
     2
176
     1
 67
     7
176
     1
 79
     5
176
     1
170
     0
176
     1
171
     0
176
     1
290
     0
176
     1
 93
        1
176
     1
 44
0.0
176
     1
173
     0
176
     1
  0
VISUALSTYLE
  5
31
102
{ACAD_REACTORS
330
2A
102
}
330
2A
100
AcDbVisualStyle
  2
3D Hidden
 70
     6
177
     2
291
     0
 71
     1
176
     1
 72
     2
176
     1
 73
     2
176
     1
 90
        0
176
     1
 40
-0.6
176
     1
 41
-30.0
176
     1
 62
     5
 63
     7
421
 16777215
176
     1
 74
     2
176
     1
 91
        2
176
     1
 64
     7
176
     1
 65
   257
176
     1
 75
     2
176
     1
175
     1
176
     1
 42
40.0
176
     1
 92
        0
176
     1
 66
   257
176
     1
 43
1.0
176
     1
 76
     1
176
     1
 77
     6
176
     1
 78
     2
176
     1
 67
     7
176
     1
 79
     3
176
     1
170
     0
176
     1
171
     0
176
     1
290
     0
176
     1
 93
        1
176
     1
 44
0.0
176
     1
173
     0
176
     1
  0
VISUALSTYLE
  5
30
102
{ACAD_REACTORS
330
2A
102
}
330
2A
100
AcDbVisualStyle
  2
3dWireframe
 70
     5
177
     2
291
     0
 71
     0
176
     1
 72
     2
176
     1
 73
     0
176
     1
 90
        0
176
     1
 40
-0.6
176
     1
 41
-30.0
176
     1
 62
     5
 63
     7
421
 16777215
176
     1
 74
     1
176
     1
 91
        4
176
     1
 64
     7
176
     1
 65
   257
176
     1
 75
     1
176
     1
175
     1
176
     1
 42
1.0
176
     1
 92
        0
176
     1
 66
   257
176
     1
 43
1.0
176
     1
 76
     1
176
     1
 77
     6
176
     1
 78
     2
176
     1
 67
     7
176
     1
 79
     5
176
     1
170
     0
176
     1
171
     0
176
     1
290
     0
176
     1
 93
        1
176
     1
 44
0.0
176
     1
173
     0
176
     1
  0
VISUALSTYLE
  5
32
102
{ACAD_REACTORS
330
2A
102
}
330
2A
100
AcDbVisualStyle
  2
Basic
 70
     7
177
     2
291
     1
 71
     1
176
     1
 72
     0
176
     1
 73
     1
176
     1
 90
        0
176
     1
 40
-0.6
176
     1
 41
-30.0
176
     1
 62
     5
 63
     7
421
 16777215
176
     1
 74
     0
176
     1
 91
        4
176
     1
 64
     7
176
     1
 65
   257
176
     1
 75
     1
176
     1
175
     1
176
     1
 42
1.0
176
     1
 92
        8
176
     1
 66
     7
176
     1
 43
1.0
176
     1
 76
     1
176
     1
 77
     6
176
     1
 78
     2
176
     1
 67
     7
176
     1
 79
     5
176
     1
170
     0
176
     1
171
     0
176
     1
290
     0
176
     1
 93
        1
176
     1
 44
0.0
176
     1
173
     0
176
     1
  0
VISUALSTYLE
  5
36
102
{ACAD_REACTORS
330
2A
102
}
330
2A
100
AcDbVisualStyle
  2
Brighten
 70
    12
177
     2
291
     1
 71
     2
176
     1
 72
     2
176
     1
 73
     0
176
     1
 90
        0
176
     1
 40
-0.6
176
     1
 41
-30.0
176
     1
 62
     5
 63
     7
421
 16777215
176
     1
 74
     1
176
     1
 91
        4
176
     1
 64
     7
176
     1
 65
   257
176
     1
 75
     1
176
     1
175
     1
176
     1
 42
1.0
176
     1
 92
        8
176
     1
 66
     7
176
     1
 43
1.0
176
     1
 76
     1
176
     1
 77
     6
176
     1
 78
     2
176
     1
 67
     7
176
     1
 79
     5
176
     1
170
     0
176
     1
171
     0
176
     1
290
     0
176
     1
 93
        1
176
     1
 44
50.0
176
     1
173
     0
176
     1
  0
VISUALSTYLE
  5
3A
102
{ACAD_REACTORS
330
2A
102
}
330
2A
100
AcDbVisualStyle
  2
ColorChange
 70
    16
177
     2
291
     1
 71
     2
176
     1
 72
     2
176
     1
 73
     3
176
     1
 90
        0
176
     1
 40
-0.6
176
     1
 41
-30.0
176
     1
 62
     5
 63
     8
421
  8421504
176
     1
 74
     1
176
     1
 91
        4
176
     1
 64
     7
176
     1
 65
   257
176
     1
 75
     1
176
     1
175
     1
176
     1
 42
1.0
176
     1
 92
        8
176
     1
 66
     8
424
  8421504
176
     1
 43
1.0
176
     1
 76
     1
176
     1
 77
     6
176
     1
 78
     2
176
     1
 67
     7
176
     1
 79
     5
176
     1
170
     0
176
     1
171
     0
176
     1
290
     0
176
     1
 93
        1
176
     1
 44
0.0
176
     1
173
     0
176
     1
  0
VISUALSTYLE
  5
34
102
{ACAD_REACTORS
330
2A
102
}
330
2A
100
AcDbVisualStyle
  2
Conceptual
 70
     9
177
     2
291
     0
 71
     3
176
     1
 72
     2
176
     1
 73
     0
176
     1
 90
        0
176
     1
 40
-0.6
176
     1
 41
-30.0
176
     1
 62
     5
 63
     7
421
 16777215
176
     1
 74
     2
176
     1
 91
        2
176
     1
 64
     7
176
     1
 65
   257
176
     1
 75
     1
176
     1
175
     1
176
     1
 42
40.0
176
     1
 92
        8
176
     1
 66
     7
176
     1
 43
1.0
176
     1
 76
     1
176
     1
 77
     6
176
     1
 78
     2
176
     1
 67
     7
176
     1
 79
     3
176
     1
170
     0
176
     1
171
     0
176
     1
290
     0
176
     1
 93
        1
176
     1
 44
0.0
176
     1
173
     0
176
     1
  0
VISUALSTYLE
  5
35
102
{ACAD_REACTORS
330
2A
102
}
330
2A
100
AcDbVisualStyle
  2
Dim
 70
    11
177
     2
291
     1
 71
     2
176
     1
 72
     2
176
     1
 73
     0
176
     1
 90
        0
176
     1
 40
-0.6
176
     1
 41
-30.0
176
     1
 62
     5
 63
     7
421
 16777215
176
     1
 74
     1
176
     1
 91
        4
176
     1
 64
     7
176
     1
 65
   257
176
     1
 75
     1
176
     1
175
     1
176
     1
 42
1.0
176
     1
 92
        8
176
     1
 66
     7
176
     1
 43
1.0
176
     1
 76
     1
176
     1
 77
     6
176
     1
 78
     2
176
     1
 67
     7
176
     1
 79
     5
176
     1
170
     0
176
     1
171
     0
176
     1
290
     0
176
     1
 93
        1
176
     1
 44
-50.0
176
     1
173
     0
176
     1
  0
VISUALSTYLE
  5
39
102
{ACAD_REACTORS
330
2A
102
}
330
2A
100
AcDbVisualStyle
  2
Facepattern
 70
    15
177
     2
291
     1
 71
     2
176
     1
 72
     2
176
     1
 73
     0
176
     1
 90
        0
176
     1
 40
-0.6
176
     1
 41
-30.0
176
     1
 62
     5
 63
     7
421
 16777215
176
     1
 74
     1
176
     1
 91
        4
176
     1
 64
     7
176
     1
 65
   257
176
     1
 75
     1
176
     1
175
     1
176
     1
 42
1.0
176
     1
 92
        8
176
     1
 66
     7
176
     1
 43
1.0
176
     1
 76
     1
176
     1
 77
     6
176
     1
 78
     2
176
     1
 67
     7
176
     1
 79
     5
176
     1
170
     0
176
     1
171
     0
176
     1
290
     0
176
     1
 93
        1
176
     1
 44
0.0
176
     1
173
     0
176
     1
  0
VISUALSTYLE
  5
2B
102
{ACAD_REACTORS
330
2A
102
}
330
2A
100
AcDbVisualStyle
  2
Flat
 70
     0
177
     2
291
     1
 71
     2
176
     1
 72
     1
176
     1
 73
     1
176
     1
 90
        2
176
     1
 40
-0.6
176
     1
 41
30.0
176
     1
 62
     5
 63
     7
421
 16777215
176
     1
 74
     0
176
     1
 91
        4
176
     1
 64
     7
176
     1
 65
   257
176
     1
 75
     1
176
     1
175
     1
176
     1
 42
1.0
176
     1
 92
        8
176
     1
 66
     7
176
     1
 43
1.0
176
     1
 76
     1
176
     1
 77
     6
176
     1
 78
     2
176
     1
 67
     7
176
     1
 79
     5
176
     1
170
     0
176
     1
171
     0
176
     1
290
     0
176
     1
 93
       13
176
     1
 44
0.0
176
     1
173
     0
176
     1
  0
VISUALSTYLE
  5
2C
102
{ACAD_REACTORS
330
2A
102
}
330
2A
100
AcDbVisualStyle
  2
FlatWithEdges
 70
     1
177
     2
291
     1
 71
     2
176
     1
 72
     1
176
     1
 73
     1
176
     1
 90
        2
176
     1
 40
-0.6
176
     1
 41
30.0
176
     1
 62
     5
 63
     7
421
 16777215
176
     1
 74
     1
176
     1
 91
        4
176
     1
 64
     7
176
     1
 65
   257
176
     1
 75
     1
176
     1
175
     1
176
     1
 42
1.0
176
     1
 92
        0
176
     1
 66
   257
176
     1
 43
1.0
176
     1
 76
     1
176
     1
 77
     6
176
     1
 78
     2
176
     1
 67
     7
176
     1
 79
     5
176
     1
170
     0
176
     1
171
     0
176
     1
290
     0
176
     1
 93
       13
176
     1
 44
0.0
176
     1
173
     0
176
     1
  0
VISUALSTYLE
  5
2D
102
{ACAD_REACTORS
330
2A
102
}
330
2A
100
AcDbVisualStyle
  2
Gouraud
 70
     2
177
     2
291
     1
 71
     2
176
     1
 72
     2
176
     1
 73
     1
176
     1
 90
        2
176
     1
 40
-0.6
176
     1
 41
30.0
176
     1
 62
     5
 63
     7
421
 16777215
176
     1
 74
     0
176
     1
 91
        4
176
     1
 64
     7
176
     1
 65
   257
176
     1
 75
     1
176
     1
175
     1
176
     1
 42
1.0
176
     1
 92
        0
176
     1
 66
     7
176
     1
 43
1.0
176
     1
 76
     1
176
     1
 77
     6
176
     1
 78
     2
176
     1
 67
     7
176
     1
 79
     5
176
     1
170
     0
176
     1
171
     0
176
     1
290
     0
176
     1
 93
       13
176
     1
 44
0.0
176
     1
173
     0
176
     1
  0
VISUALSTYLE
  5
2E
102
{ACAD_REACTORS
330
2A
102
}
330
2A
100
AcDbVisualStyle
  2
GouraudWithEdges
 70
     3
177
     2
291
     1
 71
     2
176
     1
 72
     2
176
     1
 73
     1
176
     1
 90
        2
176
     1
 40
-0.6
176
     1
 41
30.0
176
     1
 62
     5
 63
     7
421
 16777215
176
     1
 74
     1
176
     1
 91
        4
176
     1
 64
     7
176
     1
 65
   257
176
     1
 75
     1
176
     1
175
     1
176
     1
 42
1.0
176
     1
 92
        0
176
     1
 66
   257
176
     1
 43
1.0
176
     1
 76
     1
176
     1
 77
     6
176
     1
 78
     2
176
     1
 67
     7
176
     1
 79
     5
176
     1
170
     0
176
     1
171
     0
176
     1
290
     0
176
     1
 93
       13
176
     1
 44
0.0
176
     1
173
     0
176
     1
  0
VISUALSTYLE
  5
38
102
{ACAD_REACTORS
330
2A
102
}
330
2A
100
AcDbVisualStyle
  2
Linepattern
 70
    14
177
     2
291
     1
 71
     2
176
     1
 72
     2
176
     1
 73
     0
176
     1
 90
        0
176
     1
 40
-0.6
176
     1
 41
-30.0
176
     1
 62
     5
 63
     7
421
 16777215
176
     1
 74
     1
176
     1
 91
        4
176
     1
 64
     7
176
     1
 65
   257
176
     1
 75
     7
176
     1
175
     7
176
     1
 42
1.0
176
     1
 92
        8
176
     1
 66
     7
176
     1
 43
1.0
176
     1
 76
     1
176
     1
 77
     6
176
     1
 78
     2
176
     1
 67
     7
176
     1
 79
     5
176
     1
170
     0
176
     1
171
     0
176
     1
290
     0
176
     1
 93
        1
176
     1
 44
0.0
176
     1
173
     0
176
     1
  0
VISUALSTYLE
  5
33
102
{ACAD_REACTORS
330
2A
102
}
330
2A
100
AcDbVisualStyle
  2
Realistic
 70
     8
177
     2
291
     0
 71
     2
176
     1
 72
     2
176
     1
 73
     0
176
     1
 90
        0
176
     1
 40
-0.6
176
     1
 41
-30.0
176
     1
 62
     5
 63
     7
421
 16777215
176
     1
 74
     1
176
     1
 91
        0
176
     1
 64
     7
176
     1
 65
   257
176
     1
 75
     1
176
     1
175
     1
176
     1
 42
1.0
176
     1
 92
        8
176
     1
 66
     8
424
  7895160
176
     1
 43
1.0
176
     1
 76
     1
176
     1
 77
     6
176
     1
 78
     2
176
     1
 67
     7
176
     1
 79
     5
176
     1
170
     0
176
     1
171
     0
176
     1
290
     0
176
     1
 93
       13
176
     1
 44
0.0
176
     1
173
     0
176
     1
  0
VISUALSTYLE
  5
37
102
{ACAD_REACTORS
330
2A
102
}
330
2A
100
AcDbVisualStyle
  2
Thicken
 70
    13
177
     2
291
     1
 71
     2
176
     1
 72
     2
176
     1
 73
     0
176
     1
 90
        0
176
     1
 40
-0.6
176
     1
 41
-30.0
176
     1
 62
     5
 63
     7
421
 16777215
176
     1
 74
     1
176
     1
 91
        4
176
     1
 64
     7
176
     1
 65
   257
176
     1
 75
     1
176
     1
175
     1
176
     1
 42
1.0
176
     1
 92
       12
176
     1
 66
     7
176
     1
 43
1.0
176
     1
 76
     1
176
     1
 77
     6
176
     1
 78
     2
176
     1
 67
     7
176
     1
 79
     5
176
     1
170
     0
176
     1
171
     0
176
     1
290
     0
176
     1
 93
        1
176
     1
 44
0.0
176
     1
173
     0
176
     1
  0
ENDSEC
  0
EOF
