  0
SECTION
  2
HEADER
  9
$ACADVER
  1
AC1024
  9
$ACADMAINTVER
 70
     6
  9
$DWGCODEPAGE
  3
ANSI_932
  9
$INSBASE
 10
0.0
 20
0.0
 30
0.0
  9
$EXTMIN
 10
-6300.0
 20
-4455.0
 30
0.0
  9
$EXTMAX
 10
6300.0
 20
4455.0
 30
0.0
  9
$LIMMIN
 10
-6300.0
 20
-4455.0
  9
$LIMMAX
 10
6300.0
 20
4455.0
  9
$ORTHOMODE
 70
     0
  9
$REGENMODE
 70
     1
  9
$FILLMODE
 70
     1
  9
$QTEXTMODE
 70
     0
  9
$MIRRTEXT
 70
     1
  9
$LTSCALE
 40
30.0
  9
$ATTMODE
 70
     1
  9
$TEXTSIZE
 40
2.5
  9
$TRACEWID
 40
1.0
  9
$TEXTSTYLE
  7
Standard
  9
$CLAYER
  8
0
  9
$CELTYPE
  6
ByLayer
  9
$CECOLOR
 62
   256
  9
$CELTSCALE
 40
1.0
  9
$DISPSILH
 70
     0
  9
$DIMSCALE
 40
1.0
  9
$DIMASZ
 40
2.5
  9
$DIMEXO
 40
0.625
  9
$DIMDLI
 40
3.75
  9
$DIMRND
 40
0.0
  9
$DIMDLE
 40
0.0
  9
$DIMEXE
 40
1.25
  9
$DIMTP
 40
0.0
  9
$DIMTM
 40
0.0
  9
$DIMTXT
 40
2.5
  9
$DIMCEN
 40
2.5
  9
$DIMTSZ
 40
0.0
  9
$DIMTOL
 70
     0
  9
$DIMLIM
 70
     0
  9
$DIMTIH
 70
     0
  9
$DIMTOH
 70
     0
  9
$DIMSE1
 70
     0
  9
$DIMSE2
 70
     0
  9
$DIMTAD
 70
     1
  9
$DIMZIN
 70
     8
  9
$DIMBLK
  1

  9
$DIMASO
 70
     1
  9
$DIMSHO
 70
     1
  9
$DIMPOST
  1

  9
$DIMAPOST
  1

  9
$DIMALT
 70
     0
  9
$DIMALTD
 70
     3
  9
$DIMALTF
 40
0.03937007874016
  9
$DIMLFAC
 40
1.0
  9
$DIMTOFL
 70
     1
  9
$DIMTVP
 40
0.0
  9
$DIMTIX
 70
     0
  9
$DIMSOXD
 70
     0
  9
$DIMSAH
 70
     0
  9
$DIMBLK1
  1

  9
$DIMBLK2
  1

  9
$DIMSTYLE
  2
ISO-25
  9
$DIMCLRD
 70
     0
  9
$DIMCLRE
 70
     0
  9
$DIMCLRT
 70
     0
  9
$DIMTFAC
 40
1.0
  9
$DIMGAP
 40
0.625
  9
$DIMJUST
 70
     0
  9
$DIMSD1
 70
     0
  9
$DIMSD2
 70
     0
  9
$DIMTOLJ
 70
     0
  9
$DIMTZIN
 70
     8
  9
$DIMALTZ
 70
     0
  9
$DIMALTTZ
 70
     0
  9
$DIMUPT
 70
     0
  9
$DIMDEC
 70
     2
  9
$DIMTDEC
 70
     2
  9
$DIMALTU
 70
     2
  9
$DIMALTTD
 70
     3
  9
$DIMTXSTY
  7
Standard
  9
$DIMAUNIT
 70
     0
  9
$DIMADEC
 70
     0
  9
$DIMALTRND
 40
0.0
  9
$DIMAZIN
 70
     0
  9
$DIMDSEP
 70
    44
  9
$DIMATFIT
 70
     3
  9
$DIMFRAC
 70
     0
  9
$DIMLDRBLK
  1

  9
$DIMLUNIT
 70
     2
  9
$DIMLWD
 70
    -2
  9
$DIMLWE
 70
    -2
  9
$DIMTMOVE
 70
     0
  9
$DIMFXL
 40
1.0
  9
$DIMFXLON
 70
     0
  9
$DIMJOGANG
 40
0.7853981633974483
  9
$DIMTFILL
 70
     0
  9
$DIMTFILLCLR
 70
     0
  9
$DIMARCSYM
 70
     0
  9
$DIMLTYPE
  6

  9
$DIMLTEX1
  6

  9
$DIMLTEX2
  6

  9
$DIMTXTDIRECTION
 70
     0
  9
$LUNITS
 70
     2
  9
$LUPREC
 70
     4
  9
$SKETCHINC
 40
1.0
  9
$FILLETRAD
 40
10.0
  9
$AUNITS
 70
     0
  9
$AUPREC
 70
     0
  9
$MENU
  1
.
  9
$ELEVATION
 40
0.0
  9
$PELEVATION
 40
0.0
  9
$THICKNESS
 40
0.0
  9
$LIMCHECK
 70
     0
  9
$CHAMFERA
 40
10.0
  9
$CHAMFERB
 40
10.0
  9
$CHAMFERC
 40
20.0
  9
$CHAMFERD
 40
0.0
  9
$SKPOLY
 70
     0
  9
$TDCREATE
 40
2460327.684649745
  9
$TDUCREATE
 40
2460327.309649745
  9
$TDUPDATE
 40
2460327.684649757
  9
$TDUUPDATE
 40
2460327.309649757
  9
$TDINDWG
 40
0.0000000116
  9
$TDUSRTIMER
 40
0.0000000116
  9
$USRTIMER
 70
     1
  9
$ANGBASE
 50
0.0
  9
$ANGDIR
 70
     0
  9
$PDMODE
 70
     0
  9
$PDSIZE
 40
0.0
  9
$PLINEWID
 40
0.0
  9
$SPLFRAME
 70
     0
  9
$SPLINETYPE
 70
     6
  9
$SPLINESEGS
 70
     8
  9
$HANDSEED
  5
469
  9
$SURFTAB1
 70
     6
  9
$SURFTAB2
 70
     6
  9
$SURFTYPE
 70
     6
  9
$SURFU
 70
     6
  9
$SURFV
 70
     6
  9
$UCSBASE
  2

  9
$UCSNAME
  2

  9
$UCSORG
 10
0.0
 20
0.0
 30
0.0
  9
$UCSXDIR
 10
1.0
 20
0.0
 30
0.0
  9
$UCSYDIR
 10
0.0
 20
1.0
 30
0.0
  9
$UCSORTHOREF
  2

  9
$UCSORTHOVIEW
 70
     0
  9
$UCSORGTOP
 10
0.0
 20
0.0
 30
0.0
  9
$UCSORGBOTTOM
 10
0.0
 20
0.0
 30
0.0
  9
$UCSORGLEFT
 10
0.0
 20
0.0
 30
0.0
  9
$UCSORGRIGHT
 10
0.0
 20
0.0
 30
0.0
  9
$UCSORGFRONT
 10
0.0
 20
0.0
 30
0.0
  9
$UCSORGBACK
 10
0.0
 20
0.0
 30
0.0
  9
$PUCSBASE
  2

  9
$PUCSNAME
  2

  9
$PUCSORG
 10
0.0
 20
0.0
 30
0.0
  9
$PUCSXDIR
 10
1.0
 20
0.0
 30
0.0
  9
$PUCSYDIR
 10
0.0
 20
1.0
 30
0.0
  9
$PUCSORTHOREF
  2

  9
$PUCSORTHOVIEW
 70
     0
  9
$PUCSORGTOP
 10
0.0
 20
0.0
 30
0.0
  9
$PUCSORGBOTTOM
 10
0.0
 20
0.0
 30
0.0
  9
$PUCSORGLEFT
 10
0.0
 20
0.0
 30
0.0
  9
$PUCSORGRIGHT
 10
0.0
 20
0.0
 30
0.0
  9
$PUCSORGFRONT
 10
0.0
 20
0.0
 30
0.0
  9
$PUCSORGBACK
 10
0.0
 20
0.0
 30
0.0
  9
$USERI1
 70
     0
  9
$USERI2
 70
     0
  9
$USERI3
 70
     0
  9
$USERI4
 70
     0
  9
$USERI5
 70
     0
  9
$USERR1
 40
0.0
  9
$USERR2
 40
0.0
  9
$USERR3
 40
0.0
  9
$USERR4
 40
0.0
  9
$USERR5
 40
0.0
  9
$WORLDVIEW
 70
     1
  9
$SHADEDGE
 70
     3
  9
$SHADEDIF
 70
    70
  9
$TILEMODE
 70
     1
  9
$MAXACTVP
 70
    64
  9
$PINSBASE
 10
0.0
 20
0.0
 30
0.0
  9
$PLIMCHECK
 70
     0
  9
$PEXTMIN
 10
1.000000000000000E+20
 20
1.000000000000000E+20
 30
1.000000000000000E+20
  9
$PEXTMAX
 10
-1.000000000000000E+20
 20
-1.000000000000000E+20
 30
-1.000000000000000E+20
  9
$PLIMMIN
 10
0.0
 20
0.0
  9
$PLIMMAX
 10
420.0
 20
297.0
  9
$UNITMODE
 70
     0
  9
$VISRETAIN
 70
     1
  9
$PLINEGEN
 70
     0
  9
$PSLTSCALE
 70
     1
  9
$TREEDEPTH
 70
  3020
  9
$CMLSTYLE
  2
Standard
  9
$CMLJUST
 70
     0
  9
$CMLSCALE
 40
20.0
  9
$PROXYGRAPHICS
 70
     1
  9
$MEASUREMENT
 70
     1
  9
$CELWEIGHT
370
    -1
  9
$ENDCAPS
280
     0
  9
$JOINSTYLE
280
     0
  9
$LWDISPLAY
290
     0
  9
$INSUNITS
 70
     4
  9
$HYPERLINKBASE
  1

  9
$STYLESHEET
  1

  9
$XEDIT
290
     1
  9
$CEPSNTYPE
380
     0
  9
$PSTYLEMODE
290
     1
  9
$FINGERPRINTGUID
  2
{382CD558-E520-4AA1-80E3-DD16452AE2D7}
  9
$VERSIONGUID
  2
{FAEB1C32-E019-11D5-929B-00C0DF256EC4}
  9
$EXTNAMES
290
     1
  9
$PSVPSCALE
 40
0.0
  9
$OLESTARTUP
290
     0
  9
$SORTENTS
280
   127
  9
$INDEXCTL
280
     0
  9
$HIDETEXT
280
     1
  9
$XCLIPFRAME
280
     2
  9
$HALOGAP
280
     0
  9
$OBSCOLOR
 70
   257
  9
$OBSLTYPE
280
     0
  9
$INTERSECTIONDISPLAY
280
     0
  9
$INTERSECTIONCOLOR
 70
   257
  9
$DIMASSOC
280
     2
  9
$PROJECTNAME
  1

  9
$CAMERADISPLAY
290
     0
  9
$LENSLENGTH
 40
50.0
  9
$CAMERAHEIGHT
 40
0.0
  9
$STEPSPERSEC
 40
2.0
  9
$STEPSIZE
 40
6.0
  9
$3DDWFPREC
 40
2.0
  9
$PSOLWIDTH
 40
5.0
  9
$PSOLHEIGHT
 40
80.0
  9
$LOFTANG1
 40
1.570796326794897
  9
$LOFTANG2
 40
1.570796326794897
  9
$LOFTMAG1
 40
0.0
  9
$LOFTMAG2
 40
0.0
  9
$LOFTPARAM
 70
     7
  9
$LOFTNORMALS
280
     1
  9
$LATITUDE
 40
37.795
  9
$LONGITUDE
 40
-122.394
  9
$NORTHDIRECTION
 40
0.0
  9
$TIMEZONE
 70
 -8000
  9
$LIGHTGLYPHDISPLAY
280
     1
  9
$TILEMODELIGHTSYNCH
280
     1
  9
$SOLIDHIST
280
     1
  9
$SHOWHIST
280
     1
  9
$DWFFRAME
280
     2
  9
$DGNFRAME
280
     2
  9
$REALWORLDSCALE
290
     1
  9
$INTERFERECOLOR
 62
   256
  9
$CSHADOW
280
     0
  9
$SHADOWPLANELOCATION
 40
0.0
  0
ENDSEC
  0
SECTION
  2
CLASSES
  0
CLASS
  1
ACDBDICTIONARYWDFLT
  2
AcDbDictionaryWithDefault
  3
ObjectDBX Classes
 90
        0
 91
        4
280
     0
281
     0
  0
CLASS
  1
VISUALSTYLE
  2
AcDbVisualStyle
  3
ObjectDBX Classes
 90
     4095
 91
        4
280
     0
281
     0
  0
CLASS
  1
MATERIAL
  2
AcDbMaterial
  3
ObjectDBX Classes
 90
     1153
 91
        4
280
     0
281
     0
  0
ENDSEC
  0
SECTION
  2
TABLES
  0
TABLE
  2
VPORT
  5
8
330
0
100
AcDbSymbolTable
 70
     1
  0
VPORT
  5
29
330
8
100
AcDbSymbolTableRecord
100
AcDbViewportTableRecord
  2
*Active
 70
     0
 10
0.0
 20
0.0
 11
1.0
 21
1.0
 12
0.0
 22
0.0
 13
0.0
 23
0.0
 14
10.0
 24
10.0
 15
10.0
 25
10.0
 16
0.0
 26
0.0
 36
1.0
 17
0.0
 27
0.0
 37
0.0
 40
9801.0
 41
1.414141414141414
 42
50.0
 43
0.0
 44
0.0
 50
0.0
 51
0.0
 71
     0
 72
 10000
 73
     1
 74
     3
 75
     0
 76
     0
 77
     0
 78
     0
281
     0
 65
     1
110
0.0
120
0.0
130
0.0
111
1.0
121
0.0
131
0.0
112
0.0
122
1.0
132
0.0
 79
     0
146
0.0
 60
     3
 61
     5
292
     1
282
     1
141
0.0
142
0.0
 63
   250
  0
ENDTAB
  0
TABLE
  2
LTYPE
  5
5
330
0
100
AcDbSymbolTable
 70
     5
  0
LTYPE
  5
14
330
5
100
AcDbSymbolTableRecord
100
AcDbLinetypeTableRecord
  2
ByBlock
 70
     0
  3

 72
    65
 73
     0
 40
0.0
  0
LTYPE
  5
15
330
5
100
AcDbSymbolTableRecord
100
AcDbLinetypeTableRecord
  2
ByLayer
 70
     0
  3

 72
    65
 73
     0
 40
0.0
  0
LTYPE
  5
16
330
5
100
AcDbSymbolTableRecord
100
AcDbLinetypeTableRecord
  2
Continuous
 70
     0
  3
Solid line
 72
    65
 73
     0
 40
0.0
  0
LTYPE
  5
3F
330
5
100
AcDbSymbolTableRecord
100
AcDbLinetypeTableRecord
  2
JWW_HOJO
 70
     0
  3
  -   -   -   -   -   -   -   - 
 72
    65
 73
     2
 40
1.693333333333333
 49
-1.27
 74
     0
 49
0.4233333333333333
 74
     0
  0
LTYPE
  5
40
330
5
100
AcDbSymbolTableRecord
100
AcDbLinetypeTableRecord
  2
JWW_CENTER1
 70
     0
  3
-----  --  ----------  --  -----
 72
    65
 73
     4
 40
6.773333333333333
 49
4.233333333333333
 74
     0
 49
-0.8466666666666667
 74
     0
 49
0.8466666666666667
 74
     0
 49
-0.8466666666666667
 74
     0
  0
LTYPE
  5
41
330
5
100
AcDbSymbolTableRecord
100
AcDbLinetypeTableRecord
  2
JWW_DASHED1
 70
     0
  3
-  --  --  --  --  --  --  --  -
 72
    65
 73
     2
 40
1.693333333333333
 49
0.8466666666666667
 74
     0
 49
-0.8466666666666667
 74
     0
  0
LTYPE
  5
42
330
5
100
AcDbSymbolTableRecord
100
AcDbLinetypeTableRecord
  2
JWW_DASHED2
 70
     0
  3
--    ----    ----    ----    --
 72
    65
 73
     2
 40
3.386666666666667
 49
1.693333333333333
 74
     0
 49
-1.693333333333333
 74
     0
  0
ENDTAB
  0
TABLE
  2
LAYER
  5
2
330
0
100
AcDbSymbolTable
 70
    23
  0
LAYER
  5
10
330
2
100
AcDbSymbolTableRecord
100
AcDbLayerTableRecord
  2
0
 70
     0
 62
     7
  6
Continuous
370
    -3
390
F
347
3E
  0
LAYER
  5
43
330
2
100
AcDbSymbolTableRecord
100
AcDbLayerTableRecord
  2
0-0_補助線
 70
     0
 62
     7
  6
Continuous
370
    -3
390
F
347
3E
  0
LAYER
  5
44
330
2
100
AcDbSymbolTableRecord
100
AcDbLayerTableRecord
  2
0-1_通り芯
 70
     0
 62
     7
  6
Continuous
370
    -3
390
F
347
3E
  0
LAYER
  5
45
330
2
100
AcDbSymbolTableRecord
100
AcDbLayerTableRecord
  2
0-C_ハッチ
 70
     0
 62
     7
  6
Continuous
370
    -3
390
F
347
3E
  0
LAYER
  5
46
330
2
100
AcDbSymbolTableRecord
100
AcDbLayerTableRecord
  2
0-4_枠
 70
     0
 62
     7
  6
Continuous
370
    -3
390
F
347
3E
  0
LAYER
  5
47
330
2
100
AcDbSymbolTableRecord
100
AcDbLayerTableRecord
  2
0-7_金物
 70
     0
 62
     7
  6
Continuous
370
    -3
390
F
347
3E
  0
LAYER
  5
48
330
2
100
AcDbSymbolTableRecord
100
AcDbLayerTableRecord
  2
0-3_仕上げ
 70
     0
 62
     7
  6
Continuous
370
    -3
390
F
347
3E
  0
LAYER
  5
49
330
2
100
AcDbSymbolTableRecord
100
AcDbLayerTableRecord
  2
0-B_寸法
 70
     0
 62
     7
  6
Continuous
370
    -3
390
F
347
3E
  0
LAYER
  5
4A
330
2
100
AcDbSymbolTableRecord
100
AcDbLayerTableRecord
  2
0-6_扉
 70
     0
 62
     7
  6
Continuous
370
    -3
390
F
347
3E
  0
LAYER
  5
4B
330
2
100
AcDbSymbolTableRecord
100
AcDbLayerTableRecord
  2
0-A_文字
 70
     0
 62
     7
  6
Continuous
370
    -3
390
F
347
3E
  0
LAYER
  5
4C
330
2
100
AcDbSymbolTableRecord
100
AcDbLayerTableRecord
  2
F-0_補助線
 70
     0
 62
     7
  6
Continuous
370
    -3
390
F
347
3E
  0
LAYER
  5
4D
330
2
100
AcDbSymbolTableRecord
100
AcDbLayerTableRecord
  2
F-1_枠
 70
     0
 62
     7
  6
Continuous
370
    -3
390
F
347
3E
  0
LAYER
  5
4E
330
2
100
AcDbSymbolTableRecord
100
AcDbLayerTableRecord
  2
F-A_文字
 70
     0
 62
     7
  6
Continuous
370
    -3
390
F
347
3E
  0
LAYER
  5
4F
330
2
100
AcDbSymbolTableRecord
100
AcDbLayerTableRecord
  2
戸当り
 70
     0
 62
     7
  6
Continuous
370
    -3
390
F
347
3E
  0
LAYER
  5
50
330
2
100
AcDbSymbolTableRecord
100
AcDbLayerTableRecord
  2
1-A_文字
 70
     0
 62
     7
  6
Continuous
370
    -3
390
F
347
3E
  0
LAYER
  5
51
330
2
100
AcDbSymbolTableRecord
100
AcDbLayerTableRecord
  2
1-3_仕上げ
 70
     0
 62
     7
  6
Continuous
370
    -3
390
F
347
3E
  0
LAYER
  5
52
330
2
100
AcDbSymbolTableRecord
100
AcDbLayerTableRecord
  2
1-0_補助線
 70
     0
 62
     7
  6
Continuous
370
    -3
390
F
347
3E
  0
LAYER
  5
53
330
2
100
AcDbSymbolTableRecord
100
AcDbLayerTableRecord
  2
1-B_寸法
 70
     0
 62
     7
  6
Continuous
370
    -3
390
F
347
3E
  0
LAYER
  5
54
330
2
100
AcDbSymbolTableRecord
100
AcDbLayerTableRecord
  2
1-C_ハッチ
 70
     0
 62
     7
  6
Continuous
370
    -3
390
F
347
3E
  0
LAYER
  5
55
330
2
100
AcDbSymbolTableRecord
100
AcDbLayerTableRecord
  2
1-7_金物
 70
     0
 62
     7
  6
Continuous
370
    -3
390
F
347
3E
  0
LAYER
  5
56
330
2
100
AcDbSymbolTableRecord
100
AcDbLayerTableRecord
  2
2-4_枠
 70
     0
 62
     7
  6
Continuous
370
    -3
390
F
347
3E
  0
LAYER
  5
57
330
2
100
AcDbSymbolTableRecord
100
AcDbLayerTableRecord
  2
2-B_寸法
 70
     0
 62
     7
  6
Continuous
370
    -3
390
F
347
3E
  0
LAYER
  5
58
330
2
100
AcDbSymbolTableRecord
100
AcDbLayerTableRecord
  2
2-0_補助線
 70
     0
 62
     7
  6
Continuous
370
    -3
390
F
347
3E
  0
ENDTAB
  0
TABLE
  2
STYLE
  5
3
330
0
100
AcDbSymbolTable
 70
     1
  0
STYLE
  5
11
330
3
100
AcDbSymbolTableRecord
100
AcDbTextStyleTableRecord
  2
Standard
 70
     0
 40
0.0
 41
1.0
 50
0.0
 71
     0
 42
2.5
  3
txt
  4

  0
ENDTAB
  0
TABLE
  2
VIEW
  5
6
330
0
100
AcDbSymbolTable
 70
     0
  0
ENDTAB
  0
TABLE
  2
UCS
  5
7
330
0
100
AcDbSymbolTable
 70
     0
  0
ENDTAB
  0
TABLE
  2
APPID
  5
9
330
0
100
AcDbSymbolTable
 70
     1
  0
APPID
  5
12
330
9
100
AcDbSymbolTableRecord
100
AcDbRegAppTableRecord
  2
ACAD
 70
     0
  0
ENDTAB
  0
TABLE
  2
DIMSTYLE
  5
A
330
0
100
AcDbSymbolTable
 70
     1
100
AcDbDimStyleTable
  0
DIMSTYLE
105
27
330
A
100
AcDbSymbolTableRecord
100
AcDbDimStyleTableRecord
  2
ISO-25
 70
     0
 41
2.5
 42
0.625
 43
3.75
 44
1.25
 73
     0
 74
     0
 77
     1
 78
     8
140
2.5
141
2.5
143
0.03937007874016
147
0.625
171
     3
172
     1
178
     0
271
     2
272
     2
274
     3
278
    44
283
     0
284
     8
340
11
  0
ENDTAB
  0
TABLE
  2
BLOCK_RECORD
  5
1
330
0
100
AcDbSymbolTable
 70
     2
  0
BLOCK_RECORD
  5
1F
330
1
100
AcDbSymbolTableRecord
100
AcDbBlockTableRecord
  2
*Model_Space
340
22
 70
     0
280
     1
281
     0
  0
BLOCK_RECORD
  5
1B
330
1
100
AcDbSymbolTableRecord
100
AcDbBlockTableRecord
  2
*Paper_Space
340
1E
 70
     0
280
     1
281
     0
  0
BLOCK_RECORD
  5
23
330
1
100
AcDbSymbolTableRecord
100
AcDbBlockTableRecord
  2
*Paper_Space0
340
26
 70
     0
280
     1
281
     0
  0
BLOCK_RECORD
  5
59
330
1
100
AcDbSymbolTableRecord
100
AcDbBlockTableRecord
  2
01@@SfigorgFlag@@4
340
0
102
{BLKREFS
331
30A
102
}
 70
     0
280
     1
281
     0
  0
ENDTAB
  0
ENDSEC
  0
SECTION
  2
BLOCKS
  0
BLOCK
  5
20
330
1F
100
AcDbEntity
  8
0
100
AcDbBlockBegin
  2
*Model_Space
 70
     0
 10
0.0
 20
0.0
 30
0.0
  3
*Model_Space
  1

  0
ENDBLK
  5
21
330
1F
100
AcDbEntity
  8
0
100
AcDbBlockEnd
  0
BLOCK
  5
1C
330
1B
100
AcDbEntity
 67
     1
  8
0
100
AcDbBlockBegin
  2
*Paper_Space
 70
     0
 10
0.0
 20
0.0
 30
0.0
  3
*Paper_Space
  1

  0
ENDBLK
  5
1D
330
1B
100
AcDbEntity
 67
     1
  8
0
100
AcDbBlockEnd
  0
BLOCK
  5
24
330
23
100
AcDbEntity
  8
0
100
AcDbBlockBegin
  2
*Paper_Space0
 70
     0
 10
0.0
 20
0.0
 30
0.0
  3
*Paper_Space0
  1

  0
ENDBLK
  5
25
330
23
100
AcDbEntity
  8
0
100
AcDbBlockEnd
  0
BLOCK
  5
5A
330
59
100
AcDbEntity
  8
0
100
AcDbBlockBegin
  2
01@@SfigorgFlag@@4
 70
     0
 10
0.0
 20
0.0
 30
0.0
  3
01@@SfigorgFlag@@4
  1

  0
LINE
  5
440
330
59
100
AcDbEntity
  8
0-0_補助線
  6
Continuous
 62
     7
370
     5
100
AcDbLine
 10
-4.25
 20
-1.491025641025665
 30
0.0
 11
-3.25
 21
-1.491025641025665
 31
0.0
  0
LINE
  5
441
330
59
100
AcDbEntity
  8
0-0_補助線
  6
Continuous
 62
     7
370
     5
100
AcDbLine
 10
-2.75
 20
-1.491025641025665
 30
0.0
 11
-0.1500000000000909
 21
-1.491025641025665
 31
0.0
  0
LINE
  5
442
330
59
100
AcDbEntity
  8
0-0_補助線
  6
Continuous
 62
     7
370
     5
100
AcDbLine
 10
-0.1500000000000909
 20
-1.491025641025665
 30
0.0
 11
0.0
 21
-1.641025641025642
 31
0.0
  0
LINE
  5
443
330
59
100
AcDbEntity
  8
0-0_補助線
  6
Continuous
 62
     7
370
     5
100
AcDbLine
 10
0.0
 20
-1.641025641025642
 30
0.0
 11
0.1500000000000909
 21
-1.491025641025665
 31
0.0
  0
LINE
  5
444
330
59
100
AcDbEntity
  8
0-0_補助線
  6
Continuous
 62
     7
370
     5
100
AcDbLine
 10
0.1500000000000909
 20
-1.491025641025665
 30
0.0
 11
2.75
 21
-1.491025641025665
 31
0.0
  0
LINE
  5
445
330
59
100
AcDbEntity
  8
0-0_補助線
  6
Continuous
 62
     7
370
     5
100
AcDbLine
 10
3.25
 20
-1.491025641025665
 30
0.0
 11
4.25
 21
-1.491025641025665
 31
0.0
  0
LINE
  5
446
330
59
100
AcDbEntity
  8
0-0_補助線
  6
Continuous
 62
     7
370
     5
100
AcDbLine
 10
7.849999999999909
 20
1.408974358974312
 30
0.0
 11
4.849999999999909
 21
1.408974358974312
 31
0.0
  0
LINE
  5
447
330
59
100
AcDbEntity
  8
0-0_補助線
  6
Continuous
 62
     7
370
     5
100
AcDbLine
 10
-4.849999999999909
 20
1.408974358974312
 30
0.0
 11
-7.849999999999909
 21
1.408974358974312
 31
0.0
  0
LINE
  5
448
330
59
100
AcDbEntity
  8
0-0_補助線
  6
Continuous
 62
     7
370
     5
100
AcDbLine
 10
-4.849999999999909
 20
2.008974358974335
 30
0.0
 11
-7.849999999999909
 21
1.70897435897438
 31
0.0
  0
ARC
  5
449
330
59
100
AcDbEntity
  8
0-0_補助線
  6
Continuous
 62
     7
370
     5
100
AcDbCircle
 10
-7.849999999999909
 20
1.558974358974403
 30
0.0
 40
0.15
100
AcDbArc
 50
90.0
 51
270.0
  0
ARC
  5
44A
330
59
100
AcDbEntity
  8
0-0_補助線
  6
Continuous
 62
     7
370
     5
100
AcDbCircle
 10
7.849999999999909
 20
1.558974358974403
 30
0.0
 40
0.15
100
AcDbArc
 50
270.0
 51
89.99999999999997
  0
LINE
  5
44B
330
59
100
AcDbEntity
  8
0-0_補助線
  6
Continuous
 62
     7
370
     5
100
AcDbLine
 10
7.849999999999909
 20
1.70897435897438
 30
0.0
 11
4.849999999999909
 21
2.008974358974335
 31
0.0
  0
LINE
  5
44C
330
59
100
AcDbEntity
  8
0-0_補助線
  6
Continuous
 62
     7
370
     5
100
AcDbLine
 10
-3.050000000000182
 20
2.008974358974335
 30
0.0
 11
-4.849999999999909
 21
2.008974358974335
 31
0.0
  0
ARC
  5
44D
330
59
100
AcDbEntity
  8
0-0_補助線
  6
Continuous
 62
     7
370
     5
100
AcDbCircle
 10
-3.050000000000182
 20
1.70897435897438
 30
0.0
 40
0.3
100
AcDbArc
 50
0.0
 51
90.0
  0
ARC
  5
44E
330
59
100
AcDbEntity
  8
0-0_補助線
  6
Continuous
 62
     7
370
     5
100
AcDbCircle
 10
-3.050000000000182
 20
1.70897435897438
 30
0.0
 40
0.3
100
AcDbArc
 50
270.0
 51
0.0
  0
ARC
  5
44F
330
59
100
AcDbEntity
  8
0-0_補助線
  6
Continuous
 62
     7
370
     5
100
AcDbCircle
 10
3.050000000000182
 20
1.70897435897438
 30
0.0
 40
0.3
100
AcDbArc
 50
180.0
 51
270.0
  0
LINE
  5
450
330
59
100
AcDbEntity
  8
0-0_補助線
  6
Continuous
 62
     7
370
     5
100
AcDbLine
 10
3.050000000000182
 20
2.008974358974335
 30
0.0
 11
4.849999999999909
 21
2.008974358974335
 31
0.0
  0
ARC
  5
451
330
59
100
AcDbEntity
  8
0-0_補助線
  6
Continuous
 62
     7
370
     5
100
AcDbCircle
 10
3.050000000000182
 20
1.70897435897438
 30
0.0
 40
0.3
100
AcDbArc
 50
90.0
 51
180.0
  0
LINE
  5
452
330
59
100
AcDbEntity
  8
0-0_補助線
  6
Continuous
 62
     7
370
     5
100
AcDbLine
 10
4.849999999999909
 20
-1.341025641025688
 30
0.0
 11
4.849999999999909
 21
1.408974358974312
 31
0.0
  0
ARC
  5
453
330
59
100
AcDbEntity
  8
0-0_補助線
  6
Continuous
 62
     7
370
     5
100
AcDbCircle
 10
4.099999999999909
 20
-1.341025641025688
 30
0.0
 40
0.75
100
AcDbArc
 50
270.0
 51
0.0
  0
LINE
  5
454
330
59
100
AcDbEntity
  8
0-0_補助線
  6
Continuous
 62
     7
370
     5
100
AcDbLine
 10
-4.849999999999909
 20
-1.341025641025688
 30
0.0
 11
-4.849999999999909
 21
1.408974358974312
 31
0.0
  0
LINE
  5
455
330
59
100
AcDbEntity
  8
0-0_補助線
  6
Continuous
 62
     7
370
     5
100
AcDbLine
 10
-4.099999999999909
 20
-2.091025641025688
 30
0.0
 11
4.099999999999909
 21
-2.091025641025688
 31
0.0
  0
ARC
  5
456
330
59
100
AcDbEntity
  8
0-0_補助線
  6
Continuous
 62
     7
370
     5
100
AcDbCircle
 10
-4.099999999999909
 20
-1.341025641025688
 30
0.0
 40
0.75
100
AcDbArc
 50
180.0
 51
270.0
  0
LINE
  5
457
330
59
100
AcDbEntity
  8
0-0_補助線
  6
Continuous
 62
     7
370
     5
100
AcDbLine
 10
-4.0
 20
1.408974358974312
 30
0.0
 11
-3.050000000000182
 21
1.408974358974312
 31
0.0
  0
LINE
  5
458
330
59
100
AcDbEntity
  8
0-0_補助線
  6
Continuous
 62
     7
370
     5
100
AcDbLine
 10
-4.25
 20
1.158974358974312
 30
0.0
 11
-4.25
 21
-1.491025641025665
 31
0.0
  0
ARC
  5
459
330
59
100
AcDbEntity
  8
0-0_補助線
  6
Continuous
 62
     7
370
     5
100
AcDbCircle
 10
-4.0
 20
1.158974358974312
 30
0.0
 40
0.25
100
AcDbArc
 50
90.0
 51
180.0
  0
LINE
  5
45A
330
59
100
AcDbEntity
  8
0-0_補助線
  6
Continuous
 62
     7
370
     5
100
AcDbLine
 10
4.0
 20
1.408974358974312
 30
0.0
 11
3.050000000000182
 21
1.408974358974312
 31
0.0
  0
LINE
  5
45B
330
59
100
AcDbEntity
  8
0-0_補助線
  6
Continuous
 62
     7
370
     5
100
AcDbLine
 10
4.25
 20
1.158974358974312
 30
0.0
 11
4.25
 21
-1.491025641025665
 31
0.0
  0
ARC
  5
45C
330
59
100
AcDbEntity
  8
0-0_補助線
  6
Continuous
 62
     7
370
     5
100
AcDbCircle
 10
4.0
 20
1.158974358974312
 30
0.0
 40
0.25
100
AcDbArc
 50
0.0
 51
90.0
  0
LINE
  5
45D
330
59
100
AcDbEntity
  8
0-0_補助線
  6
Continuous
 62
     7
370
     5
100
AcDbLine
 10
-3.25
 20
-1.091025641025688
 30
0.0
 11
-3.25
 21
-1.491025641025665
 31
0.0
  0
ARC
  5
45E
330
59
100
AcDbEntity
  8
0-0_補助線
  6
Continuous
 62
     7
370
     5
100
AcDbCircle
 10
-3.150000000000091
 20
-1.091025641025688
 30
0.0
 40
0.1
100
AcDbArc
 50
90.0
 51
180.0
  0
LINE
  5
45F
330
59
100
AcDbEntity
  8
0-0_補助線
  6
Continuous
 62
     7
370
     5
100
AcDbLine
 10
-2.849999999999909
 20
-0.991025641025665
 30
0.0
 11
-3.150000000000091
 21
-0.991025641025665
 31
0.0
  0
LINE
  5
460
330
59
100
AcDbEntity
  8
0-0_補助線
  6
Continuous
 62
     7
370
     5
100
AcDbLine
 10
-2.75
 20
-1.091025641025688
 30
0.0
 11
-2.75
 21
-1.491025641025665
 31
0.0
  0
ARC
  5
461
330
59
100
AcDbEntity
  8
0-0_補助線
  6
Continuous
 62
     7
370
     5
100
AcDbCircle
 10
-2.849999999999909
 20
-1.091025641025688
 30
0.0
 40
0.1
100
AcDbArc
 50
0.0
 51
90.0
  0
LINE
  5
462
330
59
100
AcDbEntity
  8
0-0_補助線
  6
Continuous
 62
     7
370
     5
100
AcDbLine
 10
2.75
 20
-1.091025641025688
 30
0.0
 11
2.75
 21
-1.491025641025665
 31
0.0
  0
ARC
  5
463
330
59
100
AcDbEntity
  8
0-0_補助線
  6
Continuous
 62
     7
370
     5
100
AcDbCircle
 10
2.849999999999909
 20
-1.091025641025688
 30
0.0
 40
0.1
100
AcDbArc
 50
90.0
 51
180.0
  0
LINE
  5
464
330
59
100
AcDbEntity
  8
0-0_補助線
  6
Continuous
 62
     7
370
     5
100
AcDbLine
 10
3.150000000000091
 20
-0.991025641025665
 30
0.0
 11
2.849999999999909
 21
-0.991025641025665
 31
0.0
  0
LINE
  5
465
330
59
100
AcDbEntity
  8
0-0_補助線
  6
Continuous
 62
     7
370
     5
100
AcDbLine
 10
3.25
 20
-1.091025641025688
 30
0.0
 11
3.25
 21
-1.491025641025665
 31
0.0
  0
ARC
  5
466
330
59
100
AcDbEntity
  8
0-0_補助線
  6
Continuous
 62
     7
370
     5
100
AcDbCircle
 10
3.150000000000091
 20
-1.091025641025688
 30
0.0
 40
0.1
100
AcDbArc
 50
0.0
 51
90.0
  0
ENDBLK
  5
5B
330
59
100
AcDbEntity
  8
0
100
AcDbBlockEnd
  0
ENDSEC
  0
SECTION
  2
ENTITIES
  0
LINE
  5
5C
330
1F
100
AcDbEntity
  8
0-0_補助線
  6
JWW_HOJO
 62
   120
370
     5
100
AcDbLine
 10
-3623.689459170392
 20
1266.945146596495
 30
0.0
 11
-3623.689459170392
 21
3141.945146596495
 31
0.0
  0
LINE
  5
5D
330
1F
100
AcDbEntity
  8
0-0_補助線
  6
JWW_HOJO
 62
   120
370
     5
100
AcDbLine
 10
1920.310144925897
 20
1266.945146596495
 30
0.0
 11
1920.310144925897
 21
3141.945146596495
 31
0.0
  0
LINE
  5
5E
330
1F
100
AcDbEntity
  8
0-0_補助線
  6
JWW_HOJO
 62
   120
370
     5
100
AcDbLine
 10
1920.310144925897
 20
2781.945146596495
 30
0.0
 11
-3623.689459170392
 21
2781.945146596495
 31
0.0
  0
LINE
  5
5F
330
1F
100
AcDbEntity
  8
0-0_補助線
  6
JWW_HOJO
 62
   120
370
     5
100
AcDbLine
 10
1920.310144925897
 20
1626.945146596495
 30
0.0
 11
-3623.689459170392
 21
1626.945146596495
 31
0.0
  0
LINE
  5
60
330
1F
100
AcDbEntity
  8
0-0_補助線
  6
JWW_HOJO
 62
   120
370
     5
100
AcDbLine
 10
1920.310144925897
 20
1446.945146596495
 30
0.0
 11
-3623.689459170392
 21
1446.945146596495
 31
0.0
  0
LINE
  5
61
330
1F
100
AcDbEntity
  8
0-0_補助線
  6
JWW_HOJO
 62
   120
370
     5
100
AcDbLine
 10
1920.310144925897
 20
1266.945146596495
 30
0.0
 11
-3623.689459170392
 21
1266.945146596495
 31
0.0
  0
LINE
  5
62
330
1F
100
AcDbEntity
  8
0-0_補助線
  6
JWW_HOJO
 62
   120
370
     5
100
AcDbLine
 10
1920.310144925897
 20
3141.945146596495
 30
0.0
 11
-3623.689459170392
 21
3141.945146596495
 31
0.0
  0
LINE
  5
63
330
1F
100
AcDbEntity
  8
0-0_補助線
  6
JWW_HOJO
 62
   120
370
     5
100
AcDbLine
 10
1920.310144925897
 20
2961.945146596495
 30
0.0
 11
-3623.689459170392
 21
2961.945146596495
 31
0.0
  0
LINE
  5
64
330
1F
100
AcDbEntity
  8
0-1_通り芯
  6
JWW_CENTER1
 62
   120
370
     5
100
AcDbLine
 10
1920.310144925897
 20
2361.945146596495
 30
0.0
 11
-3623.689459170392
 21
2361.945146596495
 31
0.0
  0
LINE
  5
65
330
1F
100
AcDbEntity
  8
0-C_ハッチ
  6
Continuous
 62
   120
370
     5
100
AcDbLine
 10
-3023.689657122265
 20
2565.455682251163
 30
0.0
 11
-2972.200192776923
 21
2616.945146596503
 31
0.0
  0
LINE
  5
66
330
1F
100
AcDbEntity
  8
0-C_ハッチ
  6
Continuous
 62
   120
370
     5
100
AcDbLine
 10
-3023.689657122248
 20
2506.058712631534
 30
0.0
 11
-2912.803223157295
 21
2616.945146596485
 31
0.0
  0
LINE
  5
67
330
1F
100
AcDbEntity
  8
0-C_ハッチ
  6
Continuous
 62
   120
370
     5
100
AcDbLine
 10
-3023.68965712226
 20
2446.661743011819
 30
0.0
 11
-2857.547955329916
 21
2612.803444804162
 31
0.0
  0
LINE
  5
68
330
1F
100
AcDbEntity
  8
0-C_ハッチ
  6
Continuous
 62
   120
370
     5
100
AcDbLine
 10
-3023.689657122246
 20
2387.264773392185
 30
0.0
 11
-2843.689657122248
 21
2567.264773392183
 31
0.0
  0
LINE
  5
69
330
1F
100
AcDbEntity
  8
0-C_ハッチ
  6
Continuous
 62
   120
370
     5
100
AcDbLine
 10
-3023.689657122253
 20
2327.867803772476
 30
0.0
 11
-2843.689657122262
 21
2507.867803772467
 31
0.0
  0
LINE
  5
6A
330
1F
100
AcDbEntity
  8
0-C_ハッチ
  6
Continuous
 62
   120
370
     5
100
AcDbLine
 10
-3023.689657122249
 20
2268.470834152833
 30
0.0
 11
-2874.591640363003
 21
2417.56885091208
 31
0.0
  0
LINE
  5
6B
330
1F
100
AcDbEntity
  8
0-C_ハッチ
  6
Continuous
 62
   120
370
     5
100
AcDbLine
 10
-3023.689657122245
 20
2209.07386453319
 30
0.0
 11
-2879.564636343423
 21
2353.198885312012
 31
0.0
  0
LINE
  5
6C
330
1F
100
AcDbEntity
  8
0-C_ハッチ
  6
Continuous
 62
   120
370
     5
100
AcDbLine
 10
-3023.68965712226
 20
2149.676894913473
 30
0.0
 11
-2873.356261258616
 21
2300.010290777117
 31
0.0
  0
LINE
  5
6D
330
1F
100
AcDbEntity
  8
0-C_ハッチ
  6
Continuous
 62
   120
370
     5
100
AcDbLine
 10
-3007.024435819587
 20
2106.945146596498
 30
0.0
 11
-2860.004647716125
 21
2253.964934699961
 31
0.0
  0
LINE
  5
6E
330
1F
100
AcDbEntity
  8
0-C_ハッチ
  6
Continuous
 62
   120
370
     5
100
AcDbLine
 10
-2947.627466199886
 20
2106.945146596498
 30
0.0
 11
-2843.689657122251
 21
2210.882955674133
 31
0.0
  0
LINE
  5
6F
330
1F
100
AcDbEntity
  8
0-C_ハッチ
  6
Continuous
 62
   120
370
     5
100
AcDbLine
 10
-2888.230496580248
 20
2106.945146596491
 30
0.0
 11
-2843.689657122255
 21
2151.485986054481
 31
0.0
  0
ARC
  5
70
330
1F
100
AcDbEntity
  8
0-4_枠
  6
Continuous
 62
    92
370
     5
100
AcDbCircle
 10
-2573.689657122248
 20
2361.945146596495
 30
0.0
 40
306.0000000000022
100
AcDbArc
 50
151.9275130641473
 51
208.0724869358527
  0
LINE
  5
71
330
1F
100
AcDbEntity
  8
0-4_枠
  6
Continuous
 62
    92
370
     5
100
AcDbLine
 10
-2843.689657122249
 20
2505.945146596495
 30
0.0
 11
-2843.689657122249
 21
2598.945146596495
 31
0.0
  0
LINE
  5
72
330
1F
100
AcDbEntity
  8
0-4_枠
  6
Continuous
 62
    92
370
     5
100
AcDbLine
 10
-2843.689657122249
 20
2124.945146596495
 30
0.0
 11
-2843.689657122249
 21
2217.945146596495
 31
0.0
  0
LINE
  5
73
330
1F
100
AcDbEntity
  8
0-4_枠
  6
Continuous
 62
    92
370
     5
100
AcDbLine
 10
-2843.689657122249
 20
2124.945146596495
 30
0.0
 11
-2861.689657122249
 21
2106.945146596495
 31
0.0
  0
LINE
  5
74
330
1F
100
AcDbEntity
  8
0-4_枠
  6
Continuous
 62
    92
370
     5
100
AcDbLine
 10
-2861.689657122249
 20
2106.945146596495
 30
0.0
 11
-3023.689657122249
 21
2106.945146596495
 31
0.0
  0
LINE
  5
75
330
1F
100
AcDbEntity
  8
0-4_枠
  6
Continuous
 62
    92
370
     5
100
AcDbLine
 10
-2861.689657122249
 20
2616.945146596495
 30
0.0
 11
-2843.689657122249
 21
2598.945146596495
 31
0.0
  0
LINE
  5
76
330
1F
100
AcDbEntity
  8
0-4_枠
  6
Continuous
 62
    92
370
     5
100
AcDbLine
 10
-2861.689657122249
 20
2616.945146596495
 30
0.0
 11
-3023.689657122249
 21
2616.945146596495
 31
0.0
  0
LINE
  5
77
330
1F
100
AcDbEntity
  8
0-4_枠
  6
Continuous
 62
    92
370
     5
100
AcDbLine
 10
-3023.689657122249
 20
2106.945146596495
 30
0.0
 11
-3023.689657122249
 21
2616.945146596495
 31
0.0
  0
LINE
  5
78
330
1F
100
AcDbEntity
  8
0-0_補助線
  6
Continuous
 62
   120
370
     5
100
AcDbLine
 10
-2843.689657122249
 20
2324.359196304034
 30
0.0
 11
-2858.689657122249
 21
2324.359196304034
 31
0.0
  0
LWPOLYLINE
  5
79
330
1F
100
AcDbEntity
  8
0-0_補助線
  6
Continuous
 62
     7
370
     5
100
AcDbPolyline
 90
        4
 70
     1
 43
3.0
 10
-2842.18965712225
 20
2324.359196304034
 42
0.4142135623731
 10
-2843.689657122249
 20
2325.859196304033
 42
0.4142135623731
 10
-2845.189657122249
 20
2324.359196304034
 42
0.4142135623731
 10
-2843.689657122249
 20
2322.859196304034
 42
0.4142135623731
  0
LWPOLYLINE
  5
7A
330
1F
100
AcDbEntity
  8
0-0_補助線
  6
Continuous
 62
     7
370
     5
100
AcDbPolyline
 90
        4
 70
     1
 43
3.0
 10
-2857.18965712225
 20
2324.359196304034
 42
0.4142135623731
 10
-2858.689657122249
 20
2325.859196304033
 42
0.4142135623731
 10
-2860.189657122249
 20
2324.359196304034
 42
0.4142135623731
 10
-2858.689657122249
 20
2322.859196304034
 42
0.4142135623731
  0
LINE
  5
7B
330
1F
100
AcDbEntity
  8
0-0_補助線
  6
Continuous
 62
   120
370
     5
100
AcDbLine
 10
-2858.689657122249
 20
2324.359196304034
 30
0.0
 11
-2879.68965712225
 21
2324.359196304034
 31
0.0
  0
LWPOLYLINE
  5
7C
330
1F
100
AcDbEntity
  8
0-0_補助線
  6
Continuous
 62
     7
370
     5
100
AcDbPolyline
 90
        4
 70
     1
 43
3.0
 10
-2878.18965712225
 20
2324.359196304034
 42
0.4142135623731
 10
-2879.68965712225
 20
2325.859196304033
 42
0.4142135623731
 10
-2881.189657122249
 20
2324.359196304034
 42
0.4142135623731
 10
-2879.68965712225
 20
2322.859196304034
 42
0.4142135623731
  0
LINE
  5
7D
330
1F
100
AcDbEntity
  8
0-0_補助線
  6
Continuous
 62
   120
370
     5
100
AcDbLine
 10
-2879.68965712225
 20
2324.359196304034
 30
0.0
 11
-2879.68965712225
 21
2405.688459527219
 31
0.0
  0
MTEXT
  5
7E
330
1F
100
AcDbEntity
  8
0-0_補助線
  6
Continuous
 62
     7
370
   211
100
AcDbMText
 10
-2833.303202209901
 20
2325.079196304033
 30
0.0
 40
91.44
 41
180.0
 46
0.0
 71
     7
 72
     1
  1
{\fＭＳ ゴシック|b0|i0|c128|p49;2.5}
 73
     1
 44
1.0
  0
LINE
  5
7F
330
1F
100
AcDbEntity
  8
0-C_ハッチ
  6
Continuous
 62
   120
370
     5
100
AcDbLine
 10
1140.310342877735
 20
2547.831580561426
 30
0.0
 11
1209.42390891281
 21
2616.945146596501
 31
0.0
  0
LINE
  5
80
330
1F
100
AcDbEntity
  8
0-C_ハッチ
  6
Continuous
 62
   120
370
     5
100
AcDbLine
 10
1146.195915998111
 20
2494.320184062153
 30
0.0
 11
1268.820878532445
 21
2616.945146596488
 31
0.0
  0
LINE
  5
81
330
1F
100
AcDbEntity
  8
0-C_ハッチ
  6
Continuous
 62
   120
370
     5
100
AcDbLine
 10
1162.879600055604
 20
2451.606898499945
 30
0.0
 11
1320.310342877744
 21
2609.037641322086
 31
0.0
  0
LINE
  5
82
330
1F
100
AcDbEntity
  8
0-C_ハッチ
  6
Continuous
 62
   120
370
     5
100
AcDbLine
 10
1173.558747082298
 20
2402.889075906992
 30
0.0
 11
1320.310342877763
 21
2549.640671702457
 31
0.0
  0
LINE
  5
83
330
1F
100
AcDbEntity
  8
0-C_ハッチ
  6
Continuous
 62
   120
370
     5
100
AcDbLine
 10
1175.885096136527
 20
2345.818455341573
 30
0.0
 11
1320.310342877753
 21
2490.243702082801
 31
0.0
  0
LINE
  5
84
330
1F
100
AcDbEntity
  8
0-C_ハッチ
  6
Continuous
 62
   120
370
     5
100
AcDbLine
 10
1163.372962170612
 20
2273.909351755956
 30
0.0
 11
1320.310342877739
 21
2430.846732463084
 31
0.0
  0
LINE
  5
85
330
1F
100
AcDbEntity
  8
0-C_ハッチ
  6
Continuous
 62
   120
370
     5
100
AcDbLine
 10
1140.310342877753
 20
2191.449762843451
 30
0.0
 11
1320.310342877752
 21
2371.449762843449
 31
0.0
  0
LINE
  5
86
330
1F
100
AcDbEntity
  8
0-C_ハッチ
  6
Continuous
 62
   120
370
     5
100
AcDbLine
 10
1140.310342877739
 20
2132.052793223736
 30
0.0
 11
1320.310342877744
 21
2312.05279322374
 31
0.0
  0
LINE
  5
87
330
1F
100
AcDbEntity
  8
0-C_ハッチ
  6
Continuous
 62
   120
370
     5
100
AcDbLine
 10
1174.599665870154
 20
2106.945146596502
 30
0.0
 11
1320.310342877753
 21
2252.655823604101
 31
0.0
  0
LINE
  5
88
330
1F
100
AcDbEntity
  8
0-C_ハッチ
  6
Continuous
 62
   120
370
     5
100
AcDbLine
 10
1233.996635489844
 20
2106.945146596491
 30
0.0
 11
1320.31034287775
 21
2193.258853984396
 31
0.0
  0
LINE
  5
89
330
1F
100
AcDbEntity
  8
0-C_ハッチ
  6
Continuous
 62
   120
370
     5
100
AcDbLine
 10
1293.393605109506
 20
2106.945146596505
 30
0.0
 11
1320.310342877738
 21
2133.861884364739
 31
0.0
  0
ARC
  5
8A
330
1F
100
AcDbEntity
  8
0-4_枠
  6
Continuous
 62
    92
370
     5
100
AcDbCircle
 10
870.3103428777476
 20
2361.945146596495
 30
0.0
 40
306.0000000000022
100
AcDbArc
 50
331.9275130641473
 51
28.07248693585271
  0
LINE
  5
8B
330
1F
100
AcDbEntity
  8
0-4_枠
  6
Continuous
 62
    92
370
     5
100
AcDbLine
 10
1140.310342877751
 20
2505.945146596495
 30
0.0
 11
1140.310342877751
 21
2598.945146596495
 31
0.0
  0
LINE
  5
8C
330
1F
100
AcDbEntity
  8
0-4_枠
  6
Continuous
 62
    92
370
     5
100
AcDbLine
 10
1140.310342877751
 20
2124.945146596495
 30
0.0
 11
1140.310342877751
 21
2217.945146596495
 31
0.0
  0
LINE
  5
8D
330
1F
100
AcDbEntity
  8
0-4_枠
  6
Continuous
 62
    92
370
     5
100
AcDbLine
 10
1140.310342877751
 20
2124.945146596495
 30
0.0
 11
1158.31034287775
 21
2106.945146596495
 31
0.0
  0
LINE
  5
8E
330
1F
100
AcDbEntity
  8
0-4_枠
  6
Continuous
 62
    92
370
     5
100
AcDbLine
 10
1158.31034287775
 20
2106.945146596495
 30
0.0
 11
1320.310342877751
 21
2106.945146596495
 31
0.0
  0
LINE
  5
8F
330
1F
100
AcDbEntity
  8
0-4_枠
  6
Continuous
 62
    92
370
     5
100
AcDbLine
 10
1158.31034287775
 20
2616.945146596495
 30
0.0
 11
1140.310342877751
 21
2598.945146596495
 31
0.0
  0
LINE
  5
90
330
1F
100
AcDbEntity
  8
0-4_枠
  6
Continuous
 62
    92
370
     5
100
AcDbLine
 10
1158.31034287775
 20
2616.945146596495
 30
0.0
 11
1320.310342877751
 21
2616.945146596495
 31
0.0
  0
LINE
  5
91
330
1F
100
AcDbEntity
  8
0-4_枠
  6
Continuous
 62
    92
370
     5
100
AcDbLine
 10
1320.310342877751
 20
2106.945146596495
 30
0.0
 11
1320.310342877751
 21
2616.945146596495
 31
0.0
  0
LINE
  5
92
330
1F
100
AcDbEntity
  8
0-7_金物
  6
Continuous
 62
     7
370
     5
100
AcDbLine
 10
1338.310006359592
 20
2271.945220828442
 30
0.0
 11
1338.310006359592
 21
2451.945072364549
 31
0.0
  0
LINE
  5
93
330
1F
100
AcDbEntity
  8
0-7_金物
  6
Continuous
 62
     7
370
     5
100
AcDbLine
 10
1350.310342877751
 20
2451.945072364549
 30
0.0
 11
1338.310006359592
 21
2451.945072364549
 31
0.0
  0
LINE
  5
94
330
1F
100
AcDbEntity
  8
0-7_金物
  6
Continuous
 62
     7
370
     5
100
AcDbLine
 10
1350.310342877751
 20
2271.945220828442
 30
0.0
 11
1338.310006359592
 21
2271.945220828442
 31
0.0
  0
LINE
  5
95
330
1F
100
AcDbEntity
  8
0-7_金物
  6
Continuous
 62
     7
370
     5
100
AcDbLine
 10
1338.310006359592
 20
2301.945319804372
 30
0.0
 11
1326.310412160901
 21
2301.945319804372
 31
0.0
  0
LINE
  5
96
330
1F
100
AcDbEntity
  8
0-7_金物
  6
Continuous
 62
     7
370
     5
100
AcDbLine
 10
1338.310006359592
 20
2421.944973388619
 30
0.0
 11
1326.310412160901
 21
2421.944973388619
 31
0.0
  0
LINE
  5
97
330
1F
100
AcDbEntity
  8
0-7_金物
  6
Continuous
 62
     7
370
     5
100
AcDbLine
 10
1326.310412160901
 20
2301.945319804372
 30
0.0
 11
1326.310412160901
 21
2421.944973388619
 31
0.0
  0
LINE
  5
98
330
1F
100
AcDbEntity
  8
0-7_金物
  6
Continuous
 62
     7
370
     5
100
AcDbLine
 10
1326.310412160901
 20
2415.945547449009
 30
0.0
 11
1320.310342877751
 21
2415.945547449009
 31
0.0
  0
LINE
  5
99
330
1F
100
AcDbEntity
  8
0-7_金物
  6
Continuous
 62
     7
370
     5
100
AcDbLine
 10
1326.310412160901
 20
2307.94548806345
 30
0.0
 11
1320.310342877751
 21
2307.94548806345
 31
0.0
  0
LINE
  5
9A
330
1F
100
AcDbEntity
  8
0-7_金物
  6
Continuous
 62
     7
370
     5
100
AcDbLine
 10
1350.310342877751
 20
2271.945220828442
 30
0.0
 11
1350.310342877751
 21
2451.945072364549
 31
0.0
  0
LINE
  5
9B
330
1F
100
AcDbEntity
  8
0-3_仕上げ
  6
Continuous
 62
    40
370
     5
100
AcDbLine
 10
1320.310342877751
 20
2178.945146596497
 30
0.0
 11
1920.310144925897
 21
2178.945146596497
 31
0.0
  0
LINE
  5
9C
330
1F
100
AcDbEntity
  8
0-3_仕上げ
  6
Continuous
 62
    40
370
     5
100
AcDbLine
 10
1320.310342877751
 20
2253.945146596497
 30
0.0
 11
1920.310144925897
 21
2253.945146596497
 31
0.0
  0
LINE
  5
9D
330
1F
100
AcDbEntity
  8
0-C_ハッチ
  6
JWW_DASHED1
 62
   120
370
     5
100
AcDbLine
 10
1908.2904070847
 20
2178.945146596502
 30
0.0
 11
1920.31014492589
 21
2190.964884437692
 31
0.0
  0
LINE
  5
9E
330
1F
100
AcDbEntity
  8
0-C_ハッチ
  6
JWW_DASHED1
 62
   120
370
     5
100
AcDbLine
 10
1865.864000213503
 20
2178.945146596506
 30
0.0
 11
1920.31014492588
 21
2233.391291308883
 31
0.0
  0
LINE
  5
9F
330
1F
100
AcDbEntity
  8
0-C_ハッチ
  6
JWW_DASHED1
 62
   120
370
     5
100
AcDbLine
 10
1823.437593342307
 20
2178.94514659651
 30
0.0
 11
1898.437593342318
 21
2253.94514659652
 31
0.0
  0
LINE
  5
A0
330
1F
100
AcDbEntity
  8
0-C_ハッチ
  6
JWW_DASHED1
 62
   120
370
     5
100
AcDbLine
 10
1781.011186471098
 20
2178.945146596502
 30
0.0
 11
1856.011186471091
 21
2253.945146596495
 31
0.0
  0
LINE
  5
A1
330
1F
100
AcDbEntity
  8
0-C_ハッチ
  6
JWW_DASHED1
 62
   120
370
     5
100
AcDbLine
 10
1738.584779599898
 20
2178.945146596502
 30
0.0
 11
1813.584779599894
 21
2253.945146596497
 31
0.0
  0
LINE
  5
A2
330
1F
100
AcDbEntity
  8
0-C_ハッチ
  6
JWW_DASHED1
 62
   120
370
     5
100
AcDbLine
 10
1696.158372728702
 20
2178.945146596504
 30
0.0
 11
1771.158372728698
 21
2253.945146596499
 31
0.0
  0
LINE
  5
A3
330
1F
100
AcDbEntity
  8
0-C_ハッチ
  6
JWW_DASHED1
 62
   120
370
     5
100
AcDbLine
 10
1653.731965857565
 20
2178.945146596513
 30
0.0
 11
1728.73196585756
 21
2253.945146596508
 31
0.0
  0
LINE
  5
A4
330
1F
100
AcDbEntity
  8
0-C_ハッチ
  6
JWW_DASHED1
 62
   120
370
     5
100
AcDbLine
 10
1611.305558986369
 20
2178.945146596517
 30
0.0
 11
1686.305558986364
 21
2253.945146596511
 31
0.0
  0
LINE
  5
A5
330
1F
100
AcDbEntity
  8
0-C_ハッチ
  6
JWW_DASHED1
 62
   120
370
     5
100
AcDbLine
 10
1568.879152115156
 20
2178.945146596504
 30
0.0
 11
1643.879152115168
 21
2253.945146596515
 31
0.0
  0
LINE
  5
A6
330
1F
100
AcDbEntity
  8
0-C_ハッチ
  6
JWW_DASHED1
 62
   120
370
     5
100
AcDbLine
 10
1526.45274524396
 20
2178.945146596508
 30
0.0
 11
1601.452745243971
 21
2253.94514659652
 31
0.0
  0
LINE
  5
A7
330
1F
100
AcDbEntity
  8
0-C_ハッチ
  6
JWW_DASHED1
 62
   120
370
     5
100
AcDbLine
 10
1484.026338372764
 20
2178.945146596511
 30
0.0
 11
1559.026338372759
 21
2253.945146596507
 31
0.0
  0
LINE
  5
A8
330
1F
100
AcDbEntity
  8
0-C_ハッチ
  6
JWW_DASHED1
 62
   120
370
     5
100
AcDbLine
 10
1441.599931501552
 20
2178.945146596499
 30
0.0
 11
1516.599931501548
 21
2253.945146596495
 31
0.0
  0
LINE
  5
A9
330
1F
100
AcDbEntity
  8
0-C_ハッチ
  6
JWW_DASHED1
 62
   120
370
     5
100
AcDbLine
 10
1399.173524630356
 20
2178.945146596503
 30
0.0
 11
1474.173524630351
 21
2253.945146596499
 31
0.0
  0
LINE
  5
AA
330
1F
100
AcDbEntity
  8
0-C_ハッチ
  6
JWW_DASHED1
 62
   120
370
     5
100
AcDbLine
 10
1356.747117759159
 20
2178.945146596507
 30
0.0
 11
1431.747117759155
 21
2253.945146596503
 31
0.0
  0
LINE
  5
AB
330
1F
100
AcDbEntity
  8
0-C_ハッチ
  6
JWW_DASHED1
 62
   120
370
     5
100
AcDbLine
 10
1320.310342877733
 20
2184.934778586227
 30
0.0
 11
1389.320710888017
 21
2253.94514659651
 31
0.0
  0
LINE
  5
AC
330
1F
100
AcDbEntity
  8
0-C_ハッチ
  6
JWW_DASHED1
 62
   120
370
     5
100
AcDbLine
 10
1320.310342877737
 20
2227.361185457432
 30
0.0
 11
1346.894304016821
 21
2253.945146596514
 31
0.0
  0
LINE
  5
AD
330
1F
100
AcDbEntity
  8
0-3_仕上げ
  6
Continuous
 62
    40
370
     5
100
AcDbLine
 10
-3623.689459170379
 20
2178.945146596497
 30
0.0
 11
-3023.689657122232
 21
2178.945146596497
 31
0.0
  0
LINE
  5
AE
330
1F
100
AcDbEntity
  8
0-3_仕上げ
  6
Continuous
 62
    40
370
     5
100
AcDbLine
 10
-3623.689459170379
 20
2253.945146596497
 30
0.0
 11
-3023.689657122232
 21
2253.945146596497
 31
0.0
  0
LINE
  5
AF
330
1F
100
AcDbEntity
  8
0-C_ハッチ
  6
JWW_DASHED1
 62
   120
370
     5
100
AcDbLine
 10
-3035.709394963429
 20
2178.945146596502
 30
0.0
 11
-3023.689657122241
 21
2190.964884437692
 31
0.0
  0
LINE
  5
B0
330
1F
100
AcDbEntity
  8
0-C_ハッチ
  6
JWW_DASHED1
 62
   120
370
     5
100
AcDbLine
 10
-3078.135801834625
 20
2178.945146596506
 30
0.0
 11
-3023.689657122249
 21
2233.391291308883
 31
0.0
  0
LINE
  5
B1
330
1F
100
AcDbEntity
  8
0-C_ハッチ
  6
JWW_DASHED1
 62
   120
370
     5
100
AcDbLine
 10
-3120.562208705822
 20
2178.94514659651
 30
0.0
 11
-3045.562208705812
 21
2253.94514659652
 31
0.0
  0
LINE
  5
B2
330
1F
100
AcDbEntity
  8
0-C_ハッチ
  6
JWW_DASHED1
 62
   120
370
     5
100
AcDbLine
 10
-3162.988615577031
 20
2178.945146596502
 30
0.0
 11
-3087.988615577038
 21
2253.945146596495
 31
0.0
  0
LINE
  5
B3
330
1F
100
AcDbEntity
  8
0-C_ハッチ
  6
JWW_DASHED1
 62
   120
370
     5
100
AcDbLine
 10
-3205.415022448231
 20
2178.945146596502
 30
0.0
 11
-3130.415022448236
 21
2253.945146596497
 31
0.0
  0
LINE
  5
B4
330
1F
100
AcDbEntity
  8
0-C_ハッチ
  6
JWW_DASHED1
 62
   120
370
     5
100
AcDbLine
 10
-3247.841429319428
 20
2178.945146596504
 30
0.0
 11
-3172.841429319432
 21
2253.945146596499
 31
0.0
  0
LINE
  5
B5
330
1F
100
AcDbEntity
  8
0-C_ハッチ
  6
JWW_DASHED1
 62
   120
370
     5
100
AcDbLine
 10
-3290.267836190564
 20
2178.945146596513
 30
0.0
 11
-3215.26783619057
 21
2253.945146596508
 31
0.0
  0
LINE
  5
B6
330
1F
100
AcDbEntity
  8
0-C_ハッチ
  6
JWW_DASHED1
 62
   120
370
     5
100
AcDbLine
 10
-3332.694243061761
 20
2178.945146596517
 30
0.0
 11
-3257.694243061766
 21
2253.945146596511
 31
0.0
  0
LINE
  5
B7
330
1F
100
AcDbEntity
  8
0-C_ハッチ
  6
JWW_DASHED1
 62
   120
370
     5
100
AcDbLine
 10
-3375.120649932973
 20
2178.945146596504
 30
0.0
 11
-3300.120649932963
 21
2253.945146596515
 31
0.0
  0
LINE
  5
B8
330
1F
100
AcDbEntity
  8
0-C_ハッチ
  6
JWW_DASHED1
 62
   120
370
     5
100
AcDbLine
 10
-3417.54705680417
 20
2178.945146596508
 30
0.0
 11
-3342.547056804157
 21
2253.94514659652
 31
0.0
  0
LINE
  5
B9
330
1F
100
AcDbEntity
  8
0-C_ハッチ
  6
JWW_DASHED1
 62
   120
370
     5
100
AcDbLine
 10
-3459.973463675366
 20
2178.945146596511
 30
0.0
 11
-3384.973463675371
 21
2253.945146596507
 31
0.0
  0
LINE
  5
BA
330
1F
100
AcDbEntity
  8
0-C_ハッチ
  6
JWW_DASHED1
 62
   120
370
     5
100
AcDbLine
 10
-3502.399870546578
 20
2178.945146596499
 30
0.0
 11
-3427.399870546584
 21
2253.945146596495
 31
0.0
  0
LINE
  5
BB
330
1F
100
AcDbEntity
  8
0-C_ハッチ
  6
JWW_DASHED1
 62
   120
370
     5
100
AcDbLine
 10
-3544.826277417775
 20
2178.945146596503
 30
0.0
 11
-3469.82627741778
 21
2253.945146596499
 31
0.0
  0
LINE
  5
BC
330
1F
100
AcDbEntity
  8
0-C_ハッチ
  6
JWW_DASHED1
 62
   120
370
     5
100
AcDbLine
 10
-3587.25268428897
 20
2178.945146596507
 30
0.0
 11
-3512.252684288975
 21
2253.945146596503
 31
0.0
  0
LINE
  5
BD
330
1F
100
AcDbEntity
  8
0-C_ハッチ
  6
JWW_DASHED1
 62
   120
370
     5
100
AcDbLine
 10
-3623.689459170397
 20
2184.934778586227
 30
0.0
 11
-3554.679091160113
 21
2253.94514659651
 31
0.0
  0
LINE
  5
BE
330
1F
100
AcDbEntity
  8
0-C_ハッチ
  6
JWW_DASHED1
 62
   120
370
     5
100
AcDbLine
 10
-3623.689459170392
 20
2227.361185457432
 30
0.0
 11
-3597.105498031309
 21
2253.945146596514
 31
0.0
  0
LINE
  5
BF
330
1F
100
AcDbEntity
  8
0-7_金物
  6
Continuous
 62
     7
370
     5
100
AcDbLine
 10
-3041.689320604092
 20
2271.945220828442
 30
0.0
 11
-3041.689320604092
 21
2451.945072364549
 31
0.0
  0
LINE
  5
C0
330
1F
100
AcDbEntity
  8
0-7_金物
  6
Continuous
 62
     7
370
     5
100
AcDbLine
 10
-3053.689657122251
 20
2451.945072364549
 30
0.0
 11
-3041.689320604092
 21
2451.945072364549
 31
0.0
  0
LINE
  5
C1
330
1F
100
AcDbEntity
  8
0-7_金物
  6
Continuous
 62
     7
370
     5
100
AcDbLine
 10
-3053.689657122251
 20
2271.945220828442
 30
0.0
 11
-3041.689320604092
 21
2271.945220828442
 31
0.0
  0
LINE
  5
C2
330
1F
100
AcDbEntity
  8
0-7_金物
  6
Continuous
 62
     7
370
     5
100
AcDbLine
 10
-3041.689320604092
 20
2301.945319804372
 30
0.0
 11
-3029.689726405401
 21
2301.945319804372
 31
0.0
  0
LINE
  5
C3
330
1F
100
AcDbEntity
  8
0-7_金物
  6
Continuous
 62
     7
370
     5
100
AcDbLine
 10
-3041.689320604092
 20
2421.944973388619
 30
0.0
 11
-3029.689726405401
 21
2421.944973388619
 31
0.0
  0
LINE
  5
C4
330
1F
100
AcDbEntity
  8
0-7_金物
  6
Continuous
 62
     7
370
     5
100
AcDbLine
 10
-3029.689726405401
 20
2301.945319804372
 30
0.0
 11
-3029.689726405401
 21
2421.944973388619
 31
0.0
  0
LINE
  5
C5
330
1F
100
AcDbEntity
  8
0-7_金物
  6
Continuous
 62
     7
370
     5
100
AcDbLine
 10
-3029.689726405401
 20
2415.945547449009
 30
0.0
 11
-3023.689657122251
 21
2415.945547449009
 31
0.0
  0
LINE
  5
C6
330
1F
100
AcDbEntity
  8
0-7_金物
  6
Continuous
 62
     7
370
     5
100
AcDbLine
 10
-3029.689726405401
 20
2307.94548806345
 30
0.0
 11
-3023.689657122251
 21
2307.94548806345
 31
0.0
  0
LINE
  5
C7
330
1F
100
AcDbEntity
  8
0-7_金物
  6
Continuous
 62
     7
370
     5
100
AcDbLine
 10
-3053.689657122251
 20
2271.945220828442
 30
0.0
 11
-3053.689657122251
 21
2451.945072364549
 31
0.0
  0
MTEXT
  5
C8
330
1F
100
AcDbEntity
  8
0-0_補助線
  6
Continuous
 62
     7
370
   211
100
AcDbMText
 10
-3037.094878813596
 20
2325.079196304033
 30
0.0
 40
91.44
 41
180.0
 46
0.0
 71
     7
 72
     1
  1
{\fＭＳ ゴシック|b0|i0|c128|p49;3.5}
 73
     1
 44
1.0
  0
LINE
  5
C9
330
1F
100
AcDbEntity
  8
0-B_寸法
  6
Continuous
 62
   120
370
     5
100
AcDbLine
 10
-2414.488329700498
 20
2616.945146596485
 30
0.0
 11
-2414.488329700498
 21
2106.945146596498
 31
0.0
  0
LWPOLYLINE
  5
CA
330
1F
100
AcDbEntity
  8
0-B_寸法
  6
Continuous
 62
     7
370
     5
100
AcDbPolyline
 90
        4
 70
     1
 43
3.0
 10
-2412.988329700498
 20
2616.945146596485
 42
0.4142135623731
 10
-2414.488329700498
 20
2618.445146596485
 42
0.4142135623731
 10
-2415.988329700498
 20
2616.945146596485
 42
0.4142135623731
 10
-2414.488329700498
 20
2615.445146596486
 42
0.4142135623731
  0
LWPOLYLINE
  5
CB
330
1F
100
AcDbEntity
  8
0-B_寸法
  6
Continuous
 62
     7
370
     5
100
AcDbPolyline
 90
        4
 70
     1
 43
3.0
 10
-2412.988329700498
 20
2106.945146596498
 42
0.4142135623731
 10
-2414.488329700498
 20
2108.445146596497
 42
0.4142135623731
 10
-2415.988329700498
 20
2106.945146596498
 42
0.4142135623731
 10
-2414.488329700498
 20
2105.445146596498
 42
0.4142135623731
  0
LINE
  5
CC
330
1F
100
AcDbEntity
  8
0-B_寸法
  6
Continuous
 62
   120
370
     5
100
AcDbLine
 10
-2414.488329700498
 20
2616.945146596485
 30
0.0
 11
-2533.26389848217
 21
2616.945146596485
 31
0.0
  0
LINE
  5
CD
330
1F
100
AcDbEntity
  8
0-B_寸法
  6
Continuous
 62
   120
370
     5
100
AcDbLine
 10
-2414.488329700498
 20
2106.945146596498
 30
0.0
 11
-2533.26389848217
 21
2106.945146596498
 31
0.0
  0
MTEXT
  5
CE
330
1F
100
AcDbEntity
  8
0-B_寸法
  6
Continuous
 62
     7
370
   211
100
AcDbMText
 10
-2429.488329700498
 20
2287.665146596491
 30
0.0
 40
91.44
 41
120.0
 46
0.0
 71
     7
 72
     1
  1
{\fＭＳ ゴシック|b0|i0|c128|p49;85}
 11
6.123031769111886E-17
 21
1.0
 31
0.0
 73
     1
 44
1.0
  0
LINE
  5
CF
330
1F
100
AcDbEntity
  8
0-0_補助線
  6
JWW_HOJO
 62
   120
370
     5
100
AcDbLine
 10
1920.310144925897
 20
1806.945146596495
 30
0.0
 11
-3623.689459170392
 21
1806.945146596495
 31
0.0
  0
LINE
  5
D0
330
1F
100
AcDbEntity
  8
0-0_補助線
  6
JWW_HOJO
 62
   120
370
     5
100
AcDbLine
 10
1920.310144925897
 20
1986.945146596495
 30
0.0
 11
-3623.689459170392
 21
1986.945146596495
 31
0.0
  0
LINE
  5
D1
330
1F
100
AcDbEntity
  8
0-B_寸法
  6
Continuous
 62
   120
370
     5
100
AcDbLine
 10
-3053.689657122251
 20
3141.945146596495
 30
0.0
 11
1350.310342877751
 21
3141.945146596495
 31
0.0
  0
LWPOLYLINE
  5
D2
330
1F
100
AcDbEntity
  8
0-B_寸法
  6
Continuous
 62
     7
370
     5
100
AcDbPolyline
 90
        4
 70
     1
 43
3.0
 10
-3052.189657122251
 20
3141.945146596495
 42
0.4142135623731
 10
-3053.689657122251
 20
3143.445146596495
 42
0.4142135623731
 10
-3055.189657122251
 20
3141.945146596495
 42
0.4142135623731
 10
-3053.689657122251
 20
3140.445146596495
 42
0.4142135623731
  0
LWPOLYLINE
  5
D3
330
1F
100
AcDbEntity
  8
0-B_寸法
  6
Continuous
 62
     7
370
     5
100
AcDbPolyline
 90
        4
 70
     1
 43
3.0
 10
1351.810342877751
 20
3141.945146596495
 42
0.4142135623731
 10
1350.310342877751
 20
3143.445146596495
 42
0.4142135623731
 10
1348.810342877751
 20
3141.945146596495
 42
0.4142135623731
 10
1350.310342877751
 20
3140.445146596495
 42
0.4142135623731
  0
LINE
  5
D4
330
1F
100
AcDbEntity
  8
0-B_寸法
  6
Continuous
 62
   120
370
     5
100
AcDbLine
 10
-3053.689657122251
 20
3141.945146596495
 30
0.0
 11
-3053.689657122251
 21
2781.945146596495
 31
0.0
  0
LINE
  5
D5
330
1F
100
AcDbEntity
  8
0-B_寸法
  6
Continuous
 62
   120
370
     5
100
AcDbLine
 10
1350.310342877751
 20
3141.945146596495
 30
0.0
 11
1350.310342877751
 21
2781.945146596495
 31
0.0
  0
ARC
  5
D6
330
1F
100
AcDbEntity
  8
0-6_扉
  6
JWW_DASHED2
 62
    40
370
     5
100
AcDbCircle
 10
859.226982767399
 20
2557.712520566674
 30
0.0
 40
18.0
100
AcDbArc
 50
85.6539792783598
 51
175.65397927836
  0
LINE
  5
D7
330
1F
100
AcDbEntity
  8
0-6_扉
  6
JWW_DASHED2
 62
    40
370
     5
100
AcDbLine
 10
950.3322294696331
 20
2568.840594224115
 30
0.0
 11
860.5910165525933
 21
2575.660763150083
 31
0.0
  0
ARC
  5
D8
330
1F
100
AcDbEntity
  8
0-6_扉
  6
JWW_DASHED2
 62
    40
370
     5
100
AcDbCircle
 10
948.9681956844385
 20
2550.892351640706
 30
0.0
 40
18.0
100
AcDbArc
 50
355.6539792783599
 51
85.6539792783597
  0
ARC
  5
D9
330
1F
100
AcDbEntity
  8
0-6_扉
  6
JWW_DASHED2
 62
    40
370
     5
100
AcDbCircle
 10
515.9997983781986
 20
2557.712520566678
 30
0.0
 40
18.0
100
AcDbArc
 50
4.346020721638975
 51
94.34602072163908
  0
LINE
  5
DA
330
1F
100
AcDbEntity
  8
0-6_扉
  6
JWW_DASHED2
 62
    40
370
     5
100
AcDbLine
 10
424.8945516759645
 20
2568.84059422412
 30
0.0
 11
514.6357645930025
 21
2575.660763150087
 31
0.0
  0
ARC
  5
DB
330
1F
100
AcDbEntity
  8
0-6_扉
  6
JWW_DASHED2
 62
    40
370
     5
100
AcDbCircle
 10
426.2585854611572
 20
2550.892351640711
 30
0.0
 40
18.0
100
AcDbArc
 50
94.34602072163908
 51
184.3460207216391
  0
LINE
  5
DC
330
1F
100
AcDbEntity
  8
0-6_扉
  6
JWW_DASHED2
 62
    40
370
     5
100
AcDbLine
 10
966.9164382678453
 20
2549.528317855515
 30
0.0
 11
933.2809223921272
 21
2106.945146596495
 31
0.0
  0
LINE
  5
DD
330
1F
100
AcDbEntity
  8
0-6_扉
  6
JWW_DASHED2
 62
    40
370
     5
100
AcDbLine
 10
408.3103428777517
 20
2549.52831785552
 30
0.0
 11
441.9458587534629
 21
2106.945146596495
 31
0.0
  0
LINE
  5
DE
330
1F
100
AcDbEntity
  8
0-6_扉
  6
JWW_DASHED2
 62
    40
370
     5
100
AcDbLine
 10
533.9480409616042
 20
2559.076554351872
 30
0.0
 11
568.3092054410454
 21
2106.945146596495
 31
0.0
  0
LINE
  5
DF
330
1F
100
AcDbEntity
  8
0-6_扉
  6
JWW_DASHED2
 62
    40
370
     5
100
AcDbLine
 10
841.2787401839928
 20
2559.07655435187
 30
0.0
 11
806.9175757045443
 21
2106.945146596495
 31
0.0
  0
LINE
  5
E0
330
1F
100
AcDbEntity
  8
0-1_通り芯
  6
JWW_CENTER1
 62
   120
370
     5
100
AcDbLine
 10
408.3103428777517
 20
2781.945146596495
 30
0.0
 11
408.3103428777517
 21
2549.52831785552
 31
0.0
  0
LWPOLYLINE
  5
E1
330
1F
100
AcDbEntity
  8
0-B_寸法
  6
Continuous
 62
     7
370
     5
100
AcDbPolyline
 90
        4
 70
     1
 43
3.0
 10
409.8103428777517
 20
2961.945146596495
 42
0.4142135623731
 10
408.3103428777517
 20
2963.445146596495
 42
0.4142135623731
 10
406.8103428777517
 20
2961.945146596495
 42
0.4142135623731
 10
408.3103428777517
 20
2960.445146596495
 42
0.4142135623731
  0
LINE
  5
E2
330
1F
100
AcDbEntity
  8
0-B_寸法
  6
Continuous
 62
   120
370
     5
100
AcDbLine
 10
408.3103428777517
 20
2961.945146596495
 30
0.0
 11
408.3103428777517
 21
2781.945146596495
 31
0.0
  0
ARC
  5
E3
330
1F
100
AcDbEntity
  8
0-6_扉
  6
JWW_DASHED2
 62
    40
370
     5
100
AcDbCircle
 10
-2562.606297011896
 20
2557.712520566674
 30
0.0
 40
18.0
100
AcDbArc
 50
4.346020721640005
 51
94.34602072164022
  0
LINE
  5
E4
330
1F
100
AcDbEntity
  8
0-6_扉
  6
JWW_DASHED2
 62
    40
370
     5
100
AcDbLine
 10
-2653.711543714131
 20
2568.840594224115
 30
0.0
 11
-2563.970330797093
 21
2575.660763150083
 31
0.0
  0
ARC
  5
E5
330
1F
100
AcDbEntity
  8
0-6_扉
  6
JWW_DASHED2
 62
    40
370
     5
100
AcDbCircle
 10
-2652.347509928938
 20
2550.892351640706
 30
0.0
 40
18.0
100
AcDbArc
 50
94.3460207216403
 51
184.3460207216401
  0
ARC
  5
E6
330
1F
100
AcDbEntity
  8
0-6_扉
  6
JWW_DASHED2
 62
    40
370
     5
100
AcDbCircle
 10
-2219.379112622695
 20
2557.712520566678
 30
0.0
 40
18.0
100
AcDbArc
 50
85.65397927836092
 51
175.653979278361
  0
LINE
  5
E7
330
1F
100
AcDbEntity
  8
0-6_扉
  6
JWW_DASHED2
 62
    40
370
     5
100
AcDbLine
 10
-2128.273865920463
 20
2568.84059422412
 30
0.0
 11
-2218.015078837501
 21
2575.660763150087
 31
0.0
  0
ARC
  5
E8
330
1F
100
AcDbEntity
  8
0-6_扉
  6
JWW_DASHED2
 62
    40
370
     5
100
AcDbCircle
 10
-2129.637899705655
 20
2550.892351640711
 30
0.0
 40
18.0
100
AcDbArc
 50
355.653979278361
 51
85.65397927836094
  0
LINE
  5
E9
330
1F
100
AcDbEntity
  8
0-6_扉
  6
JWW_DASHED2
 62
    40
370
     5
100
AcDbLine
 10
-2670.295752512343
 20
2549.528317855515
 30
0.0
 11
-2636.660236636625
 21
2106.945146596495
 31
0.0
  0
LINE
  5
EA
330
1F
100
AcDbEntity
  8
0-6_扉
  6
JWW_DASHED2
 62
    40
370
     5
100
AcDbLine
 10
-2111.68965712225
 20
2549.52831785552
 30
0.0
 11
-2145.325172997961
 21
2106.945146596495
 31
0.0
  0
LINE
  5
EB
330
1F
100
AcDbEntity
  8
0-6_扉
  6
JWW_DASHED2
 62
    40
370
     5
100
AcDbLine
 10
-2237.327355206102
 20
2559.076554351872
 30
0.0
 11
-2271.688519685542
 21
2106.945146596495
 31
0.0
  0
LINE
  5
EC
330
1F
100
AcDbEntity
  8
0-6_扉
  6
JWW_DASHED2
 62
    40
370
     5
100
AcDbLine
 10
-2544.658054428491
 20
2559.07655435187
 30
0.0
 11
-2510.296889949041
 21
2106.945146596495
 31
0.0
  0
LINE
  5
ED
330
1F
100
AcDbEntity
  8
0-1_通り芯
  6
JWW_CENTER1
 62
   120
370
     5
100
AcDbLine
 10
-2111.689657122248
 20
2781.945146596495
 30
0.0
 11
-2111.689657122248
 21
2549.52831785552
 31
0.0
  0
LWPOLYLINE
  5
EE
330
1F
100
AcDbEntity
  8
0-B_寸法
  6
Continuous
 62
     7
370
     5
100
AcDbPolyline
 90
        4
 70
     1
 43
3.0
 10
-2110.189657122248
 20
2961.945146596495
 42
0.4142135623731
 10
-2111.689657122248
 20
2963.445146596495
 42
0.4142135623731
 10
-2113.189657122248
 20
2961.945146596495
 42
0.4142135623731
 10
-2111.689657122248
 20
2960.445146596495
 42
0.4142135623731
  0
LINE
  5
EF
330
1F
100
AcDbEntity
  8
0-B_寸法
  6
Continuous
 62
   120
370
     5
100
AcDbLine
 10
-2111.689657122248
 20
2961.945146596495
 30
0.0
 11
-2111.689657122248
 21
2781.945146596495
 31
0.0
  0
LINE
  5
F0
330
1F
100
AcDbEntity
  8
0-B_寸法
  6
Continuous
 62
   120
370
     5
100
AcDbLine
 10
-2111.689657122248
 20
2961.945146596495
 30
0.0
 11
408.3103428777517
 21
2961.945146596495
 31
0.0
  0
LINE
  5
F1
330
1F
100
AcDbEntity
  8
0-0_補助線
  6
JWW_HOJO
 62
     7
370
     5
100
AcDbLine
 10
-2843.689657122249
 20
1086.945146596495
 30
0.0
 11
-2843.689657122249
 21
3321.945146596495
 31
0.0
  0
LINE
  5
F2
330
1F
100
AcDbEntity
  8
0-0_補助線
  6
JWW_HOJO
 62
     7
370
     5
100
AcDbLine
 10
1140.310342877751
 20
1086.945146596495
 30
0.0
 11
1140.310342877751
 21
3321.945146596495
 31
0.0
  0
LINE
  5
F3
330
1F
100
AcDbEntity
  8
0-0_補助線
  6
JWW_HOJO
 62
     7
370
     5
100
AcDbLine
 10
-851.6896571222483
 20
1086.945146596495
 30
0.0
 11
-851.6896571222483
 21
3321.945146596495
 31
0.0
  0
LINE
  5
F4
330
1F
100
AcDbEntity
  8
0-0_補助線
  6
JWW_HOJO
 62
     7
370
     5
100
AcDbLine
 10
490.3103424777495
 20
1086.945146596495
 30
0.0
 11
490.3103424777495
 21
3321.945146596495
 31
0.0
  0
LINE
  5
F5
330
1F
100
AcDbEntity
  8
0-0_補助線
  6
JWW_HOJO
 62
     7
370
     5
100
AcDbLine
 10
-2193.689656722248
 20
1086.945146596495
 30
0.0
 11
-2193.689656722248
 21
3321.945146596495
 31
0.0
  0
LINE
  5
F6
330
1F
100
AcDbEntity
  8
0-0_補助線
  6
JWW_HOJO
 62
     7
370
     5
100
AcDbLine
 10
-1522.689656922249
 20
1086.945146596495
 30
0.0
 11
-1522.689656922249
 21
3321.945146596495
 31
0.0
  0
LINE
  5
F7
330
1F
100
AcDbEntity
  8
0-0_補助線
  6
JWW_HOJO
 62
     7
370
     5
100
AcDbLine
 10
-180.6896573222494
 20
1086.945146596495
 30
0.0
 11
-180.6896573222494
 21
3321.945146596495
 31
0.0
  0
LINE
  5
F8
330
1F
100
AcDbEntity
  8
0-B_寸法
  6
Continuous
 62
   120
370
     5
100
AcDbLine
 10
-2858.689657122253
 20
1806.945146596495
 30
0.0
 11
-2196.689656722248
 21
1806.945146596495
 31
0.0
  0
LWPOLYLINE
  5
F9
330
1F
100
AcDbEntity
  8
0-B_寸法
  6
Continuous
 62
     7
370
     5
100
AcDbPolyline
 90
        4
 70
     1
 43
3.0
 10
-2857.189657122253
 20
1806.945146596495
 42
0.4142135623731
 10
-2858.689657122253
 20
1808.445146596495
 42
0.4142135623731
 10
-2860.189657122253
 20
1806.945146596495
 42
0.4142135623731
 10
-2858.689657122253
 20
1805.445146596495
 42
0.4142135623731
  0
LWPOLYLINE
  5
FA
330
1F
100
AcDbEntity
  8
0-B_寸法
  6
Continuous
 62
     7
370
     5
100
AcDbPolyline
 90
        4
 70
     1
 43
3.0
 10
-2195.189656722249
 20
1806.945146596495
 42
0.4142135623731
 10
-2196.689656722248
 20
1808.445146596495
 42
0.4142135623731
 10
-2198.189656722248
 20
1806.945146596495
 42
0.4142135623731
 10
-2196.689656722248
 20
1805.445146596495
 42
0.4142135623731
  0
LINE
  5
FB
330
1F
100
AcDbEntity
  8
0-B_寸法
  6
Continuous
 62
   120
370
     5
100
AcDbLine
 10
-2858.689657122253
 20
1806.945146596495
 30
0.0
 11
-2858.689657122253
 21
1986.945146596495
 31
0.0
  0
LINE
  5
FC
330
1F
100
AcDbEntity
  8
0-B_寸法
  6
Continuous
 62
   120
370
     5
100
AcDbLine
 10
-2196.689656722248
 20
1806.945146596495
 30
0.0
 11
-2196.689656722248
 21
1986.945146596495
 31
0.0
  0
LINE
  5
FD
330
1F
100
AcDbEntity
  8
0-B_寸法
  6
Continuous
 62
   120
370
     5
100
AcDbLine
 10
-2190.689656722249
 20
1806.945146596495
 30
0.0
 11
-1528.689656922249
 21
1806.945146596495
 31
0.0
  0
LWPOLYLINE
  5
FE
330
1F
100
AcDbEntity
  8
0-B_寸法
  6
Continuous
 62
     7
370
     5
100
AcDbPolyline
 90
        4
 70
     1
 43
3.0
 10
-2189.189656722249
 20
1806.945146596495
 42
0.4142135623731
 10
-2190.689656722249
 20
1808.445146596495
 42
0.4142135623731
 10
-2192.189656722249
 20
1806.945146596495
 42
0.4142135623731
 10
-2190.689656722249
 20
1805.445146596495
 42
0.4142135623731
  0
LWPOLYLINE
  5
FF
330
1F
100
AcDbEntity
  8
0-B_寸法
  6
Continuous
 62
     7
370
     5
100
AcDbPolyline
 90
        4
 70
     1
 43
3.0
 10
-1527.189656922249
 20
1806.945146596495
 42
0.4142135623731
 10
-1528.689656922249
 20
1808.445146596495
 42
0.4142135623731
 10
-1530.189656922249
 20
1806.945146596495
 42
0.4142135623731
 10
-1528.689656922249
 20
1805.445146596495
 42
0.4142135623731
  0
LINE
  5
100
330
1F
100
AcDbEntity
  8
0-B_寸法
  6
Continuous
 62
   120
370
     5
100
AcDbLine
 10
-2190.689656722249
 20
1806.945146596495
 30
0.0
 11
-2190.689656722249
 21
1986.945146596495
 31
0.0
  0
LINE
  5
101
330
1F
100
AcDbEntity
  8
0-B_寸法
  6
Continuous
 62
   120
370
     5
100
AcDbLine
 10
-1528.689656922249
 20
1806.945146596495
 30
0.0
 11
-1528.689656922249
 21
1986.945146596495
 31
0.0
  0
LINE
  5
102
330
1F
100
AcDbEntity
  8
0-B_寸法
  6
Continuous
 62
   120
370
     5
100
AcDbLine
 10
-1516.689656922248
 20
1806.945146596495
 30
0.0
 11
-854.6896571222508
 21
1806.945146596495
 31
0.0
  0
LWPOLYLINE
  5
103
330
1F
100
AcDbEntity
  8
0-B_寸法
  6
Continuous
 62
     7
370
     5
100
AcDbPolyline
 90
        4
 70
     1
 43
3.0
 10
-1515.189656922248
 20
1806.945146596495
 42
0.4142135623731
 10
-1516.689656922248
 20
1808.445146596495
 42
0.4142135623731
 10
-1518.189656922247
 20
1806.945146596495
 42
0.4142135623731
 10
-1516.689656922248
 20
1805.445146596495
 42
0.4142135623731
  0
LWPOLYLINE
  5
104
330
1F
100
AcDbEntity
  8
0-B_寸法
  6
Continuous
 62
     7
370
     5
100
AcDbPolyline
 90
        4
 70
     1
 43
3.0
 10
-853.1896571222507
 20
1806.945146596495
 42
0.4142135623731
 10
-854.6896571222508
 20
1808.445146596495
 42
0.4142135623731
 10
-856.1896571222508
 20
1806.945146596495
 42
0.4142135623731
 10
-854.6896571222508
 20
1805.445146596495
 42
0.4142135623731
  0
LINE
  5
105
330
1F
100
AcDbEntity
  8
0-B_寸法
  6
Continuous
 62
   120
370
     5
100
AcDbLine
 10
-1516.689656922248
 20
1806.945146596495
 30
0.0
 11
-1516.689656922248
 21
1986.945146596495
 31
0.0
  0
LINE
  5
106
330
1F
100
AcDbEntity
  8
0-B_寸法
  6
Continuous
 62
   120
370
     5
100
AcDbLine
 10
-854.6896571222508
 20
1806.945146596495
 30
0.0
 11
-854.6896571222508
 21
1986.945146596495
 31
0.0
  0
LINE
  5
107
330
1F
100
AcDbEntity
  8
0-B_寸法
  6
Continuous
 62
   120
370
     5
100
AcDbLine
 10
-848.6896571222476
 20
1806.945146596495
 30
0.0
 11
-186.689657322249
 21
1806.945146596495
 31
0.0
  0
LWPOLYLINE
  5
108
330
1F
100
AcDbEntity
  8
0-B_寸法
  6
Continuous
 62
     7
370
     5
100
AcDbPolyline
 90
        4
 70
     1
 43
3.0
 10
-847.1896571222476
 20
1806.945146596495
 42
0.4142135623731
 10
-848.6896571222476
 20
1808.445146596495
 42
0.4142135623731
 10
-850.1896571222477
 20
1806.945146596495
 42
0.4142135623731
 10
-848.6896571222476
 20
1805.445146596495
 42
0.4142135623731
  0
LWPOLYLINE
  5
109
330
1F
100
AcDbEntity
  8
0-B_寸法
  6
Continuous
 62
     7
370
     5
100
AcDbPolyline
 90
        4
 70
     1
 43
3.0
 10
-185.189657322249
 20
1806.945146596495
 42
0.4142135623731
 10
-186.689657322249
 20
1808.445146596495
 42
0.4142135623731
 10
-188.189657322249
 20
1806.945146596495
 42
0.4142135623731
 10
-186.689657322249
 20
1805.445146596495
 42
0.4142135623731
  0
LINE
  5
10A
330
1F
100
AcDbEntity
  8
0-B_寸法
  6
Continuous
 62
   120
370
     5
100
AcDbLine
 10
-848.6896571222476
 20
1806.945146596495
 30
0.0
 11
-848.6896571222476
 21
1986.945146596495
 31
0.0
  0
LINE
  5
10B
330
1F
100
AcDbEntity
  8
0-B_寸法
  6
Continuous
 62
   120
370
     5
100
AcDbLine
 10
-186.689657322249
 20
1806.945146596495
 30
0.0
 11
-186.689657322249
 21
1986.945146596495
 31
0.0
  0
LINE
  5
10C
330
1F
100
AcDbEntity
  8
0-B_寸法
  6
Continuous
 62
   120
370
     5
100
AcDbLine
 10
-174.6896573222497
 20
1806.945146596495
 30
0.0
 11
487.3103424777506
 21
1806.945146596495
 31
0.0
  0
LWPOLYLINE
  5
10D
330
1F
100
AcDbEntity
  8
0-B_寸法
  6
Continuous
 62
     7
370
     5
100
AcDbPolyline
 90
        4
 70
     1
 43
3.0
 10
-173.1896573222497
 20
1806.945146596495
 42
0.4142135623731
 10
-174.6896573222497
 20
1808.445146596495
 42
0.4142135623731
 10
-176.1896573222497
 20
1806.945146596495
 42
0.4142135623731
 10
-174.6896573222497
 20
1805.445146596495
 42
0.4142135623731
  0
LWPOLYLINE
  5
10E
330
1F
100
AcDbEntity
  8
0-B_寸法
  6
Continuous
 62
     7
370
     5
100
AcDbPolyline
 90
        4
 70
     1
 43
3.0
 10
488.8103424777506
 20
1806.945146596495
 42
0.4142135623731
 10
487.3103424777506
 20
1808.445146596495
 42
0.4142135623731
 10
485.8103424777506
 20
1806.945146596495
 42
0.4142135623731
 10
487.3103424777506
 20
1805.445146596495
 42
0.4142135623731
  0
LINE
  5
10F
330
1F
100
AcDbEntity
  8
0-B_寸法
  6
Continuous
 62
   120
370
     5
100
AcDbLine
 10
-174.6896573222497
 20
1806.945146596495
 30
0.0
 11
-174.6896573222497
 21
1986.945146596495
 31
0.0
  0
LINE
  5
110
330
1F
100
AcDbEntity
  8
0-B_寸法
  6
Continuous
 62
   120
370
     5
100
AcDbLine
 10
487.3103424777506
 20
1806.945146596495
 30
0.0
 11
487.3103424777506
 21
1986.945146596495
 31
0.0
  0
LINE
  5
111
330
1F
100
AcDbEntity
  8
0-B_寸法
  6
Continuous
 62
   120
370
     5
100
AcDbLine
 10
493.3103424777502
 20
1806.945146596495
 30
0.0
 11
1155.310342877754
 21
1806.945146596495
 31
0.0
  0
LWPOLYLINE
  5
112
330
1F
100
AcDbEntity
  8
0-B_寸法
  6
Continuous
 62
     7
370
     5
100
AcDbPolyline
 90
        4
 70
     1
 43
3.0
 10
494.8103424777502
 20
1806.945146596495
 42
0.4142135623731
 10
493.3103424777502
 20
1808.445146596495
 42
0.4142135623731
 10
491.8103424777502
 20
1806.945146596495
 42
0.4142135623731
 10
493.3103424777502
 20
1805.445146596495
 42
0.4142135623731
  0
LWPOLYLINE
  5
113
330
1F
100
AcDbEntity
  8
0-B_寸法
  6
Continuous
 62
     7
370
     5
100
AcDbPolyline
 90
        4
 70
     1
 43
3.0
 10
1156.810342877754
 20
1806.945146596495
 42
0.4142135623731
 10
1155.310342877754
 20
1808.445146596495
 42
0.4142135623731
 10
1153.810342877754
 20
1806.945146596495
 42
0.4142135623731
 10
1155.310342877754
 20
1805.445146596495
 42
0.4142135623731
  0
LINE
  5
114
330
1F
100
AcDbEntity
  8
0-B_寸法
  6
Continuous
 62
   120
370
     5
100
AcDbLine
 10
493.3103424777502
 20
1806.945146596495
 30
0.0
 11
493.3103424777502
 21
1986.945146596495
 31
0.0
  0
LINE
  5
115
330
1F
100
AcDbEntity
  8
0-B_寸法
  6
Continuous
 62
   120
370
     5
100
AcDbLine
 10
1155.310342877754
 20
1806.945146596495
 30
0.0
 11
1155.310342877754
 21
1986.945146596495
 31
0.0
  0
LINE
  5
116
330
1F
100
AcDbEntity
  8
0-B_寸法
  6
Continuous
 62
   120
370
     5
100
AcDbLine
 10
-2858.689657122253
 20
1626.945146596495
 30
0.0
 11
-1528.689656922249
 21
1626.945146596495
 31
0.0
  0
LWPOLYLINE
  5
117
330
1F
100
AcDbEntity
  8
0-B_寸法
  6
Continuous
 62
     7
370
     5
100
AcDbPolyline
 90
        4
 70
     1
 43
3.0
 10
-2857.189657122253
 20
1626.945146596495
 42
0.4142135623731
 10
-2858.689657122253
 20
1628.445146596495
 42
0.4142135623731
 10
-2860.189657122253
 20
1626.945146596495
 42
0.4142135623731
 10
-2858.689657122253
 20
1625.445146596495
 42
0.4142135623731
  0
LWPOLYLINE
  5
118
330
1F
100
AcDbEntity
  8
0-B_寸法
  6
Continuous
 62
     7
370
     5
100
AcDbPolyline
 90
        4
 70
     1
 43
3.0
 10
-1527.189656922249
 20
1626.945146596495
 42
0.4142135623731
 10
-1528.689656922249
 20
1628.445146596495
 42
0.4142135623731
 10
-1530.189656922249
 20
1626.945146596495
 42
0.4142135623731
 10
-1528.689656922249
 20
1625.445146596495
 42
0.4142135623731
  0
LINE
  5
119
330
1F
100
AcDbEntity
  8
0-B_寸法
  6
Continuous
 62
   120
370
     5
100
AcDbLine
 10
-2858.689657122253
 20
1626.945146596495
 30
0.0
 11
-2858.689657122253
 21
1806.945146596495
 31
0.0
  0
LINE
  5
11A
330
1F
100
AcDbEntity
  8
0-B_寸法
  6
Continuous
 62
   120
370
     5
100
AcDbLine
 10
-1528.689656922249
 20
1626.945146596495
 30
0.0
 11
-1528.689656922249
 21
1806.945146596495
 31
0.0
  0
LINE
  5
11B
330
1F
100
AcDbEntity
  8
0-B_寸法
  6
Continuous
 62
   120
370
     5
100
AcDbLine
 10
-1528.689656922249
 20
1626.945146596495
 30
0.0
 11
-1516.689656922248
 21
1626.945146596495
 31
0.0
  0
LWPOLYLINE
  5
11C
330
1F
100
AcDbEntity
  8
0-B_寸法
  6
Continuous
 62
     7
370
     5
100
AcDbPolyline
 90
        4
 70
     1
 43
3.0
 10
-1515.189656922248
 20
1626.945146596495
 42
0.4142135623731
 10
-1516.689656922248
 20
1628.445146596495
 42
0.4142135623731
 10
-1518.189656922247
 20
1626.945146596495
 42
0.4142135623731
 10
-1516.689656922248
 20
1625.445146596495
 42
0.4142135623731
  0
LINE
  5
11D
330
1F
100
AcDbEntity
  8
0-B_寸法
  6
Continuous
 62
   120
370
     5
100
AcDbLine
 10
-1516.689656922248
 20
1626.945146596495
 30
0.0
 11
-1516.689656922248
 21
1806.945146596495
 31
0.0
  0
LINE
  5
11E
330
1F
100
AcDbEntity
  8
0-B_寸法
  6
Continuous
 62
   120
370
     5
100
AcDbLine
 10
-1516.689656922248
 20
1626.945146596495
 30
0.0
 11
-186.689657322249
 21
1626.945146596495
 31
0.0
  0
LWPOLYLINE
  5
11F
330
1F
100
AcDbEntity
  8
0-B_寸法
  6
Continuous
 62
     7
370
     5
100
AcDbPolyline
 90
        4
 70
     1
 43
3.0
 10
-185.189657322249
 20
1626.945146596495
 42
0.4142135623731
 10
-186.689657322249
 20
1628.445146596495
 42
0.4142135623731
 10
-188.189657322249
 20
1626.945146596495
 42
0.4142135623731
 10
-186.689657322249
 20
1625.445146596495
 42
0.4142135623731
  0
LINE
  5
120
330
1F
100
AcDbEntity
  8
0-B_寸法
  6
Continuous
 62
   120
370
     5
100
AcDbLine
 10
-186.689657322249
 20
1626.945146596495
 30
0.0
 11
-186.689657322249
 21
1806.945146596495
 31
0.0
  0
LINE
  5
121
330
1F
100
AcDbEntity
  8
0-B_寸法
  6
Continuous
 62
   120
370
     5
100
AcDbLine
 10
-186.689657322249
 20
1626.945146596495
 30
0.0
 11
-174.6896573222497
 21
1626.945146596495
 31
0.0
  0
LWPOLYLINE
  5
122
330
1F
100
AcDbEntity
  8
0-B_寸法
  6
Continuous
 62
     7
370
     5
100
AcDbPolyline
 90
        4
 70
     1
 43
3.0
 10
-173.1896573222497
 20
1626.945146596495
 42
0.4142135623731
 10
-174.6896573222497
 20
1628.445146596495
 42
0.4142135623731
 10
-176.1896573222497
 20
1626.945146596495
 42
0.4142135623731
 10
-174.6896573222497
 20
1625.445146596495
 42
0.4142135623731
  0
LINE
  5
123
330
1F
100
AcDbEntity
  8
0-B_寸法
  6
Continuous
 62
   120
370
     5
100
AcDbLine
 10
-174.6896573222497
 20
1626.945146596495
 30
0.0
 11
-174.6896573222497
 21
1806.945146596495
 31
0.0
  0
LINE
  5
124
330
1F
100
AcDbEntity
  8
0-B_寸法
  6
Continuous
 62
   120
370
     5
100
AcDbLine
 10
-174.6896573222497
 20
1626.945146596495
 30
0.0
 11
1155.310342877754
 21
1626.945146596495
 31
0.0
  0
LWPOLYLINE
  5
125
330
1F
100
AcDbEntity
  8
0-B_寸法
  6
Continuous
 62
     7
370
     5
100
AcDbPolyline
 90
        4
 70
     1
 43
3.0
 10
1156.810342877754
 20
1626.945146596495
 42
0.4142135623731
 10
1155.310342877754
 20
1628.445146596495
 42
0.4142135623731
 10
1153.810342877754
 20
1626.945146596495
 42
0.4142135623731
 10
1155.310342877754
 20
1625.445146596495
 42
0.4142135623731
  0
LINE
  5
126
330
1F
100
AcDbEntity
  8
0-B_寸法
  6
Continuous
 62
   120
370
     5
100
AcDbLine
 10
1155.310342877754
 20
1626.945146596495
 30
0.0
 11
1155.310342877754
 21
1806.945146596495
 31
0.0
  0
LINE
  5
127
330
1F
100
AcDbEntity
  8
0-B_寸法
  6
Continuous
 62
   120
370
     5
100
AcDbLine
 10
-3023.689657122249
 20
1446.945146596495
 30
0.0
 11
-2843.689657122249
 21
1446.945146596495
 31
0.0
  0
LWPOLYLINE
  5
128
330
1F
100
AcDbEntity
  8
0-B_寸法
  6
Continuous
 62
     7
370
     5
100
AcDbPolyline
 90
        4
 70
     1
 43
3.0
 10
-3022.18965712225
 20
1446.945146596495
 42
0.4142135623731
 10
-3023.689657122249
 20
1448.445146596495
 42
0.4142135623731
 10
-3025.189657122249
 20
1446.945146596495
 42
0.4142135623731
 10
-3023.689657122249
 20
1445.445146596495
 42
0.4142135623731
  0
LWPOLYLINE
  5
129
330
1F
100
AcDbEntity
  8
0-B_寸法
  6
Continuous
 62
     7
370
     5
100
AcDbPolyline
 90
        4
 70
     1
 43
3.0
 10
-2842.18965712225
 20
1446.945146596495
 42
0.4142135623731
 10
-2843.689657122249
 20
1448.445146596495
 42
0.4142135623731
 10
-2845.189657122249
 20
1446.945146596495
 42
0.4142135623731
 10
-2843.689657122249
 20
1445.445146596495
 42
0.4142135623731
  0
LINE
  5
12A
330
1F
100
AcDbEntity
  8
0-B_寸法
  6
Continuous
 62
   120
370
     5
100
AcDbLine
 10
-3023.689657122249
 20
1266.945146596495
 30
0.0
 11
-3023.689657122249
 21
1806.945146596495
 31
0.0
  0
LINE
  5
12B
330
1F
100
AcDbEntity
  8
0-B_寸法
  6
Continuous
 62
   120
370
     5
100
AcDbLine
 10
-2843.689657122249
 20
1446.945146596495
 30
0.0
 11
-2843.689657122249
 21
1806.945146596495
 31
0.0
  0
LINE
  5
12C
330
1F
100
AcDbEntity
  8
0-B_寸法
  6
Continuous
 62
   120
370
     5
100
AcDbLine
 10
-2843.689657122249
 20
1446.945146596495
 30
0.0
 11
1140.310342877751
 21
1446.945146596495
 31
0.0
  0
LWPOLYLINE
  5
12D
330
1F
100
AcDbEntity
  8
0-B_寸法
  6
Continuous
 62
     7
370
     5
100
AcDbPolyline
 90
        4
 70
     1
 43
3.0
 10
1141.810342877751
 20
1446.945146596495
 42
0.4142135623731
 10
1140.310342877751
 20
1448.445146596495
 42
0.4142135623731
 10
1138.810342877751
 20
1446.945146596495
 42
0.4142135623731
 10
1140.310342877751
 20
1445.445146596495
 42
0.4142135623731
  0
LINE
  5
12E
330
1F
100
AcDbEntity
  8
0-B_寸法
  6
Continuous
 62
   120
370
     5
100
AcDbLine
 10
1140.310342877751
 20
1446.945146596495
 30
0.0
 11
1140.310342877751
 21
1806.945146596495
 31
0.0
  0
LINE
  5
12F
330
1F
100
AcDbEntity
  8
0-B_寸法
  6
Continuous
 62
   120
370
     5
100
AcDbLine
 10
1140.310342877751
 20
1446.945146596495
 30
0.0
 11
1320.310342877751
 21
1446.945146596495
 31
0.0
  0
LWPOLYLINE
  5
130
330
1F
100
AcDbEntity
  8
0-B_寸法
  6
Continuous
 62
     7
370
     5
100
AcDbPolyline
 90
        4
 70
     1
 43
3.0
 10
1321.810342877751
 20
1446.945146596495
 42
0.4142135623731
 10
1320.310342877751
 20
1448.445146596495
 42
0.4142135623731
 10
1318.810342877751
 20
1446.945146596495
 42
0.4142135623731
 10
1320.310342877751
 20
1445.445146596495
 42
0.4142135623731
  0
LINE
  5
131
330
1F
100
AcDbEntity
  8
0-B_寸法
  6
Continuous
 62
   120
370
     5
100
AcDbLine
 10
1320.310342877751
 20
1266.945146596495
 30
0.0
 11
1320.310342877751
 21
1806.945146596495
 31
0.0
  0
LINE
  5
132
330
1F
100
AcDbEntity
  8
0-B_寸法
  6
Continuous
 62
   120
370
     5
100
AcDbLine
 10
-3023.689657122249
 20
1266.945146596495
 30
0.0
 11
1320.310342877751
 21
1266.945146596495
 31
0.0
  0
LWPOLYLINE
  5
133
330
1F
100
AcDbEntity
  8
0-B_寸法
  6
Continuous
 62
     7
370
     5
100
AcDbPolyline
 90
        4
 70
     1
 43
3.0
 10
-3022.18965712225
 20
1266.945146596495
 42
0.4142135623731
 10
-3023.689657122249
 20
1268.445146596495
 42
0.4142135623731
 10
-3025.189657122249
 20
1266.945146596495
 42
0.4142135623731
 10
-3023.689657122249
 20
1265.445146596495
 42
0.4142135623731
  0
LWPOLYLINE
  5
134
330
1F
100
AcDbEntity
  8
0-B_寸法
  6
Continuous
 62
     7
370
     5
100
AcDbPolyline
 90
        4
 70
     1
 43
3.0
 10
1321.810342877751
 20
1266.945146596495
 42
0.4142135623731
 10
1320.310342877751
 20
1268.445146596495
 42
0.4142135623731
 10
1318.810342877751
 20
1266.945146596495
 42
0.4142135623731
 10
1320.310342877751
 20
1265.445146596495
 42
0.4142135623731
  0
MTEXT
  5
135
330
1F
100
AcDbEntity
  8
0-B_寸法
  6
Continuous
 62
     7
370
   211
100
AcDbMText
 10
-2643.68965702225
 20
1627.665146596495
 30
0.0
 40
91.43999999999998
 41
900.0
 46
0.0
 71
     7
 72
     1
  1
{\fＭＳ ゴシック|b0|i0|c128|p49;折戸：ＤＷ＝833}
 73
     1
 44
1.0
  0
MTEXT
  5
136
330
1F
100
AcDbEntity
  8
0-B_寸法
  6
Continuous
 62
     7
370
   211
100
AcDbMText
 10
-1301.689657122248
 20
1627.665146596495
 30
0.0
 40
91.43999999999998
 41
900.0
 46
0.0
 71
     7
 72
     1
  1
{\fＭＳ ゴシック|b0|i0|c128|p49;折戸：ＤＷ＝833}
 73
     1
 44
1.0
  0
MTEXT
  5
137
330
1F
100
AcDbEntity
  8
0-B_寸法
  6
Continuous
 62
     7
370
   211
100
AcDbMText
 10
40.31034277775319
 20
1627.665146596495
 30
0.0
 40
91.43999999999998
 41
900.0
 46
0.0
 71
     7
 72
     1
  1
{\fＭＳ ゴシック|b0|i0|c128|p49;折戸：ＤＷ＝833}
 73
     1
 44
1.0
  0
MTEXT
  5
138
330
1F
100
AcDbEntity
  8
0-B_寸法
  6
Continuous
 62
     7
370
   211
100
AcDbMText
 10
-2993.689657122249
 20
1447.665146596495
 30
0.0
 40
91.44
 41
120.0
 46
0.0
 71
     7
 72
     1
  1
{\fＭＳ ゴシック|b0|i0|c128|p49;30}
 73
     1
 44
1.0
  0
MTEXT
  5
139
330
1F
100
AcDbEntity
  8
0-B_寸法
  6
Continuous
 62
     7
370
   211
100
AcDbMText
 10
1170.310342877751
 20
1447.665146596495
 30
0.0
 40
91.44
 41
120.0
 46
0.0
 71
     7
 72
     1
  1
{\fＭＳ ゴシック|b0|i0|c128|p49;30}
 73
     1
 44
1.0
  0
MTEXT
  5
13A
330
1F
100
AcDbEntity
  8
0-B_寸法
  6
Continuous
 62
     7
370
   211
100
AcDbMText
 10
-2737.689656922251
 20
1801.950146596495
 30
0.0
 40
80.00999999999999
 41
420.0
 46
0.0
 71
     7
 72
     1
  1
{\fＭＳ ゴシック|b0|i0|c128|p49;ＤＷ=416}
 73
     1
 44
1.0
  0
MTEXT
  5
13B
330
1F
100
AcDbEntity
  8
0-B_寸法
  6
Continuous
 62
     7
370
   211
100
AcDbMText
 10
-2069.689656822249
 20
1801.950146596495
 30
0.0
 40
80.00999999999999
 41
420.0
 46
0.0
 71
     7
 72
     1
  1
{\fＭＳ ゴシック|b0|i0|c128|p49;ＤＷ=416}
 73
     1
 44
1.0
  0
MTEXT
  5
13C
330
1F
100
AcDbEntity
  8
0-B_寸法
  6
Continuous
 62
     7
370
   211
100
AcDbMText
 10
-1395.689657022249
 20
1801.950146596495
 30
0.0
 40
80.00999999999999
 41
420.0
 46
0.0
 71
     7
 72
     1
  1
{\fＭＳ ゴシック|b0|i0|c128|p49;ＤＷ=416}
 73
     1
 44
1.0
  0
MTEXT
  5
13D
330
1F
100
AcDbEntity
  8
0-B_寸法
  6
Continuous
 62
     7
370
   211
100
AcDbMText
 10
-727.6896572222474
 20
1801.950146596495
 30
0.0
 40
80.00999999999999
 41
420.0
 46
0.0
 71
     7
 72
     1
  1
{\fＭＳ ゴシック|b0|i0|c128|p49;ＤＷ=416}
 73
     1
 44
1.0
  0
MTEXT
  5
13E
330
1F
100
AcDbEntity
  8
0-B_寸法
  6
Continuous
 62
     7
370
   211
100
AcDbMText
 10
-53.68965742224958
 20
1801.950146596495
 30
0.0
 40
80.00999999999999
 41
420.0
 46
0.0
 71
     7
 72
     1
  1
{\fＭＳ ゴシック|b0|i0|c128|p49;ＤＷ=416}
 73
     1
 44
1.0
  0
MTEXT
  5
13F
330
1F
100
AcDbEntity
  8
0-B_寸法
  6
Continuous
 62
     7
370
   211
100
AcDbMText
 10
614.3103426777521
 20
1801.950146596495
 30
0.0
 40
80.01000000000033
 41
420.0000000000017
 46
0.0
 71
     7
 72
     1
  1
{\fＭＳ ゴシック|b0|i0|c128|p49;ＤＷ=416}
 73
     1
 44
1.0
  0
MTEXT
  5
140
330
1F
100
AcDbEntity
  8
0-B_寸法
  6
Continuous
 62
     7
370
   211
100
AcDbMText
 10
-1241.689657122248
 20
3142.665146596495
 30
0.0
 40
91.43999999999997
 41
780.0
 46
0.0
 71
     7
 72
     1
  1
{\fＭＳ ゴシック|b0|i0|c128|p49;ＲＯＷ＝2,568}
 73
     1
 44
1.0
  0
MTEXT
  5
141
330
1F
100
AcDbEntity
  8
0-B_寸法
  6
Continuous
 62
     7
370
   211
100
AcDbMText
 10
-1181.68965712225
 20
1447.665146596495
 30
0.0
 40
91.44000000000021
 41
660.0000000000017
 46
0.0
 71
     7
 72
     1
  1
{\fＭＳ ゴシック|b0|i0|c128|p49;枠内＝2,498}
 73
     1
 44
1.0
  0
MTEXT
  5
142
330
1F
100
AcDbEntity
  8
0-B_寸法
  6
Continuous
 62
     7
370
   211
100
AcDbMText
 10
-1181.68965712225
 20
1267.665146596495
 30
0.0
 40
91.44000000000021
 41
660.0000000000017
 46
0.0
 71
     7
 72
     1
  1
{\fＭＳ ゴシック|b0|i0|c128|p49;枠外＝2,558}
 73
     1
 44
1.0
  0
MTEXT
  5
143
330
1F
100
AcDbEntity
  8
0-B_寸法
  6
Continuous
 62
     7
370
   211
100
AcDbMText
 10
-1492.689656922249
 20
1627.665146596495
 30
0.0
 40
91.44
 41
60.0
 46
0.0
 71
     7
 72
     1
  1
{\fＭＳ ゴシック|b0|i0|c128|p49;2}
 73
     1
 44
1.0
  0
MTEXT
  5
144
330
1F
100
AcDbEntity
  8
0-B_寸法
  6
Continuous
 62
     7
370
   211
100
AcDbMText
 10
-150.6896573222494
 20
1627.665146596495
 30
0.0
 40
91.44
 41
60.0
 46
0.0
 71
     7
 72
     1
  1
{\fＭＳ ゴシック|b0|i0|c128|p49;2}
 73
     1
 44
1.0
  0
MTEXT
  5
145
330
1F
100
AcDbEntity
  8
0-B_寸法
  6
Continuous
 62
     7
370
   211
100
AcDbMText
 10
-1405.791242829724
 20
2962.665146596495
 30
0.0
 40
91.43999999999998
 41
1140.0
 46
0.0
 71
     7
 72
     1
  1
{\fＭＳ ゴシック|b0|i0|c128|p49;有効開口寸法＝2,134}
 73
     1
 44
1.0
  0
MTEXT
  5
146
330
1F
100
AcDbEntity
  8
0-A_文字
  6
Continuous
 62
     7
370
     5
100
AcDbMText
 10
-3590.222872404844
 20
3310.355192579901
 30
0.0
 40
100.584
 41
660.0
 46
0.0
 71
     7
 72
     1
  1
{\fＭＳ ゴシック|b0|i0|c128|p49;■横断面図}
 73
     1
 44
1.0
  0
LINE
  5
147
330
1F
100
AcDbEntity
  8
F-0_補助線
  6
JWW_HOJO
 62
   120
370
     5
100
AcDbLine
 10
-6140.081333436773
 20
-4455.0
 30
0.0
 11
-6140.081333436773
 21
4424.999604096284
 31
0.0
  0
LINE
  5
148
330
1F
100
AcDbEntity
  8
F-0_補助線
  6
JWW_HOJO
 62
   120
370
     5
100
AcDbLine
 10
-6140.081333436773
 20
4424.999604096284
 30
0.0
 11
6159.917676803936
 21
4424.999604096284
 31
0.0
  0
LINE
  5
149
330
1F
100
AcDbEntity
  8
F-0_補助線
  6
JWW_HOJO
 62
   120
370
     5
100
AcDbLine
 10
6159.917676803936
 20
4424.999604096284
 30
0.0
 11
6159.917676803936
 21
-4455.0
 31
0.0
  0
LINE
  5
14A
330
1F
100
AcDbEntity
  8
F-0_補助線
  6
JWW_HOJO
 62
   120
370
     5
100
AcDbLine
 10
6159.917676803936
 20
-4455.0
 30
0.0
 11
-6140.081333436773
 21
-4455.0
 31
0.0
  0
LINE
  5
14B
330
1F
100
AcDbEntity
  8
F-0_補助線
  6
JWW_HOJO
 62
     7
370
     5
100
AcDbLine
 10
509.9185840832865
 20
-3795.000003092998
 30
0.0
 11
509.9185840832865
 21
-4195.000008247994
 31
0.0
  0
LINE
  5
14C
330
1F
100
AcDbEntity
  8
F-1_枠
  6
Continuous
 62
   200
370
     5
100
AcDbLine
 10
5859.917429364114
 20
4174.999769056166
 30
0.0
 11
5859.917429364114
 21
-4205.000164959882
 31
0.0
  0
LINE
  5
14D
330
1F
100
AcDbEntity
  8
F-1_枠
  6
Continuous
 62
   200
370
     5
100
AcDbLine
 10
-5840.081317971782
 20
4174.999769056166
 30
0.0
 11
-5840.081317971782
 21
-4205.000164959882
 31
0.0
  0
LINE
  5
14E
330
1F
100
AcDbEntity
  8
F-1_枠
  6
Continuous
 62
   200
370
     5
100
AcDbLine
 10
5859.917429364114
 20
-4205.000002577499
 30
0.0
 11
-5840.081085996952
 21
-4205.000002577499
 31
0.0
  0
LINE
  5
14F
330
1F
100
AcDbEntity
  8
F-1_枠
  6
Continuous
 62
   200
370
     5
100
AcDbLine
 10
-5830.081323642279
 20
4174.999769056166
 30
0.0
 11
-5830.081323642279
 21
-4205.000164959882
 31
0.0
  0
LINE
  5
150
330
1F
100
AcDbEntity
  8
F-1_枠
  6
Continuous
 62
   200
370
     5
100
AcDbLine
 10
-5835.081309208291
 20
4174.999769056166
 30
0.0
 11
-5835.081309208291
 21
-4205.000164959882
 31
0.0
  0
LINE
  5
151
330
1F
100
AcDbEntity
  8
F-1_枠
  6
Continuous
 62
   200
370
     5
100
AcDbLine
 10
5854.917165428305
 20
4174.999769056166
 30
0.0
 11
5854.917165428305
 21
-4205.000164959882
 31
0.0
  0
LINE
  5
152
330
1F
100
AcDbEntity
  8
F-1_枠
  6
Continuous
 62
   200
370
     5
100
AcDbLine
 10
5849.917643811961
 20
4174.999769056166
 30
0.0
 11
5849.917643811961
 21
-4205.000164959882
 31
0.0
  0
LINE
  5
153
330
1F
100
AcDbEntity
  8
F-1_枠
  6
Continuous
 62
   200
370
     5
100
AcDbLine
 10
5859.917429364114
 20
-4199.999993814004
 30
0.0
 11
-5840.081085996952
 21
-4199.999993814004
 31
0.0
  0
LINE
  5
154
330
1F
100
AcDbEntity
  8
F-1_枠
  6
Continuous
 62
   200
370
     5
100
AcDbLine
 10
5859.917429364114
 20
-4195.000008247994
 30
0.0
 11
-5840.081085996952
 21
-4195.000008247994
 31
0.0
  0
LINE
  5
155
330
1F
100
AcDbEntity
  8
F-1_枠
  6
Continuous
 62
   200
370
     5
100
AcDbLine
 10
4349.917891251784
 20
-3795.000003092998
 30
0.0
 11
4349.917891251784
 21
-4195.000008247994
 31
0.0
  0
LINE
  5
156
330
1F
100
AcDbEntity
  8
F-1_枠
  6
Continuous
 62
   200
370
     5
100
AcDbLine
 10
2849.91739637214
 20
-3795.000003092998
 30
0.0
 11
2849.91739637214
 21
-4195.000008247994
 31
0.0
  0
LINE
  5
157
330
1F
100
AcDbEntity
  8
F-1_枠
  6
Continuous
 62
   200
370
     5
100
AcDbLine
 10
9.918542843316231
 20
-3795.000003092998
 30
0.0
 11
9.918542843316231
 21
-4195.000008247994
 31
0.0
  0
LINE
  5
158
330
1F
100
AcDbEntity
  8
F-1_枠
  6
Continuous
 62
   200
370
     5
100
AcDbLine
 10
9.918542843316231
 20
-3994.999936078045
 30
0.0
 11
5849.917643811961
 21
-3995.005364289155
 31
0.0
  0
LINE
  5
159
330
1F
100
AcDbEntity
  8
F-1_枠
  6
Continuous
 62
   200
370
     5
100
AcDbLine
 10
-5840.081085996952
 20
4174.999769056166
 30
0.0
 11
5859.917429364114
 21
4174.999769056166
 31
0.0
  0
LINE
  5
15A
330
1F
100
AcDbEntity
  8
F-1_枠
  6
Continuous
 62
   200
370
     5
100
AcDbLine
 10
-5840.081085996952
 20
4164.999983504013
 30
0.0
 11
5859.917429364114
 21
4164.999983504013
 31
0.0
  0
LINE
  5
15B
330
1F
100
AcDbEntity
  8
F-1_枠
  6
Continuous
 62
   200
370
     5
100
AcDbLine
 10
-5840.081085996952
 20
4169.999505120355
 30
0.0
 11
5859.917429364114
 21
4169.999505120355
 31
0.0
  0
LINE
  5
15C
330
1F
100
AcDbEntity
  8
F-0_補助線
  6
JWW_HOJO
 62
     7
370
     5
100
AcDbLine
 10
-5830.081323642279
 20
-3994.99993607839
 30
0.0
 11
9.918542843316231
 21
-3994.99993607839
 31
0.0
  0
LINE
  5
15D
330
1F
100
AcDbEntity
  8
F-0_補助線
  6
JWW_HOJO
 62
     7
370
     5
100
AcDbLine
 10
-5830.081323642279
 20
-3904.99993607839
 30
0.0
 11
9.918542843316231
 21
-3904.99993607839
 31
0.0
  0
LINE
  5
15E
330
1F
100
AcDbEntity
  8
F-0_補助線
  6
JWW_HOJO
 62
     7
370
     5
100
AcDbLine
 10
-5830.081323642279
 20
-4084.99993607839
 30
0.0
 11
9.918542843316231
 21
-4084.99993607839
 31
0.0
  0
LINE
  5
15F
330
1F
100
AcDbEntity
  8
F-0_補助線
  6
JWW_HOJO
 62
     7
370
     5
100
AcDbLine
 10
9.918408067688347
 20
-4139.999739777984
 30
0.0
 11
5849.917509036333
 21
-4140.005167989091
 31
0.0
  0
LINE
  5
160
330
1F
100
AcDbEntity
  8
F-0_補助線
  6
JWW_HOJO
 62
     7
370
     5
100
AcDbLine
 10
9.918491721639953
 20
-4049.999739778022
 30
0.0
 11
5849.917592690285
 21
-4050.005167989132
 31
0.0
  0
LINE
  5
161
330
1F
100
AcDbEntity
  8
F-0_補助線
  6
JWW_HOJO
 62
     7
370
     5
100
AcDbLine
 10
9.91859396535915
 20
-3939.99973721807
 30
0.0
 11
5849.917694934003
 21
-3940.005165429179
 31
0.0
  0
LINE
  5
162
330
1F
100
AcDbEntity
  8
F-0_補助線
  6
JWW_HOJO
 62
     7
370
     5
100
AcDbLine
 10
9.918677619310756
 20
-3849.999737218109
 30
0.0
 11
5849.917778587955
 21
-3850.005165429218
 31
0.0
  0
LINE
  5
163
330
1F
100
AcDbEntity
  8
F-0_補助線
  6
JWW_HOJO
 62
     7
370
     5
100
AcDbLine
 10
2939.91739637214
 20
-3795.000003092998
 30
0.0
 11
2939.91739637214
 21
-4195.000008247994
 31
0.0
  0
LINE
  5
164
330
1F
100
AcDbEntity
  8
F-0_補助線
  6
JWW_HOJO
 62
     7
370
     5
100
AcDbLine
 10
99.91854284331623
 20
-3795.000003092998
 30
0.0
 11
99.91854284331623
 21
-4195.000008247994
 31
0.0
  0
LINE
  5
165
330
1F
100
AcDbEntity
  8
F-0_補助線
  6
JWW_HOJO
 62
     7
370
     5
100
AcDbLine
 10
4439.917891251784
 20
-3795.000003092998
 30
0.0
 11
4439.917891251784
 21
-4195.000008247994
 31
0.0
  0
LINE
  5
166
330
1F
100
AcDbEntity
  8
F-1_枠
  6
Continuous
 62
   200
370
     5
100
AcDbLine
 10
5859.917429364114
 20
-3795.000003092998
 30
0.0
 11
-5840.081085996952
 21
-3795.000003092998
 31
0.0
  0
LINE
  5
167
330
1F
100
AcDbEntity
  8
F-1_枠
  6
Continuous
 62
   200
370
     5
100
AcDbLine
 10
5859.917429364114
 20
-3790.000017526988
 30
0.0
 11
-5840.081085996952
 21
-3790.000017526988
 31
0.0
  0
LINE
  5
168
330
1F
100
AcDbEntity
  8
F-0_補助線
  6
JWW_HOJO
 62
     7
370
     5
100
AcDbLine
 10
-5087.628710189611
 20
-3795.000003093
 30
0.0
 11
-5087.628710189611
 21
-4205.000164959882
 31
0.0
  0
LINE
  5
169
330
1F
100
AcDbEntity
  8
F-0_補助線
  6
JWW_HOJO
 62
     7
370
     5
100
AcDbLine
 10
-50.08145715668377
 20
-3795.000003092998
 30
0.0
 11
-50.08145715668377
 21
-4195.000008247994
 31
0.0
  0
MTEXT
  5
16A
330
1F
100
AcDbEntity
  8
F-A_文字
  6
Continuous
 62
     7
370
     0
100
AcDbMText
 10
99.91854284331623
 20
-3887.139820871936
 30
0.0
 40
45.72
 41
180.0
 46
0.0
 71
     7
 72
     1
  1
{\fＭＳ ゴシック|b0|i0|c128|p49;図面名}
 73
     1
 44
1.0
  0
MTEXT
  5
16B
330
1F
100
AcDbEntity
  8
F-A_文字
  6
Continuous
 62
     7
370
     0
100
AcDbMText
 10
2939.91739637214
 20
-3887.142460617775
 30
0.0
 40
45.72
 41
300.0
 46
0.0
 71
     7
 72
     1
  1
{\fＭＳ ゴシック|b0|i0|c128|p49;ＳＣＡＬＥ}
 73
     1
 44
1.0
  0
MTEXT
  5
16C
330
1F
100
AcDbEntity
  8
F-A_文字
  6
Continuous
 62
     7
370
     0
100
AcDbMText
 10
4439.917891251784
 20
-3887.143854850754
 30
0.0
 40
45.72
 41
240.0
 46
0.0
 71
     7
 72
     1
  1
{\fＭＳ ゴシック|b0|i0|c128|p49;ＤＡＴＥ}
 73
     1
 44
1.0
  0
MTEXT
  5
16D
330
1F
100
AcDbEntity
  8
F-A_文字
  6
Continuous
 62
     7
370
     0
100
AcDbMText
 10
2939.91739637214
 20
-4087.142463177859
 30
0.0
 40
45.72
 41
240.0
 46
0.0
 71
     7
 72
     1
  1
{\fＭＳ ゴシック|b0|i0|c128|p49;ＦＩＬＥ}
 73
     1
 44
1.0
  0
MTEXT
  5
16E
330
1F
100
AcDbEntity
  8
F-A_文字
  6
Continuous
 62
     7
370
     0
100
AcDbMText
 10
4439.917891251784
 20
-4087.143857410839
 30
0.0
 40
45.72
 41
180.0
 46
0.0
 71
     7
 72
     1
  1
{\fＭＳ ゴシック|b0|i0|c128|p49;ＮＯ．}
 73
     1
 44
1.0
  0
MTEXT
  5
16F
330
1F
100
AcDbEntity
  8
F-A_文字
  6
Continuous
 62
     7
370
     0
100
AcDbMText
 10
1394.917396372138
 20
-4096.140669266148
 30
0.0
 40
45.72
 41
120.0
 46
0.0
 71
     7
 72
     1
  1
{\fＭＳ ゴシック|b0|i0|c128|p49;株式}
 73
     1
 44
1.0
  0
MTEXT
  5
170
330
1F
100
AcDbEntity
  8
F-A_文字
  6
Continuous
 62
     7
370
     0
100
AcDbMText
 10
1604.917396372138
 20
-4164.281754523929
 30
0.0
 40
101.44125
 41
1065.0
 46
0.0
 71
     7
 72
     1
  1
{\fＭＳ ゴシック|b0|i0|c128|p49;ウッドワン・・・}
 73
     1
 44
1.0
  0
MTEXT
  5
171
330
1F
100
AcDbEntity
  8
F-A_文字
  6
Continuous
 62
     7
370
     0
100
AcDbMText
 10
1394.917396372138
 20
-4168.140669266188
 30
0.0
 40
45.72
 41
120.0
 46
0.0
 71
     7
 72
     1
  1
{\fＭＳ ゴシック|b0|i0|c128|p49;会社}
 73
     1
 44
1.0
  0
MTEXT
  5
172
330
1F
100
AcDbEntity
  8
F-A_文字
  6
Continuous
 62
     7
370
     0
100
AcDbMText
 10
5768.321977672939
 20
-4314.841419020918
 30
0.0
 40
68.58
 41
90.0
 46
0.0
 71
     7
 72
     1
  1
{\fＭＳ ゴシック|b0|i0|c128|p49;）}
 73
     1
 44
1.0
  0
MTEXT
  5
173
330
1F
100
AcDbEntity
  8
F-A_文字
  6
Continuous
 62
     7
370
     0
100
AcDbMText
 10
5350.114617405298
 20
-4316.235443869857
 30
0.0
 40
68.58
 41
45.0
 46
0.0
 71
     7
 72
     1
  1
{\fＭＳ ゴシック|b0|i0|c128|p49;,}
 73
     1
 44
1.0
  0
MTEXT
  5
174
330
1F
100
AcDbEntity
  8
F-A_文字
  6
Continuous
 62
     7
370
     0
100
AcDbMText
 10
5083.855928478601
 20
-4314.771967288282
 30
0.0
 40
74.295
 41
97.5
 46
0.0
 71
     7
 72
     1
  1
{\fＭＳ ゴシック|b0|i0|c128|p49;$y}
 73
     1
 44
1.0
  0
MTEXT
  5
175
330
1F
100
AcDbEntity
  8
F-A_文字
  6
Continuous
 62
     7
370
     0
100
AcDbMText
 10
5238.592649517422
 20
-4314.771967288282
 30
0.0
 40
74.295
 41
97.5
 46
0.0
 71
     7
 72
     1
  1
{\fＭＳ ゴシック|b0|i0|c128|p49;$m}
 73
     1
 44
1.0
  0
MTEXT
  5
176
330
1F
100
AcDbEntity
  8
F-A_文字
  6
Continuous
 62
     7
370
     0
100
AcDbMText
 10
5393.32938200033
 20
-4314.771967288282
 30
0.0
 40
74.295
 41
97.5
 46
0.0
 71
     7
 72
     1
  1
{\fＭＳ ゴシック|b0|i0|c128|p49;$d}
 73
     1
 44
1.0
  0
MTEXT
  5
177
330
1F
100
AcDbEntity
  8
F-A_文字
  6
Continuous
 62
     7
370
     0
100
AcDbMText
 10
5548.066114483239
 20
-4314.771967288282
 30
0.0
 40
74.295
 41
195.0
 46
0.0
 71
     7
 72
     1
  1
{\fＭＳ ゴシック|b0|i0|c128|p49;印刷}
 73
     1
 44
1.0
  0
MTEXT
  5
178
330
1F
100
AcDbEntity
  8
F-A_文字
  6
Continuous
 62
     7
370
     0
100
AcDbMText
 10
4943.952040816226
 20
-4319.023493567732
 30
0.0
 40
68.58
 41
90.0
 46
0.0
 71
     7
 72
     1
  1
{\fＭＳ ゴシック|b0|i0|c128|p49;（}
 73
     1
 44
1.0
  0
MTEXT
  5
179
330
1F
100
AcDbEntity
  8
F-A_文字
  6
Continuous
 62
     7
370
     0
100
AcDbMText
 10
5191.195810375571
 20
-4319.023493567732
 30
0.0
 40
68.58
 41
45.0
 46
0.0
 71
     7
 72
     1
  1
{\fＭＳ ゴシック|b0|i0|c128|p49;,}
 73
     1
 44
1.0
  0
MTEXT
  5
17A
330
1F
100
AcDbEntity
  8
F-A_文字
  6
Continuous
 62
     7
370
     5
100
AcDbMText
 10
5096.167700144057
 20
-4147.857012699984
 30
0.0
 40
74.295
 41
97.5
 46
0.0
 71
     7
 72
     1
  1
{\fＭＳ ゴシック|b0|i0|c128|p49;04}
 73
     1
 44
1.0
  0
LINE
  5
17B
330
1F
100
AcDbEntity
  8
0-A_文字
  6
Continuous
 62
    92
370
     5
100
AcDbLine
 10
-5659.999495325866
 20
3730.00018145587
 30
0.0
 11
-5659.999495325866
 21
4000.00018145587
 31
0.0
  0
ELLIPSE
  5
17C
330
1F
100
AcDbEntity
  8
戸当り
  6
Continuous
 62
    92
370
     5
100
AcDbEllipse
 10
4675.430917458078
 20
2876.053590301512
 30
0.0
 11
11.36181697857171
 21
42.40287823032828
 31
0.0
210
0.0
220
0.0
230
0.9999999999999999
 40
0.6
 41
1.570796326794897
 42
4.71238898038469
  0
LINE
  5
17D
330
1F
100
AcDbEntity
  8
戸当り
  6
Continuous
 62
    92
370
     5
100
AcDbLine
 10
4700.872644396272
 20
2869.236500114368
 30
0.0
 11
4649.989190519879
 21
2882.870680488653
 31
0.0
  0
LINE
  5
17E
330
1F
100
AcDbEntity
  8
戸当り
  6
Continuous
 62
    92
370
     5
100
AcDbLine
 10
4704.133764364565
 20
2881.40716552561
 30
0.0
 11
4653.25031048817
 21
2895.041345899896
 31
0.0
  0
ELLIPSE
  5
17F
330
1F
100
AcDbEntity
  8
戸当り
  6
Continuous
 62
    92
370
     5
100
AcDbEllipse
 10
4699.604310755758
 20
2966.269922279796
 30
0.0
 11
21.86569797210526
 21
81.6038957748525
 31
0.0
210
0.0
220
0.0
230
1.0
 40
0.5
 41
4.340591432030095
 42
8.225779182329084
  0
ELLIPSE
  5
180
330
1F
100
AcDbEntity
  8
戸当り
  6
Continuous
 62
    92
370
     5
100
AcDbEllipse
 10
4698.978687882654
 20
2963.935065931004
 30
0.0
 11
26.49533313827761
 21
98.88192943551533
 31
0.0
210
0.0
220
0.0
230
0.9999999999999999
 40
0.4
 41
3.840308517104466
 42
4.432552034522944
  0
ELLIPSE
  5
181
330
1F
100
AcDbEntity
  8
戸当り
  6
Continuous
 62
    92
370
     5
100
AcDbEllipse
 10
4698.978687882654
 20
2963.935065931004
 30
0.0
 11
26.49533313827761
 21
98.88192943551533
 31
0.0
210
0.0
220
0.0
230
0.9999999999999999
 40
0.4
 41
1.850633272656679
 42
2.442876790075129
  0
ELLIPSE
  5
182
330
1F
100
AcDbEntity
  8
戸当り
  6
Continuous
 62
    92
370
     5
100
AcDbEllipse
 10
4560.316707711374
 20
2838.28484693721
 30
0.0
 11
-7.622927487939132
 21
43.23177007461331
 31
0.0
210
0.0
220
0.0
230
1.0
 40
0.6000000000000001
 41
1.570796326794897
 42
4.71238898038469
  0
LINE
  5
183
330
1F
100
AcDbEntity
  8
戸当り
  6
Continuous
 62
    92
370
     5
100
AcDbLine
 10
4586.255769756144
 20
2842.858603429974
 30
0.0
 11
4534.377645666606
 21
2833.711090444447
 31
0.0
  0
LINE
  5
184
330
1F
100
AcDbEntity
  8
戸当り
  6
Continuous
 62
    92
370
     5
100
AcDbLine
 10
4584.067802717541
 20
2855.267181117928
 30
0.0
 11
4532.189678628003
 21
2846.1196681324
 31
0.0
  0
ELLIPSE
  5
185
330
1F
100
AcDbEntity
  8
戸当り
  6
Continuous
 62
    92
370
     5
100
AcDbEllipse
 10
4544.098172894875
 20
2930.264728582853
 30
0.0
 11
-14.67024424252691
 21
83.19908946199426
 31
0.0
210
0.0
220
0.0
230
1.0
 40
0.5
 41
4.340591432030095
 42
8.225779182329084
  0
ELLIPSE
  5
186
330
1F
100
AcDbEntity
  8
戸当り
  6
Continuous
 62
    92
370
     5
100
AcDbEllipse
 10
4544.51791894478
 20
2927.884230441197
 30
0.0
 11
-17.7763823922528
 21
100.8148742797557
 31
0.0
210
0.0
220
0.0
230
1.0
 40
0.4000000000000001
 41
3.840308517104466
 42
4.432552034522944
  0
ELLIPSE
  5
187
330
1F
100
AcDbEntity
  8
戸当り
  6
Continuous
 62
    92
370
     5
100
AcDbEllipse
 10
4544.51791894478
 20
2927.884230441197
 30
0.0
 11
-17.7763823922528
 21
100.8148742797557
 31
0.0
210
0.0
220
0.0
230
1.0
 40
0.4000000000000001
 41
1.850633272656679
 42
2.442876790075129
  0
LINE
  5
188
330
1F
100
AcDbEntity
  8
0-0_補助線
  6
JWW_HOJO
 62
   120
370
     5
100
AcDbLine
 10
4619.917643811961
 20
2718.999983504013
 30
0.0
 11
4619.917643811961
 21
3536.444090120684
 31
0.0
  0
LINE
  5
189
330
1F
100
AcDbEntity
  8
0-A_文字
  6
Continuous
 62
    92
370
     5
100
AcDbLine
 10
3869.917643811962
 20
3684.999983504013
 30
0.0
 11
3869.917643811962
 21
2718.999983504013
 31
0.0
  0
LINE
  5
18A
330
1F
100
AcDbEntity
  8
0-0_補助線
  6
JWW_HOJO
 62
   120
370
     5
100
AcDbLine
 10
3899.917643811962
 20
3684.999983504013
 30
0.0
 11
3899.917643811962
 21
2718.999983504013
 31
0.0
  0
LINE
  5
18B
330
1F
100
AcDbEntity
  8
0-A_文字
  6
Continuous
 62
    92
370
     5
100
AcDbLine
 10
5369.917643811961
 20
2718.999983504013
 30
0.0
 11
3869.917643811962
 21
2718.999983504013
 31
0.0
  0
LINE
  5
18C
330
1F
100
AcDbEntity
  8
0-A_文字
  6
Continuous
 62
    92
370
     5
100
AcDbLine
 10
5369.917643811961
 20
3684.999983504013
 30
0.0
 11
5369.917643811961
 21
2718.999983504013
 31
0.0
  0
LINE
  5
18D
330
1F
100
AcDbEntity
  8
0-0_補助線
  6
JWW_HOJO
 62
   120
370
     5
100
AcDbLine
 10
5339.917643811961
 20
3684.999983504013
 30
0.0
 11
5339.917643811961
 21
2718.999983504013
 31
0.0
  0
LINE
  5
18E
330
1F
100
AcDbEntity
  8
戸当り
  6
Continuous
 62
    40
370
     5
100
AcDbLine
 10
4573.330215693509
 20
3385.504011182749
 30
0.0
 11
4619.917643811961
 21
3211.637362450716
 31
0.0
  0
LINE
  5
18F
330
1F
100
AcDbEntity
  8
戸当り
  6
Continuous
 62
    40
370
     5
100
AcDbLine
 10
4666.505071930416
 20
3385.504011182749
 30
0.0
 11
4619.917643811961
 21
3211.637362450717
 31
0.0
  0
LINE
  5
190
330
1F
100
AcDbEntity
  8
戸当り
  6
Continuous
 62
    40
370
     5
100
AcDbLine
 10
5066.742787575054
 20
3385.504011182749
 30
0.0
 11
5113.330215693509
 21
3211.637362450716
 31
0.0
  0
LINE
  5
191
330
1F
100
AcDbEntity
  8
戸当り
  6
Continuous
 62
    40
370
     5
100
AcDbLine
 10
5159.917643811961
 20
3385.504011182749
 30
0.0
 11
5113.330215693509
 21
3211.637362450717
 31
0.0
  0
LINE
  5
192
330
1F
100
AcDbEntity
  8
戸当り
  6
Continuous
 62
    40
370
     5
100
AcDbLine
 10
4173.09250004887
 20
3385.504011182749
 30
0.0
 11
4126.505071930416
 21
3211.637362450717
 31
0.0
  0
LINE
  5
193
330
1F
100
AcDbEntity
  8
戸当り
  6
Continuous
 62
    40
370
     5
100
AcDbLine
 10
4079.917643811962
 20
3385.504011182749
 30
0.0
 11
4126.505071930416
 21
3211.637362450716
 31
0.0
  0
CIRCLE
  5
194
330
1F
100
AcDbEntity
  8
0-0_補助線
  6
JWW_HOJO
 62
   120
370
     5
100
AcDbCircle
 10
5159.917643811961
 20
3385.504011182749
 30
0.0
 40
179.9999999999991
  0
CIRCLE
  5
195
330
1F
100
AcDbEntity
  8
0-0_補助線
  6
JWW_HOJO
 62
   120
370
     5
100
AcDbCircle
 10
4799.917643811961
 20
3385.504011182749
 30
0.0
 40
180.0
  0
CIRCLE
  5
196
330
1F
100
AcDbEntity
  8
0-0_補助線
  6
JWW_HOJO
 62
   120
370
     5
100
AcDbCircle
 10
4439.917643811961
 20
3385.504011182749
 30
0.0
 40
180.0
  0
CIRCLE
  5
197
330
1F
100
AcDbEntity
  8
0-0_補助線
  6
JWW_HOJO
 62
   120
370
     5
100
AcDbCircle
 10
4079.917643811962
 20
3385.504011182749
 30
0.0
 40
180.0
  0
LINE
  5
198
330
1F
100
AcDbEntity
  8
戸当り
  6
JWW_DASHED2
 62
     7
370
     5
100
AcDbLine
 10
5159.917643811961
 20
3385.504011182749
 30
0.0
 11
4079.917643811962
 21
3385.504011182749
 31
0.0
  0
LINE
  5
199
330
1F
100
AcDbEntity
  8
戸当り
  6
Continuous
 62
    40
370
     5
100
AcDbLine
 10
4079.917643811962
 20
3439.504011182752
 30
0.0
 11
4079.917643811962
 21
3385.504011182749
 31
0.0
  0
LINE
  5
19A
330
1F
100
AcDbEntity
  8
戸当り
  6
Continuous
 62
    40
370
     5
100
AcDbLine
 10
4079.917643811962
 20
3439.504011182752
 30
0.0
 11
3899.917643811962
 21
3439.504011182752
 31
0.0
  0
LINE
  5
19B
330
1F
100
AcDbEntity
  8
戸当り
  6
Continuous
 62
    40
370
     5
100
AcDbLine
 10
4079.917643811962
 20
3385.504011182749
 30
0.0
 11
3899.917643811962
 21
3385.504011182749
 31
0.0
  0
LINE
  5
19C
330
1F
100
AcDbEntity
  8
戸当り
  6
Continuous
 62
    40
370
     5
100
AcDbLine
 10
5159.917643811961
 20
3439.504011182752
 30
0.0
 11
5159.917643811961
 21
3385.504011182749
 31
0.0
  0
LINE
  5
19D
330
1F
100
AcDbEntity
  8
戸当り
  6
Continuous
 62
    40
370
     5
100
AcDbLine
 10
5159.917643811961
 20
3439.504011182752
 30
0.0
 11
5339.917643811961
 21
3439.504011182752
 31
0.0
  0
LINE
  5
19E
330
1F
100
AcDbEntity
  8
戸当り
  6
Continuous
 62
    40
370
     5
100
AcDbLine
 10
5159.917643811961
 20
3385.504011182749
 30
0.0
 11
5339.917643811961
 21
3385.504011182749
 31
0.0
  0
LINE
  5
19F
330
1F
100
AcDbEntity
  8
0-A_文字
  6
Continuous
 62
    92
370
     5
100
AcDbLine
 10
5369.917643811961
 20
3540.999983504013
 30
0.0
 11
3869.917643811962
 21
3540.999983504013
 31
0.0
  0
LINE
  5
1A0
330
1F
100
AcDbEntity
  8
0-A_文字
  6
Continuous
 62
    92
370
     5
100
AcDbLine
 10
5369.917643811961
 20
3684.999983504013
 30
0.0
 11
3869.917643811962
 21
3684.999983504013
 31
0.0
  0
MTEXT
  5
1A1
330
1F
100
AcDbEntity
  8
0-A_文字
  6
Continuous
 62
     7
370
     5
100
AcDbMText
 10
4259.917643811961
 20
3562.188554932585
 30
0.0
 40
78.37714285714286
 41
720.0
 46
0.0
 71
     7
 72
     1
  1
{\fＭＳ ゴシック|b0|i0|c128|p49;フリーオープン}
 73
     1
 44
1.0
  0
MTEXT
  5
1A2
330
1F
100
AcDbEntity
  8
F-A_文字
  6
Continuous
 62
     7
370
     0
100
AcDbMText
 10
3689.917643811962
 20
-3946.903115907308
 30
0.0
 40
76.19999999999999
 41
150.0
 46
0.0
 71
     7
 72
     1
  1
{\fＭＳ ゴシック|b0|i0|c128|p49;1/5}
 73
     1
 44
1.0
  0
LINE
  5
1A3
330
1F
100
AcDbEntity
  8
0-A_文字
  6
JWW_HOJO
 62
   120
370
     5
100
AcDbLine
 10
-851.6896571222467
 20
1127.636821344158
 30
0.0
 11
1557.834152401563
 21
1127.636821344158
 31
0.0
  0
LINE
  5
1A4
330
1F
100
AcDbEntity
  8
0-A_文字
  6
JWW_HOJO
 62
   120
370
     5
100
AcDbLine
 10
-851.6896571222467
 20
1007.636821344158
 30
0.0
 11
1557.834152401563
 21
1007.636821344158
 31
0.0
  0
LINE
  5
1A5
330
1F
100
AcDbEntity
  8
0-A_文字
  6
JWW_HOJO
 62
   120
370
     5
100
AcDbLine
 10
-851.6896571222467
 20
887.6368213441579
 30
0.0
 11
1557.834152401563
 21
887.6368213441579
 31
0.0
  0
MTEXT
  5
1A6
330
1F
100
AcDbEntity
  8
0-A_文字
  6
Continuous
 62
     7
370
     5
100
AcDbMText
 10
-851.6896571222464
 20
1122.382048616885
 30
0.0
 40
79.49045454545455
 41
2295.0
 46
0.0
 71
     7
 72
     1
  1
{\fＭＳ ゴシック|b0|i0|c128|p49;※有効開口寸法にはハンドルの突出は含まない。}
 73
     1
 44
1.0
  0
MTEXT
  5
1A7
330
1F
100
AcDbEntity
  8
0-A_文字
  6
Continuous
 62
     7
370
     5
100
AcDbMText
 10
-851.6896571222472
 20
1002.430154677491
 30
0.0
 40
79.58666666666672
 41
2820.000000000002
 46
0.0
 71
     7
 72
     1
  1
{\fＭＳ ゴシック|b0|i0|c128|p49;※有効開口寸法は扉の厚さや調整によって若干異なります。}
 73
     1
 44
1.0
  0
MTEXT
  5
1A8
330
1F
100
AcDbEntity
  8
0-A_文字
  6
Continuous
 62
     7
370
     0
100
AcDbMText
 10
-851.6896571222467
 20
876.9268213441578
 30
0.0
 40
68.58
 41
1350.0
 46
0.0
 71
     7
 72
     1
  1
{\fＭＳ ゴシック|b0|i0|c128|p49;※扉厚（　）内はルーバーの場合}
 73
     1
 44
1.0
  0
MTEXT
  5
1A9
330
1F
100
AcDbEntity
  8
0-A_文字
  6
Continuous
 62
     7
370
   211
100
AcDbMText
 10
-1883.653684185021
 20
2227.665146596492
 30
0.0
 40
91.44
 41
240.0
 46
0.0
 71
     7
 72
     1
  1
{\fＭＳ ゴシック|b0|i0|c128|p49;(24)}
 11
6.123031769111886E-17
 21
1.0
 31
0.0
 73
     1
 44
1.0
  0
MTEXT
  5
1AA
330
1F
100
AcDbEntity
  8
0-A_文字
  6
Continuous
 62
    92
370
     5
100
AcDbMText
 10
-5592.499495325861
 20
3758.959004985282
 30
0.0
 40
147.9176470588235
 41
3300.0
 46
0.0
 71
     7
 72
     1
  1
{\fＭＳ ゴシック|b0|i0|c128|p49;クローゼットドア　固定枠　間口９尺}
 73
     1
 44
1.0
  0
LINE
  5
1AB
330
1F
100
AcDbEntity
  8
0-A_文字
  6
Continuous
 62
    92
370
     5
100
AcDbLine
 10
-5659.999495325866
 20
3730.00018145587
 30
0.0
 11
-2221.428571428571
 21
3730.00018145587
 31
0.0
  0
LINE
  5
1AC
330
1F
100
AcDbEntity
  8
0-A_文字
  6
Continuous
 62
    92
370
     5
100
AcDbLine
 10
-5659.999495325866
 20
4000.00018145587
 30
0.0
 11
-2221.428571428571
 21
4000.00018145587
 31
0.0
  0
LINE
  5
1AD
330
1F
100
AcDbEntity
  8
0-A_文字
  6
Continuous
 62
    92
370
     5
100
AcDbLine
 10
-2221.428571428571
 20
3730.00018145587
 30
0.0
 11
-2221.428571428571
 21
4000.00018145587
 31
0.0
  0
MTEXT
  5
1AE
330
1F
100
AcDbEntity
  8
F-A_文字
  6
Continuous
 62
     7
370
     0
100
AcDbMText
 10
-5080.081323642279
 20
-4045.06637357839
 30
0.0
 40
79.86712499999994
 41
4192.5
 46
0.0
 71
     7
 72
     1
  1
{\fＭＳ ゴシック|b0|i0|c128|p49;ドレタス　クローゼットドア  固定枠　３方枠＋埋め込みレール枠外H2,047　枠外W2,558}
 73
     1
 44
1.0
  0
MTEXT
  5
1AF
330
1F
100
AcDbEntity
  8
0-3_仕上げ
  6
Continuous
 62
     7
370
   211
100
AcDbMText
 10
-2732.689459170398
 20
-2721.78143128852
 30
0.0
 40
91.44
 41
120.0
 46
0.0
 71
     7
 72
     1
  1
{\fＭＳ ゴシック|b0|i0|c128|p49;32}
 73
     1
 44
1.0
  0
MTEXT
  5
1B0
330
1F
100
AcDbEntity
  8
0-A_文字
  6
Continuous
 62
     7
370
     5
100
AcDbMText
 10
-3623.689459170392
 20
414.2912972119836
 30
0.0
 40
91.44
 41
600.0
 46
0.0
 71
     7
 72
     1
  1
{\fＭＳ ゴシック|b0|i0|c128|p49;■縦断面図}
 73
     1
 44
1.0
  0
MTEXT
  5
1B1
330
1F
100
AcDbEntity
  8
0-A_文字
  6
Continuous
 62
     7
370
     5
100
AcDbMText
 10
-3623.689459170392
 20
265.7710320445403
 30
0.0
 40
91.43999999999998
 41
1800.0
 46
0.0
 71
     7
 72
     1
  1
{\fＭＳ ゴシック|b0|i0|c128|p49;　[３方枠＋レール(レール埋込)]}
 73
     1
 44
1.0
  0
MTEXT
  5
1B2
330
1F
100
AcDbEntity
  8
0-B_寸法
  6
Continuous
 62
     7
370
   211
100
AcDbMText
 10
-1304.20347962624
 20
-78.71664122671521
 30
0.0
 40
91.44
 41
60.0
 46
0.0
 71
     7
 72
     1
  1
{\fＭＳ ゴシック|b0|i0|c128|p49;8}
 11
6.123031769111886E-17
 21
1.0
 31
0.0
 73
     1
 44
1.0
  0
MTEXT
  5
1B3
330
1F
100
AcDbEntity
  8
0-B_寸法
  6
Continuous
 62
     7
370
     0
100
AcDbMText
 10
-1484.202786794741
 20
-300.2794434666018
 30
0.0
 40
91.44
 41
120.0
 46
0.0
 71
     7
 72
     1
  1
{\fＭＳ ゴシック|b0|i0|c128|p49;36}
 11
6.123031769111886E-17
 21
1.0
 31
0.0
 73
     1
 44
1.0
  0
MTEXT
  5
1B4
330
1F
100
AcDbEntity
  8
0-B_寸法
  6
Continuous
 62
     7
370
     0
100
AcDbMText
 10
-1663.631262206546
 20
-571.2356859272285
 30
0.0
 40
91.44
 41
180.0
 46
0.0
 71
     7
 72
     1
  1
{\fＭＳ ゴシック|b0|i0|c128|p49;7.5}
 11
6.123031769111886E-17
 21
1.0
 31
0.0
 73
     1
 44
1.0
  0
MTEXT
  5
1B5
330
1F
100
AcDbEntity
  8
0-B_寸法
  6
Continuous
 62
     7
370
     0
100
AcDbMText
 10
-2732.690008486798
 20
-628.7622652783932
 30
0.0
 40
91.44
 41
120.0
 46
0.0
 71
     7
 72
     1
  1
{\fＭＳ ゴシック|b0|i0|c128|p49;77}
 73
     1
 44
1.0
  0
MTEXT
  5
1B6
330
1F
100
AcDbEntity
  8
0-B_寸法
  6
Continuous
 62
     7
370
     0
100
AcDbMText
 10
-1663.669974873647
 20
-3011.412100971977
 30
0.0
 40
91.44
 41
180.0
 46
0.0
 71
     7
 72
     1
  1
{\fＭＳ ゴシック|b0|i0|c128|p49;8.5}
 11
6.123031769111886E-17
 21
1.0
 31
0.0
 73
     1
 44
1.0
  0
MTEXT
  5
1B7
330
1F
100
AcDbEntity
  8
0-B_寸法
  6
Continuous
 62
     7
370
     0
100
AcDbMText
 10
-1484.202786794741
 20
-3260.006540481251
 30
0.0
 40
91.44
 41
120.0
 46
0.0
 71
     7
 72
     1
  1
{\fＭＳ ゴシック|b0|i0|c128|p49;12}
 11
6.123031769111886E-17
 21
1.0
 31
0.0
 73
     1
 44
1.0
  0
LINE
  5
1B8
330
1F
100
AcDbEntity
  8
0-3_仕上げ
  6
Continuous
 62
    40
370
     5
100
AcDbLine
 10
-3263.689459170392
 20
-3118.000311980379
 30
0.0
 11
-1919.20347962624
 21
-3118.000311980379
 31
0.0
  0
LWPOLYLINE
  5
1B9
330
1F
100
AcDbEntity
  8
0-B_寸法
  6
Continuous
 62
     7
370
     5
100
AcDbPolyline
 90
        4
 70
     1
 43
3.0
 10
-3622.189459170392
 20
-3118.000311980379
 42
0.4142135623731
 10
-3623.689459170392
 20
-3116.500311980379
 42
0.4142135623731
 10
-3625.189459170392
 20
-3118.000311980379
 42
0.4142135623731
 10
-3623.689459170392
 20
-3119.500311980379
 42
0.4142135623731
  0
LINE
  5
1BA
330
1F
100
AcDbEntity
  8
0-B_寸法
  6
Continuous
 62
   120
370
     5
100
AcDbLine
 10
-3263.689459170392
 20
-3118.000311980379
 30
0.0
 11
-3623.689459170392
 21
-3118.000311980379
 31
0.0
  0
LINE
  5
1BB
330
1F
100
AcDbEntity
  8
0-0_補助線
  6
JWW_HOJO
 62
   120
370
     5
100
AcDbLine
 10
-1919.20347962624
 20
-3117.999940974257
 30
0.0
 11
-3623.689459170392
 21
-3117.999940974257
 31
0.0
  0
LINE
  5
1BC
330
1F
100
AcDbEntity
  8
0-0_補助線
  6
JWW_HOJO
 62
   120
370
     5
100
AcDbLine
 10
-3088.460745134586
 20
-1582.000084335741
 30
0.0
 11
-2280.917761218894
 21
-1582.000084335741
 31
0.0
  0
LINE
  5
1BD
330
1F
100
AcDbEntity
  8
0-0_補助線
  6
JWW_HOJO
 62
   120
370
     5
100
AcDbLine
 10
-3088.460745134586
 20
-1702.000084335741
 30
0.0
 11
-2280.917761218894
 21
-1702.000084335741
 31
0.0
  0
LINE
  5
1BE
330
1F
100
AcDbEntity
  8
0-7_金物
  6
Continuous
 62
     7
370
     5
100
AcDbLine
 10
-2607.693998660144
 20
-339.9998344215203
 30
0.0
 11
-2570.690111483619
 21
-339.9998344215203
 31
0.0
  0
LINE
  5
1BF
330
1F
100
AcDbEntity
  8
0-7_金物
  6
Continuous
 62
     7
370
     5
100
AcDbLine
 10
-2642.688417758041
 20
-333.9997428687866
 30
0.0
 11
-2702.690105761581
 21
-333.9997428687866
 31
0.0
  0
LINE
  5
1C0
330
1F
100
AcDbEntity
  8
0-7_金物
  6
Continuous
 62
     7
370
     5
100
AcDbLine
 10
-2606.870024050769
 20
-320.7874931129265
 30
0.0
 11
-2642.688417758041
 21
-320.7874931129265
 31
0.0
  0
LINE
  5
1C1
330
1F
100
AcDbEntity
  8
0-7_金物
  6
Continuous
 62
     7
370
     5
100
AcDbLine
 10
-2702.690105761581
 20
-320.7874931129265
 30
0.0
 11
-2738.86927160173
 21
-320.7874931129265
 31
0.0
  0
LINE
  5
1C2
330
1F
100
AcDbEntity
  8
0-7_金物
  6
Continuous
 62
     7
370
     5
100
AcDbLine
 10
-2684.690346087501
 20
-378.9998344215223
 30
0.0
 11
-2684.690346087501
 21
-333.9997428687866
 31
0.0
  0
LINE
  5
1C3
330
1F
100
AcDbEntity
  8
0-7_金物
  6
Continuous
 62
     7
370
     5
100
AcDbLine
 10
-2660.689665164042
 20
-333.9997428687866
 30
0.0
 11
-2660.689665164042
 21
-378.9998344215223
 31
0.0
  0
LINE
  5
1C4
330
1F
100
AcDbEntity
  8
0-7_金物
  6
Continuous
 62
     7
370
     5
100
AcDbLine
 10
-2660.689665164042
 20
-378.9998344215223
 30
0.0
 11
-2684.690346087501
 21
-378.9998344215223
 31
0.0
  0
LINE
  5
1C5
330
1F
100
AcDbEntity
  8
0-7_金物
  6
Continuous
 62
     7
370
     5
100
AcDbLine
 10
-2774.688413466507
 20
-333.9997428687866
 30
0.0
 11
-2774.688413466507
 21
-339.9998344215203
 31
0.0
  0
LINE
  5
1C6
330
1F
100
AcDbEntity
  8
0-7_金物
  6
Continuous
 62
     7
370
     5
100
AcDbLine
 10
-2736.90361150651
 20
-339.9998344215203
 30
0.0
 11
-2774.688413466507
 21
-339.9998344215203
 31
0.0
  0
LINE
  5
1C7
330
1F
100
AcDbEntity
  8
0-7_金物
  6
Continuous
 62
     7
370
     5
100
AcDbLine
 10
-2570.690111483619
 20
-333.9997428687866
 30
0.0
 11
-2570.690111483619
 21
-339.9998344215203
 31
0.0
  0
LINE
  5
1C8
330
1F
100
AcDbEntity
  8
0-7_金物
  6
Continuous
 62
     7
370
     5
100
AcDbLine
 10
-2736.90361150651
 20
-333.9997428687866
 30
0.0
 11
-2744.690542067584
 21
-333.9997428687866
 31
0.0
  0
LINE
  5
1C9
330
1F
100
AcDbEntity
  8
0-7_金物
  6
Continuous
 62
     7
370
     5
100
AcDbLine
 10
-2736.90361150651
 20
-339.9998344215203
 30
0.0
 11
-2736.90361150651
 21
-333.9997428687866
 31
0.0
  0
LINE
  5
1CA
330
1F
100
AcDbEntity
  8
0-7_金物
  6
Continuous
 62
     7
370
     5
100
AcDbLine
 10
-2756.690135444697
 20
-333.9997428687866
 30
0.0
 11
-2774.688413466507
 21
-333.9997428687866
 31
0.0
  0
LINE
  5
1CB
330
1F
100
AcDbEntity
  8
0-7_金物
  6
Continuous
 62
     7
370
     5
100
AcDbLine
 10
-2600.690214480456
 20
-333.9997428687866
 30
0.0
 11
-2607.693998660144
 21
-333.9997428687866
 31
0.0
  0
LINE
  5
1CC
330
1F
100
AcDbEntity
  8
0-7_金物
  6
Continuous
 62
     7
370
     5
100
AcDbLine
 10
-2607.693998660144
 20
-339.9998344215203
 30
0.0
 11
-2607.693998660144
 21
-333.9997428687866
 31
0.0
  0
LINE
  5
1CD
330
1F
100
AcDbEntity
  8
0-7_金物
  6
Continuous
 62
     7
370
     5
100
AcDbLine
 10
-2588.689882601794
 20
-333.9997428687866
 30
0.0
 11
-2570.690111483619
 21
-333.9997428687866
 31
0.0
  0
LINE
  5
1CE
330
1F
100
AcDbEntity
  8
0-7_金物
  6
Continuous
 62
     7
370
     5
100
AcDbLine
 10
-2642.688417758041
 20
-254.7874931129286
 30
0.0
 11
-2606.870024050769
 21
-254.7874931129286
 31
0.0
  0
LINE
  5
1CF
330
1F
100
AcDbEntity
  8
0-7_金物
  6
Continuous
 62
     7
370
     5
100
AcDbLine
 10
-2606.870024050769
 20
-254.7874931129286
 30
0.0
 11
-2606.870024050769
 21
-320.7874931129265
 31
0.0
  0
LINE
  5
1D0
330
1F
100
AcDbEntity
  8
0-7_金物
  6
Continuous
 62
     7
370
     5
100
AcDbLine
 10
-2642.688417758041
 20
-237.9992851051138
 30
0.0
 11
-2642.688417758041
 21
-333.9997428687866
 31
0.0
  0
LINE
  5
1D1
330
1F
100
AcDbEntity
  8
0-7_金物
  6
Continuous
 62
     7
370
     5
100
AcDbLine
 10
-2702.690105761581
 20
-237.9992851051138
 30
0.0
 11
-2642.688417758041
 21
-237.9992851051138
 31
0.0
  0
LINE
  5
1D2
330
1F
100
AcDbEntity
  8
0-7_金物
  6
Continuous
 62
     7
370
     5
100
AcDbLine
 10
-2702.690105761581
 20
-333.9997428687866
 30
0.0
 11
-2702.690105761581
 21
-237.9992851051138
 31
0.0
  0
LINE
  5
1D3
330
1F
100
AcDbEntity
  8
0-7_金物
  6
Continuous
 62
     7
370
     5
100
AcDbLine
 10
-2738.86927160173
 20
-254.7874931129286
 30
0.0
 11
-2702.690105761581
 21
-254.7874931129286
 31
0.0
  0
LINE
  5
1D4
330
1F
100
AcDbEntity
  8
0-7_金物
  6
Continuous
 62
     7
370
     5
100
AcDbLine
 10
-2738.86927160173
 20
-320.7874931129265
 30
0.0
 11
-2738.86927160173
 21
-254.7874931129286
 31
0.0
  0
LINE
  5
1D5
330
1F
100
AcDbEntity
  8
0-7_金物
  6
Continuous
 62
     7
370
     5
100
AcDbLine
 10
-2744.690542067584
 20
-333.9997428687866
 30
0.0
 11
-2744.690542067584
 21
-225.9996513160536
 31
0.0
  0
LINE
  5
1D6
330
1F
100
AcDbEntity
  8
0-7_金物
  6
Continuous
 62
     7
370
     5
100
AcDbLine
 10
-2744.690542067584
 20
-225.9996513160536
 30
0.0
 11
-2600.690214480456
 21
-225.9996513160536
 31
0.0
  0
LINE
  5
1D7
330
1F
100
AcDbEntity
  8
0-7_金物
  6
Continuous
 62
     7
370
     5
100
AcDbLine
 10
-2600.690214480456
 20
-225.9996513160536
 30
0.0
 11
-2600.690214480456
 21
-333.9997428687866
 31
0.0
  0
LINE
  5
1D8
330
1F
100
AcDbEntity
  8
0-4_枠
  6
Continuous
 62
    92
370
     5
100
AcDbLine
 10
-2588.689882601794
 20
-213.9992851051147
 30
0.0
 11
-2588.689882601794
 21
-333.9997428687866
 31
0.0
  0
LINE
  5
1D9
330
1F
100
AcDbEntity
  8
0-4_枠
  6
Continuous
 62
    92
370
     5
100
AcDbLine
 10
-2756.690135444697
 20
-213.9992851051147
 30
0.0
 11
-2588.689882601794
 21
-213.9992851051147
 31
0.0
  0
LINE
  5
1DA
330
1F
100
AcDbEntity
  8
0-4_枠
  6
Continuous
 62
    92
370
     5
100
AcDbLine
 10
-2756.690135444697
 20
-333.9997428687866
 30
0.0
 11
-2756.690135444697
 21
-213.9992851051147
 31
0.0
  0
LINE
  5
1DB
330
1F
100
AcDbEntity
  8
0-4_枠
  6
Continuous
 62
    92
370
     5
100
AcDbLine
 10
-2441.689459170389
 20
-333.9997428687866
 30
0.0
 11
-2588.689882601794
 21
-333.9997428687866
 31
0.0
  0
LINE
  5
1DC
330
1F
100
AcDbEntity
  8
0-4_枠
  6
Continuous
 62
    92
370
     5
100
AcDbLine
 10
-2903.689459170392
 20
-333.9997428687866
 30
0.0
 11
-2756.690135444697
 21
-333.9997428687866
 31
0.0
  0
LINE
  5
1DD
330
1F
100
AcDbEntity
  8
0-4_枠
  6
Continuous
 62
    92
370
     5
100
AcDbLine
 10
-2441.689459170389
 20
-117.9999259742567
 30
0.0
 11
-2441.689459170389
 21
-333.9997428687866
 31
0.0
  0
LINE
  5
1DE
330
1F
100
AcDbEntity
  8
0-4_枠
  6
Continuous
 62
    92
370
     5
100
AcDbLine
 10
-2903.689459170392
 20
-117.9999259742567
 30
0.0
 11
-2903.689459170392
 21
-333.9997428687866
 31
0.0
  0
LINE
  5
1DF
330
1F
100
AcDbEntity
  8
0-4_枠
  6
Continuous
 62
    92
370
     5
100
AcDbLine
 10
-2903.689459170392
 20
-117.9999259742567
 30
0.0
 11
-2441.689459170389
 21
-117.9999259742567
 31
0.0
  0
LINE
  5
1E0
330
1F
100
AcDbEntity
  8
0-B_寸法
  6
Continuous
 62
   120
370
     5
100
AcDbLine
 10
-2441.689459170389
 20
-629.4822652783932
 30
0.0
 11
-2441.689459170389
 21
-475.7713178564973
 31
0.0
  0
LWPOLYLINE
  5
1E1
330
1F
100
AcDbEntity
  8
0-B_寸法
  6
Continuous
 62
     7
370
     5
100
AcDbPolyline
 90
        4
 70
     1
 43
3.0
 10
-2440.189459170389
 20
-629.4822652783932
 42
0.4142135623731
 10
-2441.689459170389
 20
-627.9822652783932
 42
0.4142135623731
 10
-2443.189459170389
 20
-629.4822652783932
 42
0.4142135623731
 10
-2441.689459170389
 20
-630.9822652783932
 42
0.4142135623731
  0
LINE
  5
1E2
330
1F
100
AcDbEntity
  8
0-B_寸法
  6
Continuous
 62
   120
370
     5
100
AcDbLine
 10
-2903.689459170392
 20
-629.4822652783932
 30
0.0
 11
-2903.689459170392
 21
-475.7713178564973
 31
0.0
  0
LWPOLYLINE
  5
1E3
330
1F
100
AcDbEntity
  8
0-B_寸法
  6
Continuous
 62
     7
370
     5
100
AcDbPolyline
 90
        4
 70
     1
 43
3.0
 10
-2902.189459170392
 20
-629.4822652783932
 42
0.4142135623731
 10
-2903.689459170392
 20
-627.9822652783932
 42
0.4142135623731
 10
-2905.189459170392
 20
-629.4822652783932
 42
0.4142135623731
 10
-2903.689459170392
 20
-630.9822652783932
 42
0.4142135623731
  0
LINE
  5
1E4
330
1F
100
AcDbEntity
  8
0-B_寸法
  6
Continuous
 62
   120
370
     5
100
AcDbLine
 10
-2441.689459170389
 20
-629.4822652783932
 30
0.0
 11
-2903.689459170392
 21
-629.4822652783932
 31
0.0
  0
LINE
  5
1E5
330
1F
100
AcDbEntity
  8
0-C_ハッチ
  6
Continuous
 62
   120
370
     5
100
AcDbLine
 10
-2898.390647935554
 20
-333.9997428687934
 30
0.0
 11
-2903.689459170392
 21
-328.7009316339481
 31
0.0
  0
LINE
  5
1E6
330
1F
100
AcDbEntity
  8
0-C_ハッチ
  6
Continuous
 62
   120
370
     5
100
AcDbLine
 10
-2838.993678315852
 20
-333.99974286879
 30
0.0
 11
-2903.689459170392
 21
-269.3039620142467
 31
0.0
  0
LINE
  5
1E7
330
1F
100
AcDbEntity
  8
0-C_ハッチ
  6
Continuous
 62
   120
370
     5
100
AcDbLine
 10
-2779.596708696218
 20
-333.9997428687802
 30
0.0
 11
-2903.689459170392
 21
-209.906992394599
 31
0.0
  0
LINE
  5
1E8
330
1F
100
AcDbEntity
  8
0-C_ハッチ
  6
Continuous
 62
   120
370
     5
100
AcDbLine
 10
-2756.690135444684
 20
-297.5093465006091
 30
0.0
 11
-2903.689459170392
 21
-150.5100227748937
 31
0.0
  0
LINE
  5
1E9
330
1F
100
AcDbEntity
  8
0-C_ハッチ
  6
Continuous
 62
   120
370
     5
100
AcDbLine
 10
-2756.690135444697
 20
-238.1123768809516
 30
0.0
 11
-2876.802586351392
 21
-117.9999259742567
 31
0.0
  0
LINE
  5
1EA
330
1F
100
AcDbEntity
  8
0-C_ハッチ
  6
Continuous
 62
   120
370
     5
100
AcDbLine
 10
-2721.406257600894
 20
-213.9992851051147
 30
0.0
 11
-2817.405616731731
 21
-117.9999259742686
 31
0.0
  0
LINE
  5
1EB
330
1F
100
AcDbEntity
  8
0-C_ハッチ
  6
Continuous
 62
   120
370
     5
100
AcDbLine
 10
-2542.008830217506
 20
-333.9997428687871
 30
0.0
 11
-2588.689882601794
 21
-287.318690484509
 31
0.0
  0
LINE
  5
1EC
330
1F
100
AcDbEntity
  8
0-C_ハッチ
  6
Continuous
 62
   120
370
     5
100
AcDbLine
 10
-2662.009287981192
 20
-213.9992851051147
 30
0.0
 11
-2758.008647112043
 21
-117.9999259742507
 31
0.0
  0
LINE
  5
1ED
330
1F
100
AcDbEntity
  8
0-C_ハッチ
  6
Continuous
 62
   120
370
     5
100
AcDbLine
 10
-2482.611860597873
 20
-333.9997428687866
 30
0.0
 11
-2588.68988260178
 21
-227.9217208648656
 31
0.0
  0
LINE
  5
1EE
330
1F
100
AcDbEntity
  8
0-C_ハッチ
  6
Continuous
 62
   120
370
     5
100
AcDbLine
 10
-2602.612318361545
 20
-213.9992851051083
 30
0.0
 11
-2698.611677492382
 21
-117.9999259742635
 31
0.0
  0
LINE
  5
1EF
330
1F
100
AcDbEntity
  8
0-C_ハッチ
  6
Continuous
 62
   120
370
     5
100
AcDbLine
 10
-2441.689459170389
 20
-315.5251746765578
 30
0.0
 11
-2639.214707872694
 21
-117.9999259742533
 31
0.0
  0
LINE
  5
1F0
330
1F
100
AcDbEntity
  8
0-C_ハッチ
  6
Continuous
 62
   120
370
     5
100
AcDbLine
 10
-2441.689459170403
 20
-256.1282050569007
 30
0.0
 11
-2579.817738253047
 21
-117.9999259742567
 31
0.0
  0
LINE
  5
1F1
330
1F
100
AcDbEntity
  8
0-C_ハッチ
  6
Continuous
 62
   120
370
     5
100
AcDbLine
 10
-2441.689459170403
 20
-196.731235437253
 30
0.0
 11
-2520.420768633386
 21
-117.9999259742686
 31
0.0
  0
LINE
  5
1F2
330
1F
100
AcDbEntity
  8
0-C_ハッチ
  6
Continuous
 62
   120
370
     5
100
AcDbLine
 10
-2441.689459170389
 20
-137.3342658175648
 30
0.0
 11
-2461.023799013697
 21
-117.9999259742507
 31
0.0
  0
LINE
  5
1F3
330
1F
100
AcDbEntity
  8
0-4_枠
  6
Continuous
 62
   120
370
     5
100
AcDbLine
 10
-2441.689459170389
 20
-117.9999259742567
 30
0.0
 11
-2417.689459170398
 21
-117.9999259742567
 31
0.0
  0
LINE
  5
1F4
330
1F
100
AcDbEntity
  8
0-4_枠
  6
Continuous
 62
   120
370
     5
100
AcDbLine
 10
-2903.689459170392
 20
-117.9999259742567
 30
0.0
 11
-2927.689459170398
 21
-117.9999259742567
 31
0.0
  0
LINE
  5
1F5
330
1F
100
AcDbEntity
  8
0-4_枠
  6
Continuous
 62
   120
370
     5
100
AcDbLine
 10
-2417.689459170398
 20
-3046.000334249962
 30
0.0
 11
-2417.689459170398
 21
-1702.000084335741
 31
0.0
  0
LINE
  5
1F6
330
1F
100
AcDbEntity
  8
0-4_枠
  6
Continuous
 62
   120
370
     5
100
AcDbLine
 10
-2417.689459170398
 20
-1582.000084335741
 30
0.0
 11
-2417.689459170398
 21
-117.9999259742567
 31
0.0
  0
LINE
  5
1F7
330
1F
100
AcDbEntity
  8
0-4_枠
  6
Continuous
 62
   120
370
     5
100
AcDbLine
 10
-2927.689459170398
 20
-3046.000334249962
 30
0.0
 11
-2927.689459170398
 21
-1702.000084335741
 31
0.0
  0
LINE
  5
1F8
330
1F
100
AcDbEntity
  8
0-4_枠
  6
Continuous
 62
   120
370
     5
100
AcDbLine
 10
-2927.689459170398
 20
-1582.000084335741
 30
0.0
 11
-2927.689459170398
 21
-117.9999259742567
 31
0.0
  0
LINE
  5
1F9
330
1F
100
AcDbEntity
  8
0-C_ハッチ
  6
JWW_DASHED1
 62
   120
370
     5
100
AcDbLine
 10
-2503.876566979717
 20
-117.9999259742567
 30
0.0
 11
-2522.689459170398
 21
-99.18703378358941
 31
0.0
  0
LINE
  5
1FA
330
1F
100
AcDbEntity
  8
0-C_ハッチ
  6
JWW_DASHED1
 62
   120
370
     5
100
AcDbLine
 10
-2461.450160108544
 20
-117.9999259742439
 30
0.0
 11
-2522.689459170398
 21
-56.76062691239281
 31
0.0
  0
LINE
  5
1FB
330
1F
100
AcDbEntity
  8
0-C_ハッチ
  6
JWW_DASHED1
 62
   120
370
     5
100
AcDbLine
 10
-2447.689459170398
 20
-89.33422004119024
 30
0.0
 11
-2522.689459170384
 21
-14.3342200411962
 31
0.0
  0
LINE
  5
1FC
330
1F
100
AcDbEntity
  8
0-C_ハッチ
  6
JWW_DASHED1
 62
   120
370
     5
100
AcDbLine
 10
-2447.689459170384
 20
-46.90781316999619
 30
0.0
 11
-2522.689459170384
 21
28.0921868300004
 31
0.0
  0
LINE
  5
1FD
330
1F
100
AcDbEntity
  8
0-C_ハッチ
  6
JWW_DASHED1
 62
   120
370
     5
100
AcDbLine
 10
-2447.689459170384
 20
-4.481406298797026
 30
0.0
 11
-2522.68945917037
 21
70.518593701197
 31
0.0
  0
LINE
  5
1FE
330
1F
100
AcDbEntity
  8
0-C_ハッチ
  6
JWW_DASHED1
 62
   120
370
     5
100
AcDbLine
 10
-2447.68945917037
 20
37.94500057239702
 30
0.0
 11
-2522.68945917037
 21
112.9450005723962
 31
0.0
  0
LINE
  5
1FF
330
1F
100
AcDbEntity
  8
0-C_ハッチ
  6
JWW_DASHED1
 62
   120
370
     5
100
AcDbLine
 10
-2447.689459170384
 20
80.37140744354843
 30
0.0
 11
-2522.68945917037
 21
155.3714074435416
 31
0.0
  0
LINE
  5
200
330
1F
100
AcDbEntity
  8
0-3_仕上げ
  6
Continuous
 62
    40
370
     5
100
AcDbLine
 10
-2447.689459170398
 20
-117.9999259742567
 30
0.0
 11
-2447.689459170398
 21
182.0000740257433
 31
0.0
  0
LINE
  5
201
330
1F
100
AcDbEntity
  8
0-3_仕上げ
  6
Continuous
 62
    40
370
     5
100
AcDbLine
 10
-2522.689459170398
 20
-117.9999259742567
 30
0.0
 11
-2522.689459170398
 21
182.0000740257433
 31
0.0
  0
LINE
  5
202
330
1F
100
AcDbEntity
  8
0-C_ハッチ
  6
JWW_DASHED1
 62
   120
370
     5
100
AcDbLine
 10
-2447.689459170384
 20
122.7978143147493
 30
0.0
 11
-2506.891718881371
 21
182.0000740257433
 31
0.0
  0
LINE
  5
203
330
1F
100
AcDbEntity
  8
0-C_ハッチ
  6
JWW_DASHED1
 62
   120
370
     5
100
AcDbLine
 10
-2447.689459170384
 20
165.2242211859459
 30
0.0
 11
-2464.465312010171
 21
182.0000740257433
 31
0.0
  0
LWPOLYLINE
  5
204
330
1F
100
AcDbEntity
  8
0-B_寸法
  6
Continuous
 62
     7
370
     5
100
AcDbPolyline
 90
        4
 70
     1
 43
3.0
 10
-1467.703479626241
 20
-3045.999963090228
 42
0.4142135623731
 10
-1469.20347962624
 20
-3044.499963090228
 42
0.4142135623731
 10
-1470.70347962624
 20
-3045.999963090228
 42
0.4142135623731
 10
-1469.20347962624
 20
-3047.499963090228
 42
0.4142135623731
  0
LWPOLYLINE
  5
205
330
1F
100
AcDbEntity
  8
0-B_寸法
  6
Continuous
 62
     7
370
     5
100
AcDbPolyline
 90
        4
 70
     1
 43
3.0
 10
-1467.703479626241
 20
-3117.999940820646
 42
0.4142135623731
 10
-1469.20347962624
 20
-3116.499940820646
 42
0.4142135623731
 10
-1470.70347962624
 20
-3117.999940820646
 42
0.4142135623731
 10
-1469.20347962624
 20
-3119.499940820646
 42
0.4142135623731
  0
LINE
  5
206
330
1F
100
AcDbEntity
  8
0-B_寸法
  6
Continuous
 62
   120
370
     5
100
AcDbLine
 10
-1919.20347962624
 20
-3045.999963090228
 30
0.0
 11
-1469.20347962624
 21
-3045.999963090228
 31
0.0
  0
LINE
  5
207
330
1F
100
AcDbEntity
  8
0-B_寸法
  6
Continuous
 62
   120
370
     5
100
AcDbLine
 10
-1649.20347962624
 20
-3117.999940820646
 30
0.0
 11
-1469.20347962624
 21
-3117.999940820646
 31
0.0
  0
LINE
  5
208
330
1F
100
AcDbEntity
  8
0-B_寸法
  6
Continuous
 62
   120
370
     5
100
AcDbLine
 10
-1469.20347962624
 20
-3117.999940820646
 30
0.0
 11
-1469.20347962624
 21
-117.9999408206447
 31
0.0
  0
LINE
  5
209
330
1F
100
AcDbEntity
  8
0-B_寸法
  6
Continuous
 62
   120
370
     5
100
AcDbLine
 10
-1649.20347962624
 20
-3045.999963090228
 30
0.0
 11
-1649.20347962624
 21
-333.9993172722916
 31
0.0
  0
LINE
  5
20A
330
1F
100
AcDbEntity
  8
0-B_寸法
  6
Continuous
 62
   120
370
     5
100
AcDbLine
 10
-1919.20347962624
 20
-2994.999831947123
 30
0.0
 11
-1649.20347962624
 21
-2994.999831947123
 31
0.0
  0
LWPOLYLINE
  5
20B
330
1F
100
AcDbEntity
  8
0-B_寸法
  6
Continuous
 62
     7
370
     5
100
AcDbPolyline
 90
        4
 70
     1
 43
3.0
 10
-1647.703479626241
 20
-3045.999963090228
 42
0.4142135623731
 10
-1649.20347962624
 20
-3044.499963090228
 42
0.4142135623731
 10
-1650.70347962624
 20
-3045.999963090228
 42
0.4142135623731
 10
-1649.20347962624
 20
-3047.499963090228
 42
0.4142135623731
  0
LWPOLYLINE
  5
20C
330
1F
100
AcDbEntity
  8
0-B_寸法
  6
Continuous
 62
     7
370
     5
100
AcDbPolyline
 90
        4
 70
     1
 43
3.0
 10
-1647.703479626241
 20
-2994.999831947123
 42
0.4142135623731
 10
-1649.20347962624
 20
-2993.499831947123
 42
0.4142135623731
 10
-1650.70347962624
 20
-2994.999831947123
 42
0.4142135623731
 10
-1649.20347962624
 20
-2996.499831947123
 42
0.4142135623731
  0
LWPOLYLINE
  5
20D
330
1F
100
AcDbEntity
  8
0-B_寸法
  6
Continuous
 62
     7
370
     5
100
AcDbPolyline
 90
        4
 70
     1
 43
3.0
 10
-1287.703479626241
 20
-3118.000311980379
 42
0.4142135623731
 10
-1289.20347962624
 20
-3116.500311980379
 42
0.4142135623731
 10
-1290.70347962624
 20
-3118.000311980379
 42
0.4142135623731
 10
-1289.20347962624
 20
-3119.500311980379
 42
0.4142135623731
  0
LINE
  5
20E
330
1F
100
AcDbEntity
  8
0-B_寸法
  6
Continuous
 62
   120
370
     5
100
AcDbLine
 10
-1919.20347962624
 20
-3118.000311980379
 30
0.0
 11
-1289.20347962624
 21
-3118.000311980379
 31
0.0
  0
LWPOLYLINE
  5
20F
330
1F
100
AcDbEntity
  8
0-B_寸法
  6
Continuous
 62
     7
370
     5
100
AcDbPolyline
 90
        4
 70
     1
 43
3.0
 10
-1467.703479626241
 20
-117.9999408206447
 42
0.4142135623731
 10
-1469.20347962624
 20
-116.4999408206447
 42
0.4142135623731
 10
-1470.70347962624
 20
-117.9999408206447
 42
0.4142135623731
 10
-1469.20347962624
 20
-119.4999408206447
 42
0.4142135623731
  0
LWPOLYLINE
  5
210
330
1F
100
AcDbEntity
  8
0-B_寸法
  6
Continuous
 62
     7
370
     5
100
AcDbPolyline
 90
        4
 70
     1
 43
3.0
 10
-1467.703479626241
 20
-333.9989461125572
 42
0.4142135623731
 10
-1469.20347962624
 20
-332.4989461125572
 42
0.4142135623731
 10
-1470.70347962624
 20
-333.9989461125572
 42
0.4142135623731
 10
-1469.20347962624
 20
-335.4989461125572
 42
0.4142135623731
  0
LINE
  5
211
330
1F
100
AcDbEntity
  8
0-B_寸法
  6
Continuous
 62
   120
370
     5
100
AcDbLine
 10
-1649.20347962624
 20
-333.9989461125572
 30
0.0
 11
-1469.20347962624
 21
-333.9989461125572
 31
0.0
  0
LINE
  5
212
330
1F
100
AcDbEntity
  8
0-B_寸法
  6
Continuous
 62
   120
370
     5
100
AcDbLine
 10
-1919.20347962624
 20
-378.9994657361854
 30
0.0
 11
-1649.20347962624
 21
-378.9994657361854
 31
0.0
  0
LINE
  5
213
330
1F
100
AcDbEntity
  8
0-B_寸法
  6
Continuous
 62
   120
370
     5
100
AcDbLine
 10
-1919.20347962624
 20
-333.9993172722916
 30
0.0
 11
-1649.20347962624
 21
-333.9993172722916
 31
0.0
  0
LWPOLYLINE
  5
214
330
1F
100
AcDbEntity
  8
0-B_寸法
  6
Continuous
 62
     7
370
     5
100
AcDbPolyline
 90
        4
 70
     1
 43
3.0
 10
-1647.703479626241
 20
-378.9994657361854
 42
0.4142135623731
 10
-1649.20347962624
 20
-377.4994657361854
 42
0.4142135623731
 10
-1650.70347962624
 20
-378.9994657361854
 42
0.4142135623731
 10
-1649.20347962624
 20
-380.4994657361854
 42
0.4142135623731
  0
LWPOLYLINE
  5
215
330
1F
100
AcDbEntity
  8
0-B_寸法
  6
Continuous
 62
     7
370
     5
100
AcDbPolyline
 90
        4
 70
     1
 43
3.0
 10
-1647.703479626241
 20
-333.9993172722916
 42
0.4142135623731
 10
-1649.20347962624
 20
-332.4993172722916
 42
0.4142135623731
 10
-1650.70347962624
 20
-333.9993172722916
 42
0.4142135623731
 10
-1649.20347962624
 20
-335.4993172722916
 42
0.4142135623731
  0
LWPOLYLINE
  5
216
330
1F
100
AcDbEntity
  8
0-B_寸法
  6
Continuous
 62
     7
370
     5
100
AcDbPolyline
 90
        4
 70
     1
 43
3.0
 10
-1287.703479626241
 20
-117.9999408206447
 42
0.4142135623731
 10
-1289.20347962624
 20
-116.4999408206447
 42
0.4142135623731
 10
-1290.70347962624
 20
-117.9999408206447
 42
0.4142135623731
 10
-1289.20347962624
 20
-119.4999408206447
 42
0.4142135623731
  0
LINE
  5
217
330
1F
100
AcDbEntity
  8
0-B_寸法
  6
Continuous
 62
   120
370
     5
100
AcDbLine
 10
-1919.20347962624
 20
-117.9999408206447
 30
0.0
 11
-1289.20347962624
 21
-117.9999408206447
 31
0.0
  0
LINE
  5
218
330
1F
100
AcDbEntity
  8
0-3_仕上げ
  6
Continuous
 62
   120
370
     5
100
AcDbLine
 10
-2768.689013778704
 20
-2722.50143128852
 30
0.0
 11
-2576.689904562064
 21
-2722.50143128852
 31
0.0
  0
LWPOLYLINE
  5
219
330
1F
100
AcDbEntity
  8
0-3_仕上げ
  6
Continuous
 62
     7
370
     5
100
AcDbPolyline
 90
        4
 70
     1
 43
3.0
 10
-2767.189013778704
 20
-2722.50143128852
 42
0.4142135623731
 10
-2768.689013778704
 20
-2721.00143128852
 42
0.4142135623731
 10
-2770.189013778704
 20
-2722.50143128852
 42
0.4142135623731
 10
-2768.689013778704
 20
-2724.00143128852
 42
0.4142135623731
  0
LWPOLYLINE
  5
21A
330
1F
100
AcDbEntity
  8
0-3_仕上げ
  6
Continuous
 62
     7
370
     5
100
AcDbPolyline
 90
        4
 70
     1
 43
3.0
 10
-2575.189904562064
 20
-2722.50143128852
 42
0.4142135623731
 10
-2576.689904562064
 20
-2721.00143128852
 42
0.4142135623731
 10
-2578.189904562063
 20
-2722.50143128852
 42
0.4142135623731
 10
-2576.689904562064
 20
-2724.00143128852
 42
0.4142135623731
  0
LINE
  5
21B
330
1F
100
AcDbEntity
  8
0-3_仕上げ
  6
Continuous
 62
   120
370
     5
100
AcDbLine
 10
-2768.689013778704
 20
-2722.50143128852
 30
0.0
 11
-2768.689013778704
 21
-2831.209140661786
 31
0.0
  0
LINE
  5
21C
330
1F
100
AcDbEntity
  8
0-3_仕上げ
  6
Continuous
 62
   120
370
     5
100
AcDbLine
 10
-2576.689904562064
 20
-2722.50143128852
 30
0.0
 11
-2576.689904562064
 21
-2831.209140661786
 31
0.0
  0
LINE
  5
21D
330
1F
100
AcDbEntity
  8
0-3_仕上げ
  6
Continuous
 62
     7
370
     5
100
AcDbLine
 10
-3263.689459170392
 20
-3058.000114028518
 30
0.0
 11
-2747.689117084848
 21
-3058.000114028518
 31
0.0
  0
LINE
  5
21E
330
1F
100
AcDbEntity
  8
0-3_仕上げ
  6
Continuous
 62
     7
370
     5
100
AcDbLine
 10
-3263.689459170392
 20
-3070.000264966812
 30
0.0
 11
-2747.689117084848
 21
-3070.000264966812
 31
0.0
  0
LINE
  5
21F
330
1F
100
AcDbEntity
  8
0-3_仕上げ
  6
Continuous
 62
     7
370
     5
100
AcDbLine
 10
-3263.689459170392
 20
-3082.000230325237
 30
0.0
 11
-2747.689117084848
 21
-3082.000230325237
 31
0.0
  0
LINE
  5
220
330
1F
100
AcDbEntity
  8
0-3_仕上げ
  6
Continuous
 62
     7
370
     5
100
AcDbLine
 10
-3263.689459170392
 20
-3094.000195683662
 30
0.0
 11
-2747.689117084848
 21
-3094.000195683662
 31
0.0
  0
LINE
  5
221
330
1F
100
AcDbEntity
  8
0-3_仕上げ
  6
Continuous
 62
     7
370
     5
100
AcDbLine
 10
-3263.689459170392
 20
-3106.000346621954
 30
0.0
 11
-2747.689117084848
 21
-3106.000346621954
 31
0.0
  0
LINE
  5
222
330
1F
100
AcDbEntity
  8
0-3_仕上げ
  6
Continuous
 62
    40
370
     5
100
AcDbLine
 10
-3263.689459170392
 20
-3046.000334249962
 30
0.0
 11
-2747.689117084848
 21
-3046.000334249962
 31
0.0
  0
LINE
  5
223
330
1F
100
AcDbEntity
  8
0-3_仕上げ
  6
Continuous
 62
     7
370
     5
100
AcDbLine
 10
-2597.689117084848
 20
-3058.000114028518
 30
0.0
 11
-1919.20347962624
 21
-3058.000114028518
 31
0.0
  0
LINE
  5
224
330
1F
100
AcDbEntity
  8
0-3_仕上げ
  6
Continuous
 62
     7
370
     5
100
AcDbLine
 10
-2597.689117084848
 20
-3070.000264966812
 30
0.0
 11
-1919.20347962624
 21
-3070.000264966812
 31
0.0
  0
LINE
  5
225
330
1F
100
AcDbEntity
  8
0-3_仕上げ
  6
Continuous
 62
     7
370
     5
100
AcDbLine
 10
-2597.689117084848
 20
-3082.000230325237
 30
0.0
 11
-1919.20347962624
 21
-3082.000230325237
 31
0.0
  0
LINE
  5
226
330
1F
100
AcDbEntity
  8
0-3_仕上げ
  6
Continuous
 62
     7
370
     5
100
AcDbLine
 10
-2597.689117084848
 20
-3094.000195683662
 30
0.0
 11
-1919.20347962624
 21
-3094.000195683662
 31
0.0
  0
LINE
  5
227
330
1F
100
AcDbEntity
  8
0-3_仕上げ
  6
Continuous
 62
     7
370
     5
100
AcDbLine
 10
-2597.689117084848
 20
-3106.000346621954
 30
0.0
 11
-1919.20347962624
 21
-3106.000346621954
 31
0.0
  0
LINE
  5
228
330
1F
100
AcDbEntity
  8
0-3_仕上げ
  6
Continuous
 62
    40
370
     5
100
AcDbLine
 10
-1919.20347962624
 20
-3046.000334249962
 30
0.0
 11
-2597.689117084848
 21
-3046.000334249962
 31
0.0
  0
LINE
  5
229
330
1F
100
AcDbEntity
  8
0-3_仕上げ
  6
Continuous
 62
    40
370
     5
100
AcDbLine
 10
-2747.689459170398
 20
-3118.000497560246
 30
0.0
 11
-2747.689459170398
 21
-3046.000705409696
 31
0.0
  0
LINE
  5
22A
330
1F
100
AcDbEntity
  8
0-3_仕上げ
  6
Continuous
 62
    40
370
     5
100
AcDbLine
 10
-2597.689459170398
 20
-3118.000497560246
 30
0.0
 11
-2597.689459170398
 21
-3046.000705409696
 31
0.0
  0
LINE
  5
22B
330
1F
100
AcDbEntity
  8
0-C_ハッチ
  6
Continuous
 62
   120
370
     5
100
AcDbLine
 10
-2741.689459170389
 20
-3096.120416927395
 30
0.0
 11
-2732.689459170398
 21
-3087.120416927396
 31
0.0
  0
LINE
  5
22C
330
1F
100
AcDbEntity
  8
0-7_金物
  6
Continuous
 62
    92
370
     5
100
AcDbLine
 10
-2732.689459170398
 20
-3088.000705256085
 30
0.0
 11
-2612.689459170398
 21
-3088.000705256085
 31
0.0
  0
LINE
  5
22D
330
1F
100
AcDbEntity
  8
0-7_金物
  6
Continuous
 62
    92
370
     5
100
AcDbLine
 10
-2732.689459170398
 20
-3076.000705256086
 30
0.0
 11
-2732.689459170398
 21
-3088.000705256085
 31
0.0
  0
LINE
  5
22E
330
1F
100
AcDbEntity
  8
0-7_金物
  6
Continuous
 62
    92
370
     5
100
AcDbLine
 10
-2732.689459170398
 20
-3076.000705256086
 30
0.0
 11
-2741.689517490468
 21
-3076.000705256086
 31
0.0
  0
LINE
  5
22F
330
1F
100
AcDbEntity
  8
0-7_金物
  6
Continuous
 62
    92
370
     5
100
AcDbLine
 10
-2612.689459170398
 20
-3076.000705256086
 30
0.0
 11
-2603.878543850752
 21
-3076.000705256086
 31
0.0
  0
LINE
  5
230
330
1F
100
AcDbEntity
  8
0-7_金物
  6
Continuous
 62
    92
370
     5
100
AcDbLine
 10
-2612.689459170398
 20
-3076.000705256086
 30
0.0
 11
-2612.689459170398
 21
-3088.000705256085
 31
0.0
  0
LINE
  5
231
330
1F
100
AcDbEntity
  8
0-7_金物
  6
Continuous
 62
    92
370
     5
100
AcDbLine
 10
-2603.878602170817
 20
-3076.000482925787
 30
0.0
 11
-2603.878602170817
 21
-3118.000705256085
 31
0.0
  0
LINE
  5
232
330
1F
100
AcDbEntity
  8
0-7_金物
  6
Continuous
 62
    92
370
     5
100
AcDbLine
 10
-2741.689459170389
 20
-3076.000482925787
 30
0.0
 11
-2741.689459170389
 21
-3118.000705256085
 31
0.0
  0
LINE
  5
233
330
1F
100
AcDbEntity
  8
0-7_金物
  6
Continuous
 62
    92
370
     5
100
AcDbLine
 10
-2741.689459170389
 20
-3118.000705256085
 30
0.0
 11
-2603.878602170817
 21
-3118.000705256085
 31
0.0
  0
LINE
  5
234
330
1F
100
AcDbEntity
  8
0-C_ハッチ
  6
Continuous
 62
   120
370
     5
100
AcDbLine
 10
-2610.834682762785
 20
-3118.000705256085
 30
0.0
 11
-2603.878602170817
 21
-3111.044624664115
 31
0.0
  0
LINE
  5
235
330
1F
100
AcDbEntity
  8
0-C_ハッチ
  6
Continuous
 62
   120
370
     5
100
AcDbLine
 10
-2738.113903376371
 20
-3118.000705256085
 30
0.0
 11
-2708.113903376371
 21
-3088.000705256085
 31
0.0
  0
LINE
  5
236
330
1F
100
AcDbEntity
  8
0-C_ハッチ
  6
Continuous
 62
   120
370
     5
100
AcDbLine
 10
-2661.746371008222
 20
-3118.000705256085
 30
0.0
 11
-2631.746371008222
 21
-3088.000705256085
 31
0.0
  0
LINE
  5
237
330
1F
100
AcDbEntity
  8
0-C_ハッチ
  6
Continuous
 62
   120
370
     5
100
AcDbLine
 10
-2687.202215130947
 20
-3118.000705256085
 30
0.0
 11
-2657.202215130947
 21
-3088.000705256085
 31
0.0
  0
LINE
  5
238
330
1F
100
AcDbEntity
  8
0-C_ハッチ
  6
Continuous
 62
   120
370
     5
100
AcDbLine
 10
-2712.658059253673
 20
-3118.000705256085
 30
0.0
 11
-2682.658059253659
 21
-3088.000705256082
 31
0.0
  0
LINE
  5
239
330
1F
100
AcDbEntity
  8
0-C_ハッチ
  6
Continuous
 62
   120
370
     5
100
AcDbLine
 10
-2636.290526885497
 20
-3118.000705256085
 30
0.0
 11
-2603.878602170817
 21
-3085.588780541396
 31
0.0
  0
LINE
  5
23A
330
1F
100
AcDbEntity
  8
0-7_金物
  6
Continuous
 62
     7
370
     5
100
AcDbLine
 10
-2630.688823559341
 20
-3049.36774589031
 30
0.0
 11
-2714.689694547516
 21
-3049.36774589031
 31
0.0
  0
LINE
  5
23B
330
1F
100
AcDbEntity
  8
0-7_金物
  6
Continuous
 62
     7
370
     5
100
AcDbLine
 10
-2663.68937782454
 20
-2995.000705256085
 30
0.0
 11
-2663.68937782454
 21
-3049.36774589031
 31
0.0
  0
LINE
  5
23C
330
1F
100
AcDbEntity
  8
0-7_金物
  6
Continuous
 62
     7
370
     5
100
AcDbLine
 10
-2681.689140282316
 20
-2995.000705256085
 30
0.0
 11
-2681.689140282316
 21
-3049.36774589031
 31
0.0
  0
LINE
  5
23D
330
1F
100
AcDbEntity
  8
0-7_金物
  6
Continuous
 62
     7
370
     5
100
AcDbLine
 10
-2648.690070656054
 20
-3061.367745890309
 30
0.0
 11
-2696.689932089754
 21
-3061.367745890309
 31
0.0
  0
LINE
  5
23E
330
1F
100
AcDbEntity
  8
0-7_金物
  6
Continuous
 62
     7
370
     5
100
AcDbLine
 10
-2663.68937782454
 20
-3066.065143483216
 30
0.0
 11
-2681.689140282316
 21
-3066.065143483216
 31
0.0
  0
LINE
  5
23F
330
1F
100
AcDbEntity
  8
0-7_金物
  6
Continuous
 62
     7
370
     5
100
AcDbLine
 10
-2663.68937782454
 20
-3061.367745890309
 30
0.0
 11
-2663.68937782454
 21
-3066.065143483216
 31
0.0
  0
LINE
  5
240
330
1F
100
AcDbEntity
  8
0-7_金物
  6
Continuous
 62
     7
370
     5
100
AcDbLine
 10
-2681.689140282316
 20
-3061.367745890309
 30
0.0
 11
-2681.689140282316
 21
-3066.065143483216
 31
0.0
  0
LINE
  5
241
330
1F
100
AcDbEntity
  8
0-7_金物
  6
Continuous
 62
     7
370
     5
100
AcDbLine
 10
-2648.690070656054
 20
-3061.367745890309
 30
0.0
 11
-2648.690070656054
 21
-3073.367745890312
 31
0.0
  0
LINE
  5
242
330
1F
100
AcDbEntity
  8
0-7_金物
  6
Continuous
 62
     7
370
     5
100
AcDbLine
 10
-2630.688823559341
 20
-3049.36774589031
 30
0.0
 11
-2630.688823559341
 21
-3073.367745890312
 31
0.0
  0
LINE
  5
243
330
1F
100
AcDbEntity
  8
0-7_金物
  6
Continuous
 62
     7
370
     5
100
AcDbLine
 10
-2696.689932089754
 20
-3061.367745890309
 30
0.0
 11
-2696.689932089754
 21
-3073.367745890312
 31
0.0
  0
LINE
  5
244
330
1F
100
AcDbEntity
  8
0-7_金物
  6
Continuous
 62
     7
370
     5
100
AcDbLine
 10
-2714.689694547516
 20
-3049.36774589031
 30
0.0
 11
-2714.689694547516
 21
-3073.367745890312
 31
0.0
  0
LINE
  5
245
330
1F
100
AcDbEntity
  8
0-7_金物
  6
Continuous
 62
     7
370
     5
100
AcDbLine
 10
-2714.689694547516
 20
-3073.367745890312
 30
0.0
 11
-2630.688823559341
 21
-3073.367745890312
 31
0.0
  0
LINE
  5
246
330
1F
100
AcDbEntity
  8
0-7_金物
  6
Continuous
 62
     7
370
     5
100
AcDbLine
 10
-2723.689459170392
 20
-3080.800705256085
 30
0.0
 11
-2711.689459170389
 21
-3080.800705256085
 31
0.0
  0
LINE
  5
247
330
1F
100
AcDbEntity
  8
0-7_金物
  6
Continuous
 62
     7
370
     5
100
AcDbLine
 10
-2705.689459170395
 20
-3080.800705256085
 30
0.0
 11
-2674.489459170382
 21
-3080.800705256085
 31
0.0
  0
LINE
  5
248
330
1F
100
AcDbEntity
  8
0-7_金物
  6
Continuous
 62
     7
370
     5
100
AcDbLine
 10
-2674.489459170382
 20
-3080.800705256085
 30
0.0
 11
-2672.689459170398
 21
-3082.600705256087
 31
0.0
  0
LINE
  5
249
330
1F
100
AcDbEntity
  8
0-7_金物
  6
Continuous
 62
     7
370
     5
100
AcDbLine
 10
-2672.689459170398
 20
-3082.600705256087
 30
0.0
 11
-2670.889459170386
 21
-3080.800705256085
 31
0.0
  0
LINE
  5
24A
330
1F
100
AcDbEntity
  8
0-7_金物
  6
Continuous
 62
     7
370
     5
100
AcDbLine
 10
-2670.889459170386
 20
-3080.800705256085
 30
0.0
 11
-2639.689459170387
 21
-3080.800705256085
 31
0.0
  0
LINE
  5
24B
330
1F
100
AcDbEntity
  8
0-7_金物
  6
Continuous
 62
     7
370
     5
100
AcDbLine
 10
-2633.689459170392
 20
-3080.800705256085
 30
0.0
 11
-2621.689459170389
 21
-3080.800705256085
 31
0.0
  0
LINE
  5
24C
330
1F
100
AcDbEntity
  8
0-7_金物
  6
Continuous
 62
     7
370
     5
100
AcDbLine
 10
-2578.489459170388
 20
-3046.000705256086
 30
0.0
 11
-2614.489459170382
 21
-3046.000705256086
 31
0.0
  0
LINE
  5
24D
330
1F
100
AcDbEntity
  8
0-7_金物
  6
Continuous
 62
     7
370
     5
100
AcDbLine
 10
-2730.889459170386
 20
-3046.000705256086
 30
0.0
 11
-2766.889459170394
 21
-3046.000705256086
 31
0.0
  0
LINE
  5
24E
330
1F
100
AcDbEntity
  8
0-7_金物
  6
Continuous
 62
     7
370
     5
100
AcDbLine
 10
-2730.889459170386
 20
-3038.800705256086
 30
0.0
 11
-2766.889459170394
 21
-3042.400705256086
 31
0.0
  0
ARC
  5
24F
330
1F
100
AcDbEntity
  8
0-7_金物
  6
Continuous
 62
     7
370
     5
100
AcDbCircle
 10
-2766.889459170394
 20
-3044.200705256088
 30
0.0
 40
1.8
100
AcDbArc
 50
90.0
 51
270.0
  0
ARC
  5
250
330
1F
100
AcDbEntity
  8
0-7_金物
  6
Continuous
 62
     7
370
     5
100
AcDbCircle
 10
-2578.489459170388
 20
-3044.200705256088
 30
0.0
 40
1.8
100
AcDbArc
 50
270.0
 51
89.99999999999997
  0
LINE
  5
251
330
1F
100
AcDbEntity
  8
0-7_金物
  6
Continuous
 62
     7
370
     5
100
AcDbLine
 10
-2578.489459170388
 20
-3042.400705256086
 30
0.0
 11
-2614.489459170382
 21
-3038.800705256086
 31
0.0
  0
LINE
  5
252
330
1F
100
AcDbEntity
  8
0-7_金物
  6
Continuous
 62
     7
370
     5
100
AcDbLine
 10
-2709.289459170392
 20
-3038.800705256086
 30
0.0
 11
-2730.889459170386
 21
-3038.800705256086
 31
0.0
  0
ARC
  5
253
330
1F
100
AcDbEntity
  8
0-7_金物
  6
Continuous
 62
     7
370
     5
100
AcDbCircle
 10
-2709.289459170392
 20
-3042.400705256086
 30
0.0
 40
3.600000000000001
100
AcDbArc
 50
0.0
 51
90.0
  0
ARC
  5
254
330
1F
100
AcDbEntity
  8
0-7_金物
  6
Continuous
 62
     7
370
     5
100
AcDbCircle
 10
-2709.289459170392
 20
-3042.400705256086
 30
0.0
 40
3.600000000000001
100
AcDbArc
 50
270.0
 51
0.0
  0
ARC
  5
255
330
1F
100
AcDbEntity
  8
0-7_金物
  6
Continuous
 62
     7
370
     5
100
AcDbCircle
 10
-2636.08945917039
 20
-3042.400705256086
 30
0.0
 40
3.600000000000001
100
AcDbArc
 50
180.0
 51
270.0
  0
LINE
  5
256
330
1F
100
AcDbEntity
  8
0-7_金物
  6
Continuous
 62
     7
370
     5
100
AcDbLine
 10
-2636.08945917039
 20
-3038.800705256086
 30
0.0
 11
-2614.489459170382
 21
-3038.800705256086
 31
0.0
  0
ARC
  5
257
330
1F
100
AcDbEntity
  8
0-7_金物
  6
Continuous
 62
     7
370
     5
100
AcDbCircle
 10
-2636.08945917039
 20
-3042.400705256086
 30
0.0
 40
3.600000000000001
100
AcDbArc
 50
90.0
 51
180.0
  0
LINE
  5
258
330
1F
100
AcDbEntity
  8
0-7_金物
  6
Continuous
 62
     7
370
     5
100
AcDbLine
 10
-2614.489459170382
 20
-3079.000705256087
 30
0.0
 11
-2614.489459170382
 21
-3046.000705256086
 31
0.0
  0
ARC
  5
259
330
1F
100
AcDbEntity
  8
0-7_金物
  6
Continuous
 62
     7
370
     5
100
AcDbCircle
 10
-2623.489459170388
 20
-3079.000705256087
 30
0.0
 40
9.000000000000002
100
AcDbArc
 50
270.0
 51
0.0
  0
LINE
  5
25A
330
1F
100
AcDbEntity
  8
0-7_金物
  6
Continuous
 62
     7
370
     5
100
AcDbLine
 10
-2730.889459170386
 20
-3079.000705256087
 30
0.0
 11
-2730.889459170386
 21
-3046.000705256086
 31
0.0
  0
LINE
  5
25B
330
1F
100
AcDbEntity
  8
0-7_金物
  6
Continuous
 62
     7
370
     5
100
AcDbLine
 10
-2721.889459170394
 20
-3088.000705256085
 30
0.0
 11
-2623.489459170388
 21
-3088.000705256085
 31
0.0
  0
ARC
  5
25C
330
1F
100
AcDbEntity
  8
0-7_金物
  6
Continuous
 62
     7
370
     5
100
AcDbCircle
 10
-2721.889459170394
 20
-3079.000705256087
 30
0.0
 40
9.000000000000002
100
AcDbArc
 50
180.0
 51
270.0
  0
LINE
  5
25D
330
1F
100
AcDbEntity
  8
0-7_金物
  6
Continuous
 62
     7
370
     5
100
AcDbLine
 10
-2720.689459170395
 20
-3046.000705256086
 30
0.0
 11
-2709.289459170392
 21
-3046.000705256086
 31
0.0
  0
LINE
  5
25E
330
1F
100
AcDbEntity
  8
0-7_金物
  6
Continuous
 62
     7
370
     5
100
AcDbLine
 10
-2723.689459170392
 20
-3049.000705256087
 30
0.0
 11
-2723.689459170392
 21
-3080.800705256085
 31
0.0
  0
ARC
  5
25F
330
1F
100
AcDbEntity
  8
0-7_金物
  6
Continuous
 62
     7
370
     5
100
AcDbCircle
 10
-2720.689459170395
 20
-3049.000705256087
 30
0.0
 40
3.0
100
AcDbArc
 50
90.0
 51
180.0
  0
LINE
  5
260
330
1F
100
AcDbEntity
  8
0-7_金物
  6
Continuous
 62
     7
370
     5
100
AcDbLine
 10
-2624.689459170387
 20
-3046.000705256086
 30
0.0
 11
-2636.08945917039
 21
-3046.000705256086
 31
0.0
  0
LINE
  5
261
330
1F
100
AcDbEntity
  8
0-7_金物
  6
Continuous
 62
     7
370
     5
100
AcDbLine
 10
-2621.689459170389
 20
-3049.000705256087
 30
0.0
 11
-2621.689459170389
 21
-3080.800705256085
 31
0.0
  0
ARC
  5
262
330
1F
100
AcDbEntity
  8
0-7_金物
  6
Continuous
 62
     7
370
     5
100
AcDbCircle
 10
-2624.689459170387
 20
-3049.000705256087
 30
0.0
 40
3.0
100
AcDbArc
 50
0.0
 51
90.0
  0
LINE
  5
263
330
1F
100
AcDbEntity
  8
0-7_金物
  6
Continuous
 62
     7
370
     5
100
AcDbLine
 10
-2711.689459170389
 20
-3076.000705256086
 30
0.0
 11
-2711.689459170389
 21
-3080.800705256085
 31
0.0
  0
ARC
  5
264
330
1F
100
AcDbEntity
  8
0-7_金物
  6
Continuous
 62
     7
370
     5
100
AcDbCircle
 10
-2710.489459170391
 20
-3076.000705256086
 30
0.0
 40
1.2
100
AcDbArc
 50
90.0
 51
180.0
  0
LINE
  5
265
330
1F
100
AcDbEntity
  8
0-7_金物
  6
Continuous
 62
     7
370
     5
100
AcDbLine
 10
-2706.889459170394
 20
-3074.800705256087
 30
0.0
 11
-2710.489459170391
 21
-3074.800705256087
 31
0.0
  0
LINE
  5
266
330
1F
100
AcDbEntity
  8
0-7_金物
  6
Continuous
 62
     7
370
     5
100
AcDbLine
 10
-2705.689459170395
 20
-3076.000705256086
 30
0.0
 11
-2705.689459170395
 21
-3080.800705256085
 31
0.0
  0
ARC
  5
267
330
1F
100
AcDbEntity
  8
0-7_金物
  6
Continuous
 62
     7
370
     5
100
AcDbCircle
 10
-2706.889459170394
 20
-3076.000705256086
 30
0.0
 40
1.2
100
AcDbArc
 50
0.0
 51
90.0
  0
LINE
  5
268
330
1F
100
AcDbEntity
  8
0-7_金物
  6
Continuous
 62
     7
370
     5
100
AcDbLine
 10
-2639.689459170387
 20
-3076.000705256086
 30
0.0
 11
-2639.689459170387
 21
-3080.800705256085
 31
0.0
  0
ARC
  5
269
330
1F
100
AcDbEntity
  8
0-7_金物
  6
Continuous
 62
     7
370
     5
100
AcDbCircle
 10
-2638.489459170388
 20
-3076.000705256086
 30
0.0
 40
1.2
100
AcDbArc
 50
90.0
 51
180.0
  0
LINE
  5
26A
330
1F
100
AcDbEntity
  8
0-7_金物
  6
Continuous
 62
     7
370
     5
100
AcDbLine
 10
-2634.889459170391
 20
-3074.800705256087
 30
0.0
 11
-2638.489459170388
 21
-3074.800705256087
 31
0.0
  0
LINE
  5
26B
330
1F
100
AcDbEntity
  8
0-7_金物
  6
Continuous
 62
     7
370
     5
100
AcDbLine
 10
-2633.689459170392
 20
-3076.000705256086
 30
0.0
 11
-2633.689459170392
 21
-3080.800705256085
 31
0.0
  0
ARC
  5
26C
330
1F
100
AcDbEntity
  8
0-7_金物
  6
Continuous
 62
     7
370
     5
100
AcDbCircle
 10
-2634.889459170391
 20
-3076.000705256086
 30
0.0
 40
1.2
100
AcDbArc
 50
0.0
 51
90.0
  0
ARC
  5
26D
330
1F
100
AcDbEntity
  8
0-7_金物
  6
JWW_DASHED1
 62
     7
370
     5
100
AcDbCircle
 10
-2766.889459170394
 20
-3044.200705256088
 30
0.0
 40
1.8
100
AcDbArc
 50
270.0
 51
90.0
  0
ARC
  5
26E
330
1F
100
AcDbEntity
  8
0-7_金物
  6
JWW_DASHED1
 62
     7
370
     5
100
AcDbCircle
 10
-2578.489459170388
 20
-3044.200705256088
 30
0.0
 40
1.8
100
AcDbArc
 50
90.0
 51
270.0
  0
LINE
  5
26F
330
1F
100
AcDbEntity
  8
0-B_寸法
  6
Continuous
 62
   120
370
     5
100
AcDbLine
 10
-1289.20347962624
 20
-69.99994082064745
 30
0.0
 11
-1919.20347962624
 21
-69.99994082064745
 31
0.0
  0
LINE
  5
270
330
1F
100
AcDbEntity
  8
0-0_補助線
  6
JWW_HOJO
 62
   120
370
     5
100
AcDbLine
 10
-3623.689459170392
 20
170.000074025744
 30
0.0
 11
-3623.689459170392
 21
-3117.999940974257
 31
0.0
  0
LINE
  5
271
330
1F
100
AcDbEntity
  8
0-0_補助線
  6
JWW_HOJO
 62
   120
370
     5
100
AcDbLine
 10
-3263.689459170392
 20
-3117.999940974257
 30
0.0
 11
-3263.689459170392
 21
170.000074025744
 31
0.0
  0
LINE
  5
272
330
1F
100
AcDbEntity
  8
0-0_補助線
  6
JWW_HOJO
 62
   120
370
     5
100
AcDbLine
 10
-1919.20347962624
 20
-3117.999940974257
 30
0.0
 11
-1919.20347962624
 21
170.000074025744
 31
0.0
  0
LINE
  5
273
330
1F
100
AcDbEntity
  8
0-0_補助線
  6
JWW_HOJO
 62
   120
370
     5
100
AcDbLine
 10
-3623.689459170392
 20
170.000074025744
 30
0.0
 11
-1919.20347962624
 21
170.000074025744
 31
0.0
  0
LINE
  5
274
330
1F
100
AcDbEntity
  8
0-7_金物
  6
Continuous
 62
     7
370
     5
100
AcDbLine
 10
-2618.689424838122
 20
-117.9999259742567
 30
0.0
 11
-2618.689424838122
 21
-93.99985730970798
 31
0.0
  0
LINE
  5
275
330
1F
100
AcDbEntity
  8
0-7_金物
  6
Continuous
 62
     7
370
     5
100
AcDbLine
 10
-2726.689493502673
 20
-93.99985730970798
 30
0.0
 11
-2726.689493502673
 21
-117.9999259742567
 31
0.0
  0
LINE
  5
276
330
1F
100
AcDbEntity
  8
0-7_金物
  6
Continuous
 62
     7
370
     5
100
AcDbLine
 10
-2732.689659442004
 20
-93.99985730970798
 30
0.0
 11
-2612.690002764758
 21
-93.99985730970798
 31
0.0
  0
LINE
  5
277
330
1F
100
AcDbEntity
  8
0-7_金物
  6
Continuous
 62
     7
370
     5
100
AcDbLine
 10
-2612.690002764758
 20
-82.0002635749654
 30
0.0
 11
-2612.690002764758
 21
-93.99985730970798
 31
0.0
  0
LINE
  5
278
330
1F
100
AcDbEntity
  8
0-7_金物
  6
Continuous
 62
     7
370
     5
100
AcDbLine
 10
-2732.689659442004
 20
-82.0002635749654
 30
0.0
 11
-2732.689659442004
 21
-93.99985730970798
 31
0.0
  0
LINE
  5
279
330
1F
100
AcDbEntity
  8
0-7_金物
  6
Continuous
 62
     7
370
     5
100
AcDbLine
 10
-2762.689762438814
 20
-69.99992597425774
 30
0.0
 11
-2762.689762438814
 21
-82.0002635749654
 31
0.0
  0
LINE
  5
27A
330
1F
100
AcDbEntity
  8
0-7_金物
  6
Continuous
 62
     7
370
     5
100
AcDbLine
 10
-2582.689899767921
 20
-69.99992597425774
 30
0.0
 11
-2582.689899767921
 21
-82.0002635749654
 31
0.0
  0
LINE
  5
27B
330
1F
100
AcDbEntity
  8
0-7_金物
  6
Continuous
 62
     7
370
     5
100
AcDbLine
 10
-2762.689762438814
 20
-82.0002635749654
 30
0.0
 11
-2582.689899767921
 21
-82.0002635749654
 31
0.0
  0
LINE
  5
27C
330
1F
100
AcDbEntity
  8
0-7_金物
  6
Continuous
 62
     7
370
     5
100
AcDbLine
 10
-2822.689762438828
 20
-69.99992597425774
 30
0.0
 11
-2642.689899767921
 21
-69.99992597425774
 31
0.0
  0
LINE
  5
27D
330
1F
100
AcDbEntity
  8
0-3_仕上げ
  6
Continuous
 62
   120
370
     5
100
AcDbLine
 10
-2942.689459170398
 20
-69.99992597425774
 30
0.0
 11
-2522.689459170398
 21
-69.99992597425774
 31
0.0
  0
LINE
  5
27E
330
1F
100
AcDbEntity
  8
0-3_仕上げ
  6
Continuous
 62
   120
370
     5
100
AcDbLine
 10
-2522.689459170398
 20
110.0000740257423
 30
0.0
 11
-2942.689459170398
 21
110.0000740257423
 31
0.0
  0
LINE
  5
27F
330
1F
100
AcDbEntity
  8
0-3_仕上げ
  6
Continuous
 62
   120
370
     5
100
AcDbLine
 10
-2942.689459170398
 20
110.0000740257423
 30
0.0
 11
-2942.689459170398
 21
-69.99992597425774
 31
0.0
  0
LINE
  5
280
330
1F
100
AcDbEntity
  8
0-3_仕上げ
  6
Continuous
 62
   120
370
     5
100
AcDbLine
 10
-2522.689459170398
 20
110.0000740257423
 30
0.0
 11
-2942.689459170398
 21
-69.99992597425774
 31
0.0
  0
LINE
  5
281
330
1F
100
AcDbEntity
  8
0-B_寸法
  6
Continuous
 62
   120
370
     5
100
AcDbLine
 10
-3623.689459170392
 20
-69.99992597425774
 30
0.0
 11
-3623.689459170392
 21
-3118.000311980379
 31
0.0
  0
LWPOLYLINE
  5
282
330
1F
100
AcDbEntity
  8
0-B_寸法
  6
Continuous
 62
     7
370
     5
100
AcDbPolyline
 90
        4
 70
     1
 43
3.0
 10
-3622.189459170392
 20
-69.99992597425774
 42
0.4142135623731
 10
-3623.689459170392
 20
-68.49992597425774
 42
0.4142135623731
 10
-3625.189459170392
 20
-69.99992597425774
 42
0.4142135623731
 10
-3623.689459170392
 20
-71.49992597425774
 42
0.4142135623731
  0
LINE
  5
283
330
1F
100
AcDbEntity
  8
0-B_寸法
  6
Continuous
 62
   120
370
     5
100
AcDbLine
 10
-3623.689459170392
 20
-69.99992597425774
 30
0.0
 11
-3263.689459170392
 21
-69.99992597425774
 31
0.0
  0
LWPOLYLINE
  5
284
330
1F
100
AcDbEntity
  8
0-B_寸法
  6
Continuous
 62
     7
370
     5
100
AcDbPolyline
 90
        4
 70
     1
 43
3.0
 10
-1287.703479626241
 20
-69.99994082064745
 42
0.4142135623731
 10
-1289.20347962624
 20
-68.49994082064745
 42
0.4142135623731
 10
-1290.70347962624
 20
-69.99994082064745
 42
0.4142135623731
 10
-1289.20347962624
 20
-71.49994082064745
 42
0.4142135623731
  0
LINE
  5
285
330
1F
100
AcDbEntity
  8
0-B_寸法
  6
Continuous
 62
   120
370
     5
100
AcDbLine
 10
-1289.20347962624
 20
-69.99994082064745
 30
0.0
 11
-1289.20347962624
 21
-3118.000311980379
 31
0.0
  0
LINE
  5
286
330
1F
100
AcDbEntity
  8
0-1_通り芯
  6
JWW_CENTER1
 62
   120
370
     5
100
AcDbLine
 10
-2672.689459170398
 20
-3211.070445315379
 30
0.0
 11
-2672.689459170398
 21
170.000074025744
 31
0.0
  0
MTEXT
  5
287
330
1F
100
AcDbEntity
  8
0-B_寸法
  6
Continuous
 62
     7
370
   211
100
AcDbMText
 10
-3638.689459170392
 20
-2046.280084335741
 30
0.0
 40
91.43999999999997
 41
780.0
 46
0.0
 71
     7
 72
     1
  1
{\fＭＳ ゴシック|b0|i0|c128|p49;ＲＯＨ＝2,055}
 11
6.123031769111886E-17
 21
1.0
 31
0.0
 73
     1
 44
1.0
  0
MTEXT
  5
288
330
1F
100
AcDbEntity
  8
0-B_寸法
  6
Continuous
 62
     7
370
     0
100
AcDbMText
 10
-1664.202786794741
 20
-1986.280084335741
 30
0.0
 40
91.43999999999997
 41
660.0
 46
0.0
 71
     7
 72
     1
  1
{\fＭＳ ゴシック|b0|i0|c128|p49;ＤＨ＝1,983}
 11
6.123031769111886E-17
 21
1.0
 31
0.0
 73
     1
 44
1.0
  0
MTEXT
  5
289
330
1F
100
AcDbEntity
  8
0-B_寸法
  6
Continuous
 62
     7
370
     0
100
AcDbMText
 10
-1484.202786794741
 20
-1986.280084335741
 30
0.0
 40
91.43999999999997
 41
660.0
 46
0.0
 71
     7
 72
     1
  1
{\fＭＳ ゴシック|b0|i0|c128|p49;枠内＝1,999}
 11
6.123031769111886E-17
 21
1.0
 31
0.0
 73
     1
 44
1.0
  0
MTEXT
  5
28A
330
1F
100
AcDbEntity
  8
0-B_寸法
  6
Continuous
 62
     7
370
     0
100
AcDbMText
 10
-1304.204271433678
 20
-1986.280084335741
 30
0.0
 40
91.43999999999997
 41
660.0
 46
0.0
 71
     7
 72
     1
  1
{\fＭＳ ゴシック|b0|i0|c128|p49;枠外＝2,047}
 11
6.123031769111886E-17
 21
1.0
 31
0.0
 73
     1
 44
1.0
  0
MTEXT
  5
28B
330
1F
100
AcDbEntity
  8
0-A_文字
  6
Continuous
 62
     7
370
     0
100
AcDbMText
 10
-2671.061373993239
 20
-3486.907689278275
 30
0.0
 40
68.57999999999996
 41
1349.999999999999
 46
0.0
 71
     7
 72
     1
  1
{\fＭＳ ゴシック|b0|i0|c128|p49;※扉厚（　）内はルーバーの場合}
 73
     1
 44
1.0
  0
LINE
  5
28C
330
1F
100
AcDbEntity
  8
0-A_文字
  6
JWW_HOJO
 62
   120
370
     5
100
AcDbLine
 10
-2671.061373993239
 20
-3476.197689278275
 30
0.0
 11
-261.5375644694286
 21
-3476.197689278275
 31
0.0
  0
MTEXT
  5
28D
330
1F
100
AcDbEntity
  8
0-A_文字
  6
Continuous
 62
     7
370
   211
100
AcDbMText
 10
-2792.689459170398
 20
-1144.495429699595
 30
0.0
 40
91.44
 41
240.0
 46
0.0
 71
     7
 72
     1
  1
{\fＭＳ ゴシック|b0|i0|c128|p49;(24)}
 73
     1
 44
1.0
  0
MTEXT
  5
28E
330
1F
100
AcDbEntity
  8
0-0_補助線
  6
Continuous
 62
     7
370
   211
100
AcDbMText
 10
1307.263189492897
 20
-1057.022205530577
 30
0.0
 40
68.5800000000013
 41
45.00000000000085
 46
0.0
 71
     7
 72
     1
  1
{\fＭＳ ゴシック|b0|i0|c128|p49;7}
 11
6.123031769111886E-17
 21
1.0
 31
0.0
 73
     1
 44
1.0
  0
LINE
  5
28F
330
1F
100
AcDbEntity
  8
0-A_文字
  6
Continuous
 62
    92
370
     5
100
AcDbLine
 10
1687.801095266706
 20
340.8513752693925
 30
0.0
 11
3673.470456937286
 21
340.8513752693925
 31
0.0
  0
LINE
  5
290
330
1F
100
AcDbEntity
  8
0-A_文字
  6
Continuous
 62
    92
370
     5
100
AcDbLine
 10
1687.801095266706
 20
160.8513752693908
 30
0.0
 11
3673.470456937286
 21
160.8513752693908
 31
0.0
  0
MTEXT
  5
291
330
1F
100
AcDbEntity
  8
0-0_補助線
  6
Continuous
 62
     7
370
   211
100
AcDbMText
 10
307.2628760848778
 20
-1362.031758769733
 30
0.0
 40
68.57999999999934
 41
89.99999999999915
 46
0.0
 71
     7
 72
     1
  1
{\fＭＳ ゴシック|b0|i0|c128|p49;31}
 73
     1
 44
1.0
  0
MTEXT
  5
292
330
1F
100
AcDbEntity
  8
0-0_補助線
  6
Continuous
 62
     7
370
   211
100
AcDbMText
 10
577.2634039564994
 20
-1362.031758769734
 30
0.0
 40
68.57999999999838
 41
89.99999999999787
 46
0.0
 71
     7
 72
     1
  1
{\fＭＳ ゴシック|b0|i0|c128|p49;23}
 73
     1
 44
1.0
  0
MTEXT
  5
293
330
1F
100
AcDbEntity
  8
0-0_補助線
  6
Continuous
 62
     7
370
   211
100
AcDbMText
 10
847.2631895086581
 20
-1362.031758769734
 30
0.0
 40
68.57999999999838
 41
89.99999999999787
 46
0.0
 71
     7
 72
     1
  1
{\fＭＳ ゴシック|b0|i0|c128|p49;31}
 73
     1
 44
1.0
  0
MTEXT
  5
294
330
1F
100
AcDbEntity
  8
0-0_補助線
  6
Continuous
 62
     7
370
   211
100
AcDbMText
 10
2564.10611046072
 20
-1623.981755032443
 30
0.0
 40
68.58000000000258
 41
90.00000000000341
 46
0.0
 71
     7
 72
     1
  1
{\fＭＳ ゴシック|b0|i0|c128|p49;32}
 73
     1
 44
1.0
  0
MTEXT
  5
295
330
1F
100
AcDbEntity
  8
0-0_補助線
  6
Continuous
 62
     7
370
   211
100
AcDbMText
 10
2564.10611046072
 20
-1783.444043022914
 30
0.0
 40
68.5800000000026
 41
90.00000000000341
 46
0.0
 71
     7
 72
     1
  1
{\fＭＳ ゴシック|b0|i0|c128|p49;11}
 73
     1
 44
1.0
  0
MTEXT
  5
296
330
1F
100
AcDbEntity
  8
0-0_補助線
  6
Continuous
 62
     7
370
   211
100
AcDbMText
 10
2136.254384721796
 20
-1919.600849893347
 30
0.0
 40
68.58000000000044
 41
135.0000000000009
 46
0.0
 71
     7
 72
     1
  1
{\fＭＳ ゴシック|b0|i0|c128|p49;1.2}
 11
6.123031769111886E-17
 21
1.0
 31
0.0
 73
     1
 44
1.0
  0
MTEXT
  5
297
330
1F
100
AcDbEntity
  8
0-0_補助線
  6
Continuous
 62
     7
370
   211
100
AcDbMText
 10
2136.254384721796
 20
-2031.624158955668
 30
0.0
 40
68.57999999999676
 41
44.99999999999787
 46
0.0
 71
     7
 72
     1
  1
{\fＭＳ ゴシック|b0|i0|c128|p49;7}
 11
6.123031769111886E-17
 21
1.0
 31
0.0
 73
     1
 44
1.0
  0
MTEXT
  5
298
330
1F
100
AcDbEntity
  8
0-0_補助線
  6
Continuous
 62
     7
370
   211
100
AcDbMText
 10
1979.811414477801
 20
-2067.624158955667
 30
0.0
 40
68.58000000000044
 41
135.0000000000009
 46
0.0
 71
     7
 72
     1
  1
{\fＭＳ ゴシック|b0|i0|c128|p49;8.2}
 11
6.123031769111886E-17
 21
1.0
 31
0.0
 73
     1
 44
1.0
  0
MTEXT
  5
299
330
1F
100
AcDbEntity
  8
0-0_補助線
  6
Continuous
 62
     7
370
   211
100
AcDbMText
 10
2519.106110460724
 20
-2257.520507766113
 30
0.0
 40
68.57999999999836
 41
179.9999999999957
 46
0.0
 71
     7
 72
     1
  1
{\fＭＳ ゴシック|b0|i0|c128|p49;19.4}
 73
     1
 44
1.0
  0
MTEXT
  5
29A
330
1F
100
AcDbEntity
  8
0-0_補助線
  6
Continuous
 62
     7
370
   211
100
AcDbMText
 10
2563.869681710189
 20
-2467.190303903155
 30
0.0
 40
68.5800000000026
 41
90.00000000000341
 46
0.0
 71
     7
 72
     1
  1
{\fＭＳ ゴシック|b0|i0|c128|p49;23}
 73
     1
 44
1.0
  0
MTEXT
  5
29B
330
1F
100
AcDbEntity
  8
0-0_補助線
  6
Continuous
 62
     7
370
   211
100
AcDbMText
 10
2287.221446362252
 20
-2629.137539560928
 30
0.0
 40
68.58000000000129
 41
135.0000000000026
 46
0.0
 71
     7
 72
     1
  1
{\fＭＳ ゴシック|b0|i0|c128|p49;1.5}
 73
     1
 44
1.0
  0
MTEXT
  5
29C
330
1F
100
AcDbEntity
  8
0-0_補助線
  6
Continuous
 62
     7
370
   211
100
AcDbMText
 10
2564.10611046072
 20
-2629.137539560927
 30
0.0
 40
68.5800000000026
 41
90.00000000000341
 46
0.0
 71
     7
 72
     1
  1
{\fＭＳ ゴシック|b0|i0|c128|p49;20}
 73
     1
 44
1.0
  0
MTEXT
  5
29D
330
1F
100
AcDbEntity
  8
0-0_補助線
  6
Continuous
 62
     7
370
   211
100
AcDbMText
 10
2807.973257931485
 20
-2629.137539560929
 30
0.0
 40
68.57999999999826
 41
134.9999999999966
 46
0.0
 71
     7
 72
     1
  1
{\fＭＳ ゴシック|b0|i0|c128|p49;1.5}
 73
     1
 44
1.0
  0
LINE
  5
29E
330
1F
100
AcDbEntity
  8
0-A_文字
  6
Continuous
 62
    92
370
     5
100
AcDbLine
 10
-297.8682664038737
 20
160.8513752693925
 30
0.0
 11
1687.801095266706
 21
160.8513752693925
 31
0.0
  0
LINE
  5
29F
330
1F
100
AcDbEntity
  8
0-A_文字
  6
Continuous
 62
    92
370
     5
100
AcDbLine
 10
-297.8682664038737
 20
340.8513752693925
 30
0.0
 11
1687.801095266706
 21
340.8513752693925
 31
0.0
  0
MTEXT
  5
2A0
330
1F
100
AcDbEntity
  8
0-0_補助線
  6
Continuous
 62
     7
370
   211
100
AcDbMText
 10
2136.254384721796
 20
-2809.252056654432
 30
0.0
 40
68.5800000000026
 41
45.00000000000171
 46
0.0
 71
     7
 72
     1
  1
{\fＭＳ ゴシック|b0|i0|c128|p49;2}
 11
6.123031769111886E-17
 21
1.0
 31
0.0
 73
     1
 44
1.0
  0
MTEXT
  5
2A1
330
1F
100
AcDbEntity
  8
0-0_補助線
  6
Continuous
 62
     7
370
   211
100
AcDbMText
 10
1979.811414477801
 20
-2895.831183400716
 30
0.0
 40
68.57999999999934
 41
44.99999999999957
 46
0.0
 71
     7
 72
     1
  1
{\fＭＳ ゴシック|b0|i0|c128|p49;7}
 11
6.123031769111886E-17
 21
1.0
 31
0.0
 73
     1
 44
1.0
  0
LINE
  5
2A2
330
1F
100
AcDbEntity
  8
0-0_補助線
  6
Continuous
 62
   120
370
     5
100
AcDbLine
 10
1322.263189492898
 20
-988.8123065685039
 30
0.0
 11
1322.263189492898
 21
-1058.812104492651
 31
0.0
  0
LWPOLYLINE
  5
2A3
330
1F
100
AcDbEntity
  8
0-0_補助線
  6
Continuous
 62
     7
370
     5
100
AcDbPolyline
 90
        4
 70
     1
 43
3.0
 10
1323.763189492897
 20
-988.8123065685039
 42
0.4142135623731
 10
1322.263189492898
 20
-987.312306568504
 42
0.4142135623731
 10
1320.763189492898
 20
-988.8123065685039
 42
0.4142135623731
 10
1322.263189492898
 20
-990.3123065685038
 42
0.4142135623731
  0
LWPOLYLINE
  5
2A4
330
1F
100
AcDbEntity
  8
0-0_補助線
  6
Continuous
 62
     7
370
     5
100
AcDbPolyline
 90
        4
 70
     1
 43
3.0
 10
1323.763189492897
 20
-1058.812104492651
 42
0.4142135623731
 10
1322.263189492898
 20
-1057.312104492651
 42
0.4142135623731
 10
1320.763189492898
 20
-1058.812104492651
 42
0.4142135623731
 10
1322.263189492898
 20
-1060.312104492651
 42
0.4142135623731
  0
LINE
  5
2A5
330
1F
100
AcDbEntity
  8
0-0_補助線
  6
Continuous
 62
   120
370
     5
100
AcDbLine
 10
1322.263189492898
 20
-988.8123065685039
 30
0.0
 11
1130.529881856626
 21
-988.8123065685039
 31
0.0
  0
LINE
  5
2A6
330
1F
100
AcDbEntity
  8
0-0_補助線
  6
Continuous
 62
   120
370
     5
100
AcDbLine
 10
1322.263189492898
 20
-1058.812104492651
 30
0.0
 11
1130.529881856626
 21
-1058.812104492651
 31
0.0
  0
MTEXT
  5
2A7
330
1F
100
AcDbEntity
  8
0-0_補助線
  6
Continuous
 62
     7
370
   211
100
AcDbMText
 10
2136.254384721796
 20
-2910.831461313588
 30
0.0
 40
68.57999999999676
 41
44.99999999999787
 46
0.0
 71
     7
 72
     1
  1
{\fＭＳ ゴシック|b0|i0|c128|p49;5}
 11
6.123031769111886E-17
 21
1.0
 31
0.0
 73
     1
 44
1.0
  0
LINE
  5
2A8
330
1F
100
AcDbEntity
  8
0-0_補助線
  6
Continuous
 62
   120
370
     5
100
AcDbLine
 10
197.2624801811629
 20
-1366.321758769733
 30
0.0
 11
507.2632719885918
 21
-1366.321758769733
 31
0.0
  0
LWPOLYLINE
  5
2A9
330
1F
100
AcDbEntity
  8
0-0_補助線
  6
Continuous
 62
     7
370
     5
100
AcDbPolyline
 90
        4
 70
     1
 43
3.0
 10
198.7624801811629
 20
-1366.321758769733
 42
0.4142135623731
 10
197.2624801811629
 20
-1364.821758769733
 42
0.4142135623731
 10
195.7624801811629
 20
-1366.321758769733
 42
0.4142135623731
 10
197.2624801811629
 20
-1367.821758769733
 42
0.4142135623731
  0
LWPOLYLINE
  5
2AA
330
1F
100
AcDbEntity
  8
0-0_補助線
  6
Continuous
 62
     7
370
     5
100
AcDbPolyline
 90
        4
 70
     1
 43
3.0
 10
508.7632719885918
 20
-1366.321758769733
 42
0.4142135623731
 10
507.2632719885918
 20
-1364.821758769733
 42
0.4142135623731
 10
505.7632719885918
 20
-1366.321758769733
 42
0.4142135623731
 10
507.2632719885918
 20
-1367.821758769733
 42
0.4142135623731
  0
LINE
  5
2AB
330
1F
100
AcDbEntity
  8
0-0_補助線
  6
Continuous
 62
   120
370
     5
100
AcDbLine
 10
197.2624801811629
 20
-1366.321758769733
 30
0.0
 11
197.2624801811629
 21
-1186.321758769734
 31
0.0
  0
LINE
  5
2AC
330
1F
100
AcDbEntity
  8
0-0_補助線
  6
Continuous
 62
   120
370
     5
100
AcDbLine
 10
507.2632719885918
 20
-1366.321758769733
 30
0.0
 11
507.2632719885918
 21
-1186.321758769734
 31
0.0
  0
MTEXT
  5
2AD
330
1F
100
AcDbEntity
  8
0-A_文字
  6
Continuous
 62
     7
370
     0
100
AcDbMText
 10
-25.0335855685838
 20
176.5713752693925
 30
0.0
 40
91.44000000000003
 41
1440.000000000001
 46
0.0
 71
     7
 72
     1
  1
{\fＭＳ ゴシック|b0|i0|c128|p49;竪枠下端形状図（S＝1/3）}
 73
     1
 44
1.0
  0
LINE
  5
2AE
330
1F
100
AcDbEntity
  8
0-0_補助線
  6
Continuous
 62
   120
370
     5
100
AcDbLine
 10
507.2632719885918
 20
-1366.321758769733
 30
0.0
 11
737.2635359244044
 21
-1366.321758769733
 31
0.0
  0
LWPOLYLINE
  5
2AF
330
1F
100
AcDbEntity
  8
0-0_補助線
  6
Continuous
 62
     7
370
     5
100
AcDbPolyline
 90
        4
 70
     1
 43
3.0
 10
738.7635359244044
 20
-1366.321758769733
 42
0.4142135623731
 10
737.2635359244044
 20
-1364.821758769733
 42
0.4142135623731
 10
735.7635359244044
 20
-1366.321758769733
 42
0.4142135623731
 10
737.2635359244044
 20
-1367.821758769733
 42
0.4142135623731
  0
LINE
  5
2B0
330
1F
100
AcDbEntity
  8
0-0_補助線
  6
Continuous
 62
   120
370
     5
100
AcDbLine
 10
737.2635359244044
 20
-1366.321758769733
 30
0.0
 11
737.2635359244044
 21
-1186.321758769734
 31
0.0
  0
MTEXT
  5
2B1
330
1F
100
AcDbEntity
  8
0-A_文字
  6
Continuous
 62
     7
370
     5
100
AcDbMText
 10
2020.635776101993
 20
176.571375269391
 30
0.0
 40
91.44000000000047
 41
1320.000000000007
 46
0.0
 71
     7
 72
     1
  1
{\fＭＳ ゴシック|b0|i0|c128|p49;レール拡大図（S＝1/2）}
 73
     1
 44
1.0
  0
LINE
  5
2B2
330
1F
100
AcDbEntity
  8
0-0_補助線
  6
Continuous
 62
   120
370
     5
100
AcDbLine
 10
737.2635359244044
 20
-1366.321758769733
 30
0.0
 11
1047.262843092909
 21
-1366.321758769733
 31
0.0
  0
LWPOLYLINE
  5
2B3
330
1F
100
AcDbEntity
  8
0-0_補助線
  6
Continuous
 62
     7
370
     5
100
AcDbPolyline
 90
        4
 70
     1
 43
3.0
 10
1048.762843092909
 20
-1366.321758769733
 42
0.4142135623731
 10
1047.262843092909
 20
-1364.821758769733
 42
0.4142135623731
 10
1045.762843092909
 20
-1366.321758769733
 42
0.4142135623731
 10
1047.262843092909
 20
-1367.821758769733
 42
0.4142135623731
  0
LINE
  5
2B4
330
1F
100
AcDbEntity
  8
0-0_補助線
  6
Continuous
 62
   120
370
     5
100
AcDbLine
 10
1047.262843092909
 20
-1366.321758769733
 30
0.0
 11
1047.262843092909
 21
-1186.321758769734
 31
0.0
  0
MTEXT
  5
2B5
330
1F
100
AcDbEntity
  8
0-A_文字
  6
Continuous
 62
     7
370
     5
100
AcDbMText
 10
-175.0335855685838
 20
-1808.359081402566
 30
0.0
 40
91.44000000000004
 41
1740.000000000001
 46
0.0
 71
     7
 72
     1
  1
{\fＭＳ ゴシック|b0|i0|c128|p49;レール埋込時 フロアー貼込位置}
 73
     1
 44
1.0
  0
LINE
  5
2B6
330
1F
100
AcDbEntity
  8
0-A_文字
  6
Continuous
 62
    92
370
     5
100
AcDbLine
 10
-297.8682664038737
 20
340.8513752693925
 30
0.0
 11
-297.8682664038737
 21
-3264.079081402567
 31
0.0
  0
LINE
  5
2B7
330
1F
100
AcDbEntity
  8
0-A_文字
  6
Continuous
 62
    92
370
     5
100
AcDbLine
 10
-297.8682664038737
 20
-3264.079081402567
 30
0.0
 11
3673.470456937286
 21
-3264.079081402567
 31
0.0
  0
MTEXT
  5
2B8
330
1F
100
AcDbEntity
  8
0-A_文字
  6
Continuous
 62
     7
370
     5
100
AcDbMText
 10
-232.4338540591024
 20
-2076.18525194048
 30
0.0
 40
91.43999999999984
 41
359.9999999999994
 46
0.0
 71
     7
 72
     1
  1
{\fＭＳ ゴシック|b0|i0|c128|p49;収納側}
 73
     1
 44
1.0
  0
MTEXT
  5
2B9
330
1F
100
AcDbEntity
  8
0-A_文字
  6
Continuous
 62
     7
370
   211
100
AcDbMText
 10
827.7891937871377
 20
-3049.095625738882
 30
0.0
 40
91.4400000000001
 41
900.0000000000009
 46
0.0
 71
     7
 72
     1
  1
{\fＭＳ ゴシック|b0|i0|c128|p49;チリ寸法(任意）}
 73
     1
 44
1.0
  0
MTEXT
  5
2BA
330
1F
100
AcDbEntity
  8
0-A_文字
  6
Continuous
 62
     7
370
     5
100
AcDbMText
 10
-217.2164627547435
 20
-3078.18440074749
 30
0.0
 40
91.43999999999986
 41
359.9999999999994
 46
0.0
 71
     7
 72
     1
  1
{\fＭＳ ゴシック|b0|i0|c128|p49;室内側}
 73
     1
 44
1.0
  0
MTEXT
  5
2BB
330
1F
100
AcDbEntity
  8
0-B_寸法
  6
Continuous
 62
     7
370
   211
100
AcDbMText
 10
127.5761977297374
 20
-2416.262718750552
 30
0.0
 40
91.43999999999838
 41
119.9999999999979
 46
0.0
 71
     7
 72
     1
  1
{\fＭＳ ゴシック|b0|i0|c128|p49;30}
 11
6.123031769111886E-17
 21
1.0
 31
0.0
 73
     1
 44
1.0
  0
LINE
  5
2BC
330
1F
100
AcDbEntity
  8
0-A_文字
  6
Continuous
 62
    92
370
     5
100
AcDbLine
 10
-297.8682664038737
 20
-1644.079081402567
 30
0.0
 11
1687.801095266706
 21
-1644.079081402567
 31
0.0
  0
LINE
  5
2BD
330
1F
100
AcDbEntity
  8
0-A_文字
  6
Continuous
 62
    92
370
     5
100
AcDbLine
 10
-297.8682664038737
 20
-1824.079081402567
 30
0.0
 11
1687.801095266706
 21
-1824.079081402567
 31
0.0
  0
LINE
  5
2BE
330
1F
100
AcDbEntity
  8
0-7_金物
  6
Continuous
 62
     7
370
     5
100
AcDbLine
 10
630.7610530817614
 20
-2577.905024295844
 30
0.0
 11
618.7614588830742
 21
-2577.905024295844
 31
0.0
  0
LINE
  5
2BF
330
1F
100
AcDbEntity
  8
0-7_金物
  6
Continuous
 62
     7
370
     5
100
AcDbLine
 10
618.7614588830742
 20
-2577.905024295844
 30
0.0
 11
618.7614588830742
 21
-2457.904628392125
 31
0.0
  0
LINE
  5
2C0
330
1F
100
AcDbEntity
  8
0-7_金物
  6
Continuous
 62
     7
370
     5
100
AcDbLine
 10
618.7614588830742
 20
-2457.904628392125
 30
0.0
 11
630.7610530817614
 21
-2457.904628392125
 31
0.0
  0
LINE
  5
2C1
330
1F
100
AcDbEntity
  8
0-7_金物
  6
Continuous
 62
     7
370
     5
100
AcDbLine
 10
618.7614588830742
 20
-2547.904925319913
 30
0.0
 11
600.7609541058367
 21
-2547.904925319913
 31
0.0
  0
LINE
  5
2C2
330
1F
100
AcDbEntity
  8
0-7_金物
  6
Continuous
 62
     7
370
     5
100
AcDbLine
 10
600.7609541058367
 20
-2487.904727368057
 30
0.0
 11
618.7614588830742
 21
-2487.904727368057
 31
0.0
  0
LINE
  5
2C3
330
1F
100
AcDbEntity
  8
0-7_金物
  6
Continuous
 62
     7
370
     5
100
AcDbLine
 10
612.7612906239996
 20
-2547.904925319913
 30
0.0
 11
612.7612906239996
 21
-2487.904727368057
 31
0.0
  0
ARC
  5
2C4
330
1F
100
AcDbEntity
  8
0-4_枠
  6
Continuous
 62
    92
370
     5
100
AcDbCircle
 10
-179.2386499904509
 20
-2748.479591111193
 30
0.0
 40
707.5483889193149
100
AcDbArc
 50
25.9889678955078
 51
32.00529479980467
  0
ARC
  5
2C5
330
1F
100
AcDbEntity
  8
0-4_枠
  6
Continuous
 62
    92
370
     5
100
AcDbCircle
 10
-179.2386499904509
 20
-2286.479996912502
 30
0.0
 40
707.5483889193149
100
AcDbArc
 50
327.9947052001953
 51
334.0110321044921
  0
LINE
  5
2C6
330
1F
100
AcDbEntity
  8
0-4_枠
  6
Continuous
 62
    92
370
     5
100
AcDbLine
 10
420.7618448891993
 20
-2373.480580870483
 30
0.0
 11
420.7618448891993
 21
-2298.482560389065
 31
0.0
  0
LINE
  5
2C7
330
1F
100
AcDbEntity
  8
0-4_枠
  6
Continuous
 62
    92
370
     5
100
AcDbLine
 10
420.7618448891993
 20
-2736.482223870905
 30
0.0
 11
456.7613698047365
 21
-2772.482491105915
 31
0.0
  0
LINE
  5
2C8
330
1F
100
AcDbEntity
  8
0-4_枠
  6
Continuous
 62
    92
370
     5
100
AcDbLine
 10
600.7609541058367
 20
-2772.482491105915
 30
0.0
 11
456.7613698047365
 21
-2772.482491105915
 31
0.0
  0
LINE
  5
2C9
330
1F
100
AcDbEntity
  8
0-4_枠
  6
Continuous
 62
    92
370
     5
100
AcDbLine
 10
456.7613698047365
 20
-2262.482293154055
 30
0.0
 11
420.7618448891993
 21
-2298.482560389065
 31
0.0
  0
LINE
  5
2CA
330
1F
100
AcDbEntity
  8
0-4_枠
  6
Continuous
 62
    92
370
     5
100
AcDbLine
 10
600.7609541058367
 20
-2262.482293154055
 30
0.0
 11
456.7613698047365
 21
-2262.482293154055
 31
0.0
  0
LINE
  5
2CB
330
1F
100
AcDbEntity
  8
0-4_枠
  6
Continuous
 62
    92
370
     5
100
AcDbLine
 10
600.7609541058367
 20
-2772.482491105915
 30
0.0
 11
600.7609541058367
 21
-2262.482293154055
 31
0.0
  0
LINE
  5
2CC
330
1F
100
AcDbEntity
  8
0-4_枠
  6
Continuous
 62
    92
370
     5
100
AcDbLine
 10
456.7613698047365
 20
-2438.433534312208
 30
0.0
 11
456.7613698047365
 21
-2596.526796030958
 31
0.0
  0
LINE
  5
2CD
330
1F
100
AcDbEntity
  8
0-4_枠
  6
Continuous
 62
    92
370
     5
100
AcDbLine
 10
420.7618448891993
 20
-2736.482223870905
 30
0.0
 11
420.7618448891993
 21
-2661.479007153212
 31
0.0
  0
LINE
  5
2CE
330
1F
100
AcDbEntity
  8
0-4_枠
  6
Continuous
 62
   120
370
     5
100
AcDbLine
 10
-194.0317326560338
 20
-2442.904400747489
 30
0.0
 11
456.7613698047365
 21
-2442.904400747489
 31
0.0
  0
LINE
  5
2CF
330
1F
100
AcDbEntity
  8
0-4_枠
  6
Continuous
 62
   120
370
     5
100
AcDbLine
 10
-194.0317326560338
 20
-2592.904400747489
 30
0.0
 11
456.7613698047365
 21
-2592.904400747489
 31
0.0
  0
LWPOLYLINE
  5
2D0
330
1F
100
AcDbEntity
  8
0-B_寸法
  6
Continuous
 62
     7
370
     5
100
AcDbPolyline
 90
        4
 70
     1
 43
3.0
 10
697.6179956713535
 20
-2772.482491105915
 42
0.4142135623731
 10
696.1179956713535
 20
-2770.982491105915
 42
0.4142135623731
 10
694.6179956713535
 20
-2772.482491105915
 42
0.4142135623731
 10
696.1179956713535
 20
-2773.982491105915
 42
0.4142135623731
  0
LINE
  5
2D1
330
1F
100
AcDbEntity
  8
0-B_寸法
  6
Continuous
 62
   120
370
     5
100
AcDbLine
 10
696.1179956713535
 20
-2772.482491105915
 30
0.0
 11
618.928329634797
 21
-2772.482491105915
 31
0.0
  0
LINE
  5
2D2
330
1F
100
AcDbEntity
  8
0-0_補助線
  6
JWW_HOJO
 62
   120
370
     5
100
AcDbLine
 10
1248.042486324572
 20
-2625.482491105915
 30
0.0
 11
1248.042486324572
 21
-2700.482491105915
 31
0.0
  0
LINE
  5
2D3
330
1F
100
AcDbEntity
  8
0-3_仕上げ
  6
Continuous
 62
    40
370
     5
100
AcDbLine
 10
600.7609541058367
 20
-2700.482491105915
 30
0.0
 11
1248.042486324572
 21
-2700.482491105915
 31
0.0
  0
LINE
  5
2D4
330
1F
100
AcDbEntity
  8
0-3_仕上げ
  6
Continuous
 62
    40
370
     5
100
AcDbLine
 10
600.7609541058367
 20
-2625.482491105915
 30
0.0
 11
1248.042486324572
 21
-2625.482491105915
 31
0.0
  0
LWPOLYLINE
  5
2D5
330
1F
100
AcDbEntity
  8
0-B_寸法
  6
Continuous
 62
     7
370
     5
100
AcDbPolyline
 90
        4
 70
     1
 43
3.0
 10
697.6179956713535
 20
-2700.482491105915
 42
0.4142135623731
 10
696.1179956713535
 20
-2698.982491105915
 42
0.4142135623731
 10
694.6179956713535
 20
-2700.482491105915
 42
0.4142135623731
 10
696.1179956713535
 20
-2701.982491105915
 42
0.4142135623731
  0
LINE
  5
2D6
330
1F
100
AcDbEntity
  8
0-B_寸法
  6
Continuous
 62
   120
370
     5
100
AcDbLine
 10
696.1179956713535
 20
-2700.482491105915
 30
0.0
 11
618.928329634797
 21
-2700.482491105915
 31
0.0
  0
LINE
  5
2D7
330
1F
100
AcDbEntity
  8
0-B_寸法
  6
Continuous
 62
   120
370
     5
100
AcDbLine
 10
696.1179956713535
 20
-2700.482491105915
 30
0.0
 11
696.1179956713535
 21
-2772.482491105915
 31
0.0
  0
LINE
  5
2D8
330
1F
100
AcDbEntity
  8
0-3_仕上げ
  6
Continuous
 62
    92
370
     5
100
AcDbLine
 10
630.7610530817614
 20
-2388.904380952305
 30
0.0
 11
630.7610530817614
 21
-2625.482491105915
 31
0.0
  0
LINE
  5
2D9
330
1F
100
AcDbEntity
  8
0-C_ハッチ
  6
Continuous
 62
   120
370
     5
100
AcDbLine
 10
600.7609541058367
 20
-2730.899981472258
 30
0.0
 11
456.7613698047365
 21
-2586.901881810096
 31
0.0
  0
LINE
  5
2DA
330
1F
100
AcDbEntity
  8
0-C_ハッチ
  6
Continuous
 62
   120
370
     5
100
AcDbLine
 10
600.7609541058367
 20
-2773.326508340924
 30
0.0
 11
445.6963558161364
 21
-2618.263394690165
 31
0.0
  0
LINE
  5
2DB
330
1F
100
AcDbEntity
  8
0-C_ハッチ
  6
Continuous
 62
   120
370
     5
100
AcDbLine
 10
557.4911523216236
 20
-2772.482491105915
 30
0.0
 11
430.4758374461984
 21
-2645.468660869427
 31
0.0
  0
LINE
  5
2DC
330
1F
100
AcDbEntity
  8
0-C_ハッチ
  6
Continuous
 62
   120
370
     5
100
AcDbLine
 10
472.6377274245682
 20
-2772.482491105915
 30
0.0
 11
420.7618448891993
 21
-2720.60697973028
 31
0.0
  0
LINE
  5
2DD
330
1F
100
AcDbEntity
  8
0-C_ハッチ
  6
Continuous
 62
   120
370
     5
100
AcDbLine
 10
600.7609541058367
 20
-2646.048412373862
 30
0.0
 11
456.7613698047365
 21
-2502.048085753296
 31
0.0
  0
LINE
  5
2DE
330
1F
100
AcDbEntity
  8
0-C_ハッチ
  6
Continuous
 62
   120
370
     5
100
AcDbLine
 10
600.7609541058367
 20
-2688.474196923062
 30
0.0
 11
456.7613698047365
 21
-2544.476097260899
 31
0.0
  0
LINE
  5
2DF
330
1F
100
AcDbEntity
  8
0-C_ハッチ
  6
Continuous
 62
   120
370
     5
100
AcDbLine
 10
600.7609541058367
 20
-2603.621885505196
 30
0.0
 11
456.7613698047365
 21
-2459.62155888463
 31
0.0
  0
LINE
  5
2E0
330
1F
100
AcDbEntity
  8
0-C_ハッチ
  6
Continuous
 62
   120
370
     5
100
AcDbLine
 10
600.7609541058367
 20
-2306.63619742454
 30
0.0
 11
556.6077921548243
 21
-2262.482293154055
 31
0.0
  0
LINE
  5
2E1
330
1F
100
AcDbEntity
  8
0-C_ハッチ
  6
Continuous
 62
   120
370
     5
100
AcDbLine
 10
600.7609541058367
 20
-2349.062724293206
 30
0.0
 11
514.1808941264175
 21
-2262.482293154055
 31
0.0
  0
LINE
  5
2E2
330
1F
100
AcDbEntity
  8
0-C_ハッチ
  6
Continuous
 62
   120
370
     5
100
AcDbLine
 10
600.7609541058367
 20
-2391.489251161868
 30
0.0
 11
471.7547384174999
 21
-2262.482293154055
 31
0.0
  0
LINE
  5
2E3
330
1F
100
AcDbEntity
  8
0-C_ハッチ
  6
Continuous
 62
   120
370
     5
100
AcDbLine
 10
600.7609541058367
 20
-2433.915778030533
 30
0.0
 11
443.0447906767735
 21
-2276.198872282012
 31
0.0
  0
LINE
  5
2E4
330
1F
100
AcDbEntity
  8
0-C_ハッチ
  6
Continuous
 62
   120
370
     5
100
AcDbLine
 10
600.7609541058367
 20
-2476.342304899199
 30
0.0
 11
421.8322695619248
 21
-2297.412135716346
 31
0.0
  0
LINE
  5
2E5
330
1F
100
AcDbEntity
  8
0-C_ハッチ
  6
Continuous
 62
   120
370
     5
100
AcDbLine
 10
600.7609541058367
 20
-2518.768831767865
 30
0.0
 11
420.7618448891993
 21
-2338.768237912293
 31
0.0
  0
LINE
  5
2E6
330
1F
100
AcDbEntity
  8
0-C_ハッチ
  6
Continuous
 62
   120
370
     5
100
AcDbLine
 10
600.7609541058367
 20
-2561.19535863653
 30
0.0
 11
432.7606967684245
 21
-2393.194358979649
 31
0.0
  0
LINE
  5
2E7
330
1F
100
AcDbEntity
  8
0-C_ハッチ
  6
Continuous
 62
   120
370
     5
100
AcDbLine
 10
515.0635119737548
 20
-2772.482491105915
 30
0.0
 11
420.7618448891993
 21
-2678.181195181083
 31
0.0
  0
LINE
  5
2E8
330
1F
100
AcDbEntity
  8
0-C_ハッチ
  6
JWW_DASHED1
 62
   120
370
     5
100
AcDbLine
 10
600.7609541058504
 20
-2659.307211514607
 30
0.0
 11
634.5856745145251
 21
-2625.482491105926
 31
0.0
  0
LINE
  5
2E9
330
1F
100
AcDbEntity
  8
0-C_ハッチ
  6
JWW_DASHED1
 62
   120
370
     5
100
AcDbLine
 10
602.0120813857251
 20
-2700.482491105926
 30
0.0
 11
677.0120813857387
 21
-2625.482491105915
 31
0.0
  0
LINE
  5
2EA
330
1F
100
AcDbEntity
  8
0-C_ハッチ
  6
JWW_DASHED1
 62
   120
370
     5
100
AcDbLine
 10
644.4384882569387
 20
-2700.482491105915
 30
0.0
 11
719.4384882569524
 21
-2625.482491105905
 31
0.0
  0
LINE
  5
2EB
330
1F
100
AcDbEntity
  8
0-C_ハッチ
  6
JWW_DASHED1
 62
   120
370
     5
100
AcDbLine
 10
686.8648951281388
 20
-2700.482491105915
 30
0.0
 11
761.8648951281524
 21
-2625.482491105905
 31
0.0
  0
LINE
  5
2EC
330
1F
100
AcDbEntity
  8
0-C_ハッチ
  6
JWW_DASHED1
 62
   120
370
     5
100
AcDbLine
 10
729.2913019993524
 20
-2700.482491105902
 30
0.0
 11
804.2913019993524
 21
-2625.482491105905
 31
0.0
  0
LINE
  5
2ED
330
1F
100
AcDbEntity
  8
0-C_ハッチ
  6
JWW_DASHED1
 62
   120
370
     5
100
AcDbLine
 10
771.7177088704842
 20
-2700.482491105912
 30
0.0
 11
846.7177088704842
 21
-2625.482491105915
 31
0.0
  0
LINE
  5
2EE
330
1F
100
AcDbEntity
  8
0-C_ハッチ
  6
JWW_DASHED1
 62
   120
370
     5
100
AcDbLine
 10
814.1441157416842
 20
-2700.482491105912
 30
0.0
 11
889.1441157416842
 21
-2625.482491105915
 31
0.0
  0
LINE
  5
2EF
330
1F
100
AcDbEntity
  8
0-C_ハッチ
  6
JWW_DASHED1
 62
   120
370
     5
100
AcDbLine
 10
856.5705226128842
 20
-2700.482491105915
 30
0.0
 11
931.5705226128706
 21
-2625.482491105919
 31
0.0
  0
LINE
  5
2F0
330
1F
100
AcDbEntity
  8
0-C_ハッチ
  6
JWW_DASHED1
 62
   120
370
     5
100
AcDbLine
 10
898.9969294840706
 20
-2700.482491105919
 30
0.0
 11
973.9969294840706
 21
-2625.482491105922
 31
0.0
  0
LINE
  5
2F1
330
1F
100
AcDbEntity
  8
0-C_ハッチ
  6
JWW_DASHED1
 62
   120
370
     5
100
AcDbLine
 10
941.4233363552843
 20
-2700.482491105915
 30
0.0
 11
1016.423336355298
 21
-2625.482491105905
 31
0.0
  0
LINE
  5
2F2
330
1F
100
AcDbEntity
  8
0-C_ハッチ
  6
JWW_DASHED1
 62
   120
370
     5
100
AcDbLine
 10
983.8497432264707
 20
-2700.482491105919
 30
0.0
 11
1058.849743226484
 21
-2625.482491105909
 31
0.0
  0
LINE
  5
2F3
330
1F
100
AcDbEntity
  8
0-C_ハッチ
  6
JWW_DASHED1
 62
   120
370
     5
100
AcDbLine
 10
1026.276150097684
 20
-2700.482491105912
 30
0.0
 11
1101.276150097698
 21
-2625.482491105899
 31
0.0
  0
LINE
  5
2F4
330
1F
100
AcDbEntity
  8
0-C_ハッチ
  6
JWW_DASHED1
 62
   120
370
     5
100
AcDbLine
 10
1068.702556968844
 20
-2700.482491105905
 30
0.0
 11
1143.70255696883
 21
-2625.482491105909
 31
0.0
  0
LINE
  5
2F5
330
1F
100
AcDbEntity
  8
0-C_ハッチ
  6
JWW_DASHED1
 62
   120
370
     5
100
AcDbLine
 10
1111.12896384003
 20
-2700.482491105905
 30
0.0
 11
1186.12896384003
 21
-2625.482491105909
 31
0.0
  0
LINE
  5
2F6
330
1F
100
AcDbEntity
  8
0-C_ハッチ
  6
JWW_DASHED1
 62
   120
370
     5
100
AcDbLine
 10
1153.55537071123
 20
-2700.482491105909
 30
0.0
 11
1228.55537071123
 21
-2625.482491105912
 31
0.0
  0
LINE
  5
2F7
330
1F
100
AcDbEntity
  8
0-C_ハッチ
  6
JWW_DASHED1
 62
   120
370
     5
100
AcDbLine
 10
1195.98177758243
 20
-2700.482491105912
 30
0.0
 11
1248.042486324572
 21
-2648.421782363773
 31
0.0
  0
LINE
  5
2F8
330
1F
100
AcDbEntity
  8
0-C_ハッチ
  6
JWW_DASHED1
 62
   120
370
     5
100
AcDbLine
 10
1238.40818445363
 20
-2700.482491105915
 30
0.0
 11
1248.042486324572
 21
-2690.84818923497
 31
0.0
  0
LINE
  5
2F9
330
1F
100
AcDbEntity
  8
0-B_寸法
  6
Continuous
 62
   120
370
     5
100
AcDbLine
 10
142.5761977297374
 20
-2592.482293154055
 30
0.0
 11
257.2028517940147
 21
-2592.482293154055
 31
0.0
  0
LINE
  5
2FA
330
1F
100
AcDbEntity
  8
0-B_寸法
  6
Continuous
 62
   120
370
     5
100
AcDbLine
 10
142.5761977297374
 20
-2442.482293154055
 30
0.0
 11
257.2028517940147
 21
-2442.482293154055
 31
0.0
  0
LWPOLYLINE
  5
2FB
330
1F
100
AcDbEntity
  8
0-B_寸法
  6
Continuous
 62
     7
370
     5
100
AcDbPolyline
 90
        4
 70
     1
 43
3.0
 10
144.0761977297374
 20
-2592.482293154055
 42
0.4142135623731
 10
142.5761977297374
 20
-2590.982293154055
 42
0.4142135623731
 10
141.0761977297374
 20
-2592.482293154055
 42
0.4142135623731
 10
142.5761977297374
 20
-2593.982293154055
 42
0.4142135623731
  0
LWPOLYLINE
  5
2FC
330
1F
100
AcDbEntity
  8
0-B_寸法
  6
Continuous
 62
     7
370
     5
100
AcDbPolyline
 90
        4
 70
     1
 43
3.0
 10
144.0761977297374
 20
-2442.482293154055
 42
0.4142135623731
 10
142.5761977297374
 20
-2440.982293154055
 42
0.4142135623731
 10
141.0761977297374
 20
-2442.482293154055
 42
0.4142135623731
 10
142.5761977297374
 20
-2443.982293154055
 42
0.4142135623731
  0
LINE
  5
2FD
330
1F
100
AcDbEntity
  8
0-B_寸法
  6
Continuous
 62
   120
370
     5
100
AcDbLine
 10
-1.768477758599474
 20
-2262.482293154055
 30
0.0
 11
257.2028517940147
 21
-2262.482293154055
 31
0.0
  0
LWPOLYLINE
  5
2FE
330
1F
100
AcDbEntity
  8
0-B_寸法
  6
Continuous
 62
     7
370
     5
100
AcDbPolyline
 90
        4
 70
     1
 43
3.0
 10
144.0761977297374
 20
-2262.482293154055
 42
0.4142135623731
 10
142.5761977297374
 20
-2260.982293154055
 42
0.4142135623731
 10
141.0761977297374
 20
-2262.482293154055
 42
0.4142135623731
 10
142.5761977297374
 20
-2263.982293154055
 42
0.4142135623731
  0
LWPOLYLINE
  5
2FF
330
1F
100
AcDbEntity
  8
0-B_寸法
  6
Continuous
 62
     7
370
     5
100
AcDbPolyline
 90
        4
 70
     1
 43
3.0
 10
-0.2684777585994736
 20
-2262.482293154055
 42
0.4142135623731
 10
-1.768477758599474
 20
-2260.982293154055
 42
0.4142135623731
 10
-3.268477758599474
 20
-2262.482293154055
 42
0.4142135623731
 10
-1.768477758599474
 20
-2263.982293154055
 42
0.4142135623731
  0
LINE
  5
300
330
1F
100
AcDbEntity
  8
0-B_寸法
  6
Continuous
 62
   120
370
     5
100
AcDbLine
 10
142.5761977297374
 20
-2772.482293154055
 30
0.0
 11
142.5761977297374
 21
-2262.482293154055
 31
0.0
  0
LINE
  5
301
330
1F
100
AcDbEntity
  8
0-B_寸法
  6
Continuous
 62
   120
370
     5
100
AcDbLine
 10
-1.768477758599474
 20
-2772.482293154055
 30
0.0
 11
257.2028517940147
 21
-2772.482293154055
 31
0.0
  0
LWPOLYLINE
  5
302
330
1F
100
AcDbEntity
  8
0-B_寸法
  6
Continuous
 62
     7
370
     5
100
AcDbPolyline
 90
        4
 70
     1
 43
3.0
 10
144.0761977297374
 20
-2772.482293154055
 42
0.4142135623731
 10
142.5761977297374
 20
-2770.982293154055
 42
0.4142135623731
 10
141.0761977297374
 20
-2772.482293154055
 42
0.4142135623731
 10
142.5761977297374
 20
-2773.982293154055
 42
0.4142135623731
  0
LWPOLYLINE
  5
303
330
1F
100
AcDbEntity
  8
0-B_寸法
  6
Continuous
 62
     7
370
     5
100
AcDbPolyline
 90
        4
 70
     1
 43
3.0
 10
-0.2684777585994736
 20
-2772.482293154055
 42
0.4142135623731
 10
-1.768477758599474
 20
-2770.982293154055
 42
0.4142135623731
 10
-3.268477758599474
 20
-2772.482293154055
 42
0.4142135623731
 10
-1.768477758599474
 20
-2773.982293154055
 42
0.4142135623731
  0
LINE
  5
304
330
1F
100
AcDbEntity
  8
0-B_寸法
  6
Continuous
 62
   120
370
     5
100
AcDbLine
 10
-1.768477758599474
 20
-2772.482293154055
 30
0.0
 11
-1.768477758599474
 21
-2262.482293154055
 31
0.0
  0
MTEXT
  5
305
330
1F
100
AcDbEntity
  8
0-B_寸法
  6
Continuous
 62
     7
370
   211
100
AcDbMText
 10
127.5761977297374
 20
-2591.762293154054
 30
0.0
 40
91.43999999999838
 41
119.9999999999979
 46
0.0
 71
     7
 72
     1
  1
{\fＭＳ ゴシック|b0|i0|c128|p49;25}
 11
6.123031769111886E-17
 21
1.0
 31
0.0
 73
     1
 44
1.0
  0
MTEXT
  5
306
330
1F
100
AcDbEntity
  8
0-B_寸法
  6
Continuous
 62
     7
370
   211
100
AcDbMText
 10
-16.76847775859969
 20
-2591.762718750549
 30
0.0
 40
91.43999999999838
 41
119.9999999999979
 46
0.0
 71
     7
 72
     1
  1
{\fＭＳ ゴシック|b0|i0|c128|p49;85}
 11
6.123031769111886E-17
 21
1.0
 31
0.0
 73
     1
 44
1.0
  0
MTEXT
  5
307
330
1F
100
AcDbEntity
  8
0-B_寸法
  6
Continuous
 62
     7
370
   211
100
AcDbMText
 10
127.5761977297374
 20
-2756.762293154054
 30
0.0
 40
91.43999999999838
 41
119.9999999999979
 46
0.0
 71
     7
 72
     1
  1
{\fＭＳ ゴシック|b0|i0|c128|p49;30}
 11
6.123031769111886E-17
 21
1.0
 31
0.0
 73
     1
 44
1.0
  0
LINE
  5
308
330
1F
100
AcDbEntity
  8
0-A_文字
  6
Continuous
 62
     7
370
     5
100
AcDbLine
 10
696.1179956713535
 20
-2744.109456410019
 30
0.0
 11
827.1459258437029
 21
-3043.727239051876
 31
0.0
  0
LINE
  5
309
330
1F
100
AcDbEntity
  8
0-A_文字
  6
Continuous
 62
     7
370
     5
100
AcDbLine
 10
827.1459258437029
 20
-3043.727239051876
 30
0.0
 11
1653.324517080533
 21
-3043.727239051876
 31
0.0
  0
INSERT
  5
30A
330
1F
100
AcDbEntity
  8
0-0_補助線
  6
Continuous
 62
     7
370
     5
100
AcDbBlockReference
  2
01@@SfigorgFlag@@4
 10
2609.106110460722
 20
-1988.183389724896
 30
0.0
 41
30.0
 42
30.0
  0
LWPOLYLINE
  5
30B
330
1F
100
AcDbEntity
  8
0-0_補助線
  6
Continuous
 62
     7
370
     5
100
AcDbPolyline
 90
        4
 70
     1
 43
3.0
 10
2370.606110460725
 20
-1941.414158955665
 42
0.4142135623731
 10
2369.106110460725
 20
-1939.914158955665
 42
0.4142135623731
 10
2367.606110460725
 20
-1941.414158955665
 42
0.4142135623731
 10
2369.106110460725
 20
-1942.914158955665
 42
0.4142135623731
  0
LWPOLYLINE
  5
30C
330
1F
100
AcDbEntity
  8
0-0_補助線
  6
Continuous
 62
     7
370
     5
100
AcDbPolyline
 90
        4
 70
     1
 43
3.0
 10
2850.606110460721
 20
-1941.414158955665
 42
0.4142135623731
 10
2849.106110460721
 20
-1939.914158955665
 42
0.4142135623731
 10
2847.606110460721
 20
-1941.414158955665
 42
0.4142135623731
 10
2849.106110460721
 20
-1942.914158955665
 42
0.4142135623731
  0
LWPOLYLINE
  5
30D
330
1F
100
AcDbEntity
  8
0-0_補助線
  6
Continuous
 62
     7
370
     5
100
AcDbPolyline
 90
        4
 70
     1
 43
3.0
 10
2528.106110460717
 20
-1936.914158955665
 42
0.4142135623731
 10
2526.606110460717
 20
-1935.414158955666
 42
0.4142135623731
 10
2525.106110460717
 20
-1936.914158955665
 42
0.4142135623731
 10
2526.606110460717
 20
-1938.414158955665
 42
0.4142135623731
  0
LWPOLYLINE
  5
30E
330
1F
100
AcDbEntity
  8
0-0_補助線
  6
Continuous
 62
     7
370
     5
100
AcDbPolyline
 90
        4
 70
     1
 43
3.0
 10
2693.106110460728
 20
-1936.914158955665
 42
0.4142135623731
 10
2691.606110460728
 20
-1935.414158955666
 42
0.4142135623731
 10
2690.106110460728
 20
-1936.914158955665
 42
0.4142135623731
 10
2691.606110460728
 20
-1938.414158955665
 42
0.4142135623731
  0
LINE
  5
30F
330
1F
100
AcDbEntity
  8
0-0_補助線
  6
Continuous
 62
   120
370
     5
100
AcDbLine
 10
2526.606110460717
 20
-1787.734043022916
 30
0.0
 11
2691.606110460728
 21
-1787.734043022916
 31
0.0
  0
LWPOLYLINE
  5
310
330
1F
100
AcDbEntity
  8
0-0_補助線
  6
Continuous
 62
     7
370
     5
100
AcDbPolyline
 90
        4
 70
     1
 43
3.0
 10
2528.106110460717
 20
-1787.734043022916
 42
0.4142135623731
 10
2526.606110460717
 20
-1786.234043022916
 42
0.4142135623731
 10
2525.106110460717
 20
-1787.734043022916
 42
0.4142135623731
 10
2526.606110460717
 20
-1789.234043022916
 42
0.4142135623731
  0
LWPOLYLINE
  5
311
330
1F
100
AcDbEntity
  8
0-0_補助線
  6
Continuous
 62
     7
370
     5
100
AcDbPolyline
 90
        4
 70
     1
 43
3.0
 10
2693.106110460728
 20
-1787.734043022916
 42
0.4142135623731
 10
2691.606110460728
 20
-1786.234043022916
 42
0.4142135623731
 10
2690.106110460728
 20
-1787.734043022916
 42
0.4142135623731
 10
2691.606110460728
 20
-1789.234043022916
 42
0.4142135623731
  0
LINE
  5
312
330
1F
100
AcDbEntity
  8
0-0_補助線
  6
Continuous
 62
   120
370
     5
100
AcDbLine
 10
2526.606110460717
 20
-1787.734043022916
 30
0.0
 11
2526.606110460717
 21
-1873.598351940863
 31
0.0
  0
LINE
  5
313
330
1F
100
AcDbEntity
  8
0-0_補助線
  6
Continuous
 62
   120
370
     5
100
AcDbLine
 10
2691.606110460728
 20
-1787.734043022916
 30
0.0
 11
2691.606110460728
 21
-1873.598351940863
 31
0.0
  0
LINE
  5
314
330
1F
100
AcDbEntity
  8
0-0_補助線
  6
Continuous
 62
   120
370
     5
100
AcDbLine
 10
2369.106110460725
 20
-1628.271755032444
 30
0.0
 11
2849.106110460721
 21
-1628.271755032444
 31
0.0
  0
LWPOLYLINE
  5
315
330
1F
100
AcDbEntity
  8
0-0_補助線
  6
Continuous
 62
     7
370
     5
100
AcDbPolyline
 90
        4
 70
     1
 43
3.0
 10
2370.606110460725
 20
-1628.271755032444
 42
0.4142135623731
 10
2369.106110460725
 20
-1626.771755032445
 42
0.4142135623731
 10
2367.606110460725
 20
-1628.271755032444
 42
0.4142135623731
 10
2369.106110460725
 20
-1629.771755032444
 42
0.4142135623731
  0
LWPOLYLINE
  5
316
330
1F
100
AcDbEntity
  8
0-0_補助線
  6
Continuous
 62
     7
370
     5
100
AcDbPolyline
 90
        4
 70
     1
 43
3.0
 10
2850.606110460721
 20
-1628.271755032444
 42
0.4142135623731
 10
2849.106110460721
 20
-1626.771755032445
 42
0.4142135623731
 10
2847.606110460721
 20
-1628.271755032444
 42
0.4142135623731
 10
2849.106110460721
 20
-1629.771755032444
 42
0.4142135623731
  0
LINE
  5
317
330
1F
100
AcDbEntity
  8
0-0_補助線
  6
Continuous
 62
   120
370
     5
100
AcDbLine
 10
2369.106110460725
 20
-1628.271755032444
 30
0.0
 11
2369.106110460725
 21
-1873.598351940863
 31
0.0
  0
LINE
  5
318
330
1F
100
AcDbEntity
  8
0-0_補助線
  6
Continuous
 62
   120
370
     5
100
AcDbLine
 10
2849.106110460721
 20
-1628.271755032444
 30
0.0
 11
2849.106110460721
 21
-1873.598351940863
 31
0.0
  0
LWPOLYLINE
  5
319
330
1F
100
AcDbEntity
  8
0-0_補助線
  6
Continuous
 62
     7
370
     5
100
AcDbPolyline
 90
        4
 70
     1
 43
3.0
 10
2152.754384721797
 20
-1927.914158955667
 42
0.4142135623731
 10
2151.254384721797
 20
-1926.414158955667
 42
0.4142135623731
 10
2149.754384721797
 20
-1927.914158955667
 42
0.4142135623731
 10
2151.254384721797
 20
-1929.414158955667
 42
0.4142135623731
  0
LWPOLYLINE
  5
31A
330
1F
100
AcDbEntity
  8
0-0_補助線
  6
Continuous
 62
     7
370
     5
100
AcDbPolyline
 90
        4
 70
     1
 43
3.0
 10
2152.754384721797
 20
-1945.914158955668
 42
0.4142135623731
 10
2151.254384721797
 20
-1944.414158955668
 42
0.4142135623731
 10
2149.754384721797
 20
-1945.914158955668
 42
0.4142135623731
 10
2151.254384721797
 20
-1947.414158955668
 42
0.4142135623731
  0
LINE
  5
31B
330
1F
100
AcDbEntity
  8
0-0_補助線
  6
Continuous
 62
   120
370
     5
100
AcDbLine
 10
2151.254384721797
 20
-1927.914158955667
 30
0.0
 11
2282.095236406287
 21
-1927.914158955667
 31
0.0
  0
LINE
  5
31C
330
1F
100
AcDbEntity
  8
0-0_補助線
  6
Continuous
 62
   120
370
     5
100
AcDbLine
 10
2151.254384721797
 20
-1945.914158955668
 30
0.0
 11
2282.095236406287
 21
-1945.914158955668
 31
0.0
  0
LINE
  5
31D
330
1F
100
AcDbEntity
  8
0-0_補助線
  6
Continuous
 62
   120
370
     5
100
AcDbLine
 10
2151.254384721797
 20
-1945.914158955668
 30
0.0
 11
2151.254384721797
 21
-2050.914158955668
 31
0.0
  0
LWPOLYLINE
  5
31E
330
1F
100
AcDbEntity
  8
0-0_補助線
  6
Continuous
 62
     7
370
     5
100
AcDbPolyline
 90
        4
 70
     1
 43
3.0
 10
2152.754384721797
 20
-2050.914158955668
 42
0.4142135623731
 10
2151.254384721797
 20
-2049.414158955668
 42
0.4142135623731
 10
2149.754384721797
 20
-2050.914158955668
 42
0.4142135623731
 10
2151.254384721797
 20
-2052.414158955668
 42
0.4142135623731
  0
LINE
  5
31F
330
1F
100
AcDbEntity
  8
0-0_補助線
  6
Continuous
 62
   120
370
     5
100
AcDbLine
 10
2151.254384721797
 20
-2050.914158955668
 30
0.0
 11
2282.095236406287
 21
-2050.914158955668
 31
0.0
  0
LINE
  5
320
330
1F
100
AcDbEntity
  8
0-0_補助線
  6
Continuous
 62
   120
370
     5
100
AcDbLine
 10
2463.606110460725
 20
-2261.810507766117
 30
0.0
 11
2754.606110460719
 21
-2261.810507766117
 31
0.0
  0
LWPOLYLINE
  5
321
330
1F
100
AcDbEntity
  8
0-0_補助線
  6
Continuous
 62
     7
370
     5
100
AcDbPolyline
 90
        4
 70
     1
 43
3.0
 10
2465.106110460725
 20
-2261.810507766117
 42
0.4142135623731
 10
2463.606110460725
 20
-2260.310507766117
 42
0.4142135623731
 10
2462.106110460725
 20
-2261.810507766117
 42
0.4142135623731
 10
2463.606110460725
 20
-2263.310507766117
 42
0.4142135623731
  0
LWPOLYLINE
  5
322
330
1F
100
AcDbEntity
  8
0-0_補助線
  6
Continuous
 62
     7
370
     5
100
AcDbPolyline
 90
        4
 70
     1
 43
3.0
 10
2756.106110460719
 20
-2261.810507766117
 42
0.4142135623731
 10
2754.606110460719
 20
-2260.310507766117
 42
0.4142135623731
 10
2753.106110460719
 20
-2261.810507766117
 42
0.4142135623731
 10
2754.606110460719
 20
-2263.310507766117
 42
0.4142135623731
  0
LINE
  5
323
330
1F
100
AcDbEntity
  8
0-0_補助線
  6
Continuous
 62
   120
370
     5
100
AcDbLine
 10
2463.606110460725
 20
-2261.810507766117
 30
0.0
 11
2463.606110460725
 21
-2134.194425697967
 31
0.0
  0
LINE
  5
324
330
1F
100
AcDbEntity
  8
0-0_補助線
  6
Continuous
 62
   120
370
     5
100
AcDbLine
 10
2754.606110460719
 20
-2261.810507766117
 30
0.0
 11
2754.606110460719
 21
-2134.194425697967
 31
0.0
  0
LINE
  5
325
330
1F
100
AcDbEntity
  8
0-0_補助線
  6
Continuous
 62
   120
370
     5
100
AcDbLine
 10
2151.254384721797
 20
-1761.42631433136
 30
0.0
 11
2151.254384721797
 21
-1945.914158955668
 31
0.0
  0
LWPOLYLINE
  5
326
330
1F
100
AcDbEntity
  8
0-0_補助線
  6
Continuous
 62
     7
370
     5
100
AcDbPolyline
 90
        4
 70
     1
 43
3.0
 10
2438.106110460722
 20
-2633.427539560927
 42
0.4142135623731
 10
2436.606110460722
 20
-2631.927539560927
 42
0.4142135623731
 10
2435.106110460722
 20
-2633.427539560927
 42
0.4142135623731
 10
2436.606110460722
 20
-2634.927539560927
 42
0.4142135623731
  0
LWPOLYLINE
  5
327
330
1F
100
AcDbEntity
  8
0-0_補助線
  6
Continuous
 62
     7
370
     5
100
AcDbPolyline
 90
        4
 70
     1
 43
3.0
 10
2460.606110460722
 20
-2633.427539560927
 42
0.4142135623731
 10
2459.106110460722
 20
-2631.927539560927
 42
0.4142135623731
 10
2457.606110460722
 20
-2633.427539560927
 42
0.4142135623731
 10
2459.106110460722
 20
-2634.927539560927
 42
0.4142135623731
  0
LINE
  5
328
330
1F
100
AcDbEntity
  8
0-0_補助線
  6
Continuous
 62
   120
370
     5
100
AcDbLine
 10
2436.606110460722
 20
-2633.427539560927
 30
0.0
 11
2436.606110460722
 21
-2737.939891289828
 31
0.0
  0
LINE
  5
329
330
1F
100
AcDbEntity
  8
0-0_補助線
  6
Continuous
 62
   120
370
     5
100
AcDbLine
 10
2459.106110460722
 20
-2633.427539560927
 30
0.0
 11
2459.106110460722
 21
-2737.939891289828
 31
0.0
  0
LINE
  5
32A
330
1F
100
AcDbEntity
  8
0-0_補助線
  6
Continuous
 62
   120
370
     5
100
AcDbLine
 10
2459.106110460722
 20
-2633.427539560927
 30
0.0
 11
2759.106110460722
 21
-2633.427539560927
 31
0.0
  0
LWPOLYLINE
  5
32B
330
1F
100
AcDbEntity
  8
0-0_補助線
  6
Continuous
 62
     7
370
     5
100
AcDbPolyline
 90
        4
 70
     1
 43
3.0
 10
2760.606110460722
 20
-2633.427539560927
 42
0.4142135623731
 10
2759.106110460722
 20
-2631.927539560927
 42
0.4142135623731
 10
2757.606110460722
 20
-2633.427539560927
 42
0.4142135623731
 10
2759.106110460722
 20
-2634.927539560927
 42
0.4142135623731
  0
LINE
  5
32C
330
1F
100
AcDbEntity
  8
0-0_補助線
  6
Continuous
 62
   120
370
     5
100
AcDbLine
 10
2759.106110460722
 20
-2633.427539560927
 30
0.0
 11
2759.106110460722
 21
-2737.939891289828
 31
0.0
  0
LWPOLYLINE
  5
32D
330
1F
100
AcDbEntity
  8
0-0_補助線
  6
Continuous
 62
     7
370
     5
100
AcDbPolyline
 90
        4
 70
     1
 43
3.0
 10
2782.633252959659
 20
-2633.427539560927
 42
0.4142135623731
 10
2781.133252959659
 20
-2631.927539560927
 42
0.4142135623731
 10
2779.633252959659
 20
-2633.427539560927
 42
0.4142135623731
 10
2781.133252959659
 20
-2634.927539560927
 42
0.4142135623731
  0
LINE
  5
32E
330
1F
100
AcDbEntity
  8
0-0_補助線
  6
Continuous
 62
   120
370
     5
100
AcDbLine
 10
2781.133252959659
 20
-2633.427539560927
 30
0.0
 11
2781.133252959659
 21
-2737.939891289828
 31
0.0
  0
LWPOLYLINE
  5
32F
330
1F
100
AcDbEntity
  8
0-0_補助線
  6
Continuous
 62
     7
370
     5
100
AcDbPolyline
 90
        4
 70
     1
 43
3.0
 10
2152.754384721797
 20
-2810.120905487842
 42
0.4142135623731
 10
2151.254384721797
 20
-2808.620905487842
 42
0.4142135623731
 10
2149.754384721797
 20
-2810.120905487842
 42
0.4142135623731
 10
2151.254384721797
 20
-2811.620905487841
 42
0.4142135623731
  0
LWPOLYLINE
  5
330
330
1F
100
AcDbEntity
  8
0-0_補助線
  6
Continuous
 62
     7
370
     5
100
AcDbPolyline
 90
        4
 70
     1
 43
3.0
 10
2152.754384721797
 20
-2840.121461313583
 42
0.4142135623731
 10
2151.254384721797
 20
-2838.621461313583
 42
0.4142135623731
 10
2149.754384721797
 20
-2840.121461313583
 42
0.4142135623731
 10
2151.254384721797
 20
-2841.621461313583
 42
0.4142135623731
  0
LINE
  5
331
330
1F
100
AcDbEntity
  8
0-0_補助線
  6
Continuous
 62
   120
370
     5
100
AcDbLine
 10
2151.254384721797
 20
-2810.120905487842
 30
0.0
 11
2282.095236406287
 21
-2810.120905487842
 31
0.0
  0
LINE
  5
332
330
1F
100
AcDbEntity
  8
0-0_補助線
  6
Continuous
 62
   120
370
     5
100
AcDbLine
 10
2151.254384721797
 20
-2840.121461313583
 30
0.0
 11
2282.095236406287
 21
-2840.121461313583
 31
0.0
  0
LINE
  5
333
330
1F
100
AcDbEntity
  8
0-0_補助線
  6
Continuous
 62
   120
370
     5
100
AcDbLine
 10
2151.254384721797
 20
-2840.121461313583
 30
0.0
 11
2151.254384721797
 21
-2915.12146131359
 31
0.0
  0
LWPOLYLINE
  5
334
330
1F
100
AcDbEntity
  8
0-0_補助線
  6
Continuous
 62
     7
370
     5
100
AcDbPolyline
 90
        4
 70
     1
 43
3.0
 10
2152.754384721797
 20
-2915.12146131359
 42
0.4142135623731
 10
2151.254384721797
 20
-2913.62146131359
 42
0.4142135623731
 10
2149.754384721797
 20
-2915.12146131359
 42
0.4142135623731
 10
2151.254384721797
 20
-2916.62146131359
 42
0.4142135623731
  0
LINE
  5
335
330
1F
100
AcDbEntity
  8
0-0_補助線
  6
Continuous
 62
   120
370
     5
100
AcDbLine
 10
2151.254384721797
 20
-2915.12146131359
 30
0.0
 11
2282.095236406287
 21
-2915.12146131359
 31
0.0
  0
LINE
  5
336
330
1F
100
AcDbEntity
  8
0-0_補助線
  6
Continuous
 62
   120
370
     5
100
AcDbLine
 10
1994.811414477802
 20
-2915.12146131359
 30
0.0
 11
1994.811414477802
 21
-2810.120905487842
 31
0.0
  0
LWPOLYLINE
  5
337
330
1F
100
AcDbEntity
  8
0-0_補助線
  6
Continuous
 62
     7
370
     5
100
AcDbPolyline
 90
        4
 70
     1
 43
3.0
 10
1996.311414477802
 20
-2915.12146131359
 42
0.4142135623731
 10
1994.811414477802
 20
-2913.62146131359
 42
0.4142135623731
 10
1993.311414477802
 20
-2915.12146131359
 42
0.4142135623731
 10
1994.811414477802
 20
-2916.62146131359
 42
0.4142135623731
  0
LWPOLYLINE
  5
338
330
1F
100
AcDbEntity
  8
0-0_補助線
  6
Continuous
 62
     7
370
     5
100
AcDbPolyline
 90
        4
 70
     1
 43
3.0
 10
1996.311414477802
 20
-2810.120905487842
 42
0.4142135623731
 10
1994.811414477802
 20
-2808.620905487842
 42
0.4142135623731
 10
1993.311414477802
 20
-2810.120905487842
 42
0.4142135623731
 10
1994.811414477802
 20
-2811.620905487841
 42
0.4142135623731
  0
LINE
  5
339
330
1F
100
AcDbEntity
  8
0-0_補助線
  6
Continuous
 62
   120
370
     5
100
AcDbLine
 10
1994.811414477802
 20
-2915.12146131359
 30
0.0
 11
2151.254384721797
 21
-2915.12146131359
 31
0.0
  0
LINE
  5
33A
330
1F
100
AcDbEntity
  8
0-0_補助線
  6
Continuous
 62
   120
370
     5
100
AcDbLine
 10
1994.811414477802
 20
-2810.120905487842
 30
0.0
 11
2151.254384721797
 21
-2810.120905487842
 31
0.0
  0
LWPOLYLINE
  5
33B
330
1F
100
AcDbEntity
  8
0-0_補助線
  6
Continuous
 62
     7
370
     5
100
AcDbPolyline
 90
        4
 70
     1
 43
3.0
 10
1996.311414477802
 20
-2050.914158955668
 42
0.4142135623731
 10
1994.811414477802
 20
-2049.414158955668
 42
0.4142135623731
 10
1993.311414477802
 20
-2050.914158955668
 42
0.4142135623731
 10
1994.811414477802
 20
-2052.414158955668
 42
0.4142135623731
  0
LINE
  5
33C
330
1F
100
AcDbEntity
  8
0-0_補助線
  6
Continuous
 62
   120
370
     5
100
AcDbLine
 10
1994.811414477802
 20
-2050.914158955668
 30
0.0
 11
2151.254384721797
 21
-2050.914158955668
 31
0.0
  0
LINE
  5
33D
330
1F
100
AcDbEntity
  8
0-0_補助線
  6
Continuous
 62
   120
370
     5
100
AcDbLine
 10
1994.811414477802
 20
-2050.914158955668
 30
0.0
 11
1994.811414477802
 21
-1927.914158955667
 31
0.0
  0
LWPOLYLINE
  5
33E
330
1F
100
AcDbEntity
  8
0-0_補助線
  6
Continuous
 62
     7
370
     5
100
AcDbPolyline
 90
        4
 70
     1
 43
3.0
 10
1996.311414477802
 20
-1927.914158955667
 42
0.4142135623731
 10
1994.811414477802
 20
-1926.414158955667
 42
0.4142135623731
 10
1993.311414477802
 20
-1927.914158955667
 42
0.4142135623731
 10
1994.811414477802
 20
-1929.414158955667
 42
0.4142135623731
  0
LINE
  5
33F
330
1F
100
AcDbEntity
  8
0-0_補助線
  6
Continuous
 62
   120
370
     5
100
AcDbLine
 10
1994.811414477802
 20
-1927.914158955667
 30
0.0
 11
2151.254384721797
 21
-1927.914158955667
 31
0.0
  0
LINE
  5
340
330
1F
100
AcDbEntity
  8
0-0_補助線
  6
Continuous
 62
   120
370
     5
100
AcDbLine
 10
2151.254384721797
 20
-2743.599609078753
 30
0.0
 11
2151.254384721797
 21
-2840.121461313583
 31
0.0
  0
LINE
  5
341
330
1F
100
AcDbEntity
  8
0-0_補助線
  6
Continuous
 62
   120
370
     5
100
AcDbLine
 10
2436.606110460722
 20
-2471.480303903156
 30
0.0
 11
2781.133252959659
 21
-2471.480303903156
 31
0.0
  0
LWPOLYLINE
  5
342
330
1F
100
AcDbEntity
  8
0-0_補助線
  6
Continuous
 62
     7
370
     5
100
AcDbPolyline
 90
        4
 70
     1
 43
3.0
 10
2438.106110460722
 20
-2471.480303903156
 42
0.4142135623731
 10
2436.606110460722
 20
-2469.980303903156
 42
0.4142135623731
 10
2435.106110460722
 20
-2471.480303903156
 42
0.4142135623731
 10
2436.606110460722
 20
-2472.980303903156
 42
0.4142135623731
  0
LWPOLYLINE
  5
343
330
1F
100
AcDbEntity
  8
0-0_補助線
  6
Continuous
 62
     7
370
     5
100
AcDbPolyline
 90
        4
 70
     1
 43
3.0
 10
2782.633252959659
 20
-2471.480303903156
 42
0.4142135623731
 10
2781.133252959659
 20
-2469.980303903156
 42
0.4142135623731
 10
2779.633252959659
 20
-2471.480303903156
 42
0.4142135623731
 10
2781.133252959659
 20
-2472.980303903156
 42
0.4142135623731
  0
LINE
  5
344
330
1F
100
AcDbEntity
  8
0-0_補助線
  6
Continuous
 62
   120
370
     5
100
AcDbLine
 10
2436.606110460722
 20
-2471.480303903156
 30
0.0
 11
2436.606110460722
 21
-2633.427539560927
 31
0.0
  0
LINE
  5
345
330
1F
100
AcDbEntity
  8
0-0_補助線
  6
Continuous
 62
   120
370
     5
100
AcDbLine
 10
2781.133252959659
 20
-2471.480303903156
 30
0.0
 11
2781.133252959659
 21
-2633.427539560927
 31
0.0
  0
LINE
  5
346
330
1F
100
AcDbEntity
  8
0-0_補助線
  6
Continuous
 62
   120
370
     5
100
AcDbLine
 10
2272.204028683189
 20
-2633.427539560927
 30
0.0
 11
2459.106110460722
 21
-2633.427539560927
 31
0.0
  0
LINE
  5
347
330
1F
100
AcDbEntity
  8
0-0_補助線
  6
Continuous
 62
   120
370
     5
100
AcDbLine
 10
2759.106110460722
 20
-2633.427539560927
 30
0.0
 11
2952.415174416017
 21
-2633.427539560927
 31
0.0
  0
LINE
  5
348
330
1F
100
AcDbEntity
  8
0-A_文字
  6
Continuous
 62
    92
370
     5
100
AcDbLine
 10
1687.801095266706
 20
340.8513752693925
 30
0.0
 11
1687.801095266706
 21
-3264.079081402567
 31
0.0
  0
LINE
  5
349
330
1F
100
AcDbEntity
  8
0-A_文字
  6
Continuous
 62
    92
370
     5
100
AcDbLine
 10
3673.470456937286
 20
340.8513752693925
 30
0.0
 11
3673.470456937286
 21
-3264.079081402567
 31
0.0
  0
MTEXT
  5
34A
330
1F
100
AcDbEntity
  8
1-A_文字
  6
Continuous
 62
     7
370
     0
100
AcDbMText
 10
2889.997696307343
 20
-1059.474558392066
 30
0.0
 40
91.44
 41
600.0
 46
0.0
 71
     7
 72
     1
  1
{\fＭＳ ゴシック|b0|i0|c128|p49;下地ベース}
 73
     1
 44
1.0
  0
LINE
  5
34B
330
1F
100
AcDbEntity
  8
1-A_文字
  6
Continuous
 62
     7
370
     5
100
AcDbLine
 10
2709.711901050947
 20
-842.1679791267878
 30
0.0
 11
2836.386465803404
 21
-984.8535396092644
 31
0.0
  0
LINE
  5
34C
330
1F
100
AcDbEntity
  8
1-3_仕上げ
  6
Continuous
 62
    40
370
     5
100
AcDbLine
 10
2069.106110460722
 20
-873.6360387978528
 30
0.0
 11
3149.106110460722
 21
-873.6360387978528
 31
0.0
  0
LINE
  5
34D
330
1F
100
AcDbEntity
  8
1-0_補助線
  6
JWW_HOJO
 62
   120
370
     5
100
AcDbLine
 10
2069.106110460722
 20
-1053.124063196087
 30
0.0
 11
3149.106110460722
 21
-1053.124063196087
 31
0.0
  0
LINE
  5
34E
330
1F
100
AcDbEntity
  8
1-B_寸法
  6
Continuous
 62
   120
370
     5
100
AcDbLine
 10
3179.106110460722
 20
-873.6360387978528
 30
0.0
 11
3449.106110460722
 21
-873.6360387978528
 31
0.0
  0
LWPOLYLINE
  5
34F
330
1F
100
AcDbEntity
  8
1-B_寸法
  6
Continuous
 62
     7
370
     5
100
AcDbPolyline
 90
        4
 70
     1
 43
3.0
 10
3450.606110460722
 20
-873.6360387978528
 42
0.4142135623731
 10
3449.106110460722
 20
-872.1360387978528
 42
0.4142135623731
 10
3447.606110460722
 20
-873.6360387978528
 42
0.4142135623731
 10
3449.106110460722
 20
-875.1360387978528
 42
0.4142135623731
  0
LINE
  5
350
330
1F
100
AcDbEntity
  8
1-B_寸法
  6
Continuous
 62
   120
370
     5
100
AcDbLine
 10
2421.606110460722
 20
-933.1240631959134
 30
0.0
 11
2421.606110460722
 21
-1053.124063195914
 31
0.0
  0
LWPOLYLINE
  5
351
330
1F
100
AcDbEntity
  8
1-B_寸法
  6
Continuous
 62
     7
370
     5
100
AcDbPolyline
 90
        4
 70
     1
 43
3.0
 10
2423.106110460722
 20
-1053.124063195914
 42
0.4142135623731
 10
2421.606110460722
 20
-1051.624063195914
 42
0.4142135623731
 10
2420.106110460722
 20
-1053.124063195914
 42
0.4142135623731
 10
2421.606110460722
 20
-1054.624063195913
 42
0.4142135623731
  0
MTEXT
  5
352
330
1F
100
AcDbEntity
  8
1-B_寸法
  6
Continuous
 62
     7
370
     0
100
AcDbMText
 10
2549.106110460722
 20
-265.8170671862469
 30
0.0
 40
91.44
 41
120.0
 46
0.0
 71
     7
 72
     1
  1
{\fＭＳ ゴシック|b0|i0|c128|p49;32}
 73
     1
 44
1.0
  0
LINE
  5
353
330
1F
100
AcDbEntity
  8
1-B_寸法
  6
Continuous
 62
   120
370
     5
100
AcDbLine
 10
2796.606110460722
 20
-933.1240631959134
 30
0.0
 11
2796.606110460722
 21
-1053.124063195914
 31
0.0
  0
LWPOLYLINE
  5
354
330
1F
100
AcDbEntity
  8
1-B_寸法
  6
Continuous
 62
     7
370
     5
100
AcDbPolyline
 90
        4
 70
     1
 43
3.0
 10
2798.106110460722
 20
-1053.124063195914
 42
0.4142135623731
 10
2796.606110460722
 20
-1051.624063195914
 42
0.4142135623731
 10
2795.106110460722
 20
-1053.124063195914
 42
0.4142135623731
 10
2796.606110460722
 20
-1054.624063195913
 42
0.4142135623731
  0
MTEXT
  5
355
330
1F
100
AcDbEntity
  8
1-B_寸法
  6
Continuous
 62
     7
370
   211
100
AcDbMText
 10
2133.424994933017
 20
-385.8171572543428
 30
0.0
 40
91.44
 41
240.0
 46
0.0
 71
     7
 72
     1
  1
{\fＭＳ ゴシック|b0|i0|c128|p49;10.5}
 73
     1
 44
1.0
  0
LINE
  5
356
330
1F
100
AcDbEntity
  8
1-B_寸法
  6
Continuous
 62
   120
370
     5
100
AcDbLine
 10
2421.606110460722
 20
-1053.124063195914
 30
0.0
 11
2796.606110460722
 21
-1053.124063195914
 31
0.0
  0
LINE
  5
357
330
1F
100
AcDbEntity
  8
1-B_寸法
  6
Continuous
 62
   120
370
     5
100
AcDbLine
 10
2781.606110460722
 20
-933.1240631959134
 30
0.0
 11
2781.606110460722
 21
-1053.124063195914
 31
0.0
  0
LWPOLYLINE
  5
358
330
1F
100
AcDbEntity
  8
1-B_寸法
  6
Continuous
 62
     7
370
     5
100
AcDbPolyline
 90
        4
 70
     1
 43
3.0
 10
2783.106110460722
 20
-1053.124063195914
 42
0.4142135623731
 10
2781.606110460722
 20
-1051.624063195914
 42
0.4142135623731
 10
2780.106110460722
 20
-1053.124063195914
 42
0.4142135623731
 10
2781.606110460722
 20
-1054.624063195913
 42
0.4142135623731
  0
LINE
  5
359
330
1F
100
AcDbEntity
  8
1-B_寸法
  6
Continuous
 62
   120
370
     5
100
AcDbLine
 10
2436.606256260885
 20
-933.1240631959134
 30
0.0
 11
2436.606256260885
 21
-1053.124063195914
 31
0.0
  0
LWPOLYLINE
  5
35A
330
1F
100
AcDbEntity
  8
1-B_寸法
  6
Continuous
 62
     7
370
     5
100
AcDbPolyline
 90
        4
 70
     1
 43
3.0
 10
2438.106256260885
 20
-1053.124063195914
 42
0.4142135623731
 10
2436.606256260885
 20
-1051.624063195914
 42
0.4142135623731
 10
2435.106256260885
 20
-1053.124063195914
 42
0.4142135623731
 10
2436.606256260885
 20
-1054.624063195913
 42
0.4142135623731
  0
MTEXT
  5
35B
330
1F
100
AcDbEntity
  8
1-B_寸法
  6
Continuous
 62
     7
370
   211
100
AcDbMText
 10
2549.106110460722
 20
-385.8171572543428
 30
0.0
 40
91.44
 41
120.0
 46
0.0
 71
     7
 72
     1
  1
{\fＭＳ ゴシック|b0|i0|c128|p49;11}
 73
     1
 44
1.0
  0
LINE
  5
35C
330
1F
100
AcDbEntity
  8
1-B_寸法
  6
Continuous
 62
   120
370
     5
100
AcDbLine
 10
3179.106110460722
 20
-798.6360387978528
 30
0.0
 11
3449.106110460722
 21
-798.6360387978528
 31
0.0
  0
LWPOLYLINE
  5
35D
330
1F
100
AcDbEntity
  8
1-B_寸法
  6
Continuous
 62
     7
370
     5
100
AcDbPolyline
 90
        4
 70
     1
 43
3.0
 10
3450.606110460722
 20
-798.6360387978528
 42
0.4142135623731
 10
3449.106110460722
 20
-797.1360387978528
 42
0.4142135623731
 10
3447.606110460722
 20
-798.6360387978528
 42
0.4142135623731
 10
3449.106110460722
 20
-800.1360387978528
 42
0.4142135623731
  0
LINE
  5
35E
330
1F
100
AcDbEntity
  8
1-B_寸法
  6
Continuous
 62
   120
370
     5
100
AcDbLine
 10
2369.106110460722
 20
-611.7961018455163
 30
0.0
 11
2369.106110460722
 21
-251.7961018455163
 31
0.0
  0
LWPOLYLINE
  5
35F
330
1F
100
AcDbEntity
  8
1-B_寸法
  6
Continuous
 62
     7
370
     5
100
AcDbPolyline
 90
        4
 70
     1
 43
3.0
 10
2370.606110460722
 20
-491.7961018455163
 42
0.4142135623731
 10
2369.106110460722
 20
-490.2961018455163
 42
0.4142135623731
 10
2367.606110460722
 20
-491.7961018455163
 42
0.4142135623731
 10
2369.106110460722
 20
-493.2961018455164
 42
0.4142135623731
  0
LWPOLYLINE
  5
360
330
1F
100
AcDbEntity
  8
1-B_寸法
  6
Continuous
 62
     7
370
     5
100
AcDbPolyline
 90
        4
 70
     1
 43
3.0
 10
2370.606110460722
 20
-371.7961018455163
 42
0.4142135623731
 10
2369.106110460722
 20
-370.2961018455163
 42
0.4142135623731
 10
2367.606110460722
 20
-371.7961018455163
 42
0.4142135623731
 10
2369.106110460722
 20
-373.2961018455164
 42
0.4142135623731
  0
LWPOLYLINE
  5
361
330
1F
100
AcDbEntity
  8
1-B_寸法
  6
Continuous
 62
     7
370
     5
100
AcDbPolyline
 90
        4
 70
     1
 43
3.0
 10
2370.606110460722
 20
-251.7961018455163
 42
0.4142135623731
 10
2369.106110460722
 20
-250.2961018455163
 42
0.4142135623731
 10
2367.606110460722
 20
-251.7961018455163
 42
0.4142135623731
 10
2369.106110460722
 20
-253.2961018455164
 42
0.4142135623731
  0
MTEXT
  5
362
330
1F
100
AcDbEntity
  8
1-B_寸法
  6
Continuous
 62
     7
370
   211
100
AcDbMText
 10
2850.358200945704
 20
-385.8171572543428
 30
0.0
 40
91.44
 41
240.0
 46
0.0
 71
     7
 72
     1
  1
{\fＭＳ ゴシック|b0|i0|c128|p49;10.5}
 73
     1
 44
1.0
  0
LINE
  5
363
330
1F
100
AcDbEntity
  8
1-0_補助線
  6
JWW_HOJO
 62
   120
370
     5
100
AcDbLine
 10
2069.106110460722
 20
-251.7961018455163
 30
0.0
 11
2069.106110460722
 21
-1053.124063196087
 31
0.0
  0
LINE
  5
364
330
1F
100
AcDbEntity
  8
1-0_補助線
  6
JWW_HOJO
 62
   120
370
     5
100
AcDbLine
 10
2369.106110460722
 20
-491.7961018455163
 30
0.0
 11
2849.106110460722
 21
-491.7961018455163
 31
0.0
  0
LINE
  5
365
330
1F
100
AcDbEntity
  8
1-0_補助線
  6
JWW_HOJO
 62
   120
370
     5
100
AcDbLine
 10
2369.106110460722
 20
-371.7961018455163
 30
0.0
 11
2849.106110460722
 21
-371.7961018455163
 31
0.0
  0
LINE
  5
366
330
1F
100
AcDbEntity
  8
1-B_寸法
  6
Continuous
 62
   120
370
     5
100
AcDbLine
 10
2369.106110460722
 20
-371.7961018455163
 30
0.0
 11
2849.106110460722
 21
-371.7961018455163
 31
0.0
  0
LINE
  5
367
330
1F
100
AcDbEntity
  8
1-B_寸法
  6
Continuous
 62
   120
370
     5
100
AcDbLine
 10
2369.106110460722
 20
-251.7961018455163
 30
0.0
 11
2849.106110460722
 21
-251.7961018455163
 31
0.0
  0
LWPOLYLINE
  5
368
330
1F
100
AcDbEntity
  8
1-B_寸法
  6
Continuous
 62
     7
370
     5
100
AcDbPolyline
 90
        4
 70
     1
 43
3.0
 10
2850.606110460722
 20
-491.7961018455163
 42
0.4142135623731
 10
2849.106110460722
 20
-490.2961018455163
 42
0.4142135623731
 10
2847.606110460722
 20
-491.7961018455163
 42
0.4142135623731
 10
2849.106110460722
 20
-493.2961018455164
 42
0.4142135623731
  0
LWPOLYLINE
  5
369
330
1F
100
AcDbEntity
  8
1-B_寸法
  6
Continuous
 62
     7
370
     5
100
AcDbPolyline
 90
        4
 70
     1
 43
3.0
 10
2850.606110460722
 20
-371.7961018455163
 42
0.4142135623731
 10
2849.106110460722
 20
-370.2961018455163
 42
0.4142135623731
 10
2847.606110460722
 20
-371.7961018455163
 42
0.4142135623731
 10
2849.106110460722
 20
-373.2961018455164
 42
0.4142135623731
  0
LWPOLYLINE
  5
36A
330
1F
100
AcDbEntity
  8
1-B_寸法
  6
Continuous
 62
     7
370
     5
100
AcDbPolyline
 90
        4
 70
     1
 43
3.0
 10
2850.606110460722
 20
-251.7961018455163
 42
0.4142135623731
 10
2849.106110460722
 20
-250.2961018455163
 42
0.4142135623731
 10
2847.606110460722
 20
-251.7961018455163
 42
0.4142135623731
 10
2849.106110460722
 20
-253.2961018455164
 42
0.4142135623731
  0
LINE
  5
36B
330
1F
100
AcDbEntity
  8
1-B_寸法
  6
Continuous
 62
   120
370
     5
100
AcDbLine
 10
2849.106110460722
 20
-611.7961018455163
 30
0.0
 11
2849.106110460722
 21
-251.7961018455163
 31
0.0
  0
MTEXT
  5
36C
330
1F
100
AcDbEntity
  8
1-B_寸法
  6
Continuous
 62
     7
370
   211
100
AcDbMText
 10
2764.506605835246
 20
-505.8171572543428
 30
0.0
 40
91.44
 41
180.0
 46
0.0
 71
     7
 72
     1
  1
{\fＭＳ ゴシック|b0|i0|c128|p49;6.3}
 73
     1
 44
1.0
  0
LINE
  5
36D
330
1F
100
AcDbEntity
  8
1-0_補助線
  6
JWW_HOJO
 62
   120
370
     5
100
AcDbLine
 10
2069.106110460722
 20
-251.7961018455163
 30
0.0
 11
3149.106110460722
 21
-251.7961018455163
 31
0.0
  0
LINE
  5
36E
330
1F
100
AcDbEntity
  8
1-0_補助線
  6
JWW_HOJO
 62
   120
370
     5
100
AcDbLine
 10
3149.106110460722
 20
-251.7961018455163
 30
0.0
 11
3149.106110460722
 21
-1053.124063196087
 31
0.0
  0
LINE
  5
36F
330
1F
100
AcDbEntity
  8
1-B_寸法
  6
Continuous
 62
   120
370
     5
100
AcDbLine
 10
3179.106110460722
 20
-693.6360387978528
 30
0.0
 11
3449.106110460722
 21
-693.6360387978528
 31
0.0
  0
LWPOLYLINE
  5
370
330
1F
100
AcDbEntity
  8
1-B_寸法
  6
Continuous
 62
     7
370
     5
100
AcDbPolyline
 90
        4
 70
     1
 43
3.0
 10
3450.606110460722
 20
-693.6360387978528
 42
0.4142135623731
 10
3449.106110460722
 20
-692.1360387978528
 42
0.4142135623731
 10
3447.606110460722
 20
-693.6360387978528
 42
0.4142135623731
 10
3449.106110460722
 20
-695.1360387978528
 42
0.4142135623731
  0
LWPOLYLINE
  5
371
330
1F
100
AcDbEntity
  8
1-B_寸法
  6
Continuous
 62
     7
370
     5
100
AcDbPolyline
 90
        4
 70
     1
 43
3.0
 10
2528.106110460722
 20
-371.7961018455163
 42
0.4142135623731
 10
2526.606110460722
 20
-370.2961018455163
 42
0.4142135623731
 10
2525.106110460722
 20
-371.7961018455163
 42
0.4142135623731
 10
2526.606110460722
 20
-373.2961018455164
 42
0.4142135623731
  0
LINE
  5
372
330
1F
100
AcDbEntity
  8
1-B_寸法
  6
Continuous
 62
   120
370
     5
100
AcDbLine
 10
2526.606110460722
 20
-371.7961018455163
 30
0.0
 11
2526.606110460722
 21
-611.7961018455163
 31
0.0
  0
LWPOLYLINE
  5
373
330
1F
100
AcDbEntity
  8
1-B_寸法
  6
Continuous
 62
     7
370
     5
100
AcDbPolyline
 90
        4
 70
     1
 43
3.0
 10
2693.106110460722
 20
-371.7961018455163
 42
0.4142135623731
 10
2691.606110460722
 20
-370.2961018455163
 42
0.4142135623731
 10
2690.106110460722
 20
-371.7961018455163
 42
0.4142135623731
 10
2691.606110460722
 20
-373.2961018455164
 42
0.4142135623731
  0
LINE
  5
374
330
1F
100
AcDbEntity
  8
1-B_寸法
  6
Continuous
 62
   120
370
     5
100
AcDbLine
 10
2691.606110460722
 20
-371.7961018455163
 30
0.0
 11
2691.606110460722
 21
-611.7961018455163
 31
0.0
  0
MTEXT
  5
375
330
1F
100
AcDbEntity
  8
1-B_寸法
  6
Continuous
 62
     7
370
   211
100
AcDbMText
 10
2270.951851537676
 20
-508.5247336993826
 30
0.0
 40
91.44
 41
180.0
 46
0.0
 71
     7
 72
     1
  1
{\fＭＳ ゴシック|b0|i0|c128|p49;6.3}
 73
     1
 44
1.0
  0
LINE
  5
376
330
1F
100
AcDbEntity
  8
1-3_仕上げ
  6
Continuous
 62
    40
370
     5
100
AcDbLine
 10
2421.82161498779
 20
-693.6360387978528
 30
0.0
 11
2069.106110460722
 21
-693.6360387978528
 31
0.0
  0
LINE
  5
377
330
1F
100
AcDbEntity
  8
1-3_仕上げ
  6
Continuous
 62
    40
370
     5
100
AcDbLine
 10
2796.390605933654
 20
-693.6360387978528
 30
0.0
 11
3149.106110460722
 21
-693.6360387978528
 31
0.0
  0
MTEXT
  5
378
330
1F
100
AcDbEntity
  8
1-B_寸法
  6
Continuous
 62
     7
370
     0
100
AcDbMText
 10
3443.01937163648
 20
-690.4011058492985
 30
0.0
 40
91.44
 41
180.0
 46
0.0
 71
     7
 72
     1
  1
{\fＭＳ ゴシック|b0|i0|c128|p49;1.2}
 11
6.123031769111886E-17
 21
1.0
 31
0.0
 73
     1
 44
1.0
  0
MTEXT
  5
379
330
1F
100
AcDbEntity
  8
1-B_寸法
  6
Continuous
 62
     7
370
     0
100
AcDbMText
 10
3440.498391985904
 20
-790.4160387978528
 30
0.0
 40
91.44
 41
60.0
 46
0.0
 71
     7
 72
     1
  1
{\fＭＳ ゴシック|b0|i0|c128|p49;7}
 11
6.123031769111886E-17
 21
1.0
 31
0.0
 73
     1
 44
1.0
  0
MTEXT
  5
37A
330
1F
100
AcDbEntity
  8
1-B_寸法
  6
Continuous
 62
     7
370
     0
100
AcDbMText
 10
3441.758881811199
 20
-880.4160387978528
 30
0.0
 40
91.44
 41
60.0
 46
0.0
 71
     7
 72
     1
  1
{\fＭＳ ゴシック|b0|i0|c128|p49;5}
 11
6.123031769111886E-17
 21
1.0
 31
0.0
 73
     1
 44
1.0
  0
LINE
  5
37B
330
1F
100
AcDbEntity
  8
1-3_仕上げ
  6
Continuous
 62
     7
370
     5
100
AcDbLine
 10
2421.606110460722
 20
-729.6360387978508
 30
0.0
 11
2069.106110460722
 21
-729.6360387978508
 31
0.0
  0
LINE
  5
37C
330
1F
100
AcDbEntity
  8
1-3_仕上げ
  6
Continuous
 62
     7
370
     5
100
AcDbLine
 10
2421.606110460722
 20
-765.6360387978522
 30
0.0
 11
2069.106110460722
 21
-765.6360387978522
 31
0.0
  0
LINE
  5
37D
330
1F
100
AcDbEntity
  8
1-3_仕上げ
  6
Continuous
 62
     7
370
     5
100
AcDbLine
 10
2421.606110460722
 20
-801.6360387978501
 30
0.0
 11
2069.106110460722
 21
-801.6360387978501
 31
0.0
  0
LINE
  5
37E
330
1F
100
AcDbEntity
  8
1-3_仕上げ
  6
Continuous
 62
     7
370
     5
100
AcDbLine
 10
2421.606110460722
 20
-837.6360387978515
 30
0.0
 11
2069.106110460722
 21
-837.6360387978515
 31
0.0
  0
LINE
  5
37F
330
1F
100
AcDbEntity
  8
1-3_仕上げ
  6
Continuous
 62
     7
370
     5
100
AcDbLine
 10
3149.106110460722
 20
-730.0640090358025
 30
0.0
 11
2796.606110460722
 21
-730.0640090358025
 31
0.0
  0
LINE
  5
380
330
1F
100
AcDbEntity
  8
1-3_仕上げ
  6
Continuous
 62
     7
370
     5
100
AcDbLine
 10
3149.106110460722
 20
-766.0640090358039
 30
0.0
 11
2796.606110460722
 21
-766.0640090358039
 31
0.0
  0
LINE
  5
381
330
1F
100
AcDbEntity
  8
1-3_仕上げ
  6
Continuous
 62
     7
370
     5
100
AcDbLine
 10
3149.106110460722
 20
-802.0640090358019
 30
0.0
 11
2796.606110460722
 21
-802.0640090358019
 31
0.0
  0
LINE
  5
382
330
1F
100
AcDbEntity
  8
1-3_仕上げ
  6
Continuous
 62
     7
370
     5
100
AcDbLine
 10
3149.106110460722
 20
-838.0640090358032
 30
0.0
 11
2796.606110460722
 21
-838.0640090358032
 31
0.0
  0
LINE
  5
383
330
1F
100
AcDbEntity
  8
1-B_寸法
  6
Continuous
 62
   120
370
     5
100
AcDbLine
 10
3449.106110460722
 20
-873.6360387978528
 30
0.0
 11
3449.106110460722
 21
-675.6360387978522
 31
0.0
  0
LINE
  5
384
330
1F
100
AcDbEntity
  8
1-B_寸法
  6
Continuous
 62
   120
370
     5
100
AcDbLine
 10
3179.106110460722
 20
-675.6360387978522
 30
0.0
 11
3449.106110460722
 21
-675.6360387978522
 31
0.0
  0
LWPOLYLINE
  5
385
330
1F
100
AcDbEntity
  8
1-B_寸法
  6
Continuous
 62
     7
370
     5
100
AcDbPolyline
 90
        4
 70
     1
 43
3.0
 10
3450.606110460722
 20
-675.6360387978522
 42
0.4142135623731
 10
3449.106110460722
 20
-674.1360387978522
 42
0.4142135623731
 10
3447.606110460722
 20
-675.6360387978522
 42
0.4142135623731
 10
3449.106110460722
 20
-677.1360387978522
 42
0.4142135623731
  0
LINE
  5
386
330
1F
100
AcDbEntity
  8
1-B_寸法
  6
Continuous
 62
   120
370
     5
100
AcDbLine
 10
2754.606110460719
 20
-491.7961018455163
 30
0.0
 11
2849.106110460722
 21
-491.7961018455163
 31
0.0
  0
LWPOLYLINE
  5
387
330
1F
100
AcDbEntity
  8
1-B_寸法
  6
Continuous
 62
     7
370
     5
100
AcDbPolyline
 90
        4
 70
     1
 43
3.0
 10
2756.106110460719
 20
-491.7961018455163
 42
0.4142135623731
 10
2754.606110460719
 20
-490.2961018455163
 42
0.4142135623731
 10
2753.106110460719
 20
-491.7961018455163
 42
0.4142135623731
 10
2754.606110460719
 20
-493.2961018455164
 42
0.4142135623731
  0
LINE
  5
388
330
1F
100
AcDbEntity
  8
1-B_寸法
  6
Continuous
 62
   120
370
     5
100
AcDbLine
 10
2754.606110460719
 20
-491.7961018455163
 30
0.0
 11
2754.606110460719
 21
-611.7961018455163
 31
0.0
  0
LINE
  5
389
330
1F
100
AcDbEntity
  8
1-B_寸法
  6
Continuous
 62
   120
370
     5
100
AcDbLine
 10
2369.106110460722
 20
-491.7961018455163
 30
0.0
 11
2463.606110460725
 21
-491.7961018455163
 31
0.0
  0
LINE
  5
38A
330
1F
100
AcDbEntity
  8
1-B_寸法
  6
Continuous
 62
   120
370
     5
100
AcDbLine
 10
2463.606110460725
 20
-491.7961018455163
 30
0.0
 11
2463.606110460725
 21
-611.7961018455163
 31
0.0
  0
LWPOLYLINE
  5
38B
330
1F
100
AcDbEntity
  8
1-B_寸法
  6
Continuous
 62
     7
370
     5
100
AcDbPolyline
 90
        4
 70
     1
 43
3.0
 10
2465.106110460725
 20
-491.7961018455163
 42
0.4142135623731
 10
2463.606110460725
 20
-490.2961018455163
 42
0.4142135623731
 10
2462.106110460725
 20
-491.7961018455163
 42
0.4142135623731
 10
2463.606110460725
 20
-493.2961018455164
 42
0.4142135623731
  0
MTEXT
  5
38C
330
1F
100
AcDbEntity
  8
1-B_寸法
  6
Continuous
 62
     7
370
     0
100
AcDbMText
 10
2549.106183360797
 20
-1058.01092980503
 30
0.0
 40
91.44
 41
120.0
 46
0.0
 71
     7
 72
     1
  1
{\fＭＳ ゴシック|b0|i0|c128|p49;23}
 73
     1
 44
1.0
  0
MTEXT
  5
38D
330
1F
100
AcDbEntity
  8
1-B_寸法
  6
Continuous
 62
     7
370
     0
100
AcDbMText
 10
2412.100430067195
 20
-1177.831348439144
 30
0.0
 40
91.44
 41
60.0
 46
0.0
 71
     7
 72
     1
  1
{\fＭＳ ゴシック|b0|i0|c128|p49;1}
 73
     1
 44
1.0
  0
MTEXT
  5
38E
330
1F
100
AcDbEntity
  8
1-B_寸法
  6
Continuous
 62
     7
370
     0
100
AcDbMText
 10
2762.565880869558
 20
-1177.831348439144
 30
0.0
 40
91.44
 41
60.0
 46
0.0
 71
     7
 72
     1
  1
{\fＭＳ ゴシック|b0|i0|c128|p49;1}
 73
     1
 44
1.0
  0
LINE
  5
38F
330
1F
100
AcDbEntity
  8
1-C_ハッチ
  6
Continuous
 62
   120
370
     5
100
AcDbLine
 10
2436.606110460722
 20
-818.9353179761259
 30
0.0
 11
2459.106110460722
 21
-796.4353179761225
 31
0.0
  0
LINE
  5
390
330
1F
100
AcDbEntity
  8
1-7_金物
  6
Continuous
 62
    92
370
     5
100
AcDbLine
 10
2459.106110460722
 20
-798.6360387978528
 30
0.0
 11
2759.106110460722
 21
-798.6360387978528
 31
0.0
  0
LINE
  5
391
330
1F
100
AcDbEntity
  8
1-7_金物
  6
Continuous
 62
    92
370
     5
100
AcDbLine
 10
2459.106110460722
 20
-768.6360387978494
 30
0.0
 11
2459.106110460722
 21
-798.6360387978528
 31
0.0
  0
LINE
  5
392
330
1F
100
AcDbEntity
  8
1-7_金物
  6
Continuous
 62
    92
370
     5
100
AcDbLine
 10
2459.106110460722
 20
-768.6360387978494
 30
0.0
 11
2436.605964660559
 21
-768.6360387978494
 31
0.0
  0
LINE
  5
393
330
1F
100
AcDbEntity
  8
1-7_金物
  6
Continuous
 62
    92
370
     5
100
AcDbLine
 10
2759.106110460722
 20
-768.6360387978494
 30
0.0
 11
2781.133398759836
 21
-768.6360387978494
 31
0.0
  0
LINE
  5
394
330
1F
100
AcDbEntity
  8
1-7_金物
  6
Continuous
 62
    92
370
     5
100
AcDbLine
 10
2759.106110460722
 20
-768.6360387978494
 30
0.0
 11
2759.106110460722
 21
-798.6360387978528
 31
0.0
  0
LINE
  5
395
330
1F
100
AcDbEntity
  8
1-7_金物
  6
Continuous
 62
    92
370
     5
100
AcDbLine
 10
2781.133252959659
 20
-768.6354829721041
 30
0.0
 11
2781.133252959659
 21
-873.6360387978528
 31
0.0
  0
LINE
  5
396
330
1F
100
AcDbEntity
  8
1-7_金物
  6
Continuous
 62
    92
370
     5
100
AcDbLine
 10
2436.606110460722
 20
-768.6354829721041
 30
0.0
 11
2436.606110460722
 21
-873.6360387978528
 31
0.0
  0
LINE
  5
397
330
1F
100
AcDbEntity
  8
1-7_金物
  6
Continuous
 62
    92
370
     5
100
AcDbLine
 10
2436.606110460722
 20
-873.6360387978528
 30
0.0
 11
2781.133252959659
 21
-873.6360387978528
 31
0.0
  0
LINE
  5
398
330
1F
100
AcDbEntity
  8
1-C_ハッチ
  6
Continuous
 62
   120
370
     5
100
AcDbLine
 10
2763.743051479747
 20
-873.6360387978528
 30
0.0
 11
2781.133252959659
 21
-856.2458373179244
 31
0.0
  0
LINE
  5
399
330
1F
100
AcDbEntity
  8
1-C_ハッチ
  6
Continuous
 62
   120
370
     5
100
AcDbLine
 10
2445.544999945802
 20
-873.6360387978528
 30
0.0
 11
2520.544999945802
 21
-798.6360387978528
 31
0.0
  0
LINE
  5
39A
330
1F
100
AcDbEntity
  8
1-C_ハッチ
  6
Continuous
 62
   120
370
     5
100
AcDbLine
 10
2636.463830866147
 20
-873.6360387978528
 30
0.0
 11
2711.463830866147
 21
-798.6360387978528
 31
0.0
  0
LINE
  5
39B
330
1F
100
AcDbEntity
  8
1-C_ハッチ
  6
Continuous
 62
   120
370
     5
100
AcDbLine
 10
2572.824220559347
 20
-873.6360387978528
 30
0.0
 11
2647.824220559347
 21
-798.636038797846
 31
0.0
  0
LINE
  5
39C
330
1F
100
AcDbEntity
  8
1-C_ハッチ
  6
Continuous
 62
   120
370
     5
100
AcDbLine
 10
2509.184610252547
 20
-873.6360387978528
 30
0.0
 11
2584.184610252547
 21
-798.6360387978426
 31
0.0
  0
LINE
  5
39D
330
1F
100
AcDbEntity
  8
1-C_ハッチ
  6
Continuous
 62
   120
370
     5
100
AcDbLine
 10
2700.103441172947
 20
-873.6360387978528
 30
0.0
 11
2781.133252959659
 21
-792.6062270111244
 31
0.0
  0
LINE
  5
39E
330
1F
100
AcDbEntity
  8
1-0_補助線
  6
JWW_HOJO
 62
   120
370
     5
100
AcDbLine
 10
2609.106110460722
 20
-679.1470312105242
 30
0.0
 11
2609.106110460722
 21
-833.3548143941642
 31
0.0
  0
LINE
  5
39F
330
1F
100
AcDbEntity
  8
1-7_金物
  6
Continuous
 62
     7
370
     5
100
AcDbLine
 10
2481.606110460722
 20
-780.6360387978522
 30
0.0
 11
2511.606110460722
 21
-780.6360387978522
 31
0.0
  0
LINE
  5
3A0
330
1F
100
AcDbEntity
  8
1-7_金物
  6
Continuous
 62
     7
370
     5
100
AcDbLine
 10
2526.606110460722
 20
-780.6360387978522
 30
0.0
 11
2604.606110460719
 21
-780.6360387978522
 31
0.0
  0
LINE
  5
3A1
330
1F
100
AcDbEntity
  8
1-7_金物
  6
Continuous
 62
     7
370
     5
100
AcDbLine
 10
2604.606110460719
 20
-780.6360387978522
 30
0.0
 11
2609.106110460722
 21
-785.1360387978515
 31
0.0
  0
LINE
  5
3A2
330
1F
100
AcDbEntity
  8
1-7_金物
  6
Continuous
 62
     7
370
     5
100
AcDbLine
 10
2609.106110460722
 20
-785.1360387978515
 30
0.0
 11
2613.606110460725
 21
-780.6360387978522
 31
0.0
  0
LINE
  5
3A3
330
1F
100
AcDbEntity
  8
1-7_金物
  6
Continuous
 62
     7
370
     5
100
AcDbLine
 10
2613.606110460725
 20
-780.6360387978522
 30
0.0
 11
2691.606110460722
 21
-780.6360387978522
 31
0.0
  0
LINE
  5
3A4
330
1F
100
AcDbEntity
  8
1-7_金物
  6
Continuous
 62
     7
370
     5
100
AcDbLine
 10
2706.606110460722
 20
-780.6360387978522
 30
0.0
 11
2736.606110460722
 21
-780.6360387978522
 31
0.0
  0
LINE
  5
3A5
330
1F
100
AcDbEntity
  8
1-7_金物
  6
Continuous
 62
     7
370
     5
100
AcDbLine
 10
2844.606110460719
 20
-693.6360387978528
 30
0.0
 11
2754.606110460719
 21
-693.6360387978528
 31
0.0
  0
LINE
  5
3A6
330
1F
100
AcDbEntity
  8
1-7_金物
  6
Continuous
 62
     7
370
     5
100
AcDbLine
 10
2463.606110460725
 20
-693.6360387978528
 30
0.0
 11
2373.606110460725
 21
-693.6360387978528
 31
0.0
  0
LINE
  5
3A7
330
1F
100
AcDbEntity
  8
1-7_金物
  6
Continuous
 62
     7
370
     5
100
AcDbLine
 10
2463.606110460725
 20
-675.6360387978522
 30
0.0
 11
2373.606110460725
 21
-684.6360387978508
 31
0.0
  0
ARC
  5
3A8
330
1F
100
AcDbEntity
  8
1-7_金物
  6
Continuous
 62
     7
370
     5
100
AcDbCircle
 10
2373.606110460725
 20
-689.1360387978501
 30
0.0
 40
4.500000000000001
100
AcDbArc
 50
90.0
 51
270.0
  0
ARC
  5
3A9
330
1F
100
AcDbEntity
  8
1-7_金物
  6
Continuous
 62
     7
370
     5
100
AcDbCircle
 10
2844.606110460719
 20
-689.1360387978501
 30
0.0
 40
4.500000000000001
100
AcDbArc
 50
270.0
 51
89.99999999999997
  0
LINE
  5
3AA
330
1F
100
AcDbEntity
  8
1-7_金物
  6
Continuous
 62
     7
370
     5
100
AcDbLine
 10
2844.606110460719
 20
-684.6360387978508
 30
0.0
 11
2754.606110460719
 21
-675.6360387978522
 31
0.0
  0
LINE
  5
3AB
330
1F
100
AcDbEntity
  8
1-7_金物
  6
Continuous
 62
     7
370
     5
100
AcDbLine
 10
2517.606110460717
 20
-675.6360387978522
 30
0.0
 11
2463.606110460725
 21
-675.6360387978522
 31
0.0
  0
ARC
  5
3AC
330
1F
100
AcDbEntity
  8
1-7_金物
  6
Continuous
 62
     7
370
     5
100
AcDbCircle
 10
2517.606110460717
 20
-684.6360387978508
 30
0.0
 40
9.000000000000002
100
AcDbArc
 50
0.0
 51
90.0
  0
ARC
  5
3AD
330
1F
100
AcDbEntity
  8
1-7_金物
  6
Continuous
 62
     7
370
     5
100
AcDbCircle
 10
2517.606110460717
 20
-684.6360387978508
 30
0.0
 40
9.000000000000002
100
AcDbArc
 50
270.0
 51
0.0
  0
ARC
  5
3AE
330
1F
100
AcDbEntity
  8
1-7_金物
  6
Continuous
 62
     7
370
     5
100
AcDbCircle
 10
2700.606110460727
 20
-684.6360387978508
 30
0.0
 40
9.000000000000002
100
AcDbArc
 50
180.0
 51
270.0
  0
LINE
  5
3AF
330
1F
100
AcDbEntity
  8
1-7_金物
  6
Continuous
 62
     7
370
     5
100
AcDbLine
 10
2700.606110460727
 20
-675.6360387978522
 30
0.0
 11
2754.606110460719
 21
-675.6360387978522
 31
0.0
  0
ARC
  5
3B0
330
1F
100
AcDbEntity
  8
1-7_金物
  6
Continuous
 62
     7
370
     5
100
AcDbCircle
 10
2700.606110460727
 20
-684.6360387978508
 30
0.0
 40
9.000000000000002
100
AcDbArc
 50
90.0
 51
180.0
  0
LINE
  5
3B1
330
1F
100
AcDbEntity
  8
1-7_金物
  6
Continuous
 62
     7
370
     5
100
AcDbLine
 10
2754.606110460719
 20
-776.1360387978528
 30
0.0
 11
2754.606110460719
 21
-693.6360387978528
 31
0.0
  0
ARC
  5
3B2
330
1F
100
AcDbEntity
  8
1-7_金物
  6
Continuous
 62
     7
370
     5
100
AcDbCircle
 10
2732.106110460719
 20
-776.1360387978528
 30
0.0
 40
22.5
100
AcDbArc
 50
270.0
 51
0.0
  0
LINE
  5
3B3
330
1F
100
AcDbEntity
  8
1-7_金物
  6
Continuous
 62
     7
370
     5
100
AcDbLine
 10
2463.606110460725
 20
-776.1360387978528
 30
0.0
 11
2463.606110460725
 21
-693.6360387978528
 31
0.0
  0
LINE
  5
3B4
330
1F
100
AcDbEntity
  8
1-7_金物
  6
Continuous
 62
     7
370
     5
100
AcDbLine
 10
2486.106110460725
 20
-798.6360387978528
 30
0.0
 11
2732.106110460719
 21
-798.6360387978528
 31
0.0
  0
ARC
  5
3B5
330
1F
100
AcDbEntity
  8
1-7_金物
  6
Continuous
 62
     7
370
     5
100
AcDbCircle
 10
2486.106110460725
 20
-776.1360387978528
 30
0.0
 40
22.5
100
AcDbArc
 50
180.0
 51
270.0
  0
LINE
  5
3B6
330
1F
100
AcDbEntity
  8
1-7_金物
  6
Continuous
 62
     7
370
     5
100
AcDbLine
 10
2489.106110460722
 20
-693.6360387978528
 30
0.0
 11
2517.606110460717
 21
-693.6360387978528
 31
0.0
  0
LINE
  5
3B7
330
1F
100
AcDbEntity
  8
1-7_金物
  6
Continuous
 62
     7
370
     5
100
AcDbLine
 10
2481.606110460722
 20
-701.1360387978528
 30
0.0
 11
2481.606110460722
 21
-780.6360387978522
 31
0.0
  0
ARC
  5
3B8
330
1F
100
AcDbEntity
  8
1-7_金物
  6
Continuous
 62
     7
370
     5
100
AcDbCircle
 10
2489.106110460722
 20
-701.1360387978528
 30
0.0
 40
7.5
100
AcDbArc
 50
90.0
 51
180.0
  0
LINE
  5
3B9
330
1F
100
AcDbEntity
  8
1-7_金物
  6
Continuous
 62
     7
370
     5
100
AcDbLine
 10
2729.106110460722
 20
-693.6360387978528
 30
0.0
 11
2700.606110460727
 21
-693.6360387978528
 31
0.0
  0
LINE
  5
3BA
330
1F
100
AcDbEntity
  8
1-7_金物
  6
Continuous
 62
     7
370
     5
100
AcDbLine
 10
2736.606110460722
 20
-701.1360387978528
 30
0.0
 11
2736.606110460722
 21
-780.6360387978522
 31
0.0
  0
ARC
  5
3BB
330
1F
100
AcDbEntity
  8
1-7_金物
  6
Continuous
 62
     7
370
     5
100
AcDbCircle
 10
2729.106110460722
 20
-701.1360387978528
 30
0.0
 40
7.5
100
AcDbArc
 50
0.0
 51
90.0
  0
LINE
  5
3BC
330
1F
100
AcDbEntity
  8
1-7_金物
  6
Continuous
 62
     7
370
     5
100
AcDbLine
 10
2511.606110460722
 20
-768.6360387978528
 30
0.0
 11
2511.606110460722
 21
-780.6360387978522
 31
0.0
  0
ARC
  5
3BD
330
1F
100
AcDbEntity
  8
1-7_金物
  6
Continuous
 62
     7
370
     5
100
AcDbCircle
 10
2514.606110460719
 20
-768.6360387978528
 30
0.0
 40
3.0
100
AcDbArc
 50
90.0
 51
180.0
  0
LINE
  5
3BE
330
1F
100
AcDbEntity
  8
1-7_金物
  6
Continuous
 62
     7
370
     5
100
AcDbLine
 10
2523.606110460725
 20
-765.6360387978522
 30
0.0
 11
2514.606110460719
 21
-765.6360387978522
 31
0.0
  0
LINE
  5
3BF
330
1F
100
AcDbEntity
  8
1-7_金物
  6
Continuous
 62
     7
370
     5
100
AcDbLine
 10
2526.606110460722
 20
-768.6360387978528
 30
0.0
 11
2526.606110460722
 21
-780.6360387978522
 31
0.0
  0
ARC
  5
3C0
330
1F
100
AcDbEntity
  8
1-7_金物
  6
Continuous
 62
     7
370
     5
100
AcDbCircle
 10
2523.606110460725
 20
-768.6360387978528
 30
0.0
 40
3.0
100
AcDbArc
 50
0.0
 51
90.0
  0
LINE
  5
3C1
330
1F
100
AcDbEntity
  8
1-7_金物
  6
Continuous
 62
     7
370
     5
100
AcDbLine
 10
2691.606110460722
 20
-768.6360387978528
 30
0.0
 11
2691.606110460722
 21
-780.6360387978522
 31
0.0
  0
ARC
  5
3C2
330
1F
100
AcDbEntity
  8
1-7_金物
  6
Continuous
 62
     7
370
     5
100
AcDbCircle
 10
2694.606110460719
 20
-768.6360387978528
 30
0.0
 40
3.0
100
AcDbArc
 50
90.0
 51
180.0
  0
LINE
  5
3C3
330
1F
100
AcDbEntity
  8
1-7_金物
  6
Continuous
 62
     7
370
     5
100
AcDbLine
 10
2703.606110460725
 20
-765.6360387978522
 30
0.0
 11
2694.606110460719
 21
-765.6360387978522
 31
0.0
  0
LINE
  5
3C4
330
1F
100
AcDbEntity
  8
1-7_金物
  6
Continuous
 62
     7
370
     5
100
AcDbLine
 10
2706.606110460722
 20
-768.6360387978528
 30
0.0
 11
2706.606110460722
 21
-780.6360387978522
 31
0.0
  0
ARC
  5
3C5
330
1F
100
AcDbEntity
  8
1-7_金物
  6
Continuous
 62
     7
370
     5
100
AcDbCircle
 10
2703.606110460725
 20
-768.6360387978528
 30
0.0
 40
3.0
100
AcDbArc
 50
0.0
 51
90.0
  0
ARC
  5
3C6
330
1F
100
AcDbEntity
  8
1-7_金物
  6
JWW_DASHED1
 62
     7
370
     5
100
AcDbCircle
 10
2373.606110460725
 20
-689.1360387978501
 30
0.0
 40
4.500000000000001
100
AcDbArc
 50
270.0
 51
90.0
  0
ARC
  5
3C7
330
1F
100
AcDbEntity
  8
1-7_金物
  6
JWW_DASHED1
 62
     7
370
     5
100
AcDbCircle
 10
2844.606110460719
 20
-689.1360387978501
 30
0.0
 40
4.500000000000001
100
AcDbArc
 50
90.0
 51
270.0
  0
LINE
  5
3C8
330
1F
100
AcDbEntity
  8
1-3_仕上げ
  6
Continuous
 62
    40
370
     5
100
AcDbLine
 10
2796.606110460722
 20
-693.6360387978528
 30
0.0
 11
2796.606110460722
 21
-873.6360387978528
 31
0.0
  0
LINE
  5
3C9
330
1F
100
AcDbEntity
  8
1-3_仕上げ
  6
Continuous
 62
    40
370
     5
100
AcDbLine
 10
2421.606110460722
 20
-693.6360387978528
 30
0.0
 11
2421.606110460722
 21
-873.6360387978528
 31
0.0
  0
LINE
  5
3CA
330
1F
100
AcDbEntity
  8
1-A_文字
  6
Continuous
 62
     7
370
     5
100
AcDbLine
 10
2836.386465803404
 20
-984.8535396092644
 30
0.0
 11
2902.939090280353
 21
-984.8535396092644
 31
0.0
  0
LINE
  5
3CB
330
1F
100
AcDbEntity
  8
1-0_補助線
  6
JWW_HOJO
 62
   120
370
     5
100
AcDbLine
 10
2609.106110460722
 20
-1931.425151368338
 30
0.0
 11
2609.106110460722
 21
-2085.632934551978
 31
0.0
  0
LINE
  5
3CC
330
1F
100
AcDbEntity
  8
1-C_ハッチ
  6
Continuous
 62
   120
370
     5
100
AcDbLine
 10
2436.606110460722
 20
-2860.420740491863
 30
0.0
 11
2459.106110460722
 21
-2837.92074049186
 31
0.0
  0
LINE
  5
3CD
330
1F
100
AcDbEntity
  8
1-7_金物
  6
Continuous
 62
    92
370
     5
100
AcDbLine
 10
2459.106110460722
 20
-2810.121461313587
 30
0.0
 11
2459.106110460722
 21
-2840.12146131359
 31
0.0
  0
LINE
  5
3CE
330
1F
100
AcDbEntity
  8
1-7_金物
  6
Continuous
 62
    92
370
     5
100
AcDbLine
 10
2459.106110460722
 20
-2810.121461313587
 30
0.0
 11
2436.605964660559
 21
-2810.121461313587
 31
0.0
  0
LINE
  5
3CF
330
1F
100
AcDbEntity
  8
1-7_金物
  6
Continuous
 62
    92
370
     5
100
AcDbLine
 10
2436.606110460722
 20
-2810.120905487842
 30
0.0
 11
2436.606110460722
 21
-2915.12146131359
 31
0.0
  0
LINE
  5
3D0
330
1F
100
AcDbEntity
  8
1-7_金物
  6
Continuous
 62
    92
370
     5
100
AcDbLine
 10
2459.106110460722
 20
-2840.12146131359
 30
0.0
 11
2759.106110460722
 21
-2840.12146131359
 31
0.0
  0
LINE
  5
3D1
330
1F
100
AcDbEntity
  8
1-C_ハッチ
  6
Continuous
 62
   120
370
     5
100
AcDbLine
 10
2445.544999945802
 20
-2915.12146131359
 30
0.0
 11
2520.544999945802
 21
-2840.12146131359
 31
0.0
  0
LINE
  5
3D2
330
1F
100
AcDbEntity
  8
1-C_ハッチ
  6
Continuous
 62
   120
370
     5
100
AcDbLine
 10
2509.184610252547
 20
-2915.12146131359
 30
0.0
 11
2584.184610252547
 21
-2840.12146131358
 31
0.0
  0
LINE
  5
3D3
330
1F
100
AcDbEntity
  8
1-C_ハッチ
  6
Continuous
 62
   120
370
     5
100
AcDbLine
 10
2572.824220559347
 20
-2915.12146131359
 30
0.0
 11
2647.824220559347
 21
-2840.121461313583
 31
0.0
  0
LINE
  5
3D4
330
1F
100
AcDbEntity
  8
1-C_ハッチ
  6
Continuous
 62
   120
370
     5
100
AcDbLine
 10
2636.463830866147
 20
-2915.12146131359
 30
0.0
 11
2711.463830866147
 21
-2840.12146131359
 31
0.0
  0
LINE
  5
3D5
330
1F
100
AcDbEntity
  8
1-C_ハッチ
  6
Continuous
 62
   120
370
     5
100
AcDbLine
 10
2700.103441172947
 20
-2915.12146131359
 30
0.0
 11
2781.133252959659
 21
-2834.091649526862
 31
0.0
  0
LINE
  5
3D6
330
1F
100
AcDbEntity
  8
1-C_ハッチ
  6
Continuous
 62
   120
370
     5
100
AcDbLine
 10
2763.743051479747
 20
-2915.12146131359
 30
0.0
 11
2781.133252959659
 21
-2897.731259833662
 31
0.0
  0
LINE
  5
3D7
330
1F
100
AcDbEntity
  8
1-7_金物
  6
Continuous
 62
    92
370
     5
100
AcDbLine
 10
2759.106110460722
 20
-2810.121461313587
 30
0.0
 11
2759.106110460722
 21
-2840.12146131359
 31
0.0
  0
LINE
  5
3D8
330
1F
100
AcDbEntity
  8
1-7_金物
  6
Continuous
 62
    92
370
     5
100
AcDbLine
 10
2759.106110460722
 20
-2810.121461313587
 30
0.0
 11
2781.133398759836
 21
-2810.121461313587
 31
0.0
  0
LINE
  5
3D9
330
1F
100
AcDbEntity
  8
1-7_金物
  6
Continuous
 62
    92
370
     5
100
AcDbLine
 10
2781.133252959659
 20
-2810.120905487842
 30
0.0
 11
2781.133252959659
 21
-2915.12146131359
 31
0.0
  0
LINE
  5
3DA
330
1F
100
AcDbEntity
  8
1-7_金物
  6
Continuous
 62
    92
370
     5
100
AcDbLine
 10
2436.606110460722
 20
-2915.12146131359
 30
0.0
 11
2781.133252959659
 21
-2915.12146131359
 31
0.0
  0
LINE
  5
3DB
330
1F
100
AcDbEntity
  8
2-4_枠
  6
Continuous
 62
    92
370
     5
100
AcDbLine
 10
737.2635359244044
 20
-1038.811791068876
 30
0.0
 11
737.2635359244044
 21
-988.8123065685035
 31
0.0
  0
LINE
  5
3DC
330
1F
100
AcDbEntity
  8
2-4_枠
  6
Continuous
 62
    92
370
     5
100
AcDbLine
 10
507.2632719885918
 20
-1038.811791068876
 30
0.0
 11
507.2632719885918
 21
-988.8123065685035
 31
0.0
  0
LINE
  5
3DD
330
1F
100
AcDbEntity
  8
2-4_枠
  6
Continuous
 62
    92
370
     5
100
AcDbLine
 10
522.2625791570921
 20
-1058.812104492651
 30
0.0
 11
722.2627441169801
 21
-1058.812104492651
 31
0.0
  0
LINE
  5
3DE
330
1F
100
AcDbEntity
  8
2-4_枠
  6
Continuous
 62
    92
370
     5
100
AcDbLine
 10
507.2632719885918
 20
-1038.811791068876
 30
0.0
 11
522.2625791570921
 21
-1038.811791068876
 31
0.0
  0
LINE
  5
3DF
330
1F
100
AcDbEntity
  8
2-4_枠
  6
Continuous
 62
    92
370
     5
100
AcDbLine
 10
522.2625791570921
 20
-1058.812104492651
 30
0.0
 11
522.2625791570921
 21
-1038.811791068876
 31
0.0
  0
LINE
  5
3E0
330
1F
100
AcDbEntity
  8
2-4_枠
  6
Continuous
 62
    92
370
     5
100
AcDbLine
 10
722.2627441169801
 20
-1058.812104492651
 30
0.0
 11
722.2627441169801
 21
-1038.811791068876
 31
0.0
  0
LINE
  5
3E1
330
1F
100
AcDbEntity
  8
2-4_枠
  6
Continuous
 62
    92
370
     5
100
AcDbLine
 10
737.2635359244044
 20
-1038.811791068876
 30
0.0
 11
722.2627441169801
 21
-1038.811791068876
 31
0.0
  0
LINE
  5
3E2
330
1F
100
AcDbEntity
  8
2-B_寸法
  6
Continuous
 62
   120
370
     5
100
AcDbLine
 10
197.2624801811629
 20
-54.97908008765918
 30
0.0
 11
1047.262843092909
 21
-54.97908008765918
 31
0.0
  0
LWPOLYLINE
  5
3E3
330
1F
100
AcDbEntity
  8
2-B_寸法
  6
Continuous
 62
     7
370
     5
100
AcDbPolyline
 90
        4
 70
     1
 43
3.0
 10
198.7624801811629
 20
-54.97908008765918
 42
0.4142135623731
 10
197.2624801811629
 20
-53.47908008765918
 42
0.4142135623731
 10
195.7624801811629
 20
-54.97908008765918
 42
0.4142135623731
 10
197.2624801811629
 20
-56.47908008765918
 42
0.4142135623731
  0
LWPOLYLINE
  5
3E4
330
1F
100
AcDbEntity
  8
2-B_寸法
  6
Continuous
 62
     7
370
     5
100
AcDbPolyline
 90
        4
 70
     1
 43
3.0
 10
1048.762843092909
 20
-54.97908008765918
 42
0.4142135623731
 10
1047.262843092909
 20
-53.47908008765918
 42
0.4142135623731
 10
1045.762843092909
 20
-54.97908008765918
 42
0.4142135623731
 10
1047.262843092909
 20
-56.47908008765918
 42
0.4142135623731
  0
LINE
  5
3E5
330
1F
100
AcDbEntity
  8
2-B_寸法
  6
Continuous
 62
   120
370
     5
100
AcDbLine
 10
197.2624801811629
 20
-54.97908008765918
 30
0.0
 11
197.2624801811629
 21
-198.52112988766
 31
0.0
  0
LINE
  5
3E6
330
1F
100
AcDbEntity
  8
2-B_寸法
  6
Continuous
 62
   120
370
     5
100
AcDbLine
 10
1047.262843092909
 20
-54.97908008765918
 30
0.0
 11
1047.262843092909
 21
-198.52112988766
 31
0.0
  0
LINE
  5
3E7
330
1F
100
AcDbEntity
  8
2-0_補助線
  6
JWW_HOJO
 62
   120
370
     5
100
AcDbLine
 10
179.0930542183072
 20
-1186.321758769733
 30
0.0
 11
1322.263189492898
 21
-1186.321758769733
 31
0.0
  0
LINE
  5
3E8
330
1F
100
AcDbEntity
  8
2-0_補助線
  6
JWW_HOJO
 62
   120
370
     5
100
AcDbLine
 10
179.0930542183072
 20
-1366.321758769733
 30
0.0
 11
1502.263189492898
 21
-1366.321758769733
 31
0.0
  0
LINE
  5
3E9
330
1F
100
AcDbEntity
  8
2-0_補助線
  6
JWW_HOJO
 62
   120
370
     5
100
AcDbLine
 10
162.262133765404
 20
-198.52112988766
 30
0.0
 11
1322.263189492898
 21
-198.52112988766
 31
0.0
  0
LINE
  5
3EA
330
1F
100
AcDbEntity
  8
2-0_補助線
  6
JWW_HOJO
 62
   120
370
     5
100
AcDbLine
 10
162.262133765404
 20
-54.97908008765918
 30
0.0
 11
1502.263189492898
 21
-54.97908008765918
 31
0.0
  0
LINE
  5
3EB
330
1F
100
AcDbEntity
  8
2-0_補助線
  6
JWW_HOJO
 62
   120
370
     5
100
AcDbLine
 10
162.262133765404
 20
-248.5211298876588
 30
0.0
 11
1322.263189492898
 21
-248.5211298876588
 31
0.0
  0
LINE
  5
3EC
330
1F
100
AcDbEntity
  8
2-0_補助線
  6
JWW_HOJO
 62
   120
370
     5
100
AcDbLine
 10
1502.263189492898
 20
-1366.321758769733
 30
0.0
 11
1502.263189492898
 21
-54.97908008765918
 31
0.0
  0
MTEXT
  5
3ED
330
1F
100
AcDbEntity
  8
2-B_寸法
  6
Continuous
 62
     7
370
   211
100
AcDbMText
 10
562.2626616370302
 20
-54.25908008765972
 30
0.0
 40
91.43999999999902
 41
119.9999999999987
 46
0.0
 71
     7
 72
     1
  1
{\fＭＳ ゴシック|b0|i0|c128|p49;85}
 73
     1
 44
1.0
  0
LINE
  5
3EE
330
1F
100
AcDbEntity
  8
2-4_枠
  6
Continuous
 62
    92
370
     5
100
AcDbLine
 10
197.2624801811629
 20
-248.5211298876588
 30
0.0
 11
197.2624801811629
 21
-988.8123065685035
 31
0.0
  0
LINE
  5
3EF
330
1F
100
AcDbEntity
  8
2-4_枠
  6
Continuous
 62
    92
370
     5
100
AcDbLine
 10
197.2624801811629
 20
-988.8123065685035
 30
0.0
 11
507.2632719885918
 21
-988.8123065685035
 31
0.0
  0
LINE
  5
3F0
330
1F
100
AcDbEntity
  8
2-4_枠
  6
Continuous
 62
    92
370
     5
100
AcDbLine
 10
737.2635359244044
 20
-988.8123065685035
 30
0.0
 11
1047.262843092909
 21
-988.8123065685035
 31
0.0
  0
LINE
  5
3F1
330
1F
100
AcDbEntity
  8
2-4_枠
  6
Continuous
 62
    92
370
     5
100
AcDbLine
 10
1047.262843092909
 20
-248.5211298876588
 30
0.0
 11
1047.262843092909
 21
-988.8123065685035
 31
0.0
  0
LINE
  5
3F2
330
1F
100
AcDbEntity
  8
2-0_補助線
  6
JWW_HOJO
 62
   120
370
     5
100
AcDbLine
 10
1322.263189492898
 20
-1186.321758769733
 30
0.0
 11
1322.263189492898
 21
-248.5211298876588
 31
0.0
  0
LINE
  5
3F3
330
1F
100
AcDbEntity
  8
F-0_補助線
  6
JWW_HOJO
 62
     7
370
     5
100
AcDbLine
 10
1109.918584083287
 20
-3795.000003092998
 30
0.0
 11
1109.918584083287
 21
-4195.000008247994
 31
0.0
  0
LINE
  5
3F4
330
1F
100
AcDbEntity
  8
F-0_補助線
  6
JWW_HOJO
 62
     7
370
     5
100
AcDbLine
 10
4889.917891251784
 20
-3795.000003092998
 30
0.0
 11
4889.917891251784
 21
-4195.000008247994
 31
0.0
  0
MTEXT
  5
3F5
330
1F
100
AcDbEntity
  8
F-0_補助線
  6
Continuous
 62
     7
370
     0
100
AcDbMText
 10
1109.918584083287
 20
-3945.948259655243
 30
0.0
 40
78.105
 41
615.0
 46
0.0
 71
     7
 72
     1
  1
{\fＭＳ ゴシック|b0|i0|c128|p49;建具納まり図}
 73
     1
 44
1.0
  0
MTEXT
  5
3F6
330
1F
100
AcDbEntity
  8
F-0_補助線
  6
Continuous
 62
     7
370
     0
100
AcDbMText
 10
509.9185840832865
 20
-3945.709576962234
 30
0.0
 40
78.58125
 41
412.5
 46
0.0
 71
     7
 72
     1
  1
{\fＭＳ ゴシック|b0|i0|c128|p49;DOORETUS}
 73
     1
 44
1.0
  0
MTEXT
  5
3F7
330
1F
100
AcDbEntity
  8
0-B_寸法
  6
Continuous
 62
     7
370
     0
100
AcDbMText
 10
-2736.440013744382
 20
-980.2702552013945
 30
0.0
 40
91.43999999999986
 41
119.9999999999998
 46
0.0
 71
     7
 72
     1
  1
{\fＭＳ ゴシック|b0|i0|c128|p49;20}
 11
0.9999999999914964
 21
4.124000500689212E-6
 31
0.0
 73
     1
 44
1.0
  0
MTEXT
  5
3F8
330
1F
100
AcDbEntity
  8
0-B_寸法
  6
Continuous
 62
     7
370
   211
100
AcDbMText
 10
-2047.879242215156
 20
2287.665146596495
 30
0.0
 40
91.44
 41
120.0
 46
0.0
 71
     7
 72
     1
  1
{\fＭＳ ゴシック|b0|i0|c128|p49;20}
 11
6.123031769111886E-17
 21
1.0
 31
0.0
 73
     1
 44
1.0
  0
LINE
  5
3F9
330
1F
100
AcDbEntity
  8
0-0_補助線
  6
Continuous
 62
   120
370
     5
100
AcDbLine
 10
-2843.689657122249
 20
2324.359196304034
 30
0.0
 11
-2843.689657122249
 21
2402.688459527217
 31
0.0
  0
LINE
  5
3FA
330
1F
100
AcDbEntity
  8
0-0_補助線
  6
Continuous
 62
   120
370
     5
100
AcDbLine
 10
-2858.689657122249
 20
2324.359196304034
 30
0.0
 11
-2858.689657122249
 21
2402.688459527217
 31
0.0
  0
LWPOLYLINE
  5
3FB
330
1F
100
AcDbEntity
  8
0-B_寸法
  6
Continuous
 62
     7
370
     5
100
AcDbPolyline
 90
        4
 70
     1
 43
3.0
 10
-2031.379242215156
 20
2421.945146596495
 42
0.4142135623731
 10
-2032.879242215156
 20
2423.445146596495
 42
0.4142135623731
 10
-2034.379242215156
 20
2421.945146596495
 42
0.4142135623731
 10
-2032.879242215156
 20
2420.445146596495
 42
0.4142135623731
  0
CIRCLE
  5
3FC
330
1F
100
AcDbEntity
  8
0-7_金物
  6
Continuous
 62
     7
370
     5
100
AcDbCircle
 10
-2192.689657122248
 20
2451.94514659647
 30
0.0
 40
21.00000000000001
  0
CIRCLE
  5
3FD
330
1F
100
AcDbEntity
  8
0-7_金物
  6
Continuous
 62
     7
370
     5
100
AcDbCircle
 10
-2192.689657122248
 20
2451.94514659647
 30
0.0
 40
30.0
  0
CIRCLE
  5
3FE
330
1F
100
AcDbEntity
  8
0-7_金物
  6
Continuous
 62
     7
370
     5
100
AcDbCircle
 10
-851.6896571222467
 20
2451.94514659647
 30
0.0
 40
21.00000000000001
  0
CIRCLE
  5
3FF
330
1F
100
AcDbEntity
  8
0-7_金物
  6
Continuous
 62
     7
370
     5
100
AcDbCircle
 10
-851.6896571222467
 20
2451.94514659647
 30
0.0
 40
30.0
  0
LINE
  5
400
330
1F
100
AcDbEntity
  8
0-0_補助線
  6
JWW_HOJO
 62
     7
370
     5
100
AcDbLine
 10
-548.6896571222476
 20
2439.945146596494
 30
0.0
 11
-548.6896571222476
 21
2280.944503252956
 31
0.0
  0
LINE
  5
401
330
1F
100
AcDbEntity
  8
0-0_補助線
  6
JWW_HOJO
 62
     7
370
     5
100
AcDbLine
 10
-488.6896571222476
 20
2439.945146596494
 30
0.0
 11
-488.6896571222476
 21
2280.944503252956
 31
0.0
  0
LINE
  5
402
330
1F
100
AcDbEntity
  8
0-6_扉
  6
Continuous
 62
   200
370
     5
100
AcDbLine
 10
-848.6896571222476
 20
2421.945146596495
 30
0.0
 11
-548.6896571222476
 21
2421.945146596495
 31
0.0
  0
LINE
  5
403
330
1F
100
AcDbEntity
  8
0-0_補助線
  6
JWW_HOJO
 62
     7
370
     5
100
AcDbLine
 10
124.8103428777537
 20
2439.945146596494
 30
0.0
 11
124.8103428777537
 21
2280.944503252956
 31
0.0
  0
LINE
  5
404
330
1F
100
AcDbEntity
  8
0-0_補助線
  6
JWW_HOJO
 62
     7
370
     5
100
AcDbLine
 10
184.8103428777537
 20
2439.945146596494
 30
0.0
 11
184.8103428777537
 21
2280.944503252956
 31
0.0
  0
LINE
  5
405
330
1F
100
AcDbEntity
  8
0-0_補助線
  6
JWW_HOJO
 62
     7
370
     5
100
AcDbLine
 10
793.8103428777545
 20
2439.945146596494
 30
0.0
 11
793.8103428777545
 21
2280.944503252956
 31
0.0
  0
LINE
  5
406
330
1F
100
AcDbEntity
  8
0-0_補助線
  6
JWW_HOJO
 62
     7
370
     5
100
AcDbLine
 10
853.8103428777545
 20
2439.945146596494
 30
0.0
 11
853.8103428777545
 21
2280.944503252956
 31
0.0
  0
LINE
  5
407
330
1F
100
AcDbEntity
  8
0-6_扉
  6
Continuous
 62
   200
370
     5
100
AcDbLine
 10
853.8103428777545
 20
2421.945146596495
 30
0.0
 11
1155.310342877754
 21
2421.945146596495
 31
0.0
  0
CIRCLE
  5
408
330
1F
100
AcDbEntity
  8
0-7_金物
  6
Continuous
 62
     7
370
     5
100
AcDbCircle
 10
490.3103424777495
 20
2451.94514659647
 30
0.0
 40
21.00000000000001
  0
CIRCLE
  5
409
330
1F
100
AcDbEntity
  8
0-7_金物
  6
Continuous
 62
     7
370
     5
100
AcDbCircle
 10
490.3103424777495
 20
2451.94514659647
 30
0.0
 40
30.0
  0
LINE
  5
40A
330
1F
100
AcDbEntity
  8
0-6_扉
  6
Continuous
 62
   200
370
     5
100
AcDbLine
 10
184.8103428777537
 20
2421.945146596495
 30
0.0
 11
487.3103424777506
 21
2421.945146596495
 31
0.0
  0
LINE
  5
40B
330
1F
100
AcDbEntity
  8
0-6_扉
  6
Continuous
 62
   200
370
     5
100
AcDbLine
 10
493.3103424777502
 20
2421.945146596495
 30
0.0
 11
793.8103428777545
 21
2421.945146596495
 31
0.0
  0
LINE
  5
40C
330
1F
100
AcDbEntity
  8
0-6_扉
  6
Continuous
 62
   200
370
     5
100
AcDbLine
 10
-488.6896571222476
 20
2421.945146596495
 30
0.0
 11
-186.689657322249
 21
2421.945146596495
 31
0.0
  0
LINE
  5
40D
330
1F
100
AcDbEntity
  8
0-6_扉
  6
Continuous
 62
   200
370
     5
100
AcDbLine
 10
-174.6896573222497
 20
2421.945146596495
 30
0.0
 11
124.8103428777537
 21
2421.945146596495
 31
0.0
  0
LINE
  5
40E
330
1F
100
AcDbEntity
  8
0-0_補助線
  6
JWW_HOJO
 62
     7
370
     5
100
AcDbLine
 10
-1154.689657122251
 20
2439.945146596494
 30
0.0
 11
-1154.689657122251
 21
2280.944503252956
 31
0.0
  0
LINE
  5
40F
330
1F
100
AcDbEntity
  8
0-0_補助線
  6
JWW_HOJO
 62
     7
370
     5
100
AcDbLine
 10
-1214.689657122251
 20
2439.945146596494
 30
0.0
 11
-1214.689657122251
 21
2280.944503252956
 31
0.0
  0
LINE
  5
410
330
1F
100
AcDbEntity
  8
0-6_扉
  6
Continuous
 62
   200
370
     5
100
AcDbLine
 10
-854.6896571222508
 20
2421.945146596495
 30
0.0
 11
-1154.689657122251
 21
2421.945146596495
 31
0.0
  0
LINE
  5
411
330
1F
100
AcDbEntity
  8
0-0_補助線
  6
JWW_HOJO
 62
     7
370
     5
100
AcDbLine
 10
-1828.189657122252
 20
2439.945146596494
 30
0.0
 11
-1828.189657122252
 21
2280.944503252956
 31
0.0
  0
LINE
  5
412
330
1F
100
AcDbEntity
  8
0-0_補助線
  6
JWW_HOJO
 62
     7
370
     5
100
AcDbLine
 10
-1888.189657122252
 20
2439.945146596494
 30
0.0
 11
-1888.189657122252
 21
2280.944503252956
 31
0.0
  0
LINE
  5
413
330
1F
100
AcDbEntity
  8
0-0_補助線
  6
JWW_HOJO
 62
     7
370
     5
100
AcDbLine
 10
-2497.189657122252
 20
2439.945146596494
 30
0.0
 11
-2497.189657122252
 21
2280.944503252956
 31
0.0
  0
LINE
  5
414
330
1F
100
AcDbEntity
  8
0-0_補助線
  6
JWW_HOJO
 62
     7
370
     5
100
AcDbLine
 10
-2557.189657122252
 20
2439.945146596494
 30
0.0
 11
-2557.189657122252
 21
2280.944503252956
 31
0.0
  0
LINE
  5
415
330
1F
100
AcDbEntity
  8
0-6_扉
  6
Continuous
 62
   200
370
     5
100
AcDbLine
 10
-2557.189657122252
 20
2421.945146596495
 30
0.0
 11
-2858.689657122253
 21
2421.945146596495
 31
0.0
  0
LINE
  5
416
330
1F
100
AcDbEntity
  8
0-6_扉
  6
Continuous
 62
   200
370
     5
100
AcDbLine
 10
-1888.189657122252
 20
2421.945146596495
 30
0.0
 11
-2190.689656722249
 21
2421.945146596495
 31
0.0
  0
LINE
  5
417
330
1F
100
AcDbEntity
  8
0-6_扉
  6
Continuous
 62
   200
370
     5
100
AcDbLine
 10
-2196.689656722248
 20
2421.945146596495
 30
0.0
 11
-2497.189657122252
 21
2421.945146596495
 31
0.0
  0
LINE
  5
418
330
1F
100
AcDbEntity
  8
0-6_扉
  6
Continuous
 62
   200
370
     5
100
AcDbLine
 10
-1214.689657122251
 20
2421.945146596495
 30
0.0
 11
-1516.689656922248
 21
2421.945146596495
 31
0.0
  0
LINE
  5
419
330
1F
100
AcDbEntity
  8
0-6_扉
  6
Continuous
 62
   200
370
     5
100
AcDbLine
 10
-1528.689656922249
 20
2421.945146596495
 30
0.0
 11
-1828.189657122252
 21
2421.945146596495
 31
0.0
  0
LWPOLYLINE
  5
41A
330
1F
100
AcDbEntity
  8
0-B_寸法
  6
Continuous
 62
     7
370
     5
100
AcDbPolyline
 90
        4
 70
     1
 43
3.0
 10
-2031.379242215156
 20
2301.945146596495
 42
0.4142135623731
 10
-2032.879242215156
 20
2303.445146596495
 42
0.4142135623731
 10
-2034.379242215156
 20
2301.945146596495
 42
0.4142135623731
 10
-2032.879242215156
 20
2300.445146596495
 42
0.4142135623731
  0
LINE
  5
41B
330
1F
100
AcDbEntity
  8
0-6_扉
  6
Continuous
 62
   200
370
     5
100
AcDbLine
 10
-848.6896571222476
 20
2301.945146596495
 30
0.0
 11
-548.6896571222476
 21
2301.945146596495
 31
0.0
  0
LINE
  5
41C
330
1F
100
AcDbEntity
  8
0-6_扉
  6
Continuous
 62
   200
370
     5
100
AcDbLine
 10
853.8103428777545
 20
2301.945146596495
 30
0.0
 11
1155.310342877754
 21
2301.945146596495
 31
0.0
  0
LINE
  5
41D
330
1F
100
AcDbEntity
  8
0-6_扉
  6
Continuous
 62
   200
370
     5
100
AcDbLine
 10
184.8103428777537
 20
2301.945146596495
 30
0.0
 11
487.3103424777506
 21
2301.945146596495
 31
0.0
  0
LINE
  5
41E
330
1F
100
AcDbEntity
  8
0-6_扉
  6
Continuous
 62
   200
370
     5
100
AcDbLine
 10
493.3103424777502
 20
2301.945146596495
 30
0.0
 11
793.8103428777545
 21
2301.945146596495
 31
0.0
  0
LINE
  5
41F
330
1F
100
AcDbEntity
  8
0-6_扉
  6
Continuous
 62
   200
370
     5
100
AcDbLine
 10
-488.6896571222476
 20
2301.945146596495
 30
0.0
 11
-186.689657322249
 21
2301.945146596495
 31
0.0
  0
LINE
  5
420
330
1F
100
AcDbEntity
  8
0-6_扉
  6
Continuous
 62
   200
370
     5
100
AcDbLine
 10
-174.6896573222497
 20
2301.945146596495
 30
0.0
 11
124.8103428777537
 21
2301.945146596495
 31
0.0
  0
LINE
  5
421
330
1F
100
AcDbEntity
  8
0-6_扉
  6
Continuous
 62
   200
370
     5
100
AcDbLine
 10
-854.6896571222508
 20
2301.945146596495
 30
0.0
 11
-1154.689657122251
 21
2301.945146596495
 31
0.0
  0
LINE
  5
422
330
1F
100
AcDbEntity
  8
0-6_扉
  6
Continuous
 62
   200
370
     5
100
AcDbLine
 10
-2557.189657122252
 20
2301.945146596495
 30
0.0
 11
-2858.689657122253
 21
2301.945146596495
 31
0.0
  0
LINE
  5
423
330
1F
100
AcDbEntity
  8
0-6_扉
  6
Continuous
 62
   200
370
     5
100
AcDbLine
 10
-1888.189657122252
 20
2301.945146596495
 30
0.0
 11
-2190.689656722249
 21
2301.945146596495
 31
0.0
  0
LINE
  5
424
330
1F
100
AcDbEntity
  8
0-6_扉
  6
Continuous
 62
   200
370
     5
100
AcDbLine
 10
-2196.689656722248
 20
2301.945146596495
 30
0.0
 11
-2497.189657122252
 21
2301.945146596495
 31
0.0
  0
LINE
  5
425
330
1F
100
AcDbEntity
  8
0-6_扉
  6
Continuous
 62
   200
370
     5
100
AcDbLine
 10
-1214.689657122251
 20
2301.945146596495
 30
0.0
 11
-1516.689656922248
 21
2301.945146596495
 31
0.0
  0
LINE
  5
426
330
1F
100
AcDbEntity
  8
0-6_扉
  6
Continuous
 62
   200
370
     5
100
AcDbLine
 10
-1528.689656922249
 20
2301.945146596495
 30
0.0
 11
-1828.189657122252
 21
2301.945146596495
 31
0.0
  0
LINE
  5
427
330
1F
100
AcDbEntity
  8
0-B_寸法
  6
Continuous
 62
   120
370
     5
100
AcDbLine
 10
-2032.879242215156
 20
2421.945146596495
 30
0.0
 11
-2032.879242215156
 21
2301.945146596495
 31
0.0
  0
LINE
  5
428
330
1F
100
AcDbEntity
  8
0-6_扉
  6
Continuous
 62
   200
370
     5
100
AcDbLine
 10
-848.6896571222476
 20
2421.945146596495
 30
0.0
 11
-848.6896571222476
 21
2301.945146596495
 31
0.0
  0
LINE
  5
429
330
1F
100
AcDbEntity
  8
0-6_扉
  6
Continuous
 62
   200
370
     5
100
AcDbLine
 10
1155.310342877754
 20
2421.945146596495
 30
0.0
 11
1155.310342877754
 21
2301.945146596495
 31
0.0
  0
LINE
  5
42A
330
1F
100
AcDbEntity
  8
0-6_扉
  6
Continuous
 62
   200
370
     5
100
AcDbLine
 10
487.3103424777506
 20
2421.945146596495
 30
0.0
 11
487.3103424777506
 21
2301.945146596495
 31
0.0
  0
LINE
  5
42B
330
1F
100
AcDbEntity
  8
0-6_扉
  6
Continuous
 62
   200
370
     5
100
AcDbLine
 10
493.3103424777502
 20
2421.945146596495
 30
0.0
 11
493.3103424777502
 21
2301.945146596495
 31
0.0
  0
LINE
  5
42C
330
1F
100
AcDbEntity
  8
0-6_扉
  6
Continuous
 62
   200
370
     5
100
AcDbLine
 10
-186.689657322249
 20
2421.945146596495
 30
0.0
 11
-186.689657322249
 21
2301.945146596495
 31
0.0
  0
LINE
  5
42D
330
1F
100
AcDbEntity
  8
0-6_扉
  6
Continuous
 62
   200
370
     5
100
AcDbLine
 10
-174.6896573222497
 20
2421.945146596495
 30
0.0
 11
-174.6896573222497
 21
2301.945146596495
 31
0.0
  0
LINE
  5
42E
330
1F
100
AcDbEntity
  8
0-6_扉
  6
Continuous
 62
   200
370
     5
100
AcDbLine
 10
-854.6896571222508
 20
2421.945146596495
 30
0.0
 11
-854.6896571222508
 21
2301.945146596495
 31
0.0
  0
LINE
  5
42F
330
1F
100
AcDbEntity
  8
0-6_扉
  6
Continuous
 62
   200
370
     5
100
AcDbLine
 10
-2858.689657122253
 20
2421.945146596495
 30
0.0
 11
-2858.689657122253
 21
2301.945146596495
 31
0.0
  0
LINE
  5
430
330
1F
100
AcDbEntity
  8
0-6_扉
  6
Continuous
 62
   200
370
     5
100
AcDbLine
 10
-2190.689656722249
 20
2421.945146596495
 30
0.0
 11
-2190.689656722249
 21
2301.945146596495
 31
0.0
  0
LINE
  5
431
330
1F
100
AcDbEntity
  8
0-6_扉
  6
Continuous
 62
   200
370
     5
100
AcDbLine
 10
-2196.689656722248
 20
2421.945146596495
 30
0.0
 11
-2196.689656722248
 21
2301.945146596495
 31
0.0
  0
LINE
  5
432
330
1F
100
AcDbEntity
  8
0-6_扉
  6
Continuous
 62
   200
370
     5
100
AcDbLine
 10
-1516.689656922248
 20
2421.945146596495
 30
0.0
 11
-1516.689656922248
 21
2301.945146596495
 31
0.0
  0
LINE
  5
433
330
1F
100
AcDbEntity
  8
0-6_扉
  6
Continuous
 62
   200
370
     5
100
AcDbLine
 10
-1528.689656922249
 20
2421.945146596495
 30
0.0
 11
-1528.689656922249
 21
2301.945146596495
 31
0.0
  0
LINE
  5
434
330
1F
100
AcDbEntity
  8
0-B_寸法
  6
Continuous
 62
   120
370
     5
100
AcDbLine
 10
-2612.689459170398
 20
-896.7529430904898
 30
0.0
 11
-2612.689459170398
 21
-980.9898716694614
 31
0.0
  0
LWPOLYLINE
  5
435
330
1F
100
AcDbEntity
  8
0-B_寸法
  6
Continuous
 62
     7
370
     5
100
AcDbPolyline
 90
        4
 70
     1
 43
3.0
 10
-2611.189459170398
 20
-980.9898716694614
 42
0.4142135623731
 10
-2612.689459170398
 20
-979.4898716694615
 42
0.4142135623731
 10
-2614.189459170397
 20
-980.9898716694614
 42
0.4142135623731
 10
-2612.689459170398
 20
-982.4898716694613
 42
0.4142135623731
  0
LINE
  5
436
330
1F
100
AcDbEntity
  8
0-6_扉
  6
Continuous
 62
   200
370
     5
100
AcDbLine
 10
-2612.689459170398
 20
-1582.000084335741
 30
0.0
 11
-2612.689459170398
 21
-378.9998344215223
 31
0.0
  0
LINE
  5
437
330
1F
100
AcDbEntity
  8
0-6_扉
  6
Continuous
 62
   200
370
     5
100
AcDbLine
 10
-2612.689459170398
 20
-2995.00033424996
 30
0.0
 11
-2612.689459170398
 21
-1702.000084335741
 31
0.0
  0
LINE
  5
438
330
1F
100
AcDbEntity
  8
0-B_寸法
  6
Continuous
 62
   120
370
     5
100
AcDbLine
 10
-2732.689459170398
 20
-896.7529430904898
 30
0.0
 11
-2732.689459170398
 21
-980.9898716694614
 31
0.0
  0
LWPOLYLINE
  5
439
330
1F
100
AcDbEntity
  8
0-B_寸法
  6
Continuous
 62
     7
370
     5
100
AcDbPolyline
 90
        4
 70
     1
 43
3.0
 10
-2731.189459170398
 20
-980.9898716694614
 42
0.4142135623731
 10
-2732.689459170398
 20
-979.4898716694615
 42
0.4142135623731
 10
-2734.189459170397
 20
-980.9898716694614
 42
0.4142135623731
 10
-2732.689459170398
 20
-982.4898716694613
 42
0.4142135623731
  0
LINE
  5
43A
330
1F
100
AcDbEntity
  8
0-6_扉
  6
Continuous
 62
   200
370
     5
100
AcDbLine
 10
-2732.689459170398
 20
-1582.000084335741
 30
0.0
 11
-2732.689459170398
 21
-378.9998344215223
 31
0.0
  0
LINE
  5
43B
330
1F
100
AcDbEntity
  8
0-6_扉
  6
Continuous
 62
   200
370
     5
100
AcDbLine
 10
-2732.689459170398
 20
-2995.00033424996
 30
0.0
 11
-2732.689459170398
 21
-1702.000084335741
 31
0.0
  0
LINE
  5
43C
330
1F
100
AcDbEntity
  8
0-6_扉
  6
Continuous
 62
   200
370
     5
100
AcDbLine
 10
-2732.689459170398
 20
-378.9998344215223
 30
0.0
 11
-2612.689459170398
 21
-378.9998344215223
 31
0.0
  0
LINE
  5
43D
330
1F
100
AcDbEntity
  8
0-B_寸法
  6
Continuous
 62
   120
370
     5
100
AcDbLine
 10
-2732.689459170398
 20
-980.9898716694614
 30
0.0
 11
-2612.689459170398
 21
-980.9898716694614
 31
0.0
  0
LINE
  5
43E
330
1F
100
AcDbEntity
  8
0-6_扉
  6
Continuous
 62
   200
370
     5
100
AcDbLine
 10
-2612.689459170398
 20
-2995.00033424996
 30
0.0
 11
-2732.689459170398
 21
-2995.00033424996
 31
0.0
  0
MTEXT
  5
43F
330
1F
100
AcDbEntity
  8
F-A_文字
  6
Continuous
 62
     7
370
     0
100
AcDbMText
 10
4889.917891251784
 20
-3945.570773120548
 30
0.0
 40
78.86699999999999
 41
517.5
 46
0.0
 71
     7
 72
     1
  1
{\fＭＳ ゴシック|b0|i0|c128|p49;2024.04.01}
 73
     1
 44
1.0
  0
ENDSEC
  0
SECTION
  2
OBJECTS
  0
DICTIONARY
  5
C
330
0
100
AcDbDictionary
281
     1
  3
ACAD_GROUP
350
D
  3
ACAD_LAYOUT
350
1A
  3
ACAD_MATERIAL
350
3B
  3
ACAD_MLEADERSTYLE
350
468
  3
ACAD_MLINESTYLE
350
17
  3
ACAD_PLOTSETTINGS
350
19
  3
ACAD_PLOTSTYLENAME
350
E
  3
ACAD_TABLESTYLE
350
467
  3
ACAD_VISUALSTYLE
350
2A
  0
DICTIONARY
  5
D
102
{ACAD_REACTORS
330
C
102
}
330
C
100
AcDbDictionary
281
     1
  0
DICTIONARY
  5
1A
102
{ACAD_REACTORS
330
C
102
}
330
C
100
AcDbDictionary
281
     1
  3
Layout1
350
1E
  3
Layout2
350
26
  3
Model
350
22
  0
DICTIONARY
  5
3B
102
{ACAD_REACTORS
330
C
102
}
330
C
100
AcDbDictionary
281
     1
  3
ByBlock
350
3D
  3
ByLayer
350
3C
  3
Global
350
3E
  0
DICTIONARY
  5
468
102
{ACAD_REACTORS
330
C
102
}
330
C
100
AcDbDictionary
281
     1
  0
DICTIONARY
  5
17
102
{ACAD_REACTORS
330
C
102
}
330
C
100
AcDbDictionary
281
     1
  3
Standard
350
18
  0
DICTIONARY
  5
19
102
{ACAD_REACTORS
330
C
102
}
330
C
100
AcDbDictionary
281
     1
  0
ACDBDICTIONARYWDFLT
  5
E
102
{ACAD_REACTORS
330
C
102
}
330
C
100
AcDbDictionary
281
     1
  3
Normal
350
F
100
AcDbDictionaryWithDefault
340
F
  0
DICTIONARY
  5
467
102
{ACAD_REACTORS
330
C
102
}
330
C
100
AcDbDictionary
281
     1
  0
DICTIONARY
  5
2A
102
{ACAD_REACTORS
330
C
102
}
330
C
100
AcDbDictionary
281
     1
  3
2dWireframe
350
2F
  3
3D Hidden
350
31
  3
3dWireframe
350
30
  3
Basic
350
32
  3
Brighten
350
36
  3
ColorChange
350
3A
  3
Conceptual
350
34
  3
Dim
350
35
  3
Facepattern
350
39
  3
Flat
350
2B
  3
FlatWithEdges
350
2C
  3
Gouraud
350
2D
  3
GouraudWithEdges
350
2E
  3
Linepattern
350
38
  3
Realistic
350
33
  3
Thicken
350
37
  0
LAYOUT
  5
1E
102
{ACAD_REACTORS
330
1A
102
}
330
1A
100
AcDbPlotSettings
  1

  2
none_device
  4

  6

 40
0.0
 41
0.0
 42
0.0
 43
0.0
 44
0.0
 45
0.0
 46
0.0
 47
0.0
 48
0.0
 49
0.0
140
0.0
141
0.0
142
1.0
143
1.0
 70
   688
 72
     0
 73
     0
 74
     5
  7

 75
    16
 76
     0
 77
     5
 78
   300
147
1.0
148
0.0
149
0.0
100
AcDbLayout
  1
Layout1
 70
     1
 71
     1
 10
0.0
 20
0.0
 11
420.0
 21
297.0
 12
0.0
 22
0.0
 32
0.0
 14
1.000000000000000E+20
 24
1.000000000000000E+20
 34
1.000000000000000E+20
 15
-1.000000000000000E+20
 25
-1.000000000000000E+20
 35
-1.000000000000000E+20
146
0.0
 13
0.0
 23
0.0
 33
0.0
 16
1.0
 26
0.0
 36
0.0
 17
0.0
 27
1.0
 37
0.0
 76
     0
330
1B
  0
LAYOUT
  5
26
102
{ACAD_REACTORS
330
1A
102
}
330
1A
100
AcDbPlotSettings
  1

  2
none_device
  4

  6

 40
0.0
 41
0.0
 42
0.0
 43
0.0
 44
0.0
 45
0.0
 46
0.0
 47
0.0
 48
0.0
 49
0.0
140
0.0
141
0.0
142
1.0
143
1.0
 70
   688
 72
     0
 73
     0
 74
     5
  7

 75
    16
 76
     0
 77
     5
 78
   300
147
1.0
148
0.0
149
0.0
100
AcDbLayout
  1
Layout2
 70
     1
 71
     2
 10
0.0
 20
0.0
 11
0.0
 21
0.0
 12
0.0
 22
0.0
 32
0.0
 14
0.0
 24
0.0
 34
0.0
 15
0.0
 25
0.0
 35
0.0
146
0.0
 13
0.0
 23
0.0
 33
0.0
 16
1.0
 26
0.0
 36
0.0
 17
0.0
 27
1.0
 37
0.0
 76
     0
330
23
  0
LAYOUT
  5
22
102
{ACAD_REACTORS
330
1A
102
}
330
1A
100
AcDbPlotSettings
  1

  2
none_device
  4

  6

 40
0.0
 41
0.0
 42
0.0
 43
0.0
 44
0.0
 45
0.0
 46
0.0
 47
0.0
 48
0.0
 49
0.0
140
0.0
141
0.0
142
1.0
143
1.0
 70
  1712
 72
     0
 73
     0
 74
     0
  7

 75
     0
 76
     0
 77
     5
 78
   300
147
1.0
148
0.0
149
0.0
100
AcDbLayout
  1
Model
 70
     1
 71
     0
 10
-6300.0
 20
-4455.0
 11
6300.0
 21
4455.0
 12
0.0
 22
0.0
 32
0.0
 14
-6300.0
 24
-4455.0
 34
0.0
 15
6300.0
 25
4455.0
 35
0.0
146
0.0
 13
0.0
 23
0.0
 33
0.0
 16
1.0
 26
0.0
 36
0.0
 17
0.0
 27
1.0
 37
0.0
 76
     0
330
1F
331
29
  0
MATERIAL
  5
3D
102
{ACAD_REACTORS
330
3B
102
}
330
3B
100
AcDbMaterial
  1
ByBlock
 72
     1
 94
      127
  0
MATERIAL
  5
3C
102
{ACAD_REACTORS
330
3B
102
}
330
3B
100
AcDbMaterial
  1
ByLayer
 72
     1
 94
      127
  0
MATERIAL
  5
3E
102
{ACAD_REACTORS
330
3B
102
}
330
3B
100
AcDbMaterial
  1
Global
 72
     1
 94
      127
  0
MLINESTYLE
  5
18
102
{ACAD_REACTORS
330
17
102
}
330
17
100
AcDbMlineStyle
  2
Standard
 70
     0
  3

 62
   256
 51
90.0
 52
90.0
 71
     2
 49
0.5
 62
   256
  6
BYLAYER
 49
-0.5
 62
   256
  6
BYLAYER
  0
ACDBPLACEHOLDER
  5
F
102
{ACAD_REACTORS
330
E
102
}
330
E
  0
VISUALSTYLE
  5
2F
102
{ACAD_REACTORS
330
2A
102
}
330
2A
100
AcDbVisualStyle
  2
2dWireframe
 70
     4
177
     2
291
     0
 71
     0
176
     1
 72
     2
176
     1
 73
     0
176
     1
 90
        0
176
     1
 40
-0.6
176
     1
 41
-30.0
176
     1
 62
     5
 63
     7
421
 16777215
176
     1
 74
     1
176
     1
 91
        4
176
     1
 64
     7
176
     1
 65
   257
176
     1
 75
     1
176
     1
175
     1
176
     1
 42
1.0
176
     1
 92
        0
176
     1
 66
   257
176
     1
 43
1.0
176
     1
 76
     1
176
     1
 77
     6
176
     1
 78
     2
176
     1
 67
     7
176
     1
 79
     5
176
     1
170
     0
176
     1
171
     0
176
     1
290
     0
176
     1
 93
        1
176
     1
 44
0.0
176
     1
173
     0
176
     1
  0
VISUALSTYLE
  5
31
102
{ACAD_REACTORS
330
2A
102
}
330
2A
100
AcDbVisualStyle
  2
3D Hidden
 70
     6
177
     2
291
     0
 71
     1
176
     1
 72
     2
176
     1
 73
     2
176
     1
 90
        0
176
     1
 40
-0.6
176
     1
 41
-30.0
176
     1
 62
     5
 63
     7
421
 16777215
176
     1
 74
     2
176
     1
 91
        2
176
     1
 64
     7
176
     1
 65
   257
176
     1
 75
     2
176
     1
175
     1
176
     1
 42
40.0
176
     1
 92
        0
176
     1
 66
   257
176
     1
 43
1.0
176
     1
 76
     1
176
     1
 77
     6
176
     1
 78
     2
176
     1
 67
     7
176
     1
 79
     3
176
     1
170
     0
176
     1
171
     0
176
     1
290
     0
176
     1
 93
        1
176
     1
 44
0.0
176
     1
173
     0
176
     1
  0
VISUALSTYLE
  5
30
102
{ACAD_REACTORS
330
2A
102
}
330
2A
100
AcDbVisualStyle
  2
3dWireframe
 70
     5
177
     2
291
     0
 71
     0
176
     1
 72
     2
176
     1
 73
     0
176
     1
 90
        0
176
     1
 40
-0.6
176
     1
 41
-30.0
176
     1
 62
     5
 63
     7
421
 16777215
176
     1
 74
     1
176
     1
 91
        4
176
     1
 64
     7
176
     1
 65
   257
176
     1
 75
     1
176
     1
175
     1
176
     1
 42
1.0
176
     1
 92
        0
176
     1
 66
   257
176
     1
 43
1.0
176
     1
 76
     1
176
     1
 77
     6
176
     1
 78
     2
176
     1
 67
     7
176
     1
 79
     5
176
     1
170
     0
176
     1
171
     0
176
     1
290
     0
176
     1
 93
        1
176
     1
 44
0.0
176
     1
173
     0
176
     1
  0
VISUALSTYLE
  5
32
102
{ACAD_REACTORS
330
2A
102
}
330
2A
100
AcDbVisualStyle
  2
Basic
 70
     7
177
     2
291
     1
 71
     1
176
     1
 72
     0
176
     1
 73
     1
176
     1
 90
        0
176
     1
 40
-0.6
176
     1
 41
-30.0
176
     1
 62
     5
 63
     7
421
 16777215
176
     1
 74
     0
176
     1
 91
        4
176
     1
 64
     7
176
     1
 65
   257
176
     1
 75
     1
176
     1
175
     1
176
     1
 42
1.0
176
     1
 92
        8
176
     1
 66
     7
176
     1
 43
1.0
176
     1
 76
     1
176
     1
 77
     6
176
     1
 78
     2
176
     1
 67
     7
176
     1
 79
     5
176
     1
170
     0
176
     1
171
     0
176
     1
290
     0
176
     1
 93
        1
176
     1
 44
0.0
176
     1
173
     0
176
     1
  0
VISUALSTYLE
  5
36
102
{ACAD_REACTORS
330
2A
102
}
330
2A
100
AcDbVisualStyle
  2
Brighten
 70
    12
177
     2
291
     1
 71
     2
176
     1
 72
     2
176
     1
 73
     0
176
     1
 90
        0
176
     1
 40
-0.6
176
     1
 41
-30.0
176
     1
 62
     5
 63
     7
421
 16777215
176
     1
 74
     1
176
     1
 91
        4
176
     1
 64
     7
176
     1
 65
   257
176
     1
 75
     1
176
     1
175
     1
176
     1
 42
1.0
176
     1
 92
        8
176
     1
 66
     7
176
     1
 43
1.0
176
     1
 76
     1
176
     1
 77
     6
176
     1
 78
     2
176
     1
 67
     7
176
     1
 79
     5
176
     1
170
     0
176
     1
171
     0
176
     1
290
     0
176
     1
 93
        1
176
     1
 44
50.0
176
     1
173
     0
176
     1
  0
VISUALSTYLE
  5
3A
102
{ACAD_REACTORS
330
2A
102
}
330
2A
100
AcDbVisualStyle
  2
ColorChange
 70
    16
177
     2
291
     1
 71
     2
176
     1
 72
     2
176
     1
 73
     3
176
     1
 90
        0
176
     1
 40
-0.6
176
     1
 41
-30.0
176
     1
 62
     5
 63
     8
421
  8421504
176
     1
 74
     1
176
     1
 91
        4
176
     1
 64
     7
176
     1
 65
   257
176
     1
 75
     1
176
     1
175
     1
176
     1
 42
1.0
176
     1
 92
        8
176
     1
 66
     8
424
  8421504
176
     1
 43
1.0
176
     1
 76
     1
176
     1
 77
     6
176
     1
 78
     2
176
     1
 67
     7
176
     1
 79
     5
176
     1
170
     0
176
     1
171
     0
176
     1
290
     0
176
     1
 93
        1
176
     1
 44
0.0
176
     1
173
     0
176
     1
  0
VISUALSTYLE
  5
34
102
{ACAD_REACTORS
330
2A
102
}
330
2A
100
AcDbVisualStyle
  2
Conceptual
 70
     9
177
     2
291
     0
 71
     3
176
     1
 72
     2
176
     1
 73
     0
176
     1
 90
        0
176
     1
 40
-0.6
176
     1
 41
-30.0
176
     1
 62
     5
 63
     7
421
 16777215
176
     1
 74
     2
176
     1
 91
        2
176
     1
 64
     7
176
     1
 65
   257
176
     1
 75
     1
176
     1
175
     1
176
     1
 42
40.0
176
     1
 92
        8
176
     1
 66
     7
176
     1
 43
1.0
176
     1
 76
     1
176
     1
 77
     6
176
     1
 78
     2
176
     1
 67
     7
176
     1
 79
     3
176
     1
170
     0
176
     1
171
     0
176
     1
290
     0
176
     1
 93
        1
176
     1
 44
0.0
176
     1
173
     0
176
     1
  0
VISUALSTYLE
  5
35
102
{ACAD_REACTORS
330
2A
102
}
330
2A
100
AcDbVisualStyle
  2
Dim
 70
    11
177
     2
291
     1
 71
     2
176
     1
 72
     2
176
     1
 73
     0
176
     1
 90
        0
176
     1
 40
-0.6
176
     1
 41
-30.0
176
     1
 62
     5
 63
     7
421
 16777215
176
     1
 74
     1
176
     1
 91
        4
176
     1
 64
     7
176
     1
 65
   257
176
     1
 75
     1
176
     1
175
     1
176
     1
 42
1.0
176
     1
 92
        8
176
     1
 66
     7
176
     1
 43
1.0
176
     1
 76
     1
176
     1
 77
     6
176
     1
 78
     2
176
     1
 67
     7
176
     1
 79
     5
176
     1
170
     0
176
     1
171
     0
176
     1
290
     0
176
     1
 93
        1
176
     1
 44
-50.0
176
     1
173
     0
176
     1
  0
VISUALSTYLE
  5
39
102
{ACAD_REACTORS
330
2A
102
}
330
2A
100
AcDbVisualStyle
  2
Facepattern
 70
    15
177
     2
291
     1
 71
     2
176
     1
 72
     2
176
     1
 73
     0
176
     1
 90
        0
176
     1
 40
-0.6
176
     1
 41
-30.0
176
     1
 62
     5
 63
     7
421
 16777215
176
     1
 74
     1
176
     1
 91
        4
176
     1
 64
     7
176
     1
 65
   257
176
     1
 75
     1
176
     1
175
     1
176
     1
 42
1.0
176
     1
 92
        8
176
     1
 66
     7
176
     1
 43
1.0
176
     1
 76
     1
176
     1
 77
     6
176
     1
 78
     2
176
     1
 67
     7
176
     1
 79
     5
176
     1
170
     0
176
     1
171
     0
176
     1
290
     0
176
     1
 93
        1
176
     1
 44
0.0
176
     1
173
     0
176
     1
  0
VISUALSTYLE
  5
2B
102
{ACAD_REACTORS
330
2A
102
}
330
2A
100
AcDbVisualStyle
  2
Flat
 70
     0
177
     2
291
     1
 71
     2
176
     1
 72
     1
176
     1
 73
     1
176
     1
 90
        2
176
     1
 40
-0.6
176
     1
 41
30.0
176
     1
 62
     5
 63
     7
421
 16777215
176
     1
 74
     0
176
     1
 91
        4
176
     1
 64
     7
176
     1
 65
   257
176
     1
 75
     1
176
     1
175
     1
176
     1
 42
1.0
176
     1
 92
        8
176
     1
 66
     7
176
     1
 43
1.0
176
     1
 76
     1
176
     1
 77
     6
176
     1
 78
     2
176
     1
 67
     7
176
     1
 79
     5
176
     1
170
     0
176
     1
171
     0
176
     1
290
     0
176
     1
 93
       13
176
     1
 44
0.0
176
     1
173
     0
176
     1
  0
VISUALSTYLE
  5
2C
102
{ACAD_REACTORS
330
2A
102
}
330
2A
100
AcDbVisualStyle
  2
FlatWithEdges
 70
     1
177
     2
291
     1
 71
     2
176
     1
 72
     1
176
     1
 73
     1
176
     1
 90
        2
176
     1
 40
-0.6
176
     1
 41
30.0
176
     1
 62
     5
 63
     7
421
 16777215
176
     1
 74
     1
176
     1
 91
        4
176
     1
 64
     7
176
     1
 65
   257
176
     1
 75
     1
176
     1
175
     1
176
     1
 42
1.0
176
     1
 92
        0
176
     1
 66
   257
176
     1
 43
1.0
176
     1
 76
     1
176
     1
 77
     6
176
     1
 78
     2
176
     1
 67
     7
176
     1
 79
     5
176
     1
170
     0
176
     1
171
     0
176
     1
290
     0
176
     1
 93
       13
176
     1
 44
0.0
176
     1
173
     0
176
     1
  0
VISUALSTYLE
  5
2D
102
{ACAD_REACTORS
330
2A
102
}
330
2A
100
AcDbVisualStyle
  2
Gouraud
 70
     2
177
     2
291
     1
 71
     2
176
     1
 72
     2
176
     1
 73
     1
176
     1
 90
        2
176
     1
 40
-0.6
176
     1
 41
30.0
176
     1
 62
     5
 63
     7
421
 16777215
176
     1
 74
     0
176
     1
 91
        4
176
     1
 64
     7
176
     1
 65
   257
176
     1
 75
     1
176
     1
175
     1
176
     1
 42
1.0
176
     1
 92
        0
176
     1
 66
     7
176
     1
 43
1.0
176
     1
 76
     1
176
     1
 77
     6
176
     1
 78
     2
176
     1
 67
     7
176
     1
 79
     5
176
     1
170
     0
176
     1
171
     0
176
     1
290
     0
176
     1
 93
       13
176
     1
 44
0.0
176
     1
173
     0
176
     1
  0
VISUALSTYLE
  5
2E
102
{ACAD_REACTORS
330
2A
102
}
330
2A
100
AcDbVisualStyle
  2
GouraudWithEdges
 70
     3
177
     2
291
     1
 71
     2
176
     1
 72
     2
176
     1
 73
     1
176
     1
 90
        2
176
     1
 40
-0.6
176
     1
 41
30.0
176
     1
 62
     5
 63
     7
421
 16777215
176
     1
 74
     1
176
     1
 91
        4
176
     1
 64
     7
176
     1
 65
   257
176
     1
 75
     1
176
     1
175
     1
176
     1
 42
1.0
176
     1
 92
        0
176
     1
 66
   257
176
     1
 43
1.0
176
     1
 76
     1
176
     1
 77
     6
176
     1
 78
     2
176
     1
 67
     7
176
     1
 79
     5
176
     1
170
     0
176
     1
171
     0
176
     1
290
     0
176
     1
 93
       13
176
     1
 44
0.0
176
     1
173
     0
176
     1
  0
VISUALSTYLE
  5
38
102
{ACAD_REACTORS
330
2A
102
}
330
2A
100
AcDbVisualStyle
  2
Linepattern
 70
    14
177
     2
291
     1
 71
     2
176
     1
 72
     2
176
     1
 73
     0
176
     1
 90
        0
176
     1
 40
-0.6
176
     1
 41
-30.0
176
     1
 62
     5
 63
     7
421
 16777215
176
     1
 74
     1
176
     1
 91
        4
176
     1
 64
     7
176
     1
 65
   257
176
     1
 75
     7
176
     1
175
     7
176
     1
 42
1.0
176
     1
 92
        8
176
     1
 66
     7
176
     1
 43
1.0
176
     1
 76
     1
176
     1
 77
     6
176
     1
 78
     2
176
     1
 67
     7
176
     1
 79
     5
176
     1
170
     0
176
     1
171
     0
176
     1
290
     0
176
     1
 93
        1
176
     1
 44
0.0
176
     1
173
     0
176
     1
  0
VISUALSTYLE
  5
33
102
{ACAD_REACTORS
330
2A
102
}
330
2A
100
AcDbVisualStyle
  2
Realistic
 70
     8
177
     2
291
     0
 71
     2
176
     1
 72
     2
176
     1
 73
     0
176
     1
 90
        0
176
     1
 40
-0.6
176
     1
 41
-30.0
176
     1
 62
     5
 63
     7
421
 16777215
176
     1
 74
     1
176
     1
 91
        0
176
     1
 64
     7
176
     1
 65
   257
176
     1
 75
     1
176
     1
175
     1
176
     1
 42
1.0
176
     1
 92
        8
176
     1
 66
     8
424
  7895160
176
     1
 43
1.0
176
     1
 76
     1
176
     1
 77
     6
176
     1
 78
     2
176
     1
 67
     7
176
     1
 79
     5
176
     1
170
     0
176
     1
171
     0
176
     1
290
     0
176
     1
 93
       13
176
     1
 44
0.0
176
     1
173
     0
176
     1
  0
VISUALSTYLE
  5
37
102
{ACAD_REACTORS
330
2A
102
}
330
2A
100
AcDbVisualStyle
  2
Thicken
 70
    13
177
     2
291
     1
 71
     2
176
     1
 72
     2
176
     1
 73
     0
176
     1
 90
        0
176
     1
 40
-0.6
176
     1
 41
-30.0
176
     1
 62
     5
 63
     7
421
 16777215
176
     1
 74
     1
176
     1
 91
        4
176
     1
 64
     7
176
     1
 65
   257
176
     1
 75
     1
176
     1
175
     1
176
     1
 42
1.0
176
     1
 92
       12
176
     1
 66
     7
176
     1
 43
1.0
176
     1
 76
     1
176
     1
 77
     6
176
     1
 78
     2
176
     1
 67
     7
176
     1
 79
     5
176
     1
170
     0
176
     1
171
     0
176
     1
290
     0
176
     1
 93
        1
176
     1
 44
0.0
176
     1
173
     0
176
     1
  0
ENDSEC
  0
EOF
