  0
SECTION
  2
HEADER
  9
$ACADVER
  1
AC1024
  9
$ACADMAINTVER
 70
     6
  9
$DWGCODEPAGE
  3
ANSI_932
  9
$INSBASE
 10
0.0
 20
0.0
 30
0.0
  9
$EXTMIN
 10
-6300.0
 20
-4455.0
 30
0.0
  9
$EXTMAX
 10
6300.0
 20
4455.0
 30
0.0
  9
$LIMMIN
 10
-6300.0
 20
-4455.0
  9
$LIMMAX
 10
6300.0
 20
4455.0
  9
$ORTHOMODE
 70
     0
  9
$REGENMODE
 70
     1
  9
$FILLMODE
 70
     1
  9
$QTEXTMODE
 70
     0
  9
$MIRRTEXT
 70
     1
  9
$LTSCALE
 40
30.0
  9
$ATTMODE
 70
     1
  9
$TEXTSIZE
 40
2.5
  9
$TRACEWID
 40
1.0
  9
$TEXTSTYLE
  7
Standard
  9
$CLAYER
  8
0
  9
$CELTYPE
  6
ByLayer
  9
$CECOLOR
 62
   256
  9
$CELTSCALE
 40
1.0
  9
$DISPSILH
 70
     0
  9
$DIMSCALE
 40
1.0
  9
$DIMASZ
 40
2.5
  9
$DIMEXO
 40
0.625
  9
$DIMDLI
 40
3.75
  9
$DIMRND
 40
0.0
  9
$DIMDLE
 40
0.0
  9
$DIMEXE
 40
1.25
  9
$DIMTP
 40
0.0
  9
$DIMTM
 40
0.0
  9
$DIMTXT
 40
2.5
  9
$DIMCEN
 40
2.5
  9
$DIMTSZ
 40
0.0
  9
$DIMTOL
 70
     0
  9
$DIMLIM
 70
     0
  9
$DIMTIH
 70
     0
  9
$DIMTOH
 70
     0
  9
$DIMSE1
 70
     0
  9
$DIMSE2
 70
     0
  9
$DIMTAD
 70
     1
  9
$DIMZIN
 70
     8
  9
$DIMBLK
  1

  9
$DIMASO
 70
     1
  9
$DIMSHO
 70
     1
  9
$DIMPOST
  1

  9
$DIMAPOST
  1

  9
$DIMALT
 70
     0
  9
$DIMALTD
 70
     3
  9
$DIMALTF
 40
0.03937007874016
  9
$DIMLFAC
 40
1.0
  9
$DIMTOFL
 70
     1
  9
$DIMTVP
 40
0.0
  9
$DIMTIX
 70
     0
  9
$DIMSOXD
 70
     0
  9
$DIMSAH
 70
     0
  9
$DIMBLK1
  1

  9
$DIMBLK2
  1

  9
$DIMSTYLE
  2
ISO-25
  9
$DIMCLRD
 70
     0
  9
$DIMCLRE
 70
     0
  9
$DIMCLRT
 70
     0
  9
$DIMTFAC
 40
1.0
  9
$DIMGAP
 40
0.625
  9
$DIMJUST
 70
     0
  9
$DIMSD1
 70
     0
  9
$DIMSD2
 70
     0
  9
$DIMTOLJ
 70
     0
  9
$DIMTZIN
 70
     8
  9
$DIMALTZ
 70
     0
  9
$DIMALTTZ
 70
     0
  9
$DIMUPT
 70
     0
  9
$DIMDEC
 70
     2
  9
$DIMTDEC
 70
     2
  9
$DIMALTU
 70
     2
  9
$DIMALTTD
 70
     3
  9
$DIMTXSTY
  7
Standard
  9
$DIMAUNIT
 70
     0
  9
$DIMADEC
 70
     0
  9
$DIMALTRND
 40
0.0
  9
$DIMAZIN
 70
     0
  9
$DIMDSEP
 70
    44
  9
$DIMATFIT
 70
     3
  9
$DIMFRAC
 70
     0
  9
$DIMLDRBLK
  1

  9
$DIMLUNIT
 70
     2
  9
$DIMLWD
 70
    -2
  9
$DIMLWE
 70
    -2
  9
$DIMTMOVE
 70
     0
  9
$DIMFXL
 40
1.0
  9
$DIMFXLON
 70
     0
  9
$DIMJOGANG
 40
0.7853981633974483
  9
$DIMTFILL
 70
     0
  9
$DIMTFILLCLR
 70
     0
  9
$DIMARCSYM
 70
     0
  9
$DIMLTYPE
  6

  9
$DIMLTEX1
  6

  9
$DIMLTEX2
  6

  9
$DIMTXTDIRECTION
 70
     0
  9
$LUNITS
 70
     2
  9
$LUPREC
 70
     4
  9
$SKETCHINC
 40
1.0
  9
$FILLETRAD
 40
10.0
  9
$AUNITS
 70
     0
  9
$AUPREC
 70
     0
  9
$MENU
  1
.
  9
$ELEVATION
 40
0.0
  9
$PELEVATION
 40
0.0
  9
$THICKNESS
 40
0.0
  9
$LIMCHECK
 70
     0
  9
$CHAMFERA
 40
10.0
  9
$CHAMFERB
 40
10.0
  9
$CHAMFERC
 40
20.0
  9
$CHAMFERD
 40
0.0
  9
$SKPOLY
 70
     0
  9
$TDCREATE
 40
2460327.683761829
  9
$TDUCREATE
 40
2460327.308761829
  9
$TDUPDATE
 40
2460327.68376184
  9
$TDUUPDATE
 40
2460327.30876184
  9
$TDINDWG
 40
0.0000000116
  9
$TDUSRTIMER
 40
0.0000000116
  9
$USRTIMER
 70
     1
  9
$ANGBASE
 50
0.0
  9
$ANGDIR
 70
     0
  9
$PDMODE
 70
     0
  9
$PDSIZE
 40
0.0
  9
$PLINEWID
 40
0.0
  9
$SPLFRAME
 70
     0
  9
$SPLINETYPE
 70
     6
  9
$SPLINESEGS
 70
     8
  9
$HANDSEED
  5
4A4
  9
$SURFTAB1
 70
     6
  9
$SURFTAB2
 70
     6
  9
$SURFTYPE
 70
     6
  9
$SURFU
 70
     6
  9
$SURFV
 70
     6
  9
$UCSBASE
  2

  9
$UCSNAME
  2

  9
$UCSORG
 10
0.0
 20
0.0
 30
0.0
  9
$UCSXDIR
 10
1.0
 20
0.0
 30
0.0
  9
$UCSYDIR
 10
0.0
 20
1.0
 30
0.0
  9
$UCSORTHOREF
  2

  9
$UCSORTHOVIEW
 70
     0
  9
$UCSORGTOP
 10
0.0
 20
0.0
 30
0.0
  9
$UCSORGBOTTOM
 10
0.0
 20
0.0
 30
0.0
  9
$UCSORGLEFT
 10
0.0
 20
0.0
 30
0.0
  9
$UCSORGRIGHT
 10
0.0
 20
0.0
 30
0.0
  9
$UCSORGFRONT
 10
0.0
 20
0.0
 30
0.0
  9
$UCSORGBACK
 10
0.0
 20
0.0
 30
0.0
  9
$PUCSBASE
  2

  9
$PUCSNAME
  2

  9
$PUCSORG
 10
0.0
 20
0.0
 30
0.0
  9
$PUCSXDIR
 10
1.0
 20
0.0
 30
0.0
  9
$PUCSYDIR
 10
0.0
 20
1.0
 30
0.0
  9
$PUCSORTHOREF
  2

  9
$PUCSORTHOVIEW
 70
     0
  9
$PUCSORGTOP
 10
0.0
 20
0.0
 30
0.0
  9
$PUCSORGBOTTOM
 10
0.0
 20
0.0
 30
0.0
  9
$PUCSORGLEFT
 10
0.0
 20
0.0
 30
0.0
  9
$PUCSORGRIGHT
 10
0.0
 20
0.0
 30
0.0
  9
$PUCSORGFRONT
 10
0.0
 20
0.0
 30
0.0
  9
$PUCSORGBACK
 10
0.0
 20
0.0
 30
0.0
  9
$USERI1
 70
     0
  9
$USERI2
 70
     0
  9
$USERI3
 70
     0
  9
$USERI4
 70
     0
  9
$USERI5
 70
     0
  9
$USERR1
 40
0.0
  9
$USERR2
 40
0.0
  9
$USERR3
 40
0.0
  9
$USERR4
 40
0.0
  9
$USERR5
 40
0.0
  9
$WORLDVIEW
 70
     1
  9
$SHADEDGE
 70
     3
  9
$SHADEDIF
 70
    70
  9
$TILEMODE
 70
     1
  9
$MAXACTVP
 70
    64
  9
$PINSBASE
 10
0.0
 20
0.0
 30
0.0
  9
$PLIMCHECK
 70
     0
  9
$PEXTMIN
 10
1.000000000000000E+20
 20
1.000000000000000E+20
 30
1.000000000000000E+20
  9
$PEXTMAX
 10
-1.000000000000000E+20
 20
-1.000000000000000E+20
 30
-1.000000000000000E+20
  9
$PLIMMIN
 10
0.0
 20
0.0
  9
$PLIMMAX
 10
420.0
 20
297.0
  9
$UNITMODE
 70
     0
  9
$VISRETAIN
 70
     1
  9
$PLINEGEN
 70
     0
  9
$PSLTSCALE
 70
     1
  9
$TREEDEPTH
 70
  3020
  9
$CMLSTYLE
  2
Standard
  9
$CMLJUST
 70
     0
  9
$CMLSCALE
 40
20.0
  9
$PROXYGRAPHICS
 70
     1
  9
$MEASUREMENT
 70
     1
  9
$CELWEIGHT
370
    -1
  9
$ENDCAPS
280
     0
  9
$JOINSTYLE
280
     0
  9
$LWDISPLAY
290
     0
  9
$INSUNITS
 70
     4
  9
$HYPERLINKBASE
  1

  9
$STYLESHEET
  1

  9
$XEDIT
290
     1
  9
$CEPSNTYPE
380
     0
  9
$PSTYLEMODE
290
     1
  9
$FINGERPRINTGUID
  2
{E8BD5F18-A366-4D48-8187-E6B003E25A0A}
  9
$VERSIONGUID
  2
{FAEB1C32-E019-11D5-929B-00C0DF256EC4}
  9
$EXTNAMES
290
     1
  9
$PSVPSCALE
 40
0.0
  9
$OLESTARTUP
290
     0
  9
$SORTENTS
280
   127
  9
$INDEXCTL
280
     0
  9
$HIDETEXT
280
     1
  9
$XCLIPFRAME
280
     2
  9
$HALOGAP
280
     0
  9
$OBSCOLOR
 70
   257
  9
$OBSLTYPE
280
     0
  9
$INTERSECTIONDISPLAY
280
     0
  9
$INTERSECTIONCOLOR
 70
   257
  9
$DIMASSOC
280
     2
  9
$PROJECTNAME
  1

  9
$CAMERADISPLAY
290
     0
  9
$LENSLENGTH
 40
50.0
  9
$CAMERAHEIGHT
 40
0.0
  9
$STEPSPERSEC
 40
2.0
  9
$STEPSIZE
 40
6.0
  9
$3DDWFPREC
 40
2.0
  9
$PSOLWIDTH
 40
5.0
  9
$PSOLHEIGHT
 40
80.0
  9
$LOFTANG1
 40
1.570796326794897
  9
$LOFTANG2
 40
1.570796326794897
  9
$LOFTMAG1
 40
0.0
  9
$LOFTMAG2
 40
0.0
  9
$LOFTPARAM
 70
     7
  9
$LOFTNORMALS
280
     1
  9
$LATITUDE
 40
37.795
  9
$LONGITUDE
 40
-122.394
  9
$NORTHDIRECTION
 40
0.0
  9
$TIMEZONE
 70
 -8000
  9
$LIGHTGLYPHDISPLAY
280
     1
  9
$TILEMODELIGHTSYNCH
280
     1
  9
$SOLIDHIST
280
     1
  9
$SHOWHIST
280
     1
  9
$DWFFRAME
280
     2
  9
$DGNFRAME
280
     2
  9
$REALWORLDSCALE
290
     1
  9
$INTERFERECOLOR
 62
   256
  9
$CSHADOW
280
     0
  9
$SHADOWPLANELOCATION
 40
0.0
  0
ENDSEC
  0
SECTION
  2
CLASSES
  0
CLASS
  1
ACDBDICTIONARYWDFLT
  2
AcDbDictionaryWithDefault
  3
ObjectDBX Classes
 90
        0
 91
        4
280
     0
281
     0
  0
CLASS
  1
VISUALSTYLE
  2
AcDbVisualStyle
  3
ObjectDBX Classes
 90
     4095
 91
        4
280
     0
281
     0
  0
CLASS
  1
MATERIAL
  2
AcDbMaterial
  3
ObjectDBX Classes
 90
     1153
 91
        4
280
     0
281
     0
  0
ENDSEC
  0
SECTION
  2
TABLES
  0
TABLE
  2
VPORT
  5
8
330
0
100
AcDbSymbolTable
 70
     1
  0
VPORT
  5
29
330
8
100
AcDbSymbolTableRecord
100
AcDbViewportTableRecord
  2
*Active
 70
     0
 10
0.0
 20
0.0
 11
1.0
 21
1.0
 12
0.0
 22
0.0
 13
0.0
 23
0.0
 14
10.0
 24
10.0
 15
10.0
 25
10.0
 16
0.0
 26
0.0
 36
1.0
 17
0.0
 27
0.0
 37
0.0
 40
9801.0
 41
1.414141414141414
 42
50.0
 43
0.0
 44
0.0
 50
0.0
 51
0.0
 71
     0
 72
 10000
 73
     1
 74
     3
 75
     0
 76
     0
 77
     0
 78
     0
281
     0
 65
     1
110
0.0
120
0.0
130
0.0
111
1.0
121
0.0
131
0.0
112
0.0
122
1.0
132
0.0
 79
     0
146
0.0
 60
     3
 61
     5
292
     1
282
     1
141
0.0
142
0.0
 63
   250
  0
ENDTAB
  0
TABLE
  2
LTYPE
  5
5
330
0
100
AcDbSymbolTable
 70
     5
  0
LTYPE
  5
14
330
5
100
AcDbSymbolTableRecord
100
AcDbLinetypeTableRecord
  2
ByBlock
 70
     0
  3

 72
    65
 73
     0
 40
0.0
  0
LTYPE
  5
15
330
5
100
AcDbSymbolTableRecord
100
AcDbLinetypeTableRecord
  2
ByLayer
 70
     0
  3

 72
    65
 73
     0
 40
0.0
  0
LTYPE
  5
16
330
5
100
AcDbSymbolTableRecord
100
AcDbLinetypeTableRecord
  2
Continuous
 70
     0
  3
Solid line
 72
    65
 73
     0
 40
0.0
  0
LTYPE
  5
3F
330
5
100
AcDbSymbolTableRecord
100
AcDbLinetypeTableRecord
  2
JWW_HOJO
 70
     0
  3
  -   -   -   -   -   -   -   - 
 72
    65
 73
     2
 40
1.693333333333333
 49
-1.27
 74
     0
 49
0.4233333333333333
 74
     0
  0
LTYPE
  5
40
330
5
100
AcDbSymbolTableRecord
100
AcDbLinetypeTableRecord
  2
JWW_DASHED2
 70
     0
  3
--    ----    ----    ----    --
 72
    65
 73
     2
 40
3.386666666666667
 49
1.693333333333333
 74
     0
 49
-1.693333333333333
 74
     0
  0
LTYPE
  5
41
330
5
100
AcDbSymbolTableRecord
100
AcDbLinetypeTableRecord
  2
JWW_CENTER1
 70
     0
  3
-----  --  ----------  --  -----
 72
    65
 73
     4
 40
6.773333333333333
 49
4.233333333333333
 74
     0
 49
-0.8466666666666667
 74
     0
 49
0.8466666666666667
 74
     0
 49
-0.8466666666666667
 74
     0
  0
LTYPE
  5
42
330
5
100
AcDbSymbolTableRecord
100
AcDbLinetypeTableRecord
  2
JWW_DASHED1
 70
     0
  3
-  --  --  --  --  --  --  --  -
 72
    65
 73
     2
 40
1.693333333333333
 49
0.8466666666666667
 74
     0
 49
-0.8466666666666667
 74
     0
  0
ENDTAB
  0
TABLE
  2
LAYER
  5
2
330
0
100
AcDbSymbolTable
 70
    14
  0
LAYER
  5
10
330
2
100
AcDbSymbolTableRecord
100
AcDbLayerTableRecord
  2
0
 70
     0
 62
     7
  6
Continuous
370
    -3
390
F
347
3E
  0
LAYER
  5
43
330
2
100
AcDbSymbolTableRecord
100
AcDbLayerTableRecord
  2
F-0_補助線
 70
     0
 62
     7
  6
Continuous
370
    -3
390
F
347
3E
  0
LAYER
  5
44
330
2
100
AcDbSymbolTableRecord
100
AcDbLayerTableRecord
  2
F-1_枠
 70
     0
 62
     7
  6
Continuous
370
    -3
390
F
347
3E
  0
LAYER
  5
45
330
2
100
AcDbSymbolTableRecord
100
AcDbLayerTableRecord
  2
F-A_文字
 70
     0
 62
     7
  6
Continuous
370
    -3
390
F
347
3E
  0
LAYER
  5
46
330
2
100
AcDbSymbolTableRecord
100
AcDbLayerTableRecord
  2
0-A_文字
 70
     0
 62
     7
  6
Continuous
370
    -3
390
F
347
3E
  0
LAYER
  5
47
330
2
100
AcDbSymbolTableRecord
100
AcDbLayerTableRecord
  2
戸当り
 70
     0
 62
     7
  6
Continuous
370
    -3
390
F
347
3E
  0
LAYER
  5
48
330
2
100
AcDbSymbolTableRecord
100
AcDbLayerTableRecord
  2
0-0_補助線
 70
     0
 62
     7
  6
Continuous
370
    -3
390
F
347
3E
  0
LAYER
  5
49
330
2
100
AcDbSymbolTableRecord
100
AcDbLayerTableRecord
  2
0-1_通り芯
 70
     0
 62
     7
  6
Continuous
370
    -3
390
F
347
3E
  0
LAYER
  5
4A
330
2
100
AcDbSymbolTableRecord
100
AcDbLayerTableRecord
  2
0-C_ハッチ
 70
     0
 62
     7
  6
Continuous
370
    -3
390
F
347
3E
  0
LAYER
  5
4B
330
2
100
AcDbSymbolTableRecord
100
AcDbLayerTableRecord
  2
0-4_枠
 70
     0
 62
     7
  6
Continuous
370
    -3
390
F
347
3E
  0
LAYER
  5
4C
330
2
100
AcDbSymbolTableRecord
100
AcDbLayerTableRecord
  2
0-7_金物
 70
     0
 62
     7
  6
Continuous
370
    -3
390
F
347
3E
  0
LAYER
  5
4D
330
2
100
AcDbSymbolTableRecord
100
AcDbLayerTableRecord
  2
0-3_仕上げ
 70
     0
 62
     7
  6
Continuous
370
    -3
390
F
347
3E
  0
LAYER
  5
4E
330
2
100
AcDbSymbolTableRecord
100
AcDbLayerTableRecord
  2
0-B_寸法
 70
     0
 62
     7
  6
Continuous
370
    -3
390
F
347
3E
  0
LAYER
  5
4F
330
2
100
AcDbSymbolTableRecord
100
AcDbLayerTableRecord
  2
0-6_扉
 70
     0
 62
     7
  6
Continuous
370
    -3
390
F
347
3E
  0
ENDTAB
  0
TABLE
  2
STYLE
  5
3
330
0
100
AcDbSymbolTable
 70
     1
  0
STYLE
  5
11
330
3
100
AcDbSymbolTableRecord
100
AcDbTextStyleTableRecord
  2
Standard
 70
     0
 40
0.0
 41
1.0
 50
0.0
 71
     0
 42
2.5
  3
txt
  4

  0
ENDTAB
  0
TABLE
  2
VIEW
  5
6
330
0
100
AcDbSymbolTable
 70
     0
  0
ENDTAB
  0
TABLE
  2
UCS
  5
7
330
0
100
AcDbSymbolTable
 70
     0
  0
ENDTAB
  0
TABLE
  2
APPID
  5
9
330
0
100
AcDbSymbolTable
 70
     1
  0
APPID
  5
12
330
9
100
AcDbSymbolTableRecord
100
AcDbRegAppTableRecord
  2
ACAD
 70
     0
  0
ENDTAB
  0
TABLE
  2
DIMSTYLE
  5
A
330
0
100
AcDbSymbolTable
 70
     1
100
AcDbDimStyleTable
  0
DIMSTYLE
105
27
330
A
100
AcDbSymbolTableRecord
100
AcDbDimStyleTableRecord
  2
ISO-25
 70
     0
 41
2.5
 42
0.625
 43
3.75
 44
1.25
 73
     0
 74
     0
 77
     1
 78
     8
140
2.5
141
2.5
143
0.03937007874016
147
0.625
171
     3
172
     1
178
     0
271
     2
272
     2
274
     3
278
    44
283
     0
284
     8
340
11
  0
ENDTAB
  0
TABLE
  2
BLOCK_RECORD
  5
1
330
0
100
AcDbSymbolTable
 70
     1
  0
BLOCK_RECORD
  5
1F
330
1
100
AcDbSymbolTableRecord
100
AcDbBlockTableRecord
  2
*Model_Space
340
22
 70
     0
280
     1
281
     0
  0
BLOCK_RECORD
  5
1B
330
1
100
AcDbSymbolTableRecord
100
AcDbBlockTableRecord
  2
*Paper_Space
340
1E
 70
     0
280
     1
281
     0
  0
BLOCK_RECORD
  5
23
330
1
100
AcDbSymbolTableRecord
100
AcDbBlockTableRecord
  2
*Paper_Space0
340
26
 70
     0
280
     1
281
     0
  0
ENDTAB
  0
ENDSEC
  0
SECTION
  2
BLOCKS
  0
BLOCK
  5
20
330
1F
100
AcDbEntity
  8
0
100
AcDbBlockBegin
  2
*Model_Space
 70
     0
 10
0.0
 20
0.0
 30
0.0
  3
*Model_Space
  1

  0
ENDBLK
  5
21
330
1F
100
AcDbEntity
  8
0
100
AcDbBlockEnd
  0
BLOCK
  5
1C
330
1B
100
AcDbEntity
 67
     1
  8
0
100
AcDbBlockBegin
  2
*Paper_Space
 70
     0
 10
0.0
 20
0.0
 30
0.0
  3
*Paper_Space
  1

  0
ENDBLK
  5
1D
330
1B
100
AcDbEntity
 67
     1
  8
0
100
AcDbBlockEnd
  0
BLOCK
  5
24
330
23
100
AcDbEntity
  8
0
100
AcDbBlockBegin
  2
*Paper_Space0
 70
     0
 10
0.0
 20
0.0
 30
0.0
  3
*Paper_Space0
  1

  0
ENDBLK
  5
25
330
23
100
AcDbEntity
  8
0
100
AcDbBlockEnd
  0
ENDSEC
  0
SECTION
  2
ENTITIES
  0
LINE
  5
50
330
1F
100
AcDbEntity
  8
F-0_補助線
  6
JWW_HOJO
 62
   120
370
     5
100
AcDbLine
 10
-6140.081333436769
 20
-4455.0
 30
0.0
 11
-6140.081333436769
 21
4424.999604096284
 31
0.0
  0
LINE
  5
51
330
1F
100
AcDbEntity
  8
F-0_補助線
  6
JWW_HOJO
 62
   120
370
     5
100
AcDbLine
 10
-6140.081333436769
 20
4424.999604096284
 30
0.0
 11
6159.917676803936
 21
4424.999604096284
 31
0.0
  0
LINE
  5
52
330
1F
100
AcDbEntity
  8
F-0_補助線
  6
JWW_HOJO
 62
   120
370
     5
100
AcDbLine
 10
6159.917676803936
 20
4424.999604096284
 30
0.0
 11
6159.917676803936
 21
-4455.0
 31
0.0
  0
LINE
  5
53
330
1F
100
AcDbEntity
  8
F-0_補助線
  6
JWW_HOJO
 62
   120
370
     5
100
AcDbLine
 10
6159.917676803936
 20
-4455.0
 30
0.0
 11
-6140.081333436769
 21
-4455.0
 31
0.0
  0
LINE
  5
54
330
1F
100
AcDbEntity
  8
F-0_補助線
  6
JWW_HOJO
 62
     7
370
     5
100
AcDbLine
 10
509.9185840832865
 20
-3795.000003092998
 30
0.0
 11
509.9185840832865
 21
-4195.000008247994
 31
0.0
  0
LINE
  5
55
330
1F
100
AcDbEntity
  8
F-1_枠
  6
Continuous
 62
   200
370
     5
100
AcDbLine
 10
5859.917429364118
 20
4174.999769056166
 30
0.0
 11
5859.917429364118
 21
-4205.000164959882
 31
0.0
  0
LINE
  5
56
330
1F
100
AcDbEntity
  8
F-1_枠
  6
Continuous
 62
   200
370
     5
100
AcDbLine
 10
-5840.081317971782
 20
4174.999769056166
 30
0.0
 11
-5840.081317971782
 21
-4205.000164959882
 31
0.0
  0
LINE
  5
57
330
1F
100
AcDbEntity
  8
F-1_枠
  6
Continuous
 62
   200
370
     5
100
AcDbLine
 10
5859.917429364118
 20
-4205.000002577498
 30
0.0
 11
-5840.081085996952
 21
-4205.000002577498
 31
0.0
  0
LINE
  5
58
330
1F
100
AcDbEntity
  8
F-1_枠
  6
Continuous
 62
   200
370
     5
100
AcDbLine
 10
-5830.081323642278
 20
4174.999769056166
 30
0.0
 11
-5830.081323642278
 21
-4205.000164959882
 31
0.0
  0
LINE
  5
59
330
1F
100
AcDbEntity
  8
F-1_枠
  6
Continuous
 62
   200
370
     5
100
AcDbLine
 10
-5835.081309208292
 20
4174.999769056166
 30
0.0
 11
-5835.081309208292
 21
-4205.000164959882
 31
0.0
  0
LINE
  5
5A
330
1F
100
AcDbEntity
  8
F-1_枠
  6
Continuous
 62
   200
370
     5
100
AcDbLine
 10
5854.917165428305
 20
4174.999769056166
 30
0.0
 11
5854.917165428305
 21
-4205.000164959882
 31
0.0
  0
LINE
  5
5B
330
1F
100
AcDbEntity
  8
F-1_枠
  6
Continuous
 62
   200
370
     5
100
AcDbLine
 10
5849.917643811961
 20
4174.999769056166
 30
0.0
 11
5849.917643811961
 21
-4205.000164959882
 31
0.0
  0
LINE
  5
5C
330
1F
100
AcDbEntity
  8
F-1_枠
  6
Continuous
 62
   200
370
     5
100
AcDbLine
 10
5859.917429364118
 20
-4199.999993814004
 30
0.0
 11
-5840.081085996952
 21
-4199.999993814004
 31
0.0
  0
LINE
  5
5D
330
1F
100
AcDbEntity
  8
F-1_枠
  6
Continuous
 62
   200
370
     5
100
AcDbLine
 10
5859.917429364118
 20
-4195.000008247994
 30
0.0
 11
-5840.081085996952
 21
-4195.000008247994
 31
0.0
  0
LINE
  5
5E
330
1F
100
AcDbEntity
  8
F-1_枠
  6
Continuous
 62
   200
370
     5
100
AcDbLine
 10
4349.91789125178
 20
-3795.000003092998
 30
0.0
 11
4349.91789125178
 21
-4195.000008247994
 31
0.0
  0
LINE
  5
5F
330
1F
100
AcDbEntity
  8
F-1_枠
  6
Continuous
 62
   200
370
     5
100
AcDbLine
 10
2849.917396372143
 20
-3795.000003092998
 30
0.0
 11
2849.917396372143
 21
-4195.000008247994
 31
0.0
  0
LINE
  5
60
330
1F
100
AcDbEntity
  8
F-1_枠
  6
Continuous
 62
   200
370
     5
100
AcDbLine
 10
9.918542843317937
 20
-3795.000003092998
 30
0.0
 11
9.918542843317937
 21
-4195.000008247994
 31
0.0
  0
LINE
  5
61
330
1F
100
AcDbEntity
  8
F-1_枠
  6
Continuous
 62
   200
370
     5
100
AcDbLine
 10
9.918542843317937
 20
-3994.999936078046
 30
0.0
 11
5849.917643811961
 21
-3995.005364289155
 31
0.0
  0
LINE
  5
62
330
1F
100
AcDbEntity
  8
F-1_枠
  6
Continuous
 62
   200
370
     5
100
AcDbLine
 10
-5840.081085996952
 20
4174.999769056166
 30
0.0
 11
5859.917429364118
 21
4174.999769056166
 31
0.0
  0
LINE
  5
63
330
1F
100
AcDbEntity
  8
F-1_枠
  6
Continuous
 62
   200
370
     5
100
AcDbLine
 10
-5840.081085996952
 20
4164.999983504013
 30
0.0
 11
5859.917429364118
 21
4164.999983504013
 31
0.0
  0
LINE
  5
64
330
1F
100
AcDbEntity
  8
F-1_枠
  6
Continuous
 62
   200
370
     5
100
AcDbLine
 10
-5840.081085996952
 20
4169.999505120355
 30
0.0
 11
5859.917429364118
 21
4169.999505120355
 31
0.0
  0
LINE
  5
65
330
1F
100
AcDbEntity
  8
F-0_補助線
  6
JWW_HOJO
 62
     7
370
     5
100
AcDbLine
 10
-5830.081323642278
 20
-3994.99993607839
 30
0.0
 11
9.918542843317937
 21
-3994.99993607839
 31
0.0
  0
LINE
  5
66
330
1F
100
AcDbEntity
  8
F-0_補助線
  6
JWW_HOJO
 62
     7
370
     5
100
AcDbLine
 10
-5830.081323642278
 20
-3904.99993607839
 30
0.0
 11
9.918542843317937
 21
-3904.99993607839
 31
0.0
  0
LINE
  5
67
330
1F
100
AcDbEntity
  8
F-0_補助線
  6
JWW_HOJO
 62
     7
370
     5
100
AcDbLine
 10
-5830.081323642278
 20
-4084.99993607839
 30
0.0
 11
9.918542843317937
 21
-4084.99993607839
 31
0.0
  0
LINE
  5
68
330
1F
100
AcDbEntity
  8
F-0_補助線
  6
JWW_HOJO
 62
     7
370
     5
100
AcDbLine
 10
9.918408067690052
 20
-4139.999739777983
 30
0.0
 11
5849.917509036333
 21
-4140.005167989091
 31
0.0
  0
LINE
  5
69
330
1F
100
AcDbEntity
  8
F-0_補助線
  6
JWW_HOJO
 62
     7
370
     5
100
AcDbLine
 10
9.918491721641658
 20
-4049.999739778022
 30
0.0
 11
5849.917592690285
 21
-4050.005167989131
 31
0.0
  0
LINE
  5
6A
330
1F
100
AcDbEntity
  8
F-0_補助線
  6
JWW_HOJO
 62
     7
370
     5
100
AcDbLine
 10
9.918593965362561
 20
-3939.99973721807
 30
0.0
 11
5849.917694934006
 21
-3940.005165429179
 31
0.0
  0
LINE
  5
6B
330
1F
100
AcDbEntity
  8
F-0_補助線
  6
JWW_HOJO
 62
     7
370
     5
100
AcDbLine
 10
9.918677619307346
 20
-3849.999737218109
 30
0.0
 11
5849.917778587951
 21
-3850.005165429218
 31
0.0
  0
LINE
  5
6C
330
1F
100
AcDbEntity
  8
F-0_補助線
  6
JWW_HOJO
 62
     7
370
     5
100
AcDbLine
 10
2939.917396372143
 20
-3795.000003092998
 30
0.0
 11
2939.917396372143
 21
-4195.000008247994
 31
0.0
  0
LINE
  5
6D
330
1F
100
AcDbEntity
  8
F-0_補助線
  6
JWW_HOJO
 62
     7
370
     5
100
AcDbLine
 10
99.91854284331794
 20
-3795.000003092998
 30
0.0
 11
99.91854284331794
 21
-4195.000008247994
 31
0.0
  0
LINE
  5
6E
330
1F
100
AcDbEntity
  8
F-0_補助線
  6
JWW_HOJO
 62
     7
370
     5
100
AcDbLine
 10
4439.91789125178
 20
-3795.000003092998
 30
0.0
 11
4439.91789125178
 21
-4195.000008247994
 31
0.0
  0
LINE
  5
6F
330
1F
100
AcDbEntity
  8
F-1_枠
  6
Continuous
 62
   200
370
     5
100
AcDbLine
 10
5859.917429364118
 20
-3795.000003092998
 30
0.0
 11
-5840.081085996952
 21
-3795.000003092998
 31
0.0
  0
LINE
  5
70
330
1F
100
AcDbEntity
  8
F-1_枠
  6
Continuous
 62
   200
370
     5
100
AcDbLine
 10
5859.917429364118
 20
-3790.000017526987
 30
0.0
 11
-5840.081085996952
 21
-3790.000017526987
 31
0.0
  0
LINE
  5
71
330
1F
100
AcDbEntity
  8
F-0_補助線
  6
JWW_HOJO
 62
     7
370
     5
100
AcDbLine
 10
-5087.628710189612
 20
-3795.000003092999
 30
0.0
 11
-5087.628710189612
 21
-4205.000164959882
 31
0.0
  0
LINE
  5
72
330
1F
100
AcDbEntity
  8
F-0_補助線
  6
JWW_HOJO
 62
     7
370
     5
100
AcDbLine
 10
-50.08145715668206
 20
-3795.000003092998
 30
0.0
 11
-50.08145715668206
 21
-4195.000008247994
 31
0.0
  0
MTEXT
  5
73
330
1F
100
AcDbEntity
  8
F-A_文字
  6
Continuous
 62
     7
370
     0
100
AcDbMText
 10
99.91854284331794
 20
-3887.139820871936
 30
0.0
 40
45.72
 41
180.0
 46
0.0
 71
     7
 72
     1
  1
{\fＭＳ ゴシック|b0|i0|c128|p49;図面名}
 73
     1
 44
1.0
  0
MTEXT
  5
74
330
1F
100
AcDbEntity
  8
F-A_文字
  6
Continuous
 62
     7
370
     0
100
AcDbMText
 10
2939.917396372143
 20
-3887.142460617774
 30
0.0
 40
45.72
 41
300.0
 46
0.0
 71
     7
 72
     1
  1
{\fＭＳ ゴシック|b0|i0|c128|p49;ＳＣＡＬＥ}
 73
     1
 44
1.0
  0
MTEXT
  5
75
330
1F
100
AcDbEntity
  8
F-A_文字
  6
Continuous
 62
     7
370
     0
100
AcDbMText
 10
4439.91789125178
 20
-3887.143854850754
 30
0.0
 40
45.72
 41
240.0
 46
0.0
 71
     7
 72
     1
  1
{\fＭＳ ゴシック|b0|i0|c128|p49;ＤＡＴＥ}
 73
     1
 44
1.0
  0
MTEXT
  5
76
330
1F
100
AcDbEntity
  8
F-A_文字
  6
Continuous
 62
     7
370
     0
100
AcDbMText
 10
2939.917396372143
 20
-4087.14246317786
 30
0.0
 40
45.72
 41
240.0
 46
0.0
 71
     7
 72
     1
  1
{\fＭＳ ゴシック|b0|i0|c128|p49;ＦＩＬＥ}
 73
     1
 44
1.0
  0
MTEXT
  5
77
330
1F
100
AcDbEntity
  8
F-A_文字
  6
Continuous
 62
     7
370
     0
100
AcDbMText
 10
4439.91789125178
 20
-4087.143857410839
 30
0.0
 40
45.72
 41
180.0
 46
0.0
 71
     7
 72
     1
  1
{\fＭＳ ゴシック|b0|i0|c128|p49;ＮＯ．}
 73
     1
 44
1.0
  0
MTEXT
  5
78
330
1F
100
AcDbEntity
  8
F-A_文字
  6
Continuous
 62
     7
370
     0
100
AcDbMText
 10
1394.917396372136
 20
-4096.140669266149
 30
0.0
 40
45.72
 41
120.0
 46
0.0
 71
     7
 72
     1
  1
{\fＭＳ ゴシック|b0|i0|c128|p49;株式}
 73
     1
 44
1.0
  0
MTEXT
  5
79
330
1F
100
AcDbEntity
  8
F-A_文字
  6
Continuous
 62
     7
370
     0
100
AcDbMText
 10
1604.917396372136
 20
-4164.281754523929
 30
0.0
 40
101.44125
 41
1065.0
 46
0.0
 71
     7
 72
     1
  1
{\fＭＳ ゴシック|b0|i0|c128|p49;ウッドワン・・・}
 73
     1
 44
1.0
  0
MTEXT
  5
7A
330
1F
100
AcDbEntity
  8
F-A_文字
  6
Continuous
 62
     7
370
     0
100
AcDbMText
 10
1394.917396372136
 20
-4168.140669266187
 30
0.0
 40
45.72
 41
120.0
 46
0.0
 71
     7
 72
     1
  1
{\fＭＳ ゴシック|b0|i0|c128|p49;会社}
 73
     1
 44
1.0
  0
MTEXT
  5
7B
330
1F
100
AcDbEntity
  8
F-A_文字
  6
Continuous
 62
     7
370
     0
100
AcDbMText
 10
5768.321977672936
 20
-4314.841419020919
 30
0.0
 40
68.58
 41
90.0
 46
0.0
 71
     7
 72
     1
  1
{\fＭＳ ゴシック|b0|i0|c128|p49;）}
 73
     1
 44
1.0
  0
MTEXT
  5
7C
330
1F
100
AcDbEntity
  8
F-A_文字
  6
Continuous
 62
     7
370
     0
100
AcDbMText
 10
5350.114617405302
 20
-4316.235443869856
 30
0.0
 40
68.58
 41
45.0
 46
0.0
 71
     7
 72
     1
  1
{\fＭＳ ゴシック|b0|i0|c128|p49;,}
 73
     1
 44
1.0
  0
MTEXT
  5
7D
330
1F
100
AcDbEntity
  8
F-A_文字
  6
Continuous
 62
     7
370
     0
100
AcDbMText
 10
5083.855928478597
 20
-4314.771967288282
 30
0.0
 40
74.295
 41
97.5
 46
0.0
 71
     7
 72
     1
  1
{\fＭＳ ゴシック|b0|i0|c128|p49;$y}
 73
     1
 44
1.0
  0
MTEXT
  5
7E
330
1F
100
AcDbEntity
  8
F-A_文字
  6
Continuous
 62
     7
370
     0
100
AcDbMText
 10
5238.592649517418
 20
-4314.771967288282
 30
0.0
 40
74.295
 41
97.5
 46
0.0
 71
     7
 72
     1
  1
{\fＭＳ ゴシック|b0|i0|c128|p49;$m}
 73
     1
 44
1.0
  0
MTEXT
  5
7F
330
1F
100
AcDbEntity
  8
F-A_文字
  6
Continuous
 62
     7
370
     0
100
AcDbMText
 10
5393.329382000334
 20
-4314.771967288282
 30
0.0
 40
74.295
 41
97.5
 46
0.0
 71
     7
 72
     1
  1
{\fＭＳ ゴシック|b0|i0|c128|p49;$d}
 73
     1
 44
1.0
  0
MTEXT
  5
80
330
1F
100
AcDbEntity
  8
F-A_文字
  6
Continuous
 62
     7
370
     0
100
AcDbMText
 10
5548.066114483236
 20
-4314.771967288282
 30
0.0
 40
74.295
 41
195.0
 46
0.0
 71
     7
 72
     1
  1
{\fＭＳ ゴシック|b0|i0|c128|p49;印刷}
 73
     1
 44
1.0
  0
MTEXT
  5
81
330
1F
100
AcDbEntity
  8
F-A_文字
  6
Continuous
 62
     7
370
     0
100
AcDbMText
 10
4943.95204081623
 20
-4319.023493567732
 30
0.0
 40
68.58
 41
90.0
 46
0.0
 71
     7
 72
     1
  1
{\fＭＳ ゴシック|b0|i0|c128|p49;（}
 73
     1
 44
1.0
  0
MTEXT
  5
82
330
1F
100
AcDbEntity
  8
F-A_文字
  6
Continuous
 62
     7
370
     0
100
AcDbMText
 10
5191.195810375575
 20
-4319.023493567732
 30
0.0
 40
68.58
 41
45.0
 46
0.0
 71
     7
 72
     1
  1
{\fＭＳ ゴシック|b0|i0|c128|p49;,}
 73
     1
 44
1.0
  0
MTEXT
  5
83
330
1F
100
AcDbEntity
  8
F-A_文字
  6
Continuous
 62
     7
370
     5
100
AcDbMText
 10
5096.16770014406
 20
-4147.857012699985
 30
0.0
 40
74.295
 41
97.5
 46
0.0
 71
     7
 72
     1
  1
{\fＭＳ ゴシック|b0|i0|c128|p49;02}
 73
     1
 44
1.0
  0
LINE
  5
84
330
1F
100
AcDbEntity
  8
0-A_文字
  6
Continuous
 62
    92
370
     5
100
AcDbLine
 10
-5659.999495325865
 20
3730.000181455527
 30
0.0
 11
-5659.999495325865
 21
4000.000181455527
 31
0.0
  0
ELLIPSE
  5
85
330
1F
100
AcDbEntity
  8
戸当り
  6
Continuous
 62
    92
370
     5
100
AcDbEllipse
 10
4855.430917458078
 20
2876.053590301167
 30
0.0
 11
11.36181697857171
 21
42.40287823032828
 31
0.0
210
0.0
220
0.0
230
0.9999999999999999
 40
0.6
 41
1.570796326794897
 42
4.71238898038469
  0
LINE
  5
86
330
1F
100
AcDbEntity
  8
戸当り
  6
Continuous
 62
    92
370
     5
100
AcDbLine
 10
4880.872644396272
 20
2869.236500114025
 30
0.0
 11
4829.989190519882
 21
2882.870680488309
 31
0.0
  0
LINE
  5
87
330
1F
100
AcDbEntity
  8
戸当り
  6
Continuous
 62
    92
370
     5
100
AcDbLine
 10
4884.13376436456
 20
2881.407165525266
 30
0.0
 11
4833.25031048817
 21
2895.041345899553
 31
0.0
  0
ELLIPSE
  5
88
330
1F
100
AcDbEntity
  8
戸当り
  6
Continuous
 62
    92
370
     5
100
AcDbEllipse
 10
4879.604310755758
 20
2966.269922279452
 30
0.0
 11
21.86569797210526
 21
81.6038957748525
 31
0.0
210
0.0
220
0.0
230
1.0
 40
0.5
 41
4.340591432030095
 42
8.225779182329084
  0
ELLIPSE
  5
89
330
1F
100
AcDbEntity
  8
戸当り
  6
Continuous
 62
    92
370
     5
100
AcDbEllipse
 10
4878.978687882654
 20
2963.935065930661
 30
0.0
 11
26.49533313827761
 21
98.88192943551533
 31
0.0
210
0.0
220
0.0
230
0.9999999999999999
 40
0.4
 41
3.840308517104466
 42
4.432552034522944
  0
ELLIPSE
  5
8A
330
1F
100
AcDbEntity
  8
戸当り
  6
Continuous
 62
    92
370
     5
100
AcDbEllipse
 10
4878.978687882654
 20
2963.935065930661
 30
0.0
 11
26.49533313827761
 21
98.88192943551533
 31
0.0
210
0.0
220
0.0
230
0.9999999999999999
 40
0.4
 41
1.850633272656679
 42
2.442876790075129
  0
ELLIPSE
  5
8B
330
1F
100
AcDbEntity
  8
戸当り
  6
Continuous
 62
    92
370
     5
100
AcDbEllipse
 10
4740.316707711377
 20
2838.284846936867
 30
0.0
 11
-7.622927487939132
 21
43.23177007461331
 31
0.0
210
0.0
220
0.0
230
1.0
 40
0.6000000000000001
 41
1.570796326794897
 42
4.71238898038469
  0
LINE
  5
8C
330
1F
100
AcDbEntity
  8
戸当り
  6
Continuous
 62
    92
370
     5
100
AcDbLine
 10
4766.255769756144
 20
2842.85860342963
 30
0.0
 11
4714.377645666609
 21
2833.711090444103
 31
0.0
  0
LINE
  5
8D
330
1F
100
AcDbEntity
  8
戸当り
  6
Continuous
 62
    92
370
     5
100
AcDbLine
 10
4764.067802717541
 20
2855.267181117583
 30
0.0
 11
4712.189678628006
 21
2846.119668132057
 31
0.0
  0
ELLIPSE
  5
8E
330
1F
100
AcDbEntity
  8
戸当り
  6
Continuous
 62
    92
370
     5
100
AcDbEllipse
 10
4724.098172894875
 20
2930.26472858251
 30
0.0
 11
-14.67024424252691
 21
83.19908946199426
 31
0.0
210
0.0
220
0.0
230
1.0
 40
0.5
 41
4.340591432030095
 42
8.225779182329084
  0
ELLIPSE
  5
8F
330
1F
100
AcDbEntity
  8
戸当り
  6
Continuous
 62
    92
370
     5
100
AcDbEllipse
 10
4724.517918944775
 20
2927.884230440854
 30
0.0
 11
-17.7763823922528
 21
100.8148742797557
 31
0.0
210
0.0
220
0.0
230
1.0
 40
0.4000000000000001
 41
3.840308517104466
 42
4.432552034522944
  0
ELLIPSE
  5
90
330
1F
100
AcDbEntity
  8
戸当り
  6
Continuous
 62
    92
370
     5
100
AcDbEllipse
 10
4724.517918944775
 20
2927.884230440854
 30
0.0
 11
-17.7763823922528
 21
100.8148742797557
 31
0.0
210
0.0
220
0.0
230
1.0
 40
0.4000000000000001
 41
1.850633272656679
 42
2.442876790075129
  0
LINE
  5
91
330
1F
100
AcDbEntity
  8
0-A_文字
  6
Continuous
 62
    92
370
     5
100
AcDbLine
 10
5369.917643811961
 20
3684.999983503669
 30
0.0
 11
5369.917643811961
 21
2718.999983503669
 31
0.0
  0
LINE
  5
92
330
1F
100
AcDbEntity
  8
0-A_文字
  6
Continuous
 62
    92
370
     5
100
AcDbLine
 10
5369.917643811961
 20
2718.999983503669
 30
0.0
 11
4229.917643811961
 21
2718.999983503669
 31
0.0
  0
LINE
  5
93
330
1F
100
AcDbEntity
  8
0-A_文字
  6
Continuous
 62
    92
370
     5
100
AcDbLine
 10
4229.917643811961
 20
3684.999983503669
 30
0.0
 11
4229.917643811961
 21
2718.999983503669
 31
0.0
  0
LINE
  5
94
330
1F
100
AcDbEntity
  8
0-0_補助線
  6
JWW_HOJO
 62
   120
370
     5
100
AcDbLine
 10
5339.917643811961
 20
3684.999983503669
 30
0.0
 11
5339.917643811961
 21
2718.999983503669
 31
0.0
  0
LINE
  5
95
330
1F
100
AcDbEntity
  8
0-0_補助線
  6
JWW_HOJO
 62
   120
370
     5
100
AcDbLine
 10
4259.917643811961
 20
3684.999983503669
 30
0.0
 11
4259.917643811961
 21
2718.999983503669
 31
0.0
  0
LINE
  5
96
330
1F
100
AcDbEntity
  8
0-0_補助線
  6
JWW_HOJO
 62
   120
370
     5
100
AcDbLine
 10
4799.917643811961
 20
3684.999983503669
 30
0.0
 11
4799.917643811961
 21
2718.999983503669
 31
0.0
  0
CIRCLE
  5
97
330
1F
100
AcDbEntity
  8
0-0_補助線
  6
JWW_HOJO
 62
   120
370
     5
100
AcDbCircle
 10
5159.917643811961
 20
3385.504011182406
 30
0.0
 40
240.0
  0
CIRCLE
  5
98
330
1F
100
AcDbEntity
  8
0-0_補助線
  6
JWW_HOJO
 62
   120
370
     5
100
AcDbCircle
 10
4799.917643811961
 20
3385.504011182406
 30
0.0
 40
240.0
  0
CIRCLE
  5
99
330
1F
100
AcDbEntity
  8
0-0_補助線
  6
JWW_HOJO
 62
   120
370
     5
100
AcDbCircle
 10
4444.047372024825
 20
3385.504011182406
 30
0.0
 40
240.0
  0
LINE
  5
9A
330
1F
100
AcDbEntity
  8
戸当り
  6
Continuous
 62
    40
370
     5
100
AcDbLine
 10
4502.034214636565
 20
3153.681812873028
 30
0.0
 11
4564.150785461175
 21
3385.504011182406
 31
0.0
  0
LINE
  5
9B
330
1F
100
AcDbEntity
  8
戸当り
  6
Continuous
 62
    40
370
     5
100
AcDbLine
 10
4502.034214636565
 20
3153.681812873028
 30
0.0
 11
4439.917643811961
 21
3385.504011182406
 31
0.0
  0
LINE
  5
9C
330
1F
100
AcDbEntity
  8
戸当り
  6
Continuous
 62
    40
370
     5
100
AcDbLine
 10
5035.684502162749
 20
3385.504011182406
 30
0.0
 11
5097.801072987359
 21
3153.681812873028
 31
0.0
  0
LINE
  5
9D
330
1F
100
AcDbEntity
  8
戸当り
  6
Continuous
 62
    40
370
     5
100
AcDbLine
 10
5159.917643811961
 20
3385.504011182406
 30
0.0
 11
5097.801072987359
 21
3153.681812873028
 31
0.0
  0
LINE
  5
9E
330
1F
100
AcDbEntity
  8
戸当り
  6
JWW_DASHED2
 62
     7
370
     5
100
AcDbLine
 10
5159.917643811961
 20
3385.504011182406
 30
0.0
 11
4439.917643811961
 21
3385.504011182406
 31
0.0
  0
LINE
  5
9F
330
1F
100
AcDbEntity
  8
戸当り
  6
Continuous
 62
    40
370
     5
100
AcDbLine
 10
5159.917643811961
 20
3439.504011182404
 30
0.0
 11
5159.917643811961
 21
3385.504011182406
 31
0.0
  0
LINE
  5
A0
330
1F
100
AcDbEntity
  8
戸当り
  6
Continuous
 62
    40
370
     5
100
AcDbLine
 10
5159.917643811961
 20
3439.504011182404
 30
0.0
 11
5339.917643811961
 21
3439.504011182404
 31
0.0
  0
LINE
  5
A1
330
1F
100
AcDbEntity
  8
戸当り
  6
Continuous
 62
    40
370
     5
100
AcDbLine
 10
5159.917643811961
 20
3385.504011182406
 30
0.0
 11
5339.917643811961
 21
3385.504011182406
 31
0.0
  0
LINE
  5
A2
330
1F
100
AcDbEntity
  8
戸当り
  6
Continuous
 62
    40
370
     5
100
AcDbLine
 10
4439.917643811961
 20
3439.504011182404
 30
0.0
 11
4439.917643811961
 21
3385.504011182406
 31
0.0
  0
LINE
  5
A3
330
1F
100
AcDbEntity
  8
戸当り
  6
Continuous
 62
    40
370
     5
100
AcDbLine
 10
4439.917643811961
 20
3439.504011182404
 30
0.0
 11
4259.917643811961
 21
3439.504011182404
 31
0.0
  0
LINE
  5
A4
330
1F
100
AcDbEntity
  8
戸当り
  6
Continuous
 62
    40
370
     5
100
AcDbLine
 10
4439.917643811961
 20
3385.504011182406
 30
0.0
 11
4259.917643811961
 21
3385.504011182406
 31
0.0
  0
LINE
  5
A5
330
1F
100
AcDbEntity
  8
0-A_文字
  6
Continuous
 62
    92
370
     5
100
AcDbLine
 10
5369.917643811961
 20
3540.999983503668
 30
0.0
 11
4229.917643811961
 21
3540.999983503668
 31
0.0
  0
LINE
  5
A6
330
1F
100
AcDbEntity
  8
0-A_文字
  6
Continuous
 62
    92
370
     5
100
AcDbLine
 10
5369.917643811961
 20
3684.999983503669
 30
0.0
 11
4229.917643811961
 21
3684.999983503669
 31
0.0
  0
MTEXT
  5
A7
330
1F
100
AcDbEntity
  8
0-A_文字
  6
Continuous
 62
     7
370
     5
100
AcDbMText
 10
4278.667643811961
 20
3554.775383503669
 30
0.0
 40
63.55080000000001
 41
1042.5
 46
0.0
 71
     7
 72
     1
  1
{\fＭＳ ゴシック|b0|i0|c128|p49;上吊軸固定/フリーオープン}
 73
     1
 44
1.0
  0
MTEXT
  5
A8
330
1F
100
AcDbEntity
  8
0-A_文字
  6
Continuous
 62
     7
370
     5
100
AcDbMText
 10
-2728.614598207325
 20
3310.354341386575
 30
0.0
 40
100.584
 41
660.0
 46
0.0
 71
     7
 72
     1
  1
{\fＭＳ ゴシック|b0|i0|c128|p49;■横断面図}
 73
     1
 44
1.0
  0
LINE
  5
A9
330
1F
100
AcDbEntity
  8
0-0_補助線
  6
JWW_HOJO
 62
     7
370
     5
100
AcDbLine
 10
9.918542843317937
 20
1086.944295403167
 30
0.0
 11
9.918542843317937
 21
3321.944295403169
 31
0.0
  0
LINE
  5
AA
330
1F
100
AcDbEntity
  8
0-0_補助線
  6
JWW_HOJO
 62
   120
370
     5
100
AcDbLine
 10
-2762.081259204825
 20
1266.944295403167
 30
0.0
 11
-2762.081259204825
 21
3141.944295403169
 31
0.0
  0
LINE
  5
AB
330
1F
100
AcDbEntity
  8
0-0_補助線
  6
JWW_HOJO
 62
   120
370
     5
100
AcDbLine
 10
2781.918344891463
 20
1266.944295403167
 30
0.0
 11
2781.918344891463
 21
3141.944295403169
 31
0.0
  0
LINE
  5
AC
330
1F
100
AcDbEntity
  8
0-0_補助線
  6
JWW_HOJO
 62
   120
370
     5
100
AcDbLine
 10
2781.918344891463
 20
2781.944295403169
 30
0.0
 11
-2762.081259204825
 21
2781.944295403169
 31
0.0
  0
LINE
  5
AD
330
1F
100
AcDbEntity
  8
0-0_補助線
  6
JWW_HOJO
 62
   120
370
     5
100
AcDbLine
 10
2781.918344891463
 20
1626.944295403167
 30
0.0
 11
-2762.081259204825
 21
1626.944295403167
 31
0.0
  0
LINE
  5
AE
330
1F
100
AcDbEntity
  8
0-0_補助線
  6
JWW_HOJO
 62
   120
370
     5
100
AcDbLine
 10
2781.918344891463
 20
1446.944295403167
 30
0.0
 11
-2762.081259204825
 21
1446.944295403167
 31
0.0
  0
LINE
  5
AF
330
1F
100
AcDbEntity
  8
0-0_補助線
  6
JWW_HOJO
 62
   120
370
     5
100
AcDbLine
 10
2781.918344891463
 20
1266.944295403167
 30
0.0
 11
-2762.081259204825
 21
1266.944295403167
 31
0.0
  0
LINE
  5
B0
330
1F
100
AcDbEntity
  8
0-0_補助線
  6
JWW_HOJO
 62
   120
370
     5
100
AcDbLine
 10
2781.918344891463
 20
3141.944295403169
 30
0.0
 11
-2762.081259204825
 21
3141.944295403169
 31
0.0
  0
LINE
  5
B1
330
1F
100
AcDbEntity
  8
0-0_補助線
  6
JWW_HOJO
 62
   120
370
     5
100
AcDbLine
 10
2781.918344891463
 20
2961.944295403169
 30
0.0
 11
-2762.081259204825
 21
2961.944295403169
 31
0.0
  0
LINE
  5
B2
330
1F
100
AcDbEntity
  8
0-0_補助線
  6
JWW_HOJO
 62
     7
370
     5
100
AcDbLine
 10
-1982.081457156683
 20
1086.944295403167
 30
0.0
 11
-1982.081457156683
 21
3321.944295403169
 31
0.0
  0
LINE
  5
B3
330
1F
100
AcDbEntity
  8
0-0_補助線
  6
JWW_HOJO
 62
     7
370
     5
100
AcDbLine
 10
2001.918542843317
 20
1086.944295403167
 30
0.0
 11
2001.918542843317
 21
3321.944295403169
 31
0.0
  0
LINE
  5
B4
330
1F
100
AcDbEntity
  8
0-1_通り芯
  6
JWW_CENTER1
 62
   120
370
     5
100
AcDbLine
 10
2781.918344891463
 20
2361.944295403169
 30
0.0
 11
-2762.081259204825
 21
2361.944295403169
 31
0.0
  0
LINE
  5
B5
330
1F
100
AcDbEntity
  8
0-C_ハッチ
  6
Continuous
 62
   120
370
     5
100
AcDbLine
 10
-2162.081457156697
 20
2565.454831057835
 30
0.0
 11
-2110.591992811357
 21
2616.944295403177
 31
0.0
  0
LINE
  5
B6
330
1F
100
AcDbEntity
  8
0-C_ハッチ
  6
Continuous
 62
   120
370
     5
100
AcDbLine
 10
-2162.081457156682
 20
2506.057861438204
 30
0.0
 11
-2051.195023191729
 21
2616.944295403158
 31
0.0
  0
LINE
  5
B7
330
1F
100
AcDbEntity
  8
0-C_ハッチ
  6
Continuous
 62
   120
370
     5
100
AcDbLine
 10
-2162.081457156692
 20
2446.660891818492
 30
0.0
 11
-1995.939755364349
 21
2612.802593610836
 31
0.0
  0
LINE
  5
B8
330
1F
100
AcDbEntity
  8
0-C_ハッチ
  6
Continuous
 62
   120
370
     5
100
AcDbLine
 10
-2162.081457156678
 20
2387.263922198858
 30
0.0
 11
-1982.081457156681
 21
2567.263922198855
 31
0.0
  0
LINE
  5
B9
330
1F
100
AcDbEntity
  8
0-C_ハッチ
  6
Continuous
 62
   120
370
     5
100
AcDbLine
 10
-2162.081457156687
 20
2327.86695257915
 30
0.0
 11
-1982.081457156695
 21
2507.866952579139
 31
0.0
  0
LINE
  5
BA
330
1F
100
AcDbEntity
  8
0-C_ハッチ
  6
Continuous
 62
   120
370
     5
100
AcDbLine
 10
-2162.081457156682
 20
2268.469982959506
 30
0.0
 11
-2012.983440397436
 21
2417.567999718752
 31
0.0
  0
LINE
  5
BB
330
1F
100
AcDbEntity
  8
0-C_ハッチ
  6
Continuous
 62
   120
370
     5
100
AcDbLine
 10
-2162.081457156676
 20
2209.073013339862
 30
0.0
 11
-2017.956436377856
 21
2353.198034118685
 31
0.0
  0
LINE
  5
BC
330
1F
100
AcDbEntity
  8
0-C_ハッチ
  6
Continuous
 62
   120
370
     5
100
AcDbLine
 10
-2162.081457156692
 20
2149.676043720146
 30
0.0
 11
-2011.748061293049
 21
2300.00943958379
 31
0.0
  0
LINE
  5
BD
330
1F
100
AcDbEntity
  8
0-C_ハッチ
  6
Continuous
 62
   120
370
     5
100
AcDbLine
 10
-2145.41623585402
 20
2106.944295403171
 30
0.0
 11
-1998.396447750558
 21
2253.964083506633
 31
0.0
  0
LINE
  5
BE
330
1F
100
AcDbEntity
  8
0-C_ハッチ
  6
Continuous
 62
   120
370
     5
100
AcDbLine
 10
-2086.01926623432
 20
2106.944295403171
 30
0.0
 11
-1982.081457156685
 21
2210.882104480805
 31
0.0
  0
LINE
  5
BF
330
1F
100
AcDbEntity
  8
0-C_ハッチ
  6
Continuous
 62
   120
370
     5
100
AcDbLine
 10
-2026.622296614681
 20
2106.944295403164
 30
0.0
 11
-1982.081457156688
 21
2151.485134861155
 31
0.0
  0
ARC
  5
C0
330
1F
100
AcDbEntity
  8
0-4_枠
  6
Continuous
 62
    92
370
     5
100
AcDbCircle
 10
-1712.081457156681
 20
2361.944295403169
 30
0.0
 40
306.0000000000022
100
AcDbArc
 50
151.9275130641473
 51
208.0724869358527
  0
LINE
  5
C1
330
1F
100
AcDbEntity
  8
0-4_枠
  6
Continuous
 62
    92
370
     5
100
AcDbLine
 10
-1982.081457156683
 20
2505.944295403169
 30
0.0
 11
-1982.081457156683
 21
2598.944295403167
 31
0.0
  0
LINE
  5
C2
330
1F
100
AcDbEntity
  8
0-4_枠
  6
Continuous
 62
    92
370
     5
100
AcDbLine
 10
-1982.081457156683
 20
2124.944295403168
 30
0.0
 11
-1982.081457156683
 21
2217.944295403168
 31
0.0
  0
LINE
  5
C3
330
1F
100
AcDbEntity
  8
0-4_枠
  6
Continuous
 62
    92
370
     5
100
AcDbLine
 10
-1982.081457156683
 20
2124.944295403168
 30
0.0
 11
-2000.081457156682
 21
2106.944295403167
 31
0.0
  0
LINE
  5
C4
330
1F
100
AcDbEntity
  8
0-4_枠
  6
Continuous
 62
    92
370
     5
100
AcDbLine
 10
-2000.081457156682
 20
2106.944295403167
 30
0.0
 11
-2162.081457156683
 21
2106.944295403167
 31
0.0
  0
LINE
  5
C5
330
1F
100
AcDbEntity
  8
0-4_枠
  6
Continuous
 62
    92
370
     5
100
AcDbLine
 10
-2000.081457156682
 20
2616.944295403169
 30
0.0
 11
-1982.081457156683
 21
2598.944295403167
 31
0.0
  0
LINE
  5
C6
330
1F
100
AcDbEntity
  8
0-4_枠
  6
Continuous
 62
    92
370
     5
100
AcDbLine
 10
-2000.081457156682
 20
2616.944295403169
 30
0.0
 11
-2162.081457156683
 21
2616.944295403169
 31
0.0
  0
LINE
  5
C7
330
1F
100
AcDbEntity
  8
0-4_枠
  6
Continuous
 62
    92
370
     5
100
AcDbLine
 10
-2162.081457156683
 20
2106.944295403167
 30
0.0
 11
-2162.081457156683
 21
2616.944295403169
 31
0.0
  0
LINE
  5
C8
330
1F
100
AcDbEntity
  8
0-0_補助線
  6
Continuous
 62
   120
370
     5
100
AcDbLine
 10
-1982.081457156683
 20
2324.358345110707
 30
0.0
 11
-1997.081457156683
 21
2324.358345110707
 31
0.0
  0
LWPOLYLINE
  5
C9
330
1F
100
AcDbEntity
  8
0-0_補助線
  6
Continuous
 62
     7
370
     5
100
AcDbPolyline
 90
        4
 70
     1
 43
3.0
 10
-1980.581457156683
 20
2324.358345110707
 42
0.4142135623731
 10
-1982.081457156683
 20
2325.858345110707
 42
0.4142135623731
 10
-1983.581457156683
 20
2324.358345110707
 42
0.4142135623731
 10
-1982.081457156683
 20
2322.858345110707
 42
0.4142135623731
  0
LWPOLYLINE
  5
CA
330
1F
100
AcDbEntity
  8
0-0_補助線
  6
Continuous
 62
     7
370
     5
100
AcDbPolyline
 90
        4
 70
     1
 43
3.0
 10
-1995.581457156683
 20
2324.358345110707
 42
0.4142135623731
 10
-1997.081457156683
 20
2325.858345110707
 42
0.4142135623731
 10
-1998.581457156683
 20
2324.358345110707
 42
0.4142135623731
 10
-1997.081457156683
 20
2322.858345110707
 42
0.4142135623731
  0
LINE
  5
CB
330
1F
100
AcDbEntity
  8
0-0_補助線
  6
Continuous
 62
   120
370
     5
100
AcDbLine
 10
-1982.081457156683
 20
2324.358345110707
 30
0.0
 11
-1982.081457156683
 21
2405.687608333893
 31
0.0
  0
LINE
  5
CC
330
1F
100
AcDbEntity
  8
0-0_補助線
  6
Continuous
 62
   120
370
     5
100
AcDbLine
 10
-1997.081457156683
 20
2324.358345110707
 30
0.0
 11
-1997.081457156683
 21
2405.687608333893
 31
0.0
  0
LINE
  5
CD
330
1F
100
AcDbEntity
  8
0-0_補助線
  6
Continuous
 62
   120
370
     5
100
AcDbLine
 10
-1997.081457156683
 20
2324.358345110707
 30
0.0
 11
-2018.081457156683
 21
2324.358345110707
 31
0.0
  0
LWPOLYLINE
  5
CE
330
1F
100
AcDbEntity
  8
0-0_補助線
  6
Continuous
 62
     7
370
     5
100
AcDbPolyline
 90
        4
 70
     1
 43
3.0
 10
-2016.581457156683
 20
2324.358345110707
 42
0.4142135623731
 10
-2018.081457156683
 20
2325.858345110707
 42
0.4142135623731
 10
-2019.581457156683
 20
2324.358345110707
 42
0.4142135623731
 10
-2018.081457156683
 20
2322.858345110707
 42
0.4142135623731
  0
LINE
  5
CF
330
1F
100
AcDbEntity
  8
0-0_補助線
  6
Continuous
 62
   120
370
     5
100
AcDbLine
 10
-2018.081457156683
 20
2324.358345110707
 30
0.0
 11
-2018.081457156683
 21
2405.687608333893
 31
0.0
  0
MTEXT
  5
D0
330
1F
100
AcDbEntity
  8
0-0_補助線
  6
Continuous
 62
     7
370
   211
100
AcDbMText
 10
-1971.695002244333
 20
2325.078345110706
 30
0.0
 40
91.44
 41
180.0
 46
0.0
 71
     7
 72
     1
  1
{\fＭＳ ゴシック|b0|i0|c128|p49;2.5}
 73
     1
 44
1.0
  0
LINE
  5
D1
330
1F
100
AcDbEntity
  8
0-C_ハッチ
  6
Continuous
 62
   120
370
     5
100
AcDbLine
 10
2001.918542843302
 20
2547.830729368098
 30
0.0
 11
2071.032108878376
 21
2616.944295403173
 31
0.0
  0
LINE
  5
D2
330
1F
100
AcDbEntity
  8
0-C_ハッチ
  6
Continuous
 62
   120
370
     5
100
AcDbLine
 10
2007.804115963677
 20
2494.319332868827
 30
0.0
 11
2130.429078498012
 21
2616.94429540316
 31
0.0
  0
LINE
  5
D3
330
1F
100
AcDbEntity
  8
0-C_ハッチ
  6
Continuous
 62
   120
370
     5
100
AcDbLine
 10
2024.48780002117
 20
2451.606047306619
 30
0.0
 11
2181.91854284331
 21
2609.036790128757
 31
0.0
  0
LINE
  5
D4
330
1F
100
AcDbEntity
  8
0-C_ハッチ
  6
Continuous
 62
   120
370
     5
100
AcDbLine
 10
2035.166947047865
 20
2402.888224713666
 30
0.0
 11
2181.918542843329
 21
2549.63982050913
 31
0.0
  0
LINE
  5
D5
330
1F
100
AcDbEntity
  8
0-C_ハッチ
  6
Continuous
 62
   120
370
     5
100
AcDbLine
 10
2037.493296102093
 20
2345.817604148247
 30
0.0
 11
2181.918542843321
 21
2490.242850889473
 31
0.0
  0
LINE
  5
D6
330
1F
100
AcDbEntity
  8
0-C_ハッチ
  6
Continuous
 62
   120
370
     5
100
AcDbLine
 10
2024.981162136178
 20
2273.90850056263
 30
0.0
 11
2181.918542843305
 21
2430.845881269757
 31
0.0
  0
LINE
  5
D7
330
1F
100
AcDbEntity
  8
0-C_ハッチ
  6
Continuous
 62
   120
370
     5
100
AcDbLine
 10
2001.918542843319
 20
2191.448911650123
 30
0.0
 11
2181.918542843319
 21
2371.448911650121
 31
0.0
  0
LINE
  5
D8
330
1F
100
AcDbEntity
  8
0-C_ハッチ
  6
Continuous
 62
   120
370
     5
100
AcDbLine
 10
2001.918542843307
 20
2132.051942030408
 30
0.0
 11
2181.91854284331
 21
2312.051942030412
 31
0.0
  0
LINE
  5
D9
330
1F
100
AcDbEntity
  8
0-C_ハッチ
  6
Continuous
 62
   120
370
     5
100
AcDbLine
 10
2036.20786583572
 20
2106.944295403174
 30
0.0
 11
2181.918542843321
 21
2252.654972410774
 31
0.0
  0
LINE
  5
DA
330
1F
100
AcDbEntity
  8
0-C_ハッチ
  6
Continuous
 62
   120
370
     5
100
AcDbLine
 10
2095.604835455411
 20
2106.944295403164
 30
0.0
 11
2181.918542843316
 21
2193.258002791069
 31
0.0
  0
LINE
  5
DB
330
1F
100
AcDbEntity
  8
0-C_ハッチ
  6
Continuous
 62
   120
370
     5
100
AcDbLine
 10
2155.001805075072
 20
2106.944295403177
 30
0.0
 11
2181.918542843305
 21
2133.861033171411
 31
0.0
  0
ARC
  5
DC
330
1F
100
AcDbEntity
  8
0-4_枠
  6
Continuous
 62
    92
370
     5
100
AcDbCircle
 10
1731.918542843314
 20
2361.944295403169
 30
0.0
 40
306.0000000000022
100
AcDbArc
 50
331.9275130641473
 51
28.07248693585271
  0
LINE
  5
DD
330
1F
100
AcDbEntity
  8
0-4_枠
  6
Continuous
 62
    92
370
     5
100
AcDbLine
 10
2001.918542843317
 20
2505.944295403169
 30
0.0
 11
2001.918542843317
 21
2598.944295403167
 31
0.0
  0
LINE
  5
DE
330
1F
100
AcDbEntity
  8
0-4_枠
  6
Continuous
 62
    92
370
     5
100
AcDbLine
 10
2001.918542843317
 20
2124.944295403168
 30
0.0
 11
2001.918542843317
 21
2217.944295403168
 31
0.0
  0
LINE
  5
DF
330
1F
100
AcDbEntity
  8
0-4_枠
  6
Continuous
 62
    92
370
     5
100
AcDbLine
 10
2001.918542843317
 20
2124.944295403168
 30
0.0
 11
2019.918542843316
 21
2106.944295403167
 31
0.0
  0
LINE
  5
E0
330
1F
100
AcDbEntity
  8
0-4_枠
  6
Continuous
 62
    92
370
     5
100
AcDbLine
 10
2019.918542843316
 20
2106.944295403167
 30
0.0
 11
2181.918542843317
 21
2106.944295403167
 31
0.0
  0
LINE
  5
E1
330
1F
100
AcDbEntity
  8
0-4_枠
  6
Continuous
 62
    92
370
     5
100
AcDbLine
 10
2019.918542843316
 20
2616.944295403169
 30
0.0
 11
2001.918542843317
 21
2598.944295403167
 31
0.0
  0
LINE
  5
E2
330
1F
100
AcDbEntity
  8
0-4_枠
  6
Continuous
 62
    92
370
     5
100
AcDbLine
 10
2019.918542843316
 20
2616.944295403169
 30
0.0
 11
2181.918542843317
 21
2616.944295403169
 31
0.0
  0
LINE
  5
E3
330
1F
100
AcDbEntity
  8
0-4_枠
  6
Continuous
 62
    92
370
     5
100
AcDbLine
 10
2181.918542843317
 20
2106.944295403167
 30
0.0
 11
2181.918542843317
 21
2616.944295403169
 31
0.0
  0
LINE
  5
E4
330
1F
100
AcDbEntity
  8
0-7_金物
  6
Continuous
 62
     7
370
     5
100
AcDbLine
 10
2199.918206325158
 20
2271.944369635115
 30
0.0
 11
2199.918206325158
 21
2451.94422117122
 31
0.0
  0
LINE
  5
E5
330
1F
100
AcDbEntity
  8
0-7_金物
  6
Continuous
 62
     7
370
     5
100
AcDbLine
 10
2211.918542843317
 20
2451.94422117122
 30
0.0
 11
2199.918206325158
 21
2451.94422117122
 31
0.0
  0
LINE
  5
E6
330
1F
100
AcDbEntity
  8
0-7_金物
  6
Continuous
 62
     7
370
     5
100
AcDbLine
 10
2211.918542843317
 20
2271.944369635115
 30
0.0
 11
2199.918206325158
 21
2271.944369635115
 31
0.0
  0
LINE
  5
E7
330
1F
100
AcDbEntity
  8
0-7_金物
  6
Continuous
 62
     7
370
     5
100
AcDbLine
 10
2199.918206325158
 20
2301.944468611042
 30
0.0
 11
2187.918612126467
 21
2301.944468611042
 31
0.0
  0
LINE
  5
E8
330
1F
100
AcDbEntity
  8
0-7_金物
  6
Continuous
 62
     7
370
     5
100
AcDbLine
 10
2199.918206325158
 20
2421.944122195292
 30
0.0
 11
2187.918612126467
 21
2421.944122195292
 31
0.0
  0
LINE
  5
E9
330
1F
100
AcDbEntity
  8
0-7_金物
  6
Continuous
 62
     7
370
     5
100
AcDbLine
 10
2187.918612126467
 20
2301.944468611042
 30
0.0
 11
2187.918612126467
 21
2421.944122195292
 31
0.0
  0
LINE
  5
EA
330
1F
100
AcDbEntity
  8
0-7_金物
  6
Continuous
 62
     7
370
     5
100
AcDbLine
 10
2187.918612126467
 20
2415.944696255679
 30
0.0
 11
2181.918542843317
 21
2415.944696255679
 31
0.0
  0
LINE
  5
EB
330
1F
100
AcDbEntity
  8
0-7_金物
  6
Continuous
 62
     7
370
     5
100
AcDbLine
 10
2187.918612126467
 20
2307.944636870123
 30
0.0
 11
2181.918542843317
 21
2307.944636870123
 31
0.0
  0
LINE
  5
EC
330
1F
100
AcDbEntity
  8
0-7_金物
  6
Continuous
 62
     7
370
     5
100
AcDbLine
 10
2211.918542843317
 20
2271.944369635115
 30
0.0
 11
2211.918542843317
 21
2451.94422117122
 31
0.0
  0
LINE
  5
ED
330
1F
100
AcDbEntity
  8
0-3_仕上げ
  6
Continuous
 62
    40
370
     5
100
AcDbLine
 10
2181.918542843317
 20
2178.944295403169
 30
0.0
 11
2781.918344891463
 21
2178.944295403169
 31
0.0
  0
LINE
  5
EE
330
1F
100
AcDbEntity
  8
0-3_仕上げ
  6
Continuous
 62
    40
370
     5
100
AcDbLine
 10
2181.918542843317
 20
2253.944295403169
 30
0.0
 11
2781.918344891463
 21
2253.944295403169
 31
0.0
  0
LINE
  5
EF
330
1F
100
AcDbEntity
  8
0-C_ハッチ
  6
JWW_DASHED1
 62
   120
370
     5
100
AcDbLine
 10
2769.898607050266
 20
2178.944295403174
 30
0.0
 11
2781.918344891456
 21
2190.964033244363
 31
0.0
  0
LINE
  5
F0
330
1F
100
AcDbEntity
  8
0-C_ハッチ
  6
JWW_DASHED1
 62
   120
370
     5
100
AcDbLine
 10
2727.47220017907
 20
2178.94429540318
 30
0.0
 11
2781.918344891446
 21
2233.390440115556
 31
0.0
  0
LINE
  5
F1
330
1F
100
AcDbEntity
  8
0-C_ハッチ
  6
JWW_DASHED1
 62
   120
370
     5
100
AcDbLine
 10
2685.045793307873
 20
2178.944295403183
 30
0.0
 11
2760.045793307885
 21
2253.944295403194
 31
0.0
  0
LINE
  5
F2
330
1F
100
AcDbEntity
  8
0-C_ハッチ
  6
JWW_DASHED1
 62
   120
370
     5
100
AcDbLine
 10
2642.619386436665
 20
2178.944295403174
 30
0.0
 11
2717.619386436658
 21
2253.944295403167
 31
0.0
  0
LINE
  5
F3
330
1F
100
AcDbEntity
  8
0-C_ハッチ
  6
JWW_DASHED1
 62
   120
370
     5
100
AcDbLine
 10
2600.192979565465
 20
2178.944295403174
 30
0.0
 11
2675.192979565461
 21
2253.944295403169
 31
0.0
  0
LINE
  5
F4
330
1F
100
AcDbEntity
  8
0-C_ハッチ
  6
JWW_DASHED1
 62
   120
370
     5
100
AcDbLine
 10
2557.766572694269
 20
2178.944295403177
 30
0.0
 11
2632.766572694264
 21
2253.944295403173
 31
0.0
  0
LINE
  5
F5
330
1F
100
AcDbEntity
  8
0-C_ハッチ
  6
JWW_DASHED1
 62
   120
370
     5
100
AcDbLine
 10
2515.340165823131
 20
2178.944295403187
 30
0.0
 11
2590.340165823126
 21
2253.94429540318
 31
0.0
  0
LINE
  5
F6
330
1F
100
AcDbEntity
  8
0-C_ハッチ
  6
JWW_DASHED1
 62
   120
370
     5
100
AcDbLine
 10
2472.913758951936
 20
2178.94429540319
 30
0.0
 11
2547.913758951931
 21
2253.944295403185
 31
0.0
  0
LINE
  5
F7
330
1F
100
AcDbEntity
  8
0-C_ハッチ
  6
JWW_DASHED1
 62
   120
370
     5
100
AcDbLine
 10
2430.487352080723
 20
2178.944295403177
 30
0.0
 11
2505.487352080734
 21
2253.944295403188
 31
0.0
  0
LINE
  5
F8
330
1F
100
AcDbEntity
  8
0-C_ハッチ
  6
JWW_DASHED1
 62
   120
370
     5
100
AcDbLine
 10
2388.060945209526
 20
2178.94429540318
 30
0.0
 11
2463.060945209538
 21
2253.94429540319
 31
0.0
  0
LINE
  5
F9
330
1F
100
AcDbEntity
  8
0-C_ハッチ
  6
JWW_DASHED1
 62
   120
370
     5
100
AcDbLine
 10
2345.634538338331
 20
2178.944295403185
 30
0.0
 11
2420.634538338326
 21
2253.94429540318
 31
0.0
  0
LINE
  5
FA
330
1F
100
AcDbEntity
  8
0-C_ハッチ
  6
JWW_DASHED1
 62
   120
370
     5
100
AcDbLine
 10
2303.208131467119
 20
2178.944295403173
 30
0.0
 11
2378.208131467114
 21
2253.944295403167
 31
0.0
  0
LINE
  5
FB
330
1F
100
AcDbEntity
  8
0-C_ハッチ
  6
JWW_DASHED1
 62
   120
370
     5
100
AcDbLine
 10
2260.781724595922
 20
2178.944295403176
 30
0.0
 11
2335.781724595917
 21
2253.944295403172
 31
0.0
  0
LINE
  5
FC
330
1F
100
AcDbEntity
  8
0-C_ハッチ
  6
JWW_DASHED1
 62
   120
370
     5
100
AcDbLine
 10
2218.355317724726
 20
2178.94429540318
 30
0.0
 11
2293.35531772472
 21
2253.944295403176
 31
0.0
  0
LINE
  5
FD
330
1F
100
AcDbEntity
  8
0-C_ハッチ
  6
JWW_DASHED1
 62
   120
370
     5
100
AcDbLine
 10
2181.9185428433
 20
2184.933927392899
 30
0.0
 11
2250.928910853584
 21
2253.944295403183
 31
0.0
  0
LINE
  5
FE
330
1F
100
AcDbEntity
  8
0-C_ハッチ
  6
JWW_DASHED1
 62
   120
370
     5
100
AcDbLine
 10
2181.918542843304
 20
2227.360334264104
 30
0.0
 11
2208.502503982387
 21
2253.944295403187
 31
0.0
  0
LINE
  5
FF
330
1F
100
AcDbEntity
  8
0-3_仕上げ
  6
Continuous
 62
    40
370
     5
100
AcDbLine
 10
-2762.081259204811
 20
2178.944295403169
 30
0.0
 11
-2162.081457156666
 21
2178.944295403169
 31
0.0
  0
LINE
  5
100
330
1F
100
AcDbEntity
  8
0-3_仕上げ
  6
Continuous
 62
    40
370
     5
100
AcDbLine
 10
-2762.081259204811
 20
2253.944295403169
 30
0.0
 11
-2162.081457156666
 21
2253.944295403169
 31
0.0
  0
LINE
  5
101
330
1F
100
AcDbEntity
  8
0-C_ハッチ
  6
JWW_DASHED1
 62
   120
370
     5
100
AcDbLine
 10
-2174.101194997863
 20
2178.944295403174
 30
0.0
 11
-2162.081457156674
 21
2190.964033244363
 31
0.0
  0
LINE
  5
102
330
1F
100
AcDbEntity
  8
0-C_ハッチ
  6
JWW_DASHED1
 62
   120
370
     5
100
AcDbLine
 10
-2216.52760186906
 20
2178.94429540318
 30
0.0
 11
-2162.081457156683
 21
2233.390440115556
 31
0.0
  0
LINE
  5
103
330
1F
100
AcDbEntity
  8
0-C_ハッチ
  6
JWW_DASHED1
 62
   120
370
     5
100
AcDbLine
 10
-2258.954008740256
 20
2178.944295403183
 30
0.0
 11
-2183.954008740244
 21
2253.944295403194
 31
0.0
  0
LINE
  5
104
330
1F
100
AcDbEntity
  8
0-C_ハッチ
  6
JWW_DASHED1
 62
   120
370
     5
100
AcDbLine
 10
-2301.380415611465
 20
2178.944295403174
 30
0.0
 11
-2226.380415611471
 21
2253.944295403167
 31
0.0
  0
LINE
  5
105
330
1F
100
AcDbEntity
  8
0-C_ハッチ
  6
JWW_DASHED1
 62
   120
370
     5
100
AcDbLine
 10
-2343.806822482665
 20
2178.944295403174
 30
0.0
 11
-2268.806822482668
 21
2253.944295403169
 31
0.0
  0
LINE
  5
106
330
1F
100
AcDbEntity
  8
0-C_ハッチ
  6
JWW_DASHED1
 62
   120
370
     5
100
AcDbLine
 10
-2386.23322935386
 20
2178.944295403177
 30
0.0
 11
-2311.233229353865
 21
2253.944295403173
 31
0.0
  0
LINE
  5
107
330
1F
100
AcDbEntity
  8
0-C_ハッチ
  6
JWW_DASHED1
 62
   120
370
     5
100
AcDbLine
 10
-2428.659636224998
 20
2178.944295403187
 30
0.0
 11
-2353.659636225003
 21
2253.94429540318
 31
0.0
  0
LINE
  5
108
330
1F
100
AcDbEntity
  8
0-C_ハッチ
  6
JWW_DASHED1
 62
   120
370
     5
100
AcDbLine
 10
-2471.086043096193
 20
2178.94429540319
 30
0.0
 11
-2396.086043096198
 21
2253.944295403185
 31
0.0
  0
LINE
  5
109
330
1F
100
AcDbEntity
  8
0-C_ハッチ
  6
JWW_DASHED1
 62
   120
370
     5
100
AcDbLine
 10
-2513.512449967407
 20
2178.944295403177
 30
0.0
 11
-2438.512449967397
 21
2253.944295403188
 31
0.0
  0
LINE
  5
10A
330
1F
100
AcDbEntity
  8
0-C_ハッチ
  6
JWW_DASHED1
 62
   120
370
     5
100
AcDbLine
 10
-2555.938856838603
 20
2178.94429540318
 30
0.0
 11
-2480.938856838592
 21
2253.94429540319
 31
0.0
  0
LINE
  5
10B
330
1F
100
AcDbEntity
  8
0-C_ハッチ
  6
JWW_DASHED1
 62
   120
370
     5
100
AcDbLine
 10
-2598.365263709798
 20
2178.944295403185
 30
0.0
 11
-2523.365263709803
 21
2253.94429540318
 31
0.0
  0
LINE
  5
10C
330
1F
100
AcDbEntity
  8
0-C_ハッチ
  6
JWW_DASHED1
 62
   120
370
     5
100
AcDbLine
 10
-2640.79167058101
 20
2178.944295403173
 30
0.0
 11
-2565.791670581017
 21
2253.944295403167
 31
0.0
  0
LINE
  5
10D
330
1F
100
AcDbEntity
  8
0-C_ハッチ
  6
JWW_DASHED1
 62
   120
370
     5
100
AcDbLine
 10
-2683.218077452207
 20
2178.944295403176
 30
0.0
 11
-2608.218077452212
 21
2253.944295403172
 31
0.0
  0
LINE
  5
10E
330
1F
100
AcDbEntity
  8
0-C_ハッチ
  6
JWW_DASHED1
 62
   120
370
     5
100
AcDbLine
 10
-2725.644484323403
 20
2178.94429540318
 30
0.0
 11
-2650.644484323409
 21
2253.944295403176
 31
0.0
  0
LINE
  5
10F
330
1F
100
AcDbEntity
  8
0-C_ハッチ
  6
JWW_DASHED1
 62
   120
370
     5
100
AcDbLine
 10
-2762.081259204829
 20
2184.933927392899
 30
0.0
 11
-2693.070891194545
 21
2253.944295403183
 31
0.0
  0
LINE
  5
110
330
1F
100
AcDbEntity
  8
0-C_ハッチ
  6
JWW_DASHED1
 62
   120
370
     5
100
AcDbLine
 10
-2762.081259204825
 20
2227.360334264104
 30
0.0
 11
-2735.497298065742
 21
2253.944295403187
 31
0.0
  0
LINE
  5
111
330
1F
100
AcDbEntity
  8
0-7_金物
  6
Continuous
 62
     7
370
     5
100
AcDbLine
 10
-2180.081120638525
 20
2271.944369635115
 30
0.0
 11
-2180.081120638525
 21
2451.94422117122
 31
0.0
  0
LINE
  5
112
330
1F
100
AcDbEntity
  8
0-7_金物
  6
Continuous
 62
     7
370
     5
100
AcDbLine
 10
-2192.081457156683
 20
2451.94422117122
 30
0.0
 11
-2180.081120638525
 21
2451.94422117122
 31
0.0
  0
LINE
  5
113
330
1F
100
AcDbEntity
  8
0-7_金物
  6
Continuous
 62
     7
370
     5
100
AcDbLine
 10
-2192.081457156683
 20
2271.944369635115
 30
0.0
 11
-2180.081120638525
 21
2271.944369635115
 31
0.0
  0
LINE
  5
114
330
1F
100
AcDbEntity
  8
0-7_金物
  6
Continuous
 62
     7
370
     5
100
AcDbLine
 10
-2180.081120638525
 20
2301.944468611042
 30
0.0
 11
-2168.081526439833
 21
2301.944468611042
 31
0.0
  0
LINE
  5
115
330
1F
100
AcDbEntity
  8
0-7_金物
  6
Continuous
 62
     7
370
     5
100
AcDbLine
 10
-2180.081120638525
 20
2421.944122195292
 30
0.0
 11
-2168.081526439833
 21
2421.944122195292
 31
0.0
  0
LINE
  5
116
330
1F
100
AcDbEntity
  8
0-7_金物
  6
Continuous
 62
     7
370
     5
100
AcDbLine
 10
-2168.081526439833
 20
2301.944468611042
 30
0.0
 11
-2168.081526439833
 21
2421.944122195292
 31
0.0
  0
LINE
  5
117
330
1F
100
AcDbEntity
  8
0-7_金物
  6
Continuous
 62
     7
370
     5
100
AcDbLine
 10
-2168.081526439833
 20
2415.944696255679
 30
0.0
 11
-2162.081457156683
 21
2415.944696255679
 31
0.0
  0
LINE
  5
118
330
1F
100
AcDbEntity
  8
0-7_金物
  6
Continuous
 62
     7
370
     5
100
AcDbLine
 10
-2168.081526439833
 20
2307.944636870123
 30
0.0
 11
-2162.081457156683
 21
2307.944636870123
 31
0.0
  0
LINE
  5
119
330
1F
100
AcDbEntity
  8
0-7_金物
  6
Continuous
 62
     7
370
     5
100
AcDbLine
 10
-2192.081457156683
 20
2271.944369635115
 30
0.0
 11
-2192.081457156683
 21
2451.94422117122
 31
0.0
  0
MTEXT
  5
11A
330
1F
100
AcDbEntity
  8
0-0_補助線
  6
Continuous
 62
     7
370
   211
100
AcDbMText
 10
-2175.486678848029
 20
2325.078345110706
 30
0.0
 40
91.44
 41
180.0
 46
0.0
 71
     7
 72
     1
  1
{\fＭＳ ゴシック|b0|i0|c128|p49;3.5}
 73
     1
 44
1.0
  0
LINE
  5
11B
330
1F
100
AcDbEntity
  8
0-B_寸法
  6
Continuous
 62
   120
370
     5
100
AcDbLine
 10
-1552.880129734931
 20
2616.944295403158
 30
0.0
 11
-1552.880129734931
 21
2106.944295403171
 31
0.0
  0
LWPOLYLINE
  5
11C
330
1F
100
AcDbEntity
  8
0-B_寸法
  6
Continuous
 62
     7
370
     5
100
AcDbPolyline
 90
        4
 70
     1
 43
3.0
 10
-1551.380129734932
 20
2616.944295403158
 42
0.4142135623731
 10
-1552.880129734931
 20
2618.444295403158
 42
0.4142135623731
 10
-1554.380129734931
 20
2616.944295403158
 42
0.4142135623731
 10
-1552.880129734931
 20
2615.444295403158
 42
0.4142135623731
  0
LWPOLYLINE
  5
11D
330
1F
100
AcDbEntity
  8
0-B_寸法
  6
Continuous
 62
     7
370
     5
100
AcDbPolyline
 90
        4
 70
     1
 43
3.0
 10
-1551.380129734932
 20
2106.944295403171
 42
0.4142135623731
 10
-1552.880129734931
 20
2108.444295403171
 42
0.4142135623731
 10
-1554.380129734931
 20
2106.944295403171
 42
0.4142135623731
 10
-1552.880129734931
 20
2105.444295403171
 42
0.4142135623731
  0
LINE
  5
11E
330
1F
100
AcDbEntity
  8
0-B_寸法
  6
Continuous
 62
   120
370
     5
100
AcDbLine
 10
-1552.880129734931
 20
2616.944295403158
 30
0.0
 11
-1671.655698516603
 21
2616.944295403158
 31
0.0
  0
LINE
  5
11F
330
1F
100
AcDbEntity
  8
0-B_寸法
  6
Continuous
 62
   120
370
     5
100
AcDbLine
 10
-1552.880129734931
 20
2106.944295403171
 30
0.0
 11
-1671.655698516603
 21
2106.944295403171
 31
0.0
  0
MTEXT
  5
120
330
1F
100
AcDbEntity
  8
0-B_寸法
  6
Continuous
 62
     7
370
   211
100
AcDbMText
 10
-1567.880129734931
 20
2287.664295403164
 30
0.0
 40
91.44
 41
120.0
 46
0.0
 71
     7
 72
     1
  1
{\fＭＳ ゴシック|b0|i0|c128|p49;85}
 11
6.123031769111886E-17
 21
1.0
 31
0.0
 73
     1
 44
1.0
  0
LINE
  5
121
330
1F
100
AcDbEntity
  8
0-0_補助線
  6
JWW_HOJO
 62
   120
370
     5
100
AcDbLine
 10
2781.918344891463
 20
1806.944295403167
 30
0.0
 11
-2762.081259204825
 21
1806.944295403167
 31
0.0
  0
LINE
  5
122
330
1F
100
AcDbEntity
  8
0-0_補助線
  6
JWW_HOJO
 62
   120
370
     5
100
AcDbLine
 10
2781.918344891463
 20
1986.944295403167
 30
0.0
 11
-2762.081259204825
 21
1986.944295403167
 31
0.0
  0
LINE
  5
123
330
1F
100
AcDbEntity
  8
0-B_寸法
  6
Continuous
 62
   120
370
     5
100
AcDbLine
 10
-2162.081457156683
 20
1446.944295403167
 30
0.0
 11
-1982.081457156683
 21
1446.944295403167
 31
0.0
  0
LWPOLYLINE
  5
124
330
1F
100
AcDbEntity
  8
0-B_寸法
  6
Continuous
 62
     7
370
     5
100
AcDbPolyline
 90
        4
 70
     1
 43
3.0
 10
-2160.581457156683
 20
1446.944295403167
 42
0.4142135623731
 10
-2162.081457156683
 20
1448.444295403167
 42
0.4142135623731
 10
-2163.581457156683
 20
1446.944295403167
 42
0.4142135623731
 10
-2162.081457156683
 20
1445.444295403167
 42
0.4142135623731
  0
LWPOLYLINE
  5
125
330
1F
100
AcDbEntity
  8
0-B_寸法
  6
Continuous
 62
     7
370
     5
100
AcDbPolyline
 90
        4
 70
     1
 43
3.0
 10
-1980.581457156683
 20
1446.944295403167
 42
0.4142135623731
 10
-1982.081457156683
 20
1448.444295403167
 42
0.4142135623731
 10
-1983.581457156683
 20
1446.944295403167
 42
0.4142135623731
 10
-1982.081457156683
 20
1445.444295403167
 42
0.4142135623731
  0
LINE
  5
126
330
1F
100
AcDbEntity
  8
0-B_寸法
  6
Continuous
 62
   120
370
     5
100
AcDbLine
 10
-2162.081457156683
 20
1446.944295403167
 30
0.0
 11
-2162.081457156683
 21
1806.944295403167
 31
0.0
  0
LINE
  5
127
330
1F
100
AcDbEntity
  8
0-B_寸法
  6
Continuous
 62
   120
370
     5
100
AcDbLine
 10
-1982.081457156683
 20
1446.944295403167
 30
0.0
 11
-1982.081457156683
 21
1806.944295403167
 31
0.0
  0
MTEXT
  5
128
330
1F
100
AcDbEntity
  8
0-B_寸法
  6
Continuous
 62
     7
370
   211
100
AcDbMText
 10
-2132.081457156683
 20
1447.664295403167
 30
0.0
 40
91.44
 41
120.0
 46
0.0
 71
     7
 72
     1
  1
{\fＭＳ ゴシック|b0|i0|c128|p49;30}
 73
     1
 44
1.0
  0
LINE
  5
129
330
1F
100
AcDbEntity
  8
0-B_寸法
  6
Continuous
 62
   120
370
     5
100
AcDbLine
 10
-1982.081457156683
 20
1446.944295403167
 30
0.0
 11
2001.918542843317
 21
1446.944295403167
 31
0.0
  0
LWPOLYLINE
  5
12A
330
1F
100
AcDbEntity
  8
0-B_寸法
  6
Continuous
 62
     7
370
     5
100
AcDbPolyline
 90
        4
 70
     1
 43
3.0
 10
2003.418542843317
 20
1446.944295403167
 42
0.4142135623731
 10
2001.918542843317
 20
1448.444295403167
 42
0.4142135623731
 10
2000.418542843317
 20
1446.944295403167
 42
0.4142135623731
 10
2001.918542843317
 20
1445.444295403167
 42
0.4142135623731
  0
LINE
  5
12B
330
1F
100
AcDbEntity
  8
0-B_寸法
  6
Continuous
 62
   120
370
     5
100
AcDbLine
 10
2001.918542843317
 20
1446.944295403167
 30
0.0
 11
2001.918542843317
 21
1806.944295403167
 31
0.0
  0
LINE
  5
12C
330
1F
100
AcDbEntity
  8
0-B_寸法
  6
Continuous
 62
   120
370
     5
100
AcDbLine
 10
2001.918542843317
 20
1446.944295403167
 30
0.0
 11
2181.918542843317
 21
1446.944295403167
 31
0.0
  0
LWPOLYLINE
  5
12D
330
1F
100
AcDbEntity
  8
0-B_寸法
  6
Continuous
 62
     7
370
     5
100
AcDbPolyline
 90
        4
 70
     1
 43
3.0
 10
2183.418542843317
 20
1446.944295403167
 42
0.4142135623731
 10
2181.918542843317
 20
1448.444295403167
 42
0.4142135623731
 10
2180.418542843317
 20
1446.944295403167
 42
0.4142135623731
 10
2181.918542843317
 20
1445.444295403167
 42
0.4142135623731
  0
LINE
  5
12E
330
1F
100
AcDbEntity
  8
0-B_寸法
  6
Continuous
 62
   120
370
     5
100
AcDbLine
 10
2181.918542843317
 20
1446.944295403167
 30
0.0
 11
2181.918542843317
 21
1806.944295403167
 31
0.0
  0
MTEXT
  5
12F
330
1F
100
AcDbEntity
  8
0-B_寸法
  6
Continuous
 62
     7
370
   211
100
AcDbMText
 10
2031.918542843317
 20
1447.664295403167
 30
0.0
 40
91.44
 41
120.0
 46
0.0
 71
     7
 72
     1
  1
{\fＭＳ ゴシック|b0|i0|c128|p49;30}
 73
     1
 44
1.0
  0
LINE
  5
130
330
1F
100
AcDbEntity
  8
0-B_寸法
  6
Continuous
 62
   120
370
     5
100
AcDbLine
 10
-2162.081457156683
 20
1266.944295403167
 30
0.0
 11
2181.918542843317
 21
1266.944295403167
 31
0.0
  0
LWPOLYLINE
  5
131
330
1F
100
AcDbEntity
  8
0-B_寸法
  6
Continuous
 62
     7
370
     5
100
AcDbPolyline
 90
        4
 70
     1
 43
3.0
 10
-2160.581457156683
 20
1266.944295403167
 42
0.4142135623731
 10
-2162.081457156683
 20
1268.444295403167
 42
0.4142135623731
 10
-2163.581457156683
 20
1266.944295403167
 42
0.4142135623731
 10
-2162.081457156683
 20
1265.444295403167
 42
0.4142135623731
  0
LWPOLYLINE
  5
132
330
1F
100
AcDbEntity
  8
0-B_寸法
  6
Continuous
 62
     7
370
     5
100
AcDbPolyline
 90
        4
 70
     1
 43
3.0
 10
2183.418542843317
 20
1266.944295403167
 42
0.4142135623731
 10
2181.918542843317
 20
1268.444295403167
 42
0.4142135623731
 10
2180.418542843317
 20
1266.944295403167
 42
0.4142135623731
 10
2181.918542843317
 20
1265.444295403167
 42
0.4142135623731
  0
LINE
  5
133
330
1F
100
AcDbEntity
  8
0-B_寸法
  6
Continuous
 62
   120
370
     5
100
AcDbLine
 10
-2162.081457156683
 20
1266.944295403167
 30
0.0
 11
-2162.081457156683
 21
1446.944295403167
 31
0.0
  0
LINE
  5
134
330
1F
100
AcDbEntity
  8
0-B_寸法
  6
Continuous
 62
   120
370
     5
100
AcDbLine
 10
2181.918542843317
 20
1266.944295403167
 30
0.0
 11
2181.918542843317
 21
1446.944295403167
 31
0.0
  0
LINE
  5
135
330
1F
100
AcDbEntity
  8
0-B_寸法
  6
Continuous
 62
   120
370
     5
100
AcDbLine
 10
-2192.081457156683
 20
3141.944295403169
 30
0.0
 11
2211.918542843317
 21
3141.944295403169
 31
0.0
  0
LWPOLYLINE
  5
136
330
1F
100
AcDbEntity
  8
0-B_寸法
  6
Continuous
 62
     7
370
     5
100
AcDbPolyline
 90
        4
 70
     1
 43
3.0
 10
-2190.581457156683
 20
3141.944295403169
 42
0.4142135623731
 10
-2192.081457156683
 20
3143.444295403169
 42
0.4142135623731
 10
-2193.581457156683
 20
3141.944295403169
 42
0.4142135623731
 10
-2192.081457156683
 20
3140.444295403169
 42
0.4142135623731
  0
LWPOLYLINE
  5
137
330
1F
100
AcDbEntity
  8
0-B_寸法
  6
Continuous
 62
     7
370
     5
100
AcDbPolyline
 90
        4
 70
     1
 43
3.0
 10
2213.418542843317
 20
3141.944295403169
 42
0.4142135623731
 10
2211.918542843317
 20
3143.444295403169
 42
0.4142135623731
 10
2210.418542843317
 20
3141.944295403169
 42
0.4142135623731
 10
2211.918542843317
 20
3140.444295403169
 42
0.4142135623731
  0
LINE
  5
138
330
1F
100
AcDbEntity
  8
0-B_寸法
  6
Continuous
 62
   120
370
     5
100
AcDbLine
 10
-2192.081457156683
 20
3141.944295403169
 30
0.0
 11
-2192.081457156683
 21
2781.944295403169
 31
0.0
  0
LINE
  5
139
330
1F
100
AcDbEntity
  8
0-B_寸法
  6
Continuous
 62
   120
370
     5
100
AcDbLine
 10
2211.918542843317
 20
3141.944295403169
 30
0.0
 11
2211.918542843317
 21
2781.944295403169
 31
0.0
  0
ARC
  5
13A
330
1F
100
AcDbEntity
  8
0-6_扉
  6
JWW_DASHED2
 62
    40
370
     5
100
AcDbCircle
 10
1720.835182732966
 20
2557.711669373348
 30
0.0
 40
18.0
100
AcDbArc
 50
85.6539792783598
 51
175.65397927836
  0
LINE
  5
13B
330
1F
100
AcDbEntity
  8
0-6_扉
  6
JWW_DASHED2
 62
    40
370
     5
100
AcDbLine
 10
1811.9404294352
 20
2568.839743030788
 30
0.0
 11
1722.19921651816
 21
2575.659911956755
 31
0.0
  0
ARC
  5
13C
330
1F
100
AcDbEntity
  8
0-6_扉
  6
JWW_DASHED2
 62
    40
370
     5
100
AcDbCircle
 10
1810.576395650005
 20
2550.891500447379
 30
0.0
 40
18.0
100
AcDbArc
 50
355.6539792783599
 51
85.6539792783597
  0
ARC
  5
13D
330
1F
100
AcDbEntity
  8
0-6_扉
  6
JWW_DASHED2
 62
    40
370
     5
100
AcDbCircle
 10
1377.607998343765
 20
2557.711669373351
 30
0.0
 40
18.0
100
AcDbArc
 50
4.346020721638975
 51
94.34602072163908
  0
LINE
  5
13E
330
1F
100
AcDbEntity
  8
0-6_扉
  6
JWW_DASHED2
 62
    40
370
     5
100
AcDbLine
 10
1286.502751641533
 20
2568.839743030792
 30
0.0
 11
1376.24396455857
 21
2575.659911956759
 31
0.0
  0
ARC
  5
13F
330
1F
100
AcDbEntity
  8
0-6_扉
  6
JWW_DASHED2
 62
    40
370
     5
100
AcDbCircle
 10
1287.866785426725
 20
2550.891500447383
 30
0.0
 40
18.0
100
AcDbArc
 50
94.34602072163908
 51
184.3460207216391
  0
LINE
  5
140
330
1F
100
AcDbEntity
  8
0-6_扉
  6
JWW_DASHED2
 62
    40
370
     5
100
AcDbLine
 10
1828.524638233413
 20
2549.527466662187
 30
0.0
 11
1794.889122357693
 21
2106.944295403167
 31
0.0
  0
LINE
  5
141
330
1F
100
AcDbEntity
  8
0-6_扉
  6
JWW_DASHED2
 62
    40
370
     5
100
AcDbLine
 10
1269.91854284332
 20
2549.527466662194
 30
0.0
 11
1303.554058719031
 21
2106.944295403167
 31
0.0
  0
LINE
  5
142
330
1F
100
AcDbEntity
  8
0-6_扉
  6
JWW_DASHED2
 62
    40
370
     5
100
AcDbLine
 10
1395.556240927172
 20
2559.075703158546
 30
0.0
 11
1429.917405406612
 21
2106.944295403167
 31
0.0
  0
LINE
  5
143
330
1F
100
AcDbEntity
  8
0-6_扉
  6
JWW_DASHED2
 62
    40
370
     5
100
AcDbLine
 10
1702.886940149559
 20
2559.075703158542
 30
0.0
 11
1668.525775670111
 21
2106.944295403167
 31
0.0
  0
LINE
  5
144
330
1F
100
AcDbEntity
  8
0-1_通り芯
  6
JWW_CENTER1
 62
   120
370
     5
100
AcDbLine
 10
1269.918542843318
 20
2781.944295403169
 30
0.0
 11
1269.918542843318
 21
2549.527466662194
 31
0.0
  0
LWPOLYLINE
  5
145
330
1F
100
AcDbEntity
  8
0-B_寸法
  6
Continuous
 62
     7
370
     5
100
AcDbPolyline
 90
        4
 70
     1
 43
3.0
 10
1271.418542843318
 20
2961.944295403169
 42
0.4142135623731
 10
1269.918542843318
 20
2963.444295403169
 42
0.4142135623731
 10
1268.418542843318
 20
2961.944295403169
 42
0.4142135623731
 10
1269.918542843318
 20
2960.444295403169
 42
0.4142135623731
  0
LINE
  5
146
330
1F
100
AcDbEntity
  8
0-B_寸法
  6
Continuous
 62
   120
370
     5
100
AcDbLine
 10
1269.918542843318
 20
2961.944295403169
 30
0.0
 11
1269.918542843318
 21
2781.944295403169
 31
0.0
  0
LINE
  5
147
330
1F
100
AcDbEntity
  8
0-0_補助線
  6
JWW_HOJO
 62
     7
370
     5
100
AcDbLine
 10
-996.5814571566841
 20
1086.944295403167
 30
0.0
 11
-996.5814571566841
 21
3321.944295403169
 31
0.0
  0
LINE
  5
148
330
1F
100
AcDbEntity
  8
0-0_補助線
  6
JWW_HOJO
 62
     7
370
     5
100
AcDbLine
 10
1016.418542843318
 20
1086.944295403167
 30
0.0
 11
1016.418542843318
 21
3321.944295403169
 31
0.0
  0
LINE
  5
149
330
1F
100
AcDbEntity
  8
0-B_寸法
  6
Continuous
 62
   120
370
     5
100
AcDbLine
 10
-1997.081457156683
 20
1806.944295403167
 30
0.0
 11
-999.5814571566831
 21
1806.944295403167
 31
0.0
  0
LWPOLYLINE
  5
14A
330
1F
100
AcDbEntity
  8
0-B_寸法
  6
Continuous
 62
     7
370
     5
100
AcDbPolyline
 90
        4
 70
     1
 43
3.0
 10
-1995.581457156683
 20
1806.944295403167
 42
0.4142135623731
 10
-1997.081457156683
 20
1808.444295403167
 42
0.4142135623731
 10
-1998.581457156683
 20
1806.944295403167
 42
0.4142135623731
 10
-1997.081457156683
 20
1805.444295403167
 42
0.4142135623731
  0
LWPOLYLINE
  5
14B
330
1F
100
AcDbEntity
  8
0-B_寸法
  6
Continuous
 62
     7
370
     5
100
AcDbPolyline
 90
        4
 70
     1
 43
3.0
 10
-998.0814571566832
 20
1806.944295403167
 42
0.4142135623731
 10
-999.5814571566831
 20
1808.444295403167
 42
0.4142135623731
 10
-1001.081457156683
 20
1806.944295403167
 42
0.4142135623731
 10
-999.5814571566831
 20
1805.444295403167
 42
0.4142135623731
  0
LINE
  5
14C
330
1F
100
AcDbEntity
  8
0-B_寸法
  6
Continuous
 62
   120
370
     5
100
AcDbLine
 10
-1997.081457156683
 20
1626.944295403167
 30
0.0
 11
-1997.081457156683
 21
1986.944295403167
 31
0.0
  0
LINE
  5
14D
330
1F
100
AcDbEntity
  8
0-B_寸法
  6
Continuous
 62
   120
370
     5
100
AcDbLine
 10
-999.5814571566831
 20
1806.944295403167
 30
0.0
 11
-999.5814571566831
 21
1986.944295403167
 31
0.0
  0
LINE
  5
14E
330
1F
100
AcDbEntity
  8
0-B_寸法
  6
Continuous
 62
   120
370
     5
100
AcDbLine
 10
-993.5814571566834
 20
1806.944295403167
 30
0.0
 11
3.918542843318278
 21
1806.944295403167
 31
0.0
  0
LWPOLYLINE
  5
14F
330
1F
100
AcDbEntity
  8
0-B_寸法
  6
Continuous
 62
     7
370
     5
100
AcDbPolyline
 90
        4
 70
     1
 43
3.0
 10
-992.0814571566835
 20
1806.944295403167
 42
0.4142135623731
 10
-993.5814571566834
 20
1808.444295403167
 42
0.4142135623731
 10
-995.0814571566833
 20
1806.944295403167
 42
0.4142135623731
 10
-993.5814571566834
 20
1805.444295403167
 42
0.4142135623731
  0
LWPOLYLINE
  5
150
330
1F
100
AcDbEntity
  8
0-B_寸法
  6
Continuous
 62
     7
370
     5
100
AcDbPolyline
 90
        4
 70
     1
 43
3.0
 10
5.418542843318278
 20
1806.944295403167
 42
0.4142135623731
 10
3.918542843318278
 20
1808.444295403167
 42
0.4142135623731
 10
2.418542843318278
 20
1806.944295403167
 42
0.4142135623731
 10
3.918542843318278
 20
1805.444295403167
 42
0.4142135623731
  0
LINE
  5
151
330
1F
100
AcDbEntity
  8
0-B_寸法
  6
Continuous
 62
   120
370
     5
100
AcDbLine
 10
-993.5814571566834
 20
1806.944295403167
 30
0.0
 11
-993.5814571566834
 21
1986.944295403167
 31
0.0
  0
LINE
  5
152
330
1F
100
AcDbEntity
  8
0-B_寸法
  6
Continuous
 62
   120
370
     5
100
AcDbLine
 10
3.918542843318278
 20
1626.944295403167
 30
0.0
 11
3.918542843318278
 21
1986.944295403167
 31
0.0
  0
LINE
  5
153
330
1F
100
AcDbEntity
  8
0-B_寸法
  6
Continuous
 62
   120
370
     5
100
AcDbLine
 10
15.9185428433176
 20
1806.944295403167
 30
0.0
 11
1013.418542843318
 21
1806.944295403167
 31
0.0
  0
LWPOLYLINE
  5
154
330
1F
100
AcDbEntity
  8
0-B_寸法
  6
Continuous
 62
     7
370
     5
100
AcDbPolyline
 90
        4
 70
     1
 43
3.0
 10
17.4185428433176
 20
1806.944295403167
 42
0.4142135623731
 10
15.9185428433176
 20
1808.444295403167
 42
0.4142135623731
 10
14.4185428433176
 20
1806.944295403167
 42
0.4142135623731
 10
15.9185428433176
 20
1805.444295403167
 42
0.4142135623731
  0
LWPOLYLINE
  5
155
330
1F
100
AcDbEntity
  8
0-B_寸法
  6
Continuous
 62
     7
370
     5
100
AcDbPolyline
 90
        4
 70
     1
 43
3.0
 10
1014.918542843317
 20
1806.944295403167
 42
0.4142135623731
 10
1013.418542843318
 20
1808.444295403167
 42
0.4142135623731
 10
1011.918542843318
 20
1806.944295403167
 42
0.4142135623731
 10
1013.418542843318
 20
1805.444295403167
 42
0.4142135623731
  0
LINE
  5
156
330
1F
100
AcDbEntity
  8
0-B_寸法
  6
Continuous
 62
   120
370
     5
100
AcDbLine
 10
15.9185428433176
 20
1626.944295403167
 30
0.0
 11
15.9185428433176
 21
1986.944295403167
 31
0.0
  0
LINE
  5
157
330
1F
100
AcDbEntity
  8
0-B_寸法
  6
Continuous
 62
   120
370
     5
100
AcDbLine
 10
1013.418542843318
 20
1806.944295403167
 30
0.0
 11
1013.418542843318
 21
1986.944295403167
 31
0.0
  0
LINE
  5
158
330
1F
100
AcDbEntity
  8
0-B_寸法
  6
Continuous
 62
   120
370
     5
100
AcDbLine
 10
1019.418542843317
 20
1806.944295403167
 30
0.0
 11
2016.918542843321
 21
1806.944295403167
 31
0.0
  0
LWPOLYLINE
  5
159
330
1F
100
AcDbEntity
  8
0-B_寸法
  6
Continuous
 62
     7
370
     5
100
AcDbPolyline
 90
        4
 70
     1
 43
3.0
 10
1020.918542843317
 20
1806.944295403167
 42
0.4142135623731
 10
1019.418542843317
 20
1808.444295403167
 42
0.4142135623731
 10
1017.918542843317
 20
1806.944295403167
 42
0.4142135623731
 10
1019.418542843317
 20
1805.444295403167
 42
0.4142135623731
  0
LWPOLYLINE
  5
15A
330
1F
100
AcDbEntity
  8
0-B_寸法
  6
Continuous
 62
     7
370
     5
100
AcDbPolyline
 90
        4
 70
     1
 43
3.0
 10
2018.418542843321
 20
1806.944295403167
 42
0.4142135623731
 10
2016.918542843321
 20
1808.444295403167
 42
0.4142135623731
 10
2015.418542843321
 20
1806.944295403167
 42
0.4142135623731
 10
2016.918542843321
 20
1805.444295403167
 42
0.4142135623731
  0
LINE
  5
15B
330
1F
100
AcDbEntity
  8
0-B_寸法
  6
Continuous
 62
   120
370
     5
100
AcDbLine
 10
1019.418542843317
 20
1806.944295403167
 30
0.0
 11
1019.418542843317
 21
1986.944295403167
 31
0.0
  0
LINE
  5
15C
330
1F
100
AcDbEntity
  8
0-B_寸法
  6
Continuous
 62
   120
370
     5
100
AcDbLine
 10
2016.918542843321
 20
1626.944295403167
 30
0.0
 11
2016.918542843321
 21
1986.944295403167
 31
0.0
  0
LINE
  5
15D
330
1F
100
AcDbEntity
  8
0-B_寸法
  6
Continuous
 62
   120
370
     5
100
AcDbLine
 10
-1997.081457156683
 20
1626.944295403167
 30
0.0
 11
3.918542843318278
 21
1626.944295403167
 31
0.0
  0
LWPOLYLINE
  5
15E
330
1F
100
AcDbEntity
  8
0-B_寸法
  6
Continuous
 62
     7
370
     5
100
AcDbPolyline
 90
        4
 70
     1
 43
3.0
 10
-1995.581457156683
 20
1626.944295403167
 42
0.4142135623731
 10
-1997.081457156683
 20
1628.444295403167
 42
0.4142135623731
 10
-1998.581457156683
 20
1626.944295403167
 42
0.4142135623731
 10
-1997.081457156683
 20
1625.444295403167
 42
0.4142135623731
  0
LWPOLYLINE
  5
15F
330
1F
100
AcDbEntity
  8
0-B_寸法
  6
Continuous
 62
     7
370
     5
100
AcDbPolyline
 90
        4
 70
     1
 43
3.0
 10
5.418542843318278
 20
1626.944295403167
 42
0.4142135623731
 10
3.918542843318278
 20
1628.444295403167
 42
0.4142135623731
 10
2.418542843318278
 20
1626.944295403167
 42
0.4142135623731
 10
3.918542843318278
 20
1625.444295403167
 42
0.4142135623731
  0
LINE
  5
160
330
1F
100
AcDbEntity
  8
0-B_寸法
  6
Continuous
 62
   120
370
     5
100
AcDbLine
 10
3.918542843318278
 20
1626.944295403167
 30
0.0
 11
15.9185428433176
 21
1626.944295403167
 31
0.0
  0
LWPOLYLINE
  5
161
330
1F
100
AcDbEntity
  8
0-B_寸法
  6
Continuous
 62
     7
370
     5
100
AcDbPolyline
 90
        4
 70
     1
 43
3.0
 10
17.4185428433176
 20
1626.944295403167
 42
0.4142135623731
 10
15.9185428433176
 20
1628.444295403167
 42
0.4142135623731
 10
14.4185428433176
 20
1626.944295403167
 42
0.4142135623731
 10
15.9185428433176
 20
1625.444295403167
 42
0.4142135623731
  0
LINE
  5
162
330
1F
100
AcDbEntity
  8
0-B_寸法
  6
Continuous
 62
   120
370
     5
100
AcDbLine
 10
15.9185428433176
 20
1626.944295403167
 30
0.0
 11
2016.918542843321
 21
1626.944295403167
 31
0.0
  0
LWPOLYLINE
  5
163
330
1F
100
AcDbEntity
  8
0-B_寸法
  6
Continuous
 62
     7
370
     5
100
AcDbPolyline
 90
        4
 70
     1
 43
3.0
 10
2018.418542843321
 20
1626.944295403167
 42
0.4142135623731
 10
2016.918542843321
 20
1628.444295403167
 42
0.4142135623731
 10
2015.418542843321
 20
1626.944295403167
 42
0.4142135623731
 10
2016.918542843321
 20
1625.444295403167
 42
0.4142135623731
  0
MTEXT
  5
164
330
1F
100
AcDbEntity
  8
0-B_寸法
  6
Continuous
 62
     7
370
   211
100
AcDbMText
 10
-1828.331457156683
 20
1807.664295403167
 30
0.0
 40
91.43999999999997
 41
660.0
 46
0.0
 71
     7
 72
     1
  1
{\fＭＳ ゴシック|b0|i0|c128|p49;ＤＷ＝282.5}
 73
     1
 44
1.0
  0
MTEXT
  5
165
330
1F
100
AcDbEntity
  8
0-B_寸法
  6
Continuous
 62
     7
370
   211
100
AcDbMText
 10
-824.8314571566834
 20
1807.664295403167
 30
0.0
 40
91.43999999999997
 41
660.0
 46
0.0
 71
     7
 72
     1
  1
{\fＭＳ ゴシック|b0|i0|c128|p49;ＤＷ＝282.5}
 73
     1
 44
1.0
  0
MTEXT
  5
166
330
1F
100
AcDbEntity
  8
0-B_寸法
  6
Continuous
 62
     7
370
   211
100
AcDbMText
 10
184.6685428433176
 20
1807.664295403167
 30
0.0
 40
91.43999999999997
 41
660.0
 46
0.0
 71
     7
 72
     1
  1
{\fＭＳ ゴシック|b0|i0|c128|p49;ＤＷ＝282.5}
 73
     1
 44
1.0
  0
MTEXT
  5
167
330
1F
100
AcDbEntity
  8
0-B_寸法
  6
Continuous
 62
     7
370
   211
100
AcDbMText
 10
1188.168542843319
 20
1807.664295403167
 30
0.0
 40
91.43999999999997
 41
660.0
 46
0.0
 71
     7
 72
     1
  1
{\fＭＳ ゴシック|b0|i0|c128|p49;ＤＷ＝282.5}
 73
     1
 44
1.0
  0
MTEXT
  5
168
330
1F
100
AcDbEntity
  8
0-B_寸法
  6
Continuous
 62
     7
370
   211
100
AcDbMText
 10
-1446.581457156684
 20
1627.664295403167
 30
0.0
 40
91.43999999999998
 41
900.0
 46
0.0
 71
     7
 72
     1
  1
{\fＭＳ ゴシック|b0|i0|c128|p49;折戸：ＤＷ＝566}
 73
     1
 44
1.0
  0
MTEXT
  5
169
330
1F
100
AcDbEntity
  8
0-B_寸法
  6
Continuous
 62
     7
370
   211
100
AcDbMText
 10
566.41854284332
 20
1627.664295403167
 30
0.0
 40
91.43999999999998
 41
900.0
 46
0.0
 71
     7
 72
     1
  1
{\fＭＳ ゴシック|b0|i0|c128|p49;折戸：ＤＷ＝566}
 73
     1
 44
1.0
  0
MTEXT
  5
16A
330
1F
100
AcDbEntity
  8
0-B_寸法
  6
Continuous
 62
     7
370
   211
100
AcDbMText
 10
-380.0814571566821
 20
3142.664295403169
 30
0.0
 40
91.43999999999997
 41
780.0
 46
0.0
 71
     7
 72
     1
  1
{\fＭＳ ゴシック|b0|i0|c128|p49;ＲＯＷ＝1,199}
 73
     1
 44
1.0
  0
MTEXT
  5
16B
330
1F
100
AcDbEntity
  8
0-B_寸法
  6
Continuous
 62
     7
370
   211
100
AcDbMText
 10
-320.0814571566821
 20
1447.664295403167
 30
0.0
 40
91.43999999999997
 41
660.0
 46
0.0
 71
     7
 72
     1
  1
{\fＭＳ ゴシック|b0|i0|c128|p49;枠内＝1,129}
 73
     1
 44
1.0
  0
MTEXT
  5
16C
330
1F
100
AcDbEntity
  8
0-B_寸法
  6
Continuous
 62
     7
370
   211
100
AcDbMText
 10
-320.0814571566821
 20
1267.664295403167
 30
0.0
 40
91.43999999999997
 41
660.0
 46
0.0
 71
     7
 72
     1
  1
{\fＭＳ ゴシック|b0|i0|c128|p49;枠外＝1,189}
 73
     1
 44
1.0
  0
ARC
  5
16D
330
1F
100
AcDbEntity
  8
0-6_扉
  6
JWW_DASHED2
 62
    40
370
     5
100
AcDbCircle
 10
-1700.99809704633
 20
2557.711669373348
 30
0.0
 40
18.0
100
AcDbArc
 50
4.346020721640005
 51
94.34602072164022
  0
LINE
  5
16E
330
1F
100
AcDbEntity
  8
0-6_扉
  6
JWW_DASHED2
 62
    40
370
     5
100
AcDbLine
 10
-1792.103343748564
 20
2568.839743030788
 30
0.0
 11
-1702.362130831526
 21
2575.659911956755
 31
0.0
  0
ARC
  5
16F
330
1F
100
AcDbEntity
  8
0-6_扉
  6
JWW_DASHED2
 62
    40
370
     5
100
AcDbCircle
 10
-1790.73930996337
 20
2550.891500447379
 30
0.0
 40
18.0
100
AcDbArc
 50
94.3460207216403
 51
184.3460207216401
  0
ARC
  5
170
330
1F
100
AcDbEntity
  8
0-6_扉
  6
JWW_DASHED2
 62
    40
370
     5
100
AcDbCircle
 10
-1357.770912657129
 20
2557.711669373351
 30
0.0
 40
18.0
100
AcDbArc
 50
85.65397927836092
 51
175.653979278361
  0
LINE
  5
171
330
1F
100
AcDbEntity
  8
0-6_扉
  6
JWW_DASHED2
 62
    40
370
     5
100
AcDbLine
 10
-1266.665665954898
 20
2568.839743030792
 30
0.0
 11
-1356.406878871936
 21
2575.659911956759
 31
0.0
  0
ARC
  5
172
330
1F
100
AcDbEntity
  8
0-6_扉
  6
JWW_DASHED2
 62
    40
370
     5
100
AcDbCircle
 10
-1268.029699740089
 20
2550.891500447383
 30
0.0
 40
18.0
100
AcDbArc
 50
355.653979278361
 51
85.65397927836094
  0
LINE
  5
173
330
1F
100
AcDbEntity
  8
0-6_扉
  6
JWW_DASHED2
 62
    40
370
     5
100
AcDbLine
 10
-1808.687552546777
 20
2549.527466662187
 30
0.0
 11
-1775.052036671057
 21
2106.944295403167
 31
0.0
  0
LINE
  5
174
330
1F
100
AcDbEntity
  8
0-6_扉
  6
JWW_DASHED2
 62
    40
370
     5
100
AcDbLine
 10
-1250.081457156685
 20
2549.527466662194
 30
0.0
 11
-1283.716973032395
 21
2106.944295403167
 31
0.0
  0
LINE
  5
175
330
1F
100
AcDbEntity
  8
0-6_扉
  6
JWW_DASHED2
 62
    40
370
     5
100
AcDbLine
 10
-1375.719155240536
 20
2559.075703158546
 30
0.0
 11
-1410.080319719976
 21
2106.944295403167
 31
0.0
  0
LINE
  5
176
330
1F
100
AcDbEntity
  8
0-6_扉
  6
JWW_DASHED2
 62
    40
370
     5
100
AcDbLine
 10
-1683.049854462923
 20
2559.075703158542
 30
0.0
 11
-1648.688689983475
 21
2106.944295403167
 31
0.0
  0
LINE
  5
177
330
1F
100
AcDbEntity
  8
0-1_通り芯
  6
JWW_CENTER1
 62
   120
370
     5
100
AcDbLine
 10
-1250.081457156682
 20
2781.944295403169
 30
0.0
 11
-1250.081457156682
 21
2549.527466662194
 31
0.0
  0
LWPOLYLINE
  5
178
330
1F
100
AcDbEntity
  8
0-B_寸法
  6
Continuous
 62
     7
370
     5
100
AcDbPolyline
 90
        4
 70
     1
 43
3.0
 10
-1248.581457156682
 20
2961.944295403169
 42
0.4142135623731
 10
-1250.081457156682
 20
2963.444295403169
 42
0.4142135623731
 10
-1251.581457156682
 20
2961.944295403169
 42
0.4142135623731
 10
-1250.081457156682
 20
2960.444295403169
 42
0.4142135623731
  0
LINE
  5
179
330
1F
100
AcDbEntity
  8
0-B_寸法
  6
Continuous
 62
   120
370
     5
100
AcDbLine
 10
-1250.081457156682
 20
2961.944295403169
 30
0.0
 11
-1250.081457156682
 21
2781.944295403169
 31
0.0
  0
LINE
  5
17A
330
1F
100
AcDbEntity
  8
0-B_寸法
  6
Continuous
 62
   120
370
     5
100
AcDbLine
 10
-1250.081457156682
 20
2961.944295403169
 30
0.0
 11
1269.918542843318
 21
2961.944295403169
 31
0.0
  0
MTEXT
  5
17B
330
1F
100
AcDbEntity
  8
0-B_寸法
  6
Continuous
 62
     7
370
   211
100
AcDbMText
 10
-484.1830428641578
 20
2962.664295403169
 30
0.0
 40
91.43999999999998
 41
1020.0
 46
0.0
 71
     7
 72
     1
  1
{\fＭＳ ゴシック|b0|i0|c128|p49;有効開口寸法＝885}
 73
     1
 44
1.0
  0
MTEXT
  5
17C
330
1F
100
AcDbEntity
  8
0-B_寸法
  6
Continuous
 62
     7
370
   211
100
AcDbMText
 10
39.91854284331794
 20
1627.664295403167
 30
0.0
 40
91.44
 41
60.0
 46
0.0
 71
     7
 72
     1
  1
{\fＭＳ ゴシック|b0|i0|c128|p49;2}
 73
     1
 44
1.0
  0
MTEXT
  5
17D
330
1F
100
AcDbEntity
  8
F-A_文字
  6
Continuous
 62
     7
370
     0
100
AcDbMText
 10
3689.917643811962
 20
-3946.903115907308
 30
0.0
 40
76.19999999999999
 41
150.0
 46
0.0
 71
     7
 72
     1
  1
{\fＭＳ ゴシック|b0|i0|c128|p49;1/5}
 73
     1
 44
1.0
  0
MTEXT
  5
17E
330
1F
100
AcDbEntity
  8
0-B_寸法
  6
Continuous
 62
     7
370
   211
100
AcDbMText
 10
-1022.045484219455
 20
2227.664295403169
 30
0.0
 40
91.44
 41
240.0
 46
0.0
 71
     7
 72
     1
  1
{\fＭＳ ゴシック|b0|i0|c128|p49;(24)}
 11
6.123031769111886E-17
 21
1.0
 31
0.0
 73
     1
 44
1.0
  0
LINE
  5
17F
330
1F
100
AcDbEntity
  8
0-B_寸法
  6
JWW_HOJO
 62
   120
370
     5
100
AcDbLine
 10
9.918542843319642
 20
1127.63597015083
 30
0.0
 11
2419.442352367129
 21
1127.63597015083
 31
0.0
  0
LINE
  5
180
330
1F
100
AcDbEntity
  8
0-B_寸法
  6
JWW_HOJO
 62
   120
370
     5
100
AcDbLine
 10
9.918542843319642
 20
1007.63597015083
 30
0.0
 11
2419.442352367129
 21
1007.63597015083
 31
0.0
  0
LINE
  5
181
330
1F
100
AcDbEntity
  8
0-B_寸法
  6
JWW_HOJO
 62
   120
370
     5
100
AcDbLine
 10
9.918542843319642
 20
887.6359701508302
 30
0.0
 11
2419.442352367129
 21
887.6359701508302
 31
0.0
  0
MTEXT
  5
182
330
1F
100
AcDbEntity
  8
0-B_寸法
  6
Continuous
 62
     7
370
     5
100
AcDbMText
 10
9.918542843319749
 20
1122.381197423558
 30
0.0
 40
79.49045454545455
 41
2295.0
 46
0.0
 71
     7
 72
     1
  1
{\fＭＳ ゴシック|b0|i0|c128|p49;※有効開口寸法にはハンドルの突出は含まない。}
 73
     1
 44
1.0
  0
MTEXT
  5
183
330
1F
100
AcDbEntity
  8
0-B_寸法
  6
Continuous
 62
     7
370
     5
100
AcDbMText
 10
9.918542843319855
 20
1002.429303484163
 30
0.0
 40
79.58666666666667
 41
2820.0
 46
0.0
 71
     7
 72
     1
  1
{\fＭＳ ゴシック|b0|i0|c128|p49;※有効開口寸法は扉の厚さや調整によって若干異なります。}
 73
     1
 44
1.0
  0
MTEXT
  5
184
330
1F
100
AcDbEntity
  8
0-B_寸法
  6
Continuous
 62
     7
370
     0
100
AcDbMText
 10
9.918542843319642
 20
876.9259701508302
 30
0.0
 40
68.58
 41
1350.0
 46
0.0
 71
     7
 72
     1
  1
{\fＭＳ ゴシック|b0|i0|c128|p49;※扉厚（　）内はルーバーの場合}
 73
     1
 44
1.0
  0
MTEXT
  5
185
330
1F
100
AcDbEntity
  8
0-A_文字
  6
Continuous
 62
    92
370
     5
100
AcDbMText
 10
-5592.499495325865
 20
3758.994391981842
 30
0.0
 40
147.9884210526316
 41
3690.0
 46
0.0
 71
     7
 72
     1
  1
{\fＭＳ ゴシック|b0|i0|c128|p49;クローゼットドア　固定枠　間口４．５尺}
 73
     1
 44
1.0
  0
LINE
  5
186
330
1F
100
AcDbEntity
  8
0-A_文字
  6
Continuous
 62
    92
370
     5
100
AcDbLine
 10
-5659.999495325865
 20
3730.000181455527
 30
0.0
 11
-1842.857142857143
 21
3730.000181455527
 31
0.0
  0
LINE
  5
187
330
1F
100
AcDbEntity
  8
0-A_文字
  6
Continuous
 62
    92
370
     5
100
AcDbLine
 10
-5659.999495325865
 20
4000.000181455527
 30
0.0
 11
-1842.857142857143
 21
4000.000181455527
 31
0.0
  0
LINE
  5
188
330
1F
100
AcDbEntity
  8
0-A_文字
  6
Continuous
 62
    92
370
     5
100
AcDbLine
 10
-1842.857142857143
 20
3730.000181455527
 30
0.0
 11
-1842.857142857143
 21
4000.000181455527
 31
0.0
  0
MTEXT
  5
189
330
1F
100
AcDbEntity
  8
F-A_文字
  6
Continuous
 62
     7
370
     0
100
AcDbMText
 10
-5080.081323642278
 20
-4045.06820530916
 30
0.0
 40
79.8634615384615
 41
4087.5
 46
0.0
 71
     7
 72
     1
  1
{\fＭＳ ゴシック|b0|i0|c128|p49;ドレタス　クローゼットドア　固定枠　３方枠下レール無し　枠外H2,339　枠外W1,189}
 73
     1
 44
1.0
  0
MTEXT
  5
18A
330
1F
100
AcDbEntity
  8
0-A_文字
  6
Continuous
 62
     7
370
     5
100
AcDbMText
 10
-4428.892455157516
 20
260.888451987686
 30
0.0
 40
91.44
 41
600.0
 46
0.0
 71
     7
 72
     1
  1
{\fＭＳ ゴシック|b0|i0|c128|p49;■縦断面図}
 73
     1
 44
1.0
  0
MTEXT
  5
18B
330
1F
100
AcDbEntity
  8
0-A_文字
  6
Continuous
 62
     7
370
     5
100
AcDbMText
 10
-4428.892455157516
 20
112.3681868202402
 30
0.0
 40
91.44000000000001
 41
600.0
 46
0.0
 71
     7
 72
     1
  1
{\fＭＳ ゴシック|b0|i0|c128|p49;　[３方枠]}
 73
     1
 44
1.0
  0
LWPOLYLINE
  5
18C
330
1F
100
AcDbEntity
  8
0-B_寸法
  6
Continuous
 62
     7
370
     5
100
AcDbPolyline
 90
        4
 70
     1
 43
3.0
 10
-2238.866706904269
 20
-3225.999963090917
 42
0.4142135623731
 10
-2240.366706904269
 20
-3224.499963090917
 42
0.4142135623731
 10
-2241.866706904269
 20
-3225.999963090917
 42
0.4142135623731
 10
-2240.366706904269
 20
-3227.499963090917
 42
0.4142135623731
  0
LINE
  5
18D
330
1F
100
AcDbEntity
  8
0-B_寸法
  6
Continuous
 62
   120
370
     5
100
AcDbLine
 10
-2870.366830369894
 20
-3225.999963090917
 30
0.0
 11
-2240.366706904269
 21
-3225.999963090917
 31
0.0
  0
LWPOLYLINE
  5
18E
330
1F
100
AcDbEntity
  8
0-B_寸法
  6
Continuous
 62
     7
370
     5
100
AcDbPolyline
 90
        4
 70
     1
 43
3.0
 10
-2448.866706904269
 20
-3225.999963090917
 42
0.4142135623731
 10
-2450.366706904269
 20
-3224.499963090917
 42
0.4142135623731
 10
-2451.866706904269
 20
-3225.999963090917
 42
0.4142135623731
 10
-2450.366706904269
 20
-3227.499963090917
 42
0.4142135623731
  0
LWPOLYLINE
  5
18F
330
1F
100
AcDbEntity
  8
0-B_寸法
  6
Continuous
 62
     7
370
     5
100
AcDbPolyline
 90
        4
 70
     1
 43
3.0
 10
-2658.866706904269
 20
-3157.000334250649
 42
0.4142135623731
 10
-2660.366706904269
 20
-3155.500334250649
 42
0.4142135623731
 10
-2661.866706904269
 20
-3157.000334250649
 42
0.4142135623731
 10
-2660.366706904269
 20
-3158.500334250649
 42
0.4142135623731
  0
LINE
  5
190
330
1F
100
AcDbEntity
  8
0-B_寸法
  6
Continuous
 62
   120
370
     5
100
AcDbLine
 10
-2870.366830369894
 20
-3157.000334250649
 30
0.0
 11
-2660.366706904269
 21
-3157.000334250649
 31
0.0
  0
LINE
  5
191
330
1F
100
AcDbEntity
  8
0-B_寸法
  6
Continuous
 62
   120
370
     5
100
AcDbLine
 10
-2870.366830369894
 20
-3297.999940821333
 30
0.0
 11
-2240.365908629915
 21
-3297.999940821333
 31
0.0
  0
LWPOLYLINE
  5
192
330
1F
100
AcDbEntity
  8
0-B_寸法
  6
Continuous
 62
     7
370
     5
100
AcDbPolyline
 90
        4
 70
     1
 43
3.0
 10
-2238.865908629915
 20
-3297.999940821333
 42
0.4142135623731
 10
-2240.365908629915
 20
-3296.499940821333
 42
0.4142135623731
 10
-2241.865908629915
 20
-3297.999940821333
 42
0.4142135623731
 10
-2240.365908629915
 20
-3299.499940821333
 42
0.4142135623731
  0
LINE
  5
193
330
1F
100
AcDbEntity
  8
0-7_金物
  6
Continuous
 62
     7
370
     5
100
AcDbLine
 10
-3497.36672923701
 20
-3157.253733651253
 30
0.0
 11
-3497.36672923701
 21
-3220.000334250649
 31
0.0
  0
LINE
  5
194
330
1F
100
AcDbEntity
  8
0-7_金物
  6
Continuous
 62
     7
370
     5
100
AcDbLine
 10
-3479.366966779235
 20
-3157.253733651253
 30
0.0
 11
-3479.366966779235
 21
-3220.000334250649
 31
0.0
  0
LINE
  5
195
330
1F
100
AcDbEntity
  8
0-B_寸法
  6
Continuous
 62
   120
370
     5
100
AcDbLine
 10
-2870.366830369894
 20
-297.9995696616005
 30
0.0
 11
-2240.366706904269
 21
-297.9995696616005
 31
0.0
  0
LWPOLYLINE
  5
196
330
1F
100
AcDbEntity
  8
0-B_寸法
  6
Continuous
 62
     7
370
     5
100
AcDbPolyline
 90
        4
 70
     1
 43
3.0
 10
-2238.866706904269
 20
-297.9995696616005
 42
0.4142135623731
 10
-2240.366706904269
 20
-296.4995696616005
 42
0.4142135623731
 10
-2241.866706904269
 20
-297.9995696616005
 42
0.4142135623731
 10
-2240.366706904269
 20
-299.4995696616006
 42
0.4142135623731
  0
LINE
  5
197
330
1F
100
AcDbEntity
  8
0-B_寸法
  6
Continuous
 62
   120
370
     5
100
AcDbLine
 10
-2660.366706904269
 20
-513.998574953513
 30
0.0
 11
-2450.366706904269
 21
-513.998574953513
 31
0.0
  0
LWPOLYLINE
  5
198
330
1F
100
AcDbEntity
  8
0-B_寸法
  6
Continuous
 62
     7
370
     5
100
AcDbPolyline
 90
        4
 70
     1
 43
3.0
 10
-2448.866706904269
 20
-513.998574953513
 42
0.4142135623731
 10
-2450.366706904269
 20
-512.498574953513
 42
0.4142135623731
 10
-2451.866706904269
 20
-513.998574953513
 42
0.4142135623731
 10
-2450.366706904269
 20
-515.498574953513
 42
0.4142135623731
  0
LWPOLYLINE
  5
199
330
1F
100
AcDbEntity
  8
0-B_寸法
  6
Continuous
 62
     7
370
     5
100
AcDbPolyline
 90
        4
 70
     1
 43
3.0
 10
-2448.866706904269
 20
-297.9995696616005
 42
0.4142135623731
 10
-2450.366706904269
 20
-296.4995696616005
 42
0.4142135623731
 10
-2451.866706904269
 20
-297.9995696616005
 42
0.4142135623731
 10
-2450.366706904269
 20
-299.4995696616006
 42
0.4142135623731
  0
LWPOLYLINE
  5
19A
330
1F
100
AcDbEntity
  8
0-B_寸法
  6
Continuous
 62
     7
370
     5
100
AcDbPolyline
 90
        4
 70
     1
 43
3.0
 10
-2658.866706904269
 20
-513.998946113247
 42
0.4142135623731
 10
-2660.366706904269
 20
-512.4989461132469
 42
0.4142135623731
 10
-2661.866706904269
 20
-513.998946113247
 42
0.4142135623731
 10
-2660.366706904269
 20
-515.498946113247
 42
0.4142135623731
  0
LWPOLYLINE
  5
19B
330
1F
100
AcDbEntity
  8
0-B_寸法
  6
Continuous
 62
     7
370
     5
100
AcDbPolyline
 90
        4
 70
     1
 43
3.0
 10
-2658.866706904269
 20
-558.9990945771408
 42
0.4142135623731
 10
-2660.366706904269
 20
-557.4990945771407
 42
0.4142135623731
 10
-2661.866706904269
 20
-558.9990945771408
 42
0.4142135623731
 10
-2660.366706904269
 20
-560.4990945771408
 42
0.4142135623731
  0
LINE
  5
19C
330
1F
100
AcDbEntity
  8
0-B_寸法
  6
Continuous
 62
   120
370
     5
100
AcDbLine
 10
-2870.366830369894
 20
-513.998946113247
 30
0.0
 11
-2660.366706904269
 21
-513.998946113247
 31
0.0
  0
LINE
  5
19D
330
1F
100
AcDbEntity
  8
0-B_寸法
  6
Continuous
 62
   120
370
     5
100
AcDbLine
 10
-2870.366830369894
 20
-558.9990945771408
 30
0.0
 11
-2660.366706904269
 21
-558.9990945771408
 31
0.0
  0
LINE
  5
19E
330
1F
100
AcDbEntity
  8
0-B_寸法
  6
Continuous
 62
   120
370
     5
100
AcDbLine
 10
-2450.366706904269
 20
-3225.999963090917
 30
0.0
 11
-2450.366706904269
 21
-297.9995696616005
 31
0.0
  0
LINE
  5
19F
330
1F
100
AcDbEntity
  8
0-7_金物
  6
Continuous
 62
     7
370
     5
100
AcDbLine
 10
-3560.366092698064
 20
-405.999280157006
 30
0.0
 11
-3560.366092698064
 21
-513.999371709742
 31
0.0
  0
LINE
  5
1A0
330
1F
100
AcDbEntity
  8
0-7_金物
  6
Continuous
 62
     7
370
     5
100
AcDbLine
 10
-3416.365765110936
 20
-405.999280157006
 30
0.0
 11
-3560.366092698064
 21
-405.999280157006
 31
0.0
  0
LINE
  5
1A1
330
1F
100
AcDbEntity
  8
0-7_金物
  6
Continuous
 62
     7
370
     5
100
AcDbLine
 10
-3416.365765110936
 20
-513.999371709742
 30
0.0
 11
-3416.365765110936
 21
-405.999280157006
 31
0.0
  0
LINE
  5
1A2
330
1F
100
AcDbEntity
  8
0-7_金物
  6
Continuous
 62
     7
370
     5
100
AcDbLine
 10
-3422.18703557679
 20
-500.7871219538823
 30
0.0
 11
-3422.18703557679
 21
-434.787121953881
 31
0.0
  0
LINE
  5
1A3
330
1F
100
AcDbEntity
  8
0-7_金物
  6
Continuous
 62
     7
370
     5
100
AcDbLine
 10
-3422.18703557679
 20
-434.787121953881
 30
0.0
 11
-3458.366201416939
 21
-434.787121953881
 31
0.0
  0
LINE
  5
1A4
330
1F
100
AcDbEntity
  8
0-7_金物
  6
Continuous
 62
     7
370
     5
100
AcDbLine
 10
-3458.366201416939
 20
-513.999371709742
 30
0.0
 11
-3458.366201416939
 21
-417.9989139460687
 31
0.0
  0
LINE
  5
1A5
330
1F
100
AcDbEntity
  8
0-7_金物
  6
Continuous
 62
     7
370
     5
100
AcDbLine
 10
-3458.366201416939
 20
-417.9989139460687
 30
0.0
 11
-3518.367889420479
 21
-417.9989139460687
 31
0.0
  0
LINE
  5
1A6
330
1F
100
AcDbEntity
  8
0-7_金物
  6
Continuous
 62
     7
370
     5
100
AcDbLine
 10
-3518.367889420479
 20
-417.9989139460687
 30
0.0
 11
-3518.367889420479
 21
-513.999371709742
 31
0.0
  0
LINE
  5
1A7
330
1F
100
AcDbEntity
  8
0-7_金物
  6
Continuous
 62
     7
370
     5
100
AcDbLine
 10
-3554.186283127751
 20
-434.787121953881
 30
0.0
 11
-3554.186283127751
 21
-500.7871219538823
 31
0.0
  0
LINE
  5
1A8
330
1F
100
AcDbEntity
  8
0-7_金物
  6
Continuous
 62
     7
370
     5
100
AcDbLine
 10
-3518.367889420479
 20
-434.787121953881
 30
0.0
 11
-3554.186283127751
 21
-434.787121953881
 31
0.0
  0
LINE
  5
1A9
330
1F
100
AcDbEntity
  8
0-7_金物
  6
Continuous
 62
     7
370
     5
100
AcDbLine
 10
-3572.366424576726
 20
-513.999371709742
 30
0.0
 11
-3590.366195694887
 21
-513.999371709742
 31
0.0
  0
LINE
  5
1AA
330
1F
100
AcDbEntity
  8
0-7_金物
  6
Continuous
 62
     7
370
     5
100
AcDbLine
 10
-3553.362308518376
 20
-519.9994632624761
 30
0.0
 11
-3553.362308518376
 21
-513.999371709742
 31
0.0
  0
LINE
  5
1AB
330
1F
100
AcDbEntity
  8
0-7_金物
  6
Continuous
 62
     7
370
     5
100
AcDbLine
 10
-3560.366092698064
 20
-513.999371709742
 30
0.0
 11
-3553.362308518376
 21
-513.999371709742
 31
0.0
  0
LINE
  5
1AC
330
1F
100
AcDbEntity
  8
0-7_金物
  6
Continuous
 62
     7
370
     5
100
AcDbLine
 10
-3404.366171733823
 20
-513.999371709742
 30
0.0
 11
-3386.367893712013
 21
-513.999371709742
 31
0.0
  0
LINE
  5
1AD
330
1F
100
AcDbEntity
  8
0-7_金物
  6
Continuous
 62
     7
370
     5
100
AcDbLine
 10
-3424.15269567201
 20
-519.9994632624761
 30
0.0
 11
-3424.15269567201
 21
-513.999371709742
 31
0.0
  0
LINE
  5
1AE
330
1F
100
AcDbEntity
  8
0-7_金物
  6
Continuous
 62
     7
370
     5
100
AcDbLine
 10
-3424.15269567201
 20
-513.999371709742
 30
0.0
 11
-3416.365765110936
 21
-513.999371709742
 31
0.0
  0
LINE
  5
1AF
330
1F
100
AcDbEntity
  8
0-7_金物
  6
Continuous
 62
     7
370
     5
100
AcDbLine
 10
-3590.366195694887
 20
-513.999371709742
 30
0.0
 11
-3590.366195694887
 21
-519.9994632624761
 31
0.0
  0
LINE
  5
1B0
330
1F
100
AcDbEntity
  8
0-7_金物
  6
Continuous
 62
     7
370
     5
100
AcDbLine
 10
-3424.15269567201
 20
-519.9994632624761
 30
0.0
 11
-3386.367893712013
 21
-519.9994632624761
 31
0.0
  0
LINE
  5
1B1
330
1F
100
AcDbEntity
  8
0-7_金物
  6
Continuous
 62
     7
370
     5
100
AcDbLine
 10
-3386.367893712013
 20
-513.999371709742
 30
0.0
 11
-3386.367893712013
 21
-519.9994632624761
 31
0.0
  0
LINE
  5
1B2
330
1F
100
AcDbEntity
  8
0-7_金物
  6
Continuous
 62
     7
370
     5
100
AcDbLine
 10
-3500.366642014478
 20
-558.9994632624747
 30
0.0
 11
-3476.365961091005
 21
-558.9994632624747
 31
0.0
  0
LINE
  5
1B3
330
1F
100
AcDbEntity
  8
0-7_金物
  6
Continuous
 62
     7
370
     5
100
AcDbLine
 10
-3500.366642014478
 20
-513.999371709742
 30
0.0
 11
-3500.366642014478
 21
-558.9994632624747
 31
0.0
  0
LINE
  5
1B4
330
1F
100
AcDbEntity
  8
0-7_金物
  6
Continuous
 62
     7
370
     5
100
AcDbLine
 10
-3476.365961091005
 20
-558.9994632624747
 30
0.0
 11
-3476.365961091005
 21
-513.999371709742
 31
0.0
  0
LINE
  5
1B5
330
1F
100
AcDbEntity
  8
0-7_金物
  6
Continuous
 62
     7
370
     5
100
AcDbLine
 10
-3458.366201416939
 20
-500.7871219538823
 30
0.0
 11
-3422.18703557679
 21
-500.7871219538823
 31
0.0
  0
LINE
  5
1B6
330
1F
100
AcDbEntity
  8
0-7_金物
  6
Continuous
 62
     7
370
     5
100
AcDbLine
 10
-3554.186283127751
 20
-500.7871219538823
 30
0.0
 11
-3518.367889420479
 21
-500.7871219538823
 31
0.0
  0
LINE
  5
1B7
330
1F
100
AcDbEntity
  8
0-7_金物
  6
Continuous
 62
     7
370
     5
100
AcDbLine
 10
-3518.367889420479
 20
-513.999371709742
 30
0.0
 11
-3458.366201416939
 21
-513.999371709742
 31
0.0
  0
LINE
  5
1B8
330
1F
100
AcDbEntity
  8
0-7_金物
  6
Continuous
 62
     7
370
     5
100
AcDbLine
 10
-3553.362308518376
 20
-519.9994632624761
 30
0.0
 11
-3590.366195694887
 21
-519.9994632624761
 31
0.0
  0
LINE
  5
1B9
330
1F
100
AcDbEntity
  8
0-4_枠
  6
Continuous
 62
    92
370
     5
100
AcDbLine
 10
-3404.367094056101
 20
-393.9989139460671
 30
0.0
 11
-3404.367094056101
 21
-513.999371709739
 31
0.0
  0
LINE
  5
1BA
330
1F
100
AcDbEntity
  8
0-4_枠
  6
Continuous
 62
    92
370
     5
100
AcDbLine
 10
-3572.367346899005
 20
-393.9989139460671
 30
0.0
 11
-3404.367094056101
 21
-393.9989139460671
 31
0.0
  0
LINE
  5
1BB
330
1F
100
AcDbEntity
  8
0-4_枠
  6
Continuous
 62
    92
370
     5
100
AcDbLine
 10
-3572.367346899005
 20
-513.999371709739
 30
0.0
 11
-3572.367346899005
 21
-393.9989139460671
 31
0.0
  0
LINE
  5
1BC
330
1F
100
AcDbEntity
  8
0-4_枠
  6
Continuous
 62
    92
370
     5
100
AcDbLine
 10
-3257.366670624697
 20
-513.999371709739
 30
0.0
 11
-3404.367094056101
 21
-513.999371709739
 31
0.0
  0
LINE
  5
1BD
330
1F
100
AcDbEntity
  8
0-4_枠
  6
Continuous
 62
    92
370
     5
100
AcDbLine
 10
-3719.3666706247
 20
-513.999371709739
 30
0.0
 11
-3572.367346899005
 21
-513.999371709739
 31
0.0
  0
LINE
  5
1BE
330
1F
100
AcDbEntity
  8
0-4_枠
  6
Continuous
 62
    92
370
     5
100
AcDbLine
 10
-3257.366670624697
 20
-297.99955481521
 30
0.0
 11
-3257.366670624697
 21
-513.999371709739
 31
0.0
  0
LINE
  5
1BF
330
1F
100
AcDbEntity
  8
0-4_枠
  6
Continuous
 62
    92
370
     5
100
AcDbLine
 10
-3719.3666706247
 20
-297.99955481521
 30
0.0
 11
-3719.3666706247
 21
-513.999371709739
 31
0.0
  0
LINE
  5
1C0
330
1F
100
AcDbEntity
  8
0-4_枠
  6
Continuous
 62
    92
370
     5
100
AcDbLine
 10
-3719.3666706247
 20
-297.99955481521
 30
0.0
 11
-3257.366670624697
 21
-297.99955481521
 31
0.0
  0
LINE
  5
1C1
330
1F
100
AcDbEntity
  8
0-B_寸法
  6
Continuous
 62
   120
370
     5
100
AcDbLine
 10
-3257.366670624697
 20
-809.4818941193456
 30
0.0
 11
-3257.366670624697
 21
-655.7709466974496
 31
0.0
  0
LWPOLYLINE
  5
1C2
330
1F
100
AcDbEntity
  8
0-B_寸法
  6
Continuous
 62
     7
370
     5
100
AcDbPolyline
 90
        4
 70
     1
 43
3.0
 10
-3255.866670624697
 20
-809.4818941193456
 42
0.4142135623731
 10
-3257.366670624697
 20
-807.9818941193456
 42
0.4142135623731
 10
-3258.866670624697
 20
-809.4818941193456
 42
0.4142135623731
 10
-3257.366670624697
 20
-810.9818941193456
 42
0.4142135623731
  0
LINE
  5
1C3
330
1F
100
AcDbEntity
  8
0-B_寸法
  6
Continuous
 62
   120
370
     5
100
AcDbLine
 10
-3719.3666706247
 20
-809.4818941193456
 30
0.0
 11
-3719.3666706247
 21
-655.7709466974496
 31
0.0
  0
LWPOLYLINE
  5
1C4
330
1F
100
AcDbEntity
  8
0-B_寸法
  6
Continuous
 62
     7
370
     5
100
AcDbPolyline
 90
        4
 70
     1
 43
3.0
 10
-3717.8666706247
 20
-809.4818941193456
 42
0.4142135623731
 10
-3719.3666706247
 20
-807.9818941193456
 42
0.4142135623731
 10
-3720.8666706247
 20
-809.4818941193456
 42
0.4142135623731
 10
-3719.3666706247
 20
-810.9818941193456
 42
0.4142135623731
  0
LINE
  5
1C5
330
1F
100
AcDbEntity
  8
0-B_寸法
  6
Continuous
 62
   120
370
     5
100
AcDbLine
 10
-3257.366670624697
 20
-809.4818941193456
 30
0.0
 11
-3719.3666706247
 21
-809.4818941193456
 31
0.0
  0
LINE
  5
1C6
330
1F
100
AcDbEntity
  8
0-C_ハッチ
  6
Continuous
 62
   120
370
     5
100
AcDbLine
 10
-3714.067859389861
 20
-513.9993717097458
 30
0.0
 11
-3719.3666706247
 21
-508.7005604749005
 31
0.0
  0
LINE
  5
1C7
330
1F
100
AcDbEntity
  8
0-C_ハッチ
  6
Continuous
 62
   120
370
     5
100
AcDbLine
 10
-3654.670889770159
 20
-513.999371709742
 30
0.0
 11
-3719.3666706247
 21
-449.3035908552017
 31
0.0
  0
LINE
  5
1C8
330
1F
100
AcDbEntity
  8
0-C_ハッチ
  6
Continuous
 62
   120
370
     5
100
AcDbLine
 10
-3595.273920150526
 20
-513.9993717097352
 30
0.0
 11
-3719.3666706247
 21
-389.9066212355514
 31
0.0
  0
LINE
  5
1C9
330
1F
100
AcDbEntity
  8
0-C_ハッチ
  6
Continuous
 62
   120
370
     5
100
AcDbLine
 10
-3572.367346898991
 20
-477.5089753415611
 30
0.0
 11
-3719.366670624713
 21
-330.509651615847
 31
0.0
  0
LINE
  5
1CA
330
1F
100
AcDbEntity
  8
0-C_ハッチ
  6
Continuous
 62
   120
370
     5
100
AcDbLine
 10
-3572.367346899005
 20
-418.112005721904
 30
0.0
 11
-3692.479797805699
 21
-297.99955481521
 31
0.0
  0
LINE
  5
1CB
330
1F
100
AcDbEntity
  8
0-C_ハッチ
  6
Continuous
 62
   120
370
     5
100
AcDbLine
 10
-3537.083469055187
 20
-393.9989139460671
 30
0.0
 11
-3633.082828186039
 21
-297.9995548152223
 31
0.0
  0
LINE
  5
1CC
330
1F
100
AcDbEntity
  8
0-C_ハッチ
  6
Continuous
 62
   120
370
     5
100
AcDbLine
 10
-3357.686041671814
 20
-513.999371709742
 30
0.0
 11
-3404.367094056101
 21
-467.318319325461
 31
0.0
  0
LINE
  5
1CD
330
1F
100
AcDbEntity
  8
0-C_ハッチ
  6
Continuous
 62
   120
370
     5
100
AcDbLine
 10
-3477.686499435486
 20
-393.9989139460671
 30
0.0
 11
-3573.68585856635
 21
-297.9995548152053
 31
0.0
  0
LINE
  5
1CE
330
1F
100
AcDbEntity
  8
0-C_ハッチ
  6
Continuous
 62
   120
370
     5
100
AcDbLine
 10
-3298.289072052166
 20
-513.999371709739
 30
0.0
 11
-3404.367094056088
 21
-407.9213497058197
 31
0.0
  0
LINE
  5
1CF
330
1F
100
AcDbEntity
  8
0-C_ハッチ
  6
Continuous
 62
   120
370
     5
100
AcDbLine
 10
-3418.289529815852
 20
-393.9989139460633
 30
0.0
 11
-3514.288888946689
 21
-297.9995548152168
 31
0.0
  0
LINE
  5
1D0
330
1F
100
AcDbEntity
  8
0-C_ハッチ
  6
Continuous
 62
   120
370
     5
100
AcDbLine
 10
-3257.366670624697
 20
-495.5248035175097
 30
0.0
 11
-3454.891919327001
 21
-297.9995548152066
 31
0.0
  0
LINE
  5
1D1
330
1F
100
AcDbEntity
  8
0-C_ハッチ
  6
Continuous
 62
   120
370
     5
100
AcDbLine
 10
-3257.36667062471
 20
-436.1278338978556
 30
0.0
 11
-3395.494949707354
 21
-297.99955481521
 31
0.0
  0
LINE
  5
1D2
330
1F
100
AcDbEntity
  8
0-C_ハッチ
  6
Continuous
 62
   120
370
     5
100
AcDbLine
 10
-3257.36667062471
 20
-376.7308642782053
 30
0.0
 11
-3336.097980087693
 21
-297.9995548152223
 31
0.0
  0
LINE
  5
1D3
330
1F
100
AcDbEntity
  8
0-C_ハッチ
  6
Continuous
 62
   120
370
     5
100
AcDbLine
 10
-3257.366670624697
 20
-317.333894658518
 30
0.0
 11
-3276.701010468005
 21
-297.9995548152053
 31
0.0
  0
LINE
  5
1D4
330
1F
100
AcDbEntity
  8
0-4_枠
  6
Continuous
 62
   120
370
     5
100
AcDbLine
 10
-3257.366670624697
 20
-297.99955481521
 30
0.0
 11
-3233.366670624705
 21
-297.99955481521
 31
0.0
  0
LINE
  5
1D5
330
1F
100
AcDbEntity
  8
0-4_枠
  6
Continuous
 62
   120
370
     5
100
AcDbLine
 10
-3719.3666706247
 20
-297.99955481521
 30
0.0
 11
-3743.366670624705
 21
-297.99955481521
 31
0.0
  0
LINE
  5
1D6
330
1F
100
AcDbEntity
  8
0-4_枠
  6
Continuous
 62
   120
370
     5
100
AcDbLine
 10
-3233.366670624705
 20
-1761.999713176695
 30
0.0
 11
-3233.366670624705
 21
-297.99955481521
 31
0.0
  0
LINE
  5
1D7
330
1F
100
AcDbEntity
  8
0-C_ハッチ
  6
JWW_DASHED1
 62
   120
370
     5
100
AcDbLine
 10
-3319.553778434038
 20
-297.99955481521
 30
0.0
 11
-3338.366670624705
 21
-279.1866626245427
 31
0.0
  0
LINE
  5
1D8
330
1F
100
AcDbEntity
  8
0-C_ハッチ
  6
JWW_DASHED1
 62
   120
370
     5
100
AcDbLine
 10
-3277.127371562851
 20
-297.9995548151985
 30
0.0
 11
-3338.366670624691
 21
-236.7602557533461
 31
0.0
  0
LINE
  5
1D9
330
1F
100
AcDbEntity
  8
0-C_ハッチ
  6
JWW_DASHED1
 62
   120
370
     5
100
AcDbLine
 10
-3263.366670624705
 20
-269.3338488821448
 30
0.0
 11
-3338.366670624691
 21
-194.3338488821495
 31
0.0
  0
LINE
  5
1DA
330
1F
100
AcDbEntity
  8
0-C_ハッチ
  6
JWW_DASHED1
 62
   120
370
     5
100
AcDbLine
 10
-3263.366670624691
 20
-226.9074420109494
 30
0.0
 11
-3338.366670624691
 21
-151.9074420109516
 31
0.0
  0
LINE
  5
1DB
330
1F
100
AcDbEntity
  8
0-C_ハッチ
  6
JWW_DASHED1
 62
   120
370
     5
100
AcDbLine
 10
-3263.366670624691
 20
-184.4810351397516
 30
0.0
 11
-3338.366670624691
 21
-109.4810351397558
 31
0.0
  0
LINE
  5
1DC
330
1F
100
AcDbEntity
  8
0-C_ハッチ
  6
JWW_DASHED1
 62
   120
370
     5
100
AcDbLine
 10
-3263.366670624691
 20
-142.0546282685558
 30
0.0
 11
-3338.366670624691
 21
-67.05462826855836
 31
0.0
  0
LINE
  5
1DD
330
1F
100
AcDbEntity
  8
0-C_ハッチ
  6
JWW_DASHED1
 62
   120
370
     5
100
AcDbLine
 10
-3263.366670624691
 20
-99.6282213974061
 30
0.0
 11
-3338.366670624691
 21
-24.62822139741206
 31
0.0
  0
LINE
  5
1DE
330
1F
100
AcDbEntity
  8
0-3_仕上げ
  6
Continuous
 62
    40
370
     5
100
AcDbLine
 10
-3263.366670624705
 20
-297.99955481521
 30
0.0
 11
-3263.366670624705
 21
2.000445184790465
 31
0.0
  0
LINE
  5
1DF
330
1F
100
AcDbEntity
  8
0-3_仕上げ
  6
Continuous
 62
    40
370
     5
100
AcDbLine
 10
-3338.366670624705
 20
-297.99955481521
 30
0.0
 11
-3338.366670624705
 21
2.000445184790465
 31
0.0
  0
LINE
  5
1E0
330
1F
100
AcDbEntity
  8
0-C_ハッチ
  6
JWW_DASHED1
 62
   120
370
     5
100
AcDbLine
 10
-3263.366670624691
 20
-57.20181452620523
 30
0.0
 11
-3322.568930335692
 21
2.000445184790465
 31
0.0
  0
LINE
  5
1E1
330
1F
100
AcDbEntity
  8
0-C_ハッチ
  6
JWW_DASHED1
 62
   120
370
     5
100
AcDbLine
 10
-3263.366670624691
 20
-14.77540765500606
 30
0.0
 11
-3280.142523464492
 21
2.000445184790465
 31
0.0
  0
LINE
  5
1E2
330
1F
100
AcDbEntity
  8
0-4_枠
  6
Continuous
 62
   120
370
     5
100
AcDbLine
 10
-3743.366670624705
 20
-1761.999713176695
 30
0.0
 11
-3743.366670624705
 21
-297.99955481521
 31
0.0
  0
LINE
  5
1E3
330
1F
100
AcDbEntity
  8
0-4_枠
  6
Continuous
 62
   120
370
     5
100
AcDbLine
 10
-3743.366670624705
 20
-3225.999963090914
 30
0.0
 11
-3743.366670624705
 21
-1881.999713176695
 31
0.0
  0
LINE
  5
1E4
330
1F
100
AcDbEntity
  8
0-4_枠
  6
Continuous
 62
   120
370
     5
100
AcDbLine
 10
-3233.366670624705
 20
-3225.999963090914
 30
0.0
 11
-3233.366670624705
 21
-1881.999713176695
 31
0.0
  0
LINE
  5
1E5
330
1F
100
AcDbEntity
  8
0-0_補助線
  6
JWW_HOJO
 62
   120
370
     5
100
AcDbLine
 10
-4289.366332510049
 20
-3297.999940794942
 30
0.0
 11
-2240.365908629915
 21
-3297.999940794942
 31
0.0
  0
LINE
  5
1E6
330
1F
100
AcDbEntity
  8
0-3_仕上げ
  6
Continuous
 62
     7
370
     5
100
AcDbLine
 10
-4079.366348636399
 20
-3274.000195684348
 30
0.0
 11
-2870.366048221931
 21
-3274.000195684348
 31
0.0
  0
LINE
  5
1E7
330
1F
100
AcDbEntity
  8
0-3_仕上げ
  6
Continuous
 62
     7
370
     5
100
AcDbLine
 10
-4079.366348636399
 20
-3262.000230325923
 30
0.0
 11
-2870.366048221931
 21
-3262.000230325923
 31
0.0
  0
LINE
  5
1E8
330
1F
100
AcDbEntity
  8
0-3_仕上げ
  6
Continuous
 62
     7
370
     5
100
AcDbLine
 10
-4079.366348636399
 20
-3286.000346622643
 30
0.0
 11
-2870.366048221931
 21
-3286.000346622643
 31
0.0
  0
LINE
  5
1E9
330
1F
100
AcDbEntity
  8
0-3_仕上げ
  6
Continuous
 62
    40
370
     5
100
AcDbLine
 10
-4079.366348636399
 20
-3298.000311981067
 30
0.0
 11
-2870.366048221931
 21
-3298.000311981067
 31
0.0
  0
LINE
  5
1EA
330
1F
100
AcDbEntity
  8
0-3_仕上げ
  6
Continuous
 62
     7
370
     5
100
AcDbLine
 10
-4079.366348636399
 20
-3250.000264967499
 30
0.0
 11
-2870.366048221931
 21
-3250.000264967499
 31
0.0
  0
LINE
  5
1EB
330
1F
100
AcDbEntity
  8
0-3_仕上げ
  6
Continuous
 62
     7
370
     5
100
AcDbLine
 10
-4079.366348636399
 20
-3238.000114029208
 30
0.0
 11
-2870.366048221931
 21
-3238.000114029208
 31
0.0
  0
LINE
  5
1EC
330
1F
100
AcDbEntity
  8
0-3_仕上げ
  6
Continuous
 62
    40
370
     5
100
AcDbLine
 10
-2870.366048221931
 20
-3226.000334250649
 30
0.0
 11
-4079.366348636399
 21
-3226.000334250649
 31
0.0
  0
LWPOLYLINE
  5
1ED
330
1F
100
AcDbEntity
  8
0-B_寸法
  6
Continuous
 62
     7
370
     5
100
AcDbPolyline
 90
        4
 70
     1
 43
3.0
 10
-4437.866332510035
 20
-3297.999940821333
 42
0.4142135623731
 10
-4439.366332510035
 20
-3296.499940821333
 42
0.4142135623731
 10
-4440.866332510035
 20
-3297.999940821333
 42
0.4142135623731
 10
-4439.366332510035
 20
-3299.499940821333
 42
0.4142135623731
  0
LINE
  5
1EE
330
1F
100
AcDbEntity
  8
0-B_寸法
  6
Continuous
 62
   120
370
     5
100
AcDbLine
 10
-4079.366332510035
 20
-3297.999940821333
 30
0.0
 11
-4439.366332510035
 21
-3297.999940821333
 31
0.0
  0
LINE
  5
1EF
330
1F
100
AcDbEntity
  8
0-0_補助線
  6
JWW_HOJO
 62
   120
370
     5
100
AcDbLine
 10
-2859.814353366028
 20
-1761.999713176695
 30
0.0
 11
-4103.342260281042
 21
-1761.999713176695
 31
0.0
  0
LINE
  5
1F0
330
1F
100
AcDbEntity
  8
0-0_補助線
  6
JWW_HOJO
 62
   120
370
     5
100
AcDbLine
 10
-2859.814353366028
 20
-1881.999713176695
 30
0.0
 11
-4103.342260281042
 21
-1881.999713176695
 31
0.0
  0
LWPOLYLINE
  5
1F1
330
1F
100
AcDbEntity
  8
0-B_寸法
  6
Continuous
 62
     7
370
     5
100
AcDbPolyline
 90
        4
 70
     1
 43
3.0
 10
-2658.866706904269
 20
-3225.999963090917
 42
0.4142135623731
 10
-2660.366706904269
 20
-3224.499963090917
 42
0.4142135623731
 10
-2661.866706904269
 20
-3225.999963090917
 42
0.4142135623731
 10
-2660.366706904269
 20
-3227.499963090917
 42
0.4142135623731
  0
LINE
  5
1F2
330
1F
100
AcDbEntity
  8
0-B_寸法
  6
Continuous
 62
   120
370
     5
100
AcDbLine
 10
-2660.366706904269
 20
-3225.999963090917
 30
0.0
 11
-2660.366706904269
 21
-513.998946113247
 31
0.0
  0
LINE
  5
1F3
330
1F
100
AcDbEntity
  8
0-7_金物
  6
Continuous
 62
     7
370
     5
100
AcDbLine
 10
-3497.36672923701
 20
-3220.000334250649
 30
0.0
 11
-3479.366966779235
 21
-3220.000334250649
 31
0.0
  0
LINE
  5
1F4
330
1F
100
AcDbEntity
  8
0-B_寸法
  6
Continuous
 62
   120
370
     5
100
AcDbLine
 10
-2240.366706904269
 20
-267.9995696616005
 30
0.0
 11
-2870.366706904269
 21
-267.9995696616005
 31
0.0
  0
LWPOLYLINE
  5
1F5
330
1F
100
AcDbEntity
  8
0-B_寸法
  6
Continuous
 62
     7
370
     5
100
AcDbPolyline
 90
        4
 70
     1
 43
3.0
 10
-2238.866706904269
 20
-267.9995696616005
 42
0.4142135623731
 10
-2240.366706904269
 20
-266.4995696616005
 42
0.4142135623731
 10
-2241.866706904269
 20
-267.9995696616005
 42
0.4142135623731
 10
-2240.366706904269
 20
-269.4995696616006
 42
0.4142135623731
  0
LINE
  5
1F6
330
1F
100
AcDbEntity
  8
0-B_寸法
  6
Continuous
 62
   120
370
     5
100
AcDbLine
 10
-2240.366706904269
 20
-3297.999940821333
 30
0.0
 11
-2240.366706904269
 21
-267.9995696616005
 31
0.0
  0
LINE
  5
1F7
330
1F
100
AcDbEntity
  8
0-7_金物
  6
Continuous
 62
     7
370
     5
100
AcDbLine
 10
-3578.366601960151
 20
-279.8539714350942
 30
0.0
 11
-3398.366739289258
 21
-279.8539714350942
 31
0.0
  0
LINE
  5
1F8
330
1F
100
AcDbEntity
  8
0-7_金物
  6
Continuous
 62
     7
370
     5
100
AcDbLine
 10
-3398.366739289258
 20
-267.8536338343848
 30
0.0
 11
-3398.366739289258
 21
-279.8539714350942
 31
0.0
  0
LINE
  5
1F9
330
1F
100
AcDbEntity
  8
0-7_金物
  6
Continuous
 62
     7
370
     5
100
AcDbLine
 10
-3578.366601960151
 20
-267.8536338343848
 30
0.0
 11
-3578.366601960151
 21
-279.8539714350942
 31
0.0
  0
LINE
  5
1FA
330
1F
100
AcDbEntity
  8
0-7_金物
  6
Continuous
 62
     7
370
     5
100
AcDbLine
 10
-3578.366601960151
 20
-267.8536338343848
 30
0.0
 11
-3398.366739289258
 21
-267.8536338343848
 31
0.0
  0
LINE
  5
1FB
330
1F
100
AcDbEntity
  8
0-7_金物
  6
Continuous
 62
     7
370
     5
100
AcDbLine
 10
-3548.366498963314
 20
-279.8539714350942
 30
0.0
 11
-3548.366498963314
 21
-291.8535651698334
 31
0.0
  0
LINE
  5
1FC
330
1F
100
AcDbEntity
  8
0-7_金物
  6
Continuous
 62
     7
370
     5
100
AcDbLine
 10
-3428.366842286068
 20
-279.8539714350942
 30
0.0
 11
-3428.366842286068
 21
-291.8535651698334
 31
0.0
  0
LINE
  5
1FD
330
1F
100
AcDbEntity
  8
0-7_金物
  6
Continuous
 62
     7
370
     5
100
AcDbLine
 10
-3548.366498963314
 20
-291.8535651698334
 30
0.0
 11
-3428.366842286068
 21
-291.8535651698334
 31
0.0
  0
LINE
  5
1FE
330
1F
100
AcDbEntity
  8
0-7_金物
  6
Continuous
 62
     7
370
     5
100
AcDbLine
 10
-3542.366333023983
 20
-291.8535651698334
 30
0.0
 11
-3542.366333023983
 21
-297.99955481521
 31
0.0
  0
LINE
  5
1FF
330
1F
100
AcDbEntity
  8
0-7_金物
  6
Continuous
 62
     7
370
     5
100
AcDbLine
 10
-3434.366264359433
 20
-297.99955481521
 30
0.0
 11
-3434.366264359433
 21
-291.8535651698334
 31
0.0
  0
LINE
  5
200
330
1F
100
AcDbEntity
  8
0-3_仕上げ
  6
Continuous
 62
   120
370
     5
100
AcDbLine
 10
-3758.366670624705
 20
-267.99955481521
 30
0.0
 11
-3338.366670624705
 21
-267.99955481521
 31
0.0
  0
LINE
  5
201
330
1F
100
AcDbEntity
  8
0-3_仕上げ
  6
Continuous
 62
   120
370
     5
100
AcDbLine
 10
-3338.366670624705
 20
-87.99955481521124
 30
0.0
 11
-3758.366670624705
 21
-87.99955481521124
 31
0.0
  0
LINE
  5
202
330
1F
100
AcDbEntity
  8
0-3_仕上げ
  6
Continuous
 62
   120
370
     5
100
AcDbLine
 10
-3758.366670624705
 20
-87.99955481521124
 30
0.0
 11
-3758.366670624705
 21
-267.99955481521
 31
0.0
  0
LINE
  5
203
330
1F
100
AcDbEntity
  8
0-3_仕上げ
  6
Continuous
 62
   120
370
     5
100
AcDbLine
 10
-3338.366670624705
 20
-87.99955481521124
 30
0.0
 11
-3758.366670624705
 21
-267.99955481521
 31
0.0
  0
LINE
  5
204
330
1F
100
AcDbEntity
  8
0-B_寸法
  6
Continuous
 62
   120
370
     5
100
AcDbLine
 10
-4439.366332510035
 20
-267.99955481521
 30
0.0
 11
-4439.366332510035
 21
-3297.999940821333
 31
0.0
  0
LWPOLYLINE
  5
205
330
1F
100
AcDbEntity
  8
0-B_寸法
  6
Continuous
 62
     7
370
     5
100
AcDbPolyline
 90
        4
 70
     1
 43
3.0
 10
-4437.866332510035
 20
-267.99955481521
 42
0.4142135623731
 10
-4439.366332510035
 20
-266.4995548152099
 42
0.4142135623731
 10
-4440.866332510035
 20
-267.99955481521
 42
0.4142135623731
 10
-4439.366332510035
 20
-269.49955481521
 42
0.4142135623731
  0
LINE
  5
206
330
1F
100
AcDbEntity
  8
0-B_寸法
  6
Continuous
 62
   120
370
     5
100
AcDbLine
 10
-4439.366332510035
 20
-267.99955481521
 30
0.0
 11
-4079.366332510035
 21
-267.99955481521
 31
0.0
  0
MTEXT
  5
207
330
1F
100
AcDbEntity
  8
0-B_寸法
  6
Continuous
 62
     7
370
   211
100
AcDbMText
 10
-2255.366706904269
 20
-276.716270067667
 30
0.0
 40
91.44
 41
60.0
 46
0.0
 71
     7
 72
     1
  1
{\fＭＳ ゴシック|b0|i0|c128|p49;5}
 11
6.123031769111886E-17
 21
1.0
 31
0.0
 73
     1
 44
1.0
  0
MTEXT
  5
208
330
1F
100
AcDbEntity
  8
0-B_寸法
  6
Continuous
 62
     7
370
     0
100
AcDbMText
 10
-2465.36601407277
 20
-476.5290723075555
 30
0.0
 40
91.44
 41
120.0
 46
0.0
 71
     7
 72
     1
  1
{\fＭＳ ゴシック|b0|i0|c128|p49;36}
 11
6.123031769111886E-17
 21
1.0
 31
0.0
 73
     1
 44
1.0
  0
MTEXT
  5
209
330
1F
100
AcDbEntity
  8
0-B_寸法
  6
Continuous
 62
     7
370
     0
100
AcDbMText
 10
-2674.794489484561
 20
-770.559864077652
 30
0.0
 40
91.44
 41
180.0
 46
0.0
 71
     7
 72
     1
  1
{\fＭＳ ゴシック|b0|i0|c128|p49;7.5}
 11
6.123031769111886E-17
 21
1.0
 31
0.0
 73
     1
 44
1.0
  0
MTEXT
  5
20A
330
1F
100
AcDbEntity
  8
0-B_寸法
  6
Continuous
 62
     7
370
     0
100
AcDbMText
 10
-3548.367219941106
 20
-808.7618941193456
 30
0.0
 40
91.44
 41
120.0
 46
0.0
 71
     7
 72
     1
  1
{\fＭＳ ゴシック|b0|i0|c128|p49;77}
 73
     1
 44
1.0
  0
LINE
  5
20B
330
1F
100
AcDbEntity
  8
0-0_補助線
  6
JWW_HOJO
 62
   120
370
     5
100
AcDbLine
 10
-2450.365908629929
 20
-3297.999940794942
 30
0.0
 11
-2450.366649104062
 21
2.000445184790465
 31
0.0
  0
LINE
  5
20C
330
1F
100
AcDbEntity
  8
0-0_補助線
  6
JWW_HOJO
 62
   120
370
     5
100
AcDbLine
 10
-2660.365908629929
 20
-3297.999940794942
 30
0.0
 11
-2660.366649104062
 21
2.000445184790465
 31
0.0
  0
LINE
  5
20D
330
1F
100
AcDbEntity
  8
0-0_補助線
  6
JWW_HOJO
 62
   120
370
     5
100
AcDbLine
 10
-2870.366032095567
 20
-3297.999940794942
 30
0.0
 11
-2870.366772569701
 21
2.000445184790465
 31
0.0
  0
LINE
  5
20E
330
1F
100
AcDbEntity
  8
0-0_補助線
  6
JWW_HOJO
 62
   120
370
     5
100
AcDbLine
 10
-2240.365908629915
 20
-3297.999940821333
 30
0.0
 11
-2240.366649104049
 21
2.000445184790465
 31
0.0
  0
LINE
  5
20F
330
1F
100
AcDbEntity
  8
0-0_補助線
  6
JWW_HOJO
 62
   120
370
     5
100
AcDbLine
 10
-4289.367072984182
 20
2.000445184790465
 30
0.0
 11
-2240.366649104049
 21
2.000445184790465
 31
0.0
  0
LINE
  5
210
330
1F
100
AcDbEntity
  8
0-0_補助線
  6
JWW_HOJO
 62
   120
370
     5
100
AcDbLine
 10
-4079.366332510035
 20
-3297.999940794942
 30
0.0
 11
-4079.367072984169
 21
2.000445184790465
 31
0.0
  0
LINE
  5
211
330
1F
100
AcDbEntity
  8
0-1_通り芯
  6
JWW_CENTER1
 62
   120
370
     5
100
AcDbLine
 10
-3488.366670624705
 20
-3381.830282862587
 30
0.0
 11
-3488.366670624705
 21
2.000445184790465
 31
0.0
  0
LINE
  5
212
330
1F
100
AcDbEntity
  8
0-0_補助線
  6
JWW_HOJO
 62
   120
370
     5
100
AcDbLine
 10
-4289.366332510049
 20
-3297.999940794942
 30
0.0
 11
-4289.367072984182
 21
2.000445184790465
 31
0.0
  0
MTEXT
  5
213
330
1F
100
AcDbEntity
  8
0-B_寸法
  6
Continuous
 62
     7
370
     0
100
AcDbMText
 10
-2674.833202151676
 20
-3186.625103839969
 30
0.0
 40
91.44
 41
240.0
 46
0.0
 71
     7
 72
     1
  1
{\fＭＳ ゴシック|b0|i0|c128|p49;11.5}
 11
6.123031769111886E-17
 21
1.0
 31
0.0
 73
     1
 44
1.0
  0
MTEXT
  5
214
330
1F
100
AcDbEntity
  8
0-B_寸法
  6
Continuous
 62
     7
370
   211
100
AcDbMText
 10
-2249.914806693268
 20
-3446.42642465619
 30
0.0
 40
91.44
 41
120.0
 46
0.0
 71
     7
 72
     1
  1
{\fＭＳ ゴシック|b0|i0|c128|p49;12}
 11
6.123031769111886E-17
 21
1.0
 31
0.0
 73
     1
 44
1.0
  0
MTEXT
  5
215
330
1F
100
AcDbEntity
  8
0-B_寸法
  6
Continuous
 62
     7
370
   211
100
AcDbMText
 10
-4454.366332510035
 20
-2166.279758953063
 30
0.0
 40
91.43999999999997
 41
780.0
 46
0.0
 71
     7
 72
     1
  1
{\fＭＳ ゴシック|b0|i0|c128|p49;ＲＯＨ＝2,356}
 11
6.123031769111886E-17
 21
1.0
 31
0.0
 73
     1
 44
1.0
  0
MTEXT
  5
216
330
1F
100
AcDbEntity
  8
0-B_寸法
  6
Continuous
 62
     7
370
     0
100
AcDbMText
 10
-2675.366014072756
 20
-2124.809838454786
 30
0.0
 40
91.43999999999997
 41
660.0
 46
0.0
 71
     7
 72
     1
  1
{\fＭＳ ゴシック|b0|i0|c128|p49;ＤＨ＝2,284}
 11
6.123031769111886E-17
 21
1.0
 31
0.0
 73
     1
 44
1.0
  0
MTEXT
  5
217
330
1F
100
AcDbEntity
  8
0-B_寸法
  6
Continuous
 62
     7
370
     0
100
AcDbMText
 10
-2465.36601407277
 20
-2124.809838454786
 30
0.0
 40
91.43999999999997
 41
660.0
 46
0.0
 71
     7
 72
     1
  1
{\fＭＳ ゴシック|b0|i0|c128|p49;枠内＝2,303}
 11
6.123031769111886E-17
 21
1.0
 31
0.0
 73
     1
 44
1.0
  0
MTEXT
  5
218
330
1F
100
AcDbEntity
  8
0-B_寸法
  6
Continuous
 62
     7
370
     0
100
AcDbMText
 10
-2255.367498711694
 20
-2124.809838454786
 30
0.0
 40
91.43999999999997
 41
660.0
 46
0.0
 71
     7
 72
     1
  1
{\fＭＳ ゴシック|b0|i0|c128|p49;枠外＝2,339}
 11
6.123031769111886E-17
 21
1.0
 31
0.0
 73
     1
 44
1.0
  0
MTEXT
  5
219
330
1F
100
AcDbEntity
  8
0-B_寸法
  6
Continuous
 62
     7
370
     0
100
AcDbMText
 10
-3600.866665365616
 20
-1333.746620123454
 30
0.0
 40
91.44000000000001
 41
240.0000000000001
 46
0.0
 71
     7
 72
     1
  1
{\fＭＳ ゴシック|b0|i0|c128|p49;(24)}
 11
0.9999999999914964
 21
-4.124000509320243E-6
 31
0.0
 73
     1
 44
1.0
  0
LINE
  5
21A
330
1F
100
AcDbEntity
  8
0-B_寸法
  6
JWW_HOJO
 62
   120
370
     5
100
AcDbLine
 10
-3486.738585447546
 20
-3608.197273733674
 30
0.0
 11
-1077.214775923737
 21
-3608.197273733674
 31
0.0
  0
MTEXT
  5
21B
330
1F
100
AcDbEntity
  8
0-B_寸法
  6
Continuous
 62
     7
370
     0
100
AcDbMText
 10
-3486.738585447546
 20
-3618.907273733674
 30
0.0
 40
68.58
 41
1350.0
 46
0.0
 71
     7
 72
     1
  1
{\fＭＳ ゴシック|b0|i0|c128|p49;※扉厚（　）内はルーバーの場合}
 73
     1
 44
1.0
  0
MTEXT
  5
21C
330
1F
100
AcDbEntity
  8
0-0_補助線
  6
Continuous
 62
     7
370
     0
100
AcDbMText
 10
-1702.91613799197
 20
-384.9441189546852
 30
0.0
 40
91.44000000000008
 41
1440.000000000001
 46
0.0
 71
     7
 72
     1
  1
{\fＭＳ ゴシック|b0|i0|c128|p49;竪枠下端形状図（S＝1/3）}
 73
     1
 44
1.0
  0
MTEXT
  5
21D
330
1F
100
AcDbEntity
  8
0-0_補助線
  6
Continuous
 62
     7
370
   211
100
AcDbMText
 10
-1027.100512166653
 20
-1169.60069530255
 30
0.0
 40
91.43999999999919
 41
119.9999999999989
 46
0.0
 71
     7
 72
     1
  1
{\fＭＳ ゴシック|b0|i0|c128|p49;85}
 73
     1
 44
1.0
  0
LINE
  5
21E
330
1F
100
AcDbEntity
  8
0-C_ハッチ
  6
Continuous
 62
    92
370
     5
100
AcDbLine
 10
2378.718542843321
 20
-3297.999940821333
 30
0.0
 11
2378.718542843321
 21
-198.9024959924289
 31
0.0
  0
LINE
  5
21F
330
1F
100
AcDbEntity
  8
0-C_ハッチ
  6
Continuous
 62
    92
370
     5
100
AcDbLine
 10
9.918542843319642
 20
-3297.999940821333
 30
0.0
 11
9.918542843319642
 21
-198.9024959924289
 31
0.0
  0
LINE
  5
220
330
1F
100
AcDbEntity
  8
0-C_ハッチ
  6
Continuous
 62
    92
370
     5
100
AcDbLine
 10
9.918542843319642
 20
-198.9024959924289
 30
0.0
 11
4747.518542843321
 21
-198.9024959924289
 31
0.0
  0
LINE
  5
221
330
1F
100
AcDbEntity
  8
0-C_ハッチ
  6
Continuous
 62
    92
370
     5
100
AcDbLine
 10
4747.518542843321
 20
-3297.999940821333
 30
0.0
 11
4747.518542843321
 21
-198.9024959924289
 31
0.0
  0
LINE
  5
222
330
1F
100
AcDbEntity
  8
0-C_ハッチ
  6
Continuous
 62
    92
370
     5
100
AcDbLine
 10
4747.518542843321
 20
-414.9024959924294
 30
0.0
 11
9.918542843319642
 21
-414.9024959924294
 31
0.0
  0
LINE
  5
223
330
1F
100
AcDbEntity
  8
0-C_ハッチ
  6
Continuous
 62
    40
370
     5
100
AcDbLine
 10
3956.729892976054
 20
-1666.414102474487
 30
0.0
 11
4312.299743647303
 21
-1603.502277354965
 31
0.0
  0
LINE
  5
224
330
1F
100
AcDbEntity
  8
0-C_ハッチ
  6
Continuous
 62
     7
370
     5
100
AcDbLine
 10
3938.922043961015
 20
-1668.778388972477
 30
0.0
 11
3915.185419261711
 21
-1655.435822206142
 31
0.0
  0
LINE
  5
225
330
1F
100
AcDbEntity
  8
0-C_ハッチ
  6
Continuous
 62
     7
370
     5
100
AcDbLine
 10
3976.7232891314
 20
-1832.6452400644
 30
0.0
 11
3950.451844559443
 21
-1801.694775826787
 31
0.0
  0
ARC
  5
226
330
1F
100
AcDbEntity
  8
0-C_ハッチ
  6
Continuous
 62
     7
370
     5
100
AcDbCircle
 10
3950.031206276012
 20
-1802.124968098387
 30
0.0
 40
0.6000000000000001
100
AcDbArc
 50
279.6772325660855
 51
90.18382920651953
  0
LINE
  5
227
330
1F
100
AcDbEntity
  8
0-C_ハッチ
  6
Continuous
 62
     7
370
     5
100
AcDbLine
 10
3950.132064884346
 20
-1802.716430304386
 30
0.0
 11
3507.724422050951
 21
-1878.15763131308
 31
0.0
  0
LINE
  5
228
330
1F
100
AcDbEntity
  8
0-C_ハッチ
  6
Continuous
 62
     7
370
     5
100
AcDbLine
 10
3950.029281224365
 20
-1801.524971186581
 30
0.0
 11
3740.663564610695
 21
-1802.196707673083
 31
0.0
  0
ARC
  5
229
330
1F
100
AcDbEntity
  8
0-C_ハッチ
  6
Continuous
 62
     7
370
     5
100
AcDbCircle
 10
3172.245698034307
 20
-1829.413916925837
 30
0.0
 40
0.6000000000000001
100
AcDbArc
 50
99.56556047057619
 51
260.070167268476
  0
LINE
  5
22A
330
1F
100
AcDbEntity
  8
0-C_ハッチ
  6
Continuous
 62
     7
370
     5
100
AcDbLine
 10
3154.564626916972
 20
-1861.841939059953
 30
0.0
 11
3171.734680310246
 21
-1829.099495416236
 31
0.0
  0
LINE
  5
22B
330
1F
100
AcDbEntity
  8
0-C_ハッチ
  6
Continuous
 62
     7
370
     5
100
AcDbLine
 10
3656.163868088347
 20
-1590.136313303633
 30
0.0
 11
3641.021534876663
 21
-1593.305742997132
 31
0.0
  0
LINE
  5
22C
330
1F
100
AcDbEntity
  8
0-C_ハッチ
  6
Continuous
 62
     7
370
     5
100
AcDbLine
 10
3706.398389070495
 20
-1579.621765762394
 30
0.0
 11
3691.256055858812
 21
-1582.791195455892
 31
0.0
  0
ARC
  5
22D
330
1F
100
AcDbEntity
  8
0-C_ハッチ
  6
Continuous
 62
     7
370
     5
100
AcDbCircle
 10
3674.456055858813
 20
-1570.804785093505
 30
0.0
 40
16.8
100
AcDbArc
 50
0.0
 51
101.82186584
  0
LINE
  5
22E
330
1F
100
AcDbEntity
  8
0-C_ハッチ
  6
Continuous
 62
     7
370
     5
100
AcDbLine
 10
3691.256055858812
 20
-1570.804785093505
 30
0.0
 11
3691.256055858812
 21
-1582.791195455892
 31
0.0
  0
LINE
  5
22F
330
1F
100
AcDbEntity
  8
0-C_ハッチ
  6
Continuous
 62
     7
370
     5
100
AcDbLine
 10
3671.014246528666
 20
-1554.36112526563
 30
0.0
 11
3669.522058758184
 21
-1554.673453898338
 31
0.0
  0
ARC
  5
230
330
1F
100
AcDbEntity
  8
0-C_ハッチ
  6
Continuous
 62
     7
370
     5
100
AcDbCircle
 10
3672.963868088345
 20
-1571.117113726213
 30
0.0
 40
16.8
100
AcDbArc
 50
101.82186584
 51
180.0
  0
LINE
  5
231
330
1F
100
AcDbEntity
  8
0-C_ハッチ
  6
Continuous
 62
     7
370
     5
100
AcDbLine
 10
3656.163868088347
 20
-1571.117113726213
 30
0.0
 11
3656.163868088347
 21
-1590.136313303633
 31
0.0
  0
ARC
  5
232
330
1F
100
AcDbEntity
  8
0-C_ハッチ
  6
Continuous
 62
     7
370
     5
100
AcDbCircle
 10
3671.633078500694
 20
-1555.790764186941
 30
0.0
 40
24.0
100
AcDbArc
 50
0.0
 51
101.82186584
  0
LINE
  5
233
330
1F
100
AcDbEntity
  8
0-C_ハッチ
  6
Continuous
 62
     7
370
     5
100
AcDbLine
 10
3695.633078500686
 20
-1555.790764186941
 30
0.0
 11
3695.633078500686
 21
-1572.914207561781
 31
0.0
  0
LINE
  5
234
330
1F
100
AcDbEntity
  8
0-C_ハッチ
  6
Continuous
 62
     7
370
     5
100
AcDbLine
 10
3666.716208029038
 20
-1532.299821575691
 30
0.0
 11
3664.584511214079
 21
-1532.746005336703
 31
0.0
  0
ARC
  5
235
330
1F
100
AcDbEntity
  8
0-C_ハッチ
  6
Continuous
 62
     7
370
     5
100
AcDbCircle
 10
3669.501381685736
 20
-1556.236947947952
 30
0.0
 40
24.0
100
AcDbArc
 50
101.82186584
 51
180.0
  0
LINE
  5
236
330
1F
100
AcDbEntity
  8
0-C_ハッチ
  6
Continuous
 62
     7
370
     5
100
AcDbLine
 10
3645.50138168573
 20
-1556.236947947952
 30
0.0
 11
3645.50138168573
 21
-1583.407233058554
 31
0.0
  0
LINE
  5
237
330
1F
100
AcDbEntity
  8
0-C_ハッチ
  6
Continuous
 62
     7
370
     5
100
AcDbLine
 10
3717.264983088798
 20
-1568.386450856783
 30
0.0
 11
3695.633078500686
 21
-1572.914207561781
 31
0.0
  0
LINE
  5
238
330
1F
100
AcDbEntity
  8
0-C_ハッチ
  6
Continuous
 62
     7
370
     5
100
AcDbLine
 10
3645.50138168573
 20
-1583.407233058554
 30
0.0
 11
3623.869477097619
 21
-1587.934989763551
 31
0.0
  0
LINE
  5
239
330
1F
100
AcDbEntity
  8
0-C_ハッチ
  6
Continuous
 62
     7
370
     5
100
AcDbLine
 10
3772.40648253191
 20
-1716.4779730887
 30
0.0
 11
3956.729892976054
 21
-1683.976777307417
 31
0.0
  0
LINE
  5
23A
330
1F
100
AcDbEntity
  8
0-C_ハッチ
  6
Continuous
 62
     7
370
     5
100
AcDbLine
 10
3938.922043961015
 20
-1668.778388972477
 30
0.0
 11
3772.40648253191
 21
-1700.676566535984
 31
0.0
  0
LINE
  5
23B
330
1F
100
AcDbEntity
  8
0-C_ハッチ
  6
Continuous
 62
     7
370
     5
100
AcDbLine
 10
3772.40648253191
 20
-1682.347578509747
 30
0.0
 11
3915.185419261711
 21
-1655.435822206142
 31
0.0
  0
ARC
  5
23C
330
1F
100
AcDbEntity
  8
0-C_ハッチ
  6
Continuous
 62
     7
370
     5
100
AcDbCircle
 10
3742.40648253191
 20
-1746.005390683627
 30
0.0
 40
30.0
100
AcDbArc
 50
247.1651394203828
 51
0.0
  0
LINE
  5
23D
330
1F
100
AcDbEntity
  8
0-C_ハッチ
  6
Continuous
 62
     7
370
     5
100
AcDbLine
 10
3772.40648253191
 20
-1648.113883349682
 30
0.0
 11
3772.40648253191
 21
-1746.005390683627
 31
0.0
  0
LINE
  5
23E
330
1F
100
AcDbEntity
  8
0-C_ハッチ
  6
Continuous
 62
     7
370
     5
100
AcDbLine
 10
3730.764190362906
 20
-1773.654206807499
 30
0.0
 11
3575.738142973232
 21
-1708.376238686568
 31
0.0
  0
LINE
  5
23F
330
1F
100
AcDbEntity
  8
0-C_ハッチ
  6
Continuous
 62
     7
370
     5
100
AcDbLine
 10
3730.764190362906
 20
-1675.762699473554
 30
0.0
 11
3575.731799115246
 21
-1610.482060097266
 31
0.0
  0
LINE
  5
240
330
1F
100
AcDbEntity
  8
0-C_ハッチ
  6
Continuous
 62
     7
370
     5
100
AcDbLine
 10
3575.738142973232
 20
-1610.466994321513
 30
0.0
 11
3575.738142973232
 21
-1733.456609979127
 31
0.0
  0
LINE
  5
241
330
1F
100
AcDbEntity
  8
0-C_ハッチ
  6
Continuous
 62
     7
370
     5
100
AcDbLine
 10
3385.155392733804
 20
-1784.760799755783
 30
0.0
 11
3647.347378639628
 21
-1738.529270913761
 31
0.0
  0
LINE
  5
242
330
1F
100
AcDbEntity
  8
0-C_ハッチ
  6
Continuous
 62
     7
370
     5
100
AcDbLine
 10
3402.963241748857
 20
-1766.788355377219
 30
0.0
 11
3619.818122029855
 21
-1726.937322556537
 31
0.0
  0
LINE
  5
243
330
1F
100
AcDbEntity
  8
0-C_ハッチ
  6
Continuous
 62
     7
370
     5
100
AcDbLine
 10
3760.706578856666
 20
-1452.619780203447
 30
0.0
 11
3751.016496199754
 21
-1461.725690934971
 31
0.0
  0
LINE
  5
244
330
1F
100
AcDbEntity
  8
0-C_ハッチ
  6
Continuous
 62
     7
370
     5
100
AcDbLine
 10
3769.527903872676
 20
-1286.944784750579
 30
0.0
 11
3751.163579373005
 21
-1265.582610879488
 31
0.0
  0
ARC
  5
245
330
1F
100
AcDbEntity
  8
0-C_ハッチ
  6
Continuous
 62
     7
370
     5
100
AcDbCircle
 10
3704.510955455725
 20
-1366.221876659307
 30
0.0
 40
120.0
100
AcDbArc
 50
313.2198432128728
 51
40.68451301777836
  0
LINE
  5
246
330
1F
100
AcDbEntity
  8
0-C_ハッチ
  6
Continuous
 62
     7
370
     5
100
AcDbLine
 10
3786.686898832094
 20
-1453.6696572498
 30
0.0
 11
3771.048062668742
 21
-1468.365697633603
 31
0.0
  0
LINE
  5
247
330
1F
100
AcDbEntity
  8
0-C_ハッチ
  6
Continuous
 62
     7
370
     5
100
AcDbLine
 10
3795.508223848105
 20
-1287.994661796931
 30
0.0
 11
3771.930195170339
 21
-1260.567682483811
 31
0.0
  0
ARC
  5
248
330
1F
100
AcDbEntity
  8
0-C_ハッチ
  6
Continuous
 62
     7
370
     5
100
AcDbCircle
 10
3762.830468331108
 20
-1459.620919574554
 30
0.0
 40
12.0
100
AcDbArc
 50
180.0
 51
313.2198432128728
  0
LINE
  5
249
330
1F
100
AcDbEntity
  8
0-C_ハッチ
  6
Continuous
 62
     7
370
     5
100
AcDbLine
 10
3750.830468331105
 20
-1459.620919574554
 30
0.0
 11
3750.830468331105
 21
-1268.39040397005
 31
0.0
  0
ARC
  5
24A
330
1F
100
AcDbEntity
  8
0-C_ハッチ
  6
Continuous
 62
     7
370
     5
100
AcDbCircle
 10
3762.830468331108
 20
-1268.39040397005
 30
0.0
 40
12.0
100
AcDbArc
 50
40.68451301777846
 51
180.0
  0
ARC
  5
24B
330
1F
100
AcDbEntity
  8
0-C_ハッチ
  6
Continuous
 62
     7
370
     5
100
AcDbCircle
 10
3678.530635480296
 20
-1365.171999612954
 30
0.0
 40
120.0
100
AcDbArc
 50
313.2198432128728
 51
40.68451301777836
  0
LINE
  5
24C
330
1F
100
AcDbEntity
  8
0-C_ハッチ
  6
Continuous
 62
     7
370
     5
100
AcDbLine
 10
3547.059045982873
 20
-1473.379309397739
 30
0.0
 11
3547.059045982873
 21
-1295.825900204218
 31
0.0
  0
ARC
  5
24D
330
1F
100
AcDbEntity
  8
0-C_ハッチ
  6
Continuous
 62
     7
370
     5
100
AcDbCircle
 10
3535.05904598287
 20
-1473.379309397739
 30
0.0
 40
12.0
100
AcDbArc
 50
249.9839863783417
 51
0.0
  0
ARC
  5
24E
330
1F
100
AcDbEntity
  8
0-C_ハッチ
  6
Continuous
 62
     7
370
     5
100
AcDbCircle
 10
3615.867204598507
 20
-1399.864444043282
 30
0.0
 40
120.0
100
AcDbArc
 50
139.3154869822216
 51
226.7801567871272
  0
LINE
  5
24F
330
1F
100
AcDbEntity
  8
0-C_ハッチ
  6
Continuous
 62
     7
370
     5
100
AcDbLine
 10
3533.691261222124
 20
-1487.312224633775
 30
0.0
 11
3549.330097385477
 21
-1502.008265017578
 31
0.0
  0
LINE
  5
250
330
1F
100
AcDbEntity
  8
0-C_ハッチ
  6
Continuous
 62
     7
370
     5
100
AcDbLine
 10
3524.869936206114
 20
-1321.637229180906
 30
0.0
 11
3548.44796488388
 21
-1294.210249867786
 31
0.0
  0
ARC
  5
251
330
1F
100
AcDbEntity
  8
0-C_ハッチ
  6
Continuous
 62
     7
370
     5
100
AcDbCircle
 10
3557.547691723111
 20
-1493.263486958528
 30
0.0
 40
12.0
100
AcDbArc
 50
226.7801567871272
 51
0.0
  0
LINE
  5
252
330
1F
100
AcDbEntity
  8
0-C_ハッチ
  6
Continuous
 62
     7
370
     5
100
AcDbLine
 10
3569.547691723114
 20
-1493.263486958528
 30
0.0
 11
3569.547691723114
 21
-1302.032971354024
 31
0.0
  0
ARC
  5
253
330
1F
100
AcDbEntity
  8
0-C_ハッチ
  6
Continuous
 62
     7
370
     5
100
AcDbCircle
 10
3557.547691723111
 20
-1302.032971354024
 30
0.0
 40
12.0
100
AcDbArc
 50
0.0
 51
139.3154869822215
  0
ARC
  5
254
330
1F
100
AcDbEntity
  8
0-C_ハッチ
  6
Continuous
 62
     7
370
     5
100
AcDbCircle
 10
3776.729892976054
 20
-1343.143592661468
 30
0.0
 40
180.0
100
AcDbArc
 50
82.48094193237357
 51
100.4830549659711
  0
ARC
  5
255
330
1F
100
AcDbEntity
  8
0-C_ハッチ
  6
Continuous
 62
     7
370
     5
100
AcDbCircle
 10
3776.729892976054
 20
-1343.143592661468
 30
0.0
 40
180.0
100
AcDbArc
 50
0.0
 51
82.48094193237357
  0
LINE
  5
256
330
1F
100
AcDbEntity
  8
0-C_ハッチ
  6
Continuous
 62
     7
370
     5
100
AcDbLine
 10
3700.567369896593
 20
-1151.734818649847
 30
0.0
 11
3800.51309239102
 21
-1164.721734623871
 31
0.0
  0
ARC
  5
257
330
1F
100
AcDbEntity
  8
0-C_ハッチ
  6
Continuous
 62
     7
370
     5
100
AcDbCircle
 10
3677.962512754188
 20
-1330.309790114413
 30
0.0
 40
180.0
100
AcDbArc
 50
82.78560205276084
 51
100.4830549659711
  0
LINE
  5
258
330
1F
100
AcDbEntity
  8
0-C_ハッチ
  6
Continuous
 62
     7
370
     5
100
AcDbLine
 10
3488.088385549931
 20
-1180.287525813608
 30
0.0
 11
3645.212462578947
 21
-1153.314213295332
 31
0.0
  0
ARC
  5
259
330
1F
100
AcDbEntity
  8
0-C_ハッチ
  6
Continuous
 62
     7
370
     5
100
AcDbCircle
 10
3758.922043961015
 20
-1361.682640018058
 30
0.0
 40
180.0
100
AcDbArc
 50
0.0
 51
100.4830549659711
  0
LINE
  5
25A
330
1F
100
AcDbEntity
  8
0-C_ハッチ
  6
Continuous
 62
     7
370
     5
100
AcDbLine
 10
3938.922043961015
 20
-1361.682640018058
 30
0.0
 11
3938.922043961015
 21
-1668.778388972477
 31
0.0
  0
LINE
  5
25B
330
1F
100
AcDbEntity
  8
0-C_ハッチ
  6
Continuous
 62
     7
370
     5
100
AcDbLine
 10
3726.171993785774
 20
-1184.687063198976
 30
0.0
 11
3553.675293942142
 21
-1216.604671969031
 31
0.0
  0
LINE
  5
25C
330
1F
100
AcDbEntity
  8
0-C_ハッチ
  6
Continuous
 62
     7
370
     5
100
AcDbLine
 10
3956.729892976054
 20
-1343.143592661468
 30
0.0
 11
3956.729892976054
 21
-1683.976777307417
 31
0.0
  0
LINE
  5
25D
330
1F
100
AcDbEntity
  8
0-C_ハッチ
  6
Continuous
 62
     7
370
     5
100
AcDbLine
 10
3743.979842800827
 20
-1166.148015842386
 30
0.0
 11
3532.405342558563
 21
-1205.296313349376
 31
0.0
  0
ARC
  5
25E
330
1F
100
AcDbEntity
  8
0-C_ハッチ
  6
Continuous
 62
     7
370
     5
100
AcDbCircle
 10
3518.543284289648
 20
-1357.692427501113
 30
0.0
 40
180.0
100
AcDbArc
 50
99.74095296447314
 51
180.0
  0
LINE
  5
25F
330
1F
100
AcDbEntity
  8
0-C_ハッチ
  6
Continuous
 62
     7
370
     5
100
AcDbLine
 10
3338.543284289648
 20
-1357.692427501113
 30
0.0
 11
3338.543284289648
 21
-1778.704698447583
 31
0.0
  0
ARC
  5
260
330
1F
100
AcDbEntity
  8
0-C_ハッチ
  6
Continuous
 62
     7
370
     5
100
AcDbCircle
 10
3565.155392733804
 20
-1382.291890168457
 30
0.0
 40
180.0
100
AcDbArc
 50
100.4830549659711
 51
180.0
  0
LINE
  5
261
330
1F
100
AcDbEntity
  8
0-C_ハッチ
  6
Continuous
 62
     7
370
     5
100
AcDbLine
 10
3385.155392733804
 20
-1382.291890168457
 30
0.0
 11
3385.155392733804
 21
-1784.761293590788
 31
0.0
  0
ARC
  5
262
330
1F
100
AcDbEntity
  8
0-C_ハッチ
  6
Continuous
 62
     7
370
     5
100
AcDbCircle
 10
3582.963241748857
 20
-1394.205956067067
 30
0.0
 40
180.0
100
AcDbArc
 50
99.36427710995552
 51
180.0
  0
LINE
  5
263
330
1F
100
AcDbEntity
  8
0-C_ハッチ
  6
Continuous
 62
     7
370
     5
100
AcDbLine
 10
3402.963241748857
 20
-1394.205956067067
 30
0.0
 11
3402.963241748857
 21
-1766.788355377219
 31
0.0
  0
LINE
  5
264
330
1F
100
AcDbEntity
  8
0-C_ハッチ
  6
Continuous
 62
     7
370
     5
100
AcDbLine
 10
3339.112828901402
 20
-1778.778713000816
 30
0.0
 11
3385.155307169184
 21
-1784.761458250698
 31
0.0
  0
LINE
  5
265
330
1F
100
AcDbEntity
  8
0-C_ハッチ
  6
Continuous
 62
     7
370
     5
100
AcDbLine
 10
3666.734792798729
 20
-1851.042518054135
 30
0.0
 11
3666.734792798729
 21
-1886.305734357378
 31
0.0
  0
LINE
  5
266
330
1F
100
AcDbEntity
  8
0-C_ハッチ
  6
Continuous
 62
     7
370
     5
100
AcDbLine
 10
3673.494326571571
 20
-1849.889854092871
 30
0.0
 11
3673.494326571571
 21
-1885.135626667152
 31
0.0
  0
ELLIPSE
  5
267
330
1F
100
AcDbEntity
  8
0-C_ハッチ
  6
Continuous
 62
     7
370
     5
100
AcDbEllipse
 10
3576.75468897125
 20
-1763.752776469184
 30
0.0
 11
36.89776042825395
 21
0.0
 31
0.0
210
0.0
220
0.0
230
1.0
 40
0.5
 41
2.768968464067914
 42
7.32806629937406
  0
LINE
  5
268
330
1F
100
AcDbEntity
  8
0-C_ハッチ
  6
Continuous
 62
     7
370
     5
100
AcDbLine
 10
3595.27754386479
 20
-1763.752776469184
 30
0.0
 11
3595.27754386479
 21
-1747.71058917517
 31
0.0
  0
LINE
  5
269
330
1F
100
AcDbEntity
  8
0-C_ハッチ
  6
Continuous
 62
     7
370
     5
100
AcDbLine
 10
3558.23183407771
 20
-1763.752776469184
 30
0.0
 11
3558.23183407771
 21
-1754.242748404131
 31
0.0
  0
LINE
  5
26A
330
1F
100
AcDbEntity
  8
0-C_ハッチ
  6
Continuous
 62
     7
370
     5
100
AcDbLine
 10
3172.145992403711
 20
-1828.822259265338
 30
0.0
 11
3539.856928542994
 21
-1766.855934459912
 31
0.0
  0
LINE
  5
26B
330
1F
100
AcDbEntity
  8
0-C_ハッチ
  6
Continuous
 62
     7
370
     5
100
AcDbLine
 10
3172.142232832461
 20
-1830.004928729448
 30
0.0
 11
3446.427278997948
 21
-1878.022510596625
 31
0.0
  0
ELLIPSE
  5
26C
330
1F
100
AcDbEntity
  8
0-C_ハッチ
  6
Continuous
 62
     7
370
     5
100
AcDbEllipse
 10
3419.796269091607
 20
-1842.104881453804
 30
0.0
 11
13.10465733292201
 21
0.0
 31
0.0
210
0.0
220
0.0
230
1.0
 40
0.4
 41
0.0
 42
6.283185307179586
  0
ELLIPSE
  5
26D
330
1F
100
AcDbEntity
  8
0-C_ハッチ
  6
Continuous
 62
     7
370
     5
100
AcDbEllipse
 10
3419.036357095978
 20
-1836.532193485834
 30
0.0
 11
19.86135961083638
 21
0.0
 31
0.0
210
0.0
220
0.0
230
1.0
 40
0.5
 41
0.0
 42
6.283185307179586
  0
ELLIPSE
  5
26E
330
1F
100
AcDbEntity
  8
0-C_ハッチ
  6
Continuous
 62
     7
370
     5
100
AcDbEllipse
 10
3742.402658487371
 20
-1826.32879179448
 30
0.0
 11
13.10465733292201
 21
0.0
 31
0.0
210
0.0
220
0.0
230
1.0
 40
0.4
 41
0.0
 42
6.283185307179586
  0
ELLIPSE
  5
26F
330
1F
100
AcDbEntity
  8
0-C_ハッチ
  6
Continuous
 62
     7
370
     5
100
AcDbEllipse
 10
3741.642746491743
 20
-1820.75610382651
 30
0.0
 11
19.86135961083638
 21
0.0
 31
0.0
210
0.0
220
0.0
230
1.0
 40
0.5
 41
0.0
 42
6.283185307179586
  0
ARC
  5
270
330
1F
100
AcDbEntity
  8
0-C_ハッチ
  6
Continuous
 62
     7
370
     5
100
AcDbCircle
 10
3478.599298574795
 20
-1736.195921795701
 30
0.0
 40
180.0
100
AcDbArc
 50
260.0010025806856
 51
279.8208509823177
  0
LINE
  5
271
330
1F
100
AcDbEntity
  8
0-C_ハッチ
  6
Continuous
 62
     7
370
     5
100
AcDbLine
 10
3447.345728448626
 20
-1913.461864250445
 30
0.0
 11
3154.564626916972
 21
-1861.841939059953
 31
0.0
  0
LINE
  5
272
330
1F
100
AcDbEntity
  8
0-C_ハッチ
  6
Continuous
 62
     7
370
     5
100
AcDbLine
 10
3509.301555827464
 20
-1913.558182154524
 30
0.0
 11
3976.7232891314
 21
-1832.6452400644
 31
0.0
  0
ARC
  5
273
330
1F
100
AcDbEntity
  8
0-C_ハッチ
  6
Continuous
 62
     7
370
     5
100
AcDbCircle
 10
3477.466839551211
 20
-1700.718969513371
 30
0.0
 40
180.0
100
AcDbArc
 50
260.070167268476
 51
279.6772325660855
  0
ELLIPSE
  5
274
330
1F
100
AcDbEntity
  8
0-C_ハッチ
  6
Continuous
 62
     7
370
     5
100
AcDbEllipse
 10
3576.75468897125
 20
-1763.752776469184
 30
0.0
 11
18.52285489353675
 21
0.0
 31
0.0
210
0.0
220
0.0
230
1.0
 40
0.5
 41
3.141592653589793
 42
6.283185307179586
  0
LINE
  5
275
330
1F
100
AcDbEntity
  8
0-C_ハッチ
  6
Continuous
 62
     7
370
     5
100
AcDbLine
 10
3740.663564610695
 20
-1802.196707673083
 30
0.0
 11
3602.522688779276
 21
-1826.554591211007
 31
0.0
  0
LINE
  5
276
330
1F
100
AcDbEntity
  8
0-C_ハッチ
  6
Continuous
 62
     7
370
     5
100
AcDbLine
 10
3650.038780825962
 20
-1764.834581142255
 30
0.0
 11
3650.038780825962
 21
-1748.288185243871
 31
0.0
  0
LINE
  5
277
330
1F
100
AcDbEntity
  8
0-C_ハッチ
  6
Continuous
 62
     7
370
     5
100
AcDbLine
 10
3644.602385644766
 20
-1786.910865189974
 30
0.0
 11
3644.602385644534
 21
-1803.457261087985
 31
0.0
  0
LINE
  5
278
330
1F
100
AcDbEntity
  8
0-C_ハッチ
  6
Continuous
 62
     7
370
     5
100
AcDbLine
 10
3497.103123333149
 20
-1829.472400773331
 30
0.0
 11
3644.602385644534
 21
-1803.457261087985
 31
0.0
  0
LINE
  5
279
330
1F
100
AcDbEntity
  8
0-C_ハッチ
  6
Continuous
 62
     7
370
     5
100
AcDbLine
 10
3520.30304653776
 20
-1808.834125137122
 30
0.0
 11
3553.238325715706
 21
-1803.025174807721
 31
0.0
  0
LINE
  5
27A
330
1F
100
AcDbEntity
  8
0-C_ハッチ
  6
Continuous
 62
     7
370
     5
100
AcDbLine
 10
3612.905820528135
 20
-1792.501337685452
 30
0.0
 11
3644.602385644766
 21
-1786.910865189974
 31
0.0
  0
LINE
  5
27B
330
1F
100
AcDbEntity
  8
0-C_ハッチ
  6
Continuous
 62
     7
370
     5
100
AcDbLine
 10
3650.038780825962
 20
-1748.288185243871
 30
0.0
 11
3644.602385644766
 21
-1786.910865189974
 31
0.0
  0
LINE
  5
27C
330
1F
100
AcDbEntity
  8
0-C_ハッチ
  6
Continuous
 62
     7
370
     5
100
AcDbLine
 10
3650.038780825962
 20
-1748.288185243871
 30
0.0
 11
3609.384057454167
 21
-1755.139283608749
 31
0.0
  0
LINE
  5
27D
330
1F
100
AcDbEntity
  8
0-C_ハッチ
  6
Continuous
 62
     7
370
     5
100
AcDbLine
 10
3359.446818282031
 20
-1797.258488183196
 30
0.0
 11
3401.682339957915
 21
-1804.650891231193
 31
0.0
  0
LINE
  5
27E
330
1F
100
AcDbEntity
  8
0-C_ハッチ
  6
Continuous
 62
     7
370
     5
100
AcDbLine
 10
3366.245802968846
 20
-1796.112729240388
 30
0.0
 11
3408.021734687913
 21
-1803.424691132155
 31
0.0
  0
LINE
  5
27F
330
1F
100
AcDbEntity
  8
0-C_ハッチ
  6
Continuous
 62
     7
370
     5
100
AcDbLine
 10
3856.851361730377
 20
-1516.062934555859
 30
0.0
 11
3876.270718006176
 21
-1521.378015241921
 31
0.0
  0
LINE
  5
280
330
1F
100
AcDbEntity
  8
0-C_ハッチ
  6
Continuous
 62
     7
370
     5
100
AcDbLine
 10
3467.303823565935
 20
-1581.702770426468
 30
0.0
 11
3486.723179841733
 21
-1587.017851112531
 31
0.0
  0
ELLIPSE
  5
281
330
1F
100
AcDbEntity
  8
0-C_ハッチ
  6
Continuous
 62
     7
370
     5
100
AcDbEllipse
 10
3459.303382540579
 20
-1615.720087322122
 30
0.0
 11
2.171034762115338E-15
 21
35.45685934649716
 31
0.0
210
0.0
220
0.0
230
1.0
 40
0.8
 41
5.997256757456505
 42
9.266112668701924
  0
LINE
  5
282
330
1F
100
AcDbEntity
  8
0-C_ハッチ
  6
Continuous
 62
     7
370
     5
100
AcDbLine
 10
3454.821624030855
 20
-1650.731574733388
 30
0.0
 11
3474.240980306653
 21
-1656.046655419452
 31
0.0
  0
ELLIPSE
  5
283
330
1F
100
AcDbEntity
  8
0-C_ハッチ
  6
Continuous
 62
     7
370
     5
100
AcDbEllipse
 10
3482.142915102685
 20
-1621.993381295058
 30
0.0
 11
1.068889043675199E-15
 21
17.45685934649716
 31
0.0
210
0.0
220
0.0
230
1.0
 40
0.5937773382631759
 41
0.0
 42
6.283185307179586
  0
ELLIPSE
  5
284
330
1F
100
AcDbEntity
  8
0-C_ハッチ
  6
Continuous
 62
     7
370
     5
100
AcDbEllipse
 10
3482.142915102685
 20
-1621.993381295058
 30
0.0
 11
2.171034762115338E-15
 21
35.45685934649716
 31
0.0
210
0.0
220
0.0
230
1.0
 40
0.8
 41
0.0
 42
6.283185307179586
  0
ELLIPSE
  5
285
330
1F
100
AcDbEntity
  8
0-C_ハッチ
  6
Continuous
 62
     7
370
     5
100
AcDbEllipse
 10
3848.850920705022
 20
-1550.080251451513
 30
0.0
 11
2.171034762115338E-15
 21
35.45685934649716
 31
0.0
210
0.0
220
0.0
230
1.0
 40
0.8
 41
5.997256757456505
 42
9.266112668701924
  0
LINE
  5
286
330
1F
100
AcDbEntity
  8
0-C_ハッチ
  6
Continuous
 62
     7
370
     5
100
AcDbLine
 10
3844.369162195284
 20
-1585.091738862779
 30
0.0
 11
3863.788518471083
 21
-1590.406819548842
 31
0.0
  0
ELLIPSE
  5
287
330
1F
100
AcDbEntity
  8
0-C_ハッチ
  6
Continuous
 62
     7
370
     5
100
AcDbEllipse
 10
3871.690453267115
 20
-1556.353545424448
 30
0.0
 11
1.068889043675199E-15
 21
17.45685934649716
 31
0.0
210
0.0
220
0.0
230
1.0
 40
0.5937773382631759
 41
0.0
 42
6.283185307179586
  0
ELLIPSE
  5
288
330
1F
100
AcDbEntity
  8
0-C_ハッチ
  6
Continuous
 62
     7
370
     5
100
AcDbEllipse
 10
3871.690453267115
 20
-1556.353545424448
 30
0.0
 11
2.171034762115338E-15
 21
35.45685934649716
 31
0.0
210
0.0
220
0.0
230
1.0
 40
0.8
 41
0.0
 42
6.283185307179586
  0
LINE
  5
289
330
1F
100
AcDbEntity
  8
0-C_ハッチ
  6
Continuous
 62
     7
370
     5
100
AcDbLine
 10
3737.00509348479
 20
-1566.769012063655
 30
0.0
 11
3737.00509348479
 21
-1186.372043833374
 31
0.0
  0
LINE
  5
28A
330
1F
100
AcDbEntity
  8
0-C_ハッチ
  6
Continuous
 62
     7
370
     5
100
AcDbLine
 10
3721.130021668332
 20
-1188.989976891999
 30
0.0
 11
3721.130021668332
 21
-1574.706941666318
 31
0.0
  0
LINE
  5
28B
330
1F
100
AcDbEntity
  8
0-C_ハッチ
  6
Continuous
 62
     7
370
     5
100
AcDbLine
 10
3591.396157926133
 20
-1589.765491230636
 30
0.0
 11
3591.396157926133
 21
-1210.384183774374
 31
0.0
  0
LINE
  5
28C
330
1F
100
AcDbEntity
  8
0-C_ハッチ
  6
Continuous
 62
     7
370
     5
100
AcDbLine
 10
3616.051927892876
 20
-1206.2063286047
 30
0.0
 11
3616.531710174117
 21
-1594.550715821159
 31
0.0
  0
LINE
  5
28D
330
1F
100
AcDbEntity
  8
0-C_ハッチ
  6
Continuous
 62
     7
370
     5
100
AcDbLine
 10
3776.816524309106
 20
-1562.800572188233
 30
0.0
 11
3776.816524309106
 21
-1681.516427355159
 31
0.0
  0
LINE
  5
28E
330
1F
100
AcDbEntity
  8
0-C_ハッチ
  6
Continuous
 62
     7
370
     5
100
AcDbLine
 10
3737.00509348479
 20
-1566.769012063655
 30
0.0
 11
3776.816524309106
 21
-1562.800572188233
 31
0.0
  0
LINE
  5
28F
330
1F
100
AcDbEntity
  8
0-C_ハッチ
  6
Continuous
 62
     7
370
     5
100
AcDbLine
 10
3721.130021668332
 20
-1574.706941666318
 30
0.0
 11
3737.00509348479
 21
-1566.769012063655
 31
0.0
  0
LINE
  5
290
330
1F
100
AcDbEntity
  8
0-C_ハッチ
  6
Continuous
 62
     7
370
     5
100
AcDbLine
 10
3591.396157926133
 20
-1589.765491230636
 30
0.0
 11
3616.531710174117
 21
-1594.550715821159
 31
0.0
  0
LINE
  5
291
330
1F
100
AcDbEntity
  8
0-C_ハッチ
  6
Continuous
 62
     7
370
     5
100
AcDbLine
 10
3591.396157926133
 20
-1589.765491230636
 30
0.0
 11
3555.894368818394
 21
-1597.196342404773
 31
0.0
  0
LINE
  5
292
330
1F
100
AcDbEntity
  8
0-C_ハッチ
  6
Continuous
 62
     7
370
     5
100
AcDbLine
 10
3575.738142973232
 20
-1610.466994321513
 30
0.0
 11
3765.220386043502
 21
-1575.771491410678
 31
0.0
  0
LINE
  5
293
330
1F
100
AcDbEntity
  8
0-C_ハッチ
  6
Continuous
 62
     7
370
     5
100
AcDbLine
 10
3555.894368818394
 20
-1597.196342404773
 30
0.0
 11
3557.217444573148
 21
-1720.227427209235
 31
0.0
  0
LINE
  5
294
330
1F
100
AcDbEntity
  8
0-C_ハッチ
  6
Continuous
 62
     7
370
     5
100
AcDbLine
 10
3557.217444573148
 20
-1720.227427209235
 30
0.0
 11
3575.738142973232
 21
-1733.456609979127
 31
0.0
  0
LINE
  5
295
330
1F
100
AcDbEntity
  8
0-C_ハッチ
  6
Continuous
 62
     7
370
     5
100
AcDbLine
 10
3557.217444573148
 20
-1720.227427209235
 30
0.0
 11
3402.963241748857
 21
-1748.794420127271
 31
0.0
  0
LINE
  5
296
330
1F
100
AcDbEntity
  8
0-C_ハッチ
  6
Continuous
 62
     7
370
     5
100
AcDbLine
 10
3539.856928542994
 20
-1763.752776469184
 30
0.0
 11
3539.856928542994
 21
-1788.808763658504
 31
0.0
  0
ELLIPSE
  5
297
330
1F
100
AcDbEntity
  8
0-C_ハッチ
  6
Continuous
 62
     7
370
     5
100
AcDbEllipse
 10
3576.75468897125
 20
-1788.808763658504
 30
0.0
 11
36.89776042825395
 21
0.0
 31
0.0
210
0.0
220
0.0
230
1.0
 40
0.5
 41
3.141592653589793
 42
6.283185307179586
  0
LINE
  5
298
330
1F
100
AcDbEntity
  8
0-C_ハッチ
  6
Continuous
 62
     7
370
     5
100
AcDbLine
 10
3613.652449399505
 20
-1763.752776469184
 30
0.0
 11
3613.652449399505
 21
-1788.808763658504
 31
0.0
  0
LINE
  5
299
330
1F
100
AcDbEntity
  8
0-C_ハッチ
  6
Continuous
 62
     7
370
     5
100
AcDbLine
 10
3620.905437623691
 20
-1840.685320858204
 30
0.0
 11
3673.494326571571
 21
-1849.889854092871
 31
0.0
  0
LINE
  5
29A
330
1F
100
AcDbEntity
  8
0-C_ハッチ
  6
Continuous
 62
     7
370
     5
100
AcDbLine
 10
3614.145903850849
 20
-1841.837984819469
 30
0.0
 11
3666.734792798729
 21
-1851.042518054135
 31
0.0
  0
LINE
  5
29B
330
1F
100
AcDbEntity
  8
0-C_ハッチ
  6
Continuous
 62
     7
370
     5
100
AcDbLine
 10
3614.145903850849
 20
-1841.837984819469
 30
0.0
 11
3620.905437623691
 21
-1840.685320858204
 31
0.0
  0
LINE
  5
29C
330
1F
100
AcDbEntity
  8
0-C_ハッチ
  6
Continuous
 62
     7
370
     5
100
AcDbLine
 10
3401.682339957915
 20
-1804.650891231193
 30
0.0
 11
3408.021734687913
 21
-1803.424691132155
 31
0.0
  0
LINE
  5
29D
330
1F
100
AcDbEntity
  8
0-C_ハッチ
  6
Continuous
 62
     7
370
     5
100
AcDbLine
 10
3515.875854722808
 20
-1809.603937181295
 30
0.0
 11
3520.301242602404
 21
-1808.823897279856
 31
0.0
  0
LINE
  5
29E
330
1F
100
AcDbEntity
  8
0-C_ハッチ
  6
Continuous
 62
     7
370
     5
100
AcDbLine
 10
3511.753349092955
 20
-1810.330959565879
 30
0.0
 11
3515.875854722808
 21
-1809.603937181295
 31
0.0
  0
LINE
  5
29F
330
1F
100
AcDbEntity
  8
0-C_ハッチ
  6
Continuous
 62
     7
370
     5
100
AcDbLine
 10
3507.932938323997
 20
-1811.003914581791
 30
0.0
 11
3511.753349092955
 21
-1810.330959565879
 31
0.0
  0
LINE
  5
2A0
330
1F
100
AcDbEntity
  8
0-C_ハッチ
  6
Continuous
 62
     7
370
     5
100
AcDbLine
 10
3504.415409804796
 20
-1811.624377006757
 30
0.0
 11
3507.932938323997
 21
-1811.003914581791
 31
0.0
  0
LINE
  5
2A1
330
1F
100
AcDbEntity
  8
0-C_ハッチ
  6
Continuous
 62
     7
370
     5
100
AcDbLine
 10
3501.199976146476
 20
-1812.191296988962
 30
0.0
 11
3504.415409804796
 21
-1811.624377006757
 31
0.0
  0
LINE
  5
2A2
330
1F
100
AcDbEntity
  8
0-C_ハッチ
  6
Continuous
 62
     7
370
     5
100
AcDbLine
 10
3500.670063440888
 20
-1812.289983059937
 30
0.0
 11
3501.199976146476
 21
-1812.191296988962
 31
0.0
  0
LINE
  5
2A3
330
1F
100
AcDbEntity
  8
0-C_ハッチ
  6
Continuous
 62
     7
370
     5
100
AcDbLine
 10
3500.05590012684
 20
-1812.408616315472
 30
0.0
 11
3500.670063440888
 21
-1812.289983059937
 31
0.0
  0
LINE
  5
2A4
330
1F
100
AcDbEntity
  8
0-C_ハッチ
  6
Continuous
 62
     7
370
     5
100
AcDbLine
 10
3499.357748667271
 20
-1812.547196755566
 30
0.0
 11
3500.05590012684
 21
-1812.408616315472
 31
0.0
  0
LINE
  5
2A5
330
1F
100
AcDbEntity
  8
0-C_ハッチ
  6
Continuous
 62
     7
370
     5
100
AcDbLine
 10
3498.575346599241
 20
-1812.70572438022
 30
0.0
 11
3499.357748667271
 21
-1812.547196755566
 31
0.0
  0
LINE
  5
2A6
330
1F
100
AcDbEntity
  8
0-C_ハッチ
  6
Continuous
 62
     7
370
     5
100
AcDbLine
 10
3497.709218848644
 20
-1812.884199189432
 30
0.0
 11
3498.575346599241
 21
-1812.70572438022
 31
0.0
  0
LINE
  5
2A7
330
1F
100
AcDbEntity
  8
0-C_ハッチ
  6
Continuous
 62
     7
370
     5
100
AcDbLine
 10
3496.758578026633
 20
-1813.082621183203
 30
0.0
 11
3497.709218848644
 21
-1812.884199189432
 31
0.0
  0
LINE
  5
2A8
330
1F
100
AcDbEntity
  8
0-C_ハッチ
  6
Continuous
 62
     7
370
     5
100
AcDbLine
 10
3495.724211522069
 20
-1813.300990361533
 30
0.0
 11
3496.758578026633
 21
-1813.082621183203
 31
0.0
  0
LINE
  5
2A9
330
1F
100
AcDbEntity
  8
0-C_ハッチ
  6
Continuous
 62
     7
370
     5
100
AcDbLine
 10
3494.605594409044
 20
-1813.539306724422
 30
0.0
 11
3495.724211522069
 21
-1813.300990361533
 31
0.0
  0
LINE
  5
2AA
330
1F
100
AcDbEntity
  8
0-C_ハッチ
  6
Continuous
 62
     7
370
     5
100
AcDbLine
 10
3493.413225205727
 20
-1813.812793123244
 30
0.0
 11
3494.605594409044
 21
-1813.539306724422
 31
0.0
  0
LINE
  5
2AB
330
1F
100
AcDbEntity
  8
0-C_ハッチ
  6
Continuous
 62
     7
370
     5
100
AcDbLine
 10
3492.157339967384
 20
-1814.137722261192
 30
0.0
 11
3493.413225205727
 21
-1813.812793123244
 31
0.0
  0
LINE
  5
2AC
330
1F
100
AcDbEntity
  8
0-C_ハッチ
  6
Continuous
 62
     7
370
     5
100
AcDbLine
 10
3490.837676231021
 20
-1814.513044286447
 30
0.0
 11
3492.157339967384
 21
-1814.137722261192
 31
0.0
  0
LINE
  5
2AD
330
1F
100
AcDbEntity
  8
0-C_ハッチ
  6
Continuous
 62
     7
370
     5
100
AcDbLine
 10
3489.454496459634
 20
-1814.939284124919
 30
0.0
 11
3490.837676231021
 21
-1814.513044286447
 31
0.0
  0
LINE
  5
2AE
330
1F
100
AcDbEntity
  8
0-C_ハッチ
  6
Continuous
 62
     7
370
     5
100
AcDbLine
 10
3488.007800653194
 20
-1815.416441776606
 30
0.0
 11
3489.454496459634
 21
-1814.939284124919
 31
0.0
  0
LINE
  5
2AF
330
1F
100
AcDbEntity
  8
0-C_ハッチ
  6
Continuous
 62
     7
370
     5
100
AcDbLine
 10
3486.497588811716
 20
-1815.94451724151
 30
0.0
 11
3488.007800653194
 21
-1815.416441776606
 31
0.0
  0
LINE
  5
2B0
330
1F
100
AcDbEntity
  8
0-C_ハッチ
  6
Continuous
 62
     7
370
     5
100
AcDbLine
 10
3484.923598472232
 20
-1816.523510519631
 30
0.0
 11
3486.497588811716
 21
-1815.94451724151
 31
0.0
  0
LINE
  5
2B1
330
1F
100
AcDbEntity
  8
0-C_ハッチ
  6
Continuous
 62
     7
370
     5
100
AcDbLine
 10
3483.286092097723
 20
-1817.153421610967
 30
0.0
 11
3484.923598472232
 21
-1816.523510519631
 31
0.0
  0
LINE
  5
2B2
330
1F
100
AcDbEntity
  8
0-C_ハッチ
  6
Continuous
 62
     7
370
     5
100
AcDbLine
 10
3481.753833368038
 20
-1817.822177219603
 30
0.0
 11
3483.286092097723
 21
-1817.153421610967
 31
0.0
  0
LINE
  5
2B3
330
1F
100
AcDbEntity
  8
0-C_ハッチ
  6
Continuous
 62
     7
370
     5
100
AcDbLine
 10
3480.496373351957
 20
-1818.518228975531
 30
0.0
 11
3481.753833368038
 21
-1817.822177219603
 31
0.0
  0
LINE
  5
2B4
330
1F
100
AcDbEntity
  8
0-C_ハッチ
  6
Continuous
 62
     7
370
     5
100
AcDbLine
 10
3479.512924660616
 20
-1819.24105195284
 30
0.0
 11
3480.496373351957
 21
-1818.518228975531
 31
0.0
  0
LINE
  5
2B5
330
1F
100
AcDbEntity
  8
0-C_ハッチ
  6
Continuous
 62
     7
370
     5
100
AcDbLine
 10
3478.804274682852
 20
-1819.99064615153
 30
0.0
 11
3479.512924660616
 21
-1819.24105195284
 31
0.0
  0
LINE
  5
2B6
330
1F
100
AcDbEntity
  8
0-C_ハッチ
  6
Continuous
 62
     7
370
     5
100
AcDbLine
 10
3478.369898492783
 20
-1820.768061423422
 30
0.0
 11
3478.804274682852
 21
-1819.99064615153
 31
0.0
  0
LINE
  5
2B7
330
1F
100
AcDbEntity
  8
0-C_ハッチ
  6
Continuous
 62
     7
370
     5
100
AcDbLine
 10
3478.210058553363
 20
-1821.571722990787
 30
0.0
 11
3478.369898492783
 21
-1820.768061423422
 31
0.0
  0
LINE
  5
2B8
330
1F
100
AcDbEntity
  8
0-C_ハッチ
  6
Continuous
 62
     7
370
     5
100
AcDbLine
 10
3478.324492401625
 20
-1822.402680705441
 30
0.0
 11
3478.210058553363
 21
-1821.571722990787
 31
0.0
  0
LINE
  5
2B9
330
1F
100
AcDbEntity
  8
0-C_ハッチ
  6
Continuous
 62
     7
370
     5
100
AcDbLine
 10
3478.713462500522
 20
-1823.260409641478
 30
0.0
 11
3478.324492401625
 21
-1822.402680705441
 31
0.0
  0
LINE
  5
2BA
330
1F
100
AcDbEntity
  8
0-C_ハッチ
  6
Continuous
 62
     7
370
     5
100
AcDbLine
 10
3479.476967235809
 20
-1824.1228629107
 30
0.0
 11
3478.713462500522
 21
-1823.260409641478
 31
0.0
  0
LINE
  5
2BB
330
1F
100
AcDbEntity
  8
0-C_ハッチ
  6
Continuous
 62
     7
370
     5
100
AcDbLine
 10
3480.714480067331
 20
-1824.967468699001
 30
0.0
 11
3479.476967235809
 21
-1824.1228629107
 31
0.0
  0
LINE
  5
2BC
330
1F
100
AcDbEntity
  8
0-C_ハッチ
  6
Continuous
 62
     7
370
     5
100
AcDbLine
 10
3482.426525920996
 20
-1825.793177154562
 30
0.0
 11
3480.714480067331
 21
-1824.967468699001
 31
0.0
  0
LINE
  5
2BD
330
1F
100
AcDbEntity
  8
0-C_ハッチ
  6
Continuous
 62
     7
370
     5
100
AcDbLine
 10
3484.612579870895
 20
-1826.601563055111
 30
0.0
 11
3482.426525920996
 21
-1825.793177154562
 31
0.0
  0
LINE
  5
2BE
330
1F
100
AcDbEntity
  8
0-C_ハッチ
  6
Continuous
 62
     7
370
     5
100
AcDbLine
 10
3487.27290437997
 20
-1827.39105162292
 30
0.0
 11
3484.612579870895
 21
-1826.601563055111
 31
0.0
  0
LINE
  5
2BF
330
1F
100
AcDbEntity
  8
0-C_ハッチ
  6
Continuous
 62
     7
370
     5
100
AcDbLine
 10
3490.407761911187
 20
-1828.162692709808
 30
0.0
 11
3487.27290437997
 21
-1827.39105162292
 31
0.0
  0
LINE
  5
2C0
330
1F
100
AcDbEntity
  8
0-C_ハッチ
  6
Continuous
 62
     7
370
     5
100
AcDbLine
 10
3494.01662753864
 20
-1828.916486315774
 30
0.0
 11
3490.407761911187
 21
-1828.162692709808
 31
0.0
  0
LINE
  5
2C1
330
1F
100
AcDbEntity
  8
0-C_ハッチ
  6
Continuous
 62
     7
370
     5
100
AcDbLine
 10
3498.099763725281
 20
-1829.65190751491
 30
0.0
 11
3494.01662753864
 21
-1828.916486315774
 31
0.0
  0
LINE
  5
2C2
330
1F
100
AcDbEntity
  8
0-C_ハッチ
  6
Continuous
 62
     7
370
     5
100
AcDbLine
 10
3502.461898032779
 20
-1830.32643730855
 30
0.0
 11
3498.099763725281
 21
-1829.65190751491
 31
0.0
  0
LINE
  5
2C3
330
1F
100
AcDbEntity
  8
0-C_ハッチ
  6
Continuous
 62
     7
370
     5
100
AcDbLine
 10
3506.907758022844
 20
-1830.898081623938
 30
0.0
 11
3502.461898032779
 21
-1830.32643730855
 31
0.0
  0
LINE
  5
2C4
330
1F
100
AcDbEntity
  8
0-C_ハッチ
  6
Continuous
 62
     7
370
     5
100
AcDbLine
 10
3511.436818769566
 20
-1831.366315535165
 30
0.0
 11
3506.907758022844
 21
-1830.898081623938
 31
0.0
  0
LINE
  5
2C5
330
1F
100
AcDbEntity
  8
0-C_ハッチ
  6
Continuous
 62
     7
370
     5
100
AcDbLine
 10
3516.049605198827
 20
-1831.731663968141
 30
0.0
 11
3511.436818769566
 21
-1831.366315535165
 31
0.0
  0
LINE
  5
2C6
330
1F
100
AcDbEntity
  8
0-C_ハッチ
  6
Continuous
 62
     7
370
     5
100
AcDbLine
 10
3520.746117310654
 20
-1831.994126922864
 30
0.0
 11
3516.049605198827
 21
-1831.731663968141
 31
0.0
  0
LINE
  5
2C7
330
1F
100
AcDbEntity
  8
0-C_ハッチ
  6
Continuous
 62
     7
370
     5
100
AcDbLine
 10
3525.525830179126
 20
-1832.152654547517
 30
0.0
 11
3520.746117310654
 21
-1831.994126922864
 31
0.0
  0
LINE
  5
2C8
330
1F
100
AcDbEntity
  8
0-C_ハッチ
  6
Continuous
 62
     7
370
     5
100
AcDbLine
 10
3530.389268730164
 20
-1832.208821619828
 30
0.0
 11
3525.525830179126
 21
-1832.152654547517
 31
0.0
  0
LINE
  5
2C9
330
1F
100
AcDbEntity
  8
0-C_ハッチ
  6
Continuous
 62
     7
370
     5
100
AcDbLine
 10
3535.336432963754
 20
-1832.161578287978
 30
0.0
 11
3530.389268730164
 21
-1832.208821619828
 31
0.0
  0
LINE
  5
2CA
330
1F
100
AcDbEntity
  8
0-C_ハッチ
  6
Continuous
 62
     7
370
     5
100
AcDbLine
 10
3540.261287846183
 20
-1832.047144439719
 30
0.0
 11
3535.336432963754
 21
-1832.161578287978
 31
0.0
  0
LINE
  5
2CB
330
1F
100
AcDbEntity
  8
0-C_ハッチ
  6
Continuous
 62
     7
370
     5
100
AcDbLine
 10
3545.058323269672
 20
-1831.90331474053
 30
0.0
 11
3540.261287846183
 21
-1832.047144439719
 31
0.0
  0
LINE
  5
2CC
330
1F
100
AcDbEntity
  8
0-C_ハッチ
  6
Continuous
 62
     7
370
     5
100
AcDbLine
 10
3549.727539234209
 20
-1831.729039338593
 30
0.0
 11
3545.058323269672
 21
-1831.90331474053
 31
0.0
  0
LINE
  5
2CD
330
1F
100
AcDbEntity
  8
0-C_ハッチ
  6
Continuous
 62
     7
370
     5
100
AcDbLine
 10
3554.268935739792
 20
-1831.524843159818
 30
0.0
 11
3549.727539234209
 21
-1831.729039338593
 31
0.0
  0
LINE
  5
2CE
330
1F
100
AcDbEntity
  8
0-C_ハッチ
  6
Continuous
 62
     7
370
     5
100
AcDbLine
 10
3558.682512786422
 20
-1831.290726204204
 30
0.0
 11
3554.268935739792
 21
-1831.524843159818
 31
0.0
  0
LINE
  5
2CF
330
1F
100
AcDbEntity
  8
0-C_ハッチ
  6
Continuous
 62
     7
370
     5
100
AcDbLine
 10
3562.968270374099
 20
-1831.026163545844
 30
0.0
 11
3558.682512786422
 21
-1831.290726204204
 31
0.0
  0
LINE
  5
2D0
330
1F
100
AcDbEntity
  8
0-C_ハッチ
  6
Continuous
 62
     7
370
     5
100
AcDbLine
 10
3567.12647096579
 20
-1830.731680110643
 30
0.0
 11
3562.968270374099
 21
-1831.026163545844
 31
0.0
  0
LINE
  5
2D1
330
1F
100
AcDbEntity
  8
0-C_ハッチ
  6
Continuous
 62
     7
370
     5
100
AcDbLine
 10
3571.156589635575
 20
-1830.406750972696
 30
0.0
 11
3567.12647096579
 21
-1830.731680110643
 31
0.0
  0
LINE
  5
2D2
330
1F
100
AcDbEntity
  8
0-C_ハッチ
  6
Continuous
 62
     7
370
     5
100
AcDbLine
 10
3574.96230247907
 20
-1830.076572575653
 30
0.0
 11
3571.156589635575
 21
-1830.406750972696
 31
0.0
  0
LINE
  5
2D3
330
1F
100
AcDbEntity
  8
0-C_ハッチ
  6
Continuous
 62
     7
370
     5
100
AcDbLine
 10
3578.447023128928
 20
-1829.765291511351
 30
0.0
 11
3574.96230247907
 21
-1830.076572575653
 31
0.0
  0
LINE
  5
2D4
330
1F
100
AcDbEntity
  8
0-C_ハッチ
  6
Continuous
 62
     7
370
     5
100
AcDbLine
 10
3581.61101404813
 20
-1829.472907779789
 30
0.0
 11
3578.447023128928
 21
-1829.765291511351
 31
0.0
  0
LINE
  5
2D5
330
1F
100
AcDbEntity
  8
0-C_ハッチ
  6
Continuous
 62
     7
370
     5
100
AcDbLine
 10
3584.45375031074
 20
-1829.198896455057
 30
0.0
 11
3581.61101404813
 21
-1829.472907779789
 31
0.0
  0
LINE
  5
2D6
330
1F
100
AcDbEntity
  8
0-C_ハッチ
  6
Continuous
 62
     7
370
     5
100
AcDbLine
 10
3586.97575684268
 20
-1828.944307388974
 30
0.0
 11
3584.45375031074
 21
-1829.198896455057
 31
0.0
  0
LINE
  5
2D7
330
1F
100
AcDbEntity
  8
0-C_ハッチ
  6
Continuous
 62
     7
370
     5
100
AcDbLine
 10
3589.176771180996
 20
-1828.708615655633
 30
0.0
 11
3586.97575684268
 21
-1828.944307388974
 31
0.0
  0
LINE
  5
2D8
330
1F
100
AcDbEntity
  8
0-C_ハッチ
  6
Continuous
 62
     7
370
     5
100
AcDbLine
 10
3591.056793325674
 20
-1828.491821255031
 30
0.0
 11
3589.176771180996
 21
-1828.708615655633
 31
0.0
  0
LINE
  5
2D9
330
1F
100
AcDbEntity
  8
0-C_ハッチ
  6
Continuous
 62
     7
370
     5
100
AcDbLine
 10
3592.615823276742
 20
-1828.29339926126
 30
0.0
 11
3591.056793325674
 21
-1828.491821255031
 31
0.0
  0
LINE
  5
2DA
330
1F
100
AcDbEntity
  8
0-C_ハッチ
  6
Continuous
 62
     7
370
     5
100
AcDbLine
 10
3594.325769426759
 20
-1827.992091789237
 30
0.0
 11
3592.615823276742
 21
-1828.29339926126
 31
0.0
  0
LINE
  5
2DB
330
1F
100
AcDbEntity
  8
0-C_ハッチ
  6
Continuous
 62
     7
370
     5
100
AcDbLine
 10
3596.171408924383
 20
-1827.66663772538
 30
0.0
 11
3594.325769426759
 21
-1827.992091789237
 31
0.0
  0
LINE
  5
2DC
330
1F
100
AcDbEntity
  8
0-C_ハッチ
  6
Continuous
 62
     7
370
     5
100
AcDbLine
 10
3598.152479306631
 20
-1827.317561995598
 30
0.0
 11
3596.171408924383
 21
-1827.66663772538
 31
0.0
  0
LINE
  5
2DD
330
1F
100
AcDbEntity
  8
0-C_ハッチ
  6
Continuous
 62
     7
370
     5
100
AcDbLine
 10
3600.269243036486
 20
-1826.94433967398
 30
0.0
 11
3598.152479306631
 21
-1827.317561995598
 31
0.0
  0
LINE
  5
2DE
330
1F
100
AcDbEntity
  8
0-C_ハッチ
  6
Continuous
 62
     7
370
     5
100
AcDbLine
 10
3602.521437650966
 20
-1826.547495686438
 30
0.0
 11
3600.269243036486
 21
-1826.94433967398
 31
0.0
  0
LINE
  5
2DF
330
1F
100
AcDbEntity
  8
0-C_ハッチ
  6
Continuous
 62
     7
370
     5
100
AcDbLine
 10
3650.038780825962
 20
-1764.834581143235
 30
0.0
 11
3644.602385644766
 21
-1803.457261089339
 31
0.0
  0
LINE
  5
2E0
330
1F
100
AcDbEntity
  8
0-C_ハッチ
  6
Continuous
 62
     7
370
     5
100
AcDbLine
 10
3915.185419261711
 20
-1655.435822206142
 30
0.0
 11
3915.185419261711
 21
-1344.037391163486
 31
0.0
  0
ARC
  5
2E1
330
1F
100
AcDbEntity
  8
0-C_ハッチ
  6
Continuous
 62
     7
370
     5
100
AcDbCircle
 10
3735.185419261711
 20
-1344.037391163486
 30
0.0
 40
180.0
100
AcDbArc
 50
0.0
 51
48.66116247688833
  0
LINE
  5
2E2
330
1F
100
AcDbEntity
  8
0-C_ハッチ
  6
Continuous
 62
     7
370
     5
100
AcDbLine
 10
3772.25324159011
 20
-1645.085521792363
 30
0.0
 11
3765.220386043502
 21
-1575.771491410678
 31
0.0
  0
ARC
  5
2E3
330
1F
100
AcDbEntity
  8
0-C_ハッチ
  6
Continuous
 62
     7
370
     5
100
AcDbCircle
 10
3742.40648253191
 20
-1648.113883349682
 30
0.0
 40
30.0
100
AcDbArc
 50
247.1651394203828
 51
5.793612550752308
  0
LINE
  5
2E4
330
1F
100
AcDbEntity
  8
0-C_ハッチ
  6
Continuous
 62
    40
370
     5
100
AcDbLine
 10
3339.112828901402
 20
-1778.778713000816
 30
0.0
 11
3000.146122283013
 21
-1838.196126542985
 31
0.0
  0
LINE
  5
2E5
330
1F
100
AcDbEntity
  8
0-C_ハッチ
  6
Continuous
 62
    40
370
     5
100
AcDbLine
 10
3000.146122283013
 20
-1838.196126542985
 30
0.0
 11
2757.452927160934
 21
-1795.521749808549
 31
0.0
  0
LINE
  5
2E6
330
1F
100
AcDbEntity
  8
0-C_ハッチ
  6
Continuous
 62
    40
370
     5
100
AcDbLine
 10
3000.146122283013
 20
-1838.196126542985
 30
0.0
 11
3000.146122283013
 21
-1232.362336820645
 31
0.0
  0
LINE
  5
2E7
330
1F
100
AcDbEntity
  8
0-C_ハッチ
  6
Continuous
 62
    40
370
     5
100
AcDbLine
 10
2757.452927160934
 20
-1795.521749808549
 30
0.0
 11
2757.452927160934
 21
-1211.019899194333
 31
0.0
  0
LINE
  5
2E8
330
1F
100
AcDbEntity
  8
0-C_ハッチ
  6
JWW_CENTER1
 62
   120
370
     5
100
AcDbLine
 10
2660.518009018737
 20
-1986.993462075626
 30
0.0
 11
4512.184181002134
 21
-1628.834151893077
 31
0.0
  0
LINE
  5
2E9
330
1F
100
AcDbEntity
  8
0-C_ハッチ
  6
Continuous
 62
     7
370
     5
100
AcDbLine
 10
4398.127858985867
 20
-2217.480808312383
 30
0.0
 11
2728.109226700789
 21
-2217.480808312383
 31
0.0
  0
LINE
  5
2EA
330
1F
100
AcDbEntity
  8
0-C_ハッチ
  6
Continuous
 62
     7
370
     5
100
AcDbLine
 10
2728.109226700789
 20
-3097.416343765217
 30
0.0
 11
4398.127858985867
 21
-3097.416343765217
 31
0.0
  0
LINE
  5
2EB
330
1F
100
AcDbEntity
  8
0-C_ハッチ
  6
Continuous
 62
     7
370
     5
100
AcDbLine
 10
4398.127858985867
 20
-3097.416343765217
 30
0.0
 11
4398.127858985867
 21
-2217.480808312383
 31
0.0
  0
LINE
  5
2EC
330
1F
100
AcDbEntity
  8
0-C_ハッチ
  6
Continuous
 62
     7
370
     5
100
AcDbLine
 10
2728.109226700789
 20
-3097.416343765217
 30
0.0
 11
2728.109226700789
 21
-2217.480808312383
 31
0.0
  0
LINE
  5
2ED
330
1F
100
AcDbEntity
  8
0-C_ハッチ
  6
Continuous
 62
   120
370
     5
100
AcDbLine
 10
3095.550881501094
 20
-1911.927285547256
 30
0.0
 11
3214.128299760222
 21
-2023.52956155585
 31
0.0
  0
LINE
  5
2EE
330
1F
100
AcDbEntity
  8
0-C_ハッチ
  6
Continuous
 62
   120
370
     5
100
AcDbLine
 10
3674.949480236709
 20
-1873.362095774636
 30
0.0
 11
3798.781019393286
 21
-1997.193634931208
 31
0.0
  0
LINE
  5
2EF
330
1F
100
AcDbEntity
  8
0-C_ハッチ
  6
Continuous
 62
   120
370
     5
100
AcDbLine
 10
3798.781019393286
 20
-1997.193634931208
 30
0.0
 11
3857.655764716269
 21
-1997.193634931208
 31
0.0
  0
LINE
  5
2F0
330
1F
100
AcDbEntity
  8
0-C_ハッチ
  6
Continuous
 62
   120
370
     5
100
AcDbLine
 10
3594.490169234886
 20
-1777.716253233788
 30
0.0
 11
3960.427700162522
 21
-1777.716253233788
 31
0.0
  0
LINE
  5
2F1
330
1F
100
AcDbEntity
  8
0-C_ハッチ
  6
JWW_HOJO
 62
   120
370
     5
100
AcDbLine
 10
4534.928394257053
 20
-496.6652231471279
 30
0.0
 11
4534.928394257053
 21
-863.8652231471249
 31
0.0
  0
LINE
  5
2F2
330
1F
100
AcDbEntity
  8
0-C_ハッチ
  6
JWW_HOJO
 62
   120
370
     5
100
AcDbLine
 10
2440.914635297044
 20
-619.0652231471257
 30
0.0
 11
4534.928394257053
 21
-619.0652231471257
 31
0.0
  0
LINE
  5
2F3
330
1F
100
AcDbEntity
  8
0-C_ハッチ
  6
JWW_HOJO
 62
   120
370
     5
100
AcDbLine
 10
2440.914635297044
 20
-863.8652231471249
 30
0.0
 11
4534.928394257053
 21
-863.8652231471249
 31
0.0
  0
LINE
  5
2F4
330
1F
100
AcDbEntity
  8
0-C_ハッチ
  6
JWW_HOJO
 62
   120
370
     5
100
AcDbLine
 10
2440.914635297044
 20
-496.6652231471279
 30
0.0
 11
4534.928394257053
 21
-496.6652231471279
 31
0.0
  0
LINE
  5
2F5
330
1F
100
AcDbEntity
  8
0-C_ハッチ
  6
JWW_HOJO
 62
   120
370
     5
100
AcDbLine
 10
2440.914635297044
 20
-741.4652231471244
 30
0.0
 11
4534.928394257053
 21
-741.4652231471244
 31
0.0
  0
MTEXT
  5
2F6
330
1F
100
AcDbEntity
  8
0-C_ハッチ
  6
Continuous
 62
     7
370
     5
100
AcDbMText
 10
15.23735277949839
 20
-160.1496321188489
 30
0.0
 40
91.44000000000003
 41
2280.000000000001
 46
0.0
 71
     7
 72
     1
  1
{\fＭＳ ゴシック|b0|i0|c128|p49;■ガイドランナーの取り付け(ＳＡ固定枠)}
 73
     1
 44
1.0
  0
MTEXT
  5
2F7
330
1F
100
AcDbEntity
  8
0-C_ハッチ
  6
Continuous
 62
     7
370
     5
100
AcDbMText
 10
714.3185428433214
 20
-381.18249599243
 30
0.0
 40
91.43999999999971
 41
959.999999999997
 46
0.0
 71
     7
 72
     1
  1
{\fＭＳ ゴシック|b0|i0|c128|p49;下固定ストッパー}
 73
     1
 44
1.0
  0
MTEXT
  5
2F8
330
1F
100
AcDbEntity
  8
0-C_ハッチ
  6
Continuous
 62
     7
370
     5
100
AcDbMText
 10
2483.118542843323
 20
-381.1824959924316
 30
0.0
 40
91.43999999999986
 41
2159.999999999996
 46
0.0
 71
     7
 72
     1
  1
{\fＭＳ ゴシック|b0|i0|c128|p49;ストライク(可動側受け金具)の取り付け}
 73
     1
 44
1.0
  0
MTEXT
  5
2F9
330
1F
100
AcDbEntity
  8
0-C_ハッチ
  6
Continuous
 62
     7
370
     5
100
AcDbMText
 10
123.3719292652785
 20
-615.8612231471265
 30
0.0
 40
64.00800000000002
 41
1932.0
 46
0.0
 71
     7
 72
     1
  1
{\fＭＳ ゴシック|b0|i0|c128|p49;竪枠の後ろ面から３㎜内側に取り付けてください。}
 73
     1
 44
1.0
  0
MTEXT
  5
2FA
330
1F
100
AcDbEntity
  8
0-C_ハッチ
  6
Continuous
 62
     7
370
     5
100
AcDbMText
 10
2440.914635297044
 20
-615.8612231471265
 30
0.0
 40
64.00800000000002
 41
2100.0
 46
0.0
 71
     7
 72
     1
  1
{\fＭＳ ゴシック|b0|i0|c128|p49;扉を吊った後ストライクを取り付ける際は、下図のよう}
 73
     1
 44
1.0
  0
MTEXT
  5
2FB
330
1F
100
AcDbEntity
  8
0-C_ハッチ
  6
Continuous
 62
     7
370
     5
100
AcDbMText
 10
123.3719292652793
 20
-738.2612231471273
 30
0.0
 40
64.00799999999997
 41
1806.0
 46
0.0
 71
     7
 72
     1
  1
{\fＭＳ ゴシック|b0|i0|c128|p49;ストッパー側面は竪枠から7.5㎜離して下さい。}
 73
     1
 44
1.0
  0
MTEXT
  5
2FC
330
1F
100
AcDbEntity
  8
0-C_ハッチ
  6
Continuous
 62
     7
370
     5
100
AcDbMText
 10
2440.914635297044
 20
-738.2612231471239
 30
0.0
 40
64.00799999999998
 41
2100.0
 46
0.0
 71
     7
 72
     1
  1
{\fＭＳ ゴシック|b0|i0|c128|p49;に下用ガイド軸とストライクの位置決め溝をそろえて、}
 73
     1
 44
1.0
  0
MTEXT
  5
2FD
330
1F
100
AcDbEntity
  8
0-C_ハッチ
  6
Continuous
 62
     7
370
     5
100
AcDbMText
 10
2440.914635297042
 20
-860.6612231471263
 30
0.0
 40
64.00800000000032
 41
1512.000000000007
 46
0.0
 71
     7
 72
     1
  1
{\fＭＳ ゴシック|b0|i0|c128|p49;床に付属のビスで取り付けてください。}
 73
     1
 44
1.0
  0
MTEXT
  5
2FE
330
1F
100
AcDbEntity
  8
0-C_ハッチ
  6
Continuous
 62
     7
370
     5
100
AcDbMText
 10
930.5335019258939
 20
-1090.629766186966
 30
0.0
 40
45.72
 41
300.0
 46
0.0
 71
     7
 72
     1
  1
{\fＭＳ ゴシック|b0|i0|c128|p49;枠センター}
 73
     1
 44
1.0
  0
MTEXT
  5
2FF
330
1F
100
AcDbEntity
  8
0-C_ハッチ
  6
Continuous
 62
     7
370
     5
100
AcDbMText
 10
1707.886979677637
 20
-1290.753343083122
 30
0.0
 40
45.72
 41
600.0
 46
0.0
 71
     7
 72
     1
  1
{\fＭＳ ゴシック|b0|i0|c128|p49;取り付けビス(同梱品)}
 73
     1
 44
1.0
  0
MTEXT
  5
300
330
1F
100
AcDbEntity
  8
0-C_ハッチ
  6
Continuous
 62
     7
370
     5
100
AcDbMText
 10
3989.227700162538
 20
-1814.856253233789
 30
0.0
 40
45.71999999999979
 41
179.9999999999991
 46
0.0
 71
     7
 72
     1
  1
{\fＭＳ ゴシック|b0|i0|c128|p49;ガイド}
 73
     1
 44
1.0
  0
LINE
  5
301
330
1F
100
AcDbEntity
  8
0-C_ハッチ
  6
JWW_HOJO
 62
   120
370
     5
100
AcDbLine
 10
2720.035738429624
 20
-2844.328497820674
 30
0.0
 11
4390.054370714687
 21
-2844.328497820674
 31
0.0
  0
LINE
  5
302
330
1F
100
AcDbEntity
  8
0-C_ハッチ
  6
Continuous
 62
   120
370
     5
100
AcDbLine
 10
3995.710473264832
 20
-2622.861286235709
 30
0.0
 11
3851.710888963743
 21
-2766.860870536798
 31
0.0
  0
LINE
  5
303
330
1F
100
AcDbEntity
  8
0-C_ハッチ
  6
Continuous
 62
   120
370
     5
100
AcDbLine
 10
3995.710473264828
 20
-2741.655225475006
 30
0.0
 11
3815.80250564733
 21
-2921.563193092507
 31
0.0
  0
LINE
  5
304
330
1F
100
AcDbEntity
  8
0-C_ハッチ
  6
Continuous
 62
   120
370
     5
100
AcDbLine
 10
3995.71047326483
 20
-2801.052195094708
 30
0.0
 11
3815.711364048198
 21
-2981.051304311339
 31
0.0
  0
LINE
  5
305
330
1F
100
AcDbEntity
  8
0-C_ハッチ
  6
Continuous
 62
   120
370
     5
100
AcDbLine
 10
3995.710473264823
 20
-2919.846134334064
 30
0.0
 11
3883.059175091599
 21
-3032.497432507287
 31
0.0
  0
LINE
  5
306
330
1F
100
AcDbEntity
  8
0-C_ハッチ
  6
Continuous
 62
   120
370
     5
100
AcDbLine
 10
3995.710473264823
 20
-2979.243103953711
 30
0.0
 11
3942.456144711245
 21
-3032.497432507289
 31
0.0
  0
LINE
  5
307
330
1F
100
AcDbEntity
  8
0-C_ハッチ
  6
Continuous
 62
   120
370
     5
100
AcDbLine
 10
3995.710473264834
 20
-2860.449164714351
 30
0.0
 11
3828.686687447294
 21
-3027.47295053189
 31
0.0
  0
LINE
  5
308
330
1F
100
AcDbEntity
  8
0-C_ハッチ
  6
Continuous
 62
   120
370
     5
100
AcDbLine
 10
3995.710473264823
 20
-2682.258255855364
 30
0.0
 11
3847.002513478112
 21
-2830.966215642078
 31
0.0
  0
LINE
  5
309
330
1F
100
AcDbEntity
  8
0-C_ハッチ
  6
Continuous
 62
   120
370
     5
100
AcDbLine
 10
3995.710473264834
 20
-2563.464316616005
 30
0.0
 11
3845.071577706834
 21
-2714.103212174005
 31
0.0
  0
LINE
  5
30A
330
1F
100
AcDbEntity
  8
0-C_ハッチ
  6
Continuous
 62
    92
370
     5
100
AcDbLine
 10
3833.710384186487
 20
-3032.496581314306
 30
0.0
 11
3815.710385404355
 21
-3014.496818856534
 31
0.0
  0
LINE
  5
30B
330
1F
100
AcDbEntity
  8
0-C_ハッチ
  6
Continuous
 62
    92
370
     5
100
AcDbLine
 10
3833.710384186487
 20
-3032.496581314306
 30
0.0
 11
3995.710473264823
 21
-3032.496581314306
 31
0.0
  0
ARC
  5
30C
330
1F
100
AcDbEntity
  8
0-C_ハッチ
  6
Continuous
 62
    92
370
     5
100
AcDbCircle
 10
3545.711952952449
 20
-2777.497006910801
 30
0.0
 40
305.9982976165347
100
AcDbArc
 50
331.9274333747654
 51
28.07256662523464
  0
LINE
  5
30D
330
1F
100
AcDbEntity
  8
0-C_ハッチ
  6
Continuous
 62
    92
370
     5
100
AcDbLine
 10
3815.710250568984
 20
-2921.496581314305
 30
0.0
 11
3815.710250568984
 21
-3014.496818856534
 31
0.0
  0
LINE
  5
30E
330
1F
100
AcDbEntity
  8
0-C_ハッチ
  6
Continuous
 62
    92
370
     5
100
AcDbLine
 10
3833.710250568983
 20
-2522.496581314304
 30
0.0
 11
3995.710473264823
 21
-2522.496581314304
 31
0.0
  0
LINE
  5
30F
330
1F
100
AcDbEntity
  8
0-C_ハッチ
  6
Continuous
 62
    92
370
     5
100
AcDbLine
 10
3815.710250568984
 20
-2540.496581314306
 30
0.0
 11
3833.710250568983
 21
-2522.496581314304
 31
0.0
  0
LINE
  5
310
330
1F
100
AcDbEntity
  8
0-C_ハッチ
  6
Continuous
 62
    92
370
     5
100
AcDbLine
 10
3995.710473264823
 20
-3032.496581314306
 30
0.0
 11
3995.710473264823
 21
-2522.496581314304
 31
0.0
  0
LINE
  5
311
330
1F
100
AcDbEntity
  8
0-C_ハッチ
  6
Continuous
 62
    92
370
     5
100
AcDbLine
 10
3815.710250568984
 20
-2540.496581314306
 30
0.0
 11
3815.710250568984
 21
-2633.497432507294
 31
0.0
  0
LINE
  5
312
330
1F
100
AcDbEntity
  8
0-C_ハッチ
  6
Continuous
 62
   120
370
     5
100
AcDbLine
 10
3917.884269327186
 20
-2522.496581314304
 30
0.0
 11
3815.711364048201
 21
-2624.669486593289
 31
0.0
  0
LINE
  5
313
330
1F
100
AcDbEntity
  8
0-C_ハッチ
  6
Continuous
 62
   120
370
     5
100
AcDbLine
 10
3858.487299707539
 20
-2522.496581314304
 30
0.0
 11
3815.711364048208
 21
-2565.272516973635
 31
0.0
  0
LINE
  5
314
330
1F
100
AcDbEntity
  8
0-C_ハッチ
  6
Continuous
 62
   120
370
     5
100
AcDbLine
 10
3977.281238946888
 20
-2522.496581314304
 30
0.0
 11
3831.539640329566
 21
-2668.238179931624
 31
0.0
  0
LINE
  5
315
330
1F
100
AcDbEntity
  8
0-C_ハッチ
  6
JWW_CENTER1
 62
   120
370
     5
100
AcDbLine
 10
3620.710671216681
 20
-2714.495284729633
 30
0.0
 11
3620.710671216681
 21
-2840.495937970766
 31
0.0
  0
ARC
  5
316
330
1F
100
AcDbEntity
  8
0-C_ハッチ
  6
Continuous
 62
     7
370
     5
100
AcDbCircle
 10
3629.71067121668
 20
-2777.496581314304
 30
0.0
 40
27.00000000000017
100
AcDbArc
 50
270.0
 51
90.0
  0
ARC
  5
317
330
1F
100
AcDbEntity
  8
0-C_ハッチ
  6
Continuous
 62
     7
370
     5
100
AcDbCircle
 10
3485.710671216677
 20
-2889.996581314304
 30
0.0
 40
6.0
100
AcDbArc
 50
135.0000000000086
 51
270.0
  0
ARC
  5
318
330
1F
100
AcDbEntity
  8
0-C_ハッチ
  6
Continuous
 62
     7
370
     5
100
AcDbCircle
 10
3485.710671216677
 20
-2664.996581314304
 30
0.0
 40
6.0
100
AcDbArc
 50
90.0
 51
224.9999999999913
  0
CIRCLE
  5
319
330
1F
100
AcDbEntity
  8
0-C_ハッチ
  6
Continuous
 62
     7
370
     5
100
AcDbCircle
 10
3578.710671216678
 20
-2852.496581314304
 30
0.0
 40
11.7
  0
CIRCLE
  5
31A
330
1F
100
AcDbEntity
  8
0-C_ハッチ
  6
Continuous
 62
     7
370
     5
100
AcDbCircle
 10
3578.710671216678
 20
-2702.496581314304
 30
0.0
 40
11.7
  0
CIRCLE
  5
31B
330
1F
100
AcDbEntity
  8
0-C_ハッチ
  6
Continuous
 62
     7
370
     5
100
AcDbCircle
 10
3578.710671216678
 20
-2702.496581314304
 30
0.0
 40
22.5
  0
CIRCLE
  5
31C
330
1F
100
AcDbEntity
  8
0-C_ハッチ
  6
Continuous
 62
     7
370
     5
100
AcDbCircle
 10
3578.710671216678
 20
-2852.496581314304
 30
0.0
 40
22.5
  0
CIRCLE
  5
31D
330
1F
100
AcDbEntity
  8
0-C_ハッチ
  6
Continuous
 62
     7
370
     5
100
AcDbCircle
 10
3707.71067121668
 20
-2777.496581314304
 30
0.0
 40
11.7
  0
CIRCLE
  5
31E
330
1F
100
AcDbEntity
  8
0-C_ハッチ
  6
Continuous
 62
     7
370
     5
100
AcDbCircle
 10
3707.71067121668
 20
-2777.496581314304
 30
0.0
 40
22.5
  0
LINE
  5
31F
330
1F
100
AcDbEntity
  8
0-C_ハッチ
  6
Continuous
 62
     7
370
     5
100
AcDbLine
 10
3680.284264345487
 20
-2895.996581314304
 30
0.0
 11
3485.710671216677
 21
-2895.996581314304
 31
0.0
  0
ARC
  5
320
330
1F
100
AcDbEntity
  8
0-C_ハッチ
  6
Continuous
 62
     7
370
     5
100
AcDbCircle
 10
3680.284264345487
 20
-2865.996581314304
 30
0.0
 40
30.0
100
AcDbArc
 50
270.0
 51
315.0
  0
LINE
  5
321
330
1F
100
AcDbEntity
  8
0-C_ハッチ
  6
Continuous
 62
     7
370
     5
100
AcDbLine
 10
3743.923874652275
 20
-2844.783377878707
 30
0.0
 11
3701.497467781082
 21
-2887.2097847499
 31
0.0
  0
ARC
  5
322
330
1F
100
AcDbEntity
  8
0-C_ハッチ
  6
Continuous
 62
     7
370
     5
100
AcDbCircle
 10
3722.71067121668
 20
-2823.570174443111
 30
0.0
 40
30.0
100
AcDbArc
 50
314.9999999999999
 51
359.9999999999999
  0
LINE
  5
323
330
1F
100
AcDbEntity
  8
0-C_ハッチ
  6
Continuous
 62
     7
370
     5
100
AcDbLine
 10
3752.71067121668
 20
-2731.422988185497
 30
0.0
 11
3752.71067121668
 21
-2823.570174443111
 31
0.0
  0
ARC
  5
324
330
1F
100
AcDbEntity
  8
0-C_ハッチ
  6
Continuous
 62
     7
370
     5
100
AcDbCircle
 10
3722.71067121668
 20
-2731.422988185497
 30
0.0
 40
30.0
100
AcDbArc
 50
0.0000000000000127
 51
45.00000000000001
  0
LINE
  5
325
330
1F
100
AcDbEntity
  8
0-C_ハッチ
  6
Continuous
 62
     7
370
     5
100
AcDbLine
 10
3701.497467781082
 20
-2667.783377878707
 30
0.0
 11
3743.923874652275
 21
-2710.2097847499
 31
0.0
  0
LINE
  5
326
330
1F
100
AcDbEntity
  8
0-C_ハッチ
  6
Continuous
 62
     7
370
     5
100
AcDbLine
 10
3680.284264345487
 20
-2658.996581314304
 30
0.0
 11
3485.710671216677
 21
-2658.996581314304
 31
0.0
  0
ARC
  5
327
330
1F
100
AcDbEntity
  8
0-C_ハッチ
  6
Continuous
 62
     7
370
     5
100
AcDbCircle
 10
3680.284264345487
 20
-2688.996581314304
 30
0.0
 40
30.0
100
AcDbArc
 50
45.00000000000006
 51
90.00000000000006
  0
LINE
  5
328
330
1F
100
AcDbEntity
  8
0-C_ハッチ
  6
Continuous
 62
     7
370
     5
100
AcDbLine
 10
3553.938593278037
 20
-2741.7097847499
 30
0.0
 11
3481.468030529559
 21
-2669.239222001424
 31
0.0
  0
LINE
  5
329
330
1F
100
AcDbEntity
  8
0-C_ハッチ
  6
Continuous
 62
     7
370
     5
100
AcDbLine
 10
3575.151796713632
 20
-2750.496581314304
 30
0.0
 11
3629.71067121668
 21
-2750.496581314304
 31
0.0
  0
ARC
  5
32A
330
1F
100
AcDbEntity
  8
0-C_ハッチ
  6
Continuous
 62
     7
370
     5
100
AcDbCircle
 10
3575.151796713632
 20
-2720.496581314304
 30
0.0
 40
30.0
100
AcDbArc
 50
225.0000000000006
 51
270.0
  0
LINE
  5
32B
330
1F
100
AcDbEntity
  8
0-C_ハッチ
  6
Continuous
 62
     7
370
     5
100
AcDbLine
 10
3575.151796713632
 20
-2804.496581314303
 30
0.0
 11
3629.71067121668
 21
-2804.496581314303
 31
0.0
  0
LINE
  5
32C
330
1F
100
AcDbEntity
  8
0-C_ハッチ
  6
Continuous
 62
     7
370
     5
100
AcDbLine
 10
3553.938593278037
 20
-2813.283377878707
 30
0.0
 11
3481.468030529559
 21
-2885.753940627184
 31
0.0
  0
ARC
  5
32D
330
1F
100
AcDbEntity
  8
0-C_ハッチ
  6
Continuous
 62
     7
370
     5
100
AcDbCircle
 10
3575.151796713632
 20
-2834.496581314303
 30
0.0
 40
30.0
100
AcDbArc
 50
90.0
 51
134.9999999999995
  0
LINE
  5
32E
330
1F
100
AcDbEntity
  8
0-C_ハッチ
  6
JWW_CENTER1
 62
   120
370
     5
100
AcDbLine
 10
3578.710671216678
 20
-2669.551149801547
 30
0.0
 11
3578.710671216678
 21
-2735.487246268104
 31
0.0
  0
LINE
  5
32F
330
1F
100
AcDbEntity
  8
0-C_ハッチ
  6
JWW_CENTER1
 62
   120
370
     5
100
AcDbLine
 10
3578.710671216678
 20
-2817.190670150577
 30
0.0
 11
3578.710671216678
 21
-2882.410069916411
 31
0.0
  0
LINE
  5
330
330
1F
100
AcDbEntity
  8
0-C_ハッチ
  6
JWW_CENTER1
 62
   120
370
     5
100
AcDbLine
 10
3707.71067121668
 20
-2744.087606676786
 30
0.0
 11
3707.71067121668
 21
-2810.740399844066
 31
0.0
  0
LINE
  5
331
330
1F
100
AcDbEntity
  8
0-C_ハッチ
  6
JWW_CENTER1
 62
   120
370
     5
100
AcDbLine
 10
3546.753769201237
 20
-2852.496581314304
 30
0.0
 11
3613.406562368521
 21
-2852.496581314304
 31
0.0
  0
LINE
  5
332
330
1F
100
AcDbEntity
  8
0-C_ハッチ
  6
JWW_CENTER1
 62
   120
370
     5
100
AcDbLine
 10
3546.753769201237
 20
-2702.496581314304
 30
0.0
 11
3613.406562368521
 21
-2702.496581314304
 31
0.0
  0
LWPOLYLINE
  5
333
330
1F
100
AcDbEntity
  8
0-C_ハッチ
  6
Continuous
 62
     7
370
     5
100
AcDbPolyline
 90
        4
 70
     1
 43
3.0
 10
3481.210671216678
 20
-2664.996581314304
 42
0.4142135623731
 10
3479.710671216678
 20
-2663.496581314304
 42
0.4142135623731
 10
3478.210671216678
 20
-2664.996581314304
 42
0.4142135623731
 10
3479.710671216678
 20
-2666.496581314304
 42
0.4142135623731
  0
LWPOLYLINE
  5
334
330
1F
100
AcDbEntity
  8
0-C_ハッチ
  6
Continuous
 62
     7
370
     5
100
AcDbPolyline
 90
        4
 70
     1
 43
3.0
 10
3481.210671216678
 20
-2889.996581314304
 42
0.4142135623731
 10
3479.710671216678
 20
-2888.496581314304
 42
0.4142135623731
 10
3478.210671216678
 20
-2889.996581314304
 42
0.4142135623731
 10
3479.710671216678
 20
-2891.496581314304
 42
0.4142135623731
  0
LINE
  5
335
330
1F
100
AcDbEntity
  8
0-C_ハッチ
  6
JWW_CENTER1
 62
   120
370
     5
100
AcDbLine
 10
3396.943098760396
 20
-2777.496581314304
 30
0.0
 11
4039.847423715937
 21
-2777.496581314304
 31
0.0
  0
LINE
  5
336
330
1F
100
AcDbEntity
  8
0-C_ハッチ
  6
JWW_DASHED1
 62
   120
370
     5
100
AcDbLine
 10
4032.559855807251
 20
-2960.496828754136
 30
0.0
 11
3995.710473264823
 21
-2923.647446211703
 31
0.0
  0
LINE
  5
337
330
1F
100
AcDbEntity
  8
0-C_ハッチ
  6
JWW_DASHED1
 62
   120
370
     5
100
AcDbLine
 10
4074.986262678451
 20
-2960.496828754131
 30
0.0
 11
3999.986015238612
 21
-2885.4965813143
 31
0.0
  0
LINE
  5
338
330
1F
100
AcDbEntity
  8
0-C_ハッチ
  6
JWW_DASHED1
 62
   120
370
     5
100
AcDbLine
 10
4117.412669549651
 20
-2960.496828754142
 30
0.0
 11
4042.412422109825
 21
-2885.496581314311
 31
0.0
  0
LINE
  5
339
330
1F
100
AcDbEntity
  8
0-C_ハッチ
  6
JWW_DASHED1
 62
   120
370
     5
100
AcDbLine
 10
4159.839076420851
 20
-2960.496828754136
 30
0.0
 11
4084.838828981025
 21
-2885.496581314306
 31
0.0
  0
LINE
  5
33A
330
1F
100
AcDbEntity
  8
0-C_ハッチ
  6
Continuous
 62
    40
370
     5
100
AcDbLine
 10
3995.710473264823
 20
-2885.496581314304
 30
0.0
 11
4184.98430247931
 21
-2885.496581314304
 31
0.0
  0
LINE
  5
33B
330
1F
100
AcDbEntity
  8
0-C_ハッチ
  6
Continuous
 62
    40
370
     5
100
AcDbLine
 10
3995.710473264823
 20
-2960.496581314304
 30
0.0
 11
4184.98430247931
 21
-2960.496581314304
 31
0.0
  0
LINE
  5
33C
330
1F
100
AcDbEntity
  8
0-C_ハッチ
  6
JWW_DASHED1
 62
   120
370
     5
100
AcDbLine
 10
4184.98430247931
 20
-2900.789241070197
 30
0.0
 11
4169.691642723412
 21
-2885.496581314303
 31
0.0
  0
LINE
  5
33D
330
1F
100
AcDbEntity
  8
0-C_ハッチ
  6
JWW_DASHED1
 62
   120
370
     5
100
AcDbLine
 10
4184.98430247931
 20
-2943.215647941391
 30
0.0
 11
4127.265235852212
 21
-2885.496581314303
 31
0.0
  0
LWPOLYLINE
  5
33E
330
1F
100
AcDbEntity
  8
0-C_ハッチ
  6
Continuous
 62
     7
370
     5
100
AcDbPolyline
 90
        4
 70
     1
 43
3.0
 10
3339.43209811148
 20
-2658.996581314304
 42
0.4142135623731
 10
3337.93209811148
 20
-2657.496581314304
 42
0.4142135623731
 10
3336.43209811148
 20
-2658.996581314304
 42
0.4142135623731
 10
3337.93209811148
 20
-2660.496581314304
 42
0.4142135623731
  0
LINE
  5
33F
330
1F
100
AcDbEntity
  8
0-C_ハッチ
  6
Continuous
 62
   120
370
     5
100
AcDbLine
 10
3337.93209811148
 20
-2658.996581314304
 30
0.0
 11
3436.762027104126
 21
-2658.996581314304
 31
0.0
  0
LWPOLYLINE
  5
340
330
1F
100
AcDbEntity
  8
0-C_ハッチ
  6
Continuous
 62
     7
370
     5
100
AcDbPolyline
 90
        4
 70
     1
 43
3.0
 10
3339.43209811148
 20
-2522.496581314304
 42
0.4142135623731
 10
3337.93209811148
 20
-2520.996581314304
 42
0.4142135623731
 10
3336.43209811148
 20
-2522.496581314304
 42
0.4142135623731
 10
3337.93209811148
 20
-2523.996581314304
 42
0.4142135623731
  0
LINE
  5
341
330
1F
100
AcDbEntity
  8
0-C_ハッチ
  6
Continuous
 62
   120
370
     5
100
AcDbLine
 10
3337.93209811148
 20
-2522.496581314304
 30
0.0
 11
3337.93209811148
 21
-2658.996581314304
 31
0.0
  0
LINE
  5
342
330
1F
100
AcDbEntity
  8
0-C_ハッチ
  6
Continuous
 62
   120
370
     5
100
AcDbLine
 10
3236.554381073081
 20
-2522.496581314304
 30
0.0
 11
3795.944095709538
 21
-2522.496581314304
 31
0.0
  0
LWPOLYLINE
  5
343
330
1F
100
AcDbEntity
  8
0-C_ハッチ
  6
Continuous
 62
     7
370
     5
100
AcDbPolyline
 90
        4
 70
     1
 43
3.0
 10
3240.602169118835
 20
-2777.496581314304
 42
0.4142135623731
 10
3239.102169118835
 20
-2775.996581314304
 42
0.4142135623731
 10
3237.602169118835
 20
-2777.496581314304
 42
0.4142135623731
 10
3239.102169118835
 20
-2778.996581314304
 42
0.4142135623731
  0
LWPOLYLINE
  5
344
330
1F
100
AcDbEntity
  8
0-C_ハッチ
  6
Continuous
 62
     7
370
     5
100
AcDbPolyline
 90
        4
 70
     1
 43
3.0
 10
3240.602169118835
 20
-2522.496581314304
 42
0.4142135623731
 10
3239.102169118835
 20
-2520.996581314304
 42
0.4142135623731
 10
3237.602169118835
 20
-2522.496581314304
 42
0.4142135623731
 10
3239.102169118835
 20
-2523.996581314304
 42
0.4142135623731
  0
LINE
  5
345
330
1F
100
AcDbEntity
  8
0-C_ハッチ
  6
Continuous
 62
   120
370
     5
100
AcDbLine
 10
3239.102169118835
 20
-2522.496581314304
 30
0.0
 11
3239.102169118835
 21
-2777.496581314304
 31
0.0
  0
LINE
  5
346
330
1F
100
AcDbEntity
  8
0-C_ハッチ
  6
Continuous
 62
   120
370
     5
100
AcDbLine
 10
3140.272240126189
 20
-2522.496581314304
 30
0.0
 11
3236.554381073081
 21
-2522.496581314304
 31
0.0
  0
LWPOLYLINE
  5
347
330
1F
100
AcDbEntity
  8
0-C_ハッチ
  6
Continuous
 62
     7
370
     5
100
AcDbPolyline
 90
        4
 70
     1
 43
3.0
 10
3141.772240126189
 20
-2522.496581314304
 42
0.4142135623731
 10
3140.272240126189
 20
-2520.996581314304
 42
0.4142135623731
 10
3138.772240126189
 20
-2522.496581314304
 42
0.4142135623731
 10
3140.272240126189
 20
-2523.996581314304
 42
0.4142135623731
  0
MTEXT
  5
348
330
1F
100
AcDbEntity
  8
0-C_ハッチ
  6
Continuous
 62
     7
370
   211
100
AcDbMText
 10
837.7246508148779
 20
-1861.188852748251
 30
0.0
 40
54.86399999999961
 41
179.9999999999987
 46
0.0
 71
     7
 72
     1
  1
{\fＭＳ ゴシック|b0|i0|c128|p49;7.5㎜}
 73
     1
 44
1.0
  0
MTEXT
  5
349
330
1F
100
AcDbEntity
  8
0-C_ハッチ
  6
Continuous
 62
     7
370
     5
100
AcDbMText
 10
3857.655764716269
 20
-2034.333634931207
 30
0.0
 40
45.71999999999998
 41
600.0
 46
0.0
 71
     7
 72
     1
  1
{\fＭＳ ゴシック|b0|i0|c128|p49;ストライクとガイドの}
 73
     1
 44
1.0
  0
MTEXT
  5
34A
330
1F
100
AcDbEntity
  8
0-C_ハッチ
  6
Continuous
 62
     7
370
     5
100
AcDbMText
 10
3227.726575798225
 20
-2063.621275984794
 30
0.0
 40
45.71999999999956
 41
359.9999999999966
 46
0.0
 71
     7
 72
     1
  1
{\fＭＳ ゴシック|b0|i0|c128|p49;枠の前面より}
 73
     1
 44
1.0
  0
MTEXT
  5
34B
330
1F
100
AcDbEntity
  8
0-C_ハッチ
  6
Continuous
 62
     7
370
     5
100
AcDbMText
 10
3857.655764716269
 20
-2102.362160547395
 30
0.0
 40
45.71999999999999
 41
300.0
 46
0.0
 71
     7
 72
     1
  1
{\fＭＳ ゴシック|b0|i0|c128|p49;位置決め溝}
 73
     1
 44
1.0
  0
LWPOLYLINE
  5
34C
330
1F
100
AcDbEntity
  8
0-C_ハッチ
  6
Continuous
 62
     7
370
     5
100
AcDbPolyline
 90
        4
 70
     1
 43
3.0
 10
3339.43209811148
 20
-3032.496581314306
 42
0.4142135623731
 10
3337.93209811148
 20
-3030.996581314306
 42
0.4142135623731
 10
3336.43209811148
 20
-3032.496581314306
 42
0.4142135623731
 10
3337.93209811148
 20
-3033.996581314306
 42
0.4142135623731
  0
LINE
  5
34D
330
1F
100
AcDbEntity
  8
0-C_ハッチ
  6
Continuous
 62
   120
370
     5
100
AcDbLine
 10
3236.554381073081
 20
-3032.496581314306
 30
0.0
 11
3795.944095709538
 21
-3032.496581314306
 31
0.0
  0
LWPOLYLINE
  5
34E
330
1F
100
AcDbEntity
  8
0-C_ハッチ
  6
Continuous
 62
     7
370
     5
100
AcDbPolyline
 90
        4
 70
     1
 43
3.0
 10
3240.602169118835
 20
-3032.496581314306
 42
0.4142135623731
 10
3239.102169118835
 20
-3030.996581314306
 42
0.4142135623731
 10
3237.602169118835
 20
-3032.496581314306
 42
0.4142135623731
 10
3239.102169118835
 20
-3033.996581314306
 42
0.4142135623731
  0
LINE
  5
34F
330
1F
100
AcDbEntity
  8
0-C_ハッチ
  6
Continuous
 62
   120
370
     5
100
AcDbLine
 10
3239.102169118835
 20
-2777.496581314304
 30
0.0
 11
3239.102169118835
 21
-3032.496581314306
 31
0.0
  0
LINE
  5
350
330
1F
100
AcDbEntity
  8
0-C_ハッチ
  6
Continuous
 62
   120
370
     5
100
AcDbLine
 10
3140.272240126189
 20
-3032.496581314306
 30
0.0
 11
3236.554381073081
 21
-3032.496581314306
 31
0.0
  0
LINE
  5
351
330
1F
100
AcDbEntity
  8
0-C_ハッチ
  6
Continuous
 62
   120
370
     5
100
AcDbLine
 10
3140.272240126189
 20
-2522.496581314304
 30
0.0
 11
3140.272240126189
 21
-3032.496581314306
 31
0.0
  0
LWPOLYLINE
  5
352
330
1F
100
AcDbEntity
  8
0-C_ハッチ
  6
Continuous
 62
     7
370
     5
100
AcDbPolyline
 90
        4
 70
     1
 43
3.0
 10
3141.772240126189
 20
-3032.496581314306
 42
0.4142135623731
 10
3140.272240126189
 20
-3030.996581314306
 42
0.4142135623731
 10
3138.772240126189
 20
-3032.496581314306
 42
0.4142135623731
 10
3140.272240126189
 20
-3033.996581314306
 42
0.4142135623731
  0
LWPOLYLINE
  5
353
330
1F
100
AcDbEntity
  8
0-C_ハッチ
  6
Continuous
 62
     7
370
     5
100
AcDbPolyline
 90
        4
 70
     1
 43
3.0
 10
3339.43209811148
 20
-2895.996581314307
 42
0.4142135623731
 10
3337.93209811148
 20
-2894.496581314307
 42
0.4142135623731
 10
3336.43209811148
 20
-2895.996581314307
 42
0.4142135623731
 10
3337.93209811148
 20
-2897.496581314307
 42
0.4142135623731
  0
LINE
  5
354
330
1F
100
AcDbEntity
  8
0-C_ハッチ
  6
Continuous
 62
   120
370
     5
100
AcDbLine
 10
3337.93209811148
 20
-2658.996581314304
 30
0.0
 11
3337.93209811148
 21
-2895.996581314307
 31
0.0
  0
LINE
  5
355
330
1F
100
AcDbEntity
  8
0-C_ハッチ
  6
Continuous
 62
   120
370
     5
100
AcDbLine
 10
3337.93209811148
 20
-2895.996581314307
 30
0.0
 11
3436.762027104126
 21
-2895.996581314307
 31
0.0
  0
LINE
  5
356
330
1F
100
AcDbEntity
  8
0-C_ハッチ
  6
Continuous
 62
   120
370
     5
100
AcDbLine
 10
3337.93209811148
 20
-2895.996581314307
 30
0.0
 11
3337.93209811148
 21
-3032.496581314306
 31
0.0
  0
MTEXT
  5
357
330
1F
100
AcDbEntity
  8
0-C_ハッチ
  6
Continuous
 62
     7
370
     5
100
AcDbMText
 10
3227.726575798224
 20
-2138.137680696217
 30
0.0
 40
45.71999999999999
 41
300.0
 46
0.0
 71
     7
 72
     1
  1
{\fＭＳ ゴシック|b0|i0|c128|p49;42.5㎜後ろ}
 73
     1
 44
1.0
  0
MTEXT
  5
358
330
1F
100
AcDbEntity
  8
0-C_ハッチ
  6
Continuous
 62
     7
370
   211
100
AcDbMText
 10
3726.488354767925
 20
-2328.568830038713
 30
0.0
 40
57.15
 41
150.0
 46
0.0
 71
     7
 72
     1
  1
{\fＭＳ ゴシック|b0|i0|c128|p49;16.5}
 73
     1
 44
1.0
  0
LWPOLYLINE
  5
359
330
1F
100
AcDbEntity
  8
0-C_ハッチ
  6
Continuous
 62
     7
370
     5
100
AcDbPolyline
 90
        4
 70
     1
 43
3.0
 10
3817.211364048208
 20
-2424.643830038713
 42
0.4142135623731
 10
3815.711364048208
 20
-2423.143830038713
 42
0.4142135623731
 10
3814.211364048208
 20
-2424.643830038713
 42
0.4142135623731
 10
3815.711364048208
 20
-2426.143830038713
 42
0.4142135623731
  0
LWPOLYLINE
  5
35A
330
1F
100
AcDbEntity
  8
0-C_ハッチ
  6
Continuous
 62
     7
370
     5
100
AcDbPolyline
 90
        4
 70
     1
 43
3.0
 10
3754.21067121668
 20
-2424.643830038713
 42
0.4142135623731
 10
3752.71067121668
 20
-2423.143830038713
 42
0.4142135623731
 10
3751.21067121668
 20
-2424.643830038713
 42
0.4142135623731
 10
3752.71067121668
 20
-2426.143830038713
 42
0.4142135623731
  0
LINE
  5
35B
330
1F
100
AcDbEntity
  8
0-C_ハッチ
  6
Continuous
 62
   120
370
     5
100
AcDbLine
 10
3815.711364048208
 20
-2424.643830038713
 30
0.0
 11
3815.711364048208
 21
-2492.143830038713
 31
0.0
  0
LINE
  5
35C
330
1F
100
AcDbEntity
  8
0-C_ハッチ
  6
Continuous
 62
   120
370
     5
100
AcDbLine
 10
3752.71067121668
 20
-2424.643830038713
 30
0.0
 11
3752.71067121668
 21
-2492.143830038713
 31
0.0
  0
LINE
  5
35D
330
1F
100
AcDbEntity
  8
0-C_ハッチ
  6
Continuous
 62
   120
370
     5
100
AcDbLine
 10
3815.711364048208
 20
-2424.643830038713
 30
0.0
 11
3851.710250568687
 21
-2424.643830038713
 31
0.0
  0
LWPOLYLINE
  5
35E
330
1F
100
AcDbEntity
  8
0-C_ハッチ
  6
Continuous
 62
     7
370
     5
100
AcDbPolyline
 90
        4
 70
     1
 43
3.0
 10
3853.210250568687
 20
-2424.643830038713
 42
0.4142135623731
 10
3851.710250568687
 20
-2423.143830038713
 42
0.4142135623731
 10
3850.210250568687
 20
-2424.643830038713
 42
0.4142135623731
 10
3851.710250568687
 20
-2426.143830038713
 42
0.4142135623731
  0
LINE
  5
35F
330
1F
100
AcDbEntity
  8
0-C_ハッチ
  6
Continuous
 62
   120
370
     5
100
AcDbLine
 10
3851.710250568687
 20
-2424.643830038713
 30
0.0
 11
3851.710250568687
 21
-2492.143830038713
 31
0.0
  0
MTEXT
  5
360
330
1F
100
AcDbEntity
  8
0-C_ハッチ
  6
Continuous
 62
     7
370
     5
100
AcDbMText
 10
2819.200672454917
 20
-2340.814840636103
 30
0.0
 40
57.15
 41
225.0
 46
0.0
 71
     7
 72
     1
  1
{\fＭＳ ゴシック|b0|i0|c128|p49;平面図}
 73
     1
 44
1.0
  0
LINE
  5
361
330
1F
100
AcDbEntity
  8
0-C_ハッチ
  6
Continuous
 62
   120
370
     5
100
AcDbLine
 10
3815.711364048208
 20
-2424.643830038713
 30
0.0
 11
3589.592542196049
 21
-2424.643830038713
 31
0.0
  0
MTEXT
  5
362
330
1F
100
AcDbEntity
  8
0-C_ハッチ
  6
Continuous
 62
     7
370
   211
100
AcDbMText
 10
3589.592542196049
 20
-2427.568830038713
 30
0.0
 40
57.15
 41
150.0
 46
0.0
 71
     7
 72
     1
  1
{\fＭＳ ゴシック|b0|i0|c128|p49;10.5}
 73
     1
 44
1.0
  0
LINE
  5
363
330
1F
100
AcDbEntity
  8
0-C_ハッチ
  6
Continuous
 62
   120
370
     5
100
AcDbLine
 10
3851.710250568687
 20
-2325.643830038714
 30
0.0
 11
3752.71067121668
 21
-2325.643830038714
 31
0.0
  0
LWPOLYLINE
  5
364
330
1F
100
AcDbEntity
  8
0-C_ハッチ
  6
Continuous
 62
     7
370
     5
100
AcDbPolyline
 90
        4
 70
     1
 43
3.0
 10
3853.210250568687
 20
-2325.643830038714
 42
0.4142135623731
 10
3851.710250568687
 20
-2324.143830038714
 42
0.4142135623731
 10
3850.210250568687
 20
-2325.643830038714
 42
0.4142135623731
 10
3851.710250568687
 20
-2327.143830038714
 42
0.4142135623731
  0
LWPOLYLINE
  5
365
330
1F
100
AcDbEntity
  8
0-C_ハッチ
  6
Continuous
 62
     7
370
     5
100
AcDbPolyline
 90
        4
 70
     1
 43
3.0
 10
3754.21067121668
 20
-2325.643830038714
 42
0.4142135623731
 10
3752.71067121668
 20
-2324.143830038714
 42
0.4142135623731
 10
3751.21067121668
 20
-2325.643830038714
 42
0.4142135623731
 10
3752.71067121668
 20
-2327.143830038714
 42
0.4142135623731
  0
LINE
  5
366
330
1F
100
AcDbEntity
  8
0-C_ハッチ
  6
Continuous
 62
   120
370
     5
100
AcDbLine
 10
3851.710250568687
 20
-2325.643830038714
 30
0.0
 11
3851.710250568687
 21
-2424.643830038713
 31
0.0
  0
LINE
  5
367
330
1F
100
AcDbEntity
  8
0-C_ハッチ
  6
Continuous
 62
   120
370
     5
100
AcDbLine
 10
3752.71067121668
 20
-2325.643830038714
 30
0.0
 11
3752.71067121668
 21
-2424.643830038713
 31
0.0
  0
MTEXT
  5
368
330
1F
100
AcDbEntity
  8
0-C_ハッチ
  6
Continuous
 62
     7
370
   211
100
AcDbMText
 10
3809.537187421206
 20
-2427.568830038713
 30
0.0
 40
57.15
 41
37.5
 46
0.0
 71
     7
 72
     1
  1
{\fＭＳ ゴシック|b0|i0|c128|p49;6}
 73
     1
 44
1.0
  0
LINE
  5
369
330
1F
100
AcDbEntity
  8
0-C_ハッチ
  6
Continuous
 62
   120
370
     5
100
AcDbLine
 10
3239.102169118835
 20
-2777.496581314304
 30
0.0
 11
3257.043775766612
 21
-2777.496581314304
 31
0.0
  0
LINE
  5
36A
330
1F
100
AcDbEntity
  8
0-C_ハッチ
  6
Continuous
 62
    40
370
     5
100
AcDbLine
 10
1525.037952956806
 20
-1674.392454273192
 30
0.0
 11
1323.583032872212
 21
-1773.217297606209
 31
0.0
  0
LINE
  5
36B
330
1F
100
AcDbEntity
  8
0-C_ハッチ
  6
JWW_HOJO
 62
   120
370
     5
100
AcDbLine
 10
123.3719292652785
 20
-496.6652231471279
 30
0.0
 11
2191.982906705271
 21
-496.6652231471279
 31
0.0
  0
LINE
  5
36C
330
1F
100
AcDbEntity
  8
0-C_ハッチ
  6
JWW_HOJO
 62
   120
370
     5
100
AcDbLine
 10
123.3719292652785
 20
-619.0652231471266
 30
0.0
 11
2191.982906705271
 21
-619.0652231471266
 31
0.0
  0
LINE
  5
36D
330
1F
100
AcDbEntity
  8
0-C_ハッチ
  6
JWW_HOJO
 62
   120
370
     5
100
AcDbLine
 10
2191.982906705271
 20
-496.6652231471279
 30
0.0
 11
2191.982906705271
 21
-741.465223147127
 31
0.0
  0
LINE
  5
36E
330
1F
100
AcDbEntity
  8
0-C_ハッチ
  6
JWW_HOJO
 62
   120
370
     5
100
AcDbLine
 10
123.3719292652785
 20
-496.6652231471279
 30
0.0
 11
123.3719292652785
 21
-741.465223147127
 31
0.0
  0
LINE
  5
36F
330
1F
100
AcDbEntity
  8
0-C_ハッチ
  6
JWW_HOJO
 62
   120
370
     5
100
AcDbLine
 10
2191.982906705271
 20
-741.465223147127
 30
0.0
 11
123.3719292652785
 21
-741.465223147127
 31
0.0
  0
LWPOLYLINE
  5
370
330
1F
100
AcDbEntity
  8
0-C_ハッチ
  6
Continuous
 62
   120
370
     5
100
AcDbPolyline
 90
        4
 70
     1
 43
3.0
 10
2236.345218653689
 20
-2287.10871388736
 42
0.4142135623731
 10
2234.84521865369
 20
-2285.60871388736
 42
0.4142135623731
 10
2233.34521865369
 20
-2287.10871388736
 42
0.4142135623731
 10
2234.84521865369
 20
-2288.60871388736
 42
0.4142135623731
  0
LINE
  5
371
330
1F
100
AcDbEntity
  8
0-C_ハッチ
  6
Continuous
 62
   120
370
     5
100
AcDbLine
 10
2234.84521865369
 20
-2287.10871388736
 30
0.0
 11
2093.325973459498
 21
-2164.947342812191
 31
0.0
  0
LWPOLYLINE
  5
372
330
1F
100
AcDbEntity
  8
0-C_ハッチ
  6
Continuous
 62
   120
370
     5
100
AcDbPolyline
 90
        4
 70
     1
 43
3.0
 10
2203.650399519226
 20
-2307.124389655814
 42
0.4142135623731
 10
2202.150399519226
 20
-2305.624389655814
 42
0.4142135623731
 10
2200.650399519226
 20
-2307.124389655814
 42
0.4142135623731
 10
2202.150399519226
 20
-2308.624389655814
 42
0.4142135623731
  0
LINE
  5
373
330
1F
100
AcDbEntity
  8
0-C_ハッチ
  6
Continuous
 62
   120
370
     5
100
AcDbLine
 10
2202.150399519226
 20
-2307.124389655814
 30
0.0
 11
2234.84521865369
 21
-2287.10871388736
 31
0.0
  0
LINE
  5
374
330
1F
100
AcDbEntity
  8
0-C_ハッチ
  6
JWW_DASHED1
 62
     7
370
     5
100
AcDbLine
 10
1525.037952956806
 20
-1674.392454273192
 30
0.0
 11
2093.326052764161
 21
-2164.947250940912
 31
0.0
  0
LINE
  5
375
330
1F
100
AcDbEntity
  8
0-C_ハッチ
  6
Continuous
 62
    40
370
     5
100
AcDbLine
 10
795.1079250208511
 20
-1017.79183314916
 30
0.0
 11
795.1079250208511
 21
-2055.071624020092
 31
0.0
  0
LINE
  5
376
330
1F
100
AcDbEntity
  8
0-C_ハッチ
  6
Continuous
 62
    40
370
     5
100
AcDbLine
 10
557.6252232148224
 20
-1140.029308717423
 30
0.0
 11
557.6252232148224
 21
-2177.309316120293
 31
0.0
  0
LINE
  5
377
330
1F
100
AcDbEntity
  8
0-C_ハッチ
  6
Continuous
 62
    40
370
     5
100
AcDbLine
 10
466.7996027771409
 20
-1122.566874073939
 30
0.0
 11
466.7996027771409
 21
-2159.846664944871
 31
0.0
  0
LINE
  5
378
330
1F
100
AcDbEntity
  8
0-C_ハッチ
  6
Continuous
 62
    40
370
     5
100
AcDbLine
 10
267.7365957317045
 20
-1010.816906373673
 30
0.0
 11
267.7365957317045
 21
-1956.654453800353
 31
0.0
  0
LINE
  5
379
330
1F
100
AcDbEntity
  8
0-C_ハッチ
  6
Continuous
 62
    40
370
     5
100
AcDbLine
 10
557.6252232148224
 20
-2177.309316120293
 30
0.0
 11
466.7996027771409
 21
-2159.846664944871
 31
0.0
  0
LINE
  5
37A
330
1F
100
AcDbEntity
  8
0-C_ハッチ
  6
Continuous
 62
    40
370
     5
100
AcDbLine
 10
466.79960277714
 20
-2159.846664908813
 30
0.0
 11
267.7365957317045
 21
-1956.654453800353
 31
0.0
  0
MTEXT
  5
37B
330
1F
100
AcDbEntity
  8
0-C_ハッチ
  6
Continuous
 62
     7
370
   211
100
AcDbMText
 10
2052.274259152895
 20
-2445.588740824998
 30
0.0
 40
68.57999999999957
 41
134.9999999999991
 46
0.0
 71
     7
 72
     1
  1
{\fＭＳ ゴシック|b0|i0|c128|p49;3㎜}
 73
     1
 44
1.0
  0
MTEXT
  5
37C
330
1F
100
AcDbEntity
  8
0-C_ハッチ
  6
Continuous
 62
     7
370
   211
100
AcDbMText
 10
3332.223941114341
 20
-2693.421581314305
 30
0.0
 40
57.15
 41
150.0
 46
0.0
 71
     7
 72
     1
  1
{\fＭＳ ゴシック|b0|i0|c128|p49;22.5}
 11
6.123031769111886E-17
 21
1.0
 31
0.0
 73
     1
 44
1.0
  0
LINE
  5
37D
330
1F
100
AcDbEntity
  8
0-C_ハッチ
  6
Continuous
 62
   120
370
     5
100
AcDbLine
 10
2202.150399519226
 20
-2307.124389655814
 30
0.0
 11
2059.135660929074
 21
-2183.672087983656
 31
0.0
  0
LINE
  5
37E
330
1F
100
AcDbEntity
  8
0-C_ハッチ
  6
Continuous
 62
    40
370
     5
100
AcDbLine
 10
795.1079250208511
 20
-2055.071624020092
 30
0.0
 11
557.6252232148224
 21
-2177.309316120293
 31
0.0
  0
LINE
  5
37F
330
1F
100
AcDbEntity
  8
0-C_ハッチ
  6
Continuous
 62
    40
370
     5
100
AcDbLine
 10
1525.037952956806
 20
-1674.392454273192
 30
0.0
 11
1525.037952956806
 21
-848.8930174129364
 31
0.0
  0
ELLIPSE
  5
380
330
1F
100
AcDbEntity
  8
0-C_ハッチ
  6
Continuous
 62
    40
370
     5
100
AcDbEllipse
 10
1143.036540641003
 20
-2085.692327308095
 30
0.0
 11
381.105697987145
 21
213.3140205022903
 31
0.0
210
0.0
220
0.0
230
1.0
 40
0.5999999999999999
 41
0.781044512378371
 42
2.29283299576993
  0
LINE
  5
381
330
1F
100
AcDbEntity
  8
0-C_ハッチ
  6
Continuous
 62
    40
370
     5
100
AcDbLine
 10
1323.583032872212
 20
-882.6123437225115
 30
0.0
 11
1323.583032872212
 21
-1773.217297606209
 31
0.0
  0
MTEXT
  5
382
330
1F
100
AcDbEntity
  8
0-C_ハッチ
  6
Continuous
 62
     7
370
   211
100
AcDbMText
 10
3233.102169118835
 20
-2727.921581314304
 30
0.0
 40
57.15
 41
150.0
 46
0.0
 71
     7
 72
     1
  1
{\fＭＳ ゴシック|b0|i0|c128|p49;42.5}
 11
6.123031769111886E-17
 21
1.0
 31
0.0
 73
     1
 44
1.0
  0
ELLIPSE
  5
383
330
1F
100
AcDbEntity
  8
0-C_ハッチ
  6
Continuous
 62
     7
370
     5
100
AcDbEllipse
 10
1345.529117971932
 20
-2089.791336845014
 30
0.0
 11
79.69551291525261
 21
0.0
 31
0.0
210
0.0
220
0.0
230
1.0
 40
0.7
 41
0.0
 42
6.283185307179586
  0
LINE
  5
384
330
1F
100
AcDbEntity
  8
0-C_ハッチ
  6
Continuous
 62
     7
370
     5
100
AcDbLine
 10
1481.90042507092
 20
-1719.633238977129
 30
0.0
 11
1486.820030694262
 21
-1717.112019834055
 31
0.0
  0
LINE
  5
385
330
1F
100
AcDbEntity
  8
0-C_ハッチ
  6
Continuous
 62
     7
370
     5
100
AcDbLine
 10
1486.820030694262
 20
-1717.112019834055
 30
0.0
 11
1510.08973379711
 21
-1714.042778041516
 31
0.0
  0
LINE
  5
386
330
1F
100
AcDbEntity
  8
0-C_ハッチ
  6
Continuous
 62
     7
370
     5
100
AcDbLine
 10
1510.08973379711
 20
-1714.042778041516
 30
0.0
 11
1627.152411011156
 21
-1804.19211018376
 31
0.0
  0
LINE
  5
387
330
1F
100
AcDbEntity
  8
0-C_ハッチ
  6
Continuous
 62
     7
370
     5
100
AcDbLine
 10
1627.152411011156
 20
-1804.19211018376
 30
0.0
 11
1645.756047704926
 21
-1808.719202458312
 31
0.0
  0
LINE
  5
388
330
1F
100
AcDbEntity
  8
0-C_ハッチ
  6
Continuous
 62
     7
370
     5
100
AcDbLine
 10
1645.756047704926
 20
-1808.719202458312
 30
0.0
 11
1656.298397207312
 21
-1818.950927053781
 31
0.0
  0
LINE
  5
389
330
1F
100
AcDbEntity
  8
0-C_ハッチ
  6
Continuous
 62
     7
370
     5
100
AcDbLine
 10
1656.298397207312
 20
-1818.950927053781
 30
0.0
 11
1669.382437963242
 21
-1821.617419442297
 31
0.0
  0
LINE
  5
38A
330
1F
100
AcDbEntity
  8
0-C_ハッチ
  6
Continuous
 62
     7
370
     5
100
AcDbLine
 10
1669.382437963242
 20
-1821.617419442297
 30
0.0
 11
1763.159664297153
 21
-1902.573789748127
 31
0.0
  0
LINE
  5
38B
330
1F
100
AcDbEntity
  8
0-C_ハッチ
  6
Continuous
 62
     7
370
     5
100
AcDbLine
 10
1763.159664297153
 20
-1902.573789748127
 30
0.0
 11
1770.007585248851
 21
-1924.259856997909
 31
0.0
  0
LINE
  5
38C
330
1F
100
AcDbEntity
  8
0-C_ハッチ
  6
Continuous
 62
     7
370
     5
100
AcDbLine
 10
1770.007585248851
 20
-1924.259856997909
 30
0.0
 11
1801.359047653551
 21
-1947.423853145745
 31
0.0
  0
LINE
  5
38D
330
1F
100
AcDbEntity
  8
0-C_ハッチ
  6
Continuous
 62
     7
370
     5
100
AcDbLine
 10
1801.359047653551
 20
-1947.423853145745
 30
0.0
 11
1815.28087016096
 21
-1971.763420867785
 31
0.0
  0
LINE
  5
38E
330
1F
100
AcDbEntity
  8
0-C_ハッチ
  6
Continuous
 62
     7
370
     5
100
AcDbLine
 10
1815.28087016096
 20
-1971.763420867785
 30
0.0
 11
1957.349442923351
 21
-2090.856970809744
 31
0.0
  0
LINE
  5
38F
330
1F
100
AcDbEntity
  8
0-C_ハッチ
  6
Continuous
 62
     7
370
     5
100
AcDbLine
 10
1957.349442923351
 20
-2090.856970809744
 30
0.0
 11
1954.187289244838
 21
-2115.382755998159
 31
0.0
  0
LINE
  5
390
330
1F
100
AcDbEntity
  8
0-C_ハッチ
  6
Continuous
 62
     7
370
     5
100
AcDbLine
 10
1954.187289244838
 20
-2115.382755998159
 30
0.0
 11
1734.835712075191
 21
-2249.669170921515
 31
0.0
  0
LINE
  5
391
330
1F
100
AcDbEntity
  8
0-C_ハッチ
  6
Continuous
 62
     7
370
     5
100
AcDbLine
 10
1734.835712075191
 20
-2249.669170921515
 30
0.0
 11
1705.519649884374
 21
-2245.32829611334
 31
0.0
  0
LINE
  5
392
330
1F
100
AcDbEntity
  8
0-C_ハッチ
  6
Continuous
 62
     7
370
     5
100
AcDbLine
 10
1705.519649884374
 20
-2245.32829611334
 30
0.0
 11
1693.226147548072
 21
-2238.817180748291
 31
0.0
  0
LINE
  5
393
330
1F
100
AcDbEntity
  8
0-C_ハッチ
  6
Continuous
 62
     7
370
     5
100
AcDbLine
 10
1481.90042507092
 20
-1719.633238977129
 30
0.0
 11
1281.994990679707
 21
-1822.082766261022
 31
0.0
  0
LINE
  5
394
330
1F
100
AcDbEntity
  8
0-C_ハッチ
  6
Continuous
 62
     7
370
     5
100
AcDbLine
 10
1640.314403264638
 20
-1807.804256598143
 30
0.0
 11
1356.827640941664
 21
-1955.082390933107
 31
0.0
  0
LINE
  5
395
330
1F
100
AcDbEntity
  8
0-C_ハッチ
  6
Continuous
 62
     7
370
     5
100
AcDbLine
 10
1755.532228369929
 20
-1937.548422011311
 30
0.0
 11
1501.656011672974
 21
-2080.733709030311
 31
0.0
  0
LINE
  5
396
330
1F
100
AcDbEntity
  8
0-C_ハッチ
  6
Continuous
 62
     7
370
     5
100
AcDbLine
 10
1802.103130130193
 20
-1955.872929352734
 30
0.0
 11
1539.948306915343
 21
-2102.918390278332
 31
0.0
  0
LINE
  5
397
330
1F
100
AcDbEntity
  8
0-C_ハッチ
  6
Continuous
 62
     7
370
     5
100
AcDbLine
 10
1815.28087016096
 20
-1984.026215038387
 30
0.0
 11
1577.930370945228
 21
-2120.421060492775
 31
0.0
  0
LINE
  5
398
330
1F
100
AcDbEntity
  8
0-C_ハッチ
  6
Continuous
 62
     7
370
     5
100
AcDbLine
 10
1501.656011672974
 20
-2080.733709030311
 30
0.0
 11
1604.673246327934
 21
-2144.60570945579
 31
0.0
  0
LINE
  5
399
330
1F
100
AcDbEntity
  8
0-C_ハッチ
  6
Continuous
 62
     7
370
     5
100
AcDbLine
 10
1604.673246327934
 20
-2144.60570945579
 30
0.0
 11
1627.214614731424
 21
-2169.798019317729
 31
0.0
  0
LINE
  5
39A
330
1F
100
AcDbEntity
  8
0-C_ハッチ
  6
Continuous
 62
     7
370
     5
100
AcDbLine
 10
1287.653954446505
 20
-1850.266956959593
 30
0.0
 11
1313.264564642534
 21
-1873.552407839725
 31
0.0
  0
LINE
  5
39B
330
1F
100
AcDbEntity
  8
0-C_ハッチ
  6
Continuous
 62
     7
370
     5
100
AcDbLine
 10
1313.264564642534
 20
-1873.552407839725
 30
0.0
 11
1364.920423687614
 21
-1973.840946385903
 31
0.0
  0
LINE
  5
39C
330
1F
100
AcDbEntity
  8
0-C_ハッチ
  6
Continuous
 62
     7
370
     5
100
AcDbLine
 10
1364.920423687614
 20
-1973.840946385903
 30
0.0
 11
1499.671791735261
 21
-2094.887811252652
 31
0.0
  0
LINE
  5
39D
330
1F
100
AcDbEntity
  8
0-C_ハッチ
  6
Continuous
 62
     7
370
     5
100
AcDbLine
 10
1499.671791735261
 20
-2094.887811252652
 30
0.0
 11
1644.981257062581
 21
-2189.455772853408
 31
0.0
  0
LINE
  5
39E
330
1F
100
AcDbEntity
  8
0-C_ハッチ
  6
Continuous
 62
     7
370
     5
100
AcDbLine
 10
1644.981257062581
 20
-2189.455772853408
 30
0.0
 11
1693.226147548072
 21
-2238.817180748291
 31
0.0
  0
LINE
  5
39F
330
1F
100
AcDbEntity
  8
0-C_ハッチ
  6
Continuous
 62
     7
370
     5
100
AcDbLine
 10
1625.555586394617
 20
-2187.719383560697
 30
0.0
 11
1489.71919649214
 21
-2103.476452135812
 31
0.0
  0
LINE
  5
3A0
330
1F
100
AcDbEntity
  8
0-C_ハッチ
  6
Continuous
 62
     7
370
     5
100
AcDbLine
 10
1489.71919649214
 20
-2103.476452135812
 30
0.0
 11
1359.230751755114
 21
-1982.352029465944
 31
0.0
  0
LINE
  5
3A1
330
1F
100
AcDbEntity
  8
0-C_ハッチ
  6
Continuous
 62
     7
370
     5
100
AcDbLine
 10
1359.230751755114
 20
-1982.352029465944
 30
0.0
 11
1309.652024533718
 21
-1881.148741906816
 31
0.0
  0
LINE
  5
3A2
330
1F
100
AcDbEntity
  8
0-C_ハッチ
  6
Continuous
 62
     7
370
     5
100
AcDbLine
 10
1300.52146326479
 20
-1886.900420712372
 30
0.0
 11
1101.789238281189
 21
-2000.242291848775
 31
0.0
  0
LINE
  5
3A3
330
1F
100
AcDbEntity
  8
0-C_ハッチ
  6
Continuous
 62
     7
370
     5
100
AcDbLine
 10
1352.176534921005
 20
-1987.173408328476
 30
0.0
 11
1209.100104412476
 21
-2064.130040051536
 31
0.0
  0
LINE
  5
3A4
330
1F
100
AcDbEntity
  8
0-C_ハッチ
  6
Continuous
 62
     7
370
     5
100
AcDbLine
 10
1481.549249637499
 20
-2111.507031161495
 30
0.0
 11
1338.472031740107
 21
-2188.479016967402
 31
0.0
  0
LINE
  5
3A5
330
1F
100
AcDbEntity
  8
0-C_ハッチ
  6
Continuous
 62
     7
370
     5
100
AcDbLine
 10
1601.008714154213
 20
-2196.820415860126
 30
0.0
 11
1400.88015395136
 21
-2304.484605321359
 31
0.0
  0
LINE
  5
3A6
330
1F
100
AcDbEntity
  8
0-C_ハッチ
  6
Continuous
 62
     7
370
     5
100
AcDbLine
 10
1384.934273837116
 20
-2323.277037805254
 30
0.0
 11
1318.365269704635
 21
-2187.331791392306
 31
0.0
  0
LINE
  5
3A7
330
1F
100
AcDbEntity
  8
0-C_ハッチ
  6
Continuous
 62
     7
370
     5
100
AcDbLine
 10
1081.185633872427
 20
-2008.954946478045
 30
0.0
 11
1183.923345480605
 21
-2057.804748458433
 31
0.0
  0
LINE
  5
3A8
330
1F
100
AcDbEntity
  8
0-C_ハッチ
  6
Continuous
 62
     7
370
     5
100
AcDbLine
 10
1183.923345480605
 20
-2057.804748458433
 30
0.0
 11
1318.365269704635
 21
-2187.331791392306
 31
0.0
  0
LINE
  5
3A9
330
1F
100
AcDbEntity
  8
0-C_ハッチ
  6
Continuous
 62
     7
370
     5
100
AcDbLine
 10
1347.587632620616
 20
-2297.898707324156
 30
0.0
 11
1310.303195124387
 21
-2230.755499862478
 31
0.0
  0
LINE
  5
3AA
330
1F
100
AcDbEntity
  8
0-C_ハッチ
  6
Continuous
 62
     7
370
     5
100
AcDbLine
 10
1310.303195124387
 20
-2230.755499862478
 30
0.0
 11
1170.218842299707
 21
-2083.524215164934
 31
0.0
  0
LINE
  5
3AB
330
1F
100
AcDbEntity
  8
0-C_ハッチ
  6
Continuous
 62
     7
370
     5
100
AcDbLine
 10
1170.218842299707
 20
-2083.524215164934
 30
0.0
 11
1135.678454995114
 21
-2067.029009002198
 31
0.0
  0
LINE
  5
3AC
330
1F
100
AcDbEntity
  8
0-C_ハッチ
  6
Continuous
 62
     7
370
     5
100
AcDbLine
 10
1667.561275803007
 20
-1823.340014703093
 30
0.0
 11
1374.049278525562
 21
-1975.826497704024
 31
0.0
  0
LINE
  5
3AD
330
1F
100
AcDbEntity
  8
0-C_ハッチ
  6
Continuous
 62
     7
370
     5
100
AcDbLine
 10
1654.223162038351
 20
-1820.029061218563
 30
0.0
 11
1365.64531607094
 21
-1969.952134931828
 31
0.0
  0
LINE
  5
3AE
330
1F
100
AcDbEntity
  8
0-C_ハッチ
  6
Continuous
 62
     7
370
     5
100
AcDbLine
 10
1481.562660837234
 20
-2061.393502316078
 30
0.0
 11
1759.258539519816
 21
-1904.774010303474
 31
0.0
  0
LINE
  5
3AF
330
1F
100
AcDbEntity
  8
0-C_ハッチ
  6
Continuous
 62
     7
370
     5
100
AcDbLine
 10
1624.805847199816
 20
-1805.411206048502
 30
0.0
 11
1357.239977138941
 21
-1944.418057131658
 31
0.0
  0
LINE
  5
3B0
330
1F
100
AcDbEntity
  8
0-C_ハッチ
  6
Continuous
 62
     7
370
     5
100
AcDbLine
 10
1693.226147548072
 20
-2238.817180748291
 30
0.0
 11
1693.226147548072
 21
-2244.817180748293
 31
0.0
  0
LINE
  5
3B1
330
1F
100
AcDbEntity
  8
0-C_ハッチ
  6
Continuous
 62
     7
370
     5
100
AcDbLine
 10
1734.835712075191
 20
-2249.669170921515
 30
0.0
 11
1734.835712075191
 21
-2255.669170921516
 31
0.0
  0
LINE
  5
3B2
330
1F
100
AcDbEntity
  8
0-C_ハッチ
  6
Continuous
 62
     7
370
     5
100
AcDbLine
 10
1734.835712075191
 20
-2255.669170921516
 30
0.0
 11
1705.519649884374
 21
-2251.328242229444
 31
0.0
  0
LINE
  5
3B3
330
1F
100
AcDbEntity
  8
0-C_ハッチ
  6
Continuous
 62
     7
370
     5
100
AcDbLine
 10
1705.519649884374
 20
-2245.32829611334
 30
0.0
 11
1705.519649884374
 21
-2251.328242229444
 31
0.0
  0
LINE
  5
3B4
330
1F
100
AcDbEntity
  8
0-C_ハッチ
  6
Continuous
 62
     7
370
     5
100
AcDbLine
 10
1705.519649884374
 20
-2251.328242229444
 30
0.0
 11
1693.226086022195
 21
-2244.817080737972
 31
0.0
  0
LINE
  5
3B5
330
1F
100
AcDbEntity
  8
0-C_ハッチ
  6
Continuous
 62
     7
370
     5
100
AcDbLine
 10
1734.835712075191
 20
-2255.669170921516
 30
0.0
 11
1954.187289244838
 21
-2121.38275599816
 31
0.0
  0
LINE
  5
3B6
330
1F
100
AcDbEntity
  8
0-C_ハッチ
  6
Continuous
 62
     7
370
     5
100
AcDbLine
 10
1954.187289244838
 20
-2121.38275599816
 30
0.0
 11
1954.187289244838
 21
-2115.382755998159
 31
0.0
  0
LINE
  5
3B7
330
1F
100
AcDbEntity
  8
0-C_ハッチ
  6
Continuous
 62
     7
370
     5
100
AcDbLine
 10
1957.349442923351
 20
-2090.856970809744
 30
0.0
 11
1957.349442923351
 21
-2096.856970809742
 31
0.0
  0
LINE
  5
3B8
330
1F
100
AcDbEntity
  8
0-C_ハッチ
  6
Continuous
 62
     7
370
     5
100
AcDbLine
 10
1957.349442923351
 20
-2096.856970809742
 30
0.0
 11
1954.187289244838
 21
-2121.38275599816
 31
0.0
  0
ELLIPSE
  5
3B9
330
1F
100
AcDbEntity
  8
0-C_ハッチ
  6
Continuous
 62
     7
370
     5
100
AcDbEllipse
 10
1650.087597471431
 20
-1898.079788696906
 30
0.0
 11
45.7135540476191
 21
0.0
 31
0.0
210
0.0
220
0.0
230
1.0
 40
0.7
 41
0.0
 42
6.283185307179586
  0
ARC
  5
3BA
330
1F
100
AcDbEntity
  8
0-C_ハッチ
  6
Continuous
 62
     7
370
     5
100
AcDbCircle
 10
1423.962313650704
 20
-1830.699684038185
 30
0.0
 40
12.0
100
AcDbArc
 50
117.3949267100002
 51
230.1598717470478
  0
LINE
  5
3BB
330
1F
100
AcDbEntity
  8
0-C_ハッチ
  6
Continuous
 62
     7
370
     5
100
AcDbLine
 10
1427.157436898941
 20
-1848.993910959921
 30
0.0
 11
1416.274542147283
 21
-1839.913704295988
 31
0.0
  0
ARC
  5
3BC
330
1F
100
AcDbEntity
  8
0-C_ハッチ
  6
Continuous
 62
     7
370
     5
100
AcDbCircle
 10
1434.845208402362
 20
-1839.779890702116
 30
0.0
 40
12.0
100
AcDbArc
 50
230.159871747048
 51
297.3949267103217
  0
LINE
  5
3BD
330
1F
100
AcDbEntity
  8
0-C_ハッチ
  6
Continuous
 62
     7
370
     5
100
AcDbLine
 10
1531.610468174628
 20
-1803.148117252779
 30
0.0
 11
1440.366662452275
 21
-1850.434164266028
 31
0.0
  0
ARC
  5
3BE
330
1F
100
AcDbEntity
  8
0-C_ハッチ
  6
Continuous
 62
     7
370
     5
100
AcDbCircle
 10
1526.089014124715
 20
-1792.493843688866
 30
0.0
 40
12.0
100
AcDbArc
 50
297.3949267103216
 51
50.15987174704777
  0
LINE
  5
3BF
330
1F
100
AcDbEntity
  8
0-C_ハッチ
  6
Continuous
 62
     7
370
     5
100
AcDbLine
 10
1522.893890876957
 20
-1774.199616767532
 30
0.0
 11
1533.776785628133
 21
-1783.279823431064
 31
0.0
  0
LINE
  5
3C0
330
1F
100
AcDbEntity
  8
0-C_ハッチ
  6
Continuous
 62
     7
370
     5
100
AcDbLine
 10
1509.684665323683
 20
-1772.759363461391
 30
0.0
 11
1418.44085960085
 21
-1820.04541047424
 31
0.0
  0
ARC
  5
3C1
330
1F
100
AcDbEntity
  8
0-C_ハッチ
  6
Continuous
 62
     7
370
     5
100
AcDbCircle
 10
1515.206119373537
 20
-1783.413637025337
 30
0.0
 40
12.0
100
AcDbArc
 50
50.15987174704691
 51
117.3949267100002
  0
ARC
  5
3C2
330
1F
100
AcDbEntity
  8
0-C_ハッチ
  6
Continuous
 62
     7
370
     5
100
AcDbCircle
 10
1728.23582615184
 20
-2096.965723132775
 30
0.0
 40
12.0
100
AcDbArc
 50
117.3949267100002
 51
230.1598717470478
  0
LINE
  5
3C3
330
1F
100
AcDbEntity
  8
0-C_ハッチ
  6
Continuous
 62
     7
370
     5
100
AcDbLine
 10
1731.430949400079
 20
-2115.259950054511
 30
0.0
 11
1720.548054648422
 21
-2106.179743390579
 31
0.0
  0
ARC
  5
3C4
330
1F
100
AcDbEntity
  8
0-C_ハッチ
  6
Continuous
 62
     7
370
     5
100
AcDbCircle
 10
1739.1187209035
 20
-2106.045929796706
 30
0.0
 40
12.0
100
AcDbArc
 50
230.159871747048
 51
297.3949267103217
  0
LINE
  5
3C5
330
1F
100
AcDbEntity
  8
0-C_ハッチ
  6
Continuous
 62
     7
370
     5
100
AcDbLine
 10
1835.883980675766
 20
-2069.414156347371
 30
0.0
 11
1744.640174953413
 21
-2116.70020336062
 31
0.0
  0
ARC
  5
3C6
330
1F
100
AcDbEntity
  8
0-C_ハッチ
  6
Continuous
 62
     7
370
     5
100
AcDbCircle
 10
1830.362526625853
 20
-2058.759882783457
 30
0.0
 40
12.0
100
AcDbArc
 50
297.3949267103216
 51
50.15987174704777
  0
LINE
  5
3C7
330
1F
100
AcDbEntity
  8
0-C_ハッチ
  6
Continuous
 62
     7
370
     5
100
AcDbLine
 10
1827.167403378095
 20
-2040.465655862122
 30
0.0
 11
1838.050298129272
 21
-2049.545862525654
 31
0.0
  0
LINE
  5
3C8
330
1F
100
AcDbEntity
  8
0-C_ハッチ
  6
Continuous
 62
     7
370
     5
100
AcDbLine
 10
1813.958177824822
 20
-2039.025402555983
 30
0.0
 11
1722.714372101987
 21
-2086.311449568832
 31
0.0
  0
ARC
  5
3C9
330
1F
100
AcDbEntity
  8
0-C_ハッチ
  6
Continuous
 62
     7
370
     5
100
AcDbCircle
 10
1819.479631874675
 20
-2049.679676119927
 30
0.0
 40
12.0
100
AcDbArc
 50
50.15987174704691
 51
117.3949267100002
  0
ELLIPSE
  5
3CA
330
1F
100
AcDbEntity
  8
0-C_ハッチ
  6
Continuous
 62
     7
370
     5
100
AcDbEllipse
 10
1345.837095180011
 20
-2112.116460323495
 30
0.0
 11
79.69551291525261
 21
0.0
 31
0.0
210
0.0
220
0.0
230
1.0
 40
0.7
 41
0.2111186597640594
 42
2.949786527099673
  0
LINE
  5
3CB
330
1F
100
AcDbEntity
  8
0-C_ハッチ
  6
Continuous
 62
     7
370
     5
100
AcDbLine
 10
1515.206119373537
 20
-1771.413637025338
 30
0.0
 11
1515.206119373537
 21
-1777.413637025339
 31
0.0
  0
ARC
  5
3CC
330
1F
100
AcDbEntity
  8
0-C_ハッチ
  6
Continuous
 62
     7
370
     5
100
AcDbCircle
 10
1515.206119373537
 20
-1789.413637025339
 30
0.0
 40
12.0
100
AcDbArc
 50
50.15987174704691
 51
117.3949267100002
  0
LINE
  5
3CD
330
1F
100
AcDbEntity
  8
0-C_ハッチ
  6
Continuous
 62
     7
370
     5
100
AcDbLine
 10
1522.893890876957
 20
-1780.199616767534
 30
0.0
 11
1533.776785628133
 21
-1789.279823431066
 31
0.0
  0
LINE
  5
3CE
330
1F
100
AcDbEntity
  8
0-C_ハッチ
  6
Continuous
 62
     7
370
     5
100
AcDbLine
 10
1509.684665323683
 20
-1778.759363461393
 30
0.0
 11
1418.44085960085
 21
-1826.045410474242
 31
0.0
  0
ARC
  5
3CF
330
1F
100
AcDbEntity
  8
0-C_ハッチ
  6
Continuous
 62
     7
370
     5
100
AcDbCircle
 10
1526.089014124715
 20
-1798.493843688867
 30
0.0
 40
12.0
100
AcDbArc
 50
20.75540117989427
 51
50.15987174704777
  0
LINE
  5
3D0
330
1F
100
AcDbEntity
  8
0-C_ハッチ
  6
Continuous
 62
     7
370
     5
100
AcDbLine
 10
1509.684665323683
 20
-1772.759363461393
 30
0.0
 11
1509.684665323683
 21
-1778.759363461393
 31
0.0
  0
LINE
  5
3D1
330
1F
100
AcDbEntity
  8
0-C_ハッチ
  6
Continuous
 62
     7
370
     5
100
AcDbLine
 10
1512.154082246931
 20
-1771.808247355972
 30
0.0
 11
1512.154082246931
 21
-1777.808247355973
 31
0.0
  0
LINE
  5
3D2
330
1F
100
AcDbEntity
  8
0-C_ハッチ
  6
Continuous
 62
     7
370
     5
100
AcDbLine
 10
1513.605107621306
 20
-1771.520918186937
 30
0.0
 11
1513.605107621306
 21
-1777.520918186939
 31
0.0
  0
LINE
  5
3D3
330
1F
100
AcDbEntity
  8
0-C_ハッチ
  6
Continuous
 62
     7
370
     5
100
AcDbLine
 10
1516.957476589693
 20
-1771.542127100251
 30
0.0
 11
1516.957476589693
 21
-1777.542127100253
 31
0.0
  0
LINE
  5
3D4
330
1F
100
AcDbEntity
  8
0-C_ハッチ
  6
Continuous
 62
     7
370
     5
100
AcDbLine
 10
1518.58362571615
 20
-1771.898757481651
 30
0.0
 11
1518.58362571615
 21
-1777.898757481652
 31
0.0
  0
LINE
  5
3D5
330
1F
100
AcDbEntity
  8
0-C_ハッチ
  6
Continuous
 62
     7
370
     5
100
AcDbLine
 10
1522.893890876957
 20
-1774.199616767532
 30
0.0
 11
1522.893890876957
 21
-1780.199616767535
 31
0.0
  0
LINE
  5
3D6
330
1F
100
AcDbEntity
  8
0-C_ハッチ
  6
Continuous
 62
     7
370
     5
100
AcDbLine
 10
1418.44085960085
 20
-1820.04541047424
 30
0.0
 11
1418.44085960085
 21
-1826.045410474242
 31
0.0
  0
LINE
  5
3D7
330
1F
100
AcDbEntity
  8
0-C_ハッチ
  6
Continuous
 62
     7
370
     5
100
AcDbLine
 10
1414.193158448867
 20
-1823.730924705102
 30
0.0
 11
1414.193158448867
 21
-1829.730924705103
 31
0.0
  0
LINE
  5
3D8
330
1F
100
AcDbEntity
  8
0-C_ハッチ
  6
Continuous
 62
     7
370
     5
100
AcDbLine
 10
1412.992309863176
 20
-1825.835630491848
 30
0.0
 11
1412.992309863176
 21
-1831.83563049185
 31
0.0
  0
ARC
  5
3D9
330
1F
100
AcDbEntity
  8
0-C_ハッチ
  6
Continuous
 62
     7
370
     5
100
AcDbCircle
 10
1423.962313650704
 20
-1836.699684038186
 30
0.0
 40
12.0
100
AcDbArc
 50
117.3949267100002
 51
165.5224878140668
  0
LINE
  5
3DA
330
1F
100
AcDbEntity
  8
0-C_ハッチ
  6
Continuous
 62
     7
370
     5
100
AcDbLine
 10
1819.479631874676
 20
-2037.679676119928
 30
0.0
 11
1819.479631874676
 21
-2043.679676119929
 31
0.0
  0
ARC
  5
3DB
330
1F
100
AcDbEntity
  8
0-C_ハッチ
  6
Continuous
 62
     7
370
     5
100
AcDbCircle
 10
1819.479631874676
 20
-2055.679676119928
 30
0.0
 40
12.0
100
AcDbArc
 50
50.15987174704691
 51
117.3949267100002
  0
LINE
  5
3DC
330
1F
100
AcDbEntity
  8
0-C_ハッチ
  6
Continuous
 62
     7
370
     5
100
AcDbLine
 10
1827.167403378095
 20
-2046.465655862124
 30
0.0
 11
1838.050298129273
 21
-2055.545862525656
 31
0.0
  0
LINE
  5
3DD
330
1F
100
AcDbEntity
  8
0-C_ハッチ
  6
Continuous
 62
     7
370
     5
100
AcDbLine
 10
1813.958177824823
 20
-2045.025402555983
 30
0.0
 11
1722.714372101988
 21
-2092.311449568832
 31
0.0
  0
ARC
  5
3DE
330
1F
100
AcDbEntity
  8
0-C_ハッチ
  6
Continuous
 62
     7
370
     5
100
AcDbCircle
 10
1830.362526625853
 20
-2064.759882783457
 30
0.0
 40
12.0
100
AcDbArc
 50
20.75540117989427
 51
50.15987174704777
  0
LINE
  5
3DF
330
1F
100
AcDbEntity
  8
0-C_ハッチ
  6
Continuous
 62
     7
370
     5
100
AcDbLine
 10
1813.958177824822
 20
-2039.025402555983
 30
0.0
 11
1813.958177824822
 21
-2045.025402555983
 31
0.0
  0
LINE
  5
3E0
330
1F
100
AcDbEntity
  8
0-C_ハッチ
  6
Continuous
 62
     7
370
     5
100
AcDbLine
 10
1816.42759474807
 20
-2038.074286450562
 30
0.0
 11
1816.42759474807
 21
-2044.074286450563
 31
0.0
  0
LINE
  5
3E1
330
1F
100
AcDbEntity
  8
0-C_ハッチ
  6
Continuous
 62
     7
370
     5
100
AcDbLine
 10
1817.878620122444
 20
-2037.786957281527
 30
0.0
 11
1817.878620122444
 21
-2043.786957281529
 31
0.0
  0
LINE
  5
3E2
330
1F
100
AcDbEntity
  8
0-C_ハッチ
  6
Continuous
 62
     7
370
     5
100
AcDbLine
 10
1821.230989090831
 20
-2037.808166194841
 30
0.0
 11
1821.230989090831
 21
-2043.808166194843
 31
0.0
  0
LINE
  5
3E3
330
1F
100
AcDbEntity
  8
0-C_ハッチ
  6
Continuous
 62
     7
370
     5
100
AcDbLine
 10
1822.857138217288
 20
-2038.164796576241
 30
0.0
 11
1822.857138217288
 21
-2044.164796576242
 31
0.0
  0
LINE
  5
3E4
330
1F
100
AcDbEntity
  8
0-C_ハッチ
  6
Continuous
 62
     7
370
     5
100
AcDbLine
 10
1827.167403378095
 20
-2040.465655862122
 30
0.0
 11
1827.167403378095
 21
-2046.465655862125
 31
0.0
  0
LINE
  5
3E5
330
1F
100
AcDbEntity
  8
0-C_ハッチ
  6
Continuous
 62
     7
370
     5
100
AcDbLine
 10
1722.714372101988
 20
-2086.311449568831
 30
0.0
 11
1722.714372101988
 21
-2092.311449568832
 31
0.0
  0
LINE
  5
3E6
330
1F
100
AcDbEntity
  8
0-C_ハッチ
  6
Continuous
 62
     7
370
     5
100
AcDbLine
 10
1718.466670950005
 20
-2089.996963799692
 30
0.0
 11
1718.466670950005
 21
-2095.996963799694
 31
0.0
  0
LINE
  5
3E7
330
1F
100
AcDbEntity
  8
0-C_ハッチ
  6
Continuous
 62
     7
370
     5
100
AcDbLine
 10
1717.265822364315
 20
-2092.101669586439
 30
0.0
 11
1717.265822364315
 21
-2098.10166958644
 31
0.0
  0
ARC
  5
3E8
330
1F
100
AcDbEntity
  8
0-C_ハッチ
  6
Continuous
 62
     7
370
     5
100
AcDbCircle
 10
1728.235826151842
 20
-2102.965723132776
 30
0.0
 40
12.0
100
AcDbArc
 50
117.3949267100002
 51
165.5224878140668
  0
LINE
  5
3E9
330
1F
100
AcDbEntity
  8
0-C_ハッチ
  6
Continuous
 62
     7
370
     5
100
AcDbLine
 10
1624.004252291909
 20
-1908.81026991592
 30
0.0
 11
1633.395737797409
 21
-1914.847653455171
 31
0.0
  0
LINE
  5
3EA
330
1F
100
AcDbEntity
  8
0-C_ハッチ
  6
Continuous
 62
     7
370
     5
100
AcDbLine
 10
1676.170942650953
 20
-1908.81026991592
 30
0.0
 11
1666.779457145456
 21
-1914.847653455171
 31
0.0
  0
LINE
  5
3EB
330
1F
100
AcDbEntity
  8
0-C_ハッチ
  6
Continuous
 62
     7
370
     5
100
AcDbLine
 10
1666.779457145456
 20
-1881.311923938642
 30
0.0
 11
1676.170942650953
 21
-1887.349307477893
 31
0.0
  0
LINE
  5
3EC
330
1F
100
AcDbEntity
  8
0-C_ハッチ
  6
Continuous
 62
     7
370
     5
100
AcDbLine
 10
1633.395737797409
 20
-1881.311923938642
 30
0.0
 11
1624.004252291909
 21
-1887.349307477893
 31
0.0
  0
LINE
  5
3ED
330
1F
100
AcDbEntity
  8
0-C_ハッチ
  6
Continuous
 62
     7
370
     5
100
AcDbLine
 10
1666.779457145456
 20
-1881.311923938642
 30
0.0
 11
1650.087597471432
 21
-1892.042405157658
 31
0.0
  0
LINE
  5
3EE
330
1F
100
AcDbEntity
  8
0-C_ハッチ
  6
Continuous
 62
     7
370
     5
100
AcDbLine
 10
1640.696111965932
 20
-1898.079788696906
 30
0.0
 11
1624.004252291909
 21
-1908.81026991592
 31
0.0
  0
LINE
  5
3EF
330
1F
100
AcDbEntity
  8
0-C_ハッチ
  6
Continuous
 62
     7
370
     5
100
AcDbLine
 10
1633.395737797409
 20
-1881.311923938642
 30
0.0
 11
1650.087597471432
 21
-1892.042405157658
 31
0.0
  0
LINE
  5
3F0
330
1F
100
AcDbEntity
  8
0-C_ハッチ
  6
Continuous
 62
     7
370
     5
100
AcDbLine
 10
1659.479082976933
 20
-1898.079788696906
 30
0.0
 11
1676.170942650953
 21
-1908.81026991592
 31
0.0
  0
LINE
  5
3F1
330
1F
100
AcDbEntity
  8
0-C_ハッチ
  6
Continuous
 62
     7
370
     5
100
AcDbLine
 10
1676.170942650953
 20
-1887.349307477893
 30
0.0
 11
1659.479082976933
 21
-1898.079788696906
 31
0.0
  0
LINE
  5
3F2
330
1F
100
AcDbEntity
  8
0-C_ハッチ
  6
Continuous
 62
     7
370
     5
100
AcDbLine
 10
1650.087597471432
 20
-1904.117172236155
 30
0.0
 11
1633.395737797409
 21
-1914.847653455171
 31
0.0
  0
LINE
  5
3F3
330
1F
100
AcDbEntity
  8
0-C_ハッチ
  6
Continuous
 62
     7
370
     5
100
AcDbLine
 10
1624.004252291909
 20
-1887.349307477893
 30
0.0
 11
1640.696111965932
 21
-1898.079788696906
 31
0.0
  0
LINE
  5
3F4
330
1F
100
AcDbEntity
  8
0-C_ハッチ
  6
Continuous
 62
     7
370
     5
100
AcDbLine
 10
1650.087597471432
 20
-1904.117172236155
 30
0.0
 11
1666.779457145456
 21
-1914.847653455171
 31
0.0
  0
LINE
  5
3F5
330
1F
100
AcDbEntity
  8
0-C_ハッチ
  6
Continuous
 62
     7
370
     5
100
AcDbLine
 10
1795.982088686487
 20
-2069.965001239813
 30
0.0
 11
1795.982088686487
 21
-1849.240250570965
 31
0.0
  0
LINE
  5
3F6
330
1F
100
AcDbEntity
  8
0-C_ハッチ
  6
Continuous
 62
     7
370
     5
100
AcDbLine
 10
1491.708576185349
 20
-1803.698962145223
 30
0.0
 11
1491.708576185349
 21
-1582.974211476374
 31
0.0
  0
ELLIPSE
  5
3F7
330
1F
100
AcDbEntity
  8
0-C_ハッチ
  6
Continuous
 62
     7
370
     5
100
AcDbEllipse
 10
1795.982088686274
 20
-1673.026161838726
 30
0.0
 11
26.15375705822504
 21
0.0
 31
0.0
210
0.0
220
0.0
230
1.0
 40
0.6
 41
0.0
 42
6.283185307179586
  0
LINE
  5
3F8
330
1F
100
AcDbEntity
  8
0-C_ハッチ
  6
Continuous
 62
     7
370
     5
100
AcDbLine
 10
1782.940416096512
 20
-1678.391402448233
 30
0.0
 11
1787.636158849263
 21
-1681.410094217857
 31
0.0
  0
LINE
  5
3F9
330
1F
100
AcDbEntity
  8
0-C_ハッチ
  6
Continuous
 62
     7
370
     5
100
AcDbLine
 10
1809.023761276034
 20
-1678.391402448233
 30
0.0
 11
1804.328018523285
 21
-1681.410094217857
 31
0.0
  0
LINE
  5
3FA
330
1F
100
AcDbEntity
  8
0-C_ハッチ
  6
Continuous
 62
     7
370
     5
100
AcDbLine
 10
1804.328018523285
 20
-1664.642229459595
 30
0.0
 11
1809.023761276034
 21
-1667.660921229219
 31
0.0
  0
LINE
  5
3FB
330
1F
100
AcDbEntity
  8
0-C_ハッチ
  6
Continuous
 62
     7
370
     5
100
AcDbLine
 10
1787.636158849263
 20
-1664.642229459595
 30
0.0
 11
1782.940416096512
 21
-1667.660921229219
 31
0.0
  0
LINE
  5
3FC
330
1F
100
AcDbEntity
  8
0-C_ハッチ
  6
Continuous
 62
     7
370
     5
100
AcDbLine
 10
1804.328018523285
 20
-1664.642229459595
 30
0.0
 11
1795.982088686274
 21
-1670.007470069101
 31
0.0
  0
LINE
  5
3FD
330
1F
100
AcDbEntity
  8
0-C_ハッチ
  6
Continuous
 62
     7
370
     5
100
AcDbLine
 10
1791.286345933523
 20
-1673.026161838726
 30
0.0
 11
1782.940416096512
 21
-1678.391402448233
 31
0.0
  0
LINE
  5
3FE
330
1F
100
AcDbEntity
  8
0-C_ハッチ
  6
Continuous
 62
     7
370
     5
100
AcDbLine
 10
1787.636158849263
 20
-1664.642229459595
 30
0.0
 11
1795.982088686274
 21
-1670.007470069101
 31
0.0
  0
LINE
  5
3FF
330
1F
100
AcDbEntity
  8
0-C_ハッチ
  6
Continuous
 62
     7
370
     5
100
AcDbLine
 10
1800.677831439024
 20
-1673.026161838726
 30
0.0
 11
1809.023761276034
 21
-1678.391402448233
 31
0.0
  0
LINE
  5
400
330
1F
100
AcDbEntity
  8
0-C_ハッチ
  6
Continuous
 62
     7
370
     5
100
AcDbLine
 10
1809.023761276034
 20
-1667.660921229219
 30
0.0
 11
1800.677831439024
 21
-1673.026161838726
 31
0.0
  0
LINE
  5
401
330
1F
100
AcDbEntity
  8
0-C_ハッチ
  6
Continuous
 62
     7
370
     5
100
AcDbLine
 10
1795.982088686274
 20
-1676.04485360835
 30
0.0
 11
1787.636158849263
 21
-1681.410094217857
 31
0.0
  0
LINE
  5
402
330
1F
100
AcDbEntity
  8
0-C_ハッチ
  6
Continuous
 62
     7
370
     5
100
AcDbLine
 10
1782.940416096512
 20
-1667.660921229219
 30
0.0
 11
1791.286345933523
 21
-1673.026161838726
 31
0.0
  0
LINE
  5
403
330
1F
100
AcDbEntity
  8
0-C_ハッチ
  6
Continuous
 62
     7
370
     5
100
AcDbLine
 10
1795.982088686274
 20
-1676.04485360835
 30
0.0
 11
1804.328018523285
 21
-1681.410094217857
 31
0.0
  0
LINE
  5
404
330
1F
100
AcDbEntity
  8
0-C_ハッチ
  6
Continuous
 62
     7
370
     5
100
AcDbLine
 10
1782.971020169405
 20
-1822.055422169794
 30
0.0
 11
1795.982088686487
 21
-1844.591253902141
 31
0.0
  0
LINE
  5
405
330
1F
100
AcDbEntity
  8
0-C_ハッチ
  6
Continuous
 62
     7
370
     5
100
AcDbLine
 10
1808.993157203571
 20
-1822.055422169794
 30
0.0
 11
1795.982088686487
 21
-1844.591253902141
 31
0.0
  0
LINE
  5
406
330
1F
100
AcDbEntity
  8
0-C_ハッチ
  6
Continuous
 62
     7
370
     5
100
AcDbLine
 10
1808.993157203571
 20
-1732.948771067837
 30
0.0
 11
1782.971020169405
 21
-1745.41911985434
 31
0.0
  0
LINE
  5
407
330
1F
100
AcDbEntity
  8
0-C_ハッチ
  6
Continuous
 62
     7
370
     5
100
AcDbLine
 10
1808.993157203571
 20
-1805.930459928052
 30
0.0
 11
1782.971020169405
 21
-1818.400808714554
 31
0.0
  0
LINE
  5
408
330
1F
100
AcDbEntity
  8
0-C_ハッチ
  6
Continuous
 62
     7
370
     5
100
AcDbLine
 10
1808.993157203571
 20
-1793.766845118015
 30
0.0
 11
1782.971020169405
 21
-1806.237193904519
 31
0.0
  0
LINE
  5
409
330
1F
100
AcDbEntity
  8
0-C_ハッチ
  6
Continuous
 62
     7
370
     5
100
AcDbLine
 10
1808.993157203571
 20
-1769.439615497944
 30
0.0
 11
1782.971020169405
 21
-1781.909964284447
 31
0.0
  0
LINE
  5
40A
330
1F
100
AcDbEntity
  8
0-C_ハッチ
  6
Continuous
 62
     7
370
     5
100
AcDbLine
 10
1808.993157203571
 20
-1781.603230307981
 30
0.0
 11
1782.971020169405
 21
-1794.07357909448
 31
0.0
  0
LINE
  5
40B
330
1F
100
AcDbEntity
  8
0-C_ハッチ
  6
Continuous
 62
     7
370
     5
100
AcDbLine
 10
1808.993157203571
 20
-1757.276000687908
 30
0.0
 11
1782.971020169405
 21
-1769.74634947441
 31
0.0
  0
LINE
  5
40C
330
1F
100
AcDbEntity
  8
0-C_ハッチ
  6
Continuous
 62
     7
370
     5
100
AcDbLine
 10
1808.993157203571
 20
-1745.112385877872
 30
0.0
 11
1782.971020169405
 21
-1757.582734664376
 31
0.0
  0
LINE
  5
40D
330
1F
100
AcDbEntity
  8
0-C_ハッチ
  6
Continuous
 62
     7
370
     5
100
AcDbLine
 10
1808.993157203571
 20
-1696.457926643028
 30
0.0
 11
1782.971020169405
 21
-1708.928275429532
 31
0.0
  0
LINE
  5
40E
330
1F
100
AcDbEntity
  8
0-C_ハッチ
  6
Continuous
 62
     7
370
     5
100
AcDbLine
 10
1808.993157203571
 20
-1708.621541451298
 30
0.0
 11
1782.971020169405
 21
-1721.091890237802
 31
0.0
  0
LINE
  5
40F
330
1F
100
AcDbEntity
  8
0-C_ハッチ
  6
Continuous
 62
     7
370
     5
100
AcDbLine
 10
1808.993157203571
 20
-1720.785156259566
 30
0.0
 11
1782.971020169405
 21
-1733.25550504607
 31
0.0
  0
ELLIPSE
  5
410
330
1F
100
AcDbEntity
  8
0-C_ハッチ
  6
Continuous
 62
     7
370
     5
100
AcDbEllipse
 10
1796.309940937321
 20
-1674.469666387755
 30
0.0
 11
26.15375705822504
 21
0.0
 31
0.0
210
0.0
220
0.0
230
1.0
 40
0.6
 41
3.230595867857267
 42
6.465060446500363
  0
LINE
  5
411
330
1F
100
AcDbEntity
  8
0-C_ハッチ
  6
Continuous
 62
     7
370
     5
100
AcDbLine
 10
1782.971020169405
 20
-1687.967562237215
 30
0.0
 11
1782.971020169405
 21
-1822.055422169794
 31
0.0
  0
LINE
  5
412
330
1F
100
AcDbEntity
  8
0-C_ハッチ
  6
Continuous
 62
     7
370
     5
100
AcDbLine
 10
1808.993157203571
 20
-1688.19321592953
 30
0.0
 11
1808.993157203571
 21
-1822.055422169794
 31
0.0
  0
ELLIPSE
  5
413
330
1F
100
AcDbEntity
  8
0-C_ハッチ
  6
Continuous
 62
     7
370
     5
100
AcDbEllipse
 10
1491.708576185134
 20
-1406.760122744135
 30
0.0
 11
26.15375705822504
 21
0.0
 31
0.0
210
0.0
220
0.0
230
1.0
 40
0.6
 41
0.0
 42
6.283185307179586
  0
LINE
  5
414
330
1F
100
AcDbEntity
  8
0-C_ハッチ
  6
Continuous
 62
     7
370
     5
100
AcDbLine
 10
1478.666903595372
 20
-1412.125363353642
 30
0.0
 11
1483.362646348122
 21
-1415.144055123267
 31
0.0
  0
LINE
  5
415
330
1F
100
AcDbEntity
  8
0-C_ハッチ
  6
Continuous
 62
     7
370
     5
100
AcDbLine
 10
1504.750248774894
 20
-1412.125363353642
 30
0.0
 11
1500.054506022145
 21
-1415.144055123267
 31
0.0
  0
LINE
  5
416
330
1F
100
AcDbEntity
  8
0-C_ハッチ
  6
Continuous
 62
     7
370
     5
100
AcDbLine
 10
1500.054506022145
 20
-1398.376190365004
 30
0.0
 11
1504.750248774894
 21
-1401.394882134628
 31
0.0
  0
LINE
  5
417
330
1F
100
AcDbEntity
  8
0-C_ハッチ
  6
Continuous
 62
     7
370
     5
100
AcDbLine
 10
1483.362646348122
 20
-1398.376190365004
 30
0.0
 11
1478.666903595372
 21
-1401.394882134628
 31
0.0
  0
LINE
  5
418
330
1F
100
AcDbEntity
  8
0-C_ハッチ
  6
Continuous
 62
     7
370
     5
100
AcDbLine
 10
1500.054506022145
 20
-1398.376190365004
 30
0.0
 11
1491.708576185134
 21
-1403.741430974511
 31
0.0
  0
LINE
  5
419
330
1F
100
AcDbEntity
  8
0-C_ハッチ
  6
Continuous
 62
     7
370
     5
100
AcDbLine
 10
1487.012833432384
 20
-1406.760122744135
 30
0.0
 11
1478.666903595372
 21
-1412.125363353642
 31
0.0
  0
LINE
  5
41A
330
1F
100
AcDbEntity
  8
0-C_ハッチ
  6
Continuous
 62
     7
370
     5
100
AcDbLine
 10
1483.362646348122
 20
-1398.376190365004
 30
0.0
 11
1491.708576185134
 21
-1403.741430974511
 31
0.0
  0
LINE
  5
41B
330
1F
100
AcDbEntity
  8
0-C_ハッチ
  6
Continuous
 62
     7
370
     5
100
AcDbLine
 10
1496.404318937884
 20
-1406.760122744135
 30
0.0
 11
1504.750248774894
 21
-1412.125363353642
 31
0.0
  0
LINE
  5
41C
330
1F
100
AcDbEntity
  8
0-C_ハッチ
  6
Continuous
 62
     7
370
     5
100
AcDbLine
 10
1504.750248774894
 20
-1401.394882134628
 30
0.0
 11
1496.404318937884
 21
-1406.760122744135
 31
0.0
  0
LINE
  5
41D
330
1F
100
AcDbEntity
  8
0-C_ハッチ
  6
Continuous
 62
     7
370
     5
100
AcDbLine
 10
1491.708576185134
 20
-1409.77881451376
 30
0.0
 11
1483.362646348122
 21
-1415.144055123267
 31
0.0
  0
LINE
  5
41E
330
1F
100
AcDbEntity
  8
0-C_ハッチ
  6
Continuous
 62
     7
370
     5
100
AcDbLine
 10
1478.666903595372
 20
-1401.394882134628
 30
0.0
 11
1487.012833432384
 21
-1406.760122744135
 31
0.0
  0
LINE
  5
41F
330
1F
100
AcDbEntity
  8
0-C_ハッチ
  6
Continuous
 62
     7
370
     5
100
AcDbLine
 10
1491.708576185134
 20
-1409.77881451376
 30
0.0
 11
1500.054506022145
 21
-1415.144055123267
 31
0.0
  0
LINE
  5
420
330
1F
100
AcDbEntity
  8
0-C_ハッチ
  6
Continuous
 62
     7
370
     5
100
AcDbLine
 10
1478.697507668265
 20
-1555.789383075203
 30
0.0
 11
1491.708576185349
 21
-1578.32521480755
 31
0.0
  0
LINE
  5
421
330
1F
100
AcDbEntity
  8
0-C_ハッチ
  6
Continuous
 62
     7
370
     5
100
AcDbLine
 10
1504.719644702431
 20
-1555.789383075203
 30
0.0
 11
1491.708576185349
 21
-1578.32521480755
 31
0.0
  0
LINE
  5
422
330
1F
100
AcDbEntity
  8
0-C_ハッチ
  6
Continuous
 62
     7
370
     5
100
AcDbLine
 10
1504.719644702431
 20
-1466.682731973246
 30
0.0
 11
1478.697507668265
 21
-1479.153080759749
 31
0.0
  0
LINE
  5
423
330
1F
100
AcDbEntity
  8
0-C_ハッチ
  6
Continuous
 62
     7
370
     5
100
AcDbLine
 10
1504.719644702431
 20
-1539.664420833461
 30
0.0
 11
1478.697507668265
 21
-1552.134769619963
 31
0.0
  0
LINE
  5
424
330
1F
100
AcDbEntity
  8
0-C_ハッチ
  6
Continuous
 62
     7
370
     5
100
AcDbLine
 10
1504.719644702431
 20
-1527.500806023424
 30
0.0
 11
1478.697507668265
 21
-1539.971154809928
 31
0.0
  0
LINE
  5
425
330
1F
100
AcDbEntity
  8
0-C_ハッチ
  6
Continuous
 62
     7
370
     5
100
AcDbLine
 10
1504.719644702431
 20
-1503.173576403353
 30
0.0
 11
1478.697507668265
 21
-1515.643925189856
 31
0.0
  0
LINE
  5
426
330
1F
100
AcDbEntity
  8
0-C_ハッチ
  6
Continuous
 62
     7
370
     5
100
AcDbLine
 10
1504.719644702431
 20
-1515.337191213389
 30
0.0
 11
1478.697507668265
 21
-1527.80753999989
 31
0.0
  0
LINE
  5
427
330
1F
100
AcDbEntity
  8
0-C_ハッチ
  6
Continuous
 62
     7
370
     5
100
AcDbLine
 10
1504.719644702431
 20
-1491.009961593317
 30
0.0
 11
1478.697507668265
 21
-1503.480310379819
 31
0.0
  0
LINE
  5
428
330
1F
100
AcDbEntity
  8
0-C_ハッチ
  6
Continuous
 62
     7
370
     5
100
AcDbLine
 10
1504.719644702431
 20
-1478.846346783281
 30
0.0
 11
1478.697507668265
 21
-1491.316695569785
 31
0.0
  0
LINE
  5
429
330
1F
100
AcDbEntity
  8
0-C_ハッチ
  6
Continuous
 62
     7
370
     5
100
AcDbLine
 10
1504.719644702431
 20
-1430.191887548437
 30
0.0
 11
1478.697507668265
 21
-1442.662236334941
 31
0.0
  0
LINE
  5
42A
330
1F
100
AcDbEntity
  8
0-C_ハッチ
  6
Continuous
 62
     7
370
     5
100
AcDbLine
 10
1504.719644702431
 20
-1442.355502356707
 30
0.0
 11
1478.697507668265
 21
-1454.825851143211
 31
0.0
  0
LINE
  5
42B
330
1F
100
AcDbEntity
  8
0-C_ハッチ
  6
Continuous
 62
     7
370
     5
100
AcDbLine
 10
1504.719644702431
 20
-1454.519117164976
 30
0.0
 11
1478.697507668265
 21
-1466.989465951479
 31
0.0
  0
ELLIPSE
  5
42C
330
1F
100
AcDbEntity
  8
0-C_ハッチ
  6
Continuous
 62
     7
370
     5
100
AcDbEllipse
 10
1492.036428436182
 20
-1408.203627293164
 30
0.0
 11
26.15375705822504
 21
0.0
 31
0.0
210
0.0
220
0.0
230
1.0
 40
0.6
 41
3.230595867857267
 42
6.465060446500363
  0
LINE
  5
42D
330
1F
100
AcDbEntity
  8
0-C_ハッチ
  6
Continuous
 62
     7
370
     5
100
AcDbLine
 10
1478.697507668265
 20
-1421.701523142625
 30
0.0
 11
1478.697507668265
 21
-1555.789383075203
 31
0.0
  0
LINE
  5
42E
330
1F
100
AcDbEntity
  8
0-C_ハッチ
  6
Continuous
 62
     7
370
     5
100
AcDbLine
 10
1504.719644702431
 20
-1421.927176834939
 30
0.0
 11
1504.719644702431
 21
-1555.789383075203
 31
0.0
  0
LINE
  5
42F
330
1F
100
AcDbEntity
  8
0-C_ハッチ
  6
Continuous
 62
     7
370
     5
100
AcDbLine
 10
1281.994990679707
 20
-1822.082766261022
 30
0.0
 11
1279.824946970053
 21
-1845.646952799071
 31
0.0
  0
LINE
  5
430
330
1F
100
AcDbEntity
  8
0-C_ハッチ
  6
Continuous
 62
     7
370
     5
100
AcDbLine
 10
1279.824946970053
 20
-1845.646952799071
 30
0.0
 11
1040.262640552702
 21
-1990.418503938884
 31
0.0
  0
LINE
  5
431
330
1F
100
AcDbEntity
  8
0-C_ハッチ
  6
Continuous
 62
     7
370
     5
100
AcDbLine
 10
1040.262640552702
 20
-1996.418503938882
 30
0.0
 11
1040.262640552702
 21
-1990.418503938884
 31
0.0
  0
LINE
  5
432
330
1F
100
AcDbEntity
  8
0-C_ハッチ
  6
Continuous
 62
     7
370
     5
100
AcDbLine
 10
1040.262640552702
 20
-1990.418503938884
 30
0.0
 11
1130.7191475122
 21
-2082.303665583495
 31
0.0
  0
LINE
  5
433
330
1F
100
AcDbEntity
  8
0-C_ハッチ
  6
Continuous
 62
     7
370
     5
100
AcDbLine
 10
1693.226147548072
 20
-2238.817180748291
 30
0.0
 11
1438.861360906844
 21
-2395.312624684388
 31
0.0
  0
LINE
  5
434
330
1F
100
AcDbEntity
  8
0-C_ハッチ
  6
Continuous
 62
     7
370
     5
100
AcDbLine
 10
1693.226147548072
 20
-2244.817180748293
 30
0.0
 11
1438.853102241184
 21
-2401.304235582763
 31
0.0
  0
ARC
  5
435
330
1F
100
AcDbEntity
  8
0-C_ハッチ
  6
Continuous
 62
     7
370
     5
100
AcDbCircle
 10
1347.091235069848
 20
-2296.632426831876
 30
0.0
 40
18.0
100
AcDbArc
 50
224.5510943265456
 51
302.2629554764285
  0
LINE
  5
436
330
1F
100
AcDbEntity
  8
0-C_ハッチ
  6
Continuous
 62
     7
370
     5
100
AcDbLine
 10
1356.699738293147
 20
-2311.853355378053
 30
0.0
 11
1438.861360906844
 21
-2395.312624684388
 31
0.0
  0
ARC
  5
437
330
1F
100
AcDbEntity
  8
0-C_ハッチ
  6
Continuous
 62
     7
370
     5
100
AcDbCircle
 10
1347.091235069845
 20
-2302.632426831875
 30
0.0
 40
18.0
100
AcDbArc
 50
224.5510943265451
 51
302.2629554764407
  0
LINE
  5
438
330
1F
100
AcDbEntity
  8
0-C_ハッチ
  6
Continuous
 62
     7
370
     5
100
AcDbLine
 10
1356.699738293149
 20
-2317.853355378051
 30
0.0
 11
1438.853102241184
 21
-2401.304235582763
 31
0.0
  0
LINE
  5
439
330
1F
100
AcDbEntity
  8
0-C_ハッチ
  6
Continuous
 62
     7
370
     5
100
AcDbLine
 10
1356.699738293147
 20
-2311.853355378053
 30
0.0
 11
1356.699738293147
 21
-2317.854238318383
 31
0.0
  0
LINE
  5
43A
330
1F
100
AcDbEntity
  8
0-C_ハッチ
  6
Continuous
 62
     7
370
     5
100
AcDbLine
 10
1438.861360906844
 20
-2395.312624684388
 30
0.0
 11
1438.861360906844
 21
-2401.304235582763
 31
0.0
  0
LINE
  5
43B
330
1F
100
AcDbEntity
  8
0-C_ハッチ
  6
Continuous
 62
     7
370
     5
100
AcDbLine
 10
1123.623217899391
 20
-2101.292648039437
 30
0.0
 11
1334.263982913001
 21
-2315.260237493456
 31
0.0
  0
LINE
  5
43C
330
1F
100
AcDbEntity
  8
0-C_ハッチ
  6
Continuous
 62
     7
370
     5
100
AcDbLine
 10
1123.623217899391
 20
-2095.292648039439
 30
0.0
 11
1334.263982913004
 21
-2309.260237493458
 31
0.0
  0
LINE
  5
43D
330
1F
100
AcDbEntity
  8
0-C_ハッチ
  6
Continuous
 62
     7
370
     5
100
AcDbLine
 10
1124.754919346478
 20
-2085.97309855295
 30
0.0
 11
1130.7191475122
 21
-2082.303665583495
 31
0.0
  0
ARC
  5
43E
330
1F
100
AcDbEntity
  8
0-C_ハッチ
  6
Continuous
 62
     7
370
     5
100
AcDbCircle
 10
1127.898968618339
 20
-2091.083377818912
 30
0.0
 40
6.0
100
AcDbArc
 50
121.6015005399993
 51
224.5510943265456
  0
LINE
  5
43F
330
1F
100
AcDbEntity
  8
0-C_ハッチ
  6
Continuous
 62
     7
370
     5
100
AcDbLine
 10
1040.262640552702
 20
-1996.418503938882
 30
0.0
 11
1127.040499571482
 21
-2084.566917702902
 31
0.0
  0
LINE
  5
440
330
1F
100
AcDbEntity
  8
0-C_ハッチ
  6
Continuous
 62
     7
370
     5
100
AcDbLine
 10
1121.898968618339
 20
-2091.083377818912
 30
0.0
 11
1121.898968618339
 21
-2097.08337781891
 31
0.0
  0
ARC
  5
441
330
1F
100
AcDbEntity
  8
0-C_ハッチ
  6
Continuous
 62
     7
370
     5
100
AcDbCircle
 10
1127.898968618339
 20
-2097.08337781891
 30
0.0
 40
6.0
100
AcDbArc
 50
180.0
 51
224.5510943265451
  0
LINE
  5
442
330
1F
100
AcDbEntity
  8
0-C_ハッチ
  6
Continuous
 62
     7
370
     5
100
AcDbLine
 10
1352.28632188114
 20
-2313.866436029481
 30
0.0
 11
1352.286321881138
 21
-2319.866436029482
 31
0.0
  0
LINE
  5
443
330
1F
100
AcDbEntity
  8
0-C_ハッチ
  6
Continuous
 62
     7
370
     5
100
AcDbLine
 10
1348.486761902979
 20
-2314.578248207841
 30
0.0
 11
1348.486761902975
 21
-2320.57824820784
 31
0.0
  0
LINE
  5
444
330
1F
100
AcDbEntity
  8
0-C_ハッチ
  6
Continuous
 62
     7
370
     5
100
AcDbLine
 10
1344.3172731926
 20
-2314.417396202207
 30
0.0
 11
1344.317273192598
 21
-2320.417396202206
 31
0.0
  0
LINE
  5
445
330
1F
100
AcDbEntity
  8
0-C_ハッチ
  6
Continuous
 62
     7
370
     5
100
AcDbLine
 10
1340.634337948112
 20
-2313.434464790389
 30
0.0
 11
1340.634337948109
 21
-2319.434464790389
 31
0.0
  0
LINE
  5
446
330
1F
100
AcDbEntity
  8
0-C_ハッチ
  6
Continuous
 62
     7
370
     5
100
AcDbLine
 10
1337.468037966311
 20
-2311.844069659214
 30
0.0
 11
1337.468037966307
 21
-2317.844069659212
 31
0.0
  0
LINE
  5
447
330
1F
100
AcDbEntity
  8
0-C_ハッチ
  6
Continuous
 62
     7
370
     5
100
AcDbLine
 10
1334.263982913004
 20
-2309.260237493458
 30
0.0
 11
1334.263982913001
 21
-2315.260237493456
 31
0.0
  0
LINE
  5
448
330
1F
100
AcDbEntity
  8
0-C_ハッチ
  6
Continuous
 62
     7
370
     5
100
AcDbLine
 10
1125.076153298179
 20
-2096.768530852962
 30
0.0
 11
1125.076153298176
 21
-2102.768530852958
 31
0.0
  0
LINE
  5
449
330
1F
100
AcDbEntity
  8
0-C_ハッチ
  6
Continuous
 62
     7
370
     5
100
AcDbLine
 10
1122.599403090191
 20
-2093.896668634463
 30
0.0
 11
1122.599403090189
 21
-2099.896668634458
 31
0.0
  0
LINE
  5
44A
330
1F
100
AcDbEntity
  8
0-C_ハッチ
  6
Continuous
 62
     7
370
     5
100
AcDbLine
 10
1123.556329306914
 20
-2095.223605326051
 30
0.0
 11
1123.556329306911
 21
-2101.223605326045
 31
0.0
  0
LINE
  5
44B
330
1F
100
AcDbEntity
  8
0-C_ハッチ
  6
JWW_CENTER1
 62
   120
370
     5
100
AcDbLine
 10
1047.959706167763
 20
-1839.697871054935
 30
0.0
 11
1739.925048753605
 21
-2437.012715494537
 31
0.0
  0
LINE
  5
44C
330
1F
100
AcDbEntity
  8
0-C_ハッチ
  6
JWW_CENTER1
 62
   120
370
     5
100
AcDbLine
 10
1047.959706167763
 20
-1127.193189641093
 30
0.0
 11
1047.959706167763
 21
-1839.697871054935
 31
0.0
  0
MTEXT
  5
44D
330
1F
100
AcDbEntity
  8
0-C_ハッチ
  6
Continuous
 62
     7
370
   211
100
AcDbMText
 10
3134.56408312905
 20
-2820.922006910796
 30
0.0
 40
57.15
 41
75.0
 46
0.0
 71
     7
 72
     1
  1
{\fＭＳ ゴシック|b0|i0|c128|p49;85}
 11
6.123031769111886E-17
 21
1.0
 31
0.0
 73
     1
 44
1.0
  0
MTEXT
  5
44E
330
1F
100
AcDbEntity
  8
0-C_ハッチ
  6
Continuous
 62
     7
370
   211
100
AcDbMText
 10
3331.932098111481
 20
-2829.921581314304
 30
0.0
 40
57.15
 41
75.0
 46
0.0
 71
     7
 72
     1
  1
{\fＭＳ ゴシック|b0|i0|c128|p49;40}
 11
6.123031769111886E-17
 21
1.0
 31
0.0
 73
     1
 44
1.0
  0
LINE
  5
44F
330
1F
100
AcDbEntity
  8
0-C_ハッチ
  6
JWW_CENTER1
 62
   120
370
     5
100
AcDbLine
 10
1281.994990679707
 20
-1822.082766261022
 30
0.0
 11
974.7413060552059
 21
-1999.475763788482
 31
0.0
  0
LINE
  5
450
330
1F
100
AcDbEntity
  8
0-C_ハッチ
  6
Continuous
 62
   120
370
     5
100
AcDbLine
 10
1791.583668833022
 20
-1713.257878627934
 30
0.0
 11
1810.896464444147
 21
-1299.964052549827
 31
0.0
  0
LINE
  5
451
330
1F
100
AcDbEntity
  8
0-C_ハッチ
  6
Continuous
 62
   120
370
     5
100
AcDbLine
 10
1495.109460657457
 20
-1466.96679493702
 30
0.0
 11
1810.896464444147
 21
-1299.964052549827
 31
0.0
  0
MTEXT
  5
452
330
1F
100
AcDbEntity
  8
0-C_ハッチ
  6
Continuous
 62
     7
370
   211
100
AcDbMText
 10
3233.102169118835
 20
-2982.922006910796
 30
0.0
 40
57.15
 41
150.0
 46
0.0
 71
     7
 72
     1
  1
{\fＭＳ ゴシック|b0|i0|c128|p49;42.5}
 11
6.123031769111886E-17
 21
1.0
 31
0.0
 73
     1
 44
1.0
  0
CIRCLE
  5
453
330
1F
100
AcDbEntity
  8
0-C_ハッチ
  6
Continuous
 62
     7
370
     5
100
AcDbCircle
 10
1047.959706167763
 20
-1839.697871054936
 30
0.0
 40
12.0
  0
CIRCLE
  5
454
330
1F
100
AcDbEntity
  8
0-C_ハッチ
  6
Continuous
 62
     7
370
     5
100
AcDbCircle
 10
1129.5285419877
 20
-1910.109311455739
 30
0.0
 40
12.0
  0
LINE
  5
455
330
1F
100
AcDbEntity
  8
0-C_ハッチ
  6
Continuous
 62
   120
370
     5
100
AcDbLine
 10
1047.959706167763
 20
-1839.697871054935
 30
0.0
 11
1129.5285419877
 21
-1910.109311455739
 31
0.0
  0
LINE
  5
456
330
1F
100
AcDbEntity
  8
0-0_補助線
  6
Continuous
 62
    92
370
     5
100
AcDbLine
 10
-1975.75081882726
 20
-198.9024959924289
 30
0.0
 11
9.918542843319642
 21
-198.9024959924289
 31
0.0
  0
LINE
  5
457
330
1F
100
AcDbEntity
  8
0-0_補助線
  6
Continuous
 62
    92
370
     5
100
AcDbLine
 10
-1975.75081882726
 20
-198.9024959924289
 30
0.0
 11
-1975.75081882726
 21
-3297.999940821333
 31
0.0
  0
LINE
  5
458
330
1F
100
AcDbEntity
  8
0-C_ハッチ
  6
Continuous
 62
    92
370
     5
100
AcDbLine
 10
4747.518542843321
 20
-3297.999940821333
 30
0.0
 11
-1975.75081882726
 21
-3297.999940821333
 31
0.0
  0
LINE
  5
459
330
1F
100
AcDbEntity
  8
0-0_補助線
  6
Continuous
 62
    92
370
     5
100
AcDbLine
 10
-1975.75081882726
 20
-414.9024959924294
 30
0.0
 11
9.918542843319642
 21
-414.9024959924294
 31
0.0
  0
LINE
  5
45A
330
1F
100
AcDbEntity
  8
0-0_補助線
  6
Continuous
 62
   120
370
     5
100
AcDbLine
 10
-1392.10069362252
 20
-1170.320695302548
 30
0.0
 11
-542.1003307107737
 21
-1170.320695302548
 31
0.0
  0
LWPOLYLINE
  5
45B
330
1F
100
AcDbEntity
  8
0-0_補助線
  6
Continuous
 62
     7
370
     5
100
AcDbPolyline
 90
        4
 70
     1
 43
3.0
 10
-1390.60069362252
 20
-1170.320695302548
 42
0.4142135623731
 10
-1392.10069362252
 20
-1168.820695302548
 42
0.4142135623731
 10
-1393.60069362252
 20
-1170.320695302548
 42
0.4142135623731
 10
-1392.10069362252
 20
-1171.820695302548
 42
0.4142135623731
  0
LWPOLYLINE
  5
45C
330
1F
100
AcDbEntity
  8
0-0_補助線
  6
Continuous
 62
     7
370
     5
100
AcDbPolyline
 90
        4
 70
     1
 43
3.0
 10
-540.6003307107737
 20
-1170.320695302548
 42
0.4142135623731
 10
-542.1003307107737
 20
-1168.820695302548
 42
0.4142135623731
 10
-543.6003307107737
 20
-1170.320695302548
 42
0.4142135623731
 10
-542.1003307107737
 20
-1171.820695302548
 42
0.4142135623731
  0
LINE
  5
45D
330
1F
100
AcDbEntity
  8
0-0_補助線
  6
Continuous
 62
   120
370
     5
100
AcDbLine
 10
-1392.10069362252
 20
-1170.320695302548
 30
0.0
 11
-1392.10069362252
 21
-1313.862745102549
 31
0.0
  0
LINE
  5
45E
330
1F
100
AcDbEntity
  8
0-0_補助線
  6
Continuous
 62
   120
370
     5
100
AcDbLine
 10
-542.1003307107737
 20
-1170.320695302548
 30
0.0
 11
-542.1003307107737
 21
-1313.862745102549
 31
0.0
  0
LINE
  5
45F
330
1F
100
AcDbEntity
  8
0-0_補助線
  6
Continuous
 62
    92
370
     5
100
AcDbLine
 10
-542.1003307107737
 20
-1363.862745102548
 30
0.0
 11
-542.1003307107737
 21
-2239.153950651375
 31
0.0
  0
MTEXT
  5
460
330
1F
100
AcDbEntity
  8
0-C_ハッチ
  6
Continuous
 62
     7
370
   211
100
AcDbMText
 10
3332.223941114341
 20
-3029.421581314306
 30
0.0
 40
57.15
 41
150.0
 46
0.0
 71
     7
 72
     1
  1
{\fＭＳ ゴシック|b0|i0|c128|p49;22.5}
 11
6.123031769111886E-17
 21
1.0
 31
0.0
 73
     1
 44
1.0
  0
LINE
  5
461
330
1F
100
AcDbEntity
  8
0-0_補助線
  6
JWW_HOJO
 62
   120
370
     5
100
AcDbLine
 10
-1427.101040038279
 20
-1313.862745102549
 30
0.0
 11
-499.1244078558652
 21
-1313.862745102549
 31
0.0
  0
LINE
  5
462
330
1F
100
AcDbEntity
  8
0-0_補助線
  6
JWW_HOJO
 62
   120
370
     5
100
AcDbLine
 10
-1427.101040038279
 20
-1363.862745102548
 30
0.0
 11
-499.1244078558652
 21
-1363.862745102548
 31
0.0
  0
LINE
  5
463
330
1F
100
AcDbEntity
  8
0-0_補助線
  6
Continuous
 62
    92
370
     5
100
AcDbLine
 10
-1392.10069362252
 20
-1363.862745102548
 30
0.0
 11
-1392.10069362252
 21
-2239.153950651375
 31
0.0
  0
LINE
  5
464
330
1F
100
AcDbEntity
  8
0-0_補助線
  6
Continuous
 62
    92
370
     5
100
AcDbLine
 10
-1392.10069362252
 20
-2239.153950651375
 30
0.0
 11
-542.1003307107737
 21
-2239.153950651375
 31
0.0
  0
MTEXT
  5
465
330
1F
100
AcDbEntity
  8
0-C_ハッチ
  6
Continuous
 62
     7
370
     5
100
AcDbMText
 10
935.9225079826587
 20
-3238.357651867136
 30
0.0
 40
57.15
 41
1425.0
 46
0.0
 71
     7
 72
     1
  1
{\fＭＳ ゴシック|b0|i0|c128|p49;※現場にて左右どちらでも施工可能です。}
 73
     1
 44
1.0
  0
LINE
  5
466
330
1F
100
AcDbEntity
  8
F-0_補助線
  6
JWW_HOJO
 62
     7
370
     5
100
AcDbLine
 10
1109.918584083287
 20
-3795.000003092998
 30
0.0
 11
1109.918584083287
 21
-4195.000008247994
 31
0.0
  0
LINE
  5
467
330
1F
100
AcDbEntity
  8
F-0_補助線
  6
JWW_HOJO
 62
     7
370
     5
100
AcDbLine
 10
4889.91789125178
 20
-3795.000003092998
 30
0.0
 11
4889.91789125178
 21
-4195.000008247994
 31
0.0
  0
MTEXT
  5
468
330
1F
100
AcDbEntity
  8
F-0_補助線
  6
Continuous
 62
     7
370
     0
100
AcDbMText
 10
1109.918584083287
 20
-3945.948259655243
 30
0.0
 40
78.105
 41
615.0
 46
0.0
 71
     7
 72
     1
  1
{\fＭＳ ゴシック|b0|i0|c128|p49;建具納まり図}
 73
     1
 44
1.0
  0
MTEXT
  5
469
330
1F
100
AcDbEntity
  8
F-0_補助線
  6
Continuous
 62
     7
370
     0
100
AcDbMText
 10
509.9185840832865
 20
-3945.709576962234
 30
0.0
 40
78.58125
 41
412.5
 46
0.0
 71
     7
 72
     1
  1
{\fＭＳ ゴシック|b0|i0|c128|p49;DOORETUS}
 73
     1
 44
1.0
  0
MTEXT
  5
46A
330
1F
100
AcDbEntity
  8
0-B_寸法
  6
Continuous
 62
     7
370
     0
100
AcDbMText
 10
-3540.866665366125
 20
-1158.259920011918
 30
0.0
 40
91.43999999999986
 41
119.9999999999998
 46
0.0
 71
     7
 72
     1
  1
{\fＭＳ ゴシック|b0|i0|c128|p49;20}
 11
0.9999999999914964
 21
-4.124000483563069E-6
 31
0.0
 73
     1
 44
1.0
  0
MTEXT
  5
46B
330
1F
100
AcDbEntity
  8
0-B_寸法
  6
Continuous
 62
     7
370
   211
100
AcDbMText
 10
-1186.271042249589
 20
2287.664295403169
 30
0.0
 40
91.44
 41
120.0
 46
0.0
 71
     7
 72
     1
  1
{\fＭＳ ゴシック|b0|i0|c128|p49;20}
 11
6.123031769111886E-17
 21
1.0
 31
0.0
 73
     1
 44
1.0
  0
MTEXT
  5
46C
330
1F
100
AcDbEntity
  8
F-A_文字
  6
Continuous
 62
     7
370
     0
100
AcDbMText
 10
4889.91789125178
 20
-3945.570773120548
 30
0.0
 40
78.86699999999999
 41
517.5
 46
0.0
 71
     7
 72
     1
  1
{\fＭＳ ゴシック|b0|i0|c128|p49;2024.04.01}
 73
     1
 44
1.0
  0
LWPOLYLINE
  5
46D
330
1F
100
AcDbEntity
  8
0-B_寸法
  6
Continuous
 62
     7
370
     5
100
AcDbPolyline
 90
        4
 70
     1
 43
3.0
 10
-1169.77104224959
 20
2421.944295403169
 42
0.4142135623731
 10
-1171.271042249589
 20
2423.444295403169
 42
0.4142135623731
 10
-1172.771042249589
 20
2421.944295403169
 42
0.4142135623731
 10
-1171.271042249589
 20
2420.444295403169
 42
0.4142135623731
  0
LINE
  5
46E
330
1F
100
AcDbEntity
  8
0-0_補助線
  6
JWW_HOJO
 62
     7
370
     5
100
AcDbLine
 10
-1528.331457156683
 20
2439.944295403169
 30
0.0
 11
-1528.331457156683
 21
2280.943652059628
 31
0.0
  0
LINE
  5
46F
330
1F
100
AcDbEntity
  8
0-0_補助線
  6
JWW_HOJO
 62
     7
370
     5
100
AcDbLine
 10
-1468.331457156683
 20
2439.944295403169
 30
0.0
 11
-1468.331457156683
 21
2280.943652059628
 31
0.0
  0
LINE
  5
470
330
1F
100
AcDbEntity
  8
0-6_扉
  6
Continuous
 62
   200
370
     5
100
AcDbLine
 10
-1997.081457156683
 20
2421.944295403169
 30
0.0
 11
-1528.331457156683
 21
2421.944295403169
 31
0.0
  0
LINE
  5
471
330
1F
100
AcDbEntity
  8
0-6_扉
  6
Continuous
 62
   200
370
     5
100
AcDbLine
 10
-1468.331457156683
 20
2421.944295403169
 30
0.0
 11
-999.5814571566831
 21
2421.944295403169
 31
0.0
  0
LINE
  5
472
330
1F
100
AcDbEntity
  8
0-0_補助線
  6
JWW_HOJO
 62
     7
370
     5
100
AcDbLine
 10
-524.8314571566834
 20
2439.944295403169
 30
0.0
 11
-524.8314571566834
 21
2280.943652059628
 31
0.0
  0
LINE
  5
473
330
1F
100
AcDbEntity
  8
0-0_補助線
  6
JWW_HOJO
 62
     7
370
     5
100
AcDbLine
 10
-464.8314571566834
 20
2439.944295403169
 30
0.0
 11
-464.8314571566834
 21
2280.943652059628
 31
0.0
  0
LINE
  5
474
330
1F
100
AcDbEntity
  8
0-0_補助線
  6
JWW_HOJO
 62
     7
370
     5
100
AcDbLine
 10
484.668542843321
 20
2439.944295403169
 30
0.0
 11
484.668542843321
 21
2280.943652059628
 31
0.0
  0
LINE
  5
475
330
1F
100
AcDbEntity
  8
0-0_補助線
  6
JWW_HOJO
 62
     7
370
     5
100
AcDbLine
 10
544.668542843321
 20
2439.944295403169
 30
0.0
 11
544.668542843321
 21
2280.943652059628
 31
0.0
  0
LINE
  5
476
330
1F
100
AcDbEntity
  8
0-0_補助線
  6
JWW_HOJO
 62
     7
370
     5
100
AcDbLine
 10
1488.168542843319
 20
2439.944295403169
 30
0.0
 11
1488.168542843319
 21
2280.943652059628
 31
0.0
  0
LINE
  5
477
330
1F
100
AcDbEntity
  8
0-0_補助線
  6
JWW_HOJO
 62
     7
370
     5
100
AcDbLine
 10
1548.168542843319
 20
2439.944295403169
 30
0.0
 11
1548.168542843319
 21
2280.943652059628
 31
0.0
  0
LINE
  5
478
330
1F
100
AcDbEntity
  8
0-6_扉
  6
Continuous
 62
   200
370
     5
100
AcDbLine
 10
-993.5814571566834
 20
2421.944295403169
 30
0.0
 11
-524.8314571566834
 21
2421.944295403169
 31
0.0
  0
LINE
  5
479
330
1F
100
AcDbEntity
  8
0-6_扉
  6
Continuous
 62
   200
370
     5
100
AcDbLine
 10
-464.8314571566834
 20
2421.944295403169
 30
0.0
 11
3.918542843318278
 21
2421.944295403169
 31
0.0
  0
LINE
  5
47A
330
1F
100
AcDbEntity
  8
0-6_扉
  6
Continuous
 62
   200
370
     5
100
AcDbLine
 10
15.91854284332271
 20
2421.944295403169
 30
0.0
 11
484.668542843321
 21
2421.944295403169
 31
0.0
  0
LINE
  5
47B
330
1F
100
AcDbEntity
  8
0-6_扉
  6
Continuous
 62
   200
370
     5
100
AcDbLine
 10
544.668542843321
 20
2421.944295403169
 30
0.0
 11
1013.418542843318
 21
2421.944295403169
 31
0.0
  0
LINE
  5
47C
330
1F
100
AcDbEntity
  8
0-6_扉
  6
Continuous
 62
   200
370
     5
100
AcDbLine
 10
1019.418542843317
 20
2421.944295403169
 30
0.0
 11
1488.168542843319
 21
2421.944295403169
 31
0.0
  0
LINE
  5
47D
330
1F
100
AcDbEntity
  8
0-6_扉
  6
Continuous
 62
   200
370
     5
100
AcDbLine
 10
1548.168542843319
 20
2421.944295403169
 30
0.0
 11
2016.918542843321
 21
2421.944295403169
 31
0.0
  0
CIRCLE
  5
47E
330
1F
100
AcDbEntity
  8
0-7_金物
  6
Continuous
 62
     7
370
     5
100
AcDbCircle
 10
-996.5814571566841
 20
2451.944295403145
 30
0.0
 40
21.00000000000001
  0
CIRCLE
  5
47F
330
1F
100
AcDbEntity
  8
0-7_金物
  6
Continuous
 62
     7
370
     5
100
AcDbCircle
 10
-996.5814571566841
 20
2451.944295403145
 30
0.0
 40
30.0
  0
CIRCLE
  5
480
330
1F
100
AcDbEntity
  8
0-7_金物
  6
Continuous
 62
     7
370
     5
100
AcDbCircle
 10
1016.418542843318
 20
2451.944295403145
 30
0.0
 40
21.00000000000001
  0
CIRCLE
  5
481
330
1F
100
AcDbEntity
  8
0-7_金物
  6
Continuous
 62
     7
370
     5
100
AcDbCircle
 10
1016.418542843318
 20
2451.944295403145
 30
0.0
 40
30.0
  0
LWPOLYLINE
  5
482
330
1F
100
AcDbEntity
  8
0-B_寸法
  6
Continuous
 62
     7
370
     5
100
AcDbPolyline
 90
        4
 70
     1
 43
3.0
 10
-1169.77104224959
 20
2301.944295403169
 42
0.4142135623731
 10
-1171.271042249589
 20
2303.444295403169
 42
0.4142135623731
 10
-1172.771042249589
 20
2301.944295403169
 42
0.4142135623731
 10
-1171.271042249589
 20
2300.444295403169
 42
0.4142135623731
  0
LINE
  5
483
330
1F
100
AcDbEntity
  8
0-6_扉
  6
Continuous
 62
   200
370
     5
100
AcDbLine
 10
-1997.081457156683
 20
2301.944295403169
 30
0.0
 11
-1528.331457156683
 21
2301.944295403169
 31
0.0
  0
LINE
  5
484
330
1F
100
AcDbEntity
  8
0-6_扉
  6
Continuous
 62
   200
370
     5
100
AcDbLine
 10
-1468.331457156683
 20
2301.944295403169
 30
0.0
 11
-999.5814571566831
 21
2301.944295403169
 31
0.0
  0
LINE
  5
485
330
1F
100
AcDbEntity
  8
0-6_扉
  6
Continuous
 62
   200
370
     5
100
AcDbLine
 10
-993.5814571566834
 20
2301.944295403169
 30
0.0
 11
-524.8314571566834
 21
2301.944295403169
 31
0.0
  0
LINE
  5
486
330
1F
100
AcDbEntity
  8
0-6_扉
  6
Continuous
 62
   200
370
     5
100
AcDbLine
 10
-464.8314571566834
 20
2301.944295403169
 30
0.0
 11
3.918542843318278
 21
2301.944295403169
 31
0.0
  0
LINE
  5
487
330
1F
100
AcDbEntity
  8
0-6_扉
  6
Continuous
 62
   200
370
     5
100
AcDbLine
 10
15.91854284332271
 20
2301.944295403169
 30
0.0
 11
484.668542843321
 21
2301.944295403169
 31
0.0
  0
LINE
  5
488
330
1F
100
AcDbEntity
  8
0-6_扉
  6
Continuous
 62
   200
370
     5
100
AcDbLine
 10
544.668542843321
 20
2301.944295403169
 30
0.0
 11
1013.418542843318
 21
2301.944295403169
 31
0.0
  0
LINE
  5
489
330
1F
100
AcDbEntity
  8
0-6_扉
  6
Continuous
 62
   200
370
     5
100
AcDbLine
 10
1019.418542843317
 20
2301.944295403169
 30
0.0
 11
1488.168542843319
 21
2301.944295403169
 31
0.0
  0
LINE
  5
48A
330
1F
100
AcDbEntity
  8
0-6_扉
  6
Continuous
 62
   200
370
     5
100
AcDbLine
 10
1548.168542843319
 20
2301.944295403169
 30
0.0
 11
2016.918542843321
 21
2301.944295403169
 31
0.0
  0
LINE
  5
48B
330
1F
100
AcDbEntity
  8
0-6_扉
  6
Continuous
 62
   200
370
     5
100
AcDbLine
 10
-1997.081457156683
 20
2421.944295403169
 30
0.0
 11
-1997.081457156683
 21
2301.944295403169
 31
0.0
  0
LINE
  5
48C
330
1F
100
AcDbEntity
  8
0-6_扉
  6
Continuous
 62
   200
370
     5
100
AcDbLine
 10
2016.918542843321
 20
2421.944295403169
 30
0.0
 11
2016.918542843321
 21
2301.944295403169
 31
0.0
  0
LINE
  5
48D
330
1F
100
AcDbEntity
  8
0-B_寸法
  6
Continuous
 62
   120
370
     5
100
AcDbLine
 10
-1171.271042249589
 20
2421.944295403169
 30
0.0
 11
-1171.271042249589
 21
2301.944295403169
 31
0.0
  0
LINE
  5
48E
330
1F
100
AcDbEntity
  8
0-6_扉
  6
Continuous
 62
   200
370
     5
100
AcDbLine
 10
3.918542843318278
 20
2421.944295403169
 30
0.0
 11
3.918542843318278
 21
2301.944295403169
 31
0.0
  0
LINE
  5
48F
330
1F
100
AcDbEntity
  8
0-6_扉
  6
Continuous
 62
   200
370
     5
100
AcDbLine
 10
15.9185428433176
 20
2421.944295403169
 30
0.0
 11
15.9185428433176
 21
2301.944295403169
 31
0.0
  0
LINE
  5
490
330
1F
100
AcDbEntity
  8
0-6_扉
  6
Continuous
 62
   200
370
     5
100
AcDbLine
 10
-999.5814571566831
 20
2421.944295403169
 30
0.0
 11
-999.5814571566831
 21
2301.944295403169
 31
0.0
  0
LINE
  5
491
330
1F
100
AcDbEntity
  8
0-6_扉
  6
Continuous
 62
   200
370
     5
100
AcDbLine
 10
-993.5814571566834
 20
2421.944295403169
 30
0.0
 11
-993.5814571566834
 21
2301.944295403169
 31
0.0
  0
LINE
  5
492
330
1F
100
AcDbEntity
  8
0-6_扉
  6
Continuous
 62
   200
370
     5
100
AcDbLine
 10
1019.418542843317
 20
2421.944295403169
 30
0.0
 11
1019.418542843317
 21
2301.944295403169
 31
0.0
  0
LINE
  5
493
330
1F
100
AcDbEntity
  8
0-6_扉
  6
Continuous
 62
   200
370
     5
100
AcDbLine
 10
1013.418542843318
 20
2421.944295403169
 30
0.0
 11
1013.418542843318
 21
2301.944295403169
 31
0.0
  0
LWPOLYLINE
  5
494
330
1F
100
AcDbEntity
  8
0-B_寸法
  6
Continuous
 62
     7
370
     5
100
AcDbPolyline
 90
        4
 70
     1
 43
3.0
 10
-3426.866670624705
 20
-1158.980015895047
 42
0.4142135623731
 10
-3428.366670624705
 20
-1157.480015895047
 42
0.4142135623731
 10
-3429.866670624705
 20
-1158.980015895047
 42
0.4142135623731
 10
-3428.366670624705
 20
-1160.480015895047
 42
0.4142135623731
  0
LINE
  5
495
330
1F
100
AcDbEntity
  8
0-B_寸法
  6
Continuous
 62
   120
370
     5
100
AcDbLine
 10
-3428.366670624705
 20
-1074.743087316075
 30
0.0
 11
-3428.366670624705
 21
-1158.980015895047
 31
0.0
  0
LINE
  5
496
330
1F
100
AcDbEntity
  8
0-6_扉
  6
Continuous
 62
   200
370
     5
100
AcDbLine
 10
-3428.366670624705
 20
-1881.999713176695
 30
0.0
 11
-3428.366670624705
 21
-3157.000334250649
 31
0.0
  0
LINE
  5
497
330
1F
100
AcDbEntity
  8
0-6_扉
  6
Continuous
 62
   200
370
     5
100
AcDbLine
 10
-3428.366670624705
 20
-558.9994632624747
 30
0.0
 11
-3428.366670624705
 21
-1761.999713176695
 31
0.0
  0
LWPOLYLINE
  5
498
330
1F
100
AcDbEntity
  8
0-B_寸法
  6
Continuous
 62
     7
370
     5
100
AcDbPolyline
 90
        4
 70
     1
 43
3.0
 10
-3546.866670624705
 20
-1158.980015895047
 42
0.4142135623731
 10
-3548.366670624705
 20
-1157.480015895047
 42
0.4142135623731
 10
-3549.866670624705
 20
-1158.980015895047
 42
0.4142135623731
 10
-3548.366670624705
 20
-1160.480015895047
 42
0.4142135623731
  0
LINE
  5
499
330
1F
100
AcDbEntity
  8
0-B_寸法
  6
Continuous
 62
   120
370
     5
100
AcDbLine
 10
-3548.366670624705
 20
-1074.743087316075
 30
0.0
 11
-3548.366670624705
 21
-1158.980015895047
 31
0.0
  0
LINE
  5
49A
330
1F
100
AcDbEntity
  8
0-6_扉
  6
Continuous
 62
   200
370
     5
100
AcDbLine
 10
-3548.366670624705
 20
-1881.999713176695
 30
0.0
 11
-3548.366670624705
 21
-3157.000334250649
 31
0.0
  0
LINE
  5
49B
330
1F
100
AcDbEntity
  8
0-6_扉
  6
Continuous
 62
   200
370
     5
100
AcDbLine
 10
-3548.366670624705
 20
-558.9994632624747
 30
0.0
 11
-3548.366670624705
 21
-1761.999713176695
 31
0.0
  0
LINE
  5
49C
330
1F
100
AcDbEntity
  8
0-6_扉
  6
Continuous
 62
   200
370
     5
100
AcDbLine
 10
-3428.366670624705
 20
-3157.000334250649
 30
0.0
 11
-3548.366670624705
 21
-3157.000334250649
 31
0.0
  0
LINE
  5
49D
330
1F
100
AcDbEntity
  8
0-B_寸法
  6
Continuous
 62
   120
370
     5
100
AcDbLine
 10
-3428.366670624705
 20
-1158.980015895047
 30
0.0
 11
-3548.366670624705
 21
-1158.980015895047
 31
0.0
  0
LINE
  5
49E
330
1F
100
AcDbEntity
  8
0-6_扉
  6
Continuous
 62
   200
370
     5
100
AcDbLine
 10
-3548.366670624705
 20
-558.9994632624747
 30
0.0
 11
-3428.366670624705
 21
-558.9994632624747
 31
0.0
  0
LINE
  5
49F
330
1F
100
AcDbEntity
  8
0-C_ハッチ
  6
Continuous
 62
   200
370
     5
100
AcDbLine
 10
3396.943098760396
 20
-2717.496581314304
 30
0.0
 11
3830.710671216681
 21
-2717.496581314304
 31
0.0
  0
LINE
  5
4A0
330
1F
100
AcDbEntity
  8
0-C_ハッチ
  6
Continuous
 62
   200
370
     5
100
AcDbLine
 10
3396.943098760396
 20
-2837.496581314304
 30
0.0
 11
3830.710671216681
 21
-2837.496581314304
 31
0.0
  0
LINE
  5
4A1
330
1F
100
AcDbEntity
  8
0-C_ハッチ
  6
Continuous
 62
   200
370
     5
100
AcDbLine
 10
3830.710671216681
 20
-2717.496581314304
 30
0.0
 11
3830.710671216681
 21
-2837.496581314304
 31
0.0
  0
ENDSEC
  0
SECTION
  2
OBJECTS
  0
DICTIONARY
  5
C
330
0
100
AcDbDictionary
281
     1
  3
ACAD_GROUP
350
D
  3
ACAD_LAYOUT
350
1A
  3
ACAD_MATERIAL
350
3B
  3
ACAD_MLEADERSTYLE
350
4A3
  3
ACAD_MLINESTYLE
350
17
  3
ACAD_PLOTSETTINGS
350
19
  3
ACAD_PLOTSTYLENAME
350
E
  3
ACAD_TABLESTYLE
350
4A2
  3
ACAD_VISUALSTYLE
350
2A
  0
DICTIONARY
  5
D
102
{ACAD_REACTORS
330
C
102
}
330
C
100
AcDbDictionary
281
     1
  0
DICTIONARY
  5
1A
102
{ACAD_REACTORS
330
C
102
}
330
C
100
AcDbDictionary
281
     1
  3
Layout1
350
1E
  3
Layout2
350
26
  3
Model
350
22
  0
DICTIONARY
  5
3B
102
{ACAD_REACTORS
330
C
102
}
330
C
100
AcDbDictionary
281
     1
  3
ByBlock
350
3D
  3
ByLayer
350
3C
  3
Global
350
3E
  0
DICTIONARY
  5
4A3
102
{ACAD_REACTORS
330
C
102
}
330
C
100
AcDbDictionary
281
     1
  0
DICTIONARY
  5
17
102
{ACAD_REACTORS
330
C
102
}
330
C
100
AcDbDictionary
281
     1
  3
Standard
350
18
  0
DICTIONARY
  5
19
102
{ACAD_REACTORS
330
C
102
}
330
C
100
AcDbDictionary
281
     1
  0
ACDBDICTIONARYWDFLT
  5
E
102
{ACAD_REACTORS
330
C
102
}
330
C
100
AcDbDictionary
281
     1
  3
Normal
350
F
100
AcDbDictionaryWithDefault
340
F
  0
DICTIONARY
  5
4A2
102
{ACAD_REACTORS
330
C
102
}
330
C
100
AcDbDictionary
281
     1
  0
DICTIONARY
  5
2A
102
{ACAD_REACTORS
330
C
102
}
330
C
100
AcDbDictionary
281
     1
  3
2dWireframe
350
2F
  3
3D Hidden
350
31
  3
3dWireframe
350
30
  3
Basic
350
32
  3
Brighten
350
36
  3
ColorChange
350
3A
  3
Conceptual
350
34
  3
Dim
350
35
  3
Facepattern
350
39
  3
Flat
350
2B
  3
FlatWithEdges
350
2C
  3
Gouraud
350
2D
  3
GouraudWithEdges
350
2E
  3
Linepattern
350
38
  3
Realistic
350
33
  3
Thicken
350
37
  0
LAYOUT
  5
1E
102
{ACAD_REACTORS
330
1A
102
}
330
1A
100
AcDbPlotSettings
  1

  2
none_device
  4

  6

 40
0.0
 41
0.0
 42
0.0
 43
0.0
 44
0.0
 45
0.0
 46
0.0
 47
0.0
 48
0.0
 49
0.0
140
0.0
141
0.0
142
1.0
143
1.0
 70
   688
 72
     0
 73
     0
 74
     5
  7

 75
    16
 76
     0
 77
     5
 78
   300
147
1.0
148
0.0
149
0.0
100
AcDbLayout
  1
Layout1
 70
     1
 71
     1
 10
0.0
 20
0.0
 11
420.0
 21
297.0
 12
0.0
 22
0.0
 32
0.0
 14
1.000000000000000E+20
 24
1.000000000000000E+20
 34
1.000000000000000E+20
 15
-1.000000000000000E+20
 25
-1.000000000000000E+20
 35
-1.000000000000000E+20
146
0.0
 13
0.0
 23
0.0
 33
0.0
 16
1.0
 26
0.0
 36
0.0
 17
0.0
 27
1.0
 37
0.0
 76
     0
330
1B
  0
LAYOUT
  5
26
102
{ACAD_REACTORS
330
1A
102
}
330
1A
100
AcDbPlotSettings
  1

  2
none_device
  4

  6

 40
0.0
 41
0.0
 42
0.0
 43
0.0
 44
0.0
 45
0.0
 46
0.0
 47
0.0
 48
0.0
 49
0.0
140
0.0
141
0.0
142
1.0
143
1.0
 70
   688
 72
     0
 73
     0
 74
     5
  7

 75
    16
 76
     0
 77
     5
 78
   300
147
1.0
148
0.0
149
0.0
100
AcDbLayout
  1
Layout2
 70
     1
 71
     2
 10
0.0
 20
0.0
 11
0.0
 21
0.0
 12
0.0
 22
0.0
 32
0.0
 14
0.0
 24
0.0
 34
0.0
 15
0.0
 25
0.0
 35
0.0
146
0.0
 13
0.0
 23
0.0
 33
0.0
 16
1.0
 26
0.0
 36
0.0
 17
0.0
 27
1.0
 37
0.0
 76
     0
330
23
  0
LAYOUT
  5
22
102
{ACAD_REACTORS
330
1A
102
}
330
1A
100
AcDbPlotSettings
  1

  2
none_device
  4

  6

 40
0.0
 41
0.0
 42
0.0
 43
0.0
 44
0.0
 45
0.0
 46
0.0
 47
0.0
 48
0.0
 49
0.0
140
0.0
141
0.0
142
1.0
143
1.0
 70
  1712
 72
     0
 73
     0
 74
     0
  7

 75
     0
 76
     0
 77
     5
 78
   300
147
1.0
148
0.0
149
0.0
100
AcDbLayout
  1
Model
 70
     1
 71
     0
 10
-6300.0
 20
-4455.0
 11
6300.0
 21
4455.0
 12
0.0
 22
0.0
 32
0.0
 14
-6300.0
 24
-4455.0
 34
0.0
 15
6300.0
 25
4455.0
 35
0.0
146
0.0
 13
0.0
 23
0.0
 33
0.0
 16
1.0
 26
0.0
 36
0.0
 17
0.0
 27
1.0
 37
0.0
 76
     0
330
1F
331
29
  0
MATERIAL
  5
3D
102
{ACAD_REACTORS
330
3B
102
}
330
3B
100
AcDbMaterial
  1
ByBlock
 72
     1
 94
      127
  0
MATERIAL
  5
3C
102
{ACAD_REACTORS
330
3B
102
}
330
3B
100
AcDbMaterial
  1
ByLayer
 72
     1
 94
      127
  0
MATERIAL
  5
3E
102
{ACAD_REACTORS
330
3B
102
}
330
3B
100
AcDbMaterial
  1
Global
 72
     1
 94
      127
  0
MLINESTYLE
  5
18
102
{ACAD_REACTORS
330
17
102
}
330
17
100
AcDbMlineStyle
  2
Standard
 70
     0
  3

 62
   256
 51
90.0
 52
90.0
 71
     2
 49
0.5
 62
   256
  6
BYLAYER
 49
-0.5
 62
   256
  6
BYLAYER
  0
ACDBPLACEHOLDER
  5
F
102
{ACAD_REACTORS
330
E
102
}
330
E
  0
VISUALSTYLE
  5
2F
102
{ACAD_REACTORS
330
2A
102
}
330
2A
100
AcDbVisualStyle
  2
2dWireframe
 70
     4
177
     2
291
     0
 71
     0
176
     1
 72
     2
176
     1
 73
     0
176
     1
 90
        0
176
     1
 40
-0.6
176
     1
 41
-30.0
176
     1
 62
     5
 63
     7
421
 16777215
176
     1
 74
     1
176
     1
 91
        4
176
     1
 64
     7
176
     1
 65
   257
176
     1
 75
     1
176
     1
175
     1
176
     1
 42
1.0
176
     1
 92
        0
176
     1
 66
   257
176
     1
 43
1.0
176
     1
 76
     1
176
     1
 77
     6
176
     1
 78
     2
176
     1
 67
     7
176
     1
 79
     5
176
     1
170
     0
176
     1
171
     0
176
     1
290
     0
176
     1
 93
        1
176
     1
 44
0.0
176
     1
173
     0
176
     1
  0
VISUALSTYLE
  5
31
102
{ACAD_REACTORS
330
2A
102
}
330
2A
100
AcDbVisualStyle
  2
3D Hidden
 70
     6
177
     2
291
     0
 71
     1
176
     1
 72
     2
176
     1
 73
     2
176
     1
 90
        0
176
     1
 40
-0.6
176
     1
 41
-30.0
176
     1
 62
     5
 63
     7
421
 16777215
176
     1
 74
     2
176
     1
 91
        2
176
     1
 64
     7
176
     1
 65
   257
176
     1
 75
     2
176
     1
175
     1
176
     1
 42
40.0
176
     1
 92
        0
176
     1
 66
   257
176
     1
 43
1.0
176
     1
 76
     1
176
     1
 77
     6
176
     1
 78
     2
176
     1
 67
     7
176
     1
 79
     3
176
     1
170
     0
176
     1
171
     0
176
     1
290
     0
176
     1
 93
        1
176
     1
 44
0.0
176
     1
173
     0
176
     1
  0
VISUALSTYLE
  5
30
102
{ACAD_REACTORS
330
2A
102
}
330
2A
100
AcDbVisualStyle
  2
3dWireframe
 70
     5
177
     2
291
     0
 71
     0
176
     1
 72
     2
176
     1
 73
     0
176
     1
 90
        0
176
     1
 40
-0.6
176
     1
 41
-30.0
176
     1
 62
     5
 63
     7
421
 16777215
176
     1
 74
     1
176
     1
 91
        4
176
     1
 64
     7
176
     1
 65
   257
176
     1
 75
     1
176
     1
175
     1
176
     1
 42
1.0
176
     1
 92
        0
176
     1
 66
   257
176
     1
 43
1.0
176
     1
 76
     1
176
     1
 77
     6
176
     1
 78
     2
176
     1
 67
     7
176
     1
 79
     5
176
     1
170
     0
176
     1
171
     0
176
     1
290
     0
176
     1
 93
        1
176
     1
 44
0.0
176
     1
173
     0
176
     1
  0
VISUALSTYLE
  5
32
102
{ACAD_REACTORS
330
2A
102
}
330
2A
100
AcDbVisualStyle
  2
Basic
 70
     7
177
     2
291
     1
 71
     1
176
     1
 72
     0
176
     1
 73
     1
176
     1
 90
        0
176
     1
 40
-0.6
176
     1
 41
-30.0
176
     1
 62
     5
 63
     7
421
 16777215
176
     1
 74
     0
176
     1
 91
        4
176
     1
 64
     7
176
     1
 65
   257
176
     1
 75
     1
176
     1
175
     1
176
     1
 42
1.0
176
     1
 92
        8
176
     1
 66
     7
176
     1
 43
1.0
176
     1
 76
     1
176
     1
 77
     6
176
     1
 78
     2
176
     1
 67
     7
176
     1
 79
     5
176
     1
170
     0
176
     1
171
     0
176
     1
290
     0
176
     1
 93
        1
176
     1
 44
0.0
176
     1
173
     0
176
     1
  0
VISUALSTYLE
  5
36
102
{ACAD_REACTORS
330
2A
102
}
330
2A
100
AcDbVisualStyle
  2
Brighten
 70
    12
177
     2
291
     1
 71
     2
176
     1
 72
     2
176
     1
 73
     0
176
     1
 90
        0
176
     1
 40
-0.6
176
     1
 41
-30.0
176
     1
 62
     5
 63
     7
421
 16777215
176
     1
 74
     1
176
     1
 91
        4
176
     1
 64
     7
176
     1
 65
   257
176
     1
 75
     1
176
     1
175
     1
176
     1
 42
1.0
176
     1
 92
        8
176
     1
 66
     7
176
     1
 43
1.0
176
     1
 76
     1
176
     1
 77
     6
176
     1
 78
     2
176
     1
 67
     7
176
     1
 79
     5
176
     1
170
     0
176
     1
171
     0
176
     1
290
     0
176
     1
 93
        1
176
     1
 44
50.0
176
     1
173
     0
176
     1
  0
VISUALSTYLE
  5
3A
102
{ACAD_REACTORS
330
2A
102
}
330
2A
100
AcDbVisualStyle
  2
ColorChange
 70
    16
177
     2
291
     1
 71
     2
176
     1
 72
     2
176
     1
 73
     3
176
     1
 90
        0
176
     1
 40
-0.6
176
     1
 41
-30.0
176
     1
 62
     5
 63
     8
421
  8421504
176
     1
 74
     1
176
     1
 91
        4
176
     1
 64
     7
176
     1
 65
   257
176
     1
 75
     1
176
     1
175
     1
176
     1
 42
1.0
176
     1
 92
        8
176
     1
 66
     8
424
  8421504
176
     1
 43
1.0
176
     1
 76
     1
176
     1
 77
     6
176
     1
 78
     2
176
     1
 67
     7
176
     1
 79
     5
176
     1
170
     0
176
     1
171
     0
176
     1
290
     0
176
     1
 93
        1
176
     1
 44
0.0
176
     1
173
     0
176
     1
  0
VISUALSTYLE
  5
34
102
{ACAD_REACTORS
330
2A
102
}
330
2A
100
AcDbVisualStyle
  2
Conceptual
 70
     9
177
     2
291
     0
 71
     3
176
     1
 72
     2
176
     1
 73
     0
176
     1
 90
        0
176
     1
 40
-0.6
176
     1
 41
-30.0
176
     1
 62
     5
 63
     7
421
 16777215
176
     1
 74
     2
176
     1
 91
        2
176
     1
 64
     7
176
     1
 65
   257
176
     1
 75
     1
176
     1
175
     1
176
     1
 42
40.0
176
     1
 92
        8
176
     1
 66
     7
176
     1
 43
1.0
176
     1
 76
     1
176
     1
 77
     6
176
     1
 78
     2
176
     1
 67
     7
176
     1
 79
     3
176
     1
170
     0
176
     1
171
     0
176
     1
290
     0
176
     1
 93
        1
176
     1
 44
0.0
176
     1
173
     0
176
     1
  0
VISUALSTYLE
  5
35
102
{ACAD_REACTORS
330
2A
102
}
330
2A
100
AcDbVisualStyle
  2
Dim
 70
    11
177
     2
291
     1
 71
     2
176
     1
 72
     2
176
     1
 73
     0
176
     1
 90
        0
176
     1
 40
-0.6
176
     1
 41
-30.0
176
     1
 62
     5
 63
     7
421
 16777215
176
     1
 74
     1
176
     1
 91
        4
176
     1
 64
     7
176
     1
 65
   257
176
     1
 75
     1
176
     1
175
     1
176
     1
 42
1.0
176
     1
 92
        8
176
     1
 66
     7
176
     1
 43
1.0
176
     1
 76
     1
176
     1
 77
     6
176
     1
 78
     2
176
     1
 67
     7
176
     1
 79
     5
176
     1
170
     0
176
     1
171
     0
176
     1
290
     0
176
     1
 93
        1
176
     1
 44
-50.0
176
     1
173
     0
176
     1
  0
VISUALSTYLE
  5
39
102
{ACAD_REACTORS
330
2A
102
}
330
2A
100
AcDbVisualStyle
  2
Facepattern
 70
    15
177
     2
291
     1
 71
     2
176
     1
 72
     2
176
     1
 73
     0
176
     1
 90
        0
176
     1
 40
-0.6
176
     1
 41
-30.0
176
     1
 62
     5
 63
     7
421
 16777215
176
     1
 74
     1
176
     1
 91
        4
176
     1
 64
     7
176
     1
 65
   257
176
     1
 75
     1
176
     1
175
     1
176
     1
 42
1.0
176
     1
 92
        8
176
     1
 66
     7
176
     1
 43
1.0
176
     1
 76
     1
176
     1
 77
     6
176
     1
 78
     2
176
     1
 67
     7
176
     1
 79
     5
176
     1
170
     0
176
     1
171
     0
176
     1
290
     0
176
     1
 93
        1
176
     1
 44
0.0
176
     1
173
     0
176
     1
  0
VISUALSTYLE
  5
2B
102
{ACAD_REACTORS
330
2A
102
}
330
2A
100
AcDbVisualStyle
  2
Flat
 70
     0
177
     2
291
     1
 71
     2
176
     1
 72
     1
176
     1
 73
     1
176
     1
 90
        2
176
     1
 40
-0.6
176
     1
 41
30.0
176
     1
 62
     5
 63
     7
421
 16777215
176
     1
 74
     0
176
     1
 91
        4
176
     1
 64
     7
176
     1
 65
   257
176
     1
 75
     1
176
     1
175
     1
176
     1
 42
1.0
176
     1
 92
        8
176
     1
 66
     7
176
     1
 43
1.0
176
     1
 76
     1
176
     1
 77
     6
176
     1
 78
     2
176
     1
 67
     7
176
     1
 79
     5
176
     1
170
     0
176
     1
171
     0
176
     1
290
     0
176
     1
 93
       13
176
     1
 44
0.0
176
     1
173
     0
176
     1
  0
VISUALSTYLE
  5
2C
102
{ACAD_REACTORS
330
2A
102
}
330
2A
100
AcDbVisualStyle
  2
FlatWithEdges
 70
     1
177
     2
291
     1
 71
     2
176
     1
 72
     1
176
     1
 73
     1
176
     1
 90
        2
176
     1
 40
-0.6
176
     1
 41
30.0
176
     1
 62
     5
 63
     7
421
 16777215
176
     1
 74
     1
176
     1
 91
        4
176
     1
 64
     7
176
     1
 65
   257
176
     1
 75
     1
176
     1
175
     1
176
     1
 42
1.0
176
     1
 92
        0
176
     1
 66
   257
176
     1
 43
1.0
176
     1
 76
     1
176
     1
 77
     6
176
     1
 78
     2
176
     1
 67
     7
176
     1
 79
     5
176
     1
170
     0
176
     1
171
     0
176
     1
290
     0
176
     1
 93
       13
176
     1
 44
0.0
176
     1
173
     0
176
     1
  0
VISUALSTYLE
  5
2D
102
{ACAD_REACTORS
330
2A
102
}
330
2A
100
AcDbVisualStyle
  2
Gouraud
 70
     2
177
     2
291
     1
 71
     2
176
     1
 72
     2
176
     1
 73
     1
176
     1
 90
        2
176
     1
 40
-0.6
176
     1
 41
30.0
176
     1
 62
     5
 63
     7
421
 16777215
176
     1
 74
     0
176
     1
 91
        4
176
     1
 64
     7
176
     1
 65
   257
176
     1
 75
     1
176
     1
175
     1
176
     1
 42
1.0
176
     1
 92
        0
176
     1
 66
     7
176
     1
 43
1.0
176
     1
 76
     1
176
     1
 77
     6
176
     1
 78
     2
176
     1
 67
     7
176
     1
 79
     5
176
     1
170
     0
176
     1
171
     0
176
     1
290
     0
176
     1
 93
       13
176
     1
 44
0.0
176
     1
173
     0
176
     1
  0
VISUALSTYLE
  5
2E
102
{ACAD_REACTORS
330
2A
102
}
330
2A
100
AcDbVisualStyle
  2
GouraudWithEdges
 70
     3
177
     2
291
     1
 71
     2
176
     1
 72
     2
176
     1
 73
     1
176
     1
 90
        2
176
     1
 40
-0.6
176
     1
 41
30.0
176
     1
 62
     5
 63
     7
421
 16777215
176
     1
 74
     1
176
     1
 91
        4
176
     1
 64
     7
176
     1
 65
   257
176
     1
 75
     1
176
     1
175
     1
176
     1
 42
1.0
176
     1
 92
        0
176
     1
 66
   257
176
     1
 43
1.0
176
     1
 76
     1
176
     1
 77
     6
176
     1
 78
     2
176
     1
 67
     7
176
     1
 79
     5
176
     1
170
     0
176
     1
171
     0
176
     1
290
     0
176
     1
 93
       13
176
     1
 44
0.0
176
     1
173
     0
176
     1
  0
VISUALSTYLE
  5
38
102
{ACAD_REACTORS
330
2A
102
}
330
2A
100
AcDbVisualStyle
  2
Linepattern
 70
    14
177
     2
291
     1
 71
     2
176
     1
 72
     2
176
     1
 73
     0
176
     1
 90
        0
176
     1
 40
-0.6
176
     1
 41
-30.0
176
     1
 62
     5
 63
     7
421
 16777215
176
     1
 74
     1
176
     1
 91
        4
176
     1
 64
     7
176
     1
 65
   257
176
     1
 75
     7
176
     1
175
     7
176
     1
 42
1.0
176
     1
 92
        8
176
     1
 66
     7
176
     1
 43
1.0
176
     1
 76
     1
176
     1
 77
     6
176
     1
 78
     2
176
     1
 67
     7
176
     1
 79
     5
176
     1
170
     0
176
     1
171
     0
176
     1
290
     0
176
     1
 93
        1
176
     1
 44
0.0
176
     1
173
     0
176
     1
  0
VISUALSTYLE
  5
33
102
{ACAD_REACTORS
330
2A
102
}
330
2A
100
AcDbVisualStyle
  2
Realistic
 70
     8
177
     2
291
     0
 71
     2
176
     1
 72
     2
176
     1
 73
     0
176
     1
 90
        0
176
     1
 40
-0.6
176
     1
 41
-30.0
176
     1
 62
     5
 63
     7
421
 16777215
176
     1
 74
     1
176
     1
 91
        0
176
     1
 64
     7
176
     1
 65
   257
176
     1
 75
     1
176
     1
175
     1
176
     1
 42
1.0
176
     1
 92
        8
176
     1
 66
     8
424
  7895160
176
     1
 43
1.0
176
     1
 76
     1
176
     1
 77
     6
176
     1
 78
     2
176
     1
 67
     7
176
     1
 79
     5
176
     1
170
     0
176
     1
171
     0
176
     1
290
     0
176
     1
 93
       13
176
     1
 44
0.0
176
     1
173
     0
176
     1
  0
VISUALSTYLE
  5
37
102
{ACAD_REACTORS
330
2A
102
}
330
2A
100
AcDbVisualStyle
  2
Thicken
 70
    13
177
     2
291
     1
 71
     2
176
     1
 72
     2
176
     1
 73
     0
176
     1
 90
        0
176
     1
 40
-0.6
176
     1
 41
-30.0
176
     1
 62
     5
 63
     7
421
 16777215
176
     1
 74
     1
176
     1
 91
        4
176
     1
 64
     7
176
     1
 65
   257
176
     1
 75
     1
176
     1
175
     1
176
     1
 42
1.0
176
     1
 92
       12
176
     1
 66
     7
176
     1
 43
1.0
176
     1
 76
     1
176
     1
 77
     6
176
     1
 78
     2
176
     1
 67
     7
176
     1
 79
     5
176
     1
170
     0
176
     1
171
     0
176
     1
290
     0
176
     1
 93
        1
176
     1
 44
0.0
176
     1
173
     0
176
     1
  0
ENDSEC
  0
EOF
