  0
SECTION
  2
HEADER
  9
$ACADVER
  1
AC1024
  9
$ACADMAINTVER
 70
     6
  9
$DWGCODEPAGE
  3
ANSI_932
  9
$INSBASE
 10
0.0
 20
0.0
 30
0.0
  9
$EXTMIN
 10
-6300.0
 20
-4455.0
 30
0.0
  9
$EXTMAX
 10
6300.0
 20
4455.0
 30
0.0
  9
$LIMMIN
 10
-6300.0
 20
-4455.0
  9
$LIMMAX
 10
6300.0
 20
4455.0
  9
$ORTHOMODE
 70
     0
  9
$REGENMODE
 70
     1
  9
$FILLMODE
 70
     1
  9
$QTEXTMODE
 70
     0
  9
$MIRRTEXT
 70
     1
  9
$LTSCALE
 40
30.0
  9
$ATTMODE
 70
     1
  9
$TEXTSIZE
 40
2.5
  9
$TRACEWID
 40
1.0
  9
$TEXTSTYLE
  7
Standard
  9
$CLAYER
  8
0
  9
$CELTYPE
  6
ByLayer
  9
$CECOLOR
 62
   256
  9
$CELTSCALE
 40
1.0
  9
$DISPSILH
 70
     0
  9
$DIMSCALE
 40
1.0
  9
$DIMASZ
 40
2.5
  9
$DIMEXO
 40
0.625
  9
$DIMDLI
 40
3.75
  9
$DIMRND
 40
0.0
  9
$DIMDLE
 40
0.0
  9
$DIMEXE
 40
1.25
  9
$DIMTP
 40
0.0
  9
$DIMTM
 40
0.0
  9
$DIMTXT
 40
2.5
  9
$DIMCEN
 40
2.5
  9
$DIMTSZ
 40
0.0
  9
$DIMTOL
 70
     0
  9
$DIMLIM
 70
     0
  9
$DIMTIH
 70
     0
  9
$DIMTOH
 70
     0
  9
$DIMSE1
 70
     0
  9
$DIMSE2
 70
     0
  9
$DIMTAD
 70
     1
  9
$DIMZIN
 70
     8
  9
$DIMBLK
  1

  9
$DIMASO
 70
     1
  9
$DIMSHO
 70
     1
  9
$DIMPOST
  1

  9
$DIMAPOST
  1

  9
$DIMALT
 70
     0
  9
$DIMALTD
 70
     3
  9
$DIMALTF
 40
0.03937007874016
  9
$DIMLFAC
 40
1.0
  9
$DIMTOFL
 70
     1
  9
$DIMTVP
 40
0.0
  9
$DIMTIX
 70
     0
  9
$DIMSOXD
 70
     0
  9
$DIMSAH
 70
     0
  9
$DIMBLK1
  1

  9
$DIMBLK2
  1

  9
$DIMSTYLE
  2
ISO-25
  9
$DIMCLRD
 70
     0
  9
$DIMCLRE
 70
     0
  9
$DIMCLRT
 70
     0
  9
$DIMTFAC
 40
1.0
  9
$DIMGAP
 40
0.625
  9
$DIMJUST
 70
     0
  9
$DIMSD1
 70
     0
  9
$DIMSD2
 70
     0
  9
$DIMTOLJ
 70
     0
  9
$DIMTZIN
 70
     8
  9
$DIMALTZ
 70
     0
  9
$DIMALTTZ
 70
     0
  9
$DIMUPT
 70
     0
  9
$DIMDEC
 70
     2
  9
$DIMTDEC
 70
     2
  9
$DIMALTU
 70
     2
  9
$DIMALTTD
 70
     3
  9
$DIMTXSTY
  7
Standard
  9
$DIMAUNIT
 70
     0
  9
$DIMADEC
 70
     0
  9
$DIMALTRND
 40
0.0
  9
$DIMAZIN
 70
     0
  9
$DIMDSEP
 70
    44
  9
$DIMATFIT
 70
     3
  9
$DIMFRAC
 70
     0
  9
$DIMLDRBLK
  1

  9
$DIMLUNIT
 70
     2
  9
$DIMLWD
 70
    -2
  9
$DIMLWE
 70
    -2
  9
$DIMTMOVE
 70
     0
  9
$DIMFXL
 40
1.0
  9
$DIMFXLON
 70
     0
  9
$DIMJOGANG
 40
0.7853981633974483
  9
$DIMTFILL
 70
     0
  9
$DIMTFILLCLR
 70
     0
  9
$DIMARCSYM
 70
     0
  9
$DIMLTYPE
  6

  9
$DIMLTEX1
  6

  9
$DIMLTEX2
  6

  9
$DIMTXTDIRECTION
 70
     0
  9
$LUNITS
 70
     2
  9
$LUPREC
 70
     4
  9
$SKETCHINC
 40
1.0
  9
$FILLETRAD
 40
10.0
  9
$AUNITS
 70
     0
  9
$AUPREC
 70
     0
  9
$MENU
  1
.
  9
$ELEVATION
 40
0.0
  9
$PELEVATION
 40
0.0
  9
$THICKNESS
 40
0.0
  9
$LIMCHECK
 70
     0
  9
$CHAMFERA
 40
10.0
  9
$CHAMFERB
 40
10.0
  9
$CHAMFERC
 40
20.0
  9
$CHAMFERD
 40
0.0
  9
$SKPOLY
 70
     0
  9
$TDCREATE
 40
2460327.685918553
  9
$TDUCREATE
 40
2460327.310918553
  9
$TDUPDATE
 40
2460327.685918565
  9
$TDUUPDATE
 40
2460327.310918565
  9
$TDINDWG
 40
0.0000000116
  9
$TDUSRTIMER
 40
0.0000000116
  9
$USRTIMER
 70
     1
  9
$ANGBASE
 50
0.0
  9
$ANGDIR
 70
     0
  9
$PDMODE
 70
     0
  9
$PDSIZE
 40
0.0
  9
$PLINEWID
 40
0.0
  9
$SPLFRAME
 70
     0
  9
$SPLINETYPE
 70
     6
  9
$SPLINESEGS
 70
     8
  9
$HANDSEED
  5
2D3
  9
$SURFTAB1
 70
     6
  9
$SURFTAB2
 70
     6
  9
$SURFTYPE
 70
     6
  9
$SURFU
 70
     6
  9
$SURFV
 70
     6
  9
$UCSBASE
  2

  9
$UCSNAME
  2

  9
$UCSORG
 10
0.0
 20
0.0
 30
0.0
  9
$UCSXDIR
 10
1.0
 20
0.0
 30
0.0
  9
$UCSYDIR
 10
0.0
 20
1.0
 30
0.0
  9
$UCSORTHOREF
  2

  9
$UCSORTHOVIEW
 70
     0
  9
$UCSORGTOP
 10
0.0
 20
0.0
 30
0.0
  9
$UCSORGBOTTOM
 10
0.0
 20
0.0
 30
0.0
  9
$UCSORGLEFT
 10
0.0
 20
0.0
 30
0.0
  9
$UCSORGRIGHT
 10
0.0
 20
0.0
 30
0.0
  9
$UCSORGFRONT
 10
0.0
 20
0.0
 30
0.0
  9
$UCSORGBACK
 10
0.0
 20
0.0
 30
0.0
  9
$PUCSBASE
  2

  9
$PUCSNAME
  2

  9
$PUCSORG
 10
0.0
 20
0.0
 30
0.0
  9
$PUCSXDIR
 10
1.0
 20
0.0
 30
0.0
  9
$PUCSYDIR
 10
0.0
 20
1.0
 30
0.0
  9
$PUCSORTHOREF
  2

  9
$PUCSORTHOVIEW
 70
     0
  9
$PUCSORGTOP
 10
0.0
 20
0.0
 30
0.0
  9
$PUCSORGBOTTOM
 10
0.0
 20
0.0
 30
0.0
  9
$PUCSORGLEFT
 10
0.0
 20
0.0
 30
0.0
  9
$PUCSORGRIGHT
 10
0.0
 20
0.0
 30
0.0
  9
$PUCSORGFRONT
 10
0.0
 20
0.0
 30
0.0
  9
$PUCSORGBACK
 10
0.0
 20
0.0
 30
0.0
  9
$USERI1
 70
     0
  9
$USERI2
 70
     0
  9
$USERI3
 70
     0
  9
$USERI4
 70
     0
  9
$USERI5
 70
     0
  9
$USERR1
 40
0.0
  9
$USERR2
 40
0.0
  9
$USERR3
 40
0.0
  9
$USERR4
 40
0.0
  9
$USERR5
 40
0.0
  9
$WORLDVIEW
 70
     1
  9
$SHADEDGE
 70
     3
  9
$SHADEDIF
 70
    70
  9
$TILEMODE
 70
     1
  9
$MAXACTVP
 70
    64
  9
$PINSBASE
 10
0.0
 20
0.0
 30
0.0
  9
$PLIMCHECK
 70
     0
  9
$PEXTMIN
 10
1.000000000000000E+20
 20
1.000000000000000E+20
 30
1.000000000000000E+20
  9
$PEXTMAX
 10
-1.000000000000000E+20
 20
-1.000000000000000E+20
 30
-1.000000000000000E+20
  9
$PLIMMIN
 10
0.0
 20
0.0
  9
$PLIMMAX
 10
420.0
 20
297.0
  9
$UNITMODE
 70
     0
  9
$VISRETAIN
 70
     1
  9
$PLINEGEN
 70
     0
  9
$PSLTSCALE
 70
     1
  9
$TREEDEPTH
 70
  3020
  9
$CMLSTYLE
  2
Standard
  9
$CMLJUST
 70
     0
  9
$CMLSCALE
 40
20.0
  9
$PROXYGRAPHICS
 70
     1
  9
$MEASUREMENT
 70
     1
  9
$CELWEIGHT
370
    -1
  9
$ENDCAPS
280
     0
  9
$JOINSTYLE
280
     0
  9
$LWDISPLAY
290
     0
  9
$INSUNITS
 70
     4
  9
$HYPERLINKBASE
  1

  9
$STYLESHEET
  1

  9
$XEDIT
290
     1
  9
$CEPSNTYPE
380
     0
  9
$PSTYLEMODE
290
     1
  9
$FINGERPRINTGUID
  2
{13512249-CDC7-4C4E-9E17-ED667359826C}
  9
$VERSIONGUID
  2
{FAEB1C32-E019-11D5-929B-00C0DF256EC4}
  9
$EXTNAMES
290
     1
  9
$PSVPSCALE
 40
0.0
  9
$OLESTARTUP
290
     0
  9
$SORTENTS
280
   127
  9
$INDEXCTL
280
     0
  9
$HIDETEXT
280
     1
  9
$XCLIPFRAME
280
     2
  9
$HALOGAP
280
     0
  9
$OBSCOLOR
 70
   257
  9
$OBSLTYPE
280
     0
  9
$INTERSECTIONDISPLAY
280
     0
  9
$INTERSECTIONCOLOR
 70
   257
  9
$DIMASSOC
280
     2
  9
$PROJECTNAME
  1

  9
$CAMERADISPLAY
290
     0
  9
$LENSLENGTH
 40
50.0
  9
$CAMERAHEIGHT
 40
0.0
  9
$STEPSPERSEC
 40
2.0
  9
$STEPSIZE
 40
6.0
  9
$3DDWFPREC
 40
2.0
  9
$PSOLWIDTH
 40
5.0
  9
$PSOLHEIGHT
 40
80.0
  9
$LOFTANG1
 40
1.570796326794897
  9
$LOFTANG2
 40
1.570796326794897
  9
$LOFTMAG1
 40
0.0
  9
$LOFTMAG2
 40
0.0
  9
$LOFTPARAM
 70
     7
  9
$LOFTNORMALS
280
     1
  9
$LATITUDE
 40
37.795
  9
$LONGITUDE
 40
-122.394
  9
$NORTHDIRECTION
 40
0.0
  9
$TIMEZONE
 70
 -8000
  9
$LIGHTGLYPHDISPLAY
280
     1
  9
$TILEMODELIGHTSYNCH
280
     1
  9
$SOLIDHIST
280
     1
  9
$SHOWHIST
280
     1
  9
$DWFFRAME
280
     2
  9
$DGNFRAME
280
     2
  9
$REALWORLDSCALE
290
     1
  9
$INTERFERECOLOR
 62
   256
  9
$CSHADOW
280
     0
  9
$SHADOWPLANELOCATION
 40
0.0
  0
ENDSEC
  0
SECTION
  2
CLASSES
  0
CLASS
  1
ACDBDICTIONARYWDFLT
  2
AcDbDictionaryWithDefault
  3
ObjectDBX Classes
 90
        0
 91
        4
280
     0
281
     0
  0
CLASS
  1
VISUALSTYLE
  2
AcDbVisualStyle
  3
ObjectDBX Classes
 90
     4095
 91
        4
280
     0
281
     0
  0
CLASS
  1
MATERIAL
  2
AcDbMaterial
  3
ObjectDBX Classes
 90
     1153
 91
        4
280
     0
281
     0
  0
ENDSEC
  0
SECTION
  2
TABLES
  0
TABLE
  2
VPORT
  5
8
330
0
100
AcDbSymbolTable
 70
     1
  0
VPORT
  5
29
330
8
100
AcDbSymbolTableRecord
100
AcDbViewportTableRecord
  2
*Active
 70
     0
 10
0.0
 20
0.0
 11
1.0
 21
1.0
 12
0.0
 22
0.0
 13
0.0
 23
0.0
 14
10.0
 24
10.0
 15
10.0
 25
10.0
 16
0.0
 26
0.0
 36
1.0
 17
0.0
 27
0.0
 37
0.0
 40
9801.0
 41
1.414141414141414
 42
50.0
 43
0.0
 44
0.0
 50
0.0
 51
0.0
 71
     0
 72
 10000
 73
     1
 74
     3
 75
     0
 76
     0
 77
     0
 78
     0
281
     0
 65
     1
110
0.0
120
0.0
130
0.0
111
1.0
121
0.0
131
0.0
112
0.0
122
1.0
132
0.0
 79
     0
146
0.0
 60
     3
 61
     5
292
     1
282
     1
141
0.0
142
0.0
 63
   250
  0
ENDTAB
  0
TABLE
  2
LTYPE
  5
5
330
0
100
AcDbSymbolTable
 70
     5
  0
LTYPE
  5
14
330
5
100
AcDbSymbolTableRecord
100
AcDbLinetypeTableRecord
  2
ByBlock
 70
     0
  3

 72
    65
 73
     0
 40
0.0
  0
LTYPE
  5
15
330
5
100
AcDbSymbolTableRecord
100
AcDbLinetypeTableRecord
  2
ByLayer
 70
     0
  3

 72
    65
 73
     0
 40
0.0
  0
LTYPE
  5
16
330
5
100
AcDbSymbolTableRecord
100
AcDbLinetypeTableRecord
  2
Continuous
 70
     0
  3
Solid line
 72
    65
 73
     0
 40
0.0
  0
LTYPE
  5
3F
330
5
100
AcDbSymbolTableRecord
100
AcDbLinetypeTableRecord
  2
JWW_HOJO
 70
     0
  3
  -   -   -   -   -   -   -   - 
 72
    65
 73
     2
 40
1.693333333333333
 49
-1.27
 74
     0
 49
0.4233333333333333
 74
     0
  0
LTYPE
  5
40
330
5
100
AcDbSymbolTableRecord
100
AcDbLinetypeTableRecord
  2
JWW_DASHED1
 70
     0
  3
-  --  --  --  --  --  --  --  -
 72
    65
 73
     2
 40
1.693333333333333
 49
0.8466666666666667
 74
     0
 49
-0.8466666666666667
 74
     0
  0
LTYPE
  5
41
330
5
100
AcDbSymbolTableRecord
100
AcDbLinetypeTableRecord
  2
JWW_CENTER1
 70
     0
  3
-----  --  ----------  --  -----
 72
    65
 73
     4
 40
6.773333333333333
 49
4.233333333333333
 74
     0
 49
-0.8466666666666667
 74
     0
 49
0.8466666666666667
 74
     0
 49
-0.8466666666666667
 74
     0
  0
LTYPE
  5
42
330
5
100
AcDbSymbolTableRecord
100
AcDbLinetypeTableRecord
  2
JWW_DASHED3
 70
     0
  3
---  ------  ------  ------  ---
 72
    65
 73
     2
 40
3.386666666666667
 49
2.54
 74
     0
 49
-0.8466666666666667
 74
     0
  0
ENDTAB
  0
TABLE
  2
LAYER
  5
2
330
0
100
AcDbSymbolTable
 70
    19
  0
LAYER
  5
10
330
2
100
AcDbSymbolTableRecord
100
AcDbLayerTableRecord
  2
0
 70
     0
 62
     7
  6
Continuous
370
    -3
390
F
347
3E
  0
LAYER
  5
43
330
2
100
AcDbSymbolTableRecord
100
AcDbLayerTableRecord
  2
F-0_補助線
 70
     0
 62
     7
  6
Continuous
370
    -3
390
F
347
3E
  0
LAYER
  5
44
330
2
100
AcDbSymbolTableRecord
100
AcDbLayerTableRecord
  2
F-1_枠
 70
     0
 62
     7
  6
Continuous
370
    -3
390
F
347
3E
  0
LAYER
  5
45
330
2
100
AcDbSymbolTableRecord
100
AcDbLayerTableRecord
  2
F-A_文字
 70
     0
 62
     7
  6
Continuous
370
    -3
390
F
347
3E
  0
LAYER
  5
46
330
2
100
AcDbSymbolTableRecord
100
AcDbLayerTableRecord
  2
0-A_文字
 70
     0
 62
     7
  6
Continuous
370
    -3
390
F
347
3E
  0
LAYER
  5
47
330
2
100
AcDbSymbolTableRecord
100
AcDbLayerTableRecord
  2
0-0_補助線
 70
     0
 62
     7
  6
Continuous
370
    -3
390
F
347
3E
  0
LAYER
  5
48
330
2
100
AcDbSymbolTableRecord
100
AcDbLayerTableRecord
  2
0-3_仕上げ
 70
     0
 62
     7
  6
Continuous
370
    -3
390
F
347
3E
  0
LAYER
  5
49
330
2
100
AcDbSymbolTableRecord
100
AcDbLayerTableRecord
  2
0-C_ハッチ
 70
     0
 62
     7
  6
Continuous
370
    -3
390
F
347
3E
  0
LAYER
  5
4A
330
2
100
AcDbSymbolTableRecord
100
AcDbLayerTableRecord
  2
0-1_通り芯
 70
     0
 62
     7
  6
Continuous
370
    -3
390
F
347
3E
  0
LAYER
  5
4B
330
2
100
AcDbSymbolTableRecord
100
AcDbLayerTableRecord
  2
0-B_寸法
 70
     0
 62
     7
  6
Continuous
370
    -3
390
F
347
3E
  0
LAYER
  5
4C
330
2
100
AcDbSymbolTableRecord
100
AcDbLayerTableRecord
  2
0-4_枠
 70
     0
 62
     7
  6
Continuous
370
    -3
390
F
347
3E
  0
LAYER
  5
4D
330
2
100
AcDbSymbolTableRecord
100
AcDbLayerTableRecord
  2
0-7_金物
 70
     0
 62
     7
  6
Continuous
370
    -3
390
F
347
3E
  0
LAYER
  5
4E
330
2
100
AcDbSymbolTableRecord
100
AcDbLayerTableRecord
  2
1-B_寸法
 70
     0
 62
     7
  6
Continuous
370
    -3
390
F
347
3E
  0
LAYER
  5
4F
330
2
100
AcDbSymbolTableRecord
100
AcDbLayerTableRecord
  2
1-4_枠
 70
     0
 62
     7
  6
Continuous
370
    -3
390
F
347
3E
  0
LAYER
  5
50
330
2
100
AcDbSymbolTableRecord
100
AcDbLayerTableRecord
  2
1-1_通り芯
 70
     0
 62
     7
  6
Continuous
370
    -3
390
F
347
3E
  0
LAYER
  5
51
330
2
100
AcDbSymbolTableRecord
100
AcDbLayerTableRecord
  2
1-7_金物
 70
     0
 62
     7
  6
Continuous
370
    -3
390
F
347
3E
  0
LAYER
  5
52
330
2
100
AcDbSymbolTableRecord
100
AcDbLayerTableRecord
  2
1-0_補助線
 70
     0
 62
     7
  6
Continuous
370
    -3
390
F
347
3E
  0
LAYER
  5
53
330
2
100
AcDbSymbolTableRecord
100
AcDbLayerTableRecord
  2
1-A_文字
 70
     0
 62
     7
  6
Continuous
370
    -3
390
F
347
3E
  0
LAYER
  5
54
330
2
100
AcDbSymbolTableRecord
100
AcDbLayerTableRecord
  2
0-6_扉
 70
     0
 62
     7
  6
Continuous
370
    -3
390
F
347
3E
  0
ENDTAB
  0
TABLE
  2
STYLE
  5
3
330
0
100
AcDbSymbolTable
 70
     1
  0
STYLE
  5
11
330
3
100
AcDbSymbolTableRecord
100
AcDbTextStyleTableRecord
  2
Standard
 70
     0
 40
0.0
 41
1.0
 50
0.0
 71
     0
 42
2.5
  3
txt
  4

  0
ENDTAB
  0
TABLE
  2
VIEW
  5
6
330
0
100
AcDbSymbolTable
 70
     0
  0
ENDTAB
  0
TABLE
  2
UCS
  5
7
330
0
100
AcDbSymbolTable
 70
     0
  0
ENDTAB
  0
TABLE
  2
APPID
  5
9
330
0
100
AcDbSymbolTable
 70
     1
  0
APPID
  5
12
330
9
100
AcDbSymbolTableRecord
100
AcDbRegAppTableRecord
  2
ACAD
 70
     0
  0
ENDTAB
  0
TABLE
  2
DIMSTYLE
  5
A
330
0
100
AcDbSymbolTable
 70
     1
100
AcDbDimStyleTable
  0
DIMSTYLE
105
27
330
A
100
AcDbSymbolTableRecord
100
AcDbDimStyleTableRecord
  2
ISO-25
 70
     0
 41
2.5
 42
0.625
 43
3.75
 44
1.25
 73
     0
 74
     0
 77
     1
 78
     8
140
2.5
141
2.5
143
0.03937007874016
147
0.625
171
     3
172
     1
178
     0
271
     2
272
     2
274
     3
278
    44
283
     0
284
     8
340
11
  0
ENDTAB
  0
TABLE
  2
BLOCK_RECORD
  5
1
330
0
100
AcDbSymbolTable
 70
     1
  0
BLOCK_RECORD
  5
1F
330
1
100
AcDbSymbolTableRecord
100
AcDbBlockTableRecord
  2
*Model_Space
340
22
 70
     0
280
     1
281
     0
  0
BLOCK_RECORD
  5
1B
330
1
100
AcDbSymbolTableRecord
100
AcDbBlockTableRecord
  2
*Paper_Space
340
1E
 70
     0
280
     1
281
     0
  0
BLOCK_RECORD
  5
23
330
1
100
AcDbSymbolTableRecord
100
AcDbBlockTableRecord
  2
*Paper_Space0
340
26
 70
     0
280
     1
281
     0
  0
ENDTAB
  0
ENDSEC
  0
SECTION
  2
BLOCKS
  0
BLOCK
  5
20
330
1F
100
AcDbEntity
  8
0
100
AcDbBlockBegin
  2
*Model_Space
 70
     0
 10
0.0
 20
0.0
 30
0.0
  3
*Model_Space
  1

  0
ENDBLK
  5
21
330
1F
100
AcDbEntity
  8
0
100
AcDbBlockEnd
  0
BLOCK
  5
1C
330
1B
100
AcDbEntity
 67
     1
  8
0
100
AcDbBlockBegin
  2
*Paper_Space
 70
     0
 10
0.0
 20
0.0
 30
0.0
  3
*Paper_Space
  1

  0
ENDBLK
  5
1D
330
1B
100
AcDbEntity
 67
     1
  8
0
100
AcDbBlockEnd
  0
BLOCK
  5
24
330
23
100
AcDbEntity
  8
0
100
AcDbBlockBegin
  2
*Paper_Space0
 70
     0
 10
0.0
 20
0.0
 30
0.0
  3
*Paper_Space0
  1

  0
ENDBLK
  5
25
330
23
100
AcDbEntity
  8
0
100
AcDbBlockEnd
  0
ENDSEC
  0
SECTION
  2
ENTITIES
  0
LINE
  5
55
330
1F
100
AcDbEntity
  8
F-0_補助線
  6
JWW_HOJO
 62
   120
370
     5
100
AcDbLine
 10
-6140.081333436773
 20
-4455.0
 30
0.0
 11
-6140.081333436773
 21
4424.999604096284
 31
0.0
  0
LINE
  5
56
330
1F
100
AcDbEntity
  8
F-0_補助線
  6
JWW_HOJO
 62
   120
370
     5
100
AcDbLine
 10
-6140.081333436773
 20
4424.999604096284
 30
0.0
 11
6159.917676803936
 21
4424.999604096284
 31
0.0
  0
LINE
  5
57
330
1F
100
AcDbEntity
  8
F-0_補助線
  6
JWW_HOJO
 62
   120
370
     5
100
AcDbLine
 10
6159.917676803936
 20
4424.999604096284
 30
0.0
 11
6159.917676803936
 21
-4455.0
 31
0.0
  0
LINE
  5
58
330
1F
100
AcDbEntity
  8
F-0_補助線
  6
JWW_HOJO
 62
   120
370
     5
100
AcDbLine
 10
6159.917676803936
 20
-4455.0
 30
0.0
 11
-6140.081333436773
 21
-4455.0
 31
0.0
  0
LINE
  5
59
330
1F
100
AcDbEntity
  8
F-0_補助線
  6
JWW_HOJO
 62
     7
370
     9
100
AcDbLine
 10
1009.918254163523
 20
-3795.000003092998
 30
0.0
 11
1009.918254163523
 21
-4195.000008247994
 31
0.0
  0
LINE
  5
5A
330
1F
100
AcDbEntity
  8
F-0_補助線
  6
JWW_HOJO
 62
     7
370
     9
100
AcDbLine
 10
509.9185840832865
 20
-3795.000003092998
 30
0.0
 11
509.9185840832865
 21
-4195.000008247994
 31
0.0
  0
LINE
  5
5B
330
1F
100
AcDbEntity
  8
F-1_枠
  6
Continuous
 62
   200
370
    20
100
AcDbLine
 10
5859.917429364114
 20
4174.999769056166
 30
0.0
 11
5859.917429364114
 21
-4205.000164959882
 31
0.0
  0
LINE
  5
5C
330
1F
100
AcDbEntity
  8
F-1_枠
  6
Continuous
 62
   200
370
    20
100
AcDbLine
 10
-5840.081317971782
 20
4174.999769056166
 30
0.0
 11
-5840.081317971782
 21
-4205.000164959882
 31
0.0
  0
LINE
  5
5D
330
1F
100
AcDbEntity
  8
F-1_枠
  6
Continuous
 62
   200
370
    20
100
AcDbLine
 10
5859.917429364114
 20
-4205.000002577498
 30
0.0
 11
-5840.081085996952
 21
-4205.000002577498
 31
0.0
  0
LINE
  5
5E
330
1F
100
AcDbEntity
  8
F-1_枠
  6
Continuous
 62
   200
370
    20
100
AcDbLine
 10
-5830.081323642279
 20
4174.999769056166
 30
0.0
 11
-5830.081323642279
 21
-4205.000164959882
 31
0.0
  0
LINE
  5
5F
330
1F
100
AcDbEntity
  8
F-1_枠
  6
Continuous
 62
   200
370
    20
100
AcDbLine
 10
-5835.081309208291
 20
4174.999769056166
 30
0.0
 11
-5835.081309208291
 21
-4205.000164959882
 31
0.0
  0
LINE
  5
60
330
1F
100
AcDbEntity
  8
F-1_枠
  6
Continuous
 62
   200
370
    20
100
AcDbLine
 10
5854.917165428304
 20
4174.999769056166
 30
0.0
 11
5854.917165428304
 21
-4205.000164959882
 31
0.0
  0
LINE
  5
61
330
1F
100
AcDbEntity
  8
F-1_枠
  6
Continuous
 62
   200
370
    20
100
AcDbLine
 10
5849.917643811961
 20
4174.999769056166
 30
0.0
 11
5849.917643811961
 21
-4205.000164959882
 31
0.0
  0
LINE
  5
62
330
1F
100
AcDbEntity
  8
F-1_枠
  6
Continuous
 62
   200
370
    20
100
AcDbLine
 10
5859.917429364114
 20
-4199.999993814004
 30
0.0
 11
-5840.081085996952
 21
-4199.999993814004
 31
0.0
  0
LINE
  5
63
330
1F
100
AcDbEntity
  8
F-1_枠
  6
Continuous
 62
   200
370
    20
100
AcDbLine
 10
5859.917429364114
 20
-4195.000008247994
 30
0.0
 11
-5840.081085996952
 21
-4195.000008247994
 31
0.0
  0
LINE
  5
64
330
1F
100
AcDbEntity
  8
F-1_枠
  6
Continuous
 62
   200
370
    20
100
AcDbLine
 10
4349.917891251784
 20
-3795.000003092998
 30
0.0
 11
4349.917891251784
 21
-4195.000008247994
 31
0.0
  0
LINE
  5
65
330
1F
100
AcDbEntity
  8
F-1_枠
  6
Continuous
 62
   200
370
    20
100
AcDbLine
 10
2849.917396372139
 20
-3795.000003092998
 30
0.0
 11
2849.917396372139
 21
-4195.000008247994
 31
0.0
  0
LINE
  5
66
330
1F
100
AcDbEntity
  8
F-1_枠
  6
Continuous
 62
   200
370
    20
100
AcDbLine
 10
9.918542843316231
 20
-3795.000003092998
 30
0.0
 11
9.918542843316231
 21
-4195.000008247994
 31
0.0
  0
LINE
  5
67
330
1F
100
AcDbEntity
  8
F-1_枠
  6
Continuous
 62
   200
370
    20
100
AcDbLine
 10
9.918542843316231
 20
-3994.999936078046
 30
0.0
 11
5849.917643811961
 21
-3995.005364289155
 31
0.0
  0
LINE
  5
68
330
1F
100
AcDbEntity
  8
F-1_枠
  6
Continuous
 62
   200
370
    20
100
AcDbLine
 10
-5840.081085996952
 20
4174.999769056166
 30
0.0
 11
5859.917429364114
 21
4174.999769056166
 31
0.0
  0
LINE
  5
69
330
1F
100
AcDbEntity
  8
F-1_枠
  6
Continuous
 62
   200
370
    20
100
AcDbLine
 10
-5840.081085996952
 20
4169.999505120355
 30
0.0
 11
5859.917429364114
 21
4169.999505120355
 31
0.0
  0
LINE
  5
6A
330
1F
100
AcDbEntity
  8
F-0_補助線
  6
JWW_HOJO
 62
     7
370
     9
100
AcDbLine
 10
-5830.081323642279
 20
-3994.99993607839
 30
0.0
 11
9.918542843316231
 21
-3994.99993607839
 31
0.0
  0
LINE
  5
6B
330
1F
100
AcDbEntity
  8
F-0_補助線
  6
JWW_HOJO
 62
     7
370
     9
100
AcDbLine
 10
-5830.081323642279
 20
-3904.99993607839
 30
0.0
 11
9.918542843316231
 21
-3904.99993607839
 31
0.0
  0
LINE
  5
6C
330
1F
100
AcDbEntity
  8
F-0_補助線
  6
JWW_HOJO
 62
     7
370
     9
100
AcDbLine
 10
-5830.081323642279
 20
-4084.99993607839
 30
0.0
 11
9.918542843316231
 21
-4084.99993607839
 31
0.0
  0
LINE
  5
6D
330
1F
100
AcDbEntity
  8
F-0_補助線
  6
JWW_HOJO
 62
     7
370
     9
100
AcDbLine
 10
9.918408067688347
 20
-4139.999739777983
 30
0.0
 11
5849.917509036332
 21
-4140.005167989091
 31
0.0
  0
LINE
  5
6E
330
1F
100
AcDbEntity
  8
F-0_補助線
  6
JWW_HOJO
 62
     7
370
     9
100
AcDbLine
 10
9.918491721639953
 20
-4049.999739778022
 30
0.0
 11
5849.917592690284
 21
-4050.005167989131
 31
0.0
  0
LINE
  5
6F
330
1F
100
AcDbEntity
  8
F-0_補助線
  6
JWW_HOJO
 62
     7
370
     9
100
AcDbLine
 10
9.918593965360003
 20
-3939.99973721807
 30
0.0
 11
5849.917694934004
 21
-3940.005165429179
 31
0.0
  0
LINE
  5
70
330
1F
100
AcDbEntity
  8
F-0_補助線
  6
JWW_HOJO
 62
     7
370
     9
100
AcDbLine
 10
9.918677619311609
 20
-3849.999737218109
 30
0.0
 11
5849.917778587956
 21
-3850.005165429218
 31
0.0
  0
LINE
  5
71
330
1F
100
AcDbEntity
  8
F-0_補助線
  6
JWW_HOJO
 62
     7
370
     9
100
AcDbLine
 10
2939.917396372139
 20
-3795.000003092998
 30
0.0
 11
2939.917396372139
 21
-4195.000008247994
 31
0.0
  0
LINE
  5
72
330
1F
100
AcDbEntity
  8
F-0_補助線
  6
JWW_HOJO
 62
     7
370
     9
100
AcDbLine
 10
99.91854284331623
 20
-3795.000003092998
 30
0.0
 11
99.91854284331623
 21
-4195.000008247994
 31
0.0
  0
LINE
  5
73
330
1F
100
AcDbEntity
  8
F-0_補助線
  6
JWW_HOJO
 62
     7
370
     9
100
AcDbLine
 10
4439.917891251784
 20
-3795.000003092998
 30
0.0
 11
4439.917891251784
 21
-4195.000008247994
 31
0.0
  0
LINE
  5
74
330
1F
100
AcDbEntity
  8
F-1_枠
  6
Continuous
 62
   200
370
    20
100
AcDbLine
 10
5859.917429364114
 20
-3795.000003092998
 30
0.0
 11
-5840.081085996952
 21
-3795.000003092998
 31
0.0
  0
LINE
  5
75
330
1F
100
AcDbEntity
  8
F-1_枠
  6
Continuous
 62
   200
370
    20
100
AcDbLine
 10
5859.917429364114
 20
-3790.000017526987
 30
0.0
 11
-5840.081085996952
 21
-3790.000017526987
 31
0.0
  0
LINE
  5
76
330
1F
100
AcDbEntity
  8
F-0_補助線
  6
JWW_HOJO
 62
     7
370
     9
100
AcDbLine
 10
-5087.628710189611
 20
-3795.000003092999
 30
0.0
 11
-5087.628710189611
 21
-4205.000164959882
 31
0.0
  0
LINE
  5
77
330
1F
100
AcDbEntity
  8
F-0_補助線
  6
JWW_HOJO
 62
     7
370
     9
100
AcDbLine
 10
-50.08145715668377
 20
-3795.000003092998
 30
0.0
 11
-50.08145715668377
 21
-4195.000008247994
 31
0.0
  0
MTEXT
  5
78
330
1F
100
AcDbEntity
  8
F-0_補助線
  6
Continuous
 62
     7
370
     0
100
AcDbMText
 10
509.9185840832865
 20
-3946.496666872503
 30
0.0
 40
78.58125
 41
412.5
 46
0.0
 71
     7
 72
     1
  1
{\fＭＳ ゴシック|b0|i0|c128|p49;DOORETUS}
 73
     1
 44
1.0
  0
MTEXT
  5
79
330
1F
100
AcDbEntity
  8
F-0_補助線
  6
Continuous
 62
     7
370
     0
100
AcDbMText
 10
1110.209427605311
 20
-3946.734791872504
 30
0.0
 40
78.105
 41
615.0
 46
0.0
 71
     7
 72
     1
  1
{\fＭＳ ゴシック|b0|i0|c128|p49;建具納まり図}
 73
     1
 44
1.0
  0
MTEXT
  5
7A
330
1F
100
AcDbEntity
  8
F-A_文字
  6
Continuous
 62
     7
370
     0
100
AcDbMText
 10
99.91854284331623
 20
-3887.139820871936
 30
0.0
 40
45.72
 41
180.0
 46
0.0
 71
     7
 72
     1
  1
{\fＭＳ ゴシック|b0|i0|c128|p49;図面名}
 73
     1
 44
1.0
  0
MTEXT
  5
7B
330
1F
100
AcDbEntity
  8
F-A_文字
  6
Continuous
 62
     7
370
     0
100
AcDbMText
 10
2939.917396372139
 20
-3887.142460617774
 30
0.0
 40
45.72
 41
300.0
 46
0.0
 71
     7
 72
     1
  1
{\fＭＳ ゴシック|b0|i0|c128|p49;ＳＣＡＬＥ}
 73
     1
 44
1.0
  0
MTEXT
  5
7C
330
1F
100
AcDbEntity
  8
F-A_文字
  6
Continuous
 62
     7
370
     0
100
AcDbMText
 10
4439.917891251784
 20
-3887.143854850754
 30
0.0
 40
45.72
 41
240.0
 46
0.0
 71
     7
 72
     1
  1
{\fＭＳ ゴシック|b0|i0|c128|p49;ＤＡＴＥ}
 73
     1
 44
1.0
  0
MTEXT
  5
7D
330
1F
100
AcDbEntity
  8
F-A_文字
  6
Continuous
 62
     7
370
     0
100
AcDbMText
 10
3569.917643811961
 20
-3946.903115907308
 30
0.0
 40
76.19999999999999
 41
150.0
 46
0.0
 71
     7
 72
     1
  1
{\fＭＳ ゴシック|b0|i0|c128|p49;1/5}
 73
     1
 44
1.0
  0
MTEXT
  5
7E
330
1F
100
AcDbEntity
  8
F-A_文字
  6
Continuous
 62
     7
370
     0
100
AcDbMText
 10
2939.917396372139
 20
-4087.14246317786
 30
0.0
 40
45.72
 41
240.0
 46
0.0
 71
     7
 72
     1
  1
{\fＭＳ ゴシック|b0|i0|c128|p49;ＦＩＬＥ}
 73
     1
 44
1.0
  0
MTEXT
  5
7F
330
1F
100
AcDbEntity
  8
F-A_文字
  6
Continuous
 62
     7
370
     0
100
AcDbMText
 10
4439.917891251784
 20
-4087.143857410839
 30
0.0
 40
45.72
 41
180.0
 46
0.0
 71
     7
 72
     1
  1
{\fＭＳ ゴシック|b0|i0|c128|p49;ＮＯ．}
 73
     1
 44
1.0
  0
MTEXT
  5
80
330
1F
100
AcDbEntity
  8
F-A_文字
  6
Continuous
 62
     7
370
     0
100
AcDbMText
 10
1394.917396372138
 20
-4096.140669266149
 30
0.0
 40
45.72
 41
120.0
 46
0.0
 71
     7
 72
     1
  1
{\fＭＳ ゴシック|b0|i0|c128|p49;株式}
 73
     1
 44
1.0
  0
MTEXT
  5
81
330
1F
100
AcDbEntity
  8
F-A_文字
  6
Continuous
 62
     7
370
     0
100
AcDbMText
 10
1604.917396372138
 20
-4164.281754523929
 30
0.0
 40
101.44125
 41
1065.0
 46
0.0
 71
     7
 72
     1
  1
{\fＭＳ ゴシック|b0|i0|c128|p49;ウッドワン・・・}
 73
     1
 44
1.0
  0
MTEXT
  5
82
330
1F
100
AcDbEntity
  8
F-A_文字
  6
Continuous
 62
     7
370
     0
100
AcDbMText
 10
1394.917396372138
 20
-4168.140669266187
 30
0.0
 40
45.72
 41
120.0
 46
0.0
 71
     7
 72
     1
  1
{\fＭＳ ゴシック|b0|i0|c128|p49;会社}
 73
     1
 44
1.0
  0
LINE
  5
83
330
1F
100
AcDbEntity
  8
F-1_枠
  6
Continuous
 62
   200
370
    20
100
AcDbLine
 10
-5840.081085996952
 20
4164.999241184543
 30
0.0
 11
5859.917429364114
 21
4164.999241184543
 31
0.0
  0
LINE
  5
84
330
1F
100
AcDbEntity
  8
0-A_文字
  6
Continuous
 62
    92
370
    13
100
AcDbLine
 10
-5659.999495325867
 20
3729.999439136402
 30
0.0
 11
-5659.999495325867
 21
3999.999439136402
 31
0.0
  0
LINE
  5
85
330
1F
100
AcDbEntity
  8
0-0_補助線
  6
JWW_HOJO
 62
   120
370
     5
100
AcDbLine
 10
1215.11202267813
 20
2318.306279299253
 30
0.0
 11
2757.112022678131
 21
2318.306279299253
 31
0.0
  0
LINE
  5
86
330
1F
100
AcDbEntity
  8
0-0_補助線
  6
JWW_HOJO
 62
   120
370
     5
100
AcDbLine
 10
1977.112022678131
 20
2318.306279299253
 30
0.0
 11
1977.112022678131
 21
-909.6941289764515
 31
0.0
  0
LINE
  5
87
330
1F
100
AcDbEntity
  8
0-0_補助線
  6
JWW_HOJO
 62
   120
370
     5
100
AcDbLine
 10
2337.112022678131
 20
2318.306279299253
 30
0.0
 11
2337.112022678131
 21
-909.6941289764515
 31
0.0
  0
LINE
  5
88
330
1F
100
AcDbEntity
  8
0-0_補助線
  6
JWW_HOJO
 62
   120
370
     5
100
AcDbLine
 10
2547.112022678131
 20
2318.306279299253
 30
0.0
 11
2547.112022678131
 21
-909.6941289764515
 31
0.0
  0
LINE
  5
89
330
1F
100
AcDbEntity
  8
0-3_仕上げ
  6
Continuous
 62
    40
370
    15
100
AcDbLine
 10
1482.11202267813
 20
2318.306279299253
 30
0.0
 11
1482.11202267813
 21
2018.306279299253
 31
0.0
  0
LINE
  5
8A
330
1F
100
AcDbEntity
  8
0-3_仕上げ
  6
Continuous
 62
    40
370
    15
100
AcDbLine
 10
1407.11202267813
 20
2318.306279299253
 30
0.0
 11
1407.11202267813
 21
2018.306279299253
 31
0.0
  0
LINE
  5
8B
330
1F
100
AcDbEntity
  8
0-C_ハッチ
  6
JWW_DASHED1
 62
   120
370
     5
100
AcDbLine
 10
1407.11202267813
 20
2283.983603316123
 30
0.0
 11
1441.43469866126
 21
2318.306279299253
 31
0.0
  0
LINE
  5
8C
330
1F
100
AcDbEntity
  8
0-1_通り芯
  6
JWW_CENTER1
 62
   120
370
     5
100
AcDbLine
 10
1620.11202267813
 20
2318.306279299253
 30
0.0
 11
1620.11202267813
 21
-981.6941067068688
 31
0.0
  0
LINE
  5
8D
330
1F
100
AcDbEntity
  8
0-0_補助線
  6
JWW_HOJO
 62
   120
370
     5
100
AcDbLine
 10
2757.112022678131
 20
2318.306279299253
 30
0.0
 11
2757.112022678131
 21
-909.6941289764515
 31
0.0
  0
LINE
  5
8E
330
1F
100
AcDbEntity
  8
0-0_補助線
  6
JWW_HOJO
 62
   120
370
     5
100
AcDbLine
 10
1215.11202267813
 20
2318.306279299253
 30
0.0
 11
1215.11202267813
 21
-909.6941289764515
 31
0.0
  0
MTEXT
  5
8F
330
1F
100
AcDbEntity
  8
0-A_文字
  6
Continuous
 62
     7
370
     9
100
AcDbMText
 10
1215.11202267813
 20
2507.177901103137
 30
0.0
 40
91.44
 41
600.0
 46
0.0
 71
     7
 72
     1
  1
{\fＭＳ ゴシック|b0|i0|c128|p49;■縦断面図}
 73
     1
 44
1.0
  0
MTEXT
  5
90
330
1F
100
AcDbEntity
  8
0-B_寸法
  6
Continuous
 62
     7
370
   211
100
AcDbMText
 10
1556.284153906547
 20
1445.883779299253
 30
0.0
 40
97.15499999999999
 41
127.5
 46
0.0
 71
     7
 72
     1
  1
{\fＭＳ ゴシック|b0|i0|c128|p49;77}
 73
     1
 44
1.0
  0
MTEXT
  5
91
330
1F
100
AcDbEntity
  8
0-B_寸法
  6
Continuous
 62
     7
370
   211
100
AcDbMText
 10
2322.112022678131
 20
1539.836370851988
 30
0.0
 40
99.06
 41
195.0
 46
0.0
 71
     7
 72
     1
  1
{\fＭＳ ゴシック|b0|i0|c128|p49;7.5}
 11
6.123031769111886E-17
 21
1.0
 31
0.0
 73
     1
 44
1.0
  0
MTEXT
  5
92
330
1F
100
AcDbEntity
  8
0-B_寸法
  6
Continuous
 62
     7
370
   211
100
AcDbMText
 10
2532.112022678131
 20
1835.133779299253
 30
0.0
 40
97.15499999999999
 41
127.5
 46
0.0
 71
     7
 72
     1
  1
{\fＭＳ ゴシック|b0|i0|c128|p49;36}
 11
6.123031769111886E-17
 21
1.0
 31
0.0
 73
     1
 44
1.0
  0
LINE
  5
93
330
1F
100
AcDbEntity
  8
0-4_枠
  6
Continuous
 62
    92
370
    13
100
AcDbLine
 10
1389.112022678131
 20
2018.306279299253
 30
0.0
 11
1851.112022678131
 21
2018.306279299253
 31
0.0
  0
LINE
  5
94
330
1F
100
AcDbEntity
  8
0-4_枠
  6
Continuous
 62
    92
370
    13
100
AcDbLine
 10
1851.112022678131
 20
2018.306279299253
 30
0.0
 11
1851.112022678131
 21
1802.306279299255
 31
0.0
  0
LINE
  5
95
330
1F
100
AcDbEntity
  8
0-4_枠
  6
Continuous
 62
    92
370
    13
100
AcDbLine
 10
1389.112022678131
 20
1802.306279299255
 30
0.0
 11
1389.112022678131
 21
2018.306279299253
 31
0.0
  0
LINE
  5
96
330
1F
100
AcDbEntity
  8
0-4_枠
  6
Continuous
 62
    92
370
    13
100
AcDbLine
 10
1704.112022678131
 20
1922.306279299255
 30
0.0
 11
1536.112022678131
 21
1922.306279299255
 31
0.0
  0
LINE
  5
97
330
1F
100
AcDbEntity
  8
0-4_枠
  6
Continuous
 62
    92
370
    13
100
AcDbLine
 10
1536.112022678131
 20
1922.306279299255
 30
0.0
 11
1536.112022678131
 21
1802.306279299255
 31
0.0
  0
LINE
  5
98
330
1F
100
AcDbEntity
  8
0-4_枠
  6
Continuous
 62
    92
370
    13
100
AcDbLine
 10
1536.112022678131
 20
1802.306279299255
 30
0.0
 11
1389.112022678131
 21
1802.306279299255
 31
0.0
  0
LINE
  5
99
330
1F
100
AcDbEntity
  8
0-4_枠
  6
Continuous
 62
    92
370
    13
100
AcDbLine
 10
1704.112022678131
 20
1922.306279299255
 30
0.0
 11
1704.112022678131
 21
1802.306279299255
 31
0.0
  0
LINE
  5
9A
330
1F
100
AcDbEntity
  8
0-4_枠
  6
Continuous
 62
    92
370
    13
100
AcDbLine
 10
1851.112022678131
 20
1802.306279299255
 30
0.0
 11
1704.112022678131
 21
1802.306279299255
 31
0.0
  0
LINE
  5
9B
330
1F
100
AcDbEntity
  8
0-7_金物
  6
Continuous
 62
     7
370
     9
100
AcDbLine
 10
1548.112228135341
 20
1910.306553957456
 30
0.0
 11
1548.112228135341
 21
1802.306462404721
 31
0.0
  0
LINE
  5
9C
330
1F
100
AcDbEntity
  8
0-7_金物
  6
Continuous
 62
     7
370
     9
100
AcDbLine
 10
1692.11255572247
 20
1910.306553957456
 30
0.0
 11
1548.112228135341
 21
1910.306553957456
 31
0.0
  0
LINE
  5
9D
330
1F
100
AcDbEntity
  8
0-7_金物
  6
Continuous
 62
     7
370
     9
100
AcDbLine
 10
1692.11255572247
 20
1802.306462404721
 30
0.0
 11
1692.11255572247
 21
1910.306553957456
 31
0.0
  0
LINE
  5
9E
330
1F
100
AcDbEntity
  8
0-7_金物
  6
Continuous
 62
     7
370
     9
100
AcDbLine
 10
1686.291285256622
 20
1815.518712160583
 30
0.0
 11
1686.291285256622
 21
1881.518712160582
 31
0.0
  0
LINE
  5
9F
330
1F
100
AcDbEntity
  8
0-7_金物
  6
Continuous
 62
     7
370
     9
100
AcDbLine
 10
1686.291285256622
 20
1881.518712160582
 30
0.0
 11
1650.112119416473
 21
1881.518712160582
 31
0.0
  0
LINE
  5
A0
330
1F
100
AcDbEntity
  8
0-7_金物
  6
Continuous
 62
     7
370
     9
100
AcDbLine
 10
1650.112119416473
 20
1802.306462404721
 30
0.0
 11
1650.112119416473
 21
1898.306920168393
 31
0.0
  0
LINE
  5
A1
330
1F
100
AcDbEntity
  8
0-7_金物
  6
Continuous
 62
     7
370
     9
100
AcDbLine
 10
1650.112119416473
 20
1898.306920168393
 30
0.0
 11
1590.110431412933
 21
1898.306920168393
 31
0.0
  0
LINE
  5
A2
330
1F
100
AcDbEntity
  8
0-7_金物
  6
Continuous
 62
     7
370
     9
100
AcDbLine
 10
1590.110431412933
 20
1898.306920168393
 30
0.0
 11
1590.110431412933
 21
1802.306462404721
 31
0.0
  0
LINE
  5
A3
330
1F
100
AcDbEntity
  8
0-7_金物
  6
Continuous
 62
     7
370
     9
100
AcDbLine
 10
1554.292037705653
 20
1881.518712160582
 30
0.0
 11
1554.292037705653
 21
1815.518712160583
 31
0.0
  0
LINE
  5
A4
330
1F
100
AcDbEntity
  8
0-7_金物
  6
Continuous
 62
     7
370
     9
100
AcDbLine
 10
1590.110431412933
 20
1881.518712160582
 30
0.0
 11
1554.292037705653
 21
1881.518712160582
 31
0.0
  0
LINE
  5
A5
330
1F
100
AcDbEntity
  8
0-7_金物
  6
Continuous
 62
     7
370
     9
100
AcDbLine
 10
1536.111896256679
 20
1802.306462404721
 30
0.0
 11
1518.112125138514
 21
1802.306462404721
 31
0.0
  0
LINE
  5
A6
330
1F
100
AcDbEntity
  8
0-7_金物
  6
Continuous
 62
     7
370
     9
100
AcDbLine
 10
1555.116012315028
 20
1796.306370851989
 30
0.0
 11
1555.116012315028
 21
1802.306462404721
 31
0.0
  0
LINE
  5
A7
330
1F
100
AcDbEntity
  8
0-7_金物
  6
Continuous
 62
     7
370
     9
100
AcDbLine
 10
1548.112228135341
 20
1802.306462404721
 30
0.0
 11
1555.116012315028
 21
1802.306462404721
 31
0.0
  0
LINE
  5
A8
330
1F
100
AcDbEntity
  8
0-7_金物
  6
Continuous
 62
     7
370
     9
100
AcDbLine
 10
1704.112149099583
 20
1802.306462404721
 30
0.0
 11
1722.110427121399
 21
1802.306462404721
 31
0.0
  0
LINE
  5
A9
330
1F
100
AcDbEntity
  8
0-7_金物
  6
Continuous
 62
     7
370
     9
100
AcDbLine
 10
1684.325625161401
 20
1796.306370851989
 30
0.0
 11
1684.325625161401
 21
1802.306462404721
 31
0.0
  0
LINE
  5
AA
330
1F
100
AcDbEntity
  8
0-7_金物
  6
Continuous
 62
     7
370
     9
100
AcDbLine
 10
1684.325625161401
 20
1802.306462404721
 30
0.0
 11
1692.11255572247
 21
1802.306462404721
 31
0.0
  0
LINE
  5
AB
330
1F
100
AcDbEntity
  8
0-7_金物
  6
Continuous
 62
     7
370
     9
100
AcDbLine
 10
1518.112125138514
 20
1802.306462404721
 30
0.0
 11
1518.112125138514
 21
1796.306370851989
 31
0.0
  0
LINE
  5
AC
330
1F
100
AcDbEntity
  8
0-7_金物
  6
Continuous
 62
     7
370
     9
100
AcDbLine
 10
1722.110427121399
 20
1802.306462404721
 30
0.0
 11
1722.110427121399
 21
1796.306370851989
 31
0.0
  0
LINE
  5
AD
330
1F
100
AcDbEntity
  8
0-7_金物
  6
Continuous
 62
     7
370
     9
100
AcDbLine
 10
1608.111678818933
 20
1757.306370851989
 30
0.0
 11
1632.112359742396
 21
1757.306370851989
 31
0.0
  0
LINE
  5
AE
330
1F
100
AcDbEntity
  8
0-7_金物
  6
Continuous
 62
     7
370
     9
100
AcDbLine
 10
1608.111678818933
 20
1802.306462404721
 30
0.0
 11
1608.111678818933
 21
1757.306370851989
 31
0.0
  0
LINE
  5
AF
330
1F
100
AcDbEntity
  8
0-7_金物
  6
Continuous
 62
     7
370
     9
100
AcDbLine
 10
1632.112359742396
 20
1757.306370851989
 30
0.0
 11
1632.112359742396
 21
1802.306462404721
 31
0.0
  0
LINE
  5
B0
330
1F
100
AcDbEntity
  8
0-7_金物
  6
Continuous
 62
     7
370
     9
100
AcDbLine
 10
1650.112119416473
 20
1815.518712160583
 30
0.0
 11
1686.291285256622
 21
1815.518712160583
 31
0.0
  0
LINE
  5
B1
330
1F
100
AcDbEntity
  8
0-7_金物
  6
Continuous
 62
     7
370
     9
100
AcDbLine
 10
1554.292037705653
 20
1815.518712160583
 30
0.0
 11
1590.110431412933
 21
1815.518712160583
 31
0.0
  0
LINE
  5
B2
330
1F
100
AcDbEntity
  8
0-7_金物
  6
Continuous
 62
     7
370
     9
100
AcDbLine
 10
1590.110431412933
 20
1802.306462404721
 30
0.0
 11
1650.112119416473
 21
1802.306462404721
 31
0.0
  0
LINE
  5
B3
330
1F
100
AcDbEntity
  8
0-7_金物
  6
Continuous
 62
     7
370
     9
100
AcDbLine
 10
1555.116012315028
 20
1796.306370851989
 30
0.0
 11
1518.112125138514
 21
1796.306370851989
 31
0.0
  0
LINE
  5
B4
330
1F
100
AcDbEntity
  8
0-7_金物
  6
Continuous
 62
     7
370
     9
100
AcDbLine
 10
1704.112149099583
 20
1802.306462404721
 30
0.0
 11
1704.112149099583
 21
1922.306920168393
 31
0.0
  0
LINE
  5
B5
330
1F
100
AcDbEntity
  8
0-7_金物
  6
Continuous
 62
     7
370
     9
100
AcDbLine
 10
1704.112149099583
 20
1922.306920168393
 30
0.0
 11
1536.111896256679
 21
1922.306920168393
 31
0.0
  0
LINE
  5
B6
330
1F
100
AcDbEntity
  8
0-7_金物
  6
Continuous
 62
     7
370
     9
100
AcDbLine
 10
1536.111896256679
 20
1922.306920168393
 30
0.0
 11
1536.111896256679
 21
1802.306462404721
 31
0.0
  0
LINE
  5
B7
330
1F
100
AcDbEntity
  8
0-7_金物
  6
Continuous
 62
     7
370
     9
100
AcDbLine
 10
1684.325625161401
 20
1796.306370851989
 30
0.0
 11
1722.110427121399
 21
1796.306370851989
 31
0.0
  0
LINE
  5
B8
330
1F
100
AcDbEntity
  8
0-4_枠
  6
Continuous
 62
   120
370
     5
100
AcDbLine
 10
1389.112022678131
 20
2018.306279299253
 30
0.0
 11
1335.11202267813
 21
2018.306279299253
 31
0.0
  0
LINE
  5
B9
330
1F
100
AcDbEntity
  8
0-4_枠
  6
Continuous
 62
   120
370
     5
100
AcDbLine
 10
1851.112022678131
 20
2018.306279299253
 30
0.0
 11
1857.112022678131
 21
2018.306279299253
 31
0.0
  0
LINE
  5
BA
330
1F
100
AcDbEntity
  8
0-4_枠
  6
Continuous
 62
   120
370
     5
100
AcDbLine
 10
1335.11202267813
 20
2018.306279299253
 30
0.0
 11
1335.11202267813
 21
554.3061209377652
 31
0.0
  0
LINE
  5
BB
330
1F
100
AcDbEntity
  8
0-4_枠
  6
Continuous
 62
   120
370
     5
100
AcDbLine
 10
1857.112022678131
 20
2018.306279299253
 30
0.0
 11
1857.112022678131
 21
554.3061209377652
 31
0.0
  0
LINE
  5
BC
330
1F
100
AcDbEntity
  8
0-B_寸法
  6
Continuous
 62
   120
370
     5
100
AcDbLine
 10
2337.112022678131
 20
-840.6941289764507
 30
0.0
 11
2337.112022678131
 21
1757.306370851989
 31
0.0
  0
LWPOLYLINE
  5
BD
330
1F
100
AcDbEntity
  8
0-B_寸法
  6
Continuous
 62
     7
370
     9
100
AcDbPolyline
 90
        4
 70
     1
 43
3.0
 10
2338.612022678131
 20
1757.306370851989
 42
0.4142135623731
 10
2337.112022678131
 20
1758.806370851989
 42
0.4142135623731
 10
2335.612022678131
 20
1757.306370851989
 42
0.4142135623731
 10
2337.112022678131
 20
1755.806370851989
 42
0.4142135623731
  0
LINE
  5
BE
330
1F
100
AcDbEntity
  8
0-B_寸法
  6
Continuous
 62
   120
370
     5
100
AcDbLine
 10
2337.112022678131
 20
1757.306370851989
 30
0.0
 11
1977.112022678131
 21
1757.306370851989
 31
0.0
  0
LINE
  5
BF
330
1F
100
AcDbEntity
  8
0-B_寸法
  6
Continuous
 62
   120
370
     5
100
AcDbLine
 10
2337.112022678131
 20
1757.306370851989
 30
0.0
 11
2337.112022678131
 21
1802.306279299255
 31
0.0
  0
LWPOLYLINE
  5
C0
330
1F
100
AcDbEntity
  8
0-B_寸法
  6
Continuous
 62
     7
370
     9
100
AcDbPolyline
 90
        4
 70
     1
 43
3.0
 10
2338.612022678131
 20
1802.306279299255
 42
0.4142135623731
 10
2337.112022678131
 20
1803.806279299254
 42
0.4142135623731
 10
2335.612022678131
 20
1802.306279299255
 42
0.4142135623731
 10
2337.112022678131
 20
1800.806279299255
 42
0.4142135623731
  0
LINE
  5
C1
330
1F
100
AcDbEntity
  8
0-B_寸法
  6
Continuous
 62
   120
370
     5
100
AcDbLine
 10
2547.112022678131
 20
2018.306279299253
 30
0.0
 11
2547.112022678131
 21
1802.306279299255
 31
0.0
  0
LWPOLYLINE
  5
C2
330
1F
100
AcDbEntity
  8
0-B_寸法
  6
Continuous
 62
     7
370
     9
100
AcDbPolyline
 90
        4
 70
     1
 43
3.0
 10
2548.612022678131
 20
2018.306279299253
 42
0.4142135623731
 10
2547.112022678131
 20
2019.806279299253
 42
0.4142135623731
 10
2545.612022678131
 20
2018.306279299253
 42
0.4142135623731
 10
2547.112022678131
 20
2016.806279299253
 42
0.4142135623731
  0
LWPOLYLINE
  5
C3
330
1F
100
AcDbEntity
  8
0-B_寸法
  6
Continuous
 62
     7
370
     9
100
AcDbPolyline
 90
        4
 70
     1
 43
3.0
 10
2548.612022678131
 20
1802.306279299255
 42
0.4142135623731
 10
2547.112022678131
 20
1803.806279299254
 42
0.4142135623731
 10
2545.612022678131
 20
1802.306279299255
 42
0.4142135623731
 10
2547.112022678131
 20
1800.806279299255
 42
0.4142135623731
  0
LINE
  5
C4
330
1F
100
AcDbEntity
  8
0-B_寸法
  6
Continuous
 62
   120
370
     5
100
AcDbLine
 10
2547.112022678131
 20
1802.306279299255
 30
0.0
 11
1977.112022678131
 21
1802.306279299255
 31
0.0
  0
LINE
  5
C5
330
1F
100
AcDbEntity
  8
0-B_寸法
  6
Continuous
 62
   120
370
     5
100
AcDbLine
 10
2547.112022678131
 20
1802.306279299255
 30
0.0
 11
2547.112022678131
 21
-909.6941289764515
 31
0.0
  0
LINE
  5
C6
330
1F
100
AcDbEntity
  8
0-B_寸法
  6
Continuous
 62
   120
370
     5
100
AcDbLine
 10
2757.112022678131
 20
2018.306279299253
 30
0.0
 11
2757.112022678131
 21
-909.6941289764515
 31
0.0
  0
LWPOLYLINE
  5
C7
330
1F
100
AcDbEntity
  8
0-B_寸法
  6
Continuous
 62
     7
370
     9
100
AcDbPolyline
 90
        4
 70
     1
 43
3.0
 10
2758.612022678131
 20
2018.306279299253
 42
0.4142135623731
 10
2757.112022678131
 20
2019.806279299253
 42
0.4142135623731
 10
2755.612022678131
 20
2018.306279299253
 42
0.4142135623731
 10
2757.112022678131
 20
2016.806279299253
 42
0.4142135623731
  0
LINE
  5
C8
330
1F
100
AcDbEntity
  8
0-B_寸法
  6
Continuous
 62
   120
370
     5
100
AcDbLine
 10
2757.112022678131
 20
2018.306279299253
 30
0.0
 11
1977.112022678131
 21
2018.306279299253
 31
0.0
  0
LINE
  5
C9
330
1F
100
AcDbEntity
  8
0-C_ハッチ
  6
Continuous
 62
   120
370
     5
100
AcDbLine
 10
1850.956285134963
 20
1802.306279299248
 30
0.0
 11
1851.112022678136
 21
1802.462016842421
 31
0.0
  0
LINE
  5
CA
330
1F
100
AcDbEntity
  8
0-C_ハッチ
  6
Continuous
 62
   120
370
     5
100
AcDbLine
 10
1808.529831170452
 20
1802.306279299245
 30
0.0
 11
1851.112022678135
 21
1844.888470806927
 31
0.0
  0
LINE
  5
CB
330
1F
100
AcDbEntity
  8
0-C_ハッチ
  6
Continuous
 62
   120
370
     5
100
AcDbLine
 10
1766.103377205941
 20
1802.306279299242
 30
0.0
 11
1851.112022678133
 21
1887.314924771435
 31
0.0
  0
LINE
  5
CC
330
1F
100
AcDbEntity
  8
0-C_ハッチ
  6
Continuous
 62
   120
370
     5
100
AcDbLine
 10
1723.67692324143
 20
1802.306279299241
 30
0.0
 11
1851.112022678133
 21
1929.74137873594
 31
0.0
  0
LINE
  5
CD
330
1F
100
AcDbEntity
  8
0-C_ハッチ
  6
Continuous
 62
   120
370
     5
100
AcDbLine
 10
1704.112022678144
 20
1825.167832700407
 30
0.0
 11
1851.112022678128
 21
1972.167832700447
 31
0.0
  0
LINE
  5
CE
330
1F
100
AcDbEntity
  8
0-C_ハッチ
  6
Continuous
 62
   120
370
     5
100
AcDbLine
 10
1704.112022678146
 20
1867.594286664917
 30
0.0
 11
1851.112022678126
 21
2014.594286664895
 31
0.0
  0
LINE
  5
CF
330
1F
100
AcDbEntity
  8
0-C_ハッチ
  6
Continuous
 62
   120
370
     5
100
AcDbLine
 10
1704.112022678132
 20
1910.020740629411
 30
0.0
 11
1812.397561347976
 21
2018.306279299254
 31
0.0
  0
LINE
  5
D0
330
1F
100
AcDbEntity
  8
0-C_ハッチ
  6
Continuous
 62
   120
370
     5
100
AcDbLine
 10
1673.97110738345
 20
1922.306279299238
 30
0.0
 11
1769.971107383468
 21
2018.306279299256
 31
0.0
  0
LINE
  5
D1
330
1F
100
AcDbEntity
  8
0-C_ハッチ
  6
Continuous
 62
   120
370
     5
100
AcDbLine
 10
1511.544653418951
 20
1802.306279299248
 30
0.0
 11
1536.112022678135
 21
1826.87364855843
 31
0.0
  0
LINE
  5
D2
330
1F
100
AcDbEntity
  8
0-C_ハッチ
  6
Continuous
 62
   120
370
     5
100
AcDbLine
 10
1631.544653418953
 20
1922.306279299248
 30
0.0
 11
1727.544653418955
 21
2018.30627929925
 31
0.0
  0
LINE
  5
D3
330
1F
100
AcDbEntity
  8
0-C_ハッチ
  6
Continuous
 62
   120
370
     5
100
AcDbLine
 10
1469.11819945444
 20
1802.306279299245
 30
0.0
 11
1536.112022678136
 21
1869.300102522941
 31
0.0
  0
LINE
  5
D4
330
1F
100
AcDbEntity
  8
0-C_ハッチ
  6
Continuous
 62
   120
370
     5
100
AcDbLine
 10
1589.118199454439
 20
1922.306279299242
 30
0.0
 11
1685.118199454449
 21
2018.306279299253
 31
0.0
  0
LINE
  5
D5
330
1F
100
AcDbEntity
  8
0-C_ハッチ
  6
Continuous
 62
   120
370
     5
100
AcDbLine
 10
1426.691745489931
 20
1802.306279299243
 30
0.0
 11
1536.11202267814
 21
1911.726556487453
 31
0.0
  0
LINE
  5
D6
330
1F
100
AcDbEntity
  8
0-C_ハッチ
  6
Continuous
 62
   120
370
     5
100
AcDbLine
 10
1546.691745489932
 20
1922.306279299245
 30
0.0
 11
1642.691745489949
 21
2018.306279299263
 31
0.0
  0
LINE
  5
D7
330
1F
100
AcDbEntity
  8
0-C_ハッチ
  6
Continuous
 62
   120
370
     5
100
AcDbLine
 10
1389.112022678145
 20
1807.153010451965
 30
0.0
 11
1600.265291525437
 21
2018.306279299258
 31
0.0
  0
LINE
  5
D8
330
1F
100
AcDbEntity
  8
0-C_ハッチ
  6
Continuous
 62
   120
370
     5
100
AcDbLine
 10
1389.112022678144
 20
1849.579464416473
 30
0.0
 11
1557.838837560927
 21
2018.306279299256
 31
0.0
  0
LINE
  5
D9
330
1F
100
AcDbEntity
  8
0-C_ハッチ
  6
Continuous
 62
   120
370
     5
100
AcDbLine
 10
1389.112022678142
 20
1892.005918380979
 30
0.0
 11
1515.412383596416
 21
2018.306279299253
 31
0.0
  0
LINE
  5
DA
330
1F
100
AcDbEntity
  8
0-C_ハッチ
  6
Continuous
 62
   120
370
     5
100
AcDbLine
 10
1389.112022678125
 20
1934.432372345472
 30
0.0
 11
1472.985929631917
 21
2018.306279299263
 31
0.0
  0
LINE
  5
DB
330
1F
100
AcDbEntity
  8
0-C_ハッチ
  6
Continuous
 62
   120
370
     5
100
AcDbLine
 10
1389.112022678139
 20
1976.858826309994
 30
0.0
 11
1430.559475667394
 21
2018.306279299249
 31
0.0
  0
LINE
  5
DC
330
1F
100
AcDbEntity
  8
0-B_寸法
  6
Continuous
 62
   120
370
     5
100
AcDbLine
 10
1389.112022678131
 20
1442.306279299253
 30
0.0
 11
1850.956285134963
 21
1442.306279299253
 31
0.0
  0
LWPOLYLINE
  5
DD
330
1F
100
AcDbEntity
  8
0-B_寸法
  6
Continuous
 62
     7
370
     9
100
AcDbPolyline
 90
        4
 70
     1
 43
3.0
 10
1390.612022678131
 20
1442.306279299253
 42
0.4142135623731
 10
1389.112022678131
 20
1443.806279299253
 42
0.4142135623731
 10
1387.612022678132
 20
1442.306279299253
 42
0.4142135623731
 10
1389.112022678131
 20
1440.806279299253
 42
0.4142135623731
  0
LWPOLYLINE
  5
DE
330
1F
100
AcDbEntity
  8
0-B_寸法
  6
Continuous
 62
     7
370
     9
100
AcDbPolyline
 90
        4
 70
     1
 43
3.0
 10
1852.456285134963
 20
1442.306279299253
 42
0.4142135623731
 10
1850.956285134963
 20
1443.806279299253
 42
0.4142135623731
 10
1849.456285134963
 20
1442.306279299253
 42
0.4142135623731
 10
1850.956285134963
 20
1440.806279299253
 42
0.4142135623731
  0
LINE
  5
DF
330
1F
100
AcDbEntity
  8
0-B_寸法
  6
Continuous
 62
   120
370
     5
100
AcDbLine
 10
1389.112022678131
 20
1442.306279299253
 30
0.0
 11
1389.112022678131
 21
1622.306279299253
 31
0.0
  0
LINE
  5
E0
330
1F
100
AcDbEntity
  8
0-B_寸法
  6
Continuous
 62
   120
370
     5
100
AcDbLine
 10
1850.956285134963
 20
1442.306279299253
 30
0.0
 11
1850.956285134963
 21
1622.306279299253
 31
0.0
  0
LINE
  5
E1
330
1F
100
AcDbEntity
  8
0-3_仕上げ
  6
Continuous
 62
    40
370
    15
100
AcDbLine
 10
1407.11202267813
 20
2018.306279299253
 30
0.0
 11
1482.11202267813
 21
2018.306279299253
 31
0.0
  0
LINE
  5
E2
330
1F
100
AcDbEntity
  8
0-C_ハッチ
  6
JWW_DASHED1
 62
   120
370
     5
100
AcDbLine
 10
1480.845953630806
 20
2018.306279299253
 30
0.0
 11
1482.112022678124
 21
2019.572348346572
 31
0.0
  0
LINE
  5
E3
330
1F
100
AcDbEntity
  8
0-C_ハッチ
  6
JWW_DASHED1
 62
   120
370
     5
100
AcDbLine
 10
1438.419546759607
 20
2018.306279299253
 30
0.0
 11
1482.112022678124
 21
2061.998755217772
 31
0.0
  0
LINE
  5
E4
330
1F
100
AcDbEntity
  8
0-C_ハッチ
  6
JWW_DASHED1
 62
   120
370
     5
100
AcDbLine
 10
1407.112022678128
 20
2029.425162088972
 30
0.0
 11
1482.112022678137
 21
2104.425162088983
 31
0.0
  0
LINE
  5
E5
330
1F
100
AcDbEntity
  8
0-C_ハッチ
  6
JWW_DASHED1
 62
   120
370
     5
100
AcDbLine
 10
1407.112022678124
 20
2071.851568960169
 30
0.0
 11
1482.112022678135
 21
2146.851568960179
 31
0.0
  0
LINE
  5
E6
330
1F
100
AcDbEntity
  8
0-C_ハッチ
  6
JWW_DASHED1
 62
   120
370
     5
100
AcDbLine
 10
1407.112022678136
 20
2114.277975831382
 30
0.0
 11
1482.11202267813
 21
2189.277975831378
 31
0.0
  0
LINE
  5
E7
330
1F
100
AcDbEntity
  8
0-C_ハッチ
  6
JWW_DASHED1
 62
   120
370
     5
100
AcDbLine
 10
1407.11202267813
 20
2156.704382702579
 30
0.0
 11
1482.112022678128
 21
2231.704382702572
 31
0.0
  0
LINE
  5
E8
330
1F
100
AcDbEntity
  8
0-C_ハッチ
  6
JWW_DASHED1
 62
   120
370
     5
100
AcDbLine
 10
1407.112022678137
 20
2199.130789573728
 30
0.0
 11
1482.112022678135
 21
2274.130789573725
 31
0.0
  0
LINE
  5
E9
330
1F
100
AcDbEntity
  8
0-C_ハッチ
  6
JWW_DASHED1
 62
   120
370
     5
100
AcDbLine
 10
1407.112022678135
 20
2241.557196444925
 30
0.0
 11
1482.11202267813
 21
2316.557196444923
 31
0.0
  0
LINE
  5
EA
330
1F
100
AcDbEntity
  8
0-0_補助線
  6
JWW_HOJO
 62
   120
370
     5
100
AcDbLine
 10
1977.112022678131
 20
554.3061209377652
 30
0.0
 11
1215.11202267813
 21
554.3061209377652
 31
0.0
  0
LINE
  5
EB
330
1F
100
AcDbEntity
  8
0-0_補助線
  6
JWW_HOJO
 62
   120
370
     5
100
AcDbLine
 10
1977.112022678131
 20
434.3061209377677
 30
0.0
 11
1215.11202267813
 21
434.3061209377677
 31
0.0
  0
LINE
  5
EC
330
1F
100
AcDbEntity
  8
0-4_枠
  6
Continuous
 62
   120
370
     5
100
AcDbLine
 10
1335.11202267813
 20
434.3061209377677
 30
0.0
 11
1335.11202267813
 21
-909.6941289764515
 31
0.0
  0
LINE
  5
ED
330
1F
100
AcDbEntity
  8
0-4_枠
  6
Continuous
 62
   120
370
     5
100
AcDbLine
 10
1857.112022678131
 20
434.3061209377677
 30
0.0
 11
1857.112022678131
 21
-909.6941289764515
 31
0.0
  0
MTEXT
  5
EE
330
1F
100
AcDbEntity
  8
0-B_寸法
  6
Continuous
 62
     7
370
   211
100
AcDbMText
 10
2322.112022678131
 20
-838.6878789764519
 30
0.0
 40
100.0125000000013
 41
262.5000000000034
 46
0.0
 71
     7
 72
     1
  1
{\fＭＳ ゴシック|b0|i0|c128|p49;11.5}
 11
6.123031769111886E-17
 21
1.0
 31
0.0
 73
     1
 44
1.0
  0
MTEXT
  5
EF
330
1F
100
AcDbEntity
  8
0-A_文字
  6
Continuous
 62
     7
370
     9
100
AcDbMText
 10
1604.080148725071
 20
-1433.954602531683
 30
0.0
 40
68.58
 41
360.0
 46
0.0
 71
     7
 72
     1
  1
{\fＭＳ ゴシック|b0|i0|c128|p49;玄関巾木}
 73
     1
 44
1.0
  0
MTEXT
  5
F0
330
1F
100
AcDbEntity
  8
0-A_文字
  6
Continuous
 62
     7
370
     9
100
AcDbMText
 10
1855.720204808795
 20
-1143.515230570633
 30
0.0
 40
68.57999999999934
 41
359.9999999999966
 46
0.0
 71
     7
 72
     1
  1
{\fＭＳ ゴシック|b0|i0|c128|p49;土間金具}
 73
     1
 44
1.0
  0
LINE
  5
F1
330
1F
100
AcDbEntity
  8
0-3_仕上げ
  6
Continuous
 62
     7
370
     9
100
AcDbLine
 10
1407.11202267813
 20
-1809.694128976452
 30
0.0
 11
1977.112022678131
 21
-1809.694128976452
 31
0.0
  0
LINE
  5
F2
330
1F
100
AcDbEntity
  8
0-7_金物
  6
Continuous
 62
     7
370
     9
100
AcDbLine
 10
1611.112141449248
 20
-897.69412897645
 30
0.0
 11
1629.111903907014
 21
-897.69412897645
 31
0.0
  0
LINE
  5
F3
330
1F
100
AcDbEntity
  8
0-7_金物
  6
Continuous
 62
     7
370
     9
100
AcDbLine
 10
1662.111715852748
 20
-881.3116162118137
 30
0.0
 11
1578.111587184042
 21
-881.3116162118137
 31
0.0
  0
LINE
  5
F4
330
1F
100
AcDbEntity
  8
0-7_金物
  6
Continuous
 62
     7
370
     9
100
AcDbLine
 10
1611.112141449248
 20
-895.1116162118126
 30
0.0
 11
1611.112141449248
 21
-897.69412897645
 31
0.0
  0
LINE
  5
F5
330
1F
100
AcDbEntity
  8
0-7_金物
  6
Continuous
 62
     7
370
     9
100
AcDbLine
 10
1629.111903907014
 20
-895.1116162118126
 30
0.0
 11
1629.111903907014
 21
-897.69412897645
 31
0.0
  0
LINE
  5
F6
330
1F
100
AcDbEntity
  8
0-7_金物
  6
Continuous
 62
     7
370
     9
100
AcDbLine
 10
1578.111587184042
 20
-881.3116162118137
 30
0.0
 11
1578.111587184042
 21
-895.1116162118126
 31
0.0
  0
LINE
  5
F7
330
1F
100
AcDbEntity
  8
0-7_金物
  6
Continuous
 62
     7
370
     9
100
AcDbLine
 10
1662.111715852748
 20
-881.3116162118137
 30
0.0
 11
1662.111715852748
 21
-895.1116162118126
 31
0.0
  0
LINE
  5
F8
330
1F
100
AcDbEntity
  8
0-7_金物
  6
Continuous
 62
     7
370
     9
100
AcDbLine
 10
1611.112141449248
 20
-840.6941289764507
 30
0.0
 11
1611.112141449248
 21
-881.3116162118137
 31
0.0
  0
LINE
  5
F9
330
1F
100
AcDbEntity
  8
0-7_金物
  6
Continuous
 62
     7
370
     9
100
AcDbLine
 10
1629.111903907014
 20
-840.6941289764507
 30
0.0
 11
1629.111903907014
 21
-881.3116162118137
 31
0.0
  0
LINE
  5
FA
330
1F
100
AcDbEntity
  8
0-7_金物
  6
Continuous
 62
     7
370
     9
100
AcDbLine
 10
1611.112141449248
 20
-840.6941289764507
 30
0.0
 11
1629.111903907014
 21
-840.6941289764507
 31
0.0
  0
LINE
  5
FB
330
1F
100
AcDbEntity
  8
0-7_金物
  6
Continuous
 62
     7
370
     9
100
AcDbLine
 10
1695.112022678131
 20
-895.1116162118126
 30
0.0
 11
1545.11202267813
 21
-895.1116162118126
 31
0.0
  0
LINE
  5
FC
330
1F
100
AcDbEntity
  8
0-4_枠
  6
Continuous
 62
    92
370
    13
100
AcDbLine
 10
1227.11202267813
 20
-909.6941289764515
 30
0.0
 11
1407.11202267813
 21
-909.6941289764515
 31
0.0
  0
LINE
  5
FD
330
1F
100
AcDbEntity
  8
0-4_枠
  6
Continuous
 62
    92
370
    13
100
AcDbLine
 10
1407.11202267813
 20
-909.6941289764515
 30
0.0
 11
1407.11202267813
 21
-1809.694128976452
 31
0.0
  0
LINE
  5
FE
330
1F
100
AcDbEntity
  8
0-4_枠
  6
Continuous
 62
    92
370
    13
100
AcDbLine
 10
1407.11202267813
 20
-1809.694128976452
 30
0.0
 11
1227.11202267813
 21
-1809.694128976452
 31
0.0
  0
LINE
  5
FF
330
1F
100
AcDbEntity
  8
0-4_枠
  6
Continuous
 62
    92
370
    13
100
AcDbLine
 10
1227.11202267813
 20
-1809.694128976452
 30
0.0
 11
1227.11202267813
 21
-909.6941289764515
 31
0.0
  0
LINE
  5
100
330
1F
100
AcDbEntity
  8
0-4_枠
  6
Continuous
 62
    92
370
    13
100
AcDbLine
 10
1407.11202267813
 20
-912.6941289764525
 30
0.0
 11
1230.11202267813
 21
-912.6941289764525
 31
0.0
  0
LINE
  5
101
330
1F
100
AcDbEntity
  8
0-4_枠
  6
Continuous
 62
    92
370
    13
100
AcDbLine
 10
1230.11202267813
 20
-912.6941289764525
 30
0.0
 11
1230.11202267813
 21
-1809.694128976452
 31
0.0
  0
LINE
  5
102
330
1F
100
AcDbEntity
  8
0-3_仕上げ
  6
Continuous
 62
     7
370
     9
100
AcDbLine
 10
1407.11202267813
 20
-909.6941289764515
 30
0.0
 11
1407.11202267813
 21
-2709.694128976452
 31
0.0
  0
LINE
  5
103
330
1F
100
AcDbEntity
  8
0-7_金物
  6
Continuous
 62
     7
370
     9
100
AcDbLine
 10
1545.11202267813
 20
-639.6941289764515
 30
0.0
 11
1545.11202267813
 21
-909.6941289764515
 31
0.0
  0
LINE
  5
104
330
1F
100
AcDbEntity
  8
0-7_金物
  6
Continuous
 62
     7
370
     9
100
AcDbLine
 10
1695.112022678131
 20
-639.6941289764515
 30
0.0
 11
1695.112022678131
 21
-909.6941289764515
 31
0.0
  0
ARC
  5
105
330
1F
100
AcDbEntity
  8
0-7_金物
  6
JWW_DASHED1
 62
     7
370
     9
100
AcDbCircle
 10
1665.11202267813
 20
-639.6941289764515
 30
0.0
 40
30.0
100
AcDbArc
 50
0.0
 51
90.0
  0
ARC
  5
106
330
1F
100
AcDbEntity
  8
0-7_金物
  6
JWW_DASHED1
 62
     7
370
     9
100
AcDbCircle
 10
1575.11202267813
 20
-639.6941289764515
 30
0.0
 40
30.0
100
AcDbArc
 50
90.0
 51
180.0
  0
LINE
  5
107
330
1F
100
AcDbEntity
  8
0-3_仕上げ
  6
Continuous
 62
     7
370
     9
100
AcDbLine
 10
1977.112022678131
 20
-909.6941289764515
 30
0.0
 11
1407.11202267813
 21
-909.6941289764515
 31
0.0
  0
LINE
  5
108
330
1F
100
AcDbEntity
  8
0-B_寸法
  6
Continuous
 62
   120
370
     5
100
AcDbLine
 10
2337.112022678131
 20
-909.6941289764515
 30
0.0
 11
2337.112022678131
 21
-840.6941289764507
 31
0.0
  0
LWPOLYLINE
  5
109
330
1F
100
AcDbEntity
  8
0-B_寸法
  6
Continuous
 62
     7
370
     9
100
AcDbPolyline
 90
        4
 70
     1
 43
3.0
 10
2338.612022678131
 20
-909.6941289764515
 42
0.4142135623731
 10
2337.112022678131
 20
-908.1941289764515
 42
0.4142135623731
 10
2335.612022678131
 20
-909.6941289764515
 42
0.4142135623731
 10
2337.112022678131
 20
-911.1941289764515
 42
0.4142135623731
  0
LWPOLYLINE
  5
10A
330
1F
100
AcDbEntity
  8
0-B_寸法
  6
Continuous
 62
     7
370
     9
100
AcDbPolyline
 90
        4
 70
     1
 43
3.0
 10
2338.612022678131
 20
-840.6941289764507
 42
0.4142135623731
 10
2337.112022678131
 20
-839.1941289764507
 42
0.4142135623731
 10
2335.612022678131
 20
-840.6941289764507
 42
0.4142135623731
 10
2337.112022678131
 20
-842.1941289764507
 42
0.4142135623731
  0
LINE
  5
10B
330
1F
100
AcDbEntity
  8
0-B_寸法
  6
Continuous
 62
   120
370
     5
100
AcDbLine
 10
2337.112022678131
 20
-840.6941289764507
 30
0.0
 11
1977.112022678131
 21
-840.6941289764507
 31
0.0
  0
LWPOLYLINE
  5
10C
330
1F
100
AcDbEntity
  8
0-B_寸法
  6
Continuous
 62
     7
370
     9
100
AcDbPolyline
 90
        4
 70
     1
 43
3.0
 10
2548.612022678131
 20
-909.6941289764515
 42
0.4142135623731
 10
2547.112022678131
 20
-908.1941289764515
 42
0.4142135623731
 10
2545.612022678131
 20
-909.6941289764515
 42
0.4142135623731
 10
2547.112022678131
 20
-911.1941289764515
 42
0.4142135623731
  0
LWPOLYLINE
  5
10D
330
1F
100
AcDbEntity
  8
0-B_寸法
  6
Continuous
 62
     7
370
     9
100
AcDbPolyline
 90
        4
 70
     1
 43
3.0
 10
2758.612022678131
 20
-909.6941289764515
 42
0.4142135623731
 10
2757.112022678131
 20
-908.1941289764515
 42
0.4142135623731
 10
2755.612022678131
 20
-909.6941289764515
 42
0.4142135623731
 10
2757.112022678131
 20
-911.1941289764515
 42
0.4142135623731
  0
LINE
  5
10E
330
1F
100
AcDbEntity
  8
0-B_寸法
  6
Continuous
 62
   120
370
     5
100
AcDbLine
 10
2757.112022678131
 20
-909.6941289764515
 30
0.0
 11
1977.112022678131
 21
-909.6941289764515
 31
0.0
  0
LINE
  5
10F
330
1F
100
AcDbEntity
  8
0-A_文字
  6
Continuous
 62
     7
370
     9
100
AcDbLine
 10
1671.97243562379
 20
-899.4455637056717
 30
0.0
 11
1838.570413018194
 21
-1149.342529797284
 31
0.0
  0
LINE
  5
110
330
1F
100
AcDbEntity
  8
0-A_文字
  6
Continuous
 62
     7
370
     9
100
AcDbLine
 10
1838.570413018194
 20
-1149.342529797284
 30
0.0
 11
2298.552328544665
 21
-1149.342529797284
 31
0.0
  0
LINE
  5
111
330
1F
100
AcDbEntity
  8
0-A_文字
  6
Continuous
 62
     7
370
     9
100
AcDbLine
 10
1586.930356934471
 20
-1439.781901758335
 30
0.0
 11
2046.912272460943
 21
-1439.781901758335
 31
0.0
  0
LINE
  5
112
330
1F
100
AcDbEntity
  8
0-A_文字
  6
Continuous
 62
     7
370
     9
100
AcDbLine
 10
1296.271115238784
 20
-1003.793039214791
 30
0.0
 11
1586.930356934471
 21
-1439.781901758335
 31
0.0
  0
LINE
  5
113
330
1F
100
AcDbEntity
  8
0-C_ハッチ
  6
Continuous
 62
   120
370
     5
100
AcDbLine
 10
1397.592251491683
 20
-1809.69412897644
 30
0.0
 11
1407.112022678119
 21
-1800.174357790003
 31
0.0
  0
LINE
  5
114
330
1F
100
AcDbEntity
  8
0-C_ハッチ
  6
Continuous
 62
   120
370
     5
100
AcDbLine
 10
1355.165797527158
 20
-1809.694128976456
 30
0.0
 11
1407.112022678136
 21
-1757.747903825478
 31
0.0
  0
LINE
  5
115
330
1F
100
AcDbEntity
  8
0-C_ハッチ
  6
Continuous
 62
   120
370
     5
100
AcDbLine
 10
1312.739343562656
 20
-1809.694128976449
 30
0.0
 11
1407.112022678123
 21
-1715.321449860984
 31
0.0
  0
LINE
  5
116
330
1F
100
AcDbEntity
  8
0-C_ハッチ
  6
Continuous
 62
   120
370
     5
100
AcDbLine
 10
1270.312889598139
 20
-1809.694128976459
 30
0.0
 11
1407.112022678137
 21
-1672.89499589646
 31
0.0
  0
LINE
  5
117
330
1F
100
AcDbEntity
  8
0-C_ハッチ
  6
Continuous
 62
   120
370
     5
100
AcDbLine
 10
1230.112022678139
 20
-1807.468541931951
 30
0.0
 11
1407.112022678126
 21
-1630.468541931963
 31
0.0
  0
LINE
  5
118
330
1F
100
AcDbEntity
  8
0-C_ハッチ
  6
Continuous
 62
   120
370
     5
100
AcDbLine
 10
1230.11202267814
 20
-1765.042087967441
 30
0.0
 11
1407.11202267814
 21
-1588.042087967441
 31
0.0
  0
LINE
  5
119
330
1F
100
AcDbEntity
  8
0-C_ハッチ
  6
Continuous
 62
   120
370
     5
100
AcDbLine
 10
1230.112022678125
 20
-1722.615634002948
 30
0.0
 11
1407.112022678125
 21
-1545.615634002949
 31
0.0
  0
LINE
  5
11A
330
1F
100
AcDbEntity
  8
0-C_ハッチ
  6
Continuous
 62
   120
370
     5
100
AcDbLine
 10
1230.112022678141
 20
-1680.189180038423
 30
0.0
 11
1407.112022678126
 21
-1503.189180038439
 31
0.0
  0
LINE
  5
11B
330
1F
100
AcDbEntity
  8
0-C_ハッチ
  6
Continuous
 62
   120
370
     5
100
AcDbLine
 10
1230.112022678127
 20
-1637.76272607393
 30
0.0
 11
1407.112022678126
 21
-1460.76272607393
 31
0.0
  0
LINE
  5
11C
330
1F
100
AcDbEntity
  8
0-C_ハッチ
  6
Continuous
 62
   120
370
     5
100
AcDbLine
 10
1230.112022678144
 20
-1595.336272109404
 30
0.0
 11
1407.112022678128
 21
-1418.336272109421
 31
0.0
  0
LINE
  5
11D
330
1F
100
AcDbEntity
  8
0-C_ハッチ
  6
Continuous
 62
   120
370
     5
100
AcDbLine
 10
1230.112022678129
 20
-1552.909818144909
 30
0.0
 11
1407.112022678129
 21
-1375.90981814491
 31
0.0
  0
LINE
  5
11E
330
1F
100
AcDbEntity
  8
0-C_ハッチ
  6
Continuous
 62
   120
370
     5
100
AcDbLine
 10
1230.112022678135
 20
-1510.483364180397
 30
0.0
 11
1407.112022678122
 21
-1333.483364180409
 31
0.0
  0
LINE
  5
11F
330
1F
100
AcDbEntity
  8
0-C_ハッチ
  6
Continuous
 62
   120
370
     5
100
AcDbLine
 10
1230.112022678128
 20
-1468.056910215922
 30
0.0
 11
1407.11202267813
 21
-1291.056910215921
 31
0.0
  0
LINE
  5
120
330
1F
100
AcDbEntity
  8
0-C_ハッチ
  6
Continuous
 62
   120
370
     5
100
AcDbLine
 10
1230.112022678134
 20
-1425.630456251436
 30
0.0
 11
1407.112022678121
 21
-1248.630456251449
 31
0.0
  0
LINE
  5
121
330
1F
100
AcDbEntity
  8
0-C_ハッチ
  6
Continuous
 62
   120
370
     5
100
AcDbLine
 10
1230.112022678127
 20
-1383.204002286935
 30
0.0
 11
1407.112022678129
 21
-1206.204002286932
 31
0.0
  0
LINE
  5
122
330
1F
100
AcDbEntity
  8
0-C_ハッチ
  6
Continuous
 62
   120
370
     5
100
AcDbLine
 10
1230.112022678137
 20
-1340.777548322416
 30
0.0
 11
1407.112022678125
 21
-1163.777548322427
 31
0.0
  0
LINE
  5
123
330
1F
100
AcDbEntity
  8
0-C_ハッチ
  6
Continuous
 62
   120
370
     5
100
AcDbLine
 10
1230.11202267813
 20
-1298.351094357915
 30
0.0
 11
1407.11202267813
 21
-1121.351094357915
 31
0.0
  0
LINE
  5
124
330
1F
100
AcDbEntity
  8
0-C_ハッチ
  6
Continuous
 62
   120
370
     5
100
AcDbLine
 10
1230.11202267814
 20
-1255.924640393396
 30
0.0
 11
1407.112022678129
 21
-1078.924640393407
 31
0.0
  0
LINE
  5
125
330
1F
100
AcDbEntity
  8
0-C_ハッチ
  6
Continuous
 62
   120
370
     5
100
AcDbLine
 10
1230.112022678132
 20
-1213.498186428897
 30
0.0
 11
1407.112022678132
 21
-1036.498186428897
 31
0.0
  0
LINE
  5
126
330
1F
100
AcDbEntity
  8
0-C_ハッチ
  6
Continuous
 62
   120
370
     5
100
AcDbLine
 10
1230.112022678117
 20
-1171.071732464404
 30
0.0
 11
1407.112022678117
 21
-994.0717324644029
 31
0.0
  0
LINE
  5
127
330
1F
100
AcDbEntity
  8
0-C_ハッチ
  6
Continuous
 62
   120
370
     5
100
AcDbLine
 10
1230.112022678134
 20
-1128.645278499878
 30
0.0
 11
1407.112022678118
 21
-951.6452784998926
 31
0.0
  0
LINE
  5
128
330
1F
100
AcDbEntity
  8
0-C_ハッチ
  6
Continuous
 62
   120
370
     5
100
AcDbLine
 10
1230.11202267812
 20
-1086.218824535384
 30
0.0
 11
1403.636718237063
 21
-912.6941289764397
 31
0.0
  0
LINE
  5
129
330
1F
100
AcDbEntity
  8
0-C_ハッチ
  6
Continuous
 62
   120
370
     5
100
AcDbLine
 10
1230.112022678136
 20
-1043.792370570858
 30
0.0
 11
1361.21026427255
 21
-912.6941289764457
 31
0.0
  0
LINE
  5
12A
330
1F
100
AcDbEntity
  8
0-C_ハッチ
  6
Continuous
 62
   120
370
     5
100
AcDbLine
 10
1230.112022678121
 20
-1001.365916606366
 30
0.0
 11
1318.783810308043
 21
-912.6941289764432
 31
0.0
  0
LINE
  5
12B
330
1F
100
AcDbEntity
  8
0-C_ハッチ
  6
Continuous
 62
   120
370
     5
100
AcDbLine
 10
1230.112022678137
 20
-958.9394626418418
 30
0.0
 11
1276.357356343524
 21
-912.6941289764555
 31
0.0
  0
LINE
  5
12C
330
1F
100
AcDbEntity
  8
0-C_ハッチ
  6
Continuous
 62
   120
370
     5
100
AcDbLine
 10
1230.112022678123
 20
-916.5130086773468
 30
0.0
 11
1233.930902379026
 21
-912.6941289764432
 31
0.0
  0
LINE
  5
12D
330
1F
100
AcDbEntity
  8
0-3_仕上げ
  6
Continuous
 62
     7
370
     9
100
AcDbLine
 10
1977.112022678131
 20
-2709.694128976452
 30
0.0
 11
927.1120226781304
 21
-2709.694128976452
 31
0.0
  0
LINE
  5
12E
330
1F
100
AcDbEntity
  8
0-A_文字
  6
Continuous
 62
     7
370
     9
100
AcDbLine
 10
960.4991266785464
 20
-2656.812631043862
 30
0.0
 11
990.4991266785464
 21
-2708.774155270928
 31
0.0
  0
LINE
  5
12F
330
1F
100
AcDbEntity
  8
0-A_文字
  6
Continuous
 62
     7
370
     9
100
AcDbLine
 10
960.4991266785464
 20
-2656.812631043862
 30
0.0
 11
1020.499126678546
 21
-2656.812631043862
 31
0.0
  0
LINE
  5
130
330
1F
100
AcDbEntity
  8
0-A_文字
  6
Continuous
 62
     7
370
     9
100
AcDbLine
 10
1020.499126678546
 20
-2656.812631043862
 30
0.0
 11
990.4991266785473
 21
-2708.774155270928
 31
0.0
  0
MTEXT
  5
131
330
1F
100
AcDbEntity
  8
1-B_寸法
  6
Continuous
 62
     7
370
   211
100
AcDbMText
 10
3784.886992783926
 20
-2012.366124665057
 30
0.0
 40
99.06
 41
195.0
 46
0.0
 71
     7
 72
     1
  1
{\fＭＳ ゴシック|b0|i0|c128|p49;2.3}
 11
6.123031769111886E-17
 21
1.0
 31
0.0
 73
     1
 44
1.0
  0
LINE
  5
132
330
1F
100
AcDbEntity
  8
1-B_寸法
  6
Continuous
 62
   120
370
     5
100
AcDbLine
 10
3799.886992783926
 20
-1964.020384180712
 30
0.0
 11
3904.886992783926
 21
-1964.020384180712
 31
0.0
  0
LINE
  5
133
330
1F
100
AcDbEntity
  8
0-A_文字
  6
Continuous
 62
    92
370
    13
100
AcDbLine
 10
5037.112022678131
 20
-2709.694128976452
 30
0.0
 11
5037.112022678131
 21
170.3058710235473
 31
0.0
  0
LINE
  5
134
330
1F
100
AcDbEntity
  8
0-A_文字
  6
Continuous
 62
    92
370
    13
100
AcDbLine
 10
3057.112022678131
 20
-2709.694128976452
 30
0.0
 11
3057.112022678131
 21
170.3058710235473
 31
0.0
  0
MTEXT
  5
135
330
1F
100
AcDbEntity
  8
0-A_文字
  6
Continuous
 62
     7
370
     0
100
AcDbMText
 10
3357.112022678134
 20
16.44876370354623
 30
0.0
 40
91.43999999999977
 41
1379.999999999997
 46
0.0
 71
     7
 72
     1
  1
{\fＭＳ ゴシック|b0|i0|c128|p49;土間金具取付位置　S=1/2}
 73
     1
 44
1.0
  0
LINE
  5
136
330
1F
100
AcDbEntity
  8
1-4_枠
  6
Continuous
 62
    92
370
    13
100
AcDbLine
 10
4678.886989654925
 20
-2028.520377474222
 30
0.0
 11
3373.886989654927
 21
-2028.520377474222
 31
0.0
  0
LINE
  5
137
330
1F
100
AcDbEntity
  8
1-B_寸法
  6
Continuous
 62
   120
370
     5
100
AcDbLine
 10
4678.886989654925
 20
-2028.520377474222
 30
0.0
 11
4659.7906301434
 21
-2028.520377474222
 31
0.0
  0
LINE
  5
138
330
1F
100
AcDbEntity
  8
1-B_寸法
  6
Continuous
 62
   120
370
     5
100
AcDbLine
 10
4475.974789306952
 20
-1675.416967720931
 30
0.0
 11
4404.792236648245
 21
-1604.234415062226
 31
0.0
  0
LINE
  5
139
330
1F
100
AcDbEntity
  8
1-1_通り芯
  6
JWW_CENTER1
 62
   120
370
     5
100
AcDbLine
 10
4372.886998930924
 20
-1233.520377474213
 30
0.0
 11
4621.886986638423
 21
-1233.520377474213
 31
0.0
  0
LINE
  5
13A
330
1F
100
AcDbEntity
  8
1-1_通り芯
  6
JWW_CENTER1
 62
   120
370
     5
100
AcDbLine
 10
4372.886998930924
 20
-1698.520377474213
 30
0.0
 11
4621.886986638423
 21
-1698.520377474213
 31
0.0
  0
LINE
  5
13B
330
1F
100
AcDbEntity
  8
1-1_通り芯
  6
JWW_CENTER1
 62
   120
370
     5
100
AcDbLine
 10
4497.386992783921
 20
-1094.237628071916
 30
0.0
 11
4497.386992783921
 21
-2040.199410392652
 31
0.0
  0
LINE
  5
13C
330
1F
100
AcDbEntity
  8
1-1_通り芯
  6
JWW_CENTER1
 62
   120
370
     5
100
AcDbLine
 10
4086.386989654926
 20
-1855.065856289852
 30
0.0
 11
4086.386989654926
 21
-2082.905899815424
 31
0.0
  0
LINE
  5
13D
330
1F
100
AcDbEntity
  8
1-7_金物
  6
Continuous
 62
     7
370
     9
100
AcDbLine
 10
4240.081193629007
 20
-1994.020384180712
 30
0.0
 11
3964.137000004924
 21
-1994.020384180712
 31
0.0
  0
LINE
  5
13E
330
1F
100
AcDbEntity
  8
1-7_金物
  6
Continuous
 62
     7
370
     9
100
AcDbLine
 10
3964.137000004924
 20
-1994.020384180712
 30
0.0
 11
3964.137000004924
 21
-2028.520384180712
 31
0.0
  0
LINE
  5
13F
330
1F
100
AcDbEntity
  8
1-7_金物
  6
Continuous
 62
     7
370
     9
100
AcDbLine
 10
3964.137000004924
 20
-2028.520384180712
 30
0.0
 11
4185.38700726942
 21
-2028.520384180712
 31
0.0
  0
LINE
  5
140
330
1F
100
AcDbEntity
  8
1-7_金物
  6
Continuous
 62
     7
370
     9
100
AcDbLine
 10
4185.38700726942
 20
-2028.520384180712
 30
0.0
 11
4240.081193629007
 21
-2028.520384180712
 31
0.0
  0
ARC
  5
141
330
1F
100
AcDbEntity
  8
1-7_金物
  6
Continuous
 62
     7
370
     9
100
AcDbCircle
 10
4240.081193629007
 20
-1994.020384180712
 30
0.0
 40
34.50000000000016
100
AcDbArc
 50
270.0
 51
347.7352265914489
  0
LINE
  5
142
330
1F
100
AcDbEntity
  8
1-7_金物
  6
Continuous
 62
     7
370
     9
100
AcDbLine
 10
4275.387000474048
 20
-1994.020384180712
 30
0.0
 11
4273.793778225189
 21
-2001.349206722234
 31
0.0
  0
LINE
  5
143
330
1F
100
AcDbEntity
  8
1-7_金物
  6
Continuous
 62
     7
370
     9
100
AcDbLine
 10
4275.387000474048
 20
-1994.020377474221
 30
0.0
 11
4275.387000474048
 21
-1994.020384180712
 31
0.0
  0
LINE
  5
144
330
1F
100
AcDbEntity
  8
1-7_金物
  6
Continuous
 62
     7
370
     9
100
AcDbLine
 10
4275.387000474048
 20
-1994.020377474221
 30
0.0
 11
4275.387000474048
 21
-1994.020383979337
 31
0.0
  0
LINE
  5
145
330
1F
100
AcDbEntity
  8
1-7_金物
  6
Continuous
 62
     7
370
     9
100
AcDbLine
 10
4275.387000675424
 20
-1994.020377474221
 30
0.0
 11
4335.386992783922
 21
-1994.020377474221
 31
0.0
  0
LINE
  5
146
330
1F
100
AcDbEntity
  8
1-7_金物
  6
Continuous
 62
     7
370
     9
100
AcDbLine
 10
4335.386992783922
 20
-2028.520377474221
 30
0.0
 11
4335.386992783922
 21
-1994.020376709223
 31
0.0
  0
LINE
  5
147
330
1F
100
AcDbEntity
  8
1-7_金物
  6
Continuous
 62
     7
370
     9
100
AcDbLine
 10
4335.386992783922
 20
-2028.520377474222
 30
0.0
 11
4588.968589065581
 21
-2028.520377474222
 31
0.0
  0
LINE
  5
148
330
1F
100
AcDbEntity
  8
1-7_金物
  6
Continuous
 62
     7
370
     9
100
AcDbLine
 10
4602.387023261535
 20
-2011.747318502762
 30
0.0
 11
4588.968589065581
 21
-2028.520377474223
 31
0.0
  0
LINE
  5
149
330
1F
100
AcDbEntity
  8
1-7_金物
  6
Continuous
 62
     7
370
     9
100
AcDbLine
 10
4615.805487818485
 20
-2028.520377474223
 30
0.0
 11
4602.387023261535
 21
-2011.747318502762
 31
0.0
  0
LINE
  5
14A
330
1F
100
AcDbEntity
  8
1-7_金物
  6
Continuous
 62
     7
370
     9
100
AcDbLine
 10
4588.968589065581
 20
-2028.520377474223
 30
0.0
 11
4615.805487818485
 21
-2028.520377474223
 31
0.0
  0
LINE
  5
14B
330
1F
100
AcDbEntity
  8
1-7_金物
  6
Continuous
 62
     7
370
     9
100
AcDbLine
 10
4240.081193629007
 20
-1994.020384180712
 30
0.0
 11
4241.674417335795
 21
-1986.691554932699
 31
0.0
  0
ARC
  5
14C
330
1F
100
AcDbEntity
  8
1-7_金物
  6
Continuous
 62
     7
370
     9
100
AcDbCircle
 10
4275.38700193198
 20
-1994.020377474221
 30
0.0
 40
34.49999999999974
100
AcDbArc
 50
90.0
 51
167.7352265914491
  0
LINE
  5
14D
330
1F
100
AcDbEntity
  8
1-7_金物
  6
Continuous
 62
     7
370
     9
100
AcDbLine
 10
4335.386992783922
 20
-1959.520377474221
 30
0.0
 11
4275.38700193198
 21
-1959.520377474221
 31
0.0
  0
LINE
  5
14E
330
1F
100
AcDbEntity
  8
1-7_金物
  6
Continuous
 62
     7
370
     9
100
AcDbLine
 10
4335.386992783925
 20
-1959.520377474221
 30
0.0
 11
4323.928427884977
 21
-1959.520377474221
 31
0.0
  0
LINE
  5
14F
330
1F
100
AcDbEntity
  8
1-7_金物
  6
Continuous
 62
     7
370
     9
100
AcDbLine
 10
4027.887000070926
 20
-1964.020384180712
 30
0.0
 11
4084.886992783926
 21
-1964.020384180712
 31
0.0
  0
LINE
  5
150
330
1F
100
AcDbEntity
  8
1-7_金物
  6
Continuous
 62
     7
370
     9
100
AcDbLine
 10
4215.208007177727
 20
-1964.020384180712
 30
0.0
 11
4084.886992783926
 21
-1964.020384180712
 31
0.0
  0
LINE
  5
151
330
1F
100
AcDbEntity
  8
1-7_金物
  6
Continuous
 62
     7
370
     9
100
AcDbLine
 10
4217.571682809013
 20
-1953.147483885744
 30
0.0
 11
4215.208007177727
 21
-1964.020384180712
 31
0.0
  0
ARC
  5
152
330
1F
100
AcDbEntity
  8
1-7_金物
  6
Continuous
 62
     7
370
     9
100
AcDbCircle
 10
4246.886972800926
 20
-1959.520377474221
 30
0.0
 40
30.0
100
AcDbArc
 50
90.0
 51
167.7352179489193
  0
LINE
  5
153
330
1F
100
AcDbEntity
  8
1-7_金物
  6
Continuous
 62
     7
370
     9
100
AcDbLine
 10
4246.886972800926
 20
-1929.520377474221
 30
0.0
 11
4262.677305388665
 21
-1929.520377474221
 31
0.0
  0
LINE
  5
154
330
1F
100
AcDbEntity
  8
1-7_金物
  6
Continuous
 62
     7
370
     9
100
AcDbLine
 10
4262.677305388665
 20
-1929.520377474221
 30
0.0
 11
4335.386992783925
 21
-1929.520377474221
 31
0.0
  0
LINE
  5
155
330
1F
100
AcDbEntity
  8
1-7_金物
  6
JWW_DASHED3
 62
     7
370
     9
100
AcDbLine
 10
4335.386992783925
 20
-1929.520377474221
 30
0.0
 11
4363.136965159922
 21
-1929.520377474221
 31
0.0
  0
LINE
  5
156
330
1F
100
AcDbEntity
  8
1-7_金物
  6
JWW_DASHED3
 62
     7
370
     9
100
AcDbLine
 10
4363.136965159922
 20
-1929.520377474221
 30
0.0
 11
4363.136965159922
 21
-1959.520377474221
 31
0.0
  0
LINE
  5
157
330
1F
100
AcDbEntity
  8
1-7_金物
  6
JWW_DASHED3
 62
     7
370
     9
100
AcDbLine
 10
4363.136965159922
 20
-1959.520377474221
 30
0.0
 11
4335.386992783925
 21
-1959.520377474221
 31
0.0
  0
LINE
  5
158
330
1F
100
AcDbEntity
  8
1-7_金物
  6
Continuous
 62
     7
370
     9
100
AcDbLine
 10
4240.081193629007
 20
-1994.020377474221
 30
0.0
 11
4240.081193629007
 21
-1994.020384180712
 31
0.0
  0
LINE
  5
159
330
1F
100
AcDbEntity
  8
1-7_金物
  6
Continuous
 62
     7
370
     9
100
AcDbLine
 10
3949.886992783926
 20
-1994.020384180712
 30
0.0
 11
3949.886992783926
 21
-1964.020384180712
 31
0.0
  0
LINE
  5
15A
330
1F
100
AcDbEntity
  8
1-7_金物
  6
Continuous
 62
     7
370
     9
100
AcDbLine
 10
4027.887000070926
 20
-1994.020384180712
 30
0.0
 11
3949.886992783926
 21
-1994.020384180712
 31
0.0
  0
LINE
  5
15B
330
1F
100
AcDbEntity
  8
1-7_金物
  6
Continuous
 62
     7
370
     9
100
AcDbLine
 10
4027.887000070926
 20
-1994.020384180712
 30
0.0
 11
4056.387004159926
 21
-1994.020384180712
 31
0.0
  0
LINE
  5
15C
330
1F
100
AcDbEntity
  8
1-7_金物
  6
Continuous
 62
     7
370
     9
100
AcDbLine
 10
4056.387004159926
 20
-1994.020384180712
 30
0.0
 11
4086.387004159926
 21
-1994.020384180712
 31
0.0
  0
LINE
  5
15D
330
1F
100
AcDbEntity
  8
1-7_金物
  6
Continuous
 62
     7
370
     9
100
AcDbLine
 10
4086.387004159926
 20
-1994.020384180712
 30
0.0
 11
4215.208007177727
 21
-1994.020384180712
 31
0.0
  0
ARC
  5
15E
330
1F
100
AcDbEntity
  8
1-7_金物
  6
Continuous
 62
     7
370
     9
100
AcDbCircle
 10
4215.208007177727
 20
-1964.020384180712
 30
0.0
 40
30.0
100
AcDbArc
 50
270.0
 51
347.7352179489193
  0
LINE
  5
15F
330
1F
100
AcDbEntity
  8
1-7_金物
  6
Continuous
 62
     7
370
     9
100
AcDbLine
 10
4246.886972800926
 20
-1959.520377474221
 30
0.0
 11
4244.523297169641
 21
-1970.393277769189
 31
0.0
  0
LINE
  5
160
330
1F
100
AcDbEntity
  8
1-7_金物
  6
Continuous
 62
     7
370
     9
100
AcDbLine
 10
4252.177305388667
 20
-1959.520377474221
 30
0.0
 11
4246.886972800926
 21
-1959.520377474221
 31
0.0
  0
LINE
  5
161
330
1F
100
AcDbEntity
  8
1-7_金物
  6
Continuous
 62
     7
370
     9
100
AcDbLine
 10
4319.655734734335
 20
-1959.520377474221
 30
0.0
 11
4252.177305388667
 21
-1959.520377474221
 31
0.0
  0
LINE
  5
162
330
1F
100
AcDbEntity
  8
1-7_金物
  6
Continuous
 62
     7
370
     9
100
AcDbLine
 10
3997.887000004927
 20
-2028.520384180712
 30
0.0
 11
3997.887000004927
 21
-1994.020384180712
 31
0.0
  0
LINE
  5
163
330
1F
100
AcDbEntity
  8
1-7_金物
  6
Continuous
 62
     7
370
     9
100
AcDbLine
 10
4056.387004159926
 20
-1994.020384180712
 30
0.0
 11
4056.387004159926
 21
-2024.020384180712
 31
0.0
  0
LINE
  5
164
330
1F
100
AcDbEntity
  8
1-7_金物
  6
Continuous
 62
     7
370
     9
100
AcDbLine
 10
4056.387004159926
 20
-2024.020384180712
 30
0.0
 11
4086.387004159926
 21
-2024.020384180712
 31
0.0
  0
LINE
  5
165
330
1F
100
AcDbEntity
  8
1-7_金物
  6
Continuous
 62
     7
370
     9
100
AcDbLine
 10
4086.387004159926
 20
-2024.020384180712
 30
0.0
 11
4086.387004159926
 21
-1994.020384180712
 31
0.0
  0
LINE
  5
166
330
1F
100
AcDbEntity
  8
1-7_金物
  6
Continuous
 62
     7
370
     9
100
AcDbLine
 10
4094.637004159925
 20
-2028.520384180712
 30
0.0
 11
4094.637004159925
 21
-1994.020384180712
 31
0.0
  0
LINE
  5
167
330
1F
100
AcDbEntity
  8
1-7_金物
  6
Continuous
 62
     7
370
     9
100
AcDbLine
 10
4096.887003066425
 20
-1994.020384180712
 30
0.0
 11
4096.887003066425
 21
-1964.020384180712
 31
0.0
  0
LINE
  5
168
330
1F
100
AcDbEntity
  8
1-7_金物
  6
Continuous
 62
     7
370
     9
100
AcDbLine
 10
4071.332532044438
 20
-1940.19464726346
 30
0.0
 11
4071.332532044438
 21
-2022.54464726346
 31
0.0
  0
LINE
  5
169
330
1F
100
AcDbEntity
  8
1-7_金物
  6
Continuous
 62
     7
370
     9
100
AcDbLine
 10
4177.887010353423
 20
-2028.520384180712
 30
0.0
 11
4177.887010353423
 21
-1994.020384180712
 31
0.0
  0
LINE
  5
16A
330
1F
100
AcDbEntity
  8
1-7_金物
  6
Continuous
 62
     7
370
     9
100
AcDbLine
 10
4185.38700726942
 20
-2028.520384180712
 30
0.0
 11
4185.38700726942
 21
-1994.020379262212
 31
0.0
  0
ARC
  5
16B
330
1F
100
AcDbEntity
  8
1-7_金物
  6
Continuous
 62
     7
370
     9
100
AcDbCircle
 10
4085.636998471927
 20
-1993.270378492713
 30
0.0
 40
29.25960826436468
100
AcDbArc
 50
91.46881213439337
 51
181.4688121343926
  0
LINE
  5
16C
330
1F
100
AcDbEntity
  8
1-7_金物
  6
Continuous
 62
     7
370
     9
100
AcDbLine
 10
4203.387010353423
 20
-1994.020384180712
 30
0.0
 11
4203.387010353423
 21
-1964.020384180712
 31
0.0
  0
LINE
  5
16D
330
1F
100
AcDbEntity
  8
1-7_金物
  6
Continuous
 62
     7
370
     9
100
AcDbLine
 10
4405.805487818485
 20
-2028.520377474221
 30
0.0
 11
4392.387023261535
 21
-2011.747318502762
 31
0.0
  0
LINE
  5
16E
330
1F
100
AcDbEntity
  8
1-7_金物
  6
Continuous
 62
     7
370
     9
100
AcDbLine
 10
4392.387023261535
 20
-2011.747318502762
 30
0.0
 11
4378.968589065585
 21
-2028.520377474221
 31
0.0
  0
LINE
  5
16F
330
1F
100
AcDbEntity
  8
1-7_金物
  6
Continuous
 62
     7
370
     9
100
AcDbLine
 10
4378.968589065585
 20
-2028.520377474221
 30
0.0
 11
4405.805487818485
 21
-2028.520377474221
 31
0.0
  0
LINE
  5
170
330
1F
100
AcDbEntity
  8
1-7_金物
  6
JWW_DASHED3
 62
     7
370
     9
100
AcDbLine
 10
4362.387021806398
 20
-1994.020377474221
 30
0.0
 11
4386.530481127671
 21
-1963.84102412665
 31
0.0
  0
ARC
  5
171
330
1F
100
AcDbEntity
  8
1-7_金物
  6
JWW_DASHED3
 62
     7
370
     9
100
AcDbCircle
 10
4392.386999409492
 20
-1968.526234219556
 30
0.0
 40
7.499999999999566
100
AcDbArc
 50
38.65984445427199
 51
141.3402187843868
  0
LINE
  5
172
330
1F
100
AcDbEntity
  8
1-7_金物
  6
JWW_DASHED3
 62
     7
370
     9
100
AcDbLine
 10
4398.243512520137
 20
-1963.84101766268
 30
0.0
 11
4422.387031640396
 21
-1994.020377474221
 31
0.0
  0
LINE
  5
173
330
1F
100
AcDbEntity
  8
1-7_金物
  6
JWW_DASHED3
 62
     7
370
     9
100
AcDbLine
 10
4355.636992783924
 20
-1994.020377474221
 30
0.0
 11
4407.726397256728
 21
-1994.020377474221
 31
0.0
  0
LINE
  5
174
330
1F
100
AcDbEntity
  8
1-7_金物
  6
JWW_DASHED3
 62
     7
370
     9
100
AcDbLine
 10
4407.726397256728
 20
-1994.020377474221
 30
0.0
 11
4521.701992783923
 21
-1994.020377474221
 31
0.0
  0
LINE
  5
175
330
1F
100
AcDbEntity
  8
1-7_金物
  6
JWW_DASHED3
 62
     7
370
     9
100
AcDbLine
 10
4521.701992783923
 20
-1959.520377474221
 30
0.0
 11
4521.701992783923
 21
-1994.020377474221
 31
0.0
  0
LINE
  5
176
330
1F
100
AcDbEntity
  8
1-7_金物
  6
JWW_DASHED3
 62
     7
370
     9
100
AcDbLine
 10
4521.701992783923
 20
-1959.520377474221
 30
0.0
 11
4396.74693048392
 21
-1959.520377474221
 31
0.0
  0
LINE
  5
177
330
1F
100
AcDbEntity
  8
1-7_金物
  6
JWW_DASHED3
 62
     7
370
     9
100
AcDbLine
 10
4396.74693048392
 20
-1959.52037747422
 30
0.0
 11
4390.476424880725
 21
-1959.52037747422
 31
0.0
  0
LINE
  5
178
330
1F
100
AcDbEntity
  8
1-7_金物
  6
JWW_DASHED3
 62
     7
370
     9
100
AcDbLine
 10
4390.476424880725
 20
-1959.52037747422
 30
0.0
 11
4335.386992783922
 21
-1959.52037747422
 31
0.0
  0
LINE
  5
179
330
1F
100
AcDbEntity
  8
1-7_金物
  6
JWW_DASHED3
 62
     7
370
     9
100
AcDbLine
 10
4335.386992783922
 20
-1994.020377474221
 30
0.0
 11
4355.636992783924
 21
-1994.020377474221
 31
0.0
  0
LINE
  5
17A
330
1F
100
AcDbEntity
  8
1-7_金物
  6
JWW_DASHED3
 62
     7
370
     9
100
AcDbLine
 10
4335.386992783922
 20
-1992.520375764224
 30
0.0
 11
4335.386992783922
 21
-1994.020376709223
 31
0.0
  0
LINE
  5
17B
330
1F
100
AcDbEntity
  8
1-7_金物
  6
Continuous
 62
     7
370
     9
100
AcDbLine
 10
4335.386992783922
 20
-1151.020397590713
 30
0.0
 11
4335.386992783922
 21
-1992.520375764224
 31
0.0
  0
ARC
  5
17C
330
1F
100
AcDbEntity
  8
1-7_金物
  6
Continuous
 62
     7
370
     9
100
AcDbCircle
 10
4372.886996941924
 20
-1151.020398484713
 30
0.0
 40
37.5
100
AcDbArc
 50
90.0
 51
180.0
  0
ARC
  5
17D
330
1F
100
AcDbEntity
  8
1-7_金物
  6
JWW_DASHED3
 62
     7
370
     9
100
AcDbCircle
 10
4357.886992783922
 20
-1979.020374054223
 30
0.0
 40
22.50000000000128
100
AcDbArc
 50
90.0
 51
180.0
  0
LINE
  5
17E
330
1F
100
AcDbEntity
  8
1-7_金物
  6
JWW_DASHED3
 62
     7
370
     9
100
AcDbLine
 10
4497.386992784672
 20
-1956.520374054221
 30
0.0
 11
4357.886992783922
 21
-1956.520374054221
 31
0.0
  0
LINE
  5
17F
330
1F
100
AcDbEntity
  8
1-7_金物
  6
JWW_DASHED3
 62
     7
370
     9
100
AcDbLine
 10
4636.886992783924
 20
-1956.520374054222
 30
0.0
 11
4497.386992784672
 21
-1956.520374054222
 31
0.0
  0
ARC
  5
180
330
1F
100
AcDbEntity
  8
1-7_金物
  6
JWW_DASHED3
 62
     7
370
     9
100
AcDbCircle
 10
4636.886992783924
 20
-1979.020374054223
 30
0.0
 40
22.5
100
AcDbArc
 50
0.0
 51
90.0
  0
LINE
  5
181
330
1F
100
AcDbEntity
  8
1-7_金物
  6
JWW_DASHED3
 62
     7
370
     9
100
AcDbLine
 10
4406.636984649421
 20
-1994.020377474221
 30
0.0
 11
4406.636984649421
 21
-1959.520377474221
 31
0.0
  0
LINE
  5
182
330
1F
100
AcDbEntity
  8
1-7_金物
  6
JWW_DASHED3
 62
     7
370
     9
100
AcDbLine
 10
4467.386992783924
 20
-1959.520377474221
 30
0.0
 11
4467.386992783924
 21
-1994.020377474221
 31
0.0
  0
LINE
  5
183
330
1F
100
AcDbEntity
  8
1-7_金物
  6
JWW_DASHED3
 62
     7
370
     9
100
AcDbLine
 10
4473.071992783926
 20
-1994.020377474221
 30
0.0
 11
4473.071992783926
 21
-1959.520377474221
 31
0.0
  0
LINE
  5
184
330
1F
100
AcDbEntity
  8
1-7_金物
  6
JWW_DASHED3
 62
     7
370
     9
100
AcDbLine
 10
4527.386992783924
 20
-1994.020377474221
 30
0.0
 11
4527.386992783924
 21
-1959.520377474221
 31
0.0
  0
LINE
  5
185
330
1F
100
AcDbEntity
  8
1-7_金物
  6
JWW_DASHED3
 62
     7
370
     9
100
AcDbLine
 10
4593.366401264376
 20
-1959.520377474221
 30
0.0
 11
4527.386992783924
 21
-1959.520377474221
 31
0.0
  0
LINE
  5
186
330
1F
100
AcDbEntity
  8
1-7_金物
  6
JWW_DASHED3
 62
     7
370
     9
100
AcDbLine
 10
4659.386992783924
 20
-1959.520377474221
 30
0.0
 11
4593.366401264376
 21
-1959.520377474221
 31
0.0
  0
LINE
  5
187
330
1F
100
AcDbEntity
  8
1-7_金物
  6
JWW_DASHED3
 62
     7
370
     9
100
AcDbLine
 10
4659.386989654926
 20
-1959.520377474221
 30
0.0
 11
4660.886992783926
 21
-1959.520377474221
 31
0.0
  0
LINE
  5
188
330
1F
100
AcDbEntity
  8
1-7_金物
  6
Continuous
 62
     7
370
     9
100
AcDbLine
 10
4660.886992783926
 20
-1959.520377474221
 30
0.0
 11
4660.886992783926
 21
-1988.020377474221
 31
0.0
  0
LINE
  5
189
330
1F
100
AcDbEntity
  8
1-7_金物
  6
Continuous
 62
     7
370
     9
100
AcDbLine
 10
4660.886992783926
 20
-1988.020377474221
 30
0.0
 11
4690.886992783926
 21
-1988.020377474221
 31
0.0
  0
LINE
  5
18A
330
1F
100
AcDbEntity
  8
1-7_金物
  6
Continuous
 62
     7
370
     9
100
AcDbLine
 10
4690.886992783926
 20
-1959.520377474221
 30
0.0
 11
4690.886992783926
 21
-1988.020377474221
 31
0.0
  0
ARC
  5
18B
330
1F
100
AcDbEntity
  8
1-7_金物
  6
Continuous
 62
     7
370
     9
100
AcDbCircle
 10
4660.886992783926
 20
-1959.520377474221
 30
0.0
 40
30.0
100
AcDbArc
 50
0.0
 51
90.0
  0
LINE
  5
18C
330
1F
100
AcDbEntity
  8
1-7_金物
  6
JWW_DASHED3
 62
     7
370
     9
100
AcDbLine
 10
4660.886992783926
 20
-1929.520377474221
 30
0.0
 11
4659.386992783924
 21
-1929.520377474221
 31
0.0
  0
LINE
  5
18D
330
1F
100
AcDbEntity
  8
1-7_金物
  6
JWW_DASHED3
 62
     7
370
     9
100
AcDbLine
 10
4659.386992783924
 20
-1929.520377474221
 30
0.0
 11
4473.386992783926
 21
-1929.520377474221
 31
0.0
  0
LINE
  5
18E
330
1F
100
AcDbEntity
  8
1-7_金物
  6
JWW_DASHED3
 62
     7
370
     9
100
AcDbLine
 10
4367.513906172421
 20
-1929.520377474221
 30
0.0
 11
4473.386992783926
 21
-1929.520377474221
 31
0.0
  0
LINE
  5
18F
330
1F
100
AcDbEntity
  8
1-7_金物
  6
JWW_DASHED3
 62
     7
370
     9
100
AcDbLine
 10
4363.136965159922
 20
-1929.520377474221
 30
0.0
 11
4367.513906172421
 21
-1929.520377474221
 31
0.0
  0
LINE
  5
190
330
1F
100
AcDbEntity
  8
1-7_金物
  6
JWW_DASHED3
 62
     7
370
     9
100
AcDbLine
 10
4521.701992783923
 20
-1994.020377474221
 30
0.0
 11
4527.386992783924
 21
-1994.020377474221
 31
0.0
  0
LINE
  5
191
330
1F
100
AcDbEntity
  8
1-7_金物
  6
JWW_DASHED3
 62
     7
370
     9
100
AcDbLine
 10
4527.386992783924
 20
-1959.520377474221
 30
0.0
 11
4521.701992783923
 21
-1959.520377474221
 31
0.0
  0
LINE
  5
192
330
1F
100
AcDbEntity
  8
1-7_金物
  6
JWW_DASHED3
 62
     7
370
     9
100
AcDbLine
 10
4572.387021806398
 20
-1994.020377474221
 30
0.0
 11
4596.530481127671
 21
-1963.84102412665
 31
0.0
  0
ARC
  5
193
330
1F
100
AcDbEntity
  8
1-7_金物
  6
JWW_DASHED3
 62
     7
370
     9
100
AcDbCircle
 10
4602.386999409492
 20
-1968.526234219556
 30
0.0
 40
7.499999999999566
100
AcDbArc
 50
38.65984445427199
 51
141.3402187843868
  0
LINE
  5
194
330
1F
100
AcDbEntity
  8
1-7_金物
  6
JWW_DASHED3
 62
     7
370
     9
100
AcDbLine
 10
4608.243512520137
 20
-1963.84101766268
 30
0.0
 11
4632.387031640396
 21
-1994.020377474221
 31
0.0
  0
LINE
  5
195
330
1F
100
AcDbEntity
  8
1-7_金物
  6
JWW_DASHED3
 62
     7
370
     9
100
AcDbLine
 10
4588.136988582423
 20
-1994.020377474221
 30
0.0
 11
4588.136988582423
 21
-1959.520377474221
 31
0.0
  0
LINE
  5
196
330
1F
100
AcDbEntity
  8
1-7_金物
  6
JWW_DASHED3
 62
     7
370
     9
100
AcDbLine
 10
4556.168497854591
 20
-1946.895434937566
 30
0.0
 11
4438.605487713258
 21
-1946.895434937566
 31
0.0
  0
LINE
  5
197
330
1F
100
AcDbEntity
  8
1-7_金物
  6
JWW_DASHED3
 62
     7
370
     9
100
AcDbLine
 10
4436.636992783925
 20
-1959.520377474221
 30
0.0
 11
4438.605487713258
 21
-1946.895434937566
 31
0.0
  0
LINE
  5
198
330
1F
100
AcDbEntity
  8
1-7_金物
  6
JWW_DASHED3
 62
     7
370
     9
100
AcDbLine
 10
4558.136992783924
 20
-1959.520377474221
 30
0.0
 11
4556.168497854591
 21
-1946.895434937566
 31
0.0
  0
ARC
  5
199
330
1F
100
AcDbEntity
  8
1-7_金物
  6
JWW_DASHED3
 62
     7
370
     9
100
AcDbCircle
 10
4500.386992783925
 20
-2079.804123731512
 30
0.0
 40
144.1398482893426
100
AcDbArc
 50
67.23230668980638
 51
88.29120078810318
  0
LINE
  5
19A
330
1F
100
AcDbEntity
  8
1-7_金物
  6
JWW_DASHED3
 62
     7
370
     9
100
AcDbLine
 10
4504.685207220874
 20
-1935.72837553797
 30
0.0
 11
4503.849144680181
 21
-1939.264544496047
 31
0.0
  0
LINE
  5
19B
330
1F
100
AcDbEntity
  8
1-7_金物
  6
JWW_DASHED3
 62
     7
370
     9
100
AcDbLine
 10
4503.849144680181
 20
-1939.264544496047
 30
0.0
 11
4490.924840887668
 21
-1939.264544496047
 31
0.0
  0
LINE
  5
19C
330
1F
100
AcDbEntity
  8
1-7_金物
  6
JWW_DASHED3
 62
     7
370
     9
100
AcDbLine
 10
4490.924840887668
 20
-1939.264544496047
 30
0.0
 11
4490.088778346975
 21
-1935.72837553797
 31
0.0
  0
ARC
  5
19D
330
1F
100
AcDbEntity
  8
1-7_金物
  6
JWW_DASHED3
 62
     7
370
     9
100
AcDbCircle
 10
4494.386992783924
 20
-2079.804123731514
 30
0.0
 40
144.1398482893442
100
AcDbArc
 50
91.70879921189668
 51
112.7676933101938
  0
LINE
  5
19E
330
1F
100
AcDbEntity
  8
1-7_金物
  6
JWW_DASHED3
 62
     7
370
     9
100
AcDbLine
 10
4556.168497854591
 20
-1916.895434937566
 30
0.0
 11
4438.605487713258
 21
-1916.895434937566
 31
0.0
  0
ARC
  5
19F
330
1F
100
AcDbEntity
  8
1-7_金物
  6
Continuous
 62
     7
370
     9
100
AcDbCircle
 10
4494.386992783924
 20
-2049.804123731514
 30
0.0
 40
144.1398482893455
100
AcDbArc
 50
91.70879921189668
 51
112.7676933101938
  0
LINE
  5
1A0
330
1F
100
AcDbEntity
  8
1-7_金物
  6
Continuous
 62
     7
370
     9
100
AcDbLine
 10
4490.924840887668
 20
-1909.264544496046
 30
0.0
 11
4490.088778346975
 21
-1905.728375537969
 31
0.0
  0
LINE
  5
1A1
330
1F
100
AcDbEntity
  8
1-7_金物
  6
JWW_DASHED3
 62
     7
370
     9
100
AcDbLine
 10
4503.849144680181
 20
-1909.264544496046
 30
0.0
 11
4490.924840887668
 21
-1909.264544496046
 31
0.0
  0
LINE
  5
1A2
330
1F
100
AcDbEntity
  8
1-7_金物
  6
Continuous
 62
     7
370
     9
100
AcDbLine
 10
4504.685207220874
 20
-1905.728375537969
 30
0.0
 11
4503.849144680181
 21
-1909.264544496046
 31
0.0
  0
ARC
  5
1A3
330
1F
100
AcDbEntity
  8
1-7_金物
  6
Continuous
 62
     7
370
     9
100
AcDbCircle
 10
4500.386992783925
 20
-2049.804123731512
 30
0.0
 40
144.1398482893426
100
AcDbArc
 50
67.23230668980638
 51
88.2912007881033
  0
LINE
  5
1A4
330
1F
100
AcDbEntity
  8
1-7_金物
  6
JWW_DASHED3
 62
     7
370
     9
100
AcDbLine
 10
4436.636992783925
 20
-1929.520377474221
 30
0.0
 11
4438.605487713258
 21
-1916.895434937566
 31
0.0
  0
LINE
  5
1A5
330
1F
100
AcDbEntity
  8
1-7_金物
  6
JWW_DASHED3
 62
     7
370
     9
100
AcDbLine
 10
4558.136992783924
 20
-1929.520377474221
 30
0.0
 11
4436.636992783925
 21
-1929.520377474221
 31
0.0
  0
LINE
  5
1A6
330
1F
100
AcDbEntity
  8
1-7_金物
  6
JWW_DASHED3
 62
     7
370
     9
100
AcDbLine
 10
4558.136992783924
 20
-1929.520377474221
 30
0.0
 11
4556.168497854591
 21
-1916.895434937566
 31
0.0
  0
LINE
  5
1A7
330
1F
100
AcDbEntity
  8
1-7_金物
  6
JWW_DASHED3
 62
     7
370
     9
100
AcDbLine
 10
4497.386992784675
 20
-1994.020377474221
 30
0.0
 11
4659.386992783924
 21
-1994.020377474221
 31
0.0
  0
LINE
  5
1A8
330
1F
100
AcDbEntity
  8
1-7_金物
  6
Continuous
 62
     7
370
     9
100
AcDbLine
 10
4659.386992783924
 20
-2028.520377474223
 30
0.0
 11
4659.386992783924
 21
-1994.020376709223
 31
0.0
  0
LINE
  5
1A9
330
1F
100
AcDbEntity
  8
1-7_金物
  6
Continuous
 62
     7
370
     9
100
AcDbLine
 10
4615.805487818485
 20
-2028.520377474223
 30
0.0
 11
4659.386992783924
 21
-2028.520377474223
 31
0.0
  0
LINE
  5
1AA
330
1F
100
AcDbEntity
  8
1-7_金物
  6
Continuous
 62
     7
370
     9
100
AcDbLine
 10
4372.886998930924
 20
-1113.520377474213
 30
0.0
 11
4621.886986638423
 21
-1113.520377474213
 31
0.0
  0
LINE
  5
1AB
330
1F
100
AcDbEntity
  8
1-7_金物
  6
Continuous
 62
     7
370
     9
100
AcDbLine
 10
4659.386992783924
 20
-1151.020397590713
 30
0.0
 11
4659.386992783924
 21
-1992.520375764224
 31
0.0
  0
LINE
  5
1AC
330
1F
100
AcDbEntity
  8
1-7_金物
  6
JWW_DASHED3
 62
     7
370
     9
100
AcDbLine
 10
4659.386992783924
 20
-1992.520375764224
 30
0.0
 11
4659.386992783924
 21
-1994.020376709223
 31
0.0
  0
ARC
  5
1AD
330
1F
100
AcDbEntity
  8
1-7_金物
  6
Continuous
 62
     7
370
     9
100
AcDbCircle
 10
4621.88698862742
 20
-1151.020398484713
 30
0.0
 40
37.5
100
AcDbArc
 50
0.0
 51
90.0
  0
LINE
  5
1AE
330
1F
100
AcDbEntity
  8
1-7_金物
  6
Continuous
 62
     7
370
     9
100
AcDbLine
 10
4497.386992783924
 20
-2005.524742756495
 30
0.0
 11
4497.386992783924
 21
-1941.994846121322
 31
0.0
  0
LINE
  5
1AF
330
1F
100
AcDbEntity
  8
1-7_金物
  6
Continuous
 62
     7
370
     9
100
AcDbLine
 10
4055.637011982426
 20
-2028.520384180712
 30
0.0
 11
4055.637011982426
 21
-1994.020384180712
 31
0.0
  0
LINE
  5
1B0
330
1F
100
AcDbEntity
  8
1-7_金物
  6
Continuous
 62
     7
370
     9
100
AcDbLine
 10
3969.387010353425
 20
-1964.020384180712
 30
0.0
 11
3969.387010353425
 21
-1994.020384180712
 31
0.0
  0
CIRCLE
  5
1B1
330
1F
100
AcDbEntity
  8
1-7_金物
  6
Continuous
 62
     7
370
     9
100
AcDbCircle
 10
4497.386992784675
 20
-1233.520398484713
 30
0.0
 40
31.49999999999864
  0
CIRCLE
  5
1B2
330
1F
100
AcDbEntity
  8
1-7_金物
  6
Continuous
 62
     7
370
     9
100
AcDbCircle
 10
4497.386992784675
 20
-1698.520377474223
 30
0.0
 40
31.49999999999864
  0
LINE
  5
1B3
330
1F
100
AcDbEntity
  8
1-7_金物
  6
Continuous
 62
     7
370
     9
100
AcDbLine
 10
4602.386992783924
 20
-1945.929135395582
 30
0.0
 11
4602.386992783924
 21
-2017.929135395582
 31
0.0
  0
LINE
  5
1B4
330
1F
100
AcDbEntity
  8
1-7_金物
  6
Continuous
 62
     7
370
     9
100
AcDbLine
 10
4392.386992783924
 20
-1945.929135395582
 30
0.0
 11
4392.386992783924
 21
-2017.929135395582
 31
0.0
  0
LINE
  5
1B5
330
1F
100
AcDbEntity
  8
1-7_金物
  6
Continuous
 62
     7
370
     9
100
AcDbLine
 10
4473.386992783926
 20
-1989.520377474221
 30
0.0
 11
4473.386992783926
 21
-1899.520377474221
 31
0.0
  0
LINE
  5
1B6
330
1F
100
AcDbEntity
  8
1-7_金物
  6
JWW_DASHED3
 62
     7
370
     9
100
AcDbLine
 10
4466.636992783925
 20
-1959.520377474221
 30
0.0
 11
4466.636992783925
 21
-1929.520377474221
 31
0.0
  0
LINE
  5
1B7
330
1F
100
AcDbEntity
  8
1-7_金物
  6
JWW_DASHED3
 62
     7
370
     9
100
AcDbLine
 10
4528.136992783924
 20
-1959.520377474221
 30
0.0
 11
4528.136992783924
 21
-1929.520377474221
 31
0.0
  0
LINE
  5
1B8
330
1F
100
AcDbEntity
  8
1-7_金物
  6
JWW_DASHED3
 62
     7
370
     9
100
AcDbLine
 10
4497.386992783924
 20
-1965.499743743619
 30
0.0
 11
4497.386992783924
 21
-1920.349743743619
 31
0.0
  0
LINE
  5
1B9
330
1F
100
AcDbEntity
  8
1-7_金物
  6
JWW_DASHED3
 62
     7
370
     9
100
AcDbLine
 10
4659.386989654926
 20
-1994.020377474221
 30
0.0
 11
4659.386989654926
 21
-1959.520377474221
 31
0.0
  0
LINE
  5
1BA
330
1F
100
AcDbEntity
  8
1-7_金物
  6
JWW_DASHED3
 62
     7
370
     9
100
AcDbLine
 10
4659.386989654926
 20
-1959.520377474221
 30
0.0
 11
4659.386992783924
 21
-1959.520377474221
 31
0.0
  0
LINE
  5
1BB
330
1F
100
AcDbEntity
  8
1-7_金物
  6
JWW_DASHED3
 62
     7
370
     9
100
AcDbLine
 10
4527.386992783924
 20
-1994.020377474221
 30
0.0
 11
4587.38696712642
 21
-1994.020377474221
 31
0.0
  0
LINE
  5
1BC
330
1F
100
AcDbEntity
  8
1-7_金物
  6
JWW_DASHED3
 62
     7
370
     9
100
AcDbLine
 10
4587.38696712642
 20
-1994.020377474221
 30
0.0
 11
4659.386989654926
 21
-1994.020377474221
 31
0.0
  0
LINE
  5
1BD
330
1F
100
AcDbEntity
  8
1-7_金物
  6
JWW_DASHED3
 62
     7
370
     9
100
AcDbLine
 10
4367.513906172421
 20
-1959.520377474221
 30
0.0
 11
4473.386992783926
 21
-1959.520377474221
 31
0.0
  0
LINE
  5
1BE
330
1F
100
AcDbEntity
  8
1-7_金物
  6
JWW_DASHED3
 62
     7
370
     9
100
AcDbLine
 10
4473.386992783926
 20
-1959.520377474221
 30
0.0
 11
4659.386989654926
 21
-1959.520377474221
 31
0.0
  0
LINE
  5
1BF
330
1F
100
AcDbEntity
  8
1-7_金物
  6
JWW_DASHED3
 62
     7
370
     9
100
AcDbLine
 10
4367.513906172421
 20
-1959.520377474221
 30
0.0
 11
4371.386965159922
 21
-1959.520377474221
 31
0.0
  0
LINE
  5
1C0
330
1F
100
AcDbEntity
  8
1-7_金物
  6
JWW_DASHED3
 62
     7
370
     9
100
AcDbLine
 10
4371.386965159922
 20
-1959.520377474221
 30
0.0
 11
4363.136965159922
 21
-1959.520377474221
 31
0.0
  0
LINE
  5
1C1
330
1F
100
AcDbEntity
  8
1-0_補助線
  6
JWW_HOJO
 62
   120
370
     5
100
AcDbLine
 10
4723.886989654925
 20
-2073.520377474222
 30
0.0
 11
3373.886989654927
 21
-2073.520377474222
 31
0.0
  0
LINE
  5
1C2
330
1F
100
AcDbEntity
  8
1-0_補助線
  6
JWW_HOJO
 62
   120
370
     5
100
AcDbLine
 10
4828.886989654925
 20
-2178.520377474222
 30
0.0
 11
3373.886989654927
 21
-2178.520377474222
 31
0.0
  0
LINE
  5
1C3
330
1F
100
AcDbEntity
  8
1-0_補助線
  6
JWW_HOJO
 62
   120
370
     5
100
AcDbLine
 10
4290.386992783922
 20
-1068.520377474213
 30
0.0
 11
4621.886986638423
 21
-1068.520377474213
 31
0.0
  0
LINE
  5
1C4
330
1F
100
AcDbEntity
  8
1-0_補助線
  6
JWW_HOJO
 62
   120
370
     5
100
AcDbLine
 10
4290.386992783922
 20
-1068.520377474213
 30
0.0
 11
4290.386992783922
 21
-1992.520375764224
 31
0.0
  0
LINE
  5
1C5
330
1F
100
AcDbEntity
  8
1-0_補助線
  6
JWW_HOJO
 62
   120
370
     5
100
AcDbLine
 10
4185.386992783922
 20
-963.5203774742132
 30
0.0
 11
4621.886986638423
 21
-963.5203774742132
 31
0.0
  0
LINE
  5
1C6
330
1F
100
AcDbEntity
  8
1-0_補助線
  6
JWW_HOJO
 62
   120
370
     5
100
AcDbLine
 10
4185.386992783922
 20
-963.5203774742132
 30
0.0
 11
4185.386992783922
 21
-1992.520375764224
 31
0.0
  0
LINE
  5
1C7
330
1F
100
AcDbEntity
  8
1-B_寸法
  6
Continuous
 62
   120
370
     5
100
AcDbLine
 10
3799.886992783926
 20
-1964.020384180712
 30
0.0
 11
3799.886992783926
 21
-1929.520377474221
 31
0.0
  0
LWPOLYLINE
  5
1C8
330
1F
100
AcDbEntity
  8
1-B_寸法
  6
Continuous
 62
     7
370
     9
100
AcDbPolyline
 90
        4
 70
     1
 43
3.0
 10
3801.386992783926
 20
-1964.020384180712
 42
0.4142135623731
 10
3799.886992783926
 20
-1962.520384180712
 42
0.4142135623731
 10
3798.386992783926
 20
-1964.020384180712
 42
0.4142135623731
 10
3799.886992783926
 20
-1965.520384180712
 42
0.4142135623731
  0
LWPOLYLINE
  5
1C9
330
1F
100
AcDbEntity
  8
1-B_寸法
  6
Continuous
 62
     7
370
     9
100
AcDbPolyline
 90
        4
 70
     1
 43
3.0
 10
3801.386992783926
 20
-1929.520377474221
 42
0.4142135623731
 10
3799.886992783926
 20
-1928.020377474222
 42
0.4142135623731
 10
3798.386992783926
 20
-1929.520377474221
 42
0.4142135623731
 10
3799.886992783926
 20
-1931.020377474221
 42
0.4142135623731
  0
LINE
  5
1CA
330
1F
100
AcDbEntity
  8
1-B_寸法
  6
Continuous
 62
   120
370
     5
100
AcDbLine
 10
3799.886992783926
 20
-1929.520377474221
 30
0.0
 11
3904.886992783926
 21
-1929.520377474221
 31
0.0
  0
MTEXT
  5
1CB
330
1F
100
AcDbEntity
  8
1-B_寸法
  6
Continuous
 62
     7
370
   211
100
AcDbMText
 10
4366.136992783924
 20
-958.5141274742132
 30
0.0
 40
100.0125
 41
262.5
 46
0.0
 71
     7
 72
     1
  1
{\fＭＳ ゴシック|b0|i0|c128|p49;21.6}
 73
     1
 44
1.0
  0
LINE
  5
1CC
330
1F
100
AcDbEntity
  8
1-7_金物
  6
Continuous
 62
     7
370
     9
100
AcDbLine
 10
3949.886992783926
 20
-1964.020384180712
 30
0.0
 11
4027.887000070926
 21
-1964.020384180712
 31
0.0
  0
LINE
  5
1CD
330
1F
100
AcDbEntity
  8
1-B_寸法
  6
Continuous
 62
   120
370
     5
100
AcDbLine
 10
4185.386992783922
 20
-1113.520398484713
 30
0.0
 11
4185.386992783922
 21
-1233.520377474213
 31
0.0
  0
LWPOLYLINE
  5
1CE
330
1F
100
AcDbEntity
  8
1-B_寸法
  6
Continuous
 62
     7
370
     9
100
AcDbPolyline
 90
        4
 70
     1
 43
3.0
 10
4186.886992783922
 20
-1113.520398484713
 42
0.4142135623731
 10
4185.386992783922
 20
-1112.020398484713
 42
0.4142135623731
 10
4183.886992783921
 20
-1113.520398484713
 42
0.4142135623731
 10
4185.386992783922
 20
-1115.020398484713
 42
0.4142135623731
  0
LWPOLYLINE
  5
1CF
330
1F
100
AcDbEntity
  8
1-B_寸法
  6
Continuous
 62
     7
370
     9
100
AcDbPolyline
 90
        4
 70
     1
 43
3.0
 10
4186.886992783922
 20
-1233.520377474213
 42
0.4142135623731
 10
4185.386992783922
 20
-1232.020377474213
 42
0.4142135623731
 10
4183.886992783921
 20
-1233.520377474213
 42
0.4142135623731
 10
4185.386992783922
 20
-1235.020377474213
 42
0.4142135623731
  0
LINE
  5
1D0
330
1F
100
AcDbEntity
  8
1-B_寸法
  6
Continuous
 62
   120
370
     5
100
AcDbLine
 10
4185.386992783922
 20
-1113.520398484713
 30
0.0
 11
4290.386992783922
 21
-1113.520398484713
 31
0.0
  0
LINE
  5
1D1
330
1F
100
AcDbEntity
  8
1-B_寸法
  6
Continuous
 62
   120
370
     5
100
AcDbLine
 10
4185.386992783922
 20
-1233.520377474213
 30
0.0
 11
4290.386992783922
 21
-1233.520377474213
 31
0.0
  0
MTEXT
  5
1D2
330
1F
100
AcDbEntity
  8
1-B_寸法
  6
Continuous
 62
     7
370
   211
100
AcDbMText
 10
4170.386992783922
 20
-1217.800387979463
 30
0.0
 40
91.44
 41
60.0
 46
0.0
 71
     7
 72
     1
  1
{\fＭＳ ゴシック|b0|i0|c128|p49;8}
 11
6.123031769111886E-17
 21
1.0
 31
0.0
 73
     1
 44
1.0
  0
LINE
  5
1D3
330
1F
100
AcDbEntity
  8
1-B_寸法
  6
Continuous
 62
   120
370
     5
100
AcDbLine
 10
4185.386992783922
 20
-1233.520377474213
 30
0.0
 11
4185.386992783922
 21
-1698.520377474213
 31
0.0
  0
LWPOLYLINE
  5
1D4
330
1F
100
AcDbEntity
  8
1-B_寸法
  6
Continuous
 62
     7
370
     9
100
AcDbPolyline
 90
        4
 70
     1
 43
3.0
 10
4186.886992783922
 20
-1698.520377474213
 42
0.4142135623731
 10
4185.386992783922
 20
-1697.020377474213
 42
0.4142135623731
 10
4183.886992783921
 20
-1698.520377474213
 42
0.4142135623731
 10
4185.386992783922
 20
-1700.020377474213
 42
0.4142135623731
  0
LINE
  5
1D5
330
1F
100
AcDbEntity
  8
1-B_寸法
  6
Continuous
 62
   120
370
     5
100
AcDbLine
 10
4185.386992783922
 20
-1698.520377474213
 30
0.0
 11
4290.386992783922
 21
-1698.520377474213
 31
0.0
  0
LINE
  5
1D6
330
1F
100
AcDbEntity
  8
1-B_寸法
  6
Continuous
 62
   120
370
     5
100
AcDbLine
 10
4335.386992783922
 20
-963.5203774742132
 30
0.0
 11
4659.386992783924
 21
-963.5203774742132
 31
0.0
  0
LWPOLYLINE
  5
1D7
330
1F
100
AcDbEntity
  8
1-B_寸法
  6
Continuous
 62
     7
370
     9
100
AcDbPolyline
 90
        4
 70
     1
 43
3.0
 10
4336.886992783922
 20
-963.5203774742132
 42
0.4142135623731
 10
4335.386992783922
 20
-962.0203774742133
 42
0.4142135623731
 10
4333.886992783921
 20
-963.5203774742132
 42
0.4142135623731
 10
4335.386992783922
 20
-965.0203774742131
 42
0.4142135623731
  0
LWPOLYLINE
  5
1D8
330
1F
100
AcDbEntity
  8
1-B_寸法
  6
Continuous
 62
     7
370
     9
100
AcDbPolyline
 90
        4
 70
     1
 43
3.0
 10
4660.886992783924
 20
-963.5203774742132
 42
0.4142135623731
 10
4659.386992783924
 20
-962.0203774742133
 42
0.4142135623731
 10
4657.886992783923
 20
-963.5203774742132
 42
0.4142135623731
 10
4659.386992783924
 20
-965.0203774742131
 42
0.4142135623731
  0
LINE
  5
1D9
330
1F
100
AcDbEntity
  8
1-B_寸法
  6
Continuous
 62
   120
370
     5
100
AcDbLine
 10
4335.386992783922
 20
-963.5203774742132
 30
0.0
 11
4335.386992783922
 21
-1068.520377474213
 31
0.0
  0
LINE
  5
1DA
330
1F
100
AcDbEntity
  8
1-B_寸法
  6
Continuous
 62
   120
370
     5
100
AcDbLine
 10
4659.386992783924
 20
-963.5203774742132
 30
0.0
 11
4659.386992783924
 21
-1068.520377474213
 31
0.0
  0
MTEXT
  5
1DB
330
1F
100
AcDbEntity
  8
1-B_寸法
  6
Continuous
 62
     7
370
   211
100
AcDbMText
 10
4170.386992783922
 20
-1541.192877474213
 30
0.0
 40
97.15499999999999
 41
127.5
 46
0.0
 71
     7
 72
     1
  1
{\fＭＳ ゴシック|b0|i0|c128|p49;31}
 11
6.123031769111886E-17
 21
1.0
 31
0.0
 73
     1
 44
1.0
  0
LINE
  5
1DC
330
1F
100
AcDbEntity
  8
1-B_寸法
  6
Continuous
 62
   120
370
     5
100
AcDbLine
 10
4828.886989654925
 20
-2028.520377474222
 30
0.0
 11
4828.886989654925
 21
-1113.520377474213
 31
0.0
  0
LWPOLYLINE
  5
1DD
330
1F
100
AcDbEntity
  8
1-B_寸法
  6
Continuous
 62
     7
370
     9
100
AcDbPolyline
 90
        4
 70
     1
 43
3.0
 10
4830.386989654925
 20
-2028.520377474222
 42
0.4142135623731
 10
4828.886989654925
 20
-2027.020377474222
 42
0.4142135623731
 10
4827.386989654925
 20
-2028.520377474222
 42
0.4142135623731
 10
4828.886989654925
 20
-2030.020377474222
 42
0.4142135623731
  0
LWPOLYLINE
  5
1DE
330
1F
100
AcDbEntity
  8
1-B_寸法
  6
Continuous
 62
     7
370
     9
100
AcDbPolyline
 90
        4
 70
     1
 43
3.0
 10
4830.386989654925
 20
-1113.520377474213
 42
0.4142135623731
 10
4828.886989654925
 20
-1112.020377474213
 42
0.4142135623731
 10
4827.386989654925
 20
-1113.520377474213
 42
0.4142135623731
 10
4828.886989654925
 20
-1115.020377474213
 42
0.4142135623731
  0
LINE
  5
1DF
330
1F
100
AcDbEntity
  8
1-B_寸法
  6
Continuous
 62
   120
370
     5
100
AcDbLine
 10
4828.886989654925
 20
-2028.520377474222
 30
0.0
 11
4723.886989654925
 21
-2028.520377474222
 31
0.0
  0
LINE
  5
1E0
330
1F
100
AcDbEntity
  8
1-B_寸法
  6
Continuous
 62
   120
370
     5
100
AcDbLine
 10
4828.886989654925
 20
-1113.520377474213
 30
0.0
 11
4723.886989654925
 21
-1113.520377474213
 31
0.0
  0
MTEXT
  5
1E1
330
1F
100
AcDbEntity
  8
1-B_寸法
  6
Continuous
 62
     7
370
   211
100
AcDbMText
 10
4813.886989654925
 20
-1646.192877474217
 30
0.0
 40
97.15499999999999
 41
127.5
 46
0.0
 71
     7
 72
     1
  1
{\fＭＳ ゴシック|b0|i0|c128|p49;61}
 11
6.123031769111886E-17
 21
1.0
 31
0.0
 73
     1
 44
1.0
  0
LINE
  5
1E2
330
1F
100
AcDbEntity
  8
1-B_寸法
  6
Continuous
 62
   120
370
     5
100
AcDbLine
 10
3373.886989654927
 20
-2343.520377474222
 30
0.0
 11
3508.886989654926
 21
-2343.520377474222
 31
0.0
  0
LWPOLYLINE
  5
1E3
330
1F
100
AcDbEntity
  8
1-B_寸法
  6
Continuous
 62
     7
370
     9
100
AcDbPolyline
 90
        4
 70
     1
 43
3.0
 10
3375.386989654927
 20
-2343.520377474222
 42
0.4142135623731
 10
3373.886989654927
 20
-2342.020377474222
 42
0.4142135623731
 10
3372.386989654927
 20
-2343.520377474222
 42
0.4142135623731
 10
3373.886989654927
 20
-2345.020377474222
 42
0.4142135623731
  0
LWPOLYLINE
  5
1E4
330
1F
100
AcDbEntity
  8
1-B_寸法
  6
Continuous
 62
     7
370
     9
100
AcDbPolyline
 90
        4
 70
     1
 43
3.0
 10
3510.386989654926
 20
-2343.520377474222
 42
0.4142135623731
 10
3508.886989654926
 20
-2342.020377474222
 42
0.4142135623731
 10
3507.386989654926
 20
-2343.520377474222
 42
0.4142135623731
 10
3508.886989654926
 20
-2345.020377474222
 42
0.4142135623731
  0
LINE
  5
1E5
330
1F
100
AcDbEntity
  8
1-B_寸法
  6
Continuous
 62
   120
370
     5
100
AcDbLine
 10
3508.886989654926
 20
-2343.520377474222
 30
0.0
 11
4086.386989654926
 21
-2343.520377474222
 31
0.0
  0
LWPOLYLINE
  5
1E6
330
1F
100
AcDbEntity
  8
1-B_寸法
  6
Continuous
 62
     7
370
     9
100
AcDbPolyline
 90
        4
 70
     1
 43
3.0
 10
4087.886989654926
 20
-2343.520377474222
 42
0.4142135623731
 10
4086.386989654926
 20
-2342.020377474222
 42
0.4142135623731
 10
4084.886989654925
 20
-2343.520377474222
 42
0.4142135623731
 10
4086.386989654926
 20
-2345.020377474222
 42
0.4142135623731
  0
MTEXT
  5
1E7
330
1F
100
AcDbEntity
  8
1-B_寸法
  6
Continuous
 62
     7
370
   211
100
AcDbMText
 10
4571.636991219422
 20
-2173.990377474222
 30
0.0
 40
99.06
 41
195.0
 46
0.0
 71
     7
 72
     1
  1
{\fＭＳ ゴシック|b0|i0|c128|p49;1.3}
 73
     1
 44
1.0
  0
LINE
  5
1E8
330
1F
100
AcDbEntity
  8
1-B_寸法
  6
Continuous
 62
   120
370
     5
100
AcDbLine
 10
4086.386989654926
 20
-2343.520377474222
 30
0.0
 11
4678.886989654925
 21
-2343.520377474222
 31
0.0
  0
LWPOLYLINE
  5
1E9
330
1F
100
AcDbEntity
  8
1-B_寸法
  6
Continuous
 62
     7
370
     9
100
AcDbPolyline
 90
        4
 70
     1
 43
3.0
 10
4680.386989654925
 20
-2343.520377474222
 42
0.4142135623731
 10
4678.886989654925
 20
-2342.020377474222
 42
0.4142135623731
 10
4677.386989654925
 20
-2343.520377474222
 42
0.4142135623731
 10
4678.886989654925
 20
-2345.020377474222
 42
0.4142135623731
  0
LINE
  5
1EA
330
1F
100
AcDbEntity
  8
1-B_寸法
  6
Continuous
 62
   120
370
     5
100
AcDbLine
 10
4678.886989654925
 20
-2343.520377474222
 30
0.0
 11
4678.886989654925
 21
-2178.520377474222
 31
0.0
  0
MTEXT
  5
1EB
330
1F
100
AcDbEntity
  8
1-B_寸法
  6
Continuous
 62
     7
370
   211
100
AcDbMText
 10
3411.386989654927
 20
-2342.800377474223
 30
0.0
 40
91.4399999999974
 41
59.99999999999829
 46
0.0
 71
     7
 72
     1
  1
{\fＭＳ ゴシック|b0|i0|c128|p49;9}
 73
     1
 44
1.0
  0
LINE
  5
1EC
330
1F
100
AcDbEntity
  8
1-B_寸法
  6
Continuous
 62
   120
370
     5
100
AcDbLine
 10
3373.886989654927
 20
-2508.520377474222
 30
0.0
 11
4678.886989654925
 21
-2508.520377474222
 31
0.0
  0
LWPOLYLINE
  5
1ED
330
1F
100
AcDbEntity
  8
1-B_寸法
  6
Continuous
 62
     7
370
     9
100
AcDbPolyline
 90
        4
 70
     1
 43
3.0
 10
3375.386989654927
 20
-2508.520377474222
 42
0.4142135623731
 10
3373.886989654927
 20
-2507.020377474222
 42
0.4142135623731
 10
3372.386989654927
 20
-2508.520377474222
 42
0.4142135623731
 10
3373.886989654927
 20
-2510.020377474222
 42
0.4142135623731
  0
LWPOLYLINE
  5
1EE
330
1F
100
AcDbEntity
  8
1-B_寸法
  6
Continuous
 62
     7
370
     9
100
AcDbPolyline
 90
        4
 70
     1
 43
3.0
 10
4680.386989654925
 20
-2508.520377474222
 42
0.4142135623731
 10
4678.886989654925
 20
-2507.020377474222
 42
0.4142135623731
 10
4677.386989654925
 20
-2508.520377474222
 42
0.4142135623731
 10
4678.886989654925
 20
-2510.020377474222
 42
0.4142135623731
  0
LINE
  5
1EF
330
1F
100
AcDbEntity
  8
1-B_寸法
  6
Continuous
 62
   120
370
     5
100
AcDbLine
 10
4678.886989654925
 20
-2508.520377474222
 30
0.0
 11
4678.886989654925
 21
-2178.520377474222
 31
0.0
  0
MTEXT
  5
1F0
330
1F
100
AcDbEntity
  8
1-B_寸法
  6
Continuous
 62
     7
370
   211
100
AcDbMText
 10
3666.386989654926
 20
-2338.514127474222
 30
0.0
 40
100.0125
 41
262.5
 46
0.0
 71
     7
 72
     1
  1
{\fＭＳ ゴシック|b0|i0|c128|p49;38.5}
 73
     1
 44
1.0
  0
LINE
  5
1F1
330
1F
100
AcDbEntity
  8
1-B_寸法
  6
Continuous
 62
   120
370
     5
100
AcDbLine
 10
4678.886989654925
 20
-2178.520377474222
 30
0.0
 11
4659.386992783924
 21
-2178.520377474222
 31
0.0
  0
LWPOLYLINE
  5
1F2
330
1F
100
AcDbEntity
  8
1-B_寸法
  6
Continuous
 62
     7
370
     9
100
AcDbPolyline
 90
        4
 70
     1
 43
3.0
 10
4680.386989654925
 20
-2178.520377474222
 42
0.4142135623731
 10
4678.886989654925
 20
-2177.020377474222
 42
0.4142135623731
 10
4677.386989654925
 20
-2178.520377474222
 42
0.4142135623731
 10
4678.886989654925
 20
-2180.020377474222
 42
0.4142135623731
  0
LWPOLYLINE
  5
1F3
330
1F
100
AcDbEntity
  8
1-B_寸法
  6
Continuous
 62
     7
370
     9
100
AcDbPolyline
 90
        4
 70
     1
 43
3.0
 10
4660.886992783924
 20
-2178.520377474222
 42
0.4142135623731
 10
4659.386992783924
 20
-2177.020377474222
 42
0.4142135623731
 10
4657.886992783923
 20
-2178.520377474222
 42
0.4142135623731
 10
4659.386992783924
 20
-2180.020377474222
 42
0.4142135623731
  0
LINE
  5
1F4
330
1F
100
AcDbEntity
  8
1-B_寸法
  6
Continuous
 62
   120
370
     5
100
AcDbLine
 10
4678.886989654925
 20
-2178.520377474222
 30
0.0
 11
4678.886989654925
 21
-2073.520377474222
 31
0.0
  0
LINE
  5
1F5
330
1F
100
AcDbEntity
  8
1-B_寸法
  6
Continuous
 62
   120
370
     5
100
AcDbLine
 10
4659.386992783924
 20
-2178.520377474222
 30
0.0
 11
4659.386992783924
 21
-2073.520377474222
 31
0.0
  0
MTEXT
  5
1F6
330
1F
100
AcDbEntity
  8
1-B_寸法
  6
Continuous
 62
     7
370
   211
100
AcDbMText
 10
4251.386989654925
 20
-2338.514127474222
 30
0.0
 40
100.0125
 41
262.5
 46
0.0
 71
     7
 72
     1
  1
{\fＭＳ ゴシック|b0|i0|c128|p49;39.5}
 73
     1
 44
1.0
  0
LINE
  5
1F7
330
1F
100
AcDbEntity
  8
1-B_寸法
  6
Continuous
 62
   120
370
     5
100
AcDbLine
 10
4086.386989654926
 20
-2343.520377474222
 30
0.0
 11
4086.386989654926
 21
-2073.520377474222
 31
0.0
  0
LINE
  5
1F8
330
1F
100
AcDbEntity
  8
1-B_寸法
  6
Continuous
 62
   120
370
     5
100
AcDbLine
 10
3373.886989654927
 20
-2343.520377474222
 30
0.0
 11
3373.886989654927
 21
-2073.520377474222
 31
0.0
  0
LINE
  5
1F9
330
1F
100
AcDbEntity
  8
1-B_寸法
  6
Continuous
 62
   120
370
     5
100
AcDbLine
 10
3508.886989654926
 20
-2343.520377474222
 30
0.0
 11
3508.886989654926
 21
-2073.520377474222
 31
0.0
  0
LINE
  5
1FA
330
1F
100
AcDbEntity
  8
1-B_寸法
  6
Continuous
 62
   120
370
     5
100
AcDbLine
 10
3373.886989654927
 20
-2508.520377474222
 30
0.0
 11
3373.886989654927
 21
-2073.520377474222
 31
0.0
  0
LINE
  5
1FB
330
1F
100
AcDbEntity
  8
1-4_枠
  6
Continuous
 62
    92
370
    13
100
AcDbLine
 10
3508.886989654926
 20
-188.3604754560483
 30
0.0
 11
3508.886989654926
 21
-2028.520377474222
 31
0.0
  0
LINE
  5
1FC
330
1F
100
AcDbEntity
  8
1-4_枠
  6
Continuous
 62
    92
370
    13
100
AcDbLine
 10
3373.886989654927
 20
-188.3604754560483
 30
0.0
 11
3373.886989654927
 21
-2028.520377474222
 31
0.0
  0
LINE
  5
1FD
330
1F
100
AcDbEntity
  8
1-4_枠
  6
Continuous
 62
    92
370
    13
100
AcDbLine
 10
4678.886989654925
 20
-188.3604754560483
 30
0.0
 11
4678.886989654925
 21
-2028.520377474222
 31
0.0
  0
LINE
  5
1FE
330
1F
100
AcDbEntity
  8
1-0_補助線
  6
JWW_HOJO
 62
   120
370
     5
100
AcDbLine
 10
4723.886989654925
 20
-188.3604754560483
 30
0.0
 11
4723.886989654925
 21
-2073.520377474222
 31
0.0
  0
LINE
  5
1FF
330
1F
100
AcDbEntity
  8
1-0_補助線
  6
JWW_HOJO
 62
   120
370
     5
100
AcDbLine
 10
4828.886989654925
 20
-188.3604754560483
 30
0.0
 11
4828.886989654925
 21
-2178.520377474222
 31
0.0
  0
LINE
  5
200
330
1F
100
AcDbEntity
  8
0-A_文字
  6
Continuous
 62
    92
370
    13
100
AcDbLine
 10
3057.112022678131
 20
170.3058710235473
 30
0.0
 11
5037.112022678131
 21
170.3058710235473
 31
0.0
  0
LINE
  5
201
330
1F
100
AcDbEntity
  8
0-A_文字
  6
Continuous
 62
    92
370
    13
100
AcDbLine
 10
3057.112022678131
 20
-2709.694128976452
 30
0.0
 11
5037.112022678131
 21
-2709.694128976452
 31
0.0
  0
LINE
  5
202
330
1F
100
AcDbEntity
  8
0-A_文字
  6
Continuous
 62
    92
370
    13
100
AcDbLine
 10
3057.112022678131
 20
11.15165638354625
 30
0.0
 11
5037.112022678131
 21
11.15165638354625
 31
0.0
  0
MTEXT
  5
203
330
1F
100
AcDbEntity
  8
1-B_寸法
  6
Continuous
 62
     7
370
   211
100
AcDbMText
 10
3962.636989654926
 20
-2504.942877474222
 30
0.0
 40
97.15499999999999
 41
127.5
 46
0.0
 71
     7
 72
     1
  1
{\fＭＳ ゴシック|b0|i0|c128|p49;87}
 73
     1
 44
1.0
  0
MTEXT
  5
204
330
1F
100
AcDbEntity
  8
1-B_寸法
  6
Continuous
 62
     7
370
     9
100
AcDbMText
 10
4288.119617752465
 20
-1497.269796166445
 30
0.0
 40
100.5839999999999
 41
329.9999999999996
 46
0.0
 71
     7
 72
     1
  1
{\fＭＳ ゴシック|b0|i0|c128|p49;φ4.2}
 11
0.7071067811865429
 21
-0.707106781186552
 31
0.0
 73
     1
 44
1.0
  0
MTEXT
  5
205
330
1F
100
AcDbEntity
  8
1-A_文字
  6
Continuous
 62
     7
370
     9
100
AcDbMText
 10
3831.386989654926
 20
-355.5649924944594
 30
0.0
 40
99.05999999999968
 41
389.9999999999987
 46
0.0
 71
     7
 72
     1
  1
{\fＭＳ ゴシック|b0|i0|c128|p49;竪　枠}
 73
     1
 44
1.0
  0
MTEXT
  5
206
330
1F
100
AcDbEntity
  8
0-B_寸法
  6
Continuous
 62
     7
370
   211
100
AcDbMText
 10
-2829.840610885904
 20
-474.7784245167803
 30
0.0
 40
101.8309090909091
 41
735.0
 46
0.0
 71
     7
 72
     1
  1
{\fＭＳ ゴシック|b0|i0|c128|p49;枠外＝1,171}
 73
     1
 44
1.0
  0
MTEXT
  5
207
330
1F
100
AcDbEntity
  8
0-B_寸法
  6
Continuous
 62
     7
370
   211
100
AcDbMText
 10
-31.14478370505395
 20
-267.1163790622348
 30
0.0
 40
97.15499999999999
 41
127.5
 46
0.0
 71
     7
 72
     1
  1
{\fＭＳ ゴシック|b0|i0|c128|p49;24}
 73
     1
 44
1.0
  0
MTEXT
  5
208
330
1F
100
AcDbEntity
  8
0-B_寸法
  6
Continuous
 62
     7
370
   211
100
AcDbMText
 10
-3302.340610885904
 20
-264.4874790622349
 30
0.0
 40
102.4128
 41
1680.0
 46
0.0
 71
     7
 72
     1
  1
{\fＭＳ ゴシック|b0|i0|c128|p49;見えがかり枠内寸法＝1,123}
 73
     1
 44
1.0
  0
MTEXT
  5
209
330
1F
100
AcDbEntity
  8
0-B_寸法
  6
Continuous
 62
     7
370
   211
100
AcDbMText
 10
-5021.036438066755
 20
-267.1163790622348
 30
0.0
 40
97.15499999999999
 41
127.5
 46
0.0
 71
     7
 72
     1
  1
{\fＭＳ ゴシック|b0|i0|c128|p49;24}
 73
     1
 44
1.0
  0
MTEXT
  5
20A
330
1F
100
AcDbEntity
  8
0-B_寸法
  6
Continuous
 62
     7
370
   211
100
AcDbMText
 10
-4612.827029744858
 20
419.133620937766
 30
0.0
 40
97.15499999999999
 41
127.5
 46
0.0
 71
     7
 72
     1
  1
{\fＭＳ ゴシック|b0|i0|c128|p49;87}
 11
6.123031769111886E-17
 21
1.0
 31
0.0
 73
     1
 44
1.0
  0
MTEXT
  5
20B
330
1F
100
AcDbEntity
  8
0-B_寸法
  6
Continuous
 62
     7
370
   211
100
AcDbMText
 10
-192.3947837050548
 20
1065.836120937765
 30
0.0
 40
99.06
 41
195.0
 46
0.0
 71
     7
 72
     1
  1
{\fＭＳ ゴシック|b0|i0|c128|p49;3.5}
 73
     1
 44
1.0
  0
MTEXT
  5
20C
330
1F
100
AcDbEntity
  8
0-B_寸法
  6
Continuous
 62
     7
370
   211
100
AcDbMText
 10
-1531.36769729548
 20
1067.106120937765
 30
0.0
 40
101.6
 41
600.0
 46
0.0
 71
     7
 72
     1
  1
{\fＭＳ ゴシック|b0|i0|c128|p49;ＤＷ＝566}
 73
     1
 44
1.0
  0
MTEXT
  5
20D
330
1F
100
AcDbEntity
  8
0-B_寸法
  6
Continuous
 62
     7
370
   211
100
AcDbMText
 10
-2492.340610885905
 20
1062.026120937765
 30
0.0
 40
91.44
 41
60.0
 46
0.0
 71
     7
 72
     1
  1
{\fＭＳ ゴシック|b0|i0|c128|p49;2}
 73
     1
 44
1.0
  0
MTEXT
  5
20E
330
1F
100
AcDbEntity
  8
0-B_寸法
  6
Continuous
 62
     7
370
   211
100
AcDbMText
 10
-3993.31352447633
 20
1067.106120937765
 30
0.0
 40
101.6
 41
600.0
 46
0.0
 71
     7
 72
     1
  1
{\fＭＳ ゴシック|b0|i0|c128|p49;ＤＷ＝566}
 73
     1
 44
1.0
  0
MTEXT
  5
20F
330
1F
100
AcDbEntity
  8
0-B_寸法
  6
Continuous
 62
     7
370
   211
100
AcDbMText
 10
-4939.286438066755
 20
1065.836120937765
 30
0.0
 40
99.06
 41
195.0
 46
0.0
 71
     7
 72
     1
  1
{\fＭＳ ゴシック|b0|i0|c128|p49;3.5}
 73
     1
 44
1.0
  0
MTEXT
  5
210
330
1F
100
AcDbEntity
  8
0-B_寸法
  6
Continuous
 62
     7
370
   211
100
AcDbMText
 10
-4.144783705054628
 20
1274.883620937765
 30
0.0
 40
97.15499999999999
 41
127.5
 46
0.0
 71
     7
 72
     1
  1
{\fＭＳ ゴシック|b0|i0|c128|p49;15}
 73
     1
 44
1.0
  0
MTEXT
  5
211
330
1F
100
AcDbEntity
  8
0-B_寸法
  6
Continuous
 62
     7
370
   211
100
AcDbMText
 10
-2829.840610885904
 20
1277.22157548322
 30
0.0
 40
101.8309090909091
 41
735.0
 46
0.0
 71
     7
 72
     1
  1
{\fＭＳ ゴシック|b0|i0|c128|p49;枠内＝1,141}
 73
     1
 44
1.0
  0
MTEXT
  5
212
330
1F
100
AcDbEntity
  8
0-B_寸法
  6
Continuous
 62
     7
370
   211
100
AcDbMText
 10
-5048.036438066756
 20
1274.883620937765
 30
0.0
 40
97.15499999999999
 41
127.5
 46
0.0
 71
     7
 72
     1
  1
{\fＭＳ ゴシック|b0|i0|c128|p49;15}
 73
     1
 44
1.0
  0
LINE
  5
213
330
1F
100
AcDbEntity
  8
0-0_補助線
  6
JWW_HOJO
 62
   120
370
     5
100
AcDbLine
 10
-1234.36769729548
 20
1271.306120937765
 30
0.0
 11
-1234.36769729548
 21
-480.6938790622348
 31
0.0
  0
LINE
  5
214
330
1F
100
AcDbEntity
  8
0-0_補助線
  6
JWW_HOJO
 62
   120
370
     5
100
AcDbLine
 10
-2462.340610885905
 20
1271.306120937765
 30
0.0
 11
-2462.340610885905
 21
-480.6938790622348
 31
0.0
  0
LINE
  5
215
330
1F
100
AcDbEntity
  8
0-0_補助線
  6
JWW_HOJO
 62
   120
370
     5
100
AcDbLine
 10
-620.3812405002666
 20
1271.306120937765
 30
0.0
 11
-620.3812405002666
 21
-480.6938790622348
 31
0.0
  0
LINE
  5
216
330
1F
100
AcDbEntity
  8
0-0_補助線
  6
JWW_HOJO
 62
   120
370
     5
100
AcDbLine
 10
-1848.354154090692
 20
1271.306120937765
 30
0.0
 11
-1848.354154090692
 21
-480.6938790622348
 31
0.0
  0
LINE
  5
217
330
1F
100
AcDbEntity
  8
0-0_補助線
  6
JWW_HOJO
 62
   120
370
     5
100
AcDbLine
 10
-3076.327067681118
 20
1271.306120937765
 30
0.0
 11
-3076.327067681118
 21
-480.6938790622348
 31
0.0
  0
LINE
  5
218
330
1F
100
AcDbEntity
  8
0-0_補助線
  6
JWW_HOJO
 62
   120
370
     5
100
AcDbLine
 10
-3690.313524476332
 20
1271.306120937765
 30
0.0
 11
-3690.313524476332
 21
-480.6938790622348
 31
0.0
  0
LINE
  5
219
330
1F
100
AcDbEntity
  8
0-0_補助線
  6
JWW_HOJO
 62
   120
370
     5
100
AcDbLine
 10
-4304.299981271543
 20
1271.306120937765
 30
0.0
 11
-4304.299981271543
 21
-480.6938790622348
 31
0.0
  0
LINE
  5
21A
330
1F
100
AcDbEntity
  8
0-0_補助線
  6
JWW_HOJO
 62
   120
370
     5
100
AcDbLine
 10
-5407.286423220367
 20
1271.306120937765
 30
0.0
 11
-5407.286423220367
 21
-480.6938790622348
 31
0.0
  0
LINE
  5
21B
330
1F
100
AcDbEntity
  8
0-0_補助線
  6
JWW_HOJO
 62
   120
370
     5
100
AcDbLine
 10
530.6051667949432
 20
-270.6938790622348
 30
0.0
 11
-5407.286423220367
 21
-270.6938790622348
 31
0.0
  0
LINE
  5
21C
330
1F
100
AcDbEntity
  8
0-0_補助線
  6
JWW_HOJO
 62
   120
370
     5
100
AcDbLine
 10
530.6051667949432
 20
-480.6938790622348
 30
0.0
 11
-5407.286423220367
 21
-480.6938790622348
 31
0.0
  0
LINE
  5
21D
330
1F
100
AcDbEntity
  8
0-0_補助線
  6
JWW_HOJO
 62
   120
370
     5
100
AcDbLine
 10
530.6051667949432
 20
89.30612093776432
 30
0.0
 11
-5407.286423220367
 21
89.30612093776432
 31
0.0
  0
LINE
  5
21E
330
1F
100
AcDbEntity
  8
0-0_補助線
  6
JWW_HOJO
 62
   120
370
     5
100
AcDbLine
 10
-5407.286423220367
 20
1061.306120937765
 30
0.0
 11
530.6051667949432
 21
1061.306120937765
 31
0.0
  0
LINE
  5
21F
330
1F
100
AcDbEntity
  8
0-0_補助線
  6
JWW_HOJO
 62
   120
370
     5
100
AcDbLine
 10
-5407.286423220367
 20
851.3061209377654
 30
0.0
 11
530.6051667949432
 21
851.3061209377654
 31
0.0
  0
LINE
  5
220
330
1F
100
AcDbEntity
  8
0-0_補助線
  6
JWW_HOJO
 62
   120
370
     5
100
AcDbLine
 10
-5407.286423220367
 20
1271.306120937765
 30
0.0
 11
530.6051667949432
 21
1271.306120937765
 31
0.0
  0
LINE
  5
221
330
1F
100
AcDbEntity
  8
0-0_補助線
  6
JWW_HOJO
 62
   120
370
     5
100
AcDbLine
 10
530.6051667949432
 20
1271.306120937765
 30
0.0
 11
530.6051667949432
 21
-480.6938790622348
 31
0.0
  0
LINE
  5
222
330
1F
100
AcDbEntity
  8
0-1_通り芯
  6
JWW_CENTER1
 62
   120
370
     5
100
AcDbLine
 10
-5407.286423220367
 20
494.3061209377669
 30
0.0
 11
530.6051667949432
 21
494.3061209377669
 31
0.0
  0
LINE
  5
223
330
1F
100
AcDbEntity
  8
0-C_ハッチ
  6
JWW_DASHED1
 62
   120
370
     5
100
AcDbLine
 10
530.6051667949432
 20
288.1457484602782
 30
0.0
 11
523.7655392724312
 21
281.3061209377653
 31
0.0
  0
LINE
  5
224
330
1F
100
AcDbEntity
  8
0-C_ハッチ
  6
JWW_DASHED1
 62
   120
370
     5
100
AcDbLine
 10
513.912725530033
 20
356.3061209377653
 30
0.0
 11
438.912725530038
 21
281.3061209377722
 31
0.0
  0
LINE
  5
225
330
1F
100
AcDbEntity
  8
0-C_ハッチ
  6
JWW_DASHED1
 62
   120
370
     5
100
AcDbLine
 10
530.6051667949432
 20
330.5721553314783
 30
0.0
 11
481.339132401238
 21
281.3061209377722
 31
0.0
  0
LINE
  5
226
330
1F
100
AcDbEntity
  8
0-3_仕上げ
  6
Continuous
 62
    40
370
    15
100
AcDbLine
 10
104.6052162949462
 20
281.3061209377653
 30
0.0
 11
530.6051667949432
 21
281.3061209377653
 31
0.0
  0
LINE
  5
227
330
1F
100
AcDbEntity
  8
0-3_仕上げ
  6
Continuous
 62
    40
370
    15
100
AcDbLine
 10
104.6052162949462
 20
356.3061209377653
 30
0.0
 11
530.6051667949432
 21
356.3061209377653
 31
0.0
  0
LINE
  5
228
330
1F
100
AcDbEntity
  8
0-B_寸法
  6
Continuous
 62
   120
370
     5
100
AcDbLine
 10
14.60521629494622
 20
1271.306120937765
 30
0.0
 11
14.60521629494622
 21
851.3061209377654
 31
0.0
  0
LINE
  5
229
330
1F
100
AcDbEntity
  8
0-B_寸法
  6
Continuous
 62
   120
370
     5
100
AcDbLine
 10
-6.394783705054294
 20
1061.306120937765
 30
0.0
 11
-6.394783705054294
 21
851.3061209377654
 31
0.0
  0
LINE
  5
22A
330
1F
100
AcDbEntity
  8
0-B_寸法
  6
Continuous
 62
   120
370
     5
100
AcDbLine
 10
-2456.340610885906
 20
1061.306120937765
 30
0.0
 11
-2456.340610885906
 21
851.3061209377654
 31
0.0
  0
LINE
  5
22B
330
1F
100
AcDbEntity
  8
0-B_寸法
  6
Continuous
 62
   120
370
     5
100
AcDbLine
 10
-2468.340610885905
 20
1061.306120937765
 30
0.0
 11
-2468.340610885905
 21
851.3061209377654
 31
0.0
  0
LINE
  5
22C
330
1F
100
AcDbEntity
  8
0-B_寸法
  6
Continuous
 62
   120
370
     5
100
AcDbLine
 10
-4918.286438066756
 20
1061.306120937765
 30
0.0
 11
-4918.286438066756
 21
851.3061209377654
 31
0.0
  0
LINE
  5
22D
330
1F
100
AcDbEntity
  8
0-B_寸法
  6
Continuous
 62
   120
370
     5
100
AcDbLine
 10
-4939.286438066755
 20
1271.306120937765
 30
0.0
 11
-4939.286438066755
 21
851.3061209377654
 31
0.0
  0
LINE
  5
22E
330
1F
100
AcDbEntity
  8
0-B_寸法
  6
Continuous
 62
   120
370
     5
100
AcDbLine
 10
104.6052162949462
 20
1271.306120937765
 30
0.0
 11
104.6052162949462
 21
851.3061209377654
 31
0.0
  0
LINE
  5
22F
330
1F
100
AcDbEntity
  8
0-B_寸法
  6
Continuous
 62
   120
370
     5
100
AcDbLine
 10
-5029.286438066755
 20
1271.306120937765
 30
0.0
 11
-5029.286438066755
 21
851.3061209377654
 31
0.0
  0
LWPOLYLINE
  5
230
330
1F
100
AcDbEntity
  8
0-B_寸法
  6
Continuous
 62
     7
370
     9
100
AcDbPolyline
 90
        4
 70
     1
 43
3.0
 10
-5027.786438066755
 20
1271.306120937765
 42
0.4142135623731
 10
-5029.286438066755
 20
1272.806120937765
 42
0.4142135623731
 10
-5030.786438066755
 20
1271.306120937765
 42
0.4142135623731
 10
-5029.286438066755
 20
1269.806120937765
 42
0.4142135623731
  0
LINE
  5
231
330
1F
100
AcDbEntity
  8
0-B_寸法
  6
Continuous
 62
   120
370
     5
100
AcDbLine
 10
-4939.286438066755
 20
1271.306120937765
 30
0.0
 11
-5029.286438066755
 21
1271.306120937765
 31
0.0
  0
LWPOLYLINE
  5
232
330
1F
100
AcDbEntity
  8
0-B_寸法
  6
Continuous
 62
     7
370
     9
100
AcDbPolyline
 90
        4
 70
     1
 43
3.0
 10
-4937.786438066755
 20
1271.306120937765
 42
0.4142135623731
 10
-4939.286438066755
 20
1272.806120937765
 42
0.4142135623731
 10
-4940.786438066755
 20
1271.306120937765
 42
0.4142135623731
 10
-4939.286438066755
 20
1269.806120937765
 42
0.4142135623731
  0
LINE
  5
233
330
1F
100
AcDbEntity
  8
0-B_寸法
  6
Continuous
 62
   120
370
     5
100
AcDbLine
 10
14.60521629494622
 20
1271.306120937765
 30
0.0
 11
-4939.286438066755
 21
1271.306120937765
 31
0.0
  0
LWPOLYLINE
  5
234
330
1F
100
AcDbEntity
  8
0-B_寸法
  6
Continuous
 62
     7
370
     9
100
AcDbPolyline
 90
        4
 70
     1
 43
3.0
 10
16.10521629494622
 20
1271.306120937765
 42
0.4142135623731
 10
14.60521629494622
 20
1272.806120937765
 42
0.4142135623731
 10
13.10521629494622
 20
1271.306120937765
 42
0.4142135623731
 10
14.60521629494622
 20
1269.806120937765
 42
0.4142135623731
  0
LWPOLYLINE
  5
235
330
1F
100
AcDbEntity
  8
0-B_寸法
  6
Continuous
 62
     7
370
     9
100
AcDbPolyline
 90
        4
 70
     1
 43
3.0
 10
106.1052162949462
 20
1271.306120937765
 42
0.4142135623731
 10
104.6052162949462
 20
1272.806120937765
 42
0.4142135623731
 10
103.1052162949462
 20
1271.306120937765
 42
0.4142135623731
 10
104.6052162949462
 20
1269.806120937765
 42
0.4142135623731
  0
LINE
  5
236
330
1F
100
AcDbEntity
  8
0-B_寸法
  6
Continuous
 62
   120
370
     5
100
AcDbLine
 10
104.6052162949462
 20
1271.306120937765
 30
0.0
 11
14.60521629494622
 21
1271.306120937765
 31
0.0
  0
LWPOLYLINE
  5
237
330
1F
100
AcDbEntity
  8
0-B_寸法
  6
Continuous
 62
     7
370
     9
100
AcDbPolyline
 90
        4
 70
     1
 43
3.0
 10
16.10521629494622
 20
1061.306120937765
 42
0.4142135623731
 10
14.60521629494622
 20
1062.806120937765
 42
0.4142135623731
 10
13.10521629494622
 20
1061.306120937765
 42
0.4142135623731
 10
14.60521629494622
 20
1059.806120937765
 42
0.4142135623731
  0
LINE
  5
238
330
1F
100
AcDbEntity
  8
0-B_寸法
  6
Continuous
 62
   120
370
     5
100
AcDbLine
 10
-6.394783705054294
 20
1061.306120937765
 30
0.0
 11
14.60521629494622
 21
1061.306120937765
 31
0.0
  0
LWPOLYLINE
  5
239
330
1F
100
AcDbEntity
  8
0-B_寸法
  6
Continuous
 62
     7
370
     9
100
AcDbPolyline
 90
        4
 70
     1
 43
3.0
 10
-4.894783705054294
 20
1061.306120937765
 42
0.4142135623731
 10
-6.394783705054294
 20
1062.806120937765
 42
0.4142135623731
 10
-7.894783705054294
 20
1061.306120937765
 42
0.4142135623731
 10
-6.394783705054294
 20
1059.806120937765
 42
0.4142135623731
  0
LINE
  5
23A
330
1F
100
AcDbEntity
  8
0-B_寸法
  6
Continuous
 62
   120
370
     5
100
AcDbLine
 10
-2456.340610885906
 20
1061.306120937765
 30
0.0
 11
-6.394783705054294
 21
1061.306120937765
 31
0.0
  0
LWPOLYLINE
  5
23B
330
1F
100
AcDbEntity
  8
0-B_寸法
  6
Continuous
 62
     7
370
     9
100
AcDbPolyline
 90
        4
 70
     1
 43
3.0
 10
-2454.840610885906
 20
1061.306120937765
 42
0.4142135623731
 10
-2456.340610885906
 20
1062.806120937765
 42
0.4142135623731
 10
-2457.840610885906
 20
1061.306120937765
 42
0.4142135623731
 10
-2456.340610885906
 20
1059.806120937765
 42
0.4142135623731
  0
LINE
  5
23C
330
1F
100
AcDbEntity
  8
0-B_寸法
  6
Continuous
 62
   120
370
     5
100
AcDbLine
 10
-2468.340610885905
 20
1061.306120937765
 30
0.0
 11
-2456.340610885906
 21
1061.306120937765
 31
0.0
  0
LWPOLYLINE
  5
23D
330
1F
100
AcDbEntity
  8
0-B_寸法
  6
Continuous
 62
     7
370
     9
100
AcDbPolyline
 90
        4
 70
     1
 43
3.0
 10
-2466.840610885905
 20
1061.306120937765
 42
0.4142135623731
 10
-2468.340610885905
 20
1062.806120937765
 42
0.4142135623731
 10
-2469.840610885905
 20
1061.306120937765
 42
0.4142135623731
 10
-2468.340610885905
 20
1059.806120937765
 42
0.4142135623731
  0
LINE
  5
23E
330
1F
100
AcDbEntity
  8
0-B_寸法
  6
Continuous
 62
   120
370
     5
100
AcDbLine
 10
-4918.286438066756
 20
1061.306120937765
 30
0.0
 11
-2468.340610885905
 21
1061.306120937765
 31
0.0
  0
LWPOLYLINE
  5
23F
330
1F
100
AcDbEntity
  8
0-B_寸法
  6
Continuous
 62
     7
370
     9
100
AcDbPolyline
 90
        4
 70
     1
 43
3.0
 10
-4916.786438066756
 20
1061.306120937765
 42
0.4142135623731
 10
-4918.286438066756
 20
1062.806120937765
 42
0.4142135623731
 10
-4919.786438066757
 20
1061.306120937765
 42
0.4142135623731
 10
-4918.286438066756
 20
1059.806120937765
 42
0.4142135623731
  0
LWPOLYLINE
  5
240
330
1F
100
AcDbEntity
  8
0-B_寸法
  6
Continuous
 62
     7
370
     9
100
AcDbPolyline
 90
        4
 70
     1
 43
3.0
 10
-4937.786438066755
 20
1061.306120937765
 42
0.4142135623731
 10
-4939.286438066755
 20
1062.806120937765
 42
0.4142135623731
 10
-4940.786438066755
 20
1061.306120937765
 42
0.4142135623731
 10
-4939.286438066755
 20
1059.806120937765
 42
0.4142135623731
  0
LINE
  5
241
330
1F
100
AcDbEntity
  8
0-B_寸法
  6
Continuous
 62
   120
370
     5
100
AcDbLine
 10
-4939.286438066755
 20
1061.306120937765
 30
0.0
 11
-4918.286438066756
 21
1061.306120937765
 31
0.0
  0
LWPOLYLINE
  5
242
330
1F
100
AcDbEntity
  8
0-B_寸法
  6
Continuous
 62
     7
370
     9
100
AcDbPolyline
 90
        4
 70
     1
 43
3.0
 10
-5027.786438066755
 20
-480.6938790622348
 42
0.4142135623731
 10
-5029.286438066755
 20
-479.1938790622348
 42
0.4142135623731
 10
-5030.786438066755
 20
-480.6938790622348
 42
0.4142135623731
 10
-5029.286438066755
 20
-482.1938790622348
 42
0.4142135623731
  0
LWPOLYLINE
  5
243
330
1F
100
AcDbEntity
  8
0-B_寸法
  6
Continuous
 62
     7
370
     9
100
AcDbPolyline
 90
        4
 70
     1
 43
3.0
 10
106.1052162949462
 20
-480.6938790622348
 42
0.4142135623731
 10
104.6052162949462
 20
-479.1938790622348
 42
0.4142135623731
 10
103.1052162949462
 20
-480.6938790622348
 42
0.4142135623731
 10
104.6052162949462
 20
-482.1938790622348
 42
0.4142135623731
  0
LINE
  5
244
330
1F
100
AcDbEntity
  8
0-B_寸法
  6
Continuous
 62
   120
370
     5
100
AcDbLine
 10
104.6052162949462
 20
-480.6938790622348
 30
0.0
 11
-5029.286438066755
 21
-480.6938790622348
 31
0.0
  0
LINE
  5
245
330
1F
100
AcDbEntity
  8
0-B_寸法
  6
Continuous
 62
   120
370
     5
100
AcDbLine
 10
104.6052162949462
 20
-480.6938790622348
 30
0.0
 11
104.6052162949462
 21
89.30612093776432
 31
0.0
  0
LWPOLYLINE
  5
246
330
1F
100
AcDbEntity
  8
0-B_寸法
  6
Continuous
 62
     7
370
     9
100
AcDbPolyline
 90
        4
 70
     1
 43
3.0
 10
106.1052162949462
 20
-270.6938790622348
 42
0.4142135623731
 10
104.6052162949462
 20
-269.1938790622348
 42
0.4142135623731
 10
103.1052162949462
 20
-270.6938790622348
 42
0.4142135623731
 10
104.6052162949462
 20
-272.1938790622348
 42
0.4142135623731
  0
LINE
  5
247
330
1F
100
AcDbEntity
  8
0-B_寸法
  6
Continuous
 62
   120
370
     5
100
AcDbLine
 10
-39.39478370505498
 20
-270.6938790622348
 30
0.0
 11
104.6052162949462
 21
-270.6938790622348
 31
0.0
  0
LINE
  5
248
330
1F
100
AcDbEntity
  8
0-B_寸法
  6
Continuous
 62
   120
370
     5
100
AcDbLine
 10
-39.39478370505498
 20
-270.6938790622348
 30
0.0
 11
-39.39478370505498
 21
89.30612093776432
 31
0.0
  0
LWPOLYLINE
  5
249
330
1F
100
AcDbEntity
  8
0-B_寸法
  6
Continuous
 62
     7
370
     9
100
AcDbPolyline
 90
        4
 70
     1
 43
3.0
 10
-37.89478370505498
 20
-270.6938790622348
 42
0.4142135623731
 10
-39.39478370505498
 20
-269.1938790622348
 42
0.4142135623731
 10
-40.89478370505498
 20
-270.6938790622348
 42
0.4142135623731
 10
-39.39478370505498
 20
-272.1938790622348
 42
0.4142135623731
  0
LINE
  5
24A
330
1F
100
AcDbEntity
  8
0-B_寸法
  6
Continuous
 62
   120
370
     5
100
AcDbLine
 10
-4885.286438066756
 20
-270.6938790622348
 30
0.0
 11
-39.39478370505498
 21
-270.6938790622348
 31
0.0
  0
LINE
  5
24B
330
1F
100
AcDbEntity
  8
0-B_寸法
  6
Continuous
 62
   120
370
     5
100
AcDbLine
 10
-4885.286438066756
 20
-270.6938790622348
 30
0.0
 11
-4885.286438066756
 21
89.30612093776432
 31
0.0
  0
LINE
  5
24C
330
1F
100
AcDbEntity
  8
0-B_寸法
  6
Continuous
 62
   120
370
     5
100
AcDbLine
 10
-5029.286438066755
 20
-480.6938790622348
 30
0.0
 11
-5029.286438066755
 21
89.30612093776432
 31
0.0
  0
LWPOLYLINE
  5
24D
330
1F
100
AcDbEntity
  8
0-B_寸法
  6
Continuous
 62
     7
370
     9
100
AcDbPolyline
 90
        4
 70
     1
 43
3.0
 10
-4883.786438066755
 20
-270.6938790622348
 42
0.4142135623731
 10
-4885.286438066756
 20
-269.1938790622348
 42
0.4142135623731
 10
-4886.786438066756
 20
-270.6938790622348
 42
0.4142135623731
 10
-4885.286438066756
 20
-272.1938790622348
 42
0.4142135623731
  0
LWPOLYLINE
  5
24E
330
1F
100
AcDbEntity
  8
0-B_寸法
  6
Continuous
 62
     7
370
     9
100
AcDbPolyline
 90
        4
 70
     1
 43
3.0
 10
-5027.786438066755
 20
-270.6938790622348
 42
0.4142135623731
 10
-5029.286438066755
 20
-269.1938790622348
 42
0.4142135623731
 10
-5030.786438066755
 20
-270.6938790622348
 42
0.4142135623731
 10
-5029.286438066755
 20
-272.1938790622348
 42
0.4142135623731
  0
LINE
  5
24F
330
1F
100
AcDbEntity
  8
0-B_寸法
  6
Continuous
 62
   120
370
     5
100
AcDbLine
 10
-5029.286438066755
 20
-270.6938790622348
 30
0.0
 11
-4885.286438066756
 21
-270.6938790622348
 31
0.0
  0
LINE
  5
250
330
1F
100
AcDbEntity
  8
0-C_ハッチ
  6
Continuous
 62
   120
370
     5
100
AcDbLine
 10
-4.401314703976027
 20
209.3061209377626
 30
0.0
 11
104.6052162949471
 21
318.3126519366849
 31
0.0
  0
LINE
  5
251
330
1F
100
AcDbEntity
  8
0-C_ハッチ
  6
Continuous
 62
   120
370
     5
100
AcDbLine
 10
14.60521629494622
 20
703.4884088940269
 30
0.0
 11
42.4229283386822
 21
731.3061209377628
 31
0.0
  0
LINE
  5
252
330
1F
100
AcDbEntity
  8
0-C_ハッチ
  6
Continuous
 62
   120
370
     5
100
AcDbLine
 10
14.60521629494878
 20
644.0914392743838
 30
0.0
 11
101.8198979583363
 21
731.3061209377696
 31
0.0
  0
LINE
  5
253
330
1F
100
AcDbEntity
  8
0-C_ハッチ
  6
Continuous
 62
   120
370
     5
100
AcDbLine
 10
14.60521629495389
 20
584.6944696547391
 30
0.0
 11
104.6052162949607
 21
674.694469654746
 31
0.0
  0
LINE
  5
254
330
1F
100
AcDbEntity
  8
0-C_ハッチ
  6
Continuous
 62
   120
370
     5
100
AcDbLine
 10
14.60521629495304
 20
525.2975000350373
 30
0.0
 11
104.6052162949471
 21
615.2975000350305
 31
0.0
  0
LINE
  5
255
330
1F
100
AcDbEntity
  8
0-C_ハッチ
  6
Continuous
 62
   120
370
     5
100
AcDbLine
 10
14.60521629494707
 20
465.9005304153848
 30
0.0
 11
104.6052162949471
 21
555.9005304153832
 31
0.0
  0
LINE
  5
256
330
1F
100
AcDbEntity
  8
0-C_ハッチ
  6
Continuous
 62
   120
370
     5
100
AcDbLine
 10
14.60521629494025
 20
406.5035607956762
 30
0.0
 11
104.6052162949513
 21
496.5035607956872
 31
0.0
  0
LINE
  5
257
330
1F
100
AcDbEntity
  8
0-C_ハッチ
  6
Continuous
 62
   120
370
     5
100
AcDbLine
 10
14.60521629494366
 20
347.1065911760323
 30
0.0
 11
104.6052162949411
 21
437.1065911760289
 31
0.0
  0
LINE
  5
258
330
1F
100
AcDbEntity
  8
0-C_ハッチ
  6
Continuous
 62
   120
370
     5
100
AcDbLine
 10
14.60521629494366
 20
287.7096215563304
 30
0.0
 11
104.6052162949471
 21
377.709621556333
 31
0.0
  0
LINE
  5
259
330
1F
100
AcDbEntity
  8
0-C_ハッチ
  6
Continuous
 62
   120
370
     5
100
AcDbLine
 10
-39.39478370505157
 20
233.7096215563335
 30
0.0
 11
-9.798284323623818
 21
263.306120937763
 31
0.0
  0
LINE
  5
25A
330
1F
100
AcDbEntity
  8
0-C_ハッチ
  6
Continuous
 62
   120
370
     5
100
AcDbLine
 10
54.99565491567211
 20
209.3061209377635
 30
0.0
 11
104.605216294953
 21
258.9156823170444
 31
0.0
  0
LINE
  5
25B
330
1F
100
AcDbEntity
  8
0-3_仕上げ
  6
Continuous
 62
    40
370
    15
100
AcDbLine
 10
104.6052162949462
 20
356.3061209377653
 30
0.0
 11
104.6052162949462
 21
281.3061209377653
 31
0.0
  0
LINE
  5
25C
330
1F
100
AcDbEntity
  8
0-C_ハッチ
  6
JWW_DASHED1
 62
   120
370
     5
100
AcDbLine
 10
174.5014705604925
 20
356.3061209377696
 30
0.0
 11
104.6052162949462
 21
286.4098666722319
 31
0.0
  0
LINE
  5
25D
330
1F
100
AcDbEntity
  8
0-C_ハッチ
  6
JWW_DASHED1
 62
   120
370
     5
100
AcDbLine
 10
216.9278774316874
 20
356.3061209377653
 30
0.0
 11
141.9278774316831
 21
281.3061209377653
 31
0.0
  0
LINE
  5
25E
330
1F
100
AcDbEntity
  8
0-C_ハッチ
  6
JWW_DASHED1
 62
   120
370
     5
100
AcDbLine
 10
132.0750636892924
 20
356.3061209377696
 30
0.0
 11
104.6052162949462
 21
328.8362735434225
 31
0.0
  0
LINE
  5
25F
330
1F
100
AcDbEntity
  8
0-C_ハッチ
  6
JWW_DASHED1
 62
   120
370
     5
100
AcDbLine
 10
471.486318658838
 20
356.3061209377696
 30
0.0
 11
396.4863186588261
 21
281.3061209377585
 31
0.0
  0
LINE
  5
260
330
1F
100
AcDbEntity
  8
0-C_ハッチ
  6
JWW_DASHED1
 62
   120
370
     5
100
AcDbLine
 10
429.0599117876397
 20
356.3061209377722
 30
0.0
 11
354.0599117876303
 21
281.3061209377628
 31
0.0
  0
LINE
  5
261
330
1F
100
AcDbEntity
  8
0-C_ハッチ
  6
JWW_DASHED1
 62
   120
370
     5
100
AcDbLine
 10
386.6335049164277
 20
356.3061209377602
 30
0.0
 11
311.6335049164329
 21
281.3061209377653
 31
0.0
  0
LINE
  5
262
330
1F
100
AcDbEntity
  8
0-C_ハッチ
  6
JWW_DASHED1
 62
   120
370
     5
100
AcDbLine
 10
344.2070980452311
 20
356.3061209377653
 30
0.0
 11
269.207098045238
 21
281.3061209377696
 31
0.0
  0
LINE
  5
263
330
1F
100
AcDbEntity
  8
0-C_ハッチ
  6
JWW_DASHED1
 62
   120
370
     5
100
AcDbLine
 10
301.7806911740806
 20
356.3061209377585
 30
0.0
 11
226.7806911740848
 21
281.3061209377628
 31
0.0
  0
LINE
  5
264
330
1F
100
AcDbEntity
  8
0-C_ハッチ
  6
JWW_DASHED1
 62
   120
370
     5
100
AcDbLine
 10
259.3542843028848
 20
356.3061209377628
 30
0.0
 11
184.3542843028874
 21
281.3061209377653
 31
0.0
  0
LINE
  5
265
330
1F
100
AcDbEntity
  8
0-4_枠
  6
Continuous
 62
    92
370
    13
100
AcDbLine
 10
14.60521629494622
 20
731.3061209377654
 30
0.0
 11
14.60521629494622
 21
263.3061209377655
 31
0.0
  0
LINE
  5
266
330
1F
100
AcDbEntity
  8
0-4_枠
  6
Continuous
 62
    92
370
    13
100
AcDbLine
 10
14.60521629494622
 20
731.3061209377654
 30
0.0
 11
104.6052162949462
 21
731.3061209377654
 31
0.0
  0
LINE
  5
267
330
1F
100
AcDbEntity
  8
0-4_枠
  6
Continuous
 62
    92
370
    13
100
AcDbLine
 10
-39.39478370505498
 20
209.3061209377643
 30
0.0
 11
-39.39478370505498
 21
263.3061209377655
 31
0.0
  0
LINE
  5
268
330
1F
100
AcDbEntity
  8
0-4_枠
  6
Continuous
 62
    92
370
    13
100
AcDbLine
 10
14.60521629494622
 20
263.3061209377655
 30
0.0
 11
-39.39478370505498
 21
263.3061209377655
 31
0.0
  0
LINE
  5
269
330
1F
100
AcDbEntity
  8
0-4_枠
  6
Continuous
 62
    92
370
    13
100
AcDbLine
 10
104.6052162949462
 20
731.3061209377654
 30
0.0
 11
104.6052162949462
 21
209.3061209377643
 31
0.0
  0
LINE
  5
26A
330
1F
100
AcDbEntity
  8
0-4_枠
  6
Continuous
 62
    92
370
    13
100
AcDbLine
 10
104.6052162949462
 20
209.3061209377643
 30
0.0
 11
-39.39478370505498
 21
209.3061209377643
 31
0.0
  0
LINE
  5
26B
330
1F
100
AcDbEntity
  8
0-B_寸法
  6
Continuous
 62
   120
370
     5
100
AcDbLine
 10
-4597.827029744858
 20
209.3061209377643
 30
0.0
 11
-4597.827029744858
 21
731.3061209377654
 31
0.0
  0
LWPOLYLINE
  5
26C
330
1F
100
AcDbEntity
  8
0-B_寸法
  6
Continuous
 62
     7
370
     9
100
AcDbPolyline
 90
        4
 70
     1
 43
3.0
 10
-4596.327029744858
 20
209.3061209377643
 42
0.4142135623731
 10
-4597.827029744858
 20
210.8061209377643
 42
0.4142135623731
 10
-4599.327029744859
 20
209.3061209377643
 42
0.4142135623731
 10
-4597.827029744858
 20
207.8061209377643
 42
0.4142135623731
  0
LWPOLYLINE
  5
26D
330
1F
100
AcDbEntity
  8
0-B_寸法
  6
Continuous
 62
     7
370
     9
100
AcDbPolyline
 90
        4
 70
     1
 43
3.0
 10
-4596.327029744858
 20
731.3061209377654
 42
0.4142135623731
 10
-4597.827029744858
 20
732.8061209377654
 42
0.4142135623731
 10
-4599.327029744859
 20
731.3061209377654
 42
0.4142135623731
 10
-4597.827029744858
 20
729.8061209377653
 42
0.4142135623731
  0
LINE
  5
26E
330
1F
100
AcDbEntity
  8
0-B_寸法
  6
Continuous
 62
   120
370
     5
100
AcDbLine
 10
-4597.827029744858
 20
209.3061209377643
 30
0.0
 11
-4789.286438066755
 21
209.3061209377643
 31
0.0
  0
LINE
  5
26F
330
1F
100
AcDbEntity
  8
0-B_寸法
  6
Continuous
 62
   120
370
     5
100
AcDbLine
 10
-4597.827029744858
 20
731.3061209377654
 30
0.0
 11
-4789.286438066755
 21
731.3061209377654
 31
0.0
  0
LINE
  5
270
330
1F
100
AcDbEntity
  8
0-4_枠
  6
Continuous
 62
    92
370
    13
100
AcDbLine
 10
-5029.286438066755
 20
209.3061209377643
 30
0.0
 11
-4885.286438066756
 21
209.3061209377643
 31
0.0
  0
LINE
  5
271
330
1F
100
AcDbEntity
  8
0-4_枠
  6
Continuous
 62
    92
370
    13
100
AcDbLine
 10
-5029.286438066755
 20
731.3061209377654
 30
0.0
 11
-5029.286438066755
 21
209.3061209377643
 31
0.0
  0
LINE
  5
272
330
1F
100
AcDbEntity
  8
0-4_枠
  6
Continuous
 62
    92
370
    13
100
AcDbLine
 10
-4939.286438066755
 20
263.3061209377655
 30
0.0
 11
-4885.286438066756
 21
263.3061209377655
 31
0.0
  0
LINE
  5
273
330
1F
100
AcDbEntity
  8
0-4_枠
  6
Continuous
 62
    92
370
    13
100
AcDbLine
 10
-4885.286438066756
 20
209.3061209377643
 30
0.0
 11
-4885.286438066756
 21
263.3061209377655
 31
0.0
  0
LINE
  5
274
330
1F
100
AcDbEntity
  8
0-4_枠
  6
Continuous
 62
    92
370
    13
100
AcDbLine
 10
-4939.286438066755
 20
731.3061209377654
 30
0.0
 11
-5029.286438066755
 21
731.3061209377654
 31
0.0
  0
LINE
  5
275
330
1F
100
AcDbEntity
  8
0-4_枠
  6
Continuous
 62
    92
370
    13
100
AcDbLine
 10
-4939.286438066755
 20
731.3061209377654
 30
0.0
 11
-4939.286438066755
 21
263.3061209377655
 31
0.0
  0
LINE
  5
276
330
1F
100
AcDbEntity
  8
0-C_ハッチ
  6
JWW_DASHED1
 62
   120
370
     5
100
AcDbLine
 10
-5252.537355212428
 20
356.3061209377628
 30
0.0
 11
-5327.537355212425
 21
281.3061209377653
 31
0.0
  0
LINE
  5
277
330
1F
100
AcDbEntity
  8
0-C_ハッチ
  6
JWW_DASHED1
 62
   120
370
     5
100
AcDbLine
 10
-5210.110948341232
 20
356.3061209377585
 30
0.0
 11
-5285.110948341228
 21
281.3061209377628
 31
0.0
  0
LINE
  5
278
330
1F
100
AcDbEntity
  8
0-C_ハッチ
  6
JWW_DASHED1
 62
   120
370
     5
100
AcDbLine
 10
-5167.68454147008
 20
356.3061209377653
 30
0.0
 11
-5242.684541470074
 21
281.3061209377696
 31
0.0
  0
LINE
  5
279
330
1F
100
AcDbEntity
  8
0-C_ハッチ
  6
JWW_DASHED1
 62
   120
370
     5
100
AcDbLine
 10
-5125.258134598884
 20
356.3061209377602
 30
0.0
 11
-5200.258134598879
 21
281.3061209377653
 31
0.0
  0
LINE
  5
27A
330
1F
100
AcDbEntity
  8
0-C_ハッチ
  6
JWW_DASHED1
 62
   120
370
     5
100
AcDbLine
 10
-5082.831727727673
 20
356.3061209377722
 30
0.0
 11
-5157.831727727683
 21
281.3061209377628
 31
0.0
  0
LINE
  5
27B
330
1F
100
AcDbEntity
  8
0-C_ハッチ
  6
JWW_DASHED1
 62
   120
370
     5
100
AcDbLine
 10
-5040.405320856474
 20
356.3061209377696
 30
0.0
 11
-5115.405320856486
 21
281.3061209377585
 31
0.0
  0
LINE
  5
27C
330
1F
100
AcDbEntity
  8
0-C_ハッチ
  6
JWW_DASHED1
 62
   120
370
     5
100
AcDbLine
 10
-5294.963762083625
 20
356.3061209377653
 30
0.0
 11
-5369.963762083628
 21
281.3061209377653
 31
0.0
  0
LINE
  5
27D
330
1F
100
AcDbEntity
  8
0-C_ハッチ
  6
JWW_DASHED1
 62
   120
370
     5
100
AcDbLine
 10
-5029.286438066755
 20
324.9985968562888
 30
0.0
 11
-5072.978913985274
 21
281.3061209377722
 31
0.0
  0
LINE
  5
27E
330
1F
100
AcDbEntity
  8
0-C_ハッチ
  6
JWW_DASHED1
 62
   120
370
     5
100
AcDbLine
 10
-5029.286438066755
 20
282.5721899850913
 30
0.0
 11
-5030.552507114074
 21
281.3061209377722
 31
0.0
  0
LINE
  5
27F
330
1F
100
AcDbEntity
  8
0-3_仕上げ
  6
Continuous
 62
    40
370
    15
100
AcDbLine
 10
-5029.286438066755
 20
356.3061209377653
 30
0.0
 11
-5029.286438066755
 21
281.3061209377653
 31
0.0
  0
LINE
  5
280
330
1F
100
AcDbEntity
  8
0-C_ハッチ
  6
Continuous
 62
   120
370
     5
100
AcDbLine
 10
-4933.86810094447
 20
209.3061209377558
 30
0.0
 11
-4885.286438066749
 21
257.8877838154781
 31
0.0
  0
LINE
  5
281
330
1F
100
AcDbEntity
  8
0-C_ハッチ
  6
Continuous
 62
   120
370
     5
100
AcDbLine
 10
-4993.265070564162
 20
209.3061209377669
 30
0.0
 11
-4939.265070564163
 21
263.3061209377664
 31
0.0
  0
LINE
  5
282
330
1F
100
AcDbEntity
  8
0-C_ハッチ
  6
Continuous
 62
   120
370
     5
100
AcDbLine
 10
-5029.286438066762
 20
232.681723054815
 30
0.0
 11
-4939.286438066759
 21
322.6817230548176
 31
0.0
  0
LINE
  5
283
330
1F
100
AcDbEntity
  8
0-C_ハッチ
  6
Continuous
 62
   120
370
     5
100
AcDbLine
 10
-5029.286438066751
 20
292.0786926744725
 30
0.0
 11
-4939.286438066749
 21
382.0786926744742
 31
0.0
  0
LINE
  5
284
330
1F
100
AcDbEntity
  8
0-C_ハッチ
  6
Continuous
 62
   120
370
     5
100
AcDbLine
 10
-5029.286438066746
 20
351.4756622941778
 30
0.0
 11
-4939.286438066758
 21
441.4756622941667
 31
0.0
  0
LINE
  5
285
330
1F
100
AcDbEntity
  8
0-C_ハッチ
  6
Continuous
 62
   120
370
     5
100
AcDbLine
 10
-5029.286438066755
 20
410.8726319138165
 30
0.0
 11
-4939.286438066752
 21
500.8726319138208
 31
0.0
  0
LINE
  5
286
330
1F
100
AcDbEntity
  8
0-C_ハッチ
  6
Continuous
 62
   120
370
     5
100
AcDbLine
 10
-5029.286438066749
 20
470.2696015335252
 30
0.0
 11
-4939.286438066752
 21
560.2696015335226
 31
0.0
  0
LINE
  5
287
330
1F
100
AcDbEntity
  8
0-C_ハッチ
  6
Continuous
 62
   120
370
     5
100
AcDbLine
 10
-5029.286438066762
 20
529.6665711531605
 30
0.0
 11
-4939.286438066757
 21
619.6665711531657
 31
0.0
  0
LINE
  5
288
330
1F
100
AcDbEntity
  8
0-C_ハッチ
  6
Continuous
 62
   120
370
     5
100
AcDbLine
 10
-5029.286438066751
 20
589.0635407728726
 30
0.0
 11
-4939.286438066755
 21
679.0635407728676
 31
0.0
  0
LINE
  5
289
330
1F
100
AcDbEntity
  8
0-C_ハッチ
  6
Continuous
 62
   120
370
     5
100
AcDbLine
 10
-5029.286438066737
 20
648.4605103925335
 30
0.0
 11
-4946.440827521517
 21
731.3061209377533
 31
0.0
  0
LINE
  5
28A
330
1F
100
AcDbEntity
  8
0-C_ハッチ
  6
Continuous
 62
   120
370
     5
100
AcDbLine
 10
-5029.286438066755
 20
707.8574800121621
 30
0.0
 11
-5005.837797141155
 21
731.3061209377636
 31
0.0
  0
LINE
  5
28B
330
1F
100
AcDbEntity
  8
0-3_仕上げ
  6
Continuous
 62
    40
370
    15
100
AcDbLine
 10
-5407.286423220367
 20
356.3061209377653
 30
0.0
 11
-5029.286438066755
 21
356.3061209377653
 31
0.0
  0
LINE
  5
28C
330
1F
100
AcDbEntity
  8
0-3_仕上げ
  6
Continuous
 62
    40
370
    15
100
AcDbLine
 10
-5407.286423220367
 20
281.3061209377653
 30
0.0
 11
-5029.286438066755
 21
281.3061209377653
 31
0.0
  0
LINE
  5
28D
330
1F
100
AcDbEntity
  8
0-C_ハッチ
  6
JWW_DASHED1
 62
   120
370
     5
100
AcDbLine
 10
-5379.816575826019
 20
356.3061209377696
 30
0.0
 11
-5407.286423220367
 21
328.8362735434242
 31
0.0
  0
LINE
  5
28E
330
1F
100
AcDbEntity
  8
0-C_ハッチ
  6
JWW_DASHED1
 62
   120
370
     5
100
AcDbLine
 10
-5337.390168954819
 20
356.3061209377696
 30
0.0
 11
-5407.286423220367
 21
286.4098666722319
 31
0.0
  0
MTEXT
  5
28F
330
1F
100
AcDbEntity
  8
0-A_文字
  6
Continuous
 62
     7
370
     9
100
AcDbMText
 10
-5407.286423220367
 20
1494.49644399699
 30
0.0
 40
91.43999999999998
 41
1260.0
 46
0.0
 71
     7
 72
     1
  1
{\fＭＳ ゴシック|b0|i0|c128|p49;■横断面図[間口4.5尺]}
 73
     1
 44
1.0
  0
MTEXT
  5
290
330
1F
100
AcDbEntity
  8
0-B_寸法
  6
Continuous
 62
     7
370
   211
100
AcDbMText
 10
2322.112022678131
 20
117.7215754832223
 30
0.0
 40
101.8309090909091
 41
735.0000000000001
 46
0.0
 71
     7
 72
     1
  1
{\fＭＳ ゴシック|b0|i0|c128|p49;ＤＨ＝1,983}
 11
6.123031769111886E-17
 21
1.0
 31
0.0
 73
     1
 44
1.0
  0
MTEXT
  5
291
330
1F
100
AcDbEntity
  8
0-B_寸法
  6
Continuous
 62
     7
370
   211
100
AcDbMText
 10
2532.112022678131
 20
-17.1398790622327
 30
0.0
 40
102.108
 41
1005.0
 46
0.0
 71
     7
 72
     1
  1
{\fＭＳ ゴシック|b0|i0|c128|p49;枠内寸法＝2,002}
 11
6.123031769111886E-17
 21
1.0
 31
0.0
 73
     1
 44
1.0
  0
MTEXT
  5
292
330
1F
100
AcDbEntity
  8
0-B_寸法
  6
Continuous
 62
     7
370
   211
100
AcDbMText
 10
2742.112022678131
 20
-17.1398790622327
 30
0.0
 40
102.108
 41
1005.0
 46
0.0
 71
     7
 72
     1
  1
{\fＭＳ ゴシック|b0|i0|c128|p49;枠外寸法＝2,038}
 11
6.123031769111886E-17
 21
1.0
 31
0.0
 73
     1
 44
1.0
  0
MTEXT
  5
293
330
1F
100
AcDbEntity
  8
0-A_文字
  6
Continuous
 62
    92
370
    13
100
AcDbMText
 10
-5592.499495325867
 20
3759.082772469735
 30
0.0
 40
148.1666666666667
 41
5250.0
 46
0.0
 71
     7
 72
     1
  1
{\fＭＳ ゴシック|b0|i0|c128|p49;クローゼットドア　シューズインクローク用　間口４．５尺}
 73
     1
 44
1.0
  0
LINE
  5
294
330
1F
100
AcDbEntity
  8
0-A_文字
  6
Continuous
 62
    92
370
    13
100
AcDbLine
 10
-5659.999495325867
 20
3729.999439136402
 30
0.0
 11
-285.7142857142856
 21
3729.999439136402
 31
0.0
  0
LINE
  5
295
330
1F
100
AcDbEntity
  8
0-A_文字
  6
Continuous
 62
    92
370
    13
100
AcDbLine
 10
-5659.999495325867
 20
3999.999439136402
 30
0.0
 11
-285.7142857142856
 21
3999.999439136402
 31
0.0
  0
LINE
  5
296
330
1F
100
AcDbEntity
  8
0-A_文字
  6
Continuous
 62
    92
370
    13
100
AcDbLine
 10
-285.7142857142856
 20
3729.999439136402
 30
0.0
 11
-285.7142857142856
 21
3999.999439136402
 31
0.0
  0
MTEXT
  5
297
330
1F
100
AcDbEntity
  8
F-A_文字
  6
Continuous
 62
     7
370
     0
100
AcDbMText
 10
-5080.081323642279
 20
-4045.072165808119
 30
0.0
 40
79.8555405405405
 41
3877.5
 46
0.0
 71
     7
 72
     1
  1
{\fＭＳ ゴシック|b0|i0|c128|p49;ドレタス　クローゼットドア　シューズインクローク用　枠外H2,038　枠外W1,171}
 73
     1
 44
1.0
  0
MTEXT
  5
298
330
1F
100
AcDbEntity
  8
F-A_文字
  6
Continuous
 62
     7
370
     9
100
AcDbMText
 10
5096.167700144058
 20
-4147.857012699985
 30
0.0
 40
74.295
 41
97.5
 46
0.0
 71
     7
 72
     1
  1
{\fＭＳ ゴシック|b0|i0|c128|p49;02}
 73
     1
 44
1.0
  0
MTEXT
  5
299
330
1F
100
AcDbEntity
  8
0-B_寸法
  6
Continuous
 62
     7
370
   211
100
AcDbMText
 10
-4248.781541097855
 20
419.133620937766
 30
0.0
 40
97.15499999999999
 41
127.5
 46
0.0
 71
     7
 72
     1
  1
{\fＭＳ ゴシック|b0|i0|c128|p49;20}
 11
6.123031769111886E-17
 21
1.0
 31
0.0
 73
     1
 44
1.0
  0
MTEXT
  5
29A
330
1F
100
AcDbEntity
  8
0-B_寸法
  6
Continuous
 62
     7
370
   211
100
AcDbMText
 10
1556.36202267813
 20
1171.953019793069
 30
0.0
 40
97.15499999999999
 41
127.5
 46
0.0
 71
     7
 72
     1
  1
{\fＭＳ ゴシック|b0|i0|c128|p49;20}
 73
     1
 44
1.0
  0
MTEXT
  5
29B
330
1F
100
AcDbEntity
  8
F-A_文字
  6
Continuous
 62
     7
370
     0
100
AcDbMText
 10
4938.667793092893
 20
-3938.071010139966
 30
0.0
 40
78.86699999999999
 41
517.5
 46
0.0
 71
     7
 72
     1
  1
{\fＭＳ ゴシック|b0|i0|c128|p49;2024.04.01}
 73
     1
 44
1.0
  0
LINE
  5
29C
330
1F
100
AcDbEntity
  8
0-0_補助線
  6
JWW_HOJO
 62
   120
370
     5
100
AcDbLine
 10
-1848.354154090692
 20
344.3061951697129
 30
0.0
 11
-1848.354154090692
 21
641.3060467058193
 31
0.0
  0
LINE
  5
29D
330
1F
100
AcDbEntity
  8
0-0_補助線
  6
JWW_HOJO
 62
   120
370
     5
100
AcDbLine
 10
-680.3812405002666
 20
581.3060467058193
 30
0.0
 11
-680.3812405002666
 21
404.3061951697129
 31
0.0
  0
LINE
  5
29E
330
1F
100
AcDbEntity
  8
0-0_補助線
  6
JWW_HOJO
 62
   120
370
     5
100
AcDbLine
 10
-1908.354154090692
 20
581.3060467058193
 30
0.0
 11
-1908.354154090692
 21
404.3061951697129
 31
0.0
  0
LINE
  5
29F
330
1F
100
AcDbEntity
  8
0-0_補助線
  6
JWW_HOJO
 62
   120
370
     5
100
AcDbLine
 10
-3136.327067681118
 20
581.3060467058193
 30
0.0
 11
-3136.327067681118
 21
404.3061951697129
 31
0.0
  0
LINE
  5
2A0
330
1F
100
AcDbEntity
  8
0-0_補助線
  6
JWW_HOJO
 62
   120
370
     5
100
AcDbLine
 10
-4364.299981271543
 20
581.3060467058193
 30
0.0
 11
-4364.299981271543
 21
404.3061951697129
 31
0.0
  0
LINE
  5
2A1
330
1F
100
AcDbEntity
  8
0-0_補助線
  6
JWW_HOJO
 62
   120
370
     5
100
AcDbLine
 10
-560.3812405002666
 20
581.3060467058193
 30
0.0
 11
-560.3812405002666
 21
404.3061951697129
 31
0.0
  0
LINE
  5
2A2
330
1F
100
AcDbEntity
  8
0-0_補助線
  6
JWW_HOJO
 62
   120
370
     5
100
AcDbLine
 10
-1788.354154090692
 20
581.3060467058193
 30
0.0
 11
-1788.354154090692
 21
404.3061951697129
 31
0.0
  0
LINE
  5
2A3
330
1F
100
AcDbEntity
  8
0-0_補助線
  6
JWW_HOJO
 62
   120
370
     5
100
AcDbLine
 10
-3016.327067681118
 20
581.3060467058193
 30
0.0
 11
-3016.327067681118
 21
404.3061951697129
 31
0.0
  0
LINE
  5
2A4
330
1F
100
AcDbEntity
  8
0-0_補助線
  6
JWW_HOJO
 62
   120
370
     5
100
AcDbLine
 10
-4244.299981271543
 20
581.3060467058193
 30
0.0
 11
-4244.299981271543
 21
404.3061951697129
 31
0.0
  0
LINE
  5
2A5
330
1F
100
AcDbEntity
  8
0-0_補助線
  6
JWW_HOJO
 62
   120
370
     5
100
AcDbLine
 10
-620.3812405002666
 20
344.3061951697129
 30
0.0
 11
-620.3812405002666
 21
641.3060467058193
 31
0.0
  0
LINE
  5
2A6
330
1F
100
AcDbEntity
  8
0-0_補助線
  6
JWW_HOJO
 62
   120
370
     5
100
AcDbLine
 10
-3076.327067681118
 20
344.3061951697129
 30
0.0
 11
-3076.327067681118
 21
641.3060467058193
 31
0.0
  0
LINE
  5
2A7
330
1F
100
AcDbEntity
  8
0-0_補助線
  6
JWW_HOJO
 62
   120
370
     5
100
AcDbLine
 10
-4304.299981271543
 20
344.3061951697129
 30
0.0
 11
-4304.299981271543
 21
641.3060467058193
 31
0.0
  0
CIRCLE
  5
2A8
330
1F
100
AcDbEntity
  8
0-A_文字
  6
Continuous
 62
     7
370
     9
100
AcDbCircle
 10
-1234.36769729548
 20
602.3061209377668
 30
0.0
 40
30.0
  0
CIRCLE
  5
2A9
330
1F
100
AcDbEntity
  8
0-A_文字
  6
Continuous
 62
     7
370
     9
100
AcDbCircle
 10
-1234.36769729548
 20
602.3061209377668
 30
0.0
 40
21.00000000000001
  0
CIRCLE
  5
2AA
330
1F
100
AcDbEntity
  8
0-A_文字
  6
Continuous
 62
     7
370
     9
100
AcDbCircle
 10
-3690.313524476332
 20
602.3061209377668
 30
0.0
 40
30.0
  0
CIRCLE
  5
2AB
330
1F
100
AcDbEntity
  8
0-A_文字
  6
Continuous
 62
     7
370
     9
100
AcDbCircle
 10
-3690.313524476332
 20
602.3061209377668
 30
0.0
 40
21.00000000000001
  0
LINE
  5
2AC
330
1F
100
AcDbEntity
  8
0-6_扉
  6
Continuous
 62
   200
370
    20
100
AcDbLine
 10
-1231.36769729548
 20
554.3061209377669
 30
0.0
 11
-680.3812405002666
 21
554.3061209377669
 31
0.0
  0
LINE
  5
2AD
330
1F
100
AcDbEntity
  8
0-6_扉
  6
Continuous
 62
   200
370
    20
100
AcDbLine
 10
-2456.340610885906
 20
554.3061209377669
 30
0.0
 11
-1908.354154090692
 21
554.3061209377669
 31
0.0
  0
LINE
  5
2AE
330
1F
100
AcDbEntity
  8
0-6_扉
  6
Continuous
 62
   200
370
    20
100
AcDbLine
 10
-3687.313524476331
 20
554.3061209377669
 30
0.0
 11
-3136.327067681118
 21
554.3061209377669
 31
0.0
  0
LINE
  5
2AF
330
1F
100
AcDbEntity
  8
0-6_扉
  6
Continuous
 62
   200
370
    20
100
AcDbLine
 10
-4364.299981271543
 20
554.3061209377669
 30
0.0
 11
-4918.286438066756
 21
554.3061209377669
 31
0.0
  0
LINE
  5
2B0
330
1F
100
AcDbEntity
  8
0-6_扉
  6
Continuous
 62
   200
370
    20
100
AcDbLine
 10
-560.3812405002666
 20
554.3061209377669
 30
0.0
 11
-6.394783705054294
 21
554.3061209377669
 31
0.0
  0
LINE
  5
2B1
330
1F
100
AcDbEntity
  8
0-6_扉
  6
Continuous
 62
   200
370
    20
100
AcDbLine
 10
-1788.354154090692
 20
554.3061209377669
 30
0.0
 11
-1237.36769729548
 21
554.3061209377669
 31
0.0
  0
LINE
  5
2B2
330
1F
100
AcDbEntity
  8
0-6_扉
  6
Continuous
 62
   200
370
    20
100
AcDbLine
 10
-3016.327067681118
 20
554.3061209377669
 30
0.0
 11
-2468.340610885905
 21
554.3061209377669
 31
0.0
  0
LINE
  5
2B3
330
1F
100
AcDbEntity
  8
0-6_扉
  6
Continuous
 62
   200
370
    20
100
AcDbLine
 10
-4244.299981271543
 20
554.3061209377669
 30
0.0
 11
-3693.31352447633
 21
554.3061209377669
 31
0.0
  0
LWPOLYLINE
  5
2B4
330
1F
100
AcDbEntity
  8
0-B_寸法
  6
Continuous
 62
     7
370
     9
100
AcDbPolyline
 90
        4
 70
     1
 43
3.0
 10
-4232.281541097855
 20
554.3061209377669
 42
0.4142135623731
 10
-4233.781541097855
 20
555.8061209377669
 42
0.4142135623731
 10
-4235.281541097855
 20
554.3061209377669
 42
0.4142135623731
 10
-4233.781541097855
 20
552.8061209377669
 42
0.4142135623731
  0
LINE
  5
2B5
330
1F
100
AcDbEntity
  8
0-6_扉
  6
Continuous
 62
   200
370
    20
100
AcDbLine
 10
-1231.36769729548
 20
434.3061209377669
 30
0.0
 11
-680.3812405002666
 21
434.3061209377669
 31
0.0
  0
LINE
  5
2B6
330
1F
100
AcDbEntity
  8
0-6_扉
  6
Continuous
 62
   200
370
    20
100
AcDbLine
 10
-2456.340610885906
 20
434.3061209377669
 30
0.0
 11
-1908.354154090692
 21
434.3061209377669
 31
0.0
  0
LINE
  5
2B7
330
1F
100
AcDbEntity
  8
0-6_扉
  6
Continuous
 62
   200
370
    20
100
AcDbLine
 10
-3687.313524476331
 20
434.3061209377669
 30
0.0
 11
-3136.327067681118
 21
434.3061209377669
 31
0.0
  0
LINE
  5
2B8
330
1F
100
AcDbEntity
  8
0-6_扉
  6
Continuous
 62
   200
370
    20
100
AcDbLine
 10
-4364.299981271543
 20
434.3061209377669
 30
0.0
 11
-4918.286438066756
 21
434.3061209377669
 31
0.0
  0
LINE
  5
2B9
330
1F
100
AcDbEntity
  8
0-6_扉
  6
Continuous
 62
   200
370
    20
100
AcDbLine
 10
-560.3812405002666
 20
434.3061209377669
 30
0.0
 11
-6.394783705054294
 21
434.3061209377669
 31
0.0
  0
LINE
  5
2BA
330
1F
100
AcDbEntity
  8
0-6_扉
  6
Continuous
 62
   200
370
    20
100
AcDbLine
 10
-1788.354154090692
 20
434.3061209377669
 30
0.0
 11
-1237.36769729548
 21
434.3061209377669
 31
0.0
  0
LINE
  5
2BB
330
1F
100
AcDbEntity
  8
0-6_扉
  6
Continuous
 62
   200
370
    20
100
AcDbLine
 10
-3016.327067681118
 20
434.3061209377669
 30
0.0
 11
-2468.340610885905
 21
434.3061209377669
 31
0.0
  0
LINE
  5
2BC
330
1F
100
AcDbEntity
  8
0-6_扉
  6
Continuous
 62
   200
370
    20
100
AcDbLine
 10
-4244.299981271543
 20
434.3061209377669
 30
0.0
 11
-3693.31352447633
 21
434.3061209377669
 31
0.0
  0
LWPOLYLINE
  5
2BD
330
1F
100
AcDbEntity
  8
0-B_寸法
  6
Continuous
 62
     7
370
     9
100
AcDbPolyline
 90
        4
 70
     1
 43
3.0
 10
-4232.281541097855
 20
434.3061209377669
 42
0.4142135623731
 10
-4233.781541097855
 20
435.8061209377669
 42
0.4142135623731
 10
-4235.281541097855
 20
434.3061209377669
 42
0.4142135623731
 10
-4233.781541097855
 20
432.8061209377669
 42
0.4142135623731
  0
LINE
  5
2BE
330
1F
100
AcDbEntity
  8
0-B_寸法
  6
Continuous
 62
   120
370
     5
100
AcDbLine
 10
-4233.781541097855
 20
554.3061209377669
 30
0.0
 11
-4233.781541097855
 21
434.3061209377669
 31
0.0
  0
LINE
  5
2BF
330
1F
100
AcDbEntity
  8
0-6_扉
  6
Continuous
 62
   200
370
    20
100
AcDbLine
 10
-6.394783705054294
 20
554.3061209377669
 30
0.0
 11
-6.394783705054294
 21
434.3061209377669
 31
0.0
  0
LINE
  5
2C0
330
1F
100
AcDbEntity
  8
0-6_扉
  6
Continuous
 62
   200
370
    20
100
AcDbLine
 10
-1231.36769729548
 20
554.3061209377669
 30
0.0
 11
-1231.36769729548
 21
434.3061209377669
 31
0.0
  0
LINE
  5
2C1
330
1F
100
AcDbEntity
  8
0-6_扉
  6
Continuous
 62
   200
370
    20
100
AcDbLine
 10
-1237.36769729548
 20
554.3061209377669
 30
0.0
 11
-1237.36769729548
 21
434.3061209377669
 31
0.0
  0
LINE
  5
2C2
330
1F
100
AcDbEntity
  8
0-6_扉
  6
Continuous
 62
   200
370
    20
100
AcDbLine
 10
-2456.340610885906
 20
554.3061209377669
 30
0.0
 11
-2456.340610885906
 21
434.3061209377669
 31
0.0
  0
LINE
  5
2C3
330
1F
100
AcDbEntity
  8
0-6_扉
  6
Continuous
 62
   200
370
    20
100
AcDbLine
 10
-2468.340610885905
 20
554.3061209377669
 30
0.0
 11
-2468.340610885905
 21
434.3061209377669
 31
0.0
  0
LINE
  5
2C4
330
1F
100
AcDbEntity
  8
0-6_扉
  6
Continuous
 62
   200
370
    20
100
AcDbLine
 10
-3687.313524476331
 20
554.3061209377669
 30
0.0
 11
-3687.313524476331
 21
434.3061209377669
 31
0.0
  0
LINE
  5
2C5
330
1F
100
AcDbEntity
  8
0-6_扉
  6
Continuous
 62
   200
370
    20
100
AcDbLine
 10
-3693.31352447633
 20
554.3061209377669
 30
0.0
 11
-3693.31352447633
 21
434.3061209377669
 31
0.0
  0
LINE
  5
2C6
330
1F
100
AcDbEntity
  8
0-6_扉
  6
Continuous
 62
   200
370
    20
100
AcDbLine
 10
-4918.286438066756
 20
554.3061209377669
 30
0.0
 11
-4918.286438066756
 21
434.3061209377669
 31
0.0
  0
LINE
  5
2C7
330
1F
100
AcDbEntity
  8
0-6_扉
  6
Continuous
 62
   200
370
    20
100
AcDbLine
 10
1680.11202267813
 20
1757.306370851989
 30
0.0
 11
1680.11202267813
 21
554.3061209377652
 31
0.0
  0
LWPOLYLINE
  5
2C8
330
1F
100
AcDbEntity
  8
0-B_寸法
  6
Continuous
 62
     7
370
     9
100
AcDbPolyline
 90
        4
 70
     1
 43
3.0
 10
1681.61202267813
 20
1168.375519793069
 42
0.4142135623731
 10
1680.11202267813
 20
1169.875519793068
 42
0.4142135623731
 10
1678.61202267813
 20
1168.375519793069
 42
0.4142135623731
 10
1680.11202267813
 20
1166.875519793069
 42
0.4142135623731
  0
LINE
  5
2C9
330
1F
100
AcDbEntity
  8
0-6_扉
  6
Continuous
 62
   200
370
    20
100
AcDbLine
 10
1680.11202267813
 20
434.3061209377677
 30
0.0
 11
1680.11202267813
 21
-840.6941289764507
 31
0.0
  0
LINE
  5
2CA
330
1F
100
AcDbEntity
  8
0-6_扉
  6
Continuous
 62
   200
370
    20
100
AcDbLine
 10
1560.11202267813
 20
1757.306370851989
 30
0.0
 11
1560.11202267813
 21
554.3061209377652
 31
0.0
  0
LWPOLYLINE
  5
2CB
330
1F
100
AcDbEntity
  8
0-B_寸法
  6
Continuous
 62
     7
370
     9
100
AcDbPolyline
 90
        4
 70
     1
 43
3.0
 10
1561.61202267813
 20
1168.375519793069
 42
0.4142135623731
 10
1560.11202267813
 20
1169.875519793068
 42
0.4142135623731
 10
1558.61202267813
 20
1168.375519793069
 42
0.4142135623731
 10
1560.11202267813
 20
1166.875519793069
 42
0.4142135623731
  0
LINE
  5
2CC
330
1F
100
AcDbEntity
  8
0-6_扉
  6
Continuous
 62
   200
370
    20
100
AcDbLine
 10
1560.11202267813
 20
434.3061209377677
 30
0.0
 11
1560.11202267813
 21
-840.6941289764507
 31
0.0
  0
LINE
  5
2CD
330
1F
100
AcDbEntity
  8
0-7_金物
  6
JWW_DASHED1
 62
     7
370
     9
100
AcDbLine
 10
1665.11202267813
 20
-609.6941289764515
 30
0.0
 11
1578.11202267813
 21
-609.6941289764515
 31
0.0
  0
LINE
  5
2CE
330
1F
100
AcDbEntity
  8
0-6_扉
  6
Continuous
 62
   200
370
    20
100
AcDbLine
 10
1560.11202267813
 20
1757.306370851989
 30
0.0
 11
1680.11202267813
 21
1757.306370851989
 31
0.0
  0
LINE
  5
2CF
330
1F
100
AcDbEntity
  8
0-B_寸法
  6
Continuous
 62
   120
370
     5
100
AcDbLine
 10
1560.11202267813
 20
1168.375519793069
 30
0.0
 11
1680.11202267813
 21
1168.375519793069
 31
0.0
  0
LINE
  5
2D0
330
1F
100
AcDbEntity
  8
0-6_扉
  6
Continuous
 62
   200
370
    20
100
AcDbLine
 10
1560.11202267813
 20
-840.6941289764507
 30
0.0
 11
1680.11202267813
 21
-840.6941289764507
 31
0.0
  0
ENDSEC
  0
SECTION
  2
OBJECTS
  0
DICTIONARY
  5
C
330
0
100
AcDbDictionary
281
     1
  3
ACAD_GROUP
350
D
  3
ACAD_LAYOUT
350
1A
  3
ACAD_MATERIAL
350
3B
  3
ACAD_MLEADERSTYLE
350
2D2
  3
ACAD_MLINESTYLE
350
17
  3
ACAD_PLOTSETTINGS
350
19
  3
ACAD_PLOTSTYLENAME
350
E
  3
ACAD_TABLESTYLE
350
2D1
  3
ACAD_VISUALSTYLE
350
2A
  0
DICTIONARY
  5
D
102
{ACAD_REACTORS
330
C
102
}
330
C
100
AcDbDictionary
281
     1
  0
DICTIONARY
  5
1A
102
{ACAD_REACTORS
330
C
102
}
330
C
100
AcDbDictionary
281
     1
  3
Layout1
350
1E
  3
Layout2
350
26
  3
Model
350
22
  0
DICTIONARY
  5
3B
102
{ACAD_REACTORS
330
C
102
}
330
C
100
AcDbDictionary
281
     1
  3
ByBlock
350
3D
  3
ByLayer
350
3C
  3
Global
350
3E
  0
DICTIONARY
  5
2D2
102
{ACAD_REACTORS
330
C
102
}
330
C
100
AcDbDictionary
281
     1
  0
DICTIONARY
  5
17
102
{ACAD_REACTORS
330
C
102
}
330
C
100
AcDbDictionary
281
     1
  3
Standard
350
18
  0
DICTIONARY
  5
19
102
{ACAD_REACTORS
330
C
102
}
330
C
100
AcDbDictionary
281
     1
  0
ACDBDICTIONARYWDFLT
  5
E
102
{ACAD_REACTORS
330
C
102
}
330
C
100
AcDbDictionary
281
     1
  3
Normal
350
F
100
AcDbDictionaryWithDefault
340
F
  0
DICTIONARY
  5
2D1
102
{ACAD_REACTORS
330
C
102
}
330
C
100
AcDbDictionary
281
     1
  0
DICTIONARY
  5
2A
102
{ACAD_REACTORS
330
C
102
}
330
C
100
AcDbDictionary
281
     1
  3
2dWireframe
350
2F
  3
3D Hidden
350
31
  3
3dWireframe
350
30
  3
Basic
350
32
  3
Brighten
350
36
  3
ColorChange
350
3A
  3
Conceptual
350
34
  3
Dim
350
35
  3
Facepattern
350
39
  3
Flat
350
2B
  3
FlatWithEdges
350
2C
  3
Gouraud
350
2D
  3
GouraudWithEdges
350
2E
  3
Linepattern
350
38
  3
Realistic
350
33
  3
Thicken
350
37
  0
LAYOUT
  5
1E
102
{ACAD_REACTORS
330
1A
102
}
330
1A
100
AcDbPlotSettings
  1

  2
none_device
  4

  6

 40
0.0
 41
0.0
 42
0.0
 43
0.0
 44
0.0
 45
0.0
 46
0.0
 47
0.0
 48
0.0
 49
0.0
140
0.0
141
0.0
142
1.0
143
1.0
 70
   688
 72
     0
 73
     0
 74
     5
  7

 75
    16
 76
     0
 77
     5
 78
   300
147
1.0
148
0.0
149
0.0
100
AcDbLayout
  1
Layout1
 70
     1
 71
     1
 10
0.0
 20
0.0
 11
420.0
 21
297.0
 12
0.0
 22
0.0
 32
0.0
 14
1.000000000000000E+20
 24
1.000000000000000E+20
 34
1.000000000000000E+20
 15
-1.000000000000000E+20
 25
-1.000000000000000E+20
 35
-1.000000000000000E+20
146
0.0
 13
0.0
 23
0.0
 33
0.0
 16
1.0
 26
0.0
 36
0.0
 17
0.0
 27
1.0
 37
0.0
 76
     0
330
1B
  0
LAYOUT
  5
26
102
{ACAD_REACTORS
330
1A
102
}
330
1A
100
AcDbPlotSettings
  1

  2
none_device
  4

  6

 40
0.0
 41
0.0
 42
0.0
 43
0.0
 44
0.0
 45
0.0
 46
0.0
 47
0.0
 48
0.0
 49
0.0
140
0.0
141
0.0
142
1.0
143
1.0
 70
   688
 72
     0
 73
     0
 74
     5
  7

 75
    16
 76
     0
 77
     5
 78
   300
147
1.0
148
0.0
149
0.0
100
AcDbLayout
  1
Layout2
 70
     1
 71
     2
 10
0.0
 20
0.0
 11
0.0
 21
0.0
 12
0.0
 22
0.0
 32
0.0
 14
0.0
 24
0.0
 34
0.0
 15
0.0
 25
0.0
 35
0.0
146
0.0
 13
0.0
 23
0.0
 33
0.0
 16
1.0
 26
0.0
 36
0.0
 17
0.0
 27
1.0
 37
0.0
 76
     0
330
23
  0
LAYOUT
  5
22
102
{ACAD_REACTORS
330
1A
102
}
330
1A
100
AcDbPlotSettings
  1

  2
none_device
  4

  6

 40
0.0
 41
0.0
 42
0.0
 43
0.0
 44
0.0
 45
0.0
 46
0.0
 47
0.0
 48
0.0
 49
0.0
140
0.0
141
0.0
142
1.0
143
1.0
 70
  1712
 72
     0
 73
     0
 74
     0
  7

 75
     0
 76
     0
 77
     5
 78
   300
147
1.0
148
0.0
149
0.0
100
AcDbLayout
  1
Model
 70
     1
 71
     0
 10
-6300.0
 20
-4455.0
 11
6300.0
 21
4455.0
 12
0.0
 22
0.0
 32
0.0
 14
-6300.0
 24
-4455.0
 34
0.0
 15
6300.0
 25
4455.0
 35
0.0
146
0.0
 13
0.0
 23
0.0
 33
0.0
 16
1.0
 26
0.0
 36
0.0
 17
0.0
 27
1.0
 37
0.0
 76
     0
330
1F
331
29
  0
MATERIAL
  5
3D
102
{ACAD_REACTORS
330
3B
102
}
330
3B
100
AcDbMaterial
  1
ByBlock
 72
     1
 94
      127
  0
MATERIAL
  5
3C
102
{ACAD_REACTORS
330
3B
102
}
330
3B
100
AcDbMaterial
  1
ByLayer
 72
     1
 94
      127
  0
MATERIAL
  5
3E
102
{ACAD_REACTORS
330
3B
102
}
330
3B
100
AcDbMaterial
  1
Global
 72
     1
 94
      127
  0
MLINESTYLE
  5
18
102
{ACAD_REACTORS
330
17
102
}
330
17
100
AcDbMlineStyle
  2
Standard
 70
     0
  3

 62
   256
 51
90.0
 52
90.0
 71
     2
 49
0.5
 62
   256
  6
BYLAYER
 49
-0.5
 62
   256
  6
BYLAYER
  0
ACDBPLACEHOLDER
  5
F
102
{ACAD_REACTORS
330
E
102
}
330
E
  0
VISUALSTYLE
  5
2F
102
{ACAD_REACTORS
330
2A
102
}
330
2A
100
AcDbVisualStyle
  2
2dWireframe
 70
     4
177
     2
291
     0
 71
     0
176
     1
 72
     2
176
     1
 73
     0
176
     1
 90
        0
176
     1
 40
-0.6
176
     1
 41
-30.0
176
     1
 62
     5
 63
     7
421
 16777215
176
     1
 74
     1
176
     1
 91
        4
176
     1
 64
     7
176
     1
 65
   257
176
     1
 75
     1
176
     1
175
     1
176
     1
 42
1.0
176
     1
 92
        0
176
     1
 66
   257
176
     1
 43
1.0
176
     1
 76
     1
176
     1
 77
     6
176
     1
 78
     2
176
     1
 67
     7
176
     1
 79
     5
176
     1
170
     0
176
     1
171
     0
176
     1
290
     0
176
     1
 93
        1
176
     1
 44
0.0
176
     1
173
     0
176
     1
  0
VISUALSTYLE
  5
31
102
{ACAD_REACTORS
330
2A
102
}
330
2A
100
AcDbVisualStyle
  2
3D Hidden
 70
     6
177
     2
291
     0
 71
     1
176
     1
 72
     2
176
     1
 73
     2
176
     1
 90
        0
176
     1
 40
-0.6
176
     1
 41
-30.0
176
     1
 62
     5
 63
     7
421
 16777215
176
     1
 74
     2
176
     1
 91
        2
176
     1
 64
     7
176
     1
 65
   257
176
     1
 75
     2
176
     1
175
     1
176
     1
 42
40.0
176
     1
 92
        0
176
     1
 66
   257
176
     1
 43
1.0
176
     1
 76
     1
176
     1
 77
     6
176
     1
 78
     2
176
     1
 67
     7
176
     1
 79
     3
176
     1
170
     0
176
     1
171
     0
176
     1
290
     0
176
     1
 93
        1
176
     1
 44
0.0
176
     1
173
     0
176
     1
  0
VISUALSTYLE
  5
30
102
{ACAD_REACTORS
330
2A
102
}
330
2A
100
AcDbVisualStyle
  2
3dWireframe
 70
     5
177
     2
291
     0
 71
     0
176
     1
 72
     2
176
     1
 73
     0
176
     1
 90
        0
176
     1
 40
-0.6
176
     1
 41
-30.0
176
     1
 62
     5
 63
     7
421
 16777215
176
     1
 74
     1
176
     1
 91
        4
176
     1
 64
     7
176
     1
 65
   257
176
     1
 75
     1
176
     1
175
     1
176
     1
 42
1.0
176
     1
 92
        0
176
     1
 66
   257
176
     1
 43
1.0
176
     1
 76
     1
176
     1
 77
     6
176
     1
 78
     2
176
     1
 67
     7
176
     1
 79
     5
176
     1
170
     0
176
     1
171
     0
176
     1
290
     0
176
     1
 93
        1
176
     1
 44
0.0
176
     1
173
     0
176
     1
  0
VISUALSTYLE
  5
32
102
{ACAD_REACTORS
330
2A
102
}
330
2A
100
AcDbVisualStyle
  2
Basic
 70
     7
177
     2
291
     1
 71
     1
176
     1
 72
     0
176
     1
 73
     1
176
     1
 90
        0
176
     1
 40
-0.6
176
     1
 41
-30.0
176
     1
 62
     5
 63
     7
421
 16777215
176
     1
 74
     0
176
     1
 91
        4
176
     1
 64
     7
176
     1
 65
   257
176
     1
 75
     1
176
     1
175
     1
176
     1
 42
1.0
176
     1
 92
        8
176
     1
 66
     7
176
     1
 43
1.0
176
     1
 76
     1
176
     1
 77
     6
176
     1
 78
     2
176
     1
 67
     7
176
     1
 79
     5
176
     1
170
     0
176
     1
171
     0
176
     1
290
     0
176
     1
 93
        1
176
     1
 44
0.0
176
     1
173
     0
176
     1
  0
VISUALSTYLE
  5
36
102
{ACAD_REACTORS
330
2A
102
}
330
2A
100
AcDbVisualStyle
  2
Brighten
 70
    12
177
     2
291
     1
 71
     2
176
     1
 72
     2
176
     1
 73
     0
176
     1
 90
        0
176
     1
 40
-0.6
176
     1
 41
-30.0
176
     1
 62
     5
 63
     7
421
 16777215
176
     1
 74
     1
176
     1
 91
        4
176
     1
 64
     7
176
     1
 65
   257
176
     1
 75
     1
176
     1
175
     1
176
     1
 42
1.0
176
     1
 92
        8
176
     1
 66
     7
176
     1
 43
1.0
176
     1
 76
     1
176
     1
 77
     6
176
     1
 78
     2
176
     1
 67
     7
176
     1
 79
     5
176
     1
170
     0
176
     1
171
     0
176
     1
290
     0
176
     1
 93
        1
176
     1
 44
50.0
176
     1
173
     0
176
     1
  0
VISUALSTYLE
  5
3A
102
{ACAD_REACTORS
330
2A
102
}
330
2A
100
AcDbVisualStyle
  2
ColorChange
 70
    16
177
     2
291
     1
 71
     2
176
     1
 72
     2
176
     1
 73
     3
176
     1
 90
        0
176
     1
 40
-0.6
176
     1
 41
-30.0
176
     1
 62
     5
 63
     8
421
  8421504
176
     1
 74
     1
176
     1
 91
        4
176
     1
 64
     7
176
     1
 65
   257
176
     1
 75
     1
176
     1
175
     1
176
     1
 42
1.0
176
     1
 92
        8
176
     1
 66
     8
424
  8421504
176
     1
 43
1.0
176
     1
 76
     1
176
     1
 77
     6
176
     1
 78
     2
176
     1
 67
     7
176
     1
 79
     5
176
     1
170
     0
176
     1
171
     0
176
     1
290
     0
176
     1
 93
        1
176
     1
 44
0.0
176
     1
173
     0
176
     1
  0
VISUALSTYLE
  5
34
102
{ACAD_REACTORS
330
2A
102
}
330
2A
100
AcDbVisualStyle
  2
Conceptual
 70
     9
177
     2
291
     0
 71
     3
176
     1
 72
     2
176
     1
 73
     0
176
     1
 90
        0
176
     1
 40
-0.6
176
     1
 41
-30.0
176
     1
 62
     5
 63
     7
421
 16777215
176
     1
 74
     2
176
     1
 91
        2
176
     1
 64
     7
176
     1
 65
   257
176
     1
 75
     1
176
     1
175
     1
176
     1
 42
40.0
176
     1
 92
        8
176
     1
 66
     7
176
     1
 43
1.0
176
     1
 76
     1
176
     1
 77
     6
176
     1
 78
     2
176
     1
 67
     7
176
     1
 79
     3
176
     1
170
     0
176
     1
171
     0
176
     1
290
     0
176
     1
 93
        1
176
     1
 44
0.0
176
     1
173
     0
176
     1
  0
VISUALSTYLE
  5
35
102
{ACAD_REACTORS
330
2A
102
}
330
2A
100
AcDbVisualStyle
  2
Dim
 70
    11
177
     2
291
     1
 71
     2
176
     1
 72
     2
176
     1
 73
     0
176
     1
 90
        0
176
     1
 40
-0.6
176
     1
 41
-30.0
176
     1
 62
     5
 63
     7
421
 16777215
176
     1
 74
     1
176
     1
 91
        4
176
     1
 64
     7
176
     1
 65
   257
176
     1
 75
     1
176
     1
175
     1
176
     1
 42
1.0
176
     1
 92
        8
176
     1
 66
     7
176
     1
 43
1.0
176
     1
 76
     1
176
     1
 77
     6
176
     1
 78
     2
176
     1
 67
     7
176
     1
 79
     5
176
     1
170
     0
176
     1
171
     0
176
     1
290
     0
176
     1
 93
        1
176
     1
 44
-50.0
176
     1
173
     0
176
     1
  0
VISUALSTYLE
  5
39
102
{ACAD_REACTORS
330
2A
102
}
330
2A
100
AcDbVisualStyle
  2
Facepattern
 70
    15
177
     2
291
     1
 71
     2
176
     1
 72
     2
176
     1
 73
     0
176
     1
 90
        0
176
     1
 40
-0.6
176
     1
 41
-30.0
176
     1
 62
     5
 63
     7
421
 16777215
176
     1
 74
     1
176
     1
 91
        4
176
     1
 64
     7
176
     1
 65
   257
176
     1
 75
     1
176
     1
175
     1
176
     1
 42
1.0
176
     1
 92
        8
176
     1
 66
     7
176
     1
 43
1.0
176
     1
 76
     1
176
     1
 77
     6
176
     1
 78
     2
176
     1
 67
     7
176
     1
 79
     5
176
     1
170
     0
176
     1
171
     0
176
     1
290
     0
176
     1
 93
        1
176
     1
 44
0.0
176
     1
173
     0
176
     1
  0
VISUALSTYLE
  5
2B
102
{ACAD_REACTORS
330
2A
102
}
330
2A
100
AcDbVisualStyle
  2
Flat
 70
     0
177
     2
291
     1
 71
     2
176
     1
 72
     1
176
     1
 73
     1
176
     1
 90
        2
176
     1
 40
-0.6
176
     1
 41
30.0
176
     1
 62
     5
 63
     7
421
 16777215
176
     1
 74
     0
176
     1
 91
        4
176
     1
 64
     7
176
     1
 65
   257
176
     1
 75
     1
176
     1
175
     1
176
     1
 42
1.0
176
     1
 92
        8
176
     1
 66
     7
176
     1
 43
1.0
176
     1
 76
     1
176
     1
 77
     6
176
     1
 78
     2
176
     1
 67
     7
176
     1
 79
     5
176
     1
170
     0
176
     1
171
     0
176
     1
290
     0
176
     1
 93
       13
176
     1
 44
0.0
176
     1
173
     0
176
     1
  0
VISUALSTYLE
  5
2C
102
{ACAD_REACTORS
330
2A
102
}
330
2A
100
AcDbVisualStyle
  2
FlatWithEdges
 70
     1
177
     2
291
     1
 71
     2
176
     1
 72
     1
176
     1
 73
     1
176
     1
 90
        2
176
     1
 40
-0.6
176
     1
 41
30.0
176
     1
 62
     5
 63
     7
421
 16777215
176
     1
 74
     1
176
     1
 91
        4
176
     1
 64
     7
176
     1
 65
   257
176
     1
 75
     1
176
     1
175
     1
176
     1
 42
1.0
176
     1
 92
        0
176
     1
 66
   257
176
     1
 43
1.0
176
     1
 76
     1
176
     1
 77
     6
176
     1
 78
     2
176
     1
 67
     7
176
     1
 79
     5
176
     1
170
     0
176
     1
171
     0
176
     1
290
     0
176
     1
 93
       13
176
     1
 44
0.0
176
     1
173
     0
176
     1
  0
VISUALSTYLE
  5
2D
102
{ACAD_REACTORS
330
2A
102
}
330
2A
100
AcDbVisualStyle
  2
Gouraud
 70
     2
177
     2
291
     1
 71
     2
176
     1
 72
     2
176
     1
 73
     1
176
     1
 90
        2
176
     1
 40
-0.6
176
     1
 41
30.0
176
     1
 62
     5
 63
     7
421
 16777215
176
     1
 74
     0
176
     1
 91
        4
176
     1
 64
     7
176
     1
 65
   257
176
     1
 75
     1
176
     1
175
     1
176
     1
 42
1.0
176
     1
 92
        0
176
     1
 66
     7
176
     1
 43
1.0
176
     1
 76
     1
176
     1
 77
     6
176
     1
 78
     2
176
     1
 67
     7
176
     1
 79
     5
176
     1
170
     0
176
     1
171
     0
176
     1
290
     0
176
     1
 93
       13
176
     1
 44
0.0
176
     1
173
     0
176
     1
  0
VISUALSTYLE
  5
2E
102
{ACAD_REACTORS
330
2A
102
}
330
2A
100
AcDbVisualStyle
  2
GouraudWithEdges
 70
     3
177
     2
291
     1
 71
     2
176
     1
 72
     2
176
     1
 73
     1
176
     1
 90
        2
176
     1
 40
-0.6
176
     1
 41
30.0
176
     1
 62
     5
 63
     7
421
 16777215
176
     1
 74
     1
176
     1
 91
        4
176
     1
 64
     7
176
     1
 65
   257
176
     1
 75
     1
176
     1
175
     1
176
     1
 42
1.0
176
     1
 92
        0
176
     1
 66
   257
176
     1
 43
1.0
176
     1
 76
     1
176
     1
 77
     6
176
     1
 78
     2
176
     1
 67
     7
176
     1
 79
     5
176
     1
170
     0
176
     1
171
     0
176
     1
290
     0
176
     1
 93
       13
176
     1
 44
0.0
176
     1
173
     0
176
     1
  0
VISUALSTYLE
  5
38
102
{ACAD_REACTORS
330
2A
102
}
330
2A
100
AcDbVisualStyle
  2
Linepattern
 70
    14
177
     2
291
     1
 71
     2
176
     1
 72
     2
176
     1
 73
     0
176
     1
 90
        0
176
     1
 40
-0.6
176
     1
 41
-30.0
176
     1
 62
     5
 63
     7
421
 16777215
176
     1
 74
     1
176
     1
 91
        4
176
     1
 64
     7
176
     1
 65
   257
176
     1
 75
     7
176
     1
175
     7
176
     1
 42
1.0
176
     1
 92
        8
176
     1
 66
     7
176
     1
 43
1.0
176
     1
 76
     1
176
     1
 77
     6
176
     1
 78
     2
176
     1
 67
     7
176
     1
 79
     5
176
     1
170
     0
176
     1
171
     0
176
     1
290
     0
176
     1
 93
        1
176
     1
 44
0.0
176
     1
173
     0
176
     1
  0
VISUALSTYLE
  5
33
102
{ACAD_REACTORS
330
2A
102
}
330
2A
100
AcDbVisualStyle
  2
Realistic
 70
     8
177
     2
291
     0
 71
     2
176
     1
 72
     2
176
     1
 73
     0
176
     1
 90
        0
176
     1
 40
-0.6
176
     1
 41
-30.0
176
     1
 62
     5
 63
     7
421
 16777215
176
     1
 74
     1
176
     1
 91
        0
176
     1
 64
     7
176
     1
 65
   257
176
     1
 75
     1
176
     1
175
     1
176
     1
 42
1.0
176
     1
 92
        8
176
     1
 66
     8
424
  7895160
176
     1
 43
1.0
176
     1
 76
     1
176
     1
 77
     6
176
     1
 78
     2
176
     1
 67
     7
176
     1
 79
     5
176
     1
170
     0
176
     1
171
     0
176
     1
290
     0
176
     1
 93
       13
176
     1
 44
0.0
176
     1
173
     0
176
     1
  0
VISUALSTYLE
  5
37
102
{ACAD_REACTORS
330
2A
102
}
330
2A
100
AcDbVisualStyle
  2
Thicken
 70
    13
177
     2
291
     1
 71
     2
176
     1
 72
     2
176
     1
 73
     0
176
     1
 90
        0
176
     1
 40
-0.6
176
     1
 41
-30.0
176
     1
 62
     5
 63
     7
421
 16777215
176
     1
 74
     1
176
     1
 91
        4
176
     1
 64
     7
176
     1
 65
   257
176
     1
 75
     1
176
     1
175
     1
176
     1
 42
1.0
176
     1
 92
       12
176
     1
 66
     7
176
     1
 43
1.0
176
     1
 76
     1
176
     1
 77
     6
176
     1
 78
     2
176
     1
 67
     7
176
     1
 79
     5
176
     1
170
     0
176
     1
171
     0
176
     1
290
     0
176
     1
 93
        1
176
     1
 44
0.0
176
     1
173
     0
176
     1
  0
ENDSEC
  0
EOF
