  0
SECTION
  2
HEADER
  9
$ACADVER
  1
AC1024
  9
$ACADMAINTVER
 70
     6
  9
$DWGCODEPAGE
  3
ANSI_932
  9
$INSBASE
 10
0.0
 20
0.0
 30
0.0
  9
$EXTMIN
 10
-6300.0
 20
-4455.0
 30
0.0
  9
$EXTMAX
 10
6300.0
 20
4455.0
 30
0.0
  9
$LIMMIN
 10
-6300.0
 20
-4455.0
  9
$LIMMAX
 10
6300.0
 20
4455.0
  9
$ORTHOMODE
 70
     0
  9
$REGENMODE
 70
     1
  9
$FILLMODE
 70
     1
  9
$QTEXTMODE
 70
     0
  9
$MIRRTEXT
 70
     1
  9
$LTSCALE
 40
30.0
  9
$ATTMODE
 70
     1
  9
$TEXTSIZE
 40
2.5
  9
$TRACEWID
 40
1.0
  9
$TEXTSTYLE
  7
Standard
  9
$CLAYER
  8
0
  9
$CELTYPE
  6
ByLayer
  9
$CECOLOR
 62
   256
  9
$CELTSCALE
 40
1.0
  9
$DISPSILH
 70
     0
  9
$DIMSCALE
 40
1.0
  9
$DIMASZ
 40
2.5
  9
$DIMEXO
 40
0.625
  9
$DIMDLI
 40
3.75
  9
$DIMRND
 40
0.0
  9
$DIMDLE
 40
0.0
  9
$DIMEXE
 40
1.25
  9
$DIMTP
 40
0.0
  9
$DIMTM
 40
0.0
  9
$DIMTXT
 40
2.5
  9
$DIMCEN
 40
2.5
  9
$DIMTSZ
 40
0.0
  9
$DIMTOL
 70
     0
  9
$DIMLIM
 70
     0
  9
$DIMTIH
 70
     0
  9
$DIMTOH
 70
     0
  9
$DIMSE1
 70
     0
  9
$DIMSE2
 70
     0
  9
$DIMTAD
 70
     1
  9
$DIMZIN
 70
     8
  9
$DIMBLK
  1

  9
$DIMASO
 70
     1
  9
$DIMSHO
 70
     1
  9
$DIMPOST
  1

  9
$DIMAPOST
  1

  9
$DIMALT
 70
     0
  9
$DIMALTD
 70
     3
  9
$DIMALTF
 40
0.03937007874016
  9
$DIMLFAC
 40
1.0
  9
$DIMTOFL
 70
     1
  9
$DIMTVP
 40
0.0
  9
$DIMTIX
 70
     0
  9
$DIMSOXD
 70
     0
  9
$DIMSAH
 70
     0
  9
$DIMBLK1
  1

  9
$DIMBLK2
  1

  9
$DIMSTYLE
  2
ISO-25
  9
$DIMCLRD
 70
     0
  9
$DIMCLRE
 70
     0
  9
$DIMCLRT
 70
     0
  9
$DIMTFAC
 40
1.0
  9
$DIMGAP
 40
0.625
  9
$DIMJUST
 70
     0
  9
$DIMSD1
 70
     0
  9
$DIMSD2
 70
     0
  9
$DIMTOLJ
 70
     0
  9
$DIMTZIN
 70
     8
  9
$DIMALTZ
 70
     0
  9
$DIMALTTZ
 70
     0
  9
$DIMUPT
 70
     0
  9
$DIMDEC
 70
     2
  9
$DIMTDEC
 70
     2
  9
$DIMALTU
 70
     2
  9
$DIMALTTD
 70
     3
  9
$DIMTXSTY
  7
Standard
  9
$DIMAUNIT
 70
     0
  9
$DIMADEC
 70
     0
  9
$DIMALTRND
 40
0.0
  9
$DIMAZIN
 70
     0
  9
$DIMDSEP
 70
    44
  9
$DIMATFIT
 70
     3
  9
$DIMFRAC
 70
     0
  9
$DIMLDRBLK
  1

  9
$DIMLUNIT
 70
     2
  9
$DIMLWD
 70
    -2
  9
$DIMLWE
 70
    -2
  9
$DIMTMOVE
 70
     0
  9
$DIMFXL
 40
1.0
  9
$DIMFXLON
 70
     0
  9
$DIMJOGANG
 40
0.7853981633974483
  9
$DIMTFILL
 70
     0
  9
$DIMTFILLCLR
 70
     0
  9
$DIMARCSYM
 70
     0
  9
$DIMLTYPE
  6

  9
$DIMLTEX1
  6

  9
$DIMLTEX2
  6

  9
$DIMTXTDIRECTION
 70
     0
  9
$LUNITS
 70
     2
  9
$LUPREC
 70
     4
  9
$SKETCHINC
 40
1.0
  9
$FILLETRAD
 40
10.0
  9
$AUNITS
 70
     0
  9
$AUPREC
 70
     0
  9
$MENU
  1
.
  9
$ELEVATION
 40
0.0
  9
$PELEVATION
 40
0.0
  9
$THICKNESS
 40
0.0
  9
$LIMCHECK
 70
     0
  9
$CHAMFERA
 40
10.0
  9
$CHAMFERB
 40
10.0
  9
$CHAMFERC
 40
20.0
  9
$CHAMFERD
 40
0.0
  9
$SKPOLY
 70
     0
  9
$TDCREATE
 40
2460327.685913449
  9
$TDUCREATE
 40
2460327.310913449
  9
$TDUPDATE
 40
2460327.685913461
  9
$TDUUPDATE
 40
2460327.310913461
  9
$TDINDWG
 40
0.0000000116
  9
$TDUSRTIMER
 40
0.0000000116
  9
$USRTIMER
 70
     1
  9
$ANGBASE
 50
0.0
  9
$ANGDIR
 70
     0
  9
$PDMODE
 70
     0
  9
$PDSIZE
 40
0.0
  9
$PLINEWID
 40
0.0
  9
$SPLFRAME
 70
     0
  9
$SPLINETYPE
 70
     6
  9
$SPLINESEGS
 70
     8
  9
$HANDSEED
  5
2AE
  9
$SURFTAB1
 70
     6
  9
$SURFTAB2
 70
     6
  9
$SURFTYPE
 70
     6
  9
$SURFU
 70
     6
  9
$SURFV
 70
     6
  9
$UCSBASE
  2

  9
$UCSNAME
  2

  9
$UCSORG
 10
0.0
 20
0.0
 30
0.0
  9
$UCSXDIR
 10
1.0
 20
0.0
 30
0.0
  9
$UCSYDIR
 10
0.0
 20
1.0
 30
0.0
  9
$UCSORTHOREF
  2

  9
$UCSORTHOVIEW
 70
     0
  9
$UCSORGTOP
 10
0.0
 20
0.0
 30
0.0
  9
$UCSORGBOTTOM
 10
0.0
 20
0.0
 30
0.0
  9
$UCSORGLEFT
 10
0.0
 20
0.0
 30
0.0
  9
$UCSORGRIGHT
 10
0.0
 20
0.0
 30
0.0
  9
$UCSORGFRONT
 10
0.0
 20
0.0
 30
0.0
  9
$UCSORGBACK
 10
0.0
 20
0.0
 30
0.0
  9
$PUCSBASE
  2

  9
$PUCSNAME
  2

  9
$PUCSORG
 10
0.0
 20
0.0
 30
0.0
  9
$PUCSXDIR
 10
1.0
 20
0.0
 30
0.0
  9
$PUCSYDIR
 10
0.0
 20
1.0
 30
0.0
  9
$PUCSORTHOREF
  2

  9
$PUCSORTHOVIEW
 70
     0
  9
$PUCSORGTOP
 10
0.0
 20
0.0
 30
0.0
  9
$PUCSORGBOTTOM
 10
0.0
 20
0.0
 30
0.0
  9
$PUCSORGLEFT
 10
0.0
 20
0.0
 30
0.0
  9
$PUCSORGRIGHT
 10
0.0
 20
0.0
 30
0.0
  9
$PUCSORGFRONT
 10
0.0
 20
0.0
 30
0.0
  9
$PUCSORGBACK
 10
0.0
 20
0.0
 30
0.0
  9
$USERI1
 70
     0
  9
$USERI2
 70
     0
  9
$USERI3
 70
     0
  9
$USERI4
 70
     0
  9
$USERI5
 70
     0
  9
$USERR1
 40
0.0
  9
$USERR2
 40
0.0
  9
$USERR3
 40
0.0
  9
$USERR4
 40
0.0
  9
$USERR5
 40
0.0
  9
$WORLDVIEW
 70
     1
  9
$SHADEDGE
 70
     3
  9
$SHADEDIF
 70
    70
  9
$TILEMODE
 70
     1
  9
$MAXACTVP
 70
    64
  9
$PINSBASE
 10
0.0
 20
0.0
 30
0.0
  9
$PLIMCHECK
 70
     0
  9
$PEXTMIN
 10
1.000000000000000E+20
 20
1.000000000000000E+20
 30
1.000000000000000E+20
  9
$PEXTMAX
 10
-1.000000000000000E+20
 20
-1.000000000000000E+20
 30
-1.000000000000000E+20
  9
$PLIMMIN
 10
0.0
 20
0.0
  9
$PLIMMAX
 10
420.0
 20
297.0
  9
$UNITMODE
 70
     0
  9
$VISRETAIN
 70
     1
  9
$PLINEGEN
 70
     0
  9
$PSLTSCALE
 70
     1
  9
$TREEDEPTH
 70
  3020
  9
$CMLSTYLE
  2
Standard
  9
$CMLJUST
 70
     0
  9
$CMLSCALE
 40
20.0
  9
$PROXYGRAPHICS
 70
     1
  9
$MEASUREMENT
 70
     1
  9
$CELWEIGHT
370
    -1
  9
$ENDCAPS
280
     0
  9
$JOINSTYLE
280
     0
  9
$LWDISPLAY
290
     0
  9
$INSUNITS
 70
     4
  9
$HYPERLINKBASE
  1

  9
$STYLESHEET
  1

  9
$XEDIT
290
     1
  9
$CEPSNTYPE
380
     0
  9
$PSTYLEMODE
290
     1
  9
$FINGERPRINTGUID
  2
{D8942832-5F99-4AD9-BE0B-9F0A156B560B}
  9
$VERSIONGUID
  2
{FAEB1C32-E019-11D5-929B-00C0DF256EC4}
  9
$EXTNAMES
290
     1
  9
$PSVPSCALE
 40
0.0
  9
$OLESTARTUP
290
     0
  9
$SORTENTS
280
   127
  9
$INDEXCTL
280
     0
  9
$HIDETEXT
280
     1
  9
$XCLIPFRAME
280
     2
  9
$HALOGAP
280
     0
  9
$OBSCOLOR
 70
   257
  9
$OBSLTYPE
280
     0
  9
$INTERSECTIONDISPLAY
280
     0
  9
$INTERSECTIONCOLOR
 70
   257
  9
$DIMASSOC
280
     2
  9
$PROJECTNAME
  1

  9
$CAMERADISPLAY
290
     0
  9
$LENSLENGTH
 40
50.0
  9
$CAMERAHEIGHT
 40
0.0
  9
$STEPSPERSEC
 40
2.0
  9
$STEPSIZE
 40
6.0
  9
$3DDWFPREC
 40
2.0
  9
$PSOLWIDTH
 40
5.0
  9
$PSOLHEIGHT
 40
80.0
  9
$LOFTANG1
 40
1.570796326794897
  9
$LOFTANG2
 40
1.570796326794897
  9
$LOFTMAG1
 40
0.0
  9
$LOFTMAG2
 40
0.0
  9
$LOFTPARAM
 70
     7
  9
$LOFTNORMALS
280
     1
  9
$LATITUDE
 40
37.795
  9
$LONGITUDE
 40
-122.394
  9
$NORTHDIRECTION
 40
0.0
  9
$TIMEZONE
 70
 -8000
  9
$LIGHTGLYPHDISPLAY
280
     1
  9
$TILEMODELIGHTSYNCH
280
     1
  9
$SOLIDHIST
280
     1
  9
$SHOWHIST
280
     1
  9
$DWFFRAME
280
     2
  9
$DGNFRAME
280
     2
  9
$REALWORLDSCALE
290
     1
  9
$INTERFERECOLOR
 62
   256
  9
$CSHADOW
280
     0
  9
$SHADOWPLANELOCATION
 40
0.0
  0
ENDSEC
  0
SECTION
  2
CLASSES
  0
CLASS
  1
ACDBDICTIONARYWDFLT
  2
AcDbDictionaryWithDefault
  3
ObjectDBX Classes
 90
        0
 91
        4
280
     0
281
     0
  0
CLASS
  1
VISUALSTYLE
  2
AcDbVisualStyle
  3
ObjectDBX Classes
 90
     4095
 91
        4
280
     0
281
     0
  0
CLASS
  1
MATERIAL
  2
AcDbMaterial
  3
ObjectDBX Classes
 90
     1153
 91
        4
280
     0
281
     0
  0
ENDSEC
  0
SECTION
  2
TABLES
  0
TABLE
  2
VPORT
  5
8
330
0
100
AcDbSymbolTable
 70
     1
  0
VPORT
  5
29
330
8
100
AcDbSymbolTableRecord
100
AcDbViewportTableRecord
  2
*Active
 70
     0
 10
0.0
 20
0.0
 11
1.0
 21
1.0
 12
0.0
 22
0.0
 13
0.0
 23
0.0
 14
10.0
 24
10.0
 15
10.0
 25
10.0
 16
0.0
 26
0.0
 36
1.0
 17
0.0
 27
0.0
 37
0.0
 40
9801.0
 41
1.414141414141414
 42
50.0
 43
0.0
 44
0.0
 50
0.0
 51
0.0
 71
     0
 72
 10000
 73
     1
 74
     3
 75
     0
 76
     0
 77
     0
 78
     0
281
     0
 65
     1
110
0.0
120
0.0
130
0.0
111
1.0
121
0.0
131
0.0
112
0.0
122
1.0
132
0.0
 79
     0
146
0.0
 60
     3
 61
     5
292
     1
282
     1
141
0.0
142
0.0
 63
   250
  0
ENDTAB
  0
TABLE
  2
LTYPE
  5
5
330
0
100
AcDbSymbolTable
 70
     5
  0
LTYPE
  5
14
330
5
100
AcDbSymbolTableRecord
100
AcDbLinetypeTableRecord
  2
ByBlock
 70
     0
  3

 72
    65
 73
     0
 40
0.0
  0
LTYPE
  5
15
330
5
100
AcDbSymbolTableRecord
100
AcDbLinetypeTableRecord
  2
ByLayer
 70
     0
  3

 72
    65
 73
     0
 40
0.0
  0
LTYPE
  5
16
330
5
100
AcDbSymbolTableRecord
100
AcDbLinetypeTableRecord
  2
Continuous
 70
     0
  3
Solid line
 72
    65
 73
     0
 40
0.0
  0
LTYPE
  5
3F
330
5
100
AcDbSymbolTableRecord
100
AcDbLinetypeTableRecord
  2
JWW_HOJO
 70
     0
  3
  -   -   -   -   -   -   -   - 
 72
    65
 73
     2
 40
1.693333333333333
 49
-1.27
 74
     0
 49
0.4233333333333333
 74
     0
  0
LTYPE
  5
40
330
5
100
AcDbSymbolTableRecord
100
AcDbLinetypeTableRecord
  2
JWW_CENTER1
 70
     0
  3
-----  --  ----------  --  -----
 72
    65
 73
     4
 40
6.773333333333333
 49
4.233333333333333
 74
     0
 49
-0.8466666666666667
 74
     0
 49
0.8466666666666667
 74
     0
 49
-0.8466666666666667
 74
     0
  0
LTYPE
  5
41
330
5
100
AcDbSymbolTableRecord
100
AcDbLinetypeTableRecord
  2
JWW_DASHED3
 70
     0
  3
---  ------  ------  ------  ---
 72
    65
 73
     2
 40
3.386666666666667
 49
2.54
 74
     0
 49
-0.8466666666666667
 74
     0
  0
LTYPE
  5
42
330
5
100
AcDbSymbolTableRecord
100
AcDbLinetypeTableRecord
  2
JWW_DASHED1
 70
     0
  3
-  --  --  --  --  --  --  --  -
 72
    65
 73
     2
 40
1.693333333333333
 49
0.8466666666666667
 74
     0
 49
-0.8466666666666667
 74
     0
  0
ENDTAB
  0
TABLE
  2
LAYER
  5
2
330
0
100
AcDbSymbolTable
 70
    19
  0
LAYER
  5
10
330
2
100
AcDbSymbolTableRecord
100
AcDbLayerTableRecord
  2
0
 70
     0
 62
     7
  6
Continuous
370
    -3
390
F
347
3E
  0
LAYER
  5
43
330
2
100
AcDbSymbolTableRecord
100
AcDbLayerTableRecord
  2
F-0_補助線
 70
     0
 62
     7
  6
Continuous
370
    -3
390
F
347
3E
  0
LAYER
  5
44
330
2
100
AcDbSymbolTableRecord
100
AcDbLayerTableRecord
  2
F-1_枠
 70
     0
 62
     7
  6
Continuous
370
    -3
390
F
347
3E
  0
LAYER
  5
45
330
2
100
AcDbSymbolTableRecord
100
AcDbLayerTableRecord
  2
F-A_文字
 70
     0
 62
     7
  6
Continuous
370
    -3
390
F
347
3E
  0
LAYER
  5
46
330
2
100
AcDbSymbolTableRecord
100
AcDbLayerTableRecord
  2
0-A_文字
 70
     0
 62
     7
  6
Continuous
370
    -3
390
F
347
3E
  0
LAYER
  5
47
330
2
100
AcDbSymbolTableRecord
100
AcDbLayerTableRecord
  2
1-B_寸法
 70
     0
 62
     7
  6
Continuous
370
    -3
390
F
347
3E
  0
LAYER
  5
48
330
2
100
AcDbSymbolTableRecord
100
AcDbLayerTableRecord
  2
1-4_枠
 70
     0
 62
     7
  6
Continuous
370
    -3
390
F
347
3E
  0
LAYER
  5
49
330
2
100
AcDbSymbolTableRecord
100
AcDbLayerTableRecord
  2
1-1_通り芯
 70
     0
 62
     7
  6
Continuous
370
    -3
390
F
347
3E
  0
LAYER
  5
4A
330
2
100
AcDbSymbolTableRecord
100
AcDbLayerTableRecord
  2
1-7_金物
 70
     0
 62
     7
  6
Continuous
370
    -3
390
F
347
3E
  0
LAYER
  5
4B
330
2
100
AcDbSymbolTableRecord
100
AcDbLayerTableRecord
  2
1-0_補助線
 70
     0
 62
     7
  6
Continuous
370
    -3
390
F
347
3E
  0
LAYER
  5
4C
330
2
100
AcDbSymbolTableRecord
100
AcDbLayerTableRecord
  2
1-A_文字
 70
     0
 62
     7
  6
Continuous
370
    -3
390
F
347
3E
  0
LAYER
  5
4D
330
2
100
AcDbSymbolTableRecord
100
AcDbLayerTableRecord
  2
0-3_仕上げ
 70
     0
 62
     7
  6
Continuous
370
    -3
390
F
347
3E
  0
LAYER
  5
4E
330
2
100
AcDbSymbolTableRecord
100
AcDbLayerTableRecord
  2
0-C_ハッチ
 70
     0
 62
     7
  6
Continuous
370
    -3
390
F
347
3E
  0
LAYER
  5
4F
330
2
100
AcDbSymbolTableRecord
100
AcDbLayerTableRecord
  2
0-B_寸法
 70
     0
 62
     7
  6
Continuous
370
    -3
390
F
347
3E
  0
LAYER
  5
50
330
2
100
AcDbSymbolTableRecord
100
AcDbLayerTableRecord
  2
0-7_金物
 70
     0
 62
     7
  6
Continuous
370
    -3
390
F
347
3E
  0
LAYER
  5
51
330
2
100
AcDbSymbolTableRecord
100
AcDbLayerTableRecord
  2
0-4_枠
 70
     0
 62
     7
  6
Continuous
370
    -3
390
F
347
3E
  0
LAYER
  5
52
330
2
100
AcDbSymbolTableRecord
100
AcDbLayerTableRecord
  2
0-0_補助線
 70
     0
 62
     7
  6
Continuous
370
    -3
390
F
347
3E
  0
LAYER
  5
53
330
2
100
AcDbSymbolTableRecord
100
AcDbLayerTableRecord
  2
0-1_通り芯
 70
     0
 62
     7
  6
Continuous
370
    -3
390
F
347
3E
  0
LAYER
  5
54
330
2
100
AcDbSymbolTableRecord
100
AcDbLayerTableRecord
  2
0-6_扉
 70
     0
 62
     7
  6
Continuous
370
    -3
390
F
347
3E
  0
ENDTAB
  0
TABLE
  2
STYLE
  5
3
330
0
100
AcDbSymbolTable
 70
     1
  0
STYLE
  5
11
330
3
100
AcDbSymbolTableRecord
100
AcDbTextStyleTableRecord
  2
Standard
 70
     0
 40
0.0
 41
1.0
 50
0.0
 71
     0
 42
2.5
  3
txt
  4

  0
ENDTAB
  0
TABLE
  2
VIEW
  5
6
330
0
100
AcDbSymbolTable
 70
     0
  0
ENDTAB
  0
TABLE
  2
UCS
  5
7
330
0
100
AcDbSymbolTable
 70
     0
  0
ENDTAB
  0
TABLE
  2
APPID
  5
9
330
0
100
AcDbSymbolTable
 70
     1
  0
APPID
  5
12
330
9
100
AcDbSymbolTableRecord
100
AcDbRegAppTableRecord
  2
ACAD
 70
     0
  0
ENDTAB
  0
TABLE
  2
DIMSTYLE
  5
A
330
0
100
AcDbSymbolTable
 70
     1
100
AcDbDimStyleTable
  0
DIMSTYLE
105
27
330
A
100
AcDbSymbolTableRecord
100
AcDbDimStyleTableRecord
  2
ISO-25
 70
     0
 41
2.5
 42
0.625
 43
3.75
 44
1.25
 73
     0
 74
     0
 77
     1
 78
     8
140
2.5
141
2.5
143
0.03937007874016
147
0.625
171
     3
172
     1
178
     0
271
     2
272
     2
274
     3
278
    44
283
     0
284
     8
340
11
  0
ENDTAB
  0
TABLE
  2
BLOCK_RECORD
  5
1
330
0
100
AcDbSymbolTable
 70
     1
  0
BLOCK_RECORD
  5
1F
330
1
100
AcDbSymbolTableRecord
100
AcDbBlockTableRecord
  2
*Model_Space
340
22
 70
     0
280
     1
281
     0
  0
BLOCK_RECORD
  5
1B
330
1
100
AcDbSymbolTableRecord
100
AcDbBlockTableRecord
  2
*Paper_Space
340
1E
 70
     0
280
     1
281
     0
  0
BLOCK_RECORD
  5
23
330
1
100
AcDbSymbolTableRecord
100
AcDbBlockTableRecord
  2
*Paper_Space0
340
26
 70
     0
280
     1
281
     0
  0
ENDTAB
  0
ENDSEC
  0
SECTION
  2
BLOCKS
  0
BLOCK
  5
20
330
1F
100
AcDbEntity
  8
0
100
AcDbBlockBegin
  2
*Model_Space
 70
     0
 10
0.0
 20
0.0
 30
0.0
  3
*Model_Space
  1

  0
ENDBLK
  5
21
330
1F
100
AcDbEntity
  8
0
100
AcDbBlockEnd
  0
BLOCK
  5
1C
330
1B
100
AcDbEntity
 67
     1
  8
0
100
AcDbBlockBegin
  2
*Paper_Space
 70
     0
 10
0.0
 20
0.0
 30
0.0
  3
*Paper_Space
  1

  0
ENDBLK
  5
1D
330
1B
100
AcDbEntity
 67
     1
  8
0
100
AcDbBlockEnd
  0
BLOCK
  5
24
330
23
100
AcDbEntity
  8
0
100
AcDbBlockBegin
  2
*Paper_Space0
 70
     0
 10
0.0
 20
0.0
 30
0.0
  3
*Paper_Space0
  1

  0
ENDBLK
  5
25
330
23
100
AcDbEntity
  8
0
100
AcDbBlockEnd
  0
ENDSEC
  0
SECTION
  2
ENTITIES
  0
LINE
  5
55
330
1F
100
AcDbEntity
  8
F-0_補助線
  6
JWW_HOJO
 62
   120
370
     5
100
AcDbLine
 10
-6140.081333436773
 20
-4455.0
 30
0.0
 11
-6140.081333436773
 21
4424.999604096284
 31
0.0
  0
LINE
  5
56
330
1F
100
AcDbEntity
  8
F-0_補助線
  6
JWW_HOJO
 62
   120
370
     5
100
AcDbLine
 10
-6140.081333436773
 20
4424.999604096284
 30
0.0
 11
6159.917676803936
 21
4424.999604096284
 31
0.0
  0
LINE
  5
57
330
1F
100
AcDbEntity
  8
F-0_補助線
  6
JWW_HOJO
 62
   120
370
     5
100
AcDbLine
 10
6159.917676803936
 20
4424.999604096284
 30
0.0
 11
6159.917676803936
 21
-4455.0
 31
0.0
  0
LINE
  5
58
330
1F
100
AcDbEntity
  8
F-0_補助線
  6
JWW_HOJO
 62
   120
370
     5
100
AcDbLine
 10
6159.917676803936
 20
-4455.0
 30
0.0
 11
-6140.081333436773
 21
-4455.0
 31
0.0
  0
LINE
  5
59
330
1F
100
AcDbEntity
  8
F-0_補助線
  6
JWW_HOJO
 62
     7
370
     9
100
AcDbLine
 10
1009.918254163523
 20
-3795.000003092998
 30
0.0
 11
1009.918254163523
 21
-4195.000008247994
 31
0.0
  0
LINE
  5
5A
330
1F
100
AcDbEntity
  8
F-0_補助線
  6
JWW_HOJO
 62
     7
370
     9
100
AcDbLine
 10
509.9185840832865
 20
-3795.000003092998
 30
0.0
 11
509.9185840832865
 21
-4195.000008247994
 31
0.0
  0
LINE
  5
5B
330
1F
100
AcDbEntity
  8
F-1_枠
  6
Continuous
 62
   200
370
    20
100
AcDbLine
 10
5859.917429364114
 20
4174.999769056166
 30
0.0
 11
5859.917429364114
 21
-4205.000164959882
 31
0.0
  0
LINE
  5
5C
330
1F
100
AcDbEntity
  8
F-1_枠
  6
Continuous
 62
   200
370
    20
100
AcDbLine
 10
-5840.081317971782
 20
4174.999769056166
 30
0.0
 11
-5840.081317971782
 21
-4205.000164959882
 31
0.0
  0
LINE
  5
5D
330
1F
100
AcDbEntity
  8
F-1_枠
  6
Continuous
 62
   200
370
    20
100
AcDbLine
 10
5859.917429364114
 20
-4205.000002577498
 30
0.0
 11
-5840.081085996952
 21
-4205.000002577498
 31
0.0
  0
LINE
  5
5E
330
1F
100
AcDbEntity
  8
F-1_枠
  6
Continuous
 62
   200
370
    20
100
AcDbLine
 10
-5830.081323642279
 20
4174.999769056166
 30
0.0
 11
-5830.081323642279
 21
-4205.000164959882
 31
0.0
  0
LINE
  5
5F
330
1F
100
AcDbEntity
  8
F-1_枠
  6
Continuous
 62
   200
370
    20
100
AcDbLine
 10
-5835.081309208291
 20
4174.999769056166
 30
0.0
 11
-5835.081309208291
 21
-4205.000164959882
 31
0.0
  0
LINE
  5
60
330
1F
100
AcDbEntity
  8
F-1_枠
  6
Continuous
 62
   200
370
    20
100
AcDbLine
 10
5854.917165428304
 20
4174.999769056166
 30
0.0
 11
5854.917165428304
 21
-4205.000164959882
 31
0.0
  0
LINE
  5
61
330
1F
100
AcDbEntity
  8
F-1_枠
  6
Continuous
 62
   200
370
    20
100
AcDbLine
 10
5849.917643811961
 20
4174.999769056166
 30
0.0
 11
5849.917643811961
 21
-4205.000164959882
 31
0.0
  0
LINE
  5
62
330
1F
100
AcDbEntity
  8
F-1_枠
  6
Continuous
 62
   200
370
    20
100
AcDbLine
 10
5859.917429364114
 20
-4199.999993814004
 30
0.0
 11
-5840.081085996952
 21
-4199.999993814004
 31
0.0
  0
LINE
  5
63
330
1F
100
AcDbEntity
  8
F-1_枠
  6
Continuous
 62
   200
370
    20
100
AcDbLine
 10
5859.917429364114
 20
-4195.000008247994
 30
0.0
 11
-5840.081085996952
 21
-4195.000008247994
 31
0.0
  0
LINE
  5
64
330
1F
100
AcDbEntity
  8
F-1_枠
  6
Continuous
 62
   200
370
    20
100
AcDbLine
 10
4349.917891251784
 20
-3795.000003092998
 30
0.0
 11
4349.917891251784
 21
-4195.000008247994
 31
0.0
  0
LINE
  5
65
330
1F
100
AcDbEntity
  8
F-1_枠
  6
Continuous
 62
   200
370
    20
100
AcDbLine
 10
2849.917396372139
 20
-3795.000003092998
 30
0.0
 11
2849.917396372139
 21
-4195.000008247994
 31
0.0
  0
LINE
  5
66
330
1F
100
AcDbEntity
  8
F-1_枠
  6
Continuous
 62
   200
370
    20
100
AcDbLine
 10
9.918542843316231
 20
-3795.000003092998
 30
0.0
 11
9.918542843316231
 21
-4195.000008247994
 31
0.0
  0
LINE
  5
67
330
1F
100
AcDbEntity
  8
F-1_枠
  6
Continuous
 62
   200
370
    20
100
AcDbLine
 10
9.918542843316231
 20
-3994.999936078046
 30
0.0
 11
5849.917643811961
 21
-3995.005364289155
 31
0.0
  0
LINE
  5
68
330
1F
100
AcDbEntity
  8
F-1_枠
  6
Continuous
 62
   200
370
    20
100
AcDbLine
 10
-5840.081085996952
 20
4174.999769056166
 30
0.0
 11
5859.917429364114
 21
4174.999769056166
 31
0.0
  0
LINE
  5
69
330
1F
100
AcDbEntity
  8
F-1_枠
  6
Continuous
 62
   200
370
    20
100
AcDbLine
 10
-5840.081085996952
 20
4169.999505120355
 30
0.0
 11
5859.917429364114
 21
4169.999505120355
 31
0.0
  0
LINE
  5
6A
330
1F
100
AcDbEntity
  8
F-0_補助線
  6
JWW_HOJO
 62
     7
370
     9
100
AcDbLine
 10
-5830.081323642279
 20
-3994.99993607839
 30
0.0
 11
9.918542843316231
 21
-3994.99993607839
 31
0.0
  0
LINE
  5
6B
330
1F
100
AcDbEntity
  8
F-0_補助線
  6
JWW_HOJO
 62
     7
370
     9
100
AcDbLine
 10
-5830.081323642279
 20
-3904.99993607839
 30
0.0
 11
9.918542843316231
 21
-3904.99993607839
 31
0.0
  0
LINE
  5
6C
330
1F
100
AcDbEntity
  8
F-0_補助線
  6
JWW_HOJO
 62
     7
370
     9
100
AcDbLine
 10
-5830.081323642279
 20
-4084.99993607839
 30
0.0
 11
9.918542843316231
 21
-4084.99993607839
 31
0.0
  0
LINE
  5
6D
330
1F
100
AcDbEntity
  8
F-0_補助線
  6
JWW_HOJO
 62
     7
370
     9
100
AcDbLine
 10
9.918408067688347
 20
-4139.999739777983
 30
0.0
 11
5849.917509036332
 21
-4140.005167989091
 31
0.0
  0
LINE
  5
6E
330
1F
100
AcDbEntity
  8
F-0_補助線
  6
JWW_HOJO
 62
     7
370
     9
100
AcDbLine
 10
9.918491721639953
 20
-4049.999739778022
 30
0.0
 11
5849.917592690284
 21
-4050.005167989131
 31
0.0
  0
LINE
  5
6F
330
1F
100
AcDbEntity
  8
F-0_補助線
  6
JWW_HOJO
 62
     7
370
     9
100
AcDbLine
 10
9.918593965360003
 20
-3939.99973721807
 30
0.0
 11
5849.917694934004
 21
-3940.005165429179
 31
0.0
  0
LINE
  5
70
330
1F
100
AcDbEntity
  8
F-0_補助線
  6
JWW_HOJO
 62
     7
370
     9
100
AcDbLine
 10
9.918677619311609
 20
-3849.999737218109
 30
0.0
 11
5849.917778587956
 21
-3850.005165429218
 31
0.0
  0
LINE
  5
71
330
1F
100
AcDbEntity
  8
F-0_補助線
  6
JWW_HOJO
 62
     7
370
     9
100
AcDbLine
 10
2939.917396372139
 20
-3795.000003092998
 30
0.0
 11
2939.917396372139
 21
-4195.000008247994
 31
0.0
  0
LINE
  5
72
330
1F
100
AcDbEntity
  8
F-0_補助線
  6
JWW_HOJO
 62
     7
370
     9
100
AcDbLine
 10
99.91854284331623
 20
-3795.000003092998
 30
0.0
 11
99.91854284331623
 21
-4195.000008247994
 31
0.0
  0
LINE
  5
73
330
1F
100
AcDbEntity
  8
F-0_補助線
  6
JWW_HOJO
 62
     7
370
     9
100
AcDbLine
 10
4439.917891251784
 20
-3795.000003092998
 30
0.0
 11
4439.917891251784
 21
-4195.000008247994
 31
0.0
  0
LINE
  5
74
330
1F
100
AcDbEntity
  8
F-1_枠
  6
Continuous
 62
   200
370
    20
100
AcDbLine
 10
5859.917429364114
 20
-3795.000003092998
 30
0.0
 11
-5840.081085996952
 21
-3795.000003092998
 31
0.0
  0
LINE
  5
75
330
1F
100
AcDbEntity
  8
F-1_枠
  6
Continuous
 62
   200
370
    20
100
AcDbLine
 10
5859.917429364114
 20
-3790.000017526987
 30
0.0
 11
-5840.081085996952
 21
-3790.000017526987
 31
0.0
  0
LINE
  5
76
330
1F
100
AcDbEntity
  8
F-0_補助線
  6
JWW_HOJO
 62
     7
370
     9
100
AcDbLine
 10
-5087.628710189611
 20
-3795.000003092999
 30
0.0
 11
-5087.628710189611
 21
-4205.000164959882
 31
0.0
  0
LINE
  5
77
330
1F
100
AcDbEntity
  8
F-0_補助線
  6
JWW_HOJO
 62
     7
370
     9
100
AcDbLine
 10
-50.08145715668377
 20
-3795.000003092998
 30
0.0
 11
-50.08145715668377
 21
-4195.000008247994
 31
0.0
  0
MTEXT
  5
78
330
1F
100
AcDbEntity
  8
F-0_補助線
  6
Continuous
 62
     7
370
     0
100
AcDbMText
 10
509.9185840832865
 20
-3946.496666872503
 30
0.0
 40
78.58125
 41
412.5
 46
0.0
 71
     7
 72
     1
  1
{\fＭＳ ゴシック|b0|i0|c128|p49;DOORETUS}
 73
     1
 44
1.0
  0
MTEXT
  5
79
330
1F
100
AcDbEntity
  8
F-0_補助線
  6
Continuous
 62
     7
370
     0
100
AcDbMText
 10
1110.209427605311
 20
-3946.734791872504
 30
0.0
 40
78.105
 41
615.0
 46
0.0
 71
     7
 72
     1
  1
{\fＭＳ ゴシック|b0|i0|c128|p49;建具納まり図}
 73
     1
 44
1.0
  0
MTEXT
  5
7A
330
1F
100
AcDbEntity
  8
F-A_文字
  6
Continuous
 62
     7
370
     0
100
AcDbMText
 10
99.91854284331623
 20
-3887.139820871936
 30
0.0
 40
45.72
 41
180.0
 46
0.0
 71
     7
 72
     1
  1
{\fＭＳ ゴシック|b0|i0|c128|p49;図面名}
 73
     1
 44
1.0
  0
MTEXT
  5
7B
330
1F
100
AcDbEntity
  8
F-A_文字
  6
Continuous
 62
     7
370
     0
100
AcDbMText
 10
2939.917396372139
 20
-3887.142460617774
 30
0.0
 40
45.72
 41
300.0
 46
0.0
 71
     7
 72
     1
  1
{\fＭＳ ゴシック|b0|i0|c128|p49;ＳＣＡＬＥ}
 73
     1
 44
1.0
  0
MTEXT
  5
7C
330
1F
100
AcDbEntity
  8
F-A_文字
  6
Continuous
 62
     7
370
     0
100
AcDbMText
 10
4439.917891251784
 20
-3887.143854850754
 30
0.0
 40
45.72
 41
240.0
 46
0.0
 71
     7
 72
     1
  1
{\fＭＳ ゴシック|b0|i0|c128|p49;ＤＡＴＥ}
 73
     1
 44
1.0
  0
MTEXT
  5
7D
330
1F
100
AcDbEntity
  8
F-A_文字
  6
Continuous
 62
     7
370
     0
100
AcDbMText
 10
3569.917643811961
 20
-3946.903115907308
 30
0.0
 40
76.19999999999999
 41
150.0
 46
0.0
 71
     7
 72
     1
  1
{\fＭＳ ゴシック|b0|i0|c128|p49;1/5}
 73
     1
 44
1.0
  0
MTEXT
  5
7E
330
1F
100
AcDbEntity
  8
F-A_文字
  6
Continuous
 62
     7
370
     0
100
AcDbMText
 10
2939.917396372139
 20
-4087.14246317786
 30
0.0
 40
45.72
 41
240.0
 46
0.0
 71
     7
 72
     1
  1
{\fＭＳ ゴシック|b0|i0|c128|p49;ＦＩＬＥ}
 73
     1
 44
1.0
  0
MTEXT
  5
7F
330
1F
100
AcDbEntity
  8
F-A_文字
  6
Continuous
 62
     7
370
     0
100
AcDbMText
 10
4439.917891251784
 20
-4087.143857410839
 30
0.0
 40
45.72
 41
180.0
 46
0.0
 71
     7
 72
     1
  1
{\fＭＳ ゴシック|b0|i0|c128|p49;ＮＯ．}
 73
     1
 44
1.0
  0
MTEXT
  5
80
330
1F
100
AcDbEntity
  8
F-A_文字
  6
Continuous
 62
     7
370
     0
100
AcDbMText
 10
1394.917396372138
 20
-4096.140669266149
 30
0.0
 40
45.72
 41
120.0
 46
0.0
 71
     7
 72
     1
  1
{\fＭＳ ゴシック|b0|i0|c128|p49;株式}
 73
     1
 44
1.0
  0
MTEXT
  5
81
330
1F
100
AcDbEntity
  8
F-A_文字
  6
Continuous
 62
     7
370
     9
100
AcDbMText
 10
5096.167700144058
 20
-4147.857012699985
 30
0.0
 40
74.295
 41
97.5
 46
0.0
 71
     7
 72
     1
  1
{\fＭＳ ゴシック|b0|i0|c128|p49;01}
 73
     1
 44
1.0
  0
MTEXT
  5
82
330
1F
100
AcDbEntity
  8
F-A_文字
  6
Continuous
 62
     7
370
     0
100
AcDbMText
 10
1604.917396372138
 20
-4164.281754523929
 30
0.0
 40
101.44125
 41
1065.0
 46
0.0
 71
     7
 72
     1
  1
{\fＭＳ ゴシック|b0|i0|c128|p49;ウッドワン・・・}
 73
     1
 44
1.0
  0
MTEXT
  5
83
330
1F
100
AcDbEntity
  8
F-A_文字
  6
Continuous
 62
     7
370
     0
100
AcDbMText
 10
1394.917396372138
 20
-4168.140669266187
 30
0.0
 40
45.72
 41
120.0
 46
0.0
 71
     7
 72
     1
  1
{\fＭＳ ゴシック|b0|i0|c128|p49;会社}
 73
     1
 44
1.0
  0
LINE
  5
84
330
1F
100
AcDbEntity
  8
F-1_枠
  6
Continuous
 62
   200
370
    20
100
AcDbLine
 10
-5840.081085996952
 20
4164.999241184543
 30
0.0
 11
5859.917429364114
 21
4164.999241184543
 31
0.0
  0
LINE
  5
85
330
1F
100
AcDbEntity
  8
0-A_文字
  6
Continuous
 62
    92
370
    13
100
AcDbLine
 10
-5659.999495325867
 20
3729.999439136402
 30
0.0
 11
-5659.999495325867
 21
3999.999439136402
 31
0.0
  0
MTEXT
  5
86
330
1F
100
AcDbEntity
  8
1-B_寸法
  6
Continuous
 62
     7
370
   211
100
AcDbMText
 10
3784.886992783926
 20
-2012.366124664713
 30
0.0
 40
99.06
 41
195.0
 46
0.0
 71
     7
 72
     1
  1
{\fＭＳ ゴシック|b0|i0|c128|p49;2.3}
 11
6.123031769111886E-17
 21
1.0
 31
0.0
 73
     1
 44
1.0
  0
LINE
  5
87
330
1F
100
AcDbEntity
  8
1-B_寸法
  6
Continuous
 62
   120
370
     5
100
AcDbLine
 10
3799.886992783926
 20
-1964.020384180367
 30
0.0
 11
3904.886992783926
 21
-1964.020384180367
 31
0.0
  0
LINE
  5
88
330
1F
100
AcDbEntity
  8
0-A_文字
  6
Continuous
 62
    92
370
    13
100
AcDbLine
 10
5037.112022678131
 20
-2709.694128976108
 30
0.0
 11
5037.112022678131
 21
170.3058710238909
 31
0.0
  0
LINE
  5
89
330
1F
100
AcDbEntity
  8
0-A_文字
  6
Continuous
 62
    92
370
    13
100
AcDbLine
 10
3057.112022678131
 20
-2709.694128976108
 30
0.0
 11
3057.112022678131
 21
170.3058710238909
 31
0.0
  0
MTEXT
  5
8A
330
1F
100
AcDbEntity
  8
0-A_文字
  6
Continuous
 62
     7
370
     0
100
AcDbMText
 10
3357.112022678134
 20
16.44876370389071
 30
0.0
 40
91.43999999999977
 41
1379.999999999997
 46
0.0
 71
     7
 72
     1
  1
{\fＭＳ ゴシック|b0|i0|c128|p49;土間金具取付位置　S=1/2}
 73
     1
 44
1.0
  0
LINE
  5
8B
330
1F
100
AcDbEntity
  8
1-4_枠
  6
Continuous
 62
    92
370
    13
100
AcDbLine
 10
4678.886989654925
 20
-2028.520377473877
 30
0.0
 11
3373.886989654927
 21
-2028.520377473877
 31
0.0
  0
LINE
  5
8C
330
1F
100
AcDbEntity
  8
1-B_寸法
  6
Continuous
 62
   120
370
     5
100
AcDbLine
 10
4678.886989654925
 20
-2028.520377473877
 30
0.0
 11
4659.7906301434
 21
-2028.520377473877
 31
0.0
  0
LINE
  5
8D
330
1F
100
AcDbEntity
  8
1-B_寸法
  6
Continuous
 62
   120
370
     5
100
AcDbLine
 10
4475.974789306952
 20
-1675.416967720587
 30
0.0
 11
4404.792236648245
 21
-1604.234415061881
 31
0.0
  0
LINE
  5
8E
330
1F
100
AcDbEntity
  8
1-1_通り芯
  6
JWW_CENTER1
 62
   120
370
     5
100
AcDbLine
 10
4372.886998930924
 20
-1233.520377473869
 30
0.0
 11
4621.886986638423
 21
-1233.520377473869
 31
0.0
  0
LINE
  5
8F
330
1F
100
AcDbEntity
  8
1-1_通り芯
  6
JWW_CENTER1
 62
   120
370
     5
100
AcDbLine
 10
4372.886998930924
 20
-1698.520377473869
 30
0.0
 11
4621.886986638423
 21
-1698.520377473869
 31
0.0
  0
LINE
  5
90
330
1F
100
AcDbEntity
  8
1-1_通り芯
  6
JWW_CENTER1
 62
   120
370
     5
100
AcDbLine
 10
4497.386992783921
 20
-1094.237628071572
 30
0.0
 11
4497.386992783921
 21
-2040.199410392307
 31
0.0
  0
LINE
  5
91
330
1F
100
AcDbEntity
  8
1-1_通り芯
  6
JWW_CENTER1
 62
   120
370
     5
100
AcDbLine
 10
4086.386989654926
 20
-1855.065856289507
 30
0.0
 11
4086.386989654926
 21
-2082.905899815079
 31
0.0
  0
LINE
  5
92
330
1F
100
AcDbEntity
  8
1-7_金物
  6
Continuous
 62
     7
370
     9
100
AcDbLine
 10
4240.081193629007
 20
-1994.020384180367
 30
0.0
 11
3964.137000004924
 21
-1994.020384180367
 31
0.0
  0
LINE
  5
93
330
1F
100
AcDbEntity
  8
1-7_金物
  6
Continuous
 62
     7
370
     9
100
AcDbLine
 10
3964.137000004924
 20
-1994.020384180367
 30
0.0
 11
3964.137000004924
 21
-2028.520384180368
 31
0.0
  0
LINE
  5
94
330
1F
100
AcDbEntity
  8
1-7_金物
  6
Continuous
 62
     7
370
     9
100
AcDbLine
 10
3964.137000004924
 20
-2028.520384180368
 30
0.0
 11
4185.38700726942
 21
-2028.520384180368
 31
0.0
  0
LINE
  5
95
330
1F
100
AcDbEntity
  8
1-7_金物
  6
Continuous
 62
     7
370
     9
100
AcDbLine
 10
4185.38700726942
 20
-2028.520384180368
 30
0.0
 11
4240.081193629007
 21
-2028.520384180368
 31
0.0
  0
ARC
  5
96
330
1F
100
AcDbEntity
  8
1-7_金物
  6
Continuous
 62
     7
370
     9
100
AcDbCircle
 10
4240.081193629007
 20
-1994.020384180367
 30
0.0
 40
34.50000000000016
100
AcDbArc
 50
270.0
 51
347.7352265914489
  0
LINE
  5
97
330
1F
100
AcDbEntity
  8
1-7_金物
  6
Continuous
 62
     7
370
     9
100
AcDbLine
 10
4275.387000474048
 20
-1994.020384180367
 30
0.0
 11
4273.793778225189
 21
-2001.34920672189
 31
0.0
  0
LINE
  5
98
330
1F
100
AcDbEntity
  8
1-7_金物
  6
Continuous
 62
     7
370
     9
100
AcDbLine
 10
4275.387000474048
 20
-1994.020377473876
 30
0.0
 11
4275.387000474048
 21
-1994.020384180367
 31
0.0
  0
LINE
  5
99
330
1F
100
AcDbEntity
  8
1-7_金物
  6
Continuous
 62
     7
370
     9
100
AcDbLine
 10
4275.387000474048
 20
-1994.020377473876
 30
0.0
 11
4275.387000474048
 21
-1994.020383978992
 31
0.0
  0
LINE
  5
9A
330
1F
100
AcDbEntity
  8
1-7_金物
  6
Continuous
 62
     7
370
     9
100
AcDbLine
 10
4275.387000675424
 20
-1994.020377473876
 30
0.0
 11
4335.386992783922
 21
-1994.020377473876
 31
0.0
  0
LINE
  5
9B
330
1F
100
AcDbEntity
  8
1-7_金物
  6
Continuous
 62
     7
370
     9
100
AcDbLine
 10
4335.386992783922
 20
-2028.520377473876
 30
0.0
 11
4335.386992783922
 21
-1994.020376708878
 31
0.0
  0
LINE
  5
9C
330
1F
100
AcDbEntity
  8
1-7_金物
  6
Continuous
 62
     7
370
     9
100
AcDbLine
 10
4335.386992783922
 20
-2028.520377473877
 30
0.0
 11
4588.968589065581
 21
-2028.520377473877
 31
0.0
  0
LINE
  5
9D
330
1F
100
AcDbEntity
  8
1-7_金物
  6
Continuous
 62
     7
370
     9
100
AcDbLine
 10
4602.387023261535
 20
-2011.747318502418
 30
0.0
 11
4588.968589065581
 21
-2028.520377473878
 31
0.0
  0
LINE
  5
9E
330
1F
100
AcDbEntity
  8
1-7_金物
  6
Continuous
 62
     7
370
     9
100
AcDbLine
 10
4615.805487818485
 20
-2028.520377473878
 30
0.0
 11
4602.387023261535
 21
-2011.747318502418
 31
0.0
  0
LINE
  5
9F
330
1F
100
AcDbEntity
  8
1-7_金物
  6
Continuous
 62
     7
370
     9
100
AcDbLine
 10
4588.968589065581
 20
-2028.520377473878
 30
0.0
 11
4615.805487818485
 21
-2028.520377473878
 31
0.0
  0
LINE
  5
A0
330
1F
100
AcDbEntity
  8
1-7_金物
  6
Continuous
 62
     7
370
     9
100
AcDbLine
 10
4240.081193629007
 20
-1994.020384180367
 30
0.0
 11
4241.674417335795
 21
-1986.691554932355
 31
0.0
  0
ARC
  5
A1
330
1F
100
AcDbEntity
  8
1-7_金物
  6
Continuous
 62
     7
370
     9
100
AcDbCircle
 10
4275.38700193198
 20
-1994.020377473876
 30
0.0
 40
34.49999999999974
100
AcDbArc
 50
90.0
 51
167.7352265914491
  0
LINE
  5
A2
330
1F
100
AcDbEntity
  8
1-7_金物
  6
Continuous
 62
     7
370
     9
100
AcDbLine
 10
4335.386992783922
 20
-1959.520377473877
 30
0.0
 11
4275.38700193198
 21
-1959.520377473877
 31
0.0
  0
LINE
  5
A3
330
1F
100
AcDbEntity
  8
1-7_金物
  6
Continuous
 62
     7
370
     9
100
AcDbLine
 10
4335.386992783925
 20
-1959.520377473877
 30
0.0
 11
4323.928427884977
 21
-1959.520377473877
 31
0.0
  0
LINE
  5
A4
330
1F
100
AcDbEntity
  8
1-7_金物
  6
Continuous
 62
     7
370
     9
100
AcDbLine
 10
4027.887000070926
 20
-1964.020384180367
 30
0.0
 11
4084.886992783926
 21
-1964.020384180367
 31
0.0
  0
LINE
  5
A5
330
1F
100
AcDbEntity
  8
1-7_金物
  6
Continuous
 62
     7
370
     9
100
AcDbLine
 10
4215.208007177727
 20
-1964.020384180367
 30
0.0
 11
4084.886992783926
 21
-1964.020384180367
 31
0.0
  0
LINE
  5
A6
330
1F
100
AcDbEntity
  8
1-7_金物
  6
Continuous
 62
     7
370
     9
100
AcDbLine
 10
4217.571682809013
 20
-1953.1474838854
 30
0.0
 11
4215.208007177727
 21
-1964.020384180367
 31
0.0
  0
ARC
  5
A7
330
1F
100
AcDbEntity
  8
1-7_金物
  6
Continuous
 62
     7
370
     9
100
AcDbCircle
 10
4246.886972800926
 20
-1959.520377473877
 30
0.0
 40
30.0
100
AcDbArc
 50
90.0
 51
167.7352179489193
  0
LINE
  5
A8
330
1F
100
AcDbEntity
  8
1-7_金物
  6
Continuous
 62
     7
370
     9
100
AcDbLine
 10
4246.886972800926
 20
-1929.520377473877
 30
0.0
 11
4262.677305388665
 21
-1929.520377473877
 31
0.0
  0
LINE
  5
A9
330
1F
100
AcDbEntity
  8
1-7_金物
  6
Continuous
 62
     7
370
     9
100
AcDbLine
 10
4262.677305388665
 20
-1929.520377473877
 30
0.0
 11
4335.386992783925
 21
-1929.520377473877
 31
0.0
  0
LINE
  5
AA
330
1F
100
AcDbEntity
  8
1-7_金物
  6
JWW_DASHED3
 62
     7
370
     9
100
AcDbLine
 10
4335.386992783925
 20
-1929.520377473877
 30
0.0
 11
4363.136965159922
 21
-1929.520377473877
 31
0.0
  0
LINE
  5
AB
330
1F
100
AcDbEntity
  8
1-7_金物
  6
JWW_DASHED3
 62
     7
370
     9
100
AcDbLine
 10
4363.136965159922
 20
-1929.520377473877
 30
0.0
 11
4363.136965159922
 21
-1959.520377473877
 31
0.0
  0
LINE
  5
AC
330
1F
100
AcDbEntity
  8
1-7_金物
  6
JWW_DASHED3
 62
     7
370
     9
100
AcDbLine
 10
4363.136965159922
 20
-1959.520377473877
 30
0.0
 11
4335.386992783925
 21
-1959.520377473877
 31
0.0
  0
LINE
  5
AD
330
1F
100
AcDbEntity
  8
1-7_金物
  6
Continuous
 62
     7
370
     9
100
AcDbLine
 10
4240.081193629007
 20
-1994.020377473876
 30
0.0
 11
4240.081193629007
 21
-1994.020384180367
 31
0.0
  0
LINE
  5
AE
330
1F
100
AcDbEntity
  8
1-7_金物
  6
Continuous
 62
     7
370
     9
100
AcDbLine
 10
3949.886992783926
 20
-1994.020384180367
 30
0.0
 11
3949.886992783926
 21
-1964.020384180367
 31
0.0
  0
LINE
  5
AF
330
1F
100
AcDbEntity
  8
1-7_金物
  6
Continuous
 62
     7
370
     9
100
AcDbLine
 10
4027.887000070926
 20
-1994.020384180367
 30
0.0
 11
3949.886992783926
 21
-1994.020384180367
 31
0.0
  0
LINE
  5
B0
330
1F
100
AcDbEntity
  8
1-7_金物
  6
Continuous
 62
     7
370
     9
100
AcDbLine
 10
4027.887000070926
 20
-1994.020384180367
 30
0.0
 11
4056.387004159926
 21
-1994.020384180367
 31
0.0
  0
LINE
  5
B1
330
1F
100
AcDbEntity
  8
1-7_金物
  6
Continuous
 62
     7
370
     9
100
AcDbLine
 10
4056.387004159926
 20
-1994.020384180367
 30
0.0
 11
4086.387004159926
 21
-1994.020384180367
 31
0.0
  0
LINE
  5
B2
330
1F
100
AcDbEntity
  8
1-7_金物
  6
Continuous
 62
     7
370
     9
100
AcDbLine
 10
4086.387004159926
 20
-1994.020384180367
 30
0.0
 11
4215.208007177727
 21
-1994.020384180367
 31
0.0
  0
ARC
  5
B3
330
1F
100
AcDbEntity
  8
1-7_金物
  6
Continuous
 62
     7
370
     9
100
AcDbCircle
 10
4215.208007177727
 20
-1964.020384180367
 30
0.0
 40
30.0
100
AcDbArc
 50
270.0
 51
347.7352179489193
  0
LINE
  5
B4
330
1F
100
AcDbEntity
  8
1-7_金物
  6
Continuous
 62
     7
370
     9
100
AcDbLine
 10
4246.886972800926
 20
-1959.520377473877
 30
0.0
 11
4244.523297169641
 21
-1970.393277768844
 31
0.0
  0
LINE
  5
B5
330
1F
100
AcDbEntity
  8
1-7_金物
  6
Continuous
 62
     7
370
     9
100
AcDbLine
 10
4252.177305388667
 20
-1959.520377473877
 30
0.0
 11
4246.886972800926
 21
-1959.520377473877
 31
0.0
  0
LINE
  5
B6
330
1F
100
AcDbEntity
  8
1-7_金物
  6
Continuous
 62
     7
370
     9
100
AcDbLine
 10
4319.655734734335
 20
-1959.520377473877
 30
0.0
 11
4252.177305388667
 21
-1959.520377473877
 31
0.0
  0
LINE
  5
B7
330
1F
100
AcDbEntity
  8
1-7_金物
  6
Continuous
 62
     7
370
     9
100
AcDbLine
 10
3997.887000004927
 20
-2028.520384180368
 30
0.0
 11
3997.887000004927
 21
-1994.020384180367
 31
0.0
  0
LINE
  5
B8
330
1F
100
AcDbEntity
  8
1-7_金物
  6
Continuous
 62
     7
370
     9
100
AcDbLine
 10
4056.387004159926
 20
-1994.020384180367
 30
0.0
 11
4056.387004159926
 21
-2024.020384180367
 31
0.0
  0
LINE
  5
B9
330
1F
100
AcDbEntity
  8
1-7_金物
  6
Continuous
 62
     7
370
     9
100
AcDbLine
 10
4056.387004159926
 20
-2024.020384180367
 30
0.0
 11
4086.387004159926
 21
-2024.020384180367
 31
0.0
  0
LINE
  5
BA
330
1F
100
AcDbEntity
  8
1-7_金物
  6
Continuous
 62
     7
370
     9
100
AcDbLine
 10
4086.387004159926
 20
-2024.020384180367
 30
0.0
 11
4086.387004159926
 21
-1994.020384180367
 31
0.0
  0
LINE
  5
BB
330
1F
100
AcDbEntity
  8
1-7_金物
  6
Continuous
 62
     7
370
     9
100
AcDbLine
 10
4094.637004159925
 20
-2028.520384180368
 30
0.0
 11
4094.637004159925
 21
-1994.020384180367
 31
0.0
  0
LINE
  5
BC
330
1F
100
AcDbEntity
  8
1-7_金物
  6
Continuous
 62
     7
370
     9
100
AcDbLine
 10
4096.887003066425
 20
-1994.020384180367
 30
0.0
 11
4096.887003066425
 21
-1964.020384180367
 31
0.0
  0
LINE
  5
BD
330
1F
100
AcDbEntity
  8
1-7_金物
  6
Continuous
 62
     7
370
     9
100
AcDbLine
 10
4071.332532044438
 20
-1940.194647263116
 30
0.0
 11
4071.332532044438
 21
-2022.544647263116
 31
0.0
  0
LINE
  5
BE
330
1F
100
AcDbEntity
  8
1-7_金物
  6
Continuous
 62
     7
370
     9
100
AcDbLine
 10
4177.887010353423
 20
-2028.520384180368
 30
0.0
 11
4177.887010353423
 21
-1994.020384180367
 31
0.0
  0
LINE
  5
BF
330
1F
100
AcDbEntity
  8
1-7_金物
  6
Continuous
 62
     7
370
     9
100
AcDbLine
 10
4185.38700726942
 20
-2028.520384180368
 30
0.0
 11
4185.38700726942
 21
-1994.020379261867
 31
0.0
  0
ARC
  5
C0
330
1F
100
AcDbEntity
  8
1-7_金物
  6
Continuous
 62
     7
370
     9
100
AcDbCircle
 10
4085.636998471927
 20
-1993.270378492368
 30
0.0
 40
29.25960826436468
100
AcDbArc
 50
91.46881213439337
 51
181.4688121343926
  0
LINE
  5
C1
330
1F
100
AcDbEntity
  8
1-7_金物
  6
Continuous
 62
     7
370
     9
100
AcDbLine
 10
4203.387010353423
 20
-1994.020384180367
 30
0.0
 11
4203.387010353423
 21
-1964.020384180367
 31
0.0
  0
LINE
  5
C2
330
1F
100
AcDbEntity
  8
1-7_金物
  6
Continuous
 62
     7
370
     9
100
AcDbLine
 10
4405.805487818485
 20
-2028.520377473876
 30
0.0
 11
4392.387023261535
 21
-2011.747318502418
 31
0.0
  0
LINE
  5
C3
330
1F
100
AcDbEntity
  8
1-7_金物
  6
Continuous
 62
     7
370
     9
100
AcDbLine
 10
4392.387023261535
 20
-2011.747318502418
 30
0.0
 11
4378.968589065585
 21
-2028.520377473876
 31
0.0
  0
LINE
  5
C4
330
1F
100
AcDbEntity
  8
1-7_金物
  6
Continuous
 62
     7
370
     9
100
AcDbLine
 10
4378.968589065585
 20
-2028.520377473876
 30
0.0
 11
4405.805487818485
 21
-2028.520377473876
 31
0.0
  0
LINE
  5
C5
330
1F
100
AcDbEntity
  8
1-7_金物
  6
JWW_DASHED3
 62
     7
370
     9
100
AcDbLine
 10
4362.387021806398
 20
-1994.020377473876
 30
0.0
 11
4386.530481127671
 21
-1963.841024126305
 31
0.0
  0
ARC
  5
C6
330
1F
100
AcDbEntity
  8
1-7_金物
  6
JWW_DASHED3
 62
     7
370
     9
100
AcDbCircle
 10
4392.386999409492
 20
-1968.526234219212
 30
0.0
 40
7.499999999999566
100
AcDbArc
 50
38.65984445427199
 51
141.3402187843868
  0
LINE
  5
C7
330
1F
100
AcDbEntity
  8
1-7_金物
  6
JWW_DASHED3
 62
     7
370
     9
100
AcDbLine
 10
4398.243512520137
 20
-1963.841017662335
 30
0.0
 11
4422.387031640396
 21
-1994.020377473876
 31
0.0
  0
LINE
  5
C8
330
1F
100
AcDbEntity
  8
1-7_金物
  6
JWW_DASHED3
 62
     7
370
     9
100
AcDbLine
 10
4355.636992783924
 20
-1994.020377473876
 30
0.0
 11
4407.726397256728
 21
-1994.020377473876
 31
0.0
  0
LINE
  5
C9
330
1F
100
AcDbEntity
  8
1-7_金物
  6
JWW_DASHED3
 62
     7
370
     9
100
AcDbLine
 10
4407.726397256728
 20
-1994.020377473876
 30
0.0
 11
4521.701992783923
 21
-1994.020377473876
 31
0.0
  0
LINE
  5
CA
330
1F
100
AcDbEntity
  8
1-7_金物
  6
JWW_DASHED3
 62
     7
370
     9
100
AcDbLine
 10
4521.701992783923
 20
-1959.520377473877
 30
0.0
 11
4521.701992783923
 21
-1994.020377473876
 31
0.0
  0
LINE
  5
CB
330
1F
100
AcDbEntity
  8
1-7_金物
  6
JWW_DASHED3
 62
     7
370
     9
100
AcDbLine
 10
4521.701992783923
 20
-1959.520377473877
 30
0.0
 11
4396.74693048392
 21
-1959.520377473877
 31
0.0
  0
LINE
  5
CC
330
1F
100
AcDbEntity
  8
1-7_金物
  6
JWW_DASHED3
 62
     7
370
     9
100
AcDbLine
 10
4396.74693048392
 20
-1959.520377473875
 30
0.0
 11
4390.476424880725
 21
-1959.520377473875
 31
0.0
  0
LINE
  5
CD
330
1F
100
AcDbEntity
  8
1-7_金物
  6
JWW_DASHED3
 62
     7
370
     9
100
AcDbLine
 10
4390.476424880725
 20
-1959.520377473875
 30
0.0
 11
4335.386992783922
 21
-1959.520377473875
 31
0.0
  0
LINE
  5
CE
330
1F
100
AcDbEntity
  8
1-7_金物
  6
JWW_DASHED3
 62
     7
370
     9
100
AcDbLine
 10
4335.386992783922
 20
-1994.020377473876
 30
0.0
 11
4355.636992783924
 21
-1994.020377473876
 31
0.0
  0
LINE
  5
CF
330
1F
100
AcDbEntity
  8
1-7_金物
  6
JWW_DASHED3
 62
     7
370
     9
100
AcDbLine
 10
4335.386992783922
 20
-1992.520375763879
 30
0.0
 11
4335.386992783922
 21
-1994.020376708878
 31
0.0
  0
LINE
  5
D0
330
1F
100
AcDbEntity
  8
1-7_金物
  6
Continuous
 62
     7
370
     9
100
AcDbLine
 10
4335.386992783922
 20
-1151.020397590369
 30
0.0
 11
4335.386992783922
 21
-1992.520375763879
 31
0.0
  0
ARC
  5
D1
330
1F
100
AcDbEntity
  8
1-7_金物
  6
Continuous
 62
     7
370
     9
100
AcDbCircle
 10
4372.886996941924
 20
-1151.020398484369
 30
0.0
 40
37.5
100
AcDbArc
 50
90.0
 51
180.0
  0
ARC
  5
D2
330
1F
100
AcDbEntity
  8
1-7_金物
  6
JWW_DASHED3
 62
     7
370
     9
100
AcDbCircle
 10
4357.886992783922
 20
-1979.020374053878
 30
0.0
 40
22.50000000000128
100
AcDbArc
 50
90.0
 51
180.0
  0
LINE
  5
D3
330
1F
100
AcDbEntity
  8
1-7_金物
  6
JWW_DASHED3
 62
     7
370
     9
100
AcDbLine
 10
4497.386992784672
 20
-1956.520374053877
 30
0.0
 11
4357.886992783922
 21
-1956.520374053877
 31
0.0
  0
LINE
  5
D4
330
1F
100
AcDbEntity
  8
1-7_金物
  6
JWW_DASHED3
 62
     7
370
     9
100
AcDbLine
 10
4636.886992783924
 20
-1956.520374053878
 30
0.0
 11
4497.386992784672
 21
-1956.520374053878
 31
0.0
  0
ARC
  5
D5
330
1F
100
AcDbEntity
  8
1-7_金物
  6
JWW_DASHED3
 62
     7
370
     9
100
AcDbCircle
 10
4636.886992783924
 20
-1979.020374053878
 30
0.0
 40
22.5
100
AcDbArc
 50
0.0
 51
90.0
  0
LINE
  5
D6
330
1F
100
AcDbEntity
  8
1-7_金物
  6
JWW_DASHED3
 62
     7
370
     9
100
AcDbLine
 10
4406.636984649421
 20
-1994.020377473876
 30
0.0
 11
4406.636984649421
 21
-1959.520377473877
 31
0.0
  0
LINE
  5
D7
330
1F
100
AcDbEntity
  8
1-7_金物
  6
JWW_DASHED3
 62
     7
370
     9
100
AcDbLine
 10
4467.386992783924
 20
-1959.520377473877
 30
0.0
 11
4467.386992783924
 21
-1994.020377473876
 31
0.0
  0
LINE
  5
D8
330
1F
100
AcDbEntity
  8
1-7_金物
  6
JWW_DASHED3
 62
     7
370
     9
100
AcDbLine
 10
4473.071992783926
 20
-1994.020377473876
 30
0.0
 11
4473.071992783926
 21
-1959.520377473877
 31
0.0
  0
LINE
  5
D9
330
1F
100
AcDbEntity
  8
1-7_金物
  6
JWW_DASHED3
 62
     7
370
     9
100
AcDbLine
 10
4527.386992783924
 20
-1994.020377473876
 30
0.0
 11
4527.386992783924
 21
-1959.520377473877
 31
0.0
  0
LINE
  5
DA
330
1F
100
AcDbEntity
  8
1-7_金物
  6
JWW_DASHED3
 62
     7
370
     9
100
AcDbLine
 10
4593.366401264376
 20
-1959.520377473877
 30
0.0
 11
4527.386992783924
 21
-1959.520377473877
 31
0.0
  0
LINE
  5
DB
330
1F
100
AcDbEntity
  8
1-7_金物
  6
JWW_DASHED3
 62
     7
370
     9
100
AcDbLine
 10
4659.386992783924
 20
-1959.520377473877
 30
0.0
 11
4593.366401264376
 21
-1959.520377473877
 31
0.0
  0
LINE
  5
DC
330
1F
100
AcDbEntity
  8
1-7_金物
  6
JWW_DASHED3
 62
     7
370
     9
100
AcDbLine
 10
4659.386989654926
 20
-1959.520377473877
 30
0.0
 11
4660.886992783926
 21
-1959.520377473877
 31
0.0
  0
LINE
  5
DD
330
1F
100
AcDbEntity
  8
1-7_金物
  6
Continuous
 62
     7
370
     9
100
AcDbLine
 10
4660.886992783926
 20
-1959.520377473877
 30
0.0
 11
4660.886992783926
 21
-1988.020377473877
 31
0.0
  0
LINE
  5
DE
330
1F
100
AcDbEntity
  8
1-7_金物
  6
Continuous
 62
     7
370
     9
100
AcDbLine
 10
4660.886992783926
 20
-1988.020377473877
 30
0.0
 11
4690.886992783926
 21
-1988.020377473877
 31
0.0
  0
LINE
  5
DF
330
1F
100
AcDbEntity
  8
1-7_金物
  6
Continuous
 62
     7
370
     9
100
AcDbLine
 10
4690.886992783926
 20
-1959.520377473877
 30
0.0
 11
4690.886992783926
 21
-1988.020377473877
 31
0.0
  0
ARC
  5
E0
330
1F
100
AcDbEntity
  8
1-7_金物
  6
Continuous
 62
     7
370
     9
100
AcDbCircle
 10
4660.886992783926
 20
-1959.520377473877
 30
0.0
 40
30.0
100
AcDbArc
 50
0.0
 51
90.0
  0
LINE
  5
E1
330
1F
100
AcDbEntity
  8
1-7_金物
  6
JWW_DASHED3
 62
     7
370
     9
100
AcDbLine
 10
4660.886992783926
 20
-1929.520377473877
 30
0.0
 11
4659.386992783924
 21
-1929.520377473877
 31
0.0
  0
LINE
  5
E2
330
1F
100
AcDbEntity
  8
1-7_金物
  6
JWW_DASHED3
 62
     7
370
     9
100
AcDbLine
 10
4659.386992783924
 20
-1929.520377473877
 30
0.0
 11
4473.386992783926
 21
-1929.520377473877
 31
0.0
  0
LINE
  5
E3
330
1F
100
AcDbEntity
  8
1-7_金物
  6
JWW_DASHED3
 62
     7
370
     9
100
AcDbLine
 10
4367.513906172421
 20
-1929.520377473877
 30
0.0
 11
4473.386992783926
 21
-1929.520377473877
 31
0.0
  0
LINE
  5
E4
330
1F
100
AcDbEntity
  8
1-7_金物
  6
JWW_DASHED3
 62
     7
370
     9
100
AcDbLine
 10
4363.136965159922
 20
-1929.520377473877
 30
0.0
 11
4367.513906172421
 21
-1929.520377473877
 31
0.0
  0
LINE
  5
E5
330
1F
100
AcDbEntity
  8
1-7_金物
  6
JWW_DASHED3
 62
     7
370
     9
100
AcDbLine
 10
4521.701992783923
 20
-1994.020377473876
 30
0.0
 11
4527.386992783924
 21
-1994.020377473876
 31
0.0
  0
LINE
  5
E6
330
1F
100
AcDbEntity
  8
1-7_金物
  6
JWW_DASHED3
 62
     7
370
     9
100
AcDbLine
 10
4527.386992783924
 20
-1959.520377473877
 30
0.0
 11
4521.701992783923
 21
-1959.520377473877
 31
0.0
  0
LINE
  5
E7
330
1F
100
AcDbEntity
  8
1-7_金物
  6
JWW_DASHED3
 62
     7
370
     9
100
AcDbLine
 10
4572.387021806398
 20
-1994.020377473876
 30
0.0
 11
4596.530481127671
 21
-1963.841024126305
 31
0.0
  0
ARC
  5
E8
330
1F
100
AcDbEntity
  8
1-7_金物
  6
JWW_DASHED3
 62
     7
370
     9
100
AcDbCircle
 10
4602.386999409492
 20
-1968.526234219212
 30
0.0
 40
7.499999999999566
100
AcDbArc
 50
38.65984445427199
 51
141.3402187843868
  0
LINE
  5
E9
330
1F
100
AcDbEntity
  8
1-7_金物
  6
JWW_DASHED3
 62
     7
370
     9
100
AcDbLine
 10
4608.243512520137
 20
-1963.841017662335
 30
0.0
 11
4632.387031640396
 21
-1994.020377473876
 31
0.0
  0
LINE
  5
EA
330
1F
100
AcDbEntity
  8
1-7_金物
  6
JWW_DASHED3
 62
     7
370
     9
100
AcDbLine
 10
4588.136988582423
 20
-1994.020377473876
 30
0.0
 11
4588.136988582423
 21
-1959.520377473877
 31
0.0
  0
LINE
  5
EB
330
1F
100
AcDbEntity
  8
1-7_金物
  6
JWW_DASHED3
 62
     7
370
     9
100
AcDbLine
 10
4556.168497854591
 20
-1946.895434937222
 30
0.0
 11
4438.605487713258
 21
-1946.895434937222
 31
0.0
  0
LINE
  5
EC
330
1F
100
AcDbEntity
  8
1-7_金物
  6
JWW_DASHED3
 62
     7
370
     9
100
AcDbLine
 10
4436.636992783925
 20
-1959.520377473877
 30
0.0
 11
4438.605487713258
 21
-1946.895434937222
 31
0.0
  0
LINE
  5
ED
330
1F
100
AcDbEntity
  8
1-7_金物
  6
JWW_DASHED3
 62
     7
370
     9
100
AcDbLine
 10
4558.136992783924
 20
-1959.520377473877
 30
0.0
 11
4556.168497854591
 21
-1946.895434937222
 31
0.0
  0
ARC
  5
EE
330
1F
100
AcDbEntity
  8
1-7_金物
  6
JWW_DASHED3
 62
     7
370
     9
100
AcDbCircle
 10
4500.386992783925
 20
-2079.804123731167
 30
0.0
 40
144.1398482893426
100
AcDbArc
 50
67.23230668980638
 51
88.29120078810318
  0
LINE
  5
EF
330
1F
100
AcDbEntity
  8
1-7_金物
  6
JWW_DASHED3
 62
     7
370
     9
100
AcDbLine
 10
4504.685207220874
 20
-1935.728375537626
 30
0.0
 11
4503.849144680181
 21
-1939.264544495702
 31
0.0
  0
LINE
  5
F0
330
1F
100
AcDbEntity
  8
1-7_金物
  6
JWW_DASHED3
 62
     7
370
     9
100
AcDbLine
 10
4503.849144680181
 20
-1939.264544495702
 30
0.0
 11
4490.924840887668
 21
-1939.264544495702
 31
0.0
  0
LINE
  5
F1
330
1F
100
AcDbEntity
  8
1-7_金物
  6
JWW_DASHED3
 62
     7
370
     9
100
AcDbLine
 10
4490.924840887668
 20
-1939.264544495702
 30
0.0
 11
4490.088778346975
 21
-1935.728375537626
 31
0.0
  0
ARC
  5
F2
330
1F
100
AcDbEntity
  8
1-7_金物
  6
JWW_DASHED3
 62
     7
370
     9
100
AcDbCircle
 10
4494.386992783924
 20
-2079.804123731169
 30
0.0
 40
144.1398482893442
100
AcDbArc
 50
91.70879921189668
 51
112.7676933101938
  0
LINE
  5
F3
330
1F
100
AcDbEntity
  8
1-7_金物
  6
JWW_DASHED3
 62
     7
370
     9
100
AcDbLine
 10
4556.168497854591
 20
-1916.895434937222
 30
0.0
 11
4438.605487713258
 21
-1916.895434937222
 31
0.0
  0
ARC
  5
F4
330
1F
100
AcDbEntity
  8
1-7_金物
  6
Continuous
 62
     7
370
     9
100
AcDbCircle
 10
4494.386992783924
 20
-2049.804123731169
 30
0.0
 40
144.1398482893455
100
AcDbArc
 50
91.70879921189668
 51
112.7676933101938
  0
LINE
  5
F5
330
1F
100
AcDbEntity
  8
1-7_金物
  6
Continuous
 62
     7
370
     9
100
AcDbLine
 10
4490.924840887668
 20
-1909.264544495702
 30
0.0
 11
4490.088778346975
 21
-1905.728375537625
 31
0.0
  0
LINE
  5
F6
330
1F
100
AcDbEntity
  8
1-7_金物
  6
JWW_DASHED3
 62
     7
370
     9
100
AcDbLine
 10
4503.849144680181
 20
-1909.264544495702
 30
0.0
 11
4490.924840887668
 21
-1909.264544495702
 31
0.0
  0
LINE
  5
F7
330
1F
100
AcDbEntity
  8
1-7_金物
  6
Continuous
 62
     7
370
     9
100
AcDbLine
 10
4504.685207220874
 20
-1905.728375537625
 30
0.0
 11
4503.849144680181
 21
-1909.264544495702
 31
0.0
  0
ARC
  5
F8
330
1F
100
AcDbEntity
  8
1-7_金物
  6
Continuous
 62
     7
370
     9
100
AcDbCircle
 10
4500.386992783925
 20
-2049.804123731167
 30
0.0
 40
144.1398482893426
100
AcDbArc
 50
67.23230668980638
 51
88.2912007881033
  0
LINE
  5
F9
330
1F
100
AcDbEntity
  8
1-7_金物
  6
JWW_DASHED3
 62
     7
370
     9
100
AcDbLine
 10
4436.636992783925
 20
-1929.520377473877
 30
0.0
 11
4438.605487713258
 21
-1916.895434937222
 31
0.0
  0
LINE
  5
FA
330
1F
100
AcDbEntity
  8
1-7_金物
  6
JWW_DASHED3
 62
     7
370
     9
100
AcDbLine
 10
4558.136992783924
 20
-1929.520377473877
 30
0.0
 11
4436.636992783925
 21
-1929.520377473877
 31
0.0
  0
LINE
  5
FB
330
1F
100
AcDbEntity
  8
1-7_金物
  6
JWW_DASHED3
 62
     7
370
     9
100
AcDbLine
 10
4558.136992783924
 20
-1929.520377473877
 30
0.0
 11
4556.168497854591
 21
-1916.895434937222
 31
0.0
  0
LINE
  5
FC
330
1F
100
AcDbEntity
  8
1-7_金物
  6
JWW_DASHED3
 62
     7
370
     9
100
AcDbLine
 10
4497.386992784675
 20
-1994.020377473876
 30
0.0
 11
4659.386992783924
 21
-1994.020377473876
 31
0.0
  0
LINE
  5
FD
330
1F
100
AcDbEntity
  8
1-7_金物
  6
Continuous
 62
     7
370
     9
100
AcDbLine
 10
4659.386992783924
 20
-2028.520377473878
 30
0.0
 11
4659.386992783924
 21
-1994.020376708878
 31
0.0
  0
LINE
  5
FE
330
1F
100
AcDbEntity
  8
1-7_金物
  6
Continuous
 62
     7
370
     9
100
AcDbLine
 10
4615.805487818485
 20
-2028.520377473878
 30
0.0
 11
4659.386992783924
 21
-2028.520377473878
 31
0.0
  0
LINE
  5
FF
330
1F
100
AcDbEntity
  8
1-7_金物
  6
Continuous
 62
     7
370
     9
100
AcDbLine
 10
4372.886998930924
 20
-1113.520377473869
 30
0.0
 11
4621.886986638423
 21
-1113.520377473869
 31
0.0
  0
LINE
  5
100
330
1F
100
AcDbEntity
  8
1-7_金物
  6
Continuous
 62
     7
370
     9
100
AcDbLine
 10
4659.386992783924
 20
-1151.020397590369
 30
0.0
 11
4659.386992783924
 21
-1992.520375763879
 31
0.0
  0
LINE
  5
101
330
1F
100
AcDbEntity
  8
1-7_金物
  6
JWW_DASHED3
 62
     7
370
     9
100
AcDbLine
 10
4659.386992783924
 20
-1992.520375763879
 30
0.0
 11
4659.386992783924
 21
-1994.020376708878
 31
0.0
  0
ARC
  5
102
330
1F
100
AcDbEntity
  8
1-7_金物
  6
Continuous
 62
     7
370
     9
100
AcDbCircle
 10
4621.88698862742
 20
-1151.020398484369
 30
0.0
 40
37.5
100
AcDbArc
 50
0.0
 51
90.0
  0
LINE
  5
103
330
1F
100
AcDbEntity
  8
1-7_金物
  6
Continuous
 62
     7
370
     9
100
AcDbLine
 10
4497.386992783924
 20
-2005.524742756151
 30
0.0
 11
4497.386992783924
 21
-1941.994846120977
 31
0.0
  0
LINE
  5
104
330
1F
100
AcDbEntity
  8
1-7_金物
  6
Continuous
 62
     7
370
     9
100
AcDbLine
 10
4055.637011982426
 20
-2028.520384180368
 30
0.0
 11
4055.637011982426
 21
-1994.020384180367
 31
0.0
  0
LINE
  5
105
330
1F
100
AcDbEntity
  8
1-7_金物
  6
Continuous
 62
     7
370
     9
100
AcDbLine
 10
3969.387010353425
 20
-1964.020384180367
 30
0.0
 11
3969.387010353425
 21
-1994.020384180367
 31
0.0
  0
CIRCLE
  5
106
330
1F
100
AcDbEntity
  8
1-7_金物
  6
Continuous
 62
     7
370
     9
100
AcDbCircle
 10
4497.386992784675
 20
-1233.520398484369
 30
0.0
 40
31.49999999999864
  0
CIRCLE
  5
107
330
1F
100
AcDbEntity
  8
1-7_金物
  6
Continuous
 62
     7
370
     9
100
AcDbCircle
 10
4497.386992784675
 20
-1698.520377473878
 30
0.0
 40
31.49999999999864
  0
LINE
  5
108
330
1F
100
AcDbEntity
  8
1-7_金物
  6
Continuous
 62
     7
370
     9
100
AcDbLine
 10
4602.386992783924
 20
-1945.929135395237
 30
0.0
 11
4602.386992783924
 21
-2017.929135395237
 31
0.0
  0
LINE
  5
109
330
1F
100
AcDbEntity
  8
1-7_金物
  6
Continuous
 62
     7
370
     9
100
AcDbLine
 10
4392.386992783924
 20
-1945.929135395237
 30
0.0
 11
4392.386992783924
 21
-2017.929135395237
 31
0.0
  0
LINE
  5
10A
330
1F
100
AcDbEntity
  8
1-7_金物
  6
Continuous
 62
     7
370
     9
100
AcDbLine
 10
4473.386992783926
 20
-1989.520377473877
 30
0.0
 11
4473.386992783926
 21
-1899.520377473877
 31
0.0
  0
LINE
  5
10B
330
1F
100
AcDbEntity
  8
1-7_金物
  6
JWW_DASHED3
 62
     7
370
     9
100
AcDbLine
 10
4466.636992783925
 20
-1959.520377473877
 30
0.0
 11
4466.636992783925
 21
-1929.520377473877
 31
0.0
  0
LINE
  5
10C
330
1F
100
AcDbEntity
  8
1-7_金物
  6
JWW_DASHED3
 62
     7
370
     9
100
AcDbLine
 10
4528.136992783924
 20
-1959.520377473877
 30
0.0
 11
4528.136992783924
 21
-1929.520377473877
 31
0.0
  0
LINE
  5
10D
330
1F
100
AcDbEntity
  8
1-7_金物
  6
JWW_DASHED3
 62
     7
370
     9
100
AcDbLine
 10
4497.386992783924
 20
-1965.499743743275
 30
0.0
 11
4497.386992783924
 21
-1920.349743743275
 31
0.0
  0
LINE
  5
10E
330
1F
100
AcDbEntity
  8
1-7_金物
  6
JWW_DASHED3
 62
     7
370
     9
100
AcDbLine
 10
4659.386989654926
 20
-1994.020377473876
 30
0.0
 11
4659.386989654926
 21
-1959.520377473877
 31
0.0
  0
LINE
  5
10F
330
1F
100
AcDbEntity
  8
1-7_金物
  6
JWW_DASHED3
 62
     7
370
     9
100
AcDbLine
 10
4659.386989654926
 20
-1959.520377473877
 30
0.0
 11
4659.386992783924
 21
-1959.520377473877
 31
0.0
  0
LINE
  5
110
330
1F
100
AcDbEntity
  8
1-7_金物
  6
JWW_DASHED3
 62
     7
370
     9
100
AcDbLine
 10
4527.386992783924
 20
-1994.020377473876
 30
0.0
 11
4587.38696712642
 21
-1994.020377473876
 31
0.0
  0
LINE
  5
111
330
1F
100
AcDbEntity
  8
1-7_金物
  6
JWW_DASHED3
 62
     7
370
     9
100
AcDbLine
 10
4587.38696712642
 20
-1994.020377473876
 30
0.0
 11
4659.386989654926
 21
-1994.020377473876
 31
0.0
  0
LINE
  5
112
330
1F
100
AcDbEntity
  8
1-7_金物
  6
JWW_DASHED3
 62
     7
370
     9
100
AcDbLine
 10
4367.513906172421
 20
-1959.520377473877
 30
0.0
 11
4473.386992783926
 21
-1959.520377473877
 31
0.0
  0
LINE
  5
113
330
1F
100
AcDbEntity
  8
1-7_金物
  6
JWW_DASHED3
 62
     7
370
     9
100
AcDbLine
 10
4473.386992783926
 20
-1959.520377473877
 30
0.0
 11
4659.386989654926
 21
-1959.520377473877
 31
0.0
  0
LINE
  5
114
330
1F
100
AcDbEntity
  8
1-7_金物
  6
JWW_DASHED3
 62
     7
370
     9
100
AcDbLine
 10
4367.513906172421
 20
-1959.520377473877
 30
0.0
 11
4371.386965159922
 21
-1959.520377473877
 31
0.0
  0
LINE
  5
115
330
1F
100
AcDbEntity
  8
1-7_金物
  6
JWW_DASHED3
 62
     7
370
     9
100
AcDbLine
 10
4371.386965159922
 20
-1959.520377473877
 30
0.0
 11
4363.136965159922
 21
-1959.520377473877
 31
0.0
  0
LINE
  5
116
330
1F
100
AcDbEntity
  8
1-0_補助線
  6
JWW_HOJO
 62
   120
370
     5
100
AcDbLine
 10
4723.886989654925
 20
-2073.520377473877
 30
0.0
 11
3373.886989654927
 21
-2073.520377473877
 31
0.0
  0
LINE
  5
117
330
1F
100
AcDbEntity
  8
1-0_補助線
  6
JWW_HOJO
 62
   120
370
     5
100
AcDbLine
 10
4828.886989654925
 20
-2178.520377473877
 30
0.0
 11
3373.886989654927
 21
-2178.520377473877
 31
0.0
  0
LINE
  5
118
330
1F
100
AcDbEntity
  8
1-0_補助線
  6
JWW_HOJO
 62
   120
370
     5
100
AcDbLine
 10
4290.386992783922
 20
-1068.520377473869
 30
0.0
 11
4621.886986638423
 21
-1068.520377473869
 31
0.0
  0
LINE
  5
119
330
1F
100
AcDbEntity
  8
1-0_補助線
  6
JWW_HOJO
 62
   120
370
     5
100
AcDbLine
 10
4290.386992783922
 20
-1068.520377473869
 30
0.0
 11
4290.386992783922
 21
-1992.520375763879
 31
0.0
  0
LINE
  5
11A
330
1F
100
AcDbEntity
  8
1-0_補助線
  6
JWW_HOJO
 62
   120
370
     5
100
AcDbLine
 10
4185.386992783922
 20
-963.5203774738687
 30
0.0
 11
4621.886986638423
 21
-963.5203774738687
 31
0.0
  0
LINE
  5
11B
330
1F
100
AcDbEntity
  8
1-0_補助線
  6
JWW_HOJO
 62
   120
370
     5
100
AcDbLine
 10
4185.386992783922
 20
-963.5203774738687
 30
0.0
 11
4185.386992783922
 21
-1992.520375763879
 31
0.0
  0
LINE
  5
11C
330
1F
100
AcDbEntity
  8
1-B_寸法
  6
Continuous
 62
   120
370
     5
100
AcDbLine
 10
3799.886992783926
 20
-1964.020384180367
 30
0.0
 11
3799.886992783926
 21
-1929.520377473877
 31
0.0
  0
LWPOLYLINE
  5
11D
330
1F
100
AcDbEntity
  8
1-B_寸法
  6
Continuous
 62
     7
370
     9
100
AcDbPolyline
 90
        4
 70
     1
 43
3.0
 10
3801.386992783926
 20
-1964.020384180367
 42
0.4142135623731
 10
3799.886992783926
 20
-1962.520384180368
 42
0.4142135623731
 10
3798.386992783926
 20
-1964.020384180367
 42
0.4142135623731
 10
3799.886992783926
 20
-1965.520384180367
 42
0.4142135623731
  0
LWPOLYLINE
  5
11E
330
1F
100
AcDbEntity
  8
1-B_寸法
  6
Continuous
 62
     7
370
     9
100
AcDbPolyline
 90
        4
 70
     1
 43
3.0
 10
3801.386992783926
 20
-1929.520377473877
 42
0.4142135623731
 10
3799.886992783926
 20
-1928.020377473877
 42
0.4142135623731
 10
3798.386992783926
 20
-1929.520377473877
 42
0.4142135623731
 10
3799.886992783926
 20
-1931.020377473877
 42
0.4142135623731
  0
LINE
  5
11F
330
1F
100
AcDbEntity
  8
1-B_寸法
  6
Continuous
 62
   120
370
     5
100
AcDbLine
 10
3799.886992783926
 20
-1929.520377473877
 30
0.0
 11
3904.886992783926
 21
-1929.520377473877
 31
0.0
  0
MTEXT
  5
120
330
1F
100
AcDbEntity
  8
1-B_寸法
  6
Continuous
 62
     7
370
   211
100
AcDbMText
 10
4366.136992783924
 20
-958.5141274738687
 30
0.0
 40
100.0125
 41
262.5
 46
0.0
 71
     7
 72
     1
  1
{\fＭＳ ゴシック|b0|i0|c128|p49;21.6}
 73
     1
 44
1.0
  0
LINE
  5
121
330
1F
100
AcDbEntity
  8
1-7_金物
  6
Continuous
 62
     7
370
     9
100
AcDbLine
 10
3949.886992783926
 20
-1964.020384180367
 30
0.0
 11
4027.887000070926
 21
-1964.020384180367
 31
0.0
  0
LINE
  5
122
330
1F
100
AcDbEntity
  8
1-B_寸法
  6
Continuous
 62
   120
370
     5
100
AcDbLine
 10
4185.386992783922
 20
-1113.520398484369
 30
0.0
 11
4185.386992783922
 21
-1233.520377473869
 31
0.0
  0
LWPOLYLINE
  5
123
330
1F
100
AcDbEntity
  8
1-B_寸法
  6
Continuous
 62
     7
370
     9
100
AcDbPolyline
 90
        4
 70
     1
 43
3.0
 10
4186.886992783922
 20
-1113.520398484369
 42
0.4142135623731
 10
4185.386992783922
 20
-1112.020398484369
 42
0.4142135623731
 10
4183.886992783921
 20
-1113.520398484369
 42
0.4142135623731
 10
4185.386992783922
 20
-1115.020398484369
 42
0.4142135623731
  0
LWPOLYLINE
  5
124
330
1F
100
AcDbEntity
  8
1-B_寸法
  6
Continuous
 62
     7
370
     9
100
AcDbPolyline
 90
        4
 70
     1
 43
3.0
 10
4186.886992783922
 20
-1233.520377473869
 42
0.4142135623731
 10
4185.386992783922
 20
-1232.020377473869
 42
0.4142135623731
 10
4183.886992783921
 20
-1233.520377473869
 42
0.4142135623731
 10
4185.386992783922
 20
-1235.020377473869
 42
0.4142135623731
  0
LINE
  5
125
330
1F
100
AcDbEntity
  8
1-B_寸法
  6
Continuous
 62
   120
370
     5
100
AcDbLine
 10
4185.386992783922
 20
-1113.520398484369
 30
0.0
 11
4290.386992783922
 21
-1113.520398484369
 31
0.0
  0
LINE
  5
126
330
1F
100
AcDbEntity
  8
1-B_寸法
  6
Continuous
 62
   120
370
     5
100
AcDbLine
 10
4185.386992783922
 20
-1233.520377473869
 30
0.0
 11
4290.386992783922
 21
-1233.520377473869
 31
0.0
  0
MTEXT
  5
127
330
1F
100
AcDbEntity
  8
1-B_寸法
  6
Continuous
 62
     7
370
   211
100
AcDbMText
 10
4170.386992783922
 20
-1217.800387979119
 30
0.0
 40
91.44
 41
60.0
 46
0.0
 71
     7
 72
     1
  1
{\fＭＳ ゴシック|b0|i0|c128|p49;8}
 11
6.123031769111886E-17
 21
1.0
 31
0.0
 73
     1
 44
1.0
  0
LINE
  5
128
330
1F
100
AcDbEntity
  8
1-B_寸法
  6
Continuous
 62
   120
370
     5
100
AcDbLine
 10
4185.386992783922
 20
-1233.520377473869
 30
0.0
 11
4185.386992783922
 21
-1698.520377473869
 31
0.0
  0
LWPOLYLINE
  5
129
330
1F
100
AcDbEntity
  8
1-B_寸法
  6
Continuous
 62
     7
370
     9
100
AcDbPolyline
 90
        4
 70
     1
 43
3.0
 10
4186.886992783922
 20
-1698.520377473869
 42
0.4142135623731
 10
4185.386992783922
 20
-1697.020377473869
 42
0.4142135623731
 10
4183.886992783921
 20
-1698.520377473869
 42
0.4142135623731
 10
4185.386992783922
 20
-1700.020377473869
 42
0.4142135623731
  0
LINE
  5
12A
330
1F
100
AcDbEntity
  8
1-B_寸法
  6
Continuous
 62
   120
370
     5
100
AcDbLine
 10
4185.386992783922
 20
-1698.520377473869
 30
0.0
 11
4290.386992783922
 21
-1698.520377473869
 31
0.0
  0
LINE
  5
12B
330
1F
100
AcDbEntity
  8
1-B_寸法
  6
Continuous
 62
   120
370
     5
100
AcDbLine
 10
4335.386992783922
 20
-963.5203774738687
 30
0.0
 11
4659.386992783924
 21
-963.5203774738687
 31
0.0
  0
LWPOLYLINE
  5
12C
330
1F
100
AcDbEntity
  8
1-B_寸法
  6
Continuous
 62
     7
370
     9
100
AcDbPolyline
 90
        4
 70
     1
 43
3.0
 10
4336.886992783922
 20
-963.5203774738687
 42
0.4142135623731
 10
4335.386992783922
 20
-962.0203774738688
 42
0.4142135623731
 10
4333.886992783921
 20
-963.5203774738687
 42
0.4142135623731
 10
4335.386992783922
 20
-965.0203774738686
 42
0.4142135623731
  0
LWPOLYLINE
  5
12D
330
1F
100
AcDbEntity
  8
1-B_寸法
  6
Continuous
 62
     7
370
     9
100
AcDbPolyline
 90
        4
 70
     1
 43
3.0
 10
4660.886992783924
 20
-963.5203774738687
 42
0.4142135623731
 10
4659.386992783924
 20
-962.0203774738688
 42
0.4142135623731
 10
4657.886992783923
 20
-963.5203774738687
 42
0.4142135623731
 10
4659.386992783924
 20
-965.0203774738686
 42
0.4142135623731
  0
LINE
  5
12E
330
1F
100
AcDbEntity
  8
1-B_寸法
  6
Continuous
 62
   120
370
     5
100
AcDbLine
 10
4335.386992783922
 20
-963.5203774738687
 30
0.0
 11
4335.386992783922
 21
-1068.520377473869
 31
0.0
  0
LINE
  5
12F
330
1F
100
AcDbEntity
  8
1-B_寸法
  6
Continuous
 62
   120
370
     5
100
AcDbLine
 10
4659.386992783924
 20
-963.5203774738687
 30
0.0
 11
4659.386992783924
 21
-1068.520377473869
 31
0.0
  0
MTEXT
  5
130
330
1F
100
AcDbEntity
  8
1-B_寸法
  6
Continuous
 62
     7
370
   211
100
AcDbMText
 10
4170.386992783922
 20
-1541.192877473869
 30
0.0
 40
97.15499999999999
 41
127.5
 46
0.0
 71
     7
 72
     1
  1
{\fＭＳ ゴシック|b0|i0|c128|p49;31}
 11
6.123031769111886E-17
 21
1.0
 31
0.0
 73
     1
 44
1.0
  0
LINE
  5
131
330
1F
100
AcDbEntity
  8
1-B_寸法
  6
Continuous
 62
   120
370
     5
100
AcDbLine
 10
4828.886989654925
 20
-2028.520377473877
 30
0.0
 11
4828.886989654925
 21
-1113.520377473869
 31
0.0
  0
LWPOLYLINE
  5
132
330
1F
100
AcDbEntity
  8
1-B_寸法
  6
Continuous
 62
     7
370
     9
100
AcDbPolyline
 90
        4
 70
     1
 43
3.0
 10
4830.386989654925
 20
-2028.520377473877
 42
0.4142135623731
 10
4828.886989654925
 20
-2027.020377473877
 42
0.4142135623731
 10
4827.386989654925
 20
-2028.520377473877
 42
0.4142135623731
 10
4828.886989654925
 20
-2030.020377473877
 42
0.4142135623731
  0
LWPOLYLINE
  5
133
330
1F
100
AcDbEntity
  8
1-B_寸法
  6
Continuous
 62
     7
370
     9
100
AcDbPolyline
 90
        4
 70
     1
 43
3.0
 10
4830.386989654925
 20
-1113.520377473869
 42
0.4142135623731
 10
4828.886989654925
 20
-1112.020377473869
 42
0.4142135623731
 10
4827.386989654925
 20
-1113.520377473869
 42
0.4142135623731
 10
4828.886989654925
 20
-1115.020377473869
 42
0.4142135623731
  0
LINE
  5
134
330
1F
100
AcDbEntity
  8
1-B_寸法
  6
Continuous
 62
   120
370
     5
100
AcDbLine
 10
4828.886989654925
 20
-2028.520377473877
 30
0.0
 11
4723.886989654925
 21
-2028.520377473877
 31
0.0
  0
LINE
  5
135
330
1F
100
AcDbEntity
  8
1-B_寸法
  6
Continuous
 62
   120
370
     5
100
AcDbLine
 10
4828.886989654925
 20
-1113.520377473869
 30
0.0
 11
4723.886989654925
 21
-1113.520377473869
 31
0.0
  0
MTEXT
  5
136
330
1F
100
AcDbEntity
  8
1-B_寸法
  6
Continuous
 62
     7
370
   211
100
AcDbMText
 10
4813.886989654925
 20
-1646.192877473873
 30
0.0
 40
97.15499999999999
 41
127.5
 46
0.0
 71
     7
 72
     1
  1
{\fＭＳ ゴシック|b0|i0|c128|p49;61}
 11
6.123031769111886E-17
 21
1.0
 31
0.0
 73
     1
 44
1.0
  0
LINE
  5
137
330
1F
100
AcDbEntity
  8
1-B_寸法
  6
Continuous
 62
   120
370
     5
100
AcDbLine
 10
3373.886989654927
 20
-2343.520377473877
 30
0.0
 11
3508.886989654926
 21
-2343.520377473877
 31
0.0
  0
LWPOLYLINE
  5
138
330
1F
100
AcDbEntity
  8
1-B_寸法
  6
Continuous
 62
     7
370
     9
100
AcDbPolyline
 90
        4
 70
     1
 43
3.0
 10
3375.386989654927
 20
-2343.520377473877
 42
0.4142135623731
 10
3373.886989654927
 20
-2342.020377473877
 42
0.4142135623731
 10
3372.386989654927
 20
-2343.520377473877
 42
0.4142135623731
 10
3373.886989654927
 20
-2345.020377473877
 42
0.4142135623731
  0
LWPOLYLINE
  5
139
330
1F
100
AcDbEntity
  8
1-B_寸法
  6
Continuous
 62
     7
370
     9
100
AcDbPolyline
 90
        4
 70
     1
 43
3.0
 10
3510.386989654926
 20
-2343.520377473877
 42
0.4142135623731
 10
3508.886989654926
 20
-2342.020377473877
 42
0.4142135623731
 10
3507.386989654926
 20
-2343.520377473877
 42
0.4142135623731
 10
3508.886989654926
 20
-2345.020377473877
 42
0.4142135623731
  0
LINE
  5
13A
330
1F
100
AcDbEntity
  8
1-B_寸法
  6
Continuous
 62
   120
370
     5
100
AcDbLine
 10
3508.886989654926
 20
-2343.520377473877
 30
0.0
 11
4086.386989654926
 21
-2343.520377473877
 31
0.0
  0
LWPOLYLINE
  5
13B
330
1F
100
AcDbEntity
  8
1-B_寸法
  6
Continuous
 62
     7
370
     9
100
AcDbPolyline
 90
        4
 70
     1
 43
3.0
 10
4087.886989654926
 20
-2343.520377473877
 42
0.4142135623731
 10
4086.386989654926
 20
-2342.020377473877
 42
0.4142135623731
 10
4084.886989654925
 20
-2343.520377473877
 42
0.4142135623731
 10
4086.386989654926
 20
-2345.020377473877
 42
0.4142135623731
  0
MTEXT
  5
13C
330
1F
100
AcDbEntity
  8
1-B_寸法
  6
Continuous
 62
     7
370
   211
100
AcDbMText
 10
4571.636991219422
 20
-2173.990377473877
 30
0.0
 40
99.06
 41
195.0
 46
0.0
 71
     7
 72
     1
  1
{\fＭＳ ゴシック|b0|i0|c128|p49;1.3}
 73
     1
 44
1.0
  0
LINE
  5
13D
330
1F
100
AcDbEntity
  8
1-B_寸法
  6
Continuous
 62
   120
370
     5
100
AcDbLine
 10
4086.386989654926
 20
-2343.520377473877
 30
0.0
 11
4678.886989654925
 21
-2343.520377473877
 31
0.0
  0
LWPOLYLINE
  5
13E
330
1F
100
AcDbEntity
  8
1-B_寸法
  6
Continuous
 62
     7
370
     9
100
AcDbPolyline
 90
        4
 70
     1
 43
3.0
 10
4680.386989654925
 20
-2343.520377473877
 42
0.4142135623731
 10
4678.886989654925
 20
-2342.020377473877
 42
0.4142135623731
 10
4677.386989654925
 20
-2343.520377473877
 42
0.4142135623731
 10
4678.886989654925
 20
-2345.020377473877
 42
0.4142135623731
  0
LINE
  5
13F
330
1F
100
AcDbEntity
  8
1-B_寸法
  6
Continuous
 62
   120
370
     5
100
AcDbLine
 10
4678.886989654925
 20
-2343.520377473877
 30
0.0
 11
4678.886989654925
 21
-2178.520377473877
 31
0.0
  0
MTEXT
  5
140
330
1F
100
AcDbEntity
  8
1-B_寸法
  6
Continuous
 62
     7
370
   211
100
AcDbMText
 10
3411.386989654927
 20
-2342.800377473879
 30
0.0
 40
91.4399999999974
 41
59.99999999999829
 46
0.0
 71
     7
 72
     1
  1
{\fＭＳ ゴシック|b0|i0|c128|p49;9}
 73
     1
 44
1.0
  0
LINE
  5
141
330
1F
100
AcDbEntity
  8
1-B_寸法
  6
Continuous
 62
   120
370
     5
100
AcDbLine
 10
3373.886989654927
 20
-2508.520377473877
 30
0.0
 11
4678.886989654925
 21
-2508.520377473877
 31
0.0
  0
LWPOLYLINE
  5
142
330
1F
100
AcDbEntity
  8
1-B_寸法
  6
Continuous
 62
     7
370
     9
100
AcDbPolyline
 90
        4
 70
     1
 43
3.0
 10
3375.386989654927
 20
-2508.520377473877
 42
0.4142135623731
 10
3373.886989654927
 20
-2507.020377473877
 42
0.4142135623731
 10
3372.386989654927
 20
-2508.520377473877
 42
0.4142135623731
 10
3373.886989654927
 20
-2510.020377473877
 42
0.4142135623731
  0
LWPOLYLINE
  5
143
330
1F
100
AcDbEntity
  8
1-B_寸法
  6
Continuous
 62
     7
370
     9
100
AcDbPolyline
 90
        4
 70
     1
 43
3.0
 10
4680.386989654925
 20
-2508.520377473877
 42
0.4142135623731
 10
4678.886989654925
 20
-2507.020377473877
 42
0.4142135623731
 10
4677.386989654925
 20
-2508.520377473877
 42
0.4142135623731
 10
4678.886989654925
 20
-2510.020377473877
 42
0.4142135623731
  0
LINE
  5
144
330
1F
100
AcDbEntity
  8
1-B_寸法
  6
Continuous
 62
   120
370
     5
100
AcDbLine
 10
4678.886989654925
 20
-2508.520377473877
 30
0.0
 11
4678.886989654925
 21
-2178.520377473877
 31
0.0
  0
MTEXT
  5
145
330
1F
100
AcDbEntity
  8
1-B_寸法
  6
Continuous
 62
     7
370
   211
100
AcDbMText
 10
3666.386989654926
 20
-2338.514127473878
 30
0.0
 40
100.0125
 41
262.5
 46
0.0
 71
     7
 72
     1
  1
{\fＭＳ ゴシック|b0|i0|c128|p49;38.5}
 73
     1
 44
1.0
  0
LINE
  5
146
330
1F
100
AcDbEntity
  8
1-B_寸法
  6
Continuous
 62
   120
370
     5
100
AcDbLine
 10
4678.886989654925
 20
-2178.520377473877
 30
0.0
 11
4659.386992783924
 21
-2178.520377473877
 31
0.0
  0
LWPOLYLINE
  5
147
330
1F
100
AcDbEntity
  8
1-B_寸法
  6
Continuous
 62
     7
370
     9
100
AcDbPolyline
 90
        4
 70
     1
 43
3.0
 10
4680.386989654925
 20
-2178.520377473877
 42
0.4142135623731
 10
4678.886989654925
 20
-2177.020377473877
 42
0.4142135623731
 10
4677.386989654925
 20
-2178.520377473877
 42
0.4142135623731
 10
4678.886989654925
 20
-2180.020377473877
 42
0.4142135623731
  0
LWPOLYLINE
  5
148
330
1F
100
AcDbEntity
  8
1-B_寸法
  6
Continuous
 62
     7
370
     9
100
AcDbPolyline
 90
        4
 70
     1
 43
3.0
 10
4660.886992783924
 20
-2178.520377473877
 42
0.4142135623731
 10
4659.386992783924
 20
-2177.020377473877
 42
0.4142135623731
 10
4657.886992783923
 20
-2178.520377473877
 42
0.4142135623731
 10
4659.386992783924
 20
-2180.020377473877
 42
0.4142135623731
  0
LINE
  5
149
330
1F
100
AcDbEntity
  8
1-B_寸法
  6
Continuous
 62
   120
370
     5
100
AcDbLine
 10
4678.886989654925
 20
-2178.520377473877
 30
0.0
 11
4678.886989654925
 21
-2073.520377473877
 31
0.0
  0
LINE
  5
14A
330
1F
100
AcDbEntity
  8
1-B_寸法
  6
Continuous
 62
   120
370
     5
100
AcDbLine
 10
4659.386992783924
 20
-2178.520377473877
 30
0.0
 11
4659.386992783924
 21
-2073.520377473877
 31
0.0
  0
MTEXT
  5
14B
330
1F
100
AcDbEntity
  8
1-B_寸法
  6
Continuous
 62
     7
370
   211
100
AcDbMText
 10
4251.386989654925
 20
-2338.514127473878
 30
0.0
 40
100.0125
 41
262.5
 46
0.0
 71
     7
 72
     1
  1
{\fＭＳ ゴシック|b0|i0|c128|p49;39.5}
 73
     1
 44
1.0
  0
LINE
  5
14C
330
1F
100
AcDbEntity
  8
1-B_寸法
  6
Continuous
 62
   120
370
     5
100
AcDbLine
 10
4086.386989654926
 20
-2343.520377473877
 30
0.0
 11
4086.386989654926
 21
-2073.520377473877
 31
0.0
  0
LINE
  5
14D
330
1F
100
AcDbEntity
  8
1-B_寸法
  6
Continuous
 62
   120
370
     5
100
AcDbLine
 10
3373.886989654927
 20
-2343.520377473877
 30
0.0
 11
3373.886989654927
 21
-2073.520377473877
 31
0.0
  0
LINE
  5
14E
330
1F
100
AcDbEntity
  8
1-B_寸法
  6
Continuous
 62
   120
370
     5
100
AcDbLine
 10
3508.886989654926
 20
-2343.520377473877
 30
0.0
 11
3508.886989654926
 21
-2073.520377473877
 31
0.0
  0
LINE
  5
14F
330
1F
100
AcDbEntity
  8
1-B_寸法
  6
Continuous
 62
   120
370
     5
100
AcDbLine
 10
3373.886989654927
 20
-2508.520377473877
 30
0.0
 11
3373.886989654927
 21
-2073.520377473877
 31
0.0
  0
LINE
  5
150
330
1F
100
AcDbEntity
  8
1-4_枠
  6
Continuous
 62
    92
370
    13
100
AcDbLine
 10
3508.886989654926
 20
-188.3604754557038
 30
0.0
 11
3508.886989654926
 21
-2028.520377473877
 31
0.0
  0
LINE
  5
151
330
1F
100
AcDbEntity
  8
1-4_枠
  6
Continuous
 62
    92
370
    13
100
AcDbLine
 10
3373.886989654927
 20
-188.3604754557038
 30
0.0
 11
3373.886989654927
 21
-2028.520377473877
 31
0.0
  0
LINE
  5
152
330
1F
100
AcDbEntity
  8
1-4_枠
  6
Continuous
 62
    92
370
    13
100
AcDbLine
 10
4678.886989654925
 20
-188.3604754557038
 30
0.0
 11
4678.886989654925
 21
-2028.520377473877
 31
0.0
  0
LINE
  5
153
330
1F
100
AcDbEntity
  8
1-0_補助線
  6
JWW_HOJO
 62
   120
370
     5
100
AcDbLine
 10
4723.886989654925
 20
-188.3604754557038
 30
0.0
 11
4723.886989654925
 21
-2073.520377473877
 31
0.0
  0
LINE
  5
154
330
1F
100
AcDbEntity
  8
1-0_補助線
  6
JWW_HOJO
 62
   120
370
     5
100
AcDbLine
 10
4828.886989654925
 20
-188.3604754557038
 30
0.0
 11
4828.886989654925
 21
-2178.520377473877
 31
0.0
  0
LINE
  5
155
330
1F
100
AcDbEntity
  8
0-A_文字
  6
Continuous
 62
    92
370
    13
100
AcDbLine
 10
3057.112022678131
 20
170.3058710238909
 30
0.0
 11
5037.112022678131
 21
170.3058710238909
 31
0.0
  0
LINE
  5
156
330
1F
100
AcDbEntity
  8
0-A_文字
  6
Continuous
 62
    92
370
    13
100
AcDbLine
 10
3057.112022678131
 20
-2709.694128976108
 30
0.0
 11
5037.112022678131
 21
-2709.694128976108
 31
0.0
  0
LINE
  5
157
330
1F
100
AcDbEntity
  8
0-A_文字
  6
Continuous
 62
    92
370
    13
100
AcDbLine
 10
3057.112022678131
 20
11.15165638389072
 30
0.0
 11
5037.112022678131
 21
11.15165638389072
 31
0.0
  0
MTEXT
  5
158
330
1F
100
AcDbEntity
  8
1-B_寸法
  6
Continuous
 62
     7
370
   211
100
AcDbMText
 10
3962.636989654926
 20
-2504.942877473878
 30
0.0
 40
97.15499999999999
 41
127.5
 46
0.0
 71
     7
 72
     1
  1
{\fＭＳ ゴシック|b0|i0|c128|p49;87}
 73
     1
 44
1.0
  0
MTEXT
  5
159
330
1F
100
AcDbEntity
  8
1-B_寸法
  6
Continuous
 62
     7
370
     9
100
AcDbMText
 10
4288.119617752465
 20
-1497.269796166101
 30
0.0
 40
100.5839999999999
 41
329.9999999999996
 46
0.0
 71
     7
 72
     1
  1
{\fＭＳ ゴシック|b0|i0|c128|p49;φ4.2}
 11
0.7071067811865429
 21
-0.707106781186552
 31
0.0
 73
     1
 44
1.0
  0
MTEXT
  5
15A
330
1F
100
AcDbEntity
  8
1-A_文字
  6
Continuous
 62
     7
370
     9
100
AcDbMText
 10
3831.386989654926
 20
-355.5649924941154
 30
0.0
 40
99.05999999999968
 41
389.9999999999987
 46
0.0
 71
     7
 72
     1
  1
{\fＭＳ ゴシック|b0|i0|c128|p49;竪　枠}
 73
     1
 44
1.0
  0
LINE
  5
15B
330
1F
100
AcDbEntity
  8
0-A_文字
  6
Continuous
 62
     7
370
     9
100
AcDbLine
 10
1020.499126678547
 20
-2656.812631043518
 30
0.0
 11
990.4991266785479
 21
-2708.774155270583
 31
0.0
  0
LINE
  5
15C
330
1F
100
AcDbEntity
  8
0-A_文字
  6
Continuous
 62
     7
370
     9
100
AcDbLine
 10
960.4991266785473
 20
-2656.812631043518
 30
0.0
 11
1020.499126678547
 21
-2656.812631043518
 31
0.0
  0
LINE
  5
15D
330
1F
100
AcDbEntity
  8
0-A_文字
  6
Continuous
 62
     7
370
     9
100
AcDbLine
 10
960.4991266785473
 20
-2656.812631043518
 30
0.0
 11
990.4991266785471
 21
-2708.774155270583
 31
0.0
  0
LINE
  5
15E
330
1F
100
AcDbEntity
  8
0-3_仕上げ
  6
Continuous
 62
     7
370
     9
100
AcDbLine
 10
1977.112022678131
 20
-2709.694128976108
 30
0.0
 11
927.1120226781311
 21
-2709.694128976108
 31
0.0
  0
LINE
  5
15F
330
1F
100
AcDbEntity
  8
0-C_ハッチ
  6
Continuous
 62
   120
370
     5
100
AcDbLine
 10
1230.112022678124
 20
-916.5130086770023
 30
0.0
 11
1233.930902379027
 21
-912.6941289760987
 31
0.0
  0
LINE
  5
160
330
1F
100
AcDbEntity
  8
0-C_ハッチ
  6
Continuous
 62
   120
370
     5
100
AcDbLine
 10
1230.112022678138
 20
-958.9394626414974
 30
0.0
 11
1276.357356343525
 21
-912.6941289761111
 31
0.0
  0
LINE
  5
161
330
1F
100
AcDbEntity
  8
0-C_ハッチ
  6
Continuous
 62
   120
370
     5
100
AcDbLine
 10
1230.112022678122
 20
-1001.365916606021
 30
0.0
 11
1318.783810308044
 21
-912.6941289760987
 31
0.0
  0
LINE
  5
162
330
1F
100
AcDbEntity
  8
0-C_ハッチ
  6
Continuous
 62
   120
370
     5
100
AcDbLine
 10
1230.112022678137
 20
-1043.792370570514
 30
0.0
 11
1361.210264272551
 21
-912.6941289761012
 31
0.0
  0
LINE
  5
163
330
1F
100
AcDbEntity
  8
0-C_ハッチ
  6
Continuous
 62
   120
370
     5
100
AcDbLine
 10
1230.112022678121
 20
-1086.218824535039
 30
0.0
 11
1403.636718237064
 21
-912.6941289760953
 31
0.0
  0
LINE
  5
164
330
1F
100
AcDbEntity
  8
0-C_ハッチ
  6
Continuous
 62
   120
370
     5
100
AcDbLine
 10
1230.112022678135
 20
-1128.645278499534
 30
0.0
 11
1407.112022678119
 21
-951.6452784995481
 31
0.0
  0
LINE
  5
165
330
1F
100
AcDbEntity
  8
0-C_ハッチ
  6
Continuous
 62
   120
370
     5
100
AcDbLine
 10
1230.112022678117
 20
-1171.071732464059
 30
0.0
 11
1407.112022678118
 21
-994.0717324640584
 31
0.0
  0
LINE
  5
166
330
1F
100
AcDbEntity
  8
0-C_ハッチ
  6
Continuous
 62
   120
370
     5
100
AcDbLine
 10
1230.112022678133
 20
-1213.498186428552
 30
0.0
 11
1407.112022678133
 21
-1036.498186428553
 31
0.0
  0
LINE
  5
167
330
1F
100
AcDbEntity
  8
0-C_ハッチ
  6
Continuous
 62
   120
370
     5
100
AcDbLine
 10
1230.112022678141
 20
-1255.924640393052
 30
0.0
 11
1407.11202267813
 21
-1078.924640393063
 31
0.0
  0
LINE
  5
168
330
1F
100
AcDbEntity
  8
0-C_ハッチ
  6
Continuous
 62
   120
370
     5
100
AcDbLine
 10
1230.112022678131
 20
-1298.35109435757
 30
0.0
 11
1407.11202267813
 21
-1121.351094357571
 31
0.0
  0
LINE
  5
169
330
1F
100
AcDbEntity
  8
0-C_ハッチ
  6
Continuous
 62
   120
370
     5
100
AcDbLine
 10
1230.112022678138
 20
-1340.777548322072
 30
0.0
 11
1407.112022678126
 21
-1163.777548322083
 31
0.0
  0
LINE
  5
16A
330
1F
100
AcDbEntity
  8
0-C_ハッチ
  6
Continuous
 62
   120
370
     5
100
AcDbLine
 10
1230.112022678128
 20
-1383.20400228659
 30
0.0
 11
1407.11202267813
 21
-1206.204002286587
 31
0.0
  0
LINE
  5
16B
330
1F
100
AcDbEntity
  8
0-C_ハッチ
  6
Continuous
 62
   120
370
     5
100
AcDbLine
 10
1230.112022678135
 20
-1425.630456251092
 30
0.0
 11
1407.112022678122
 21
-1248.630456251105
 31
0.0
  0
LINE
  5
16C
330
1F
100
AcDbEntity
  8
0-C_ハッチ
  6
Continuous
 62
   120
370
     5
100
AcDbLine
 10
1230.112022678129
 20
-1468.056910215578
 30
0.0
 11
1407.11202267813
 21
-1291.056910215577
 31
0.0
  0
LINE
  5
16D
330
1F
100
AcDbEntity
  8
0-C_ハッチ
  6
Continuous
 62
   120
370
     5
100
AcDbLine
 10
1230.112022678135
 20
-1510.483364180052
 30
0.0
 11
1407.112022678123
 21
-1333.483364180064
 31
0.0
  0
LINE
  5
16E
330
1F
100
AcDbEntity
  8
0-C_ハッチ
  6
Continuous
 62
   120
370
     5
100
AcDbLine
 10
1230.11202267813
 20
-1552.909818144565
 30
0.0
 11
1407.11202267813
 21
-1375.909818144566
 31
0.0
  0
LINE
  5
16F
330
1F
100
AcDbEntity
  8
0-C_ハッチ
  6
Continuous
 62
   120
370
     5
100
AcDbLine
 10
1230.112022678145
 20
-1595.336272109059
 30
0.0
 11
1407.112022678129
 21
-1418.336272109076
 31
0.0
  0
LINE
  5
170
330
1F
100
AcDbEntity
  8
0-C_ハッチ
  6
Continuous
 62
   120
370
     5
100
AcDbLine
 10
1230.112022678128
 20
-1637.762726073586
 30
0.0
 11
1407.112022678127
 21
-1460.762726073586
 31
0.0
  0
LINE
  5
171
330
1F
100
AcDbEntity
  8
0-C_ハッチ
  6
Continuous
 62
   120
370
     5
100
AcDbLine
 10
1230.112022678142
 20
-1680.189180038078
 30
0.0
 11
1407.112022678127
 21
-1503.189180038094
 31
0.0
  0
LINE
  5
172
330
1F
100
AcDbEntity
  8
0-C_ハッチ
  6
Continuous
 62
   120
370
     5
100
AcDbLine
 10
1230.112022678126
 20
-1722.615634002604
 30
0.0
 11
1407.112022678126
 21
-1545.615634002604
 31
0.0
  0
LINE
  5
173
330
1F
100
AcDbEntity
  8
0-C_ハッチ
  6
Continuous
 62
   120
370
     5
100
AcDbLine
 10
1230.11202267814
 20
-1765.042087967097
 30
0.0
 11
1407.112022678141
 21
-1588.042087967096
 31
0.0
  0
LINE
  5
174
330
1F
100
AcDbEntity
  8
0-C_ハッチ
  6
Continuous
 62
   120
370
     5
100
AcDbLine
 10
1230.11202267814
 20
-1807.468541931607
 30
0.0
 11
1407.112022678127
 21
-1630.468541931618
 31
0.0
  0
LINE
  5
175
330
1F
100
AcDbEntity
  8
0-C_ハッチ
  6
Continuous
 62
   120
370
     5
100
AcDbLine
 10
1270.312889598139
 20
-1809.694128976114
 30
0.0
 11
1407.112022678138
 21
-1672.894995896115
 31
0.0
  0
LINE
  5
176
330
1F
100
AcDbEntity
  8
0-C_ハッチ
  6
Continuous
 62
   120
370
     5
100
AcDbLine
 10
1312.739343562657
 20
-1809.694128976105
 30
0.0
 11
1407.112022678124
 21
-1715.321449860639
 31
0.0
  0
LINE
  5
177
330
1F
100
AcDbEntity
  8
0-C_ハッチ
  6
Continuous
 62
   120
370
     5
100
AcDbLine
 10
1355.165797527158
 20
-1809.694128976112
 30
0.0
 11
1407.112022678137
 21
-1757.747903825134
 31
0.0
  0
LINE
  5
178
330
1F
100
AcDbEntity
  8
0-C_ハッチ
  6
Continuous
 62
   120
370
     5
100
AcDbLine
 10
1397.592251491684
 20
-1809.694128976095
 30
0.0
 11
1407.11202267812
 21
-1800.174357789658
 31
0.0
  0
LINE
  5
179
330
1F
100
AcDbEntity
  8
0-A_文字
  6
Continuous
 62
     7
370
     9
100
AcDbLine
 10
1296.271115238785
 20
-1003.793039214446
 30
0.0
 11
1586.930356934472
 21
-1439.78190175799
 31
0.0
  0
LINE
  5
17A
330
1F
100
AcDbEntity
  8
0-A_文字
  6
Continuous
 62
     7
370
     9
100
AcDbLine
 10
1586.930356934472
 20
-1439.78190175799
 30
0.0
 11
2046.912272460944
 21
-1439.78190175799
 31
0.0
  0
LINE
  5
17B
330
1F
100
AcDbEntity
  8
0-A_文字
  6
Continuous
 62
     7
370
     9
100
AcDbLine
 10
1838.570413018195
 20
-1149.34252979694
 30
0.0
 11
2298.552328544667
 21
-1149.34252979694
 31
0.0
  0
LINE
  5
17C
330
1F
100
AcDbEntity
  8
0-A_文字
  6
Continuous
 62
     7
370
     9
100
AcDbLine
 10
1671.97243562379
 20
-899.4455637053272
 30
0.0
 11
1838.570413018195
 21
-1149.34252979694
 31
0.0
  0
LINE
  5
17D
330
1F
100
AcDbEntity
  8
0-B_寸法
  6
Continuous
 62
   120
370
     5
100
AcDbLine
 10
2757.112022678132
 20
-909.694128976107
 30
0.0
 11
1977.112022678131
 21
-909.694128976107
 31
0.0
  0
LWPOLYLINE
  5
17E
330
1F
100
AcDbEntity
  8
0-B_寸法
  6
Continuous
 62
     7
370
     9
100
AcDbPolyline
 90
        4
 70
     1
 43
3.0
 10
2758.612022678131
 20
-909.694128976107
 42
0.4142135623731
 10
2757.112022678132
 20
-908.194128976107
 42
0.4142135623731
 10
2755.612022678132
 20
-909.694128976107
 42
0.4142135623731
 10
2757.112022678132
 20
-911.194128976107
 42
0.4142135623731
  0
LWPOLYLINE
  5
17F
330
1F
100
AcDbEntity
  8
0-B_寸法
  6
Continuous
 62
     7
370
     9
100
AcDbPolyline
 90
        4
 70
     1
 43
3.0
 10
2548.612022678132
 20
-909.694128976107
 42
0.4142135623731
 10
2547.112022678132
 20
-908.194128976107
 42
0.4142135623731
 10
2545.612022678132
 20
-909.694128976107
 42
0.4142135623731
 10
2547.112022678132
 20
-911.194128976107
 42
0.4142135623731
  0
LINE
  5
180
330
1F
100
AcDbEntity
  8
0-B_寸法
  6
Continuous
 62
   120
370
     5
100
AcDbLine
 10
2337.112022678131
 20
-840.6941289761062
 30
0.0
 11
1977.112022678131
 21
-840.6941289761062
 31
0.0
  0
LWPOLYLINE
  5
181
330
1F
100
AcDbEntity
  8
0-B_寸法
  6
Continuous
 62
     7
370
     9
100
AcDbPolyline
 90
        4
 70
     1
 43
3.0
 10
2338.612022678131
 20
-840.6941289761062
 42
0.4142135623731
 10
2337.112022678131
 20
-839.1941289761062
 42
0.4142135623731
 10
2335.612022678131
 20
-840.6941289761062
 42
0.4142135623731
 10
2337.112022678131
 20
-842.1941289761062
 42
0.4142135623731
  0
LWPOLYLINE
  5
182
330
1F
100
AcDbEntity
  8
0-B_寸法
  6
Continuous
 62
     7
370
     9
100
AcDbPolyline
 90
        4
 70
     1
 43
3.0
 10
2338.612022678131
 20
-909.694128976107
 42
0.4142135623731
 10
2337.112022678131
 20
-908.194128976107
 42
0.4142135623731
 10
2335.612022678131
 20
-909.694128976107
 42
0.4142135623731
 10
2337.112022678131
 20
-911.194128976107
 42
0.4142135623731
  0
LINE
  5
183
330
1F
100
AcDbEntity
  8
0-B_寸法
  6
Continuous
 62
   120
370
     5
100
AcDbLine
 10
2337.112022678131
 20
-909.694128976107
 30
0.0
 11
2337.112022678131
 21
-840.6941289761062
 31
0.0
  0
LINE
  5
184
330
1F
100
AcDbEntity
  8
0-3_仕上げ
  6
Continuous
 62
     7
370
     9
100
AcDbLine
 10
1977.112022678131
 20
-909.694128976107
 30
0.0
 11
1407.112022678131
 21
-909.694128976107
 31
0.0
  0
ARC
  5
185
330
1F
100
AcDbEntity
  8
0-7_金物
  6
JWW_DASHED1
 62
     7
370
     9
100
AcDbCircle
 10
1575.112022678131
 20
-639.694128976107
 30
0.0
 40
30.0
100
AcDbArc
 50
90.0
 51
180.0
  0
ARC
  5
186
330
1F
100
AcDbEntity
  8
0-7_金物
  6
JWW_DASHED1
 62
     7
370
     9
100
AcDbCircle
 10
1665.112022678131
 20
-639.694128976107
 30
0.0
 40
30.0
100
AcDbArc
 50
0.0
 51
90.0
  0
LINE
  5
187
330
1F
100
AcDbEntity
  8
0-7_金物
  6
JWW_DASHED1
 62
     7
370
     9
100
AcDbLine
 10
1665.112022678131
 20
-609.694128976107
 30
0.0
 11
1575.112022678131
 21
-609.694128976107
 31
0.0
  0
LINE
  5
188
330
1F
100
AcDbEntity
  8
0-7_金物
  6
Continuous
 62
     7
370
     9
100
AcDbLine
 10
1695.112022678132
 20
-639.694128976107
 30
0.0
 11
1695.112022678132
 21
-909.694128976107
 31
0.0
  0
LINE
  5
189
330
1F
100
AcDbEntity
  8
0-7_金物
  6
Continuous
 62
     7
370
     9
100
AcDbLine
 10
1545.112022678131
 20
-639.694128976107
 30
0.0
 11
1545.112022678131
 21
-909.694128976107
 31
0.0
  0
LINE
  5
18A
330
1F
100
AcDbEntity
  8
0-3_仕上げ
  6
Continuous
 62
     7
370
     9
100
AcDbLine
 10
1407.112022678131
 20
-909.694128976107
 30
0.0
 11
1407.112022678131
 21
-2709.694128976108
 31
0.0
  0
LINE
  5
18B
330
1F
100
AcDbEntity
  8
0-4_枠
  6
Continuous
 62
    92
370
    13
100
AcDbLine
 10
1230.112022678131
 20
-912.694128976108
 30
0.0
 11
1230.112022678131
 21
-1809.694128976107
 31
0.0
  0
LINE
  5
18C
330
1F
100
AcDbEntity
  8
0-4_枠
  6
Continuous
 62
    92
370
    13
100
AcDbLine
 10
1407.112022678131
 20
-912.694128976108
 30
0.0
 11
1230.112022678131
 21
-912.694128976108
 31
0.0
  0
LINE
  5
18D
330
1F
100
AcDbEntity
  8
0-4_枠
  6
Continuous
 62
    92
370
    13
100
AcDbLine
 10
1227.112022678131
 20
-1809.694128976107
 30
0.0
 11
1227.112022678131
 21
-909.694128976107
 31
0.0
  0
LINE
  5
18E
330
1F
100
AcDbEntity
  8
0-4_枠
  6
Continuous
 62
    92
370
    13
100
AcDbLine
 10
1407.112022678131
 20
-1809.694128976107
 30
0.0
 11
1227.112022678131
 21
-1809.694128976107
 31
0.0
  0
LINE
  5
18F
330
1F
100
AcDbEntity
  8
0-4_枠
  6
Continuous
 62
    92
370
    13
100
AcDbLine
 10
1407.112022678131
 20
-909.694128976107
 30
0.0
 11
1407.112022678131
 21
-1809.694128976107
 31
0.0
  0
LINE
  5
190
330
1F
100
AcDbEntity
  8
0-4_枠
  6
Continuous
 62
    92
370
    13
100
AcDbLine
 10
1227.112022678131
 20
-909.694128976107
 30
0.0
 11
1407.112022678131
 21
-909.694128976107
 31
0.0
  0
LINE
  5
191
330
1F
100
AcDbEntity
  8
0-7_金物
  6
Continuous
 62
     7
370
     9
100
AcDbLine
 10
1695.112022678132
 20
-895.1116162114681
 30
0.0
 11
1545.112022678131
 21
-895.1116162114681
 31
0.0
  0
LINE
  5
192
330
1F
100
AcDbEntity
  8
0-7_金物
  6
Continuous
 62
     7
370
     9
100
AcDbLine
 10
1611.112141449249
 20
-840.6941289761062
 30
0.0
 11
1629.111903907014
 21
-840.6941289761062
 31
0.0
  0
LINE
  5
193
330
1F
100
AcDbEntity
  8
0-7_金物
  6
Continuous
 62
     7
370
     9
100
AcDbLine
 10
1629.111903907014
 20
-840.6941289761062
 30
0.0
 11
1629.111903907014
 21
-881.3116162114692
 31
0.0
  0
LINE
  5
194
330
1F
100
AcDbEntity
  8
0-7_金物
  6
Continuous
 62
     7
370
     9
100
AcDbLine
 10
1611.112141449249
 20
-840.6941289761062
 30
0.0
 11
1611.112141449249
 21
-881.3116162114692
 31
0.0
  0
LINE
  5
195
330
1F
100
AcDbEntity
  8
0-7_金物
  6
Continuous
 62
     7
370
     9
100
AcDbLine
 10
1662.111715852749
 20
-881.3116162114692
 30
0.0
 11
1662.111715852749
 21
-895.1116162114681
 31
0.0
  0
LINE
  5
196
330
1F
100
AcDbEntity
  8
0-7_金物
  6
Continuous
 62
     7
370
     9
100
AcDbLine
 10
1578.111587184042
 20
-881.3116162114692
 30
0.0
 11
1578.111587184042
 21
-895.1116162114681
 31
0.0
  0
LINE
  5
197
330
1F
100
AcDbEntity
  8
0-7_金物
  6
Continuous
 62
     7
370
     9
100
AcDbLine
 10
1629.111903907014
 20
-895.1116162114681
 30
0.0
 11
1629.111903907014
 21
-897.6941289761055
 31
0.0
  0
LINE
  5
198
330
1F
100
AcDbEntity
  8
0-7_金物
  6
Continuous
 62
     7
370
     9
100
AcDbLine
 10
1611.112141449249
 20
-895.1116162114681
 30
0.0
 11
1611.112141449249
 21
-897.6941289761055
 31
0.0
  0
LINE
  5
199
330
1F
100
AcDbEntity
  8
0-7_金物
  6
Continuous
 62
     7
370
     9
100
AcDbLine
 10
1662.111715852749
 20
-881.3116162114692
 30
0.0
 11
1578.111587184042
 21
-881.3116162114692
 31
0.0
  0
LINE
  5
19A
330
1F
100
AcDbEntity
  8
0-7_金物
  6
Continuous
 62
     7
370
     9
100
AcDbLine
 10
1611.112141449249
 20
-897.6941289761055
 30
0.0
 11
1629.111903907014
 21
-897.6941289761055
 31
0.0
  0
LINE
  5
19B
330
1F
100
AcDbEntity
  8
0-3_仕上げ
  6
Continuous
 62
     7
370
     9
100
AcDbLine
 10
1407.112022678131
 20
-1809.694128976107
 30
0.0
 11
1977.112022678131
 21
-1809.694128976107
 31
0.0
  0
MTEXT
  5
19C
330
1F
100
AcDbEntity
  8
0-A_文字
  6
Continuous
 62
     7
370
     9
100
AcDbMText
 10
1855.720204808796
 20
-1143.515230570288
 30
0.0
 40
68.57999999999934
 41
359.9999999999966
 46
0.0
 71
     7
 72
     1
  1
{\fＭＳ ゴシック|b0|i0|c128|p49;土間金具}
 73
     1
 44
1.0
  0
MTEXT
  5
19D
330
1F
100
AcDbEntity
  8
0-A_文字
  6
Continuous
 62
     7
370
     9
100
AcDbMText
 10
1604.080148725071
 20
-1433.954602531338
 30
0.0
 40
68.58000000000033
 41
360.0000000000017
 46
0.0
 71
     7
 72
     1
  1
{\fＭＳ ゴシック|b0|i0|c128|p49;玄関巾木}
 73
     1
 44
1.0
  0
MTEXT
  5
19E
330
1F
100
AcDbEntity
  8
0-B_寸法
  6
Continuous
 62
     7
370
   211
100
AcDbMText
 10
2322.112022678131
 20
-838.6878789761074
 30
0.0
 40
100.0125000000013
 41
262.5000000000034
 46
0.0
 71
     7
 72
     1
  1
{\fＭＳ ゴシック|b0|i0|c128|p49;11.5}
 11
6.123031769111886E-17
 21
1.0
 31
0.0
 73
     1
 44
1.0
  0
LINE
  5
19F
330
1F
100
AcDbEntity
  8
0-4_枠
  6
Continuous
 62
   120
370
     5
100
AcDbLine
 10
1857.112022678131
 20
434.3061209381122
 30
0.0
 11
1857.112022678131
 21
-909.694128976107
 31
0.0
  0
LINE
  5
1A0
330
1F
100
AcDbEntity
  8
0-4_枠
  6
Continuous
 62
   120
370
     5
100
AcDbLine
 10
1335.112022678131
 20
434.3061209381122
 30
0.0
 11
1335.112022678131
 21
-909.694128976107
 31
0.0
  0
LINE
  5
1A1
330
1F
100
AcDbEntity
  8
0-0_補助線
  6
JWW_HOJO
 62
   120
370
     5
100
AcDbLine
 10
1977.112022678131
 20
434.3061209381122
 30
0.0
 11
1215.112022678131
 21
434.3061209381122
 31
0.0
  0
LINE
  5
1A2
330
1F
100
AcDbEntity
  8
0-0_補助線
  6
JWW_HOJO
 62
   120
370
     5
100
AcDbLine
 10
1977.112022678131
 20
554.3061209381096
 30
0.0
 11
1215.112022678131
 21
554.3061209381096
 31
0.0
  0
LINE
  5
1A3
330
1F
100
AcDbEntity
  8
0-C_ハッチ
  6
JWW_DASHED1
 62
   120
370
     5
100
AcDbLine
 10
1407.112022678135
 20
2241.55719644527
 30
0.0
 11
1482.112022678131
 21
2316.557196445267
 31
0.0
  0
LINE
  5
1A4
330
1F
100
AcDbEntity
  8
0-C_ハッチ
  6
JWW_DASHED1
 62
   120
370
     5
100
AcDbLine
 10
1407.112022678138
 20
2199.130789574073
 30
0.0
 11
1482.112022678135
 21
2274.13078957407
 31
0.0
  0
LINE
  5
1A5
330
1F
100
AcDbEntity
  8
0-C_ハッチ
  6
JWW_DASHED1
 62
   120
370
     5
100
AcDbLine
 10
1407.112022678131
 20
2156.704382702923
 30
0.0
 11
1482.112022678129
 21
2231.704382702916
 31
0.0
  0
LINE
  5
1A6
330
1F
100
AcDbEntity
  8
0-C_ハッチ
  6
JWW_DASHED1
 62
   120
370
     5
100
AcDbLine
 10
1407.112022678137
 20
2114.277975831727
 30
0.0
 11
1482.112022678131
 21
2189.277975831722
 31
0.0
  0
LINE
  5
1A7
330
1F
100
AcDbEntity
  8
0-C_ハッチ
  6
JWW_DASHED1
 62
   120
370
     5
100
AcDbLine
 10
1407.112022678125
 20
2071.851568960514
 30
0.0
 11
1482.112022678135
 21
2146.851568960524
 31
0.0
  0
LINE
  5
1A8
330
1F
100
AcDbEntity
  8
0-C_ハッチ
  6
JWW_DASHED1
 62
   120
370
     5
100
AcDbLine
 10
1407.112022678129
 20
2029.425162089316
 30
0.0
 11
1482.112022678138
 21
2104.425162089327
 31
0.0
  0
LINE
  5
1A9
330
1F
100
AcDbEntity
  8
0-C_ハッチ
  6
JWW_DASHED1
 62
   120
370
     5
100
AcDbLine
 10
1438.419546759608
 20
2018.306279299598
 30
0.0
 11
1482.112022678125
 21
2061.998755218116
 31
0.0
  0
LINE
  5
1AA
330
1F
100
AcDbEntity
  8
0-C_ハッチ
  6
JWW_DASHED1
 62
   120
370
     5
100
AcDbLine
 10
1480.845953630807
 20
2018.306279299598
 30
0.0
 11
1482.112022678125
 21
2019.572348346916
 31
0.0
  0
LINE
  5
1AB
330
1F
100
AcDbEntity
  8
0-3_仕上げ
  6
Continuous
 62
    40
370
    15
100
AcDbLine
 10
1407.112022678131
 20
2018.306279299598
 30
0.0
 11
1482.112022678131
 21
2018.306279299598
 31
0.0
  0
LINE
  5
1AC
330
1F
100
AcDbEntity
  8
0-B_寸法
  6
Continuous
 62
   120
370
     5
100
AcDbLine
 10
1850.956285134964
 20
1442.306279299597
 30
0.0
 11
1850.956285134964
 21
1622.306279299597
 31
0.0
  0
LINE
  5
1AD
330
1F
100
AcDbEntity
  8
0-B_寸法
  6
Continuous
 62
   120
370
     5
100
AcDbLine
 10
1389.112022678132
 20
1442.306279299597
 30
0.0
 11
1389.112022678132
 21
1622.306279299597
 31
0.0
  0
LWPOLYLINE
  5
1AE
330
1F
100
AcDbEntity
  8
0-B_寸法
  6
Continuous
 62
     7
370
     9
100
AcDbPolyline
 90
        4
 70
     1
 43
3.0
 10
1852.456285134963
 20
1442.306279299597
 42
0.4142135623731
 10
1850.956285134964
 20
1443.806279299597
 42
0.4142135623731
 10
1849.456285134964
 20
1442.306279299597
 42
0.4142135623731
 10
1850.956285134964
 20
1440.806279299597
 42
0.4142135623731
  0
LWPOLYLINE
  5
1AF
330
1F
100
AcDbEntity
  8
0-B_寸法
  6
Continuous
 62
     7
370
     9
100
AcDbPolyline
 90
        4
 70
     1
 43
3.0
 10
1390.612022678132
 20
1442.306279299597
 42
0.4142135623731
 10
1389.112022678132
 20
1443.806279299597
 42
0.4142135623731
 10
1387.612022678132
 20
1442.306279299597
 42
0.4142135623731
 10
1389.112022678132
 20
1440.806279299597
 42
0.4142135623731
  0
LINE
  5
1B0
330
1F
100
AcDbEntity
  8
0-B_寸法
  6
Continuous
 62
   120
370
     5
100
AcDbLine
 10
1389.112022678132
 20
1442.306279299597
 30
0.0
 11
1850.956285134964
 21
1442.306279299597
 31
0.0
  0
LINE
  5
1B1
330
1F
100
AcDbEntity
  8
0-C_ハッチ
  6
Continuous
 62
   120
370
     5
100
AcDbLine
 10
1389.11202267814
 20
1976.858826310338
 30
0.0
 11
1430.559475667395
 21
2018.306279299593
 31
0.0
  0
LINE
  5
1B2
330
1F
100
AcDbEntity
  8
0-C_ハッチ
  6
Continuous
 62
   120
370
     5
100
AcDbLine
 10
1389.112022678126
 20
1934.432372345816
 30
0.0
 11
1472.985929631918
 21
2018.306279299608
 31
0.0
  0
LINE
  5
1B3
330
1F
100
AcDbEntity
  8
0-C_ハッチ
  6
Continuous
 62
   120
370
     5
100
AcDbLine
 10
1389.112022678143
 20
1892.005918381324
 30
0.0
 11
1515.412383596417
 21
2018.306279299598
 31
0.0
  0
LINE
  5
1B4
330
1F
100
AcDbEntity
  8
0-C_ハッチ
  6
Continuous
 62
   120
370
     5
100
AcDbLine
 10
1389.112022678145
 20
1849.579464416818
 30
0.0
 11
1557.838837560927
 21
2018.3062792996
 31
0.0
  0
LINE
  5
1B5
330
1F
100
AcDbEntity
  8
0-C_ハッチ
  6
Continuous
 62
   120
370
     5
100
AcDbLine
 10
1389.112022678146
 20
1807.15301045231
 30
0.0
 11
1600.265291525438
 21
2018.306279299602
 31
0.0
  0
LINE
  5
1B6
330
1F
100
AcDbEntity
  8
0-C_ハッチ
  6
Continuous
 62
   120
370
     5
100
AcDbLine
 10
1546.691745489933
 20
1922.30627929959
 30
0.0
 11
1642.69174548995
 21
2018.306279299607
 31
0.0
  0
LINE
  5
1B7
330
1F
100
AcDbEntity
  8
0-C_ハッチ
  6
Continuous
 62
   120
370
     5
100
AcDbLine
 10
1426.691745489931
 20
1802.306279299587
 30
0.0
 11
1536.112022678141
 21
1911.726556487797
 31
0.0
  0
LINE
  5
1B8
330
1F
100
AcDbEntity
  8
0-C_ハッチ
  6
Continuous
 62
   120
370
     5
100
AcDbLine
 10
1589.11819945444
 20
1922.306279299586
 30
0.0
 11
1685.11819945445
 21
2018.306279299598
 31
0.0
  0
LINE
  5
1B9
330
1F
100
AcDbEntity
  8
0-C_ハッチ
  6
Continuous
 62
   120
370
     5
100
AcDbLine
 10
1469.118199454441
 20
1802.30627929959
 30
0.0
 11
1536.112022678137
 21
1869.300102523286
 31
0.0
  0
LINE
  5
1BA
330
1F
100
AcDbEntity
  8
0-C_ハッチ
  6
Continuous
 62
   120
370
     5
100
AcDbLine
 10
1631.544653418954
 20
1922.306279299593
 30
0.0
 11
1727.544653418956
 21
2018.306279299594
 31
0.0
  0
LINE
  5
1BB
330
1F
100
AcDbEntity
  8
0-C_ハッチ
  6
Continuous
 62
   120
370
     5
100
AcDbLine
 10
1511.544653418952
 20
1802.306279299593
 30
0.0
 11
1536.112022678136
 21
1826.873648558775
 31
0.0
  0
LINE
  5
1BC
330
1F
100
AcDbEntity
  8
0-C_ハッチ
  6
Continuous
 62
   120
370
     5
100
AcDbLine
 10
1673.971107383451
 20
1922.306279299583
 30
0.0
 11
1769.971107383469
 21
2018.3062792996
 31
0.0
  0
LINE
  5
1BD
330
1F
100
AcDbEntity
  8
0-C_ハッチ
  6
Continuous
 62
   120
370
     5
100
AcDbLine
 10
1704.112022678133
 20
1910.020740629756
 30
0.0
 11
1812.397561347977
 21
2018.306279299599
 31
0.0
  0
LINE
  5
1BE
330
1F
100
AcDbEntity
  8
0-C_ハッチ
  6
Continuous
 62
   120
370
     5
100
AcDbLine
 10
1704.112022678147
 20
1867.594286665261
 30
0.0
 11
1851.112022678126
 21
2014.59428666524
 31
0.0
  0
LINE
  5
1BF
330
1F
100
AcDbEntity
  8
0-C_ハッチ
  6
Continuous
 62
   120
370
     5
100
AcDbLine
 10
1704.112022678145
 20
1825.167832700752
 30
0.0
 11
1851.112022678129
 21
1972.167832700791
 31
0.0
  0
LINE
  5
1C0
330
1F
100
AcDbEntity
  8
0-C_ハッチ
  6
Continuous
 62
   120
370
     5
100
AcDbLine
 10
1723.676923241431
 20
1802.306279299585
 30
0.0
 11
1851.112022678133
 21
1929.741378736285
 31
0.0
  0
LINE
  5
1C1
330
1F
100
AcDbEntity
  8
0-C_ハッチ
  6
Continuous
 62
   120
370
     5
100
AcDbLine
 10
1766.103377205942
 20
1802.306279299586
 30
0.0
 11
1851.112022678134
 21
1887.314924771779
 31
0.0
  0
LINE
  5
1C2
330
1F
100
AcDbEntity
  8
0-C_ハッチ
  6
Continuous
 62
   120
370
     5
100
AcDbLine
 10
1808.529831170453
 20
1802.30627929959
 30
0.0
 11
1851.112022678136
 21
1844.888470807272
 31
0.0
  0
LINE
  5
1C3
330
1F
100
AcDbEntity
  8
0-C_ハッチ
  6
Continuous
 62
   120
370
     5
100
AcDbLine
 10
1850.956285134964
 20
1802.306279299593
 30
0.0
 11
1851.112022678137
 21
1802.462016842765
 31
0.0
  0
LINE
  5
1C4
330
1F
100
AcDbEntity
  8
0-B_寸法
  6
Continuous
 62
   120
370
     5
100
AcDbLine
 10
2757.112022678132
 20
2018.306279299598
 30
0.0
 11
1977.112022678131
 21
2018.306279299598
 31
0.0
  0
LWPOLYLINE
  5
1C5
330
1F
100
AcDbEntity
  8
0-B_寸法
  6
Continuous
 62
     7
370
     9
100
AcDbPolyline
 90
        4
 70
     1
 43
3.0
 10
2758.612022678131
 20
2018.306279299598
 42
0.4142135623731
 10
2757.112022678132
 20
2019.806279299598
 42
0.4142135623731
 10
2755.612022678132
 20
2018.306279299598
 42
0.4142135623731
 10
2757.112022678132
 20
2016.806279299598
 42
0.4142135623731
  0
LINE
  5
1C6
330
1F
100
AcDbEntity
  8
0-B_寸法
  6
Continuous
 62
   120
370
     5
100
AcDbLine
 10
2757.112022678132
 20
2018.306279299598
 30
0.0
 11
2757.112022678132
 21
-909.694128976107
 31
0.0
  0
LINE
  5
1C7
330
1F
100
AcDbEntity
  8
0-B_寸法
  6
Continuous
 62
   120
370
     5
100
AcDbLine
 10
2547.112022678132
 20
1802.306279299599
 30
0.0
 11
2547.112022678132
 21
-909.694128976107
 31
0.0
  0
LINE
  5
1C8
330
1F
100
AcDbEntity
  8
0-B_寸法
  6
Continuous
 62
   120
370
     5
100
AcDbLine
 10
2547.112022678132
 20
1802.306279299599
 30
0.0
 11
1977.112022678131
 21
1802.306279299599
 31
0.0
  0
LWPOLYLINE
  5
1C9
330
1F
100
AcDbEntity
  8
0-B_寸法
  6
Continuous
 62
     7
370
     9
100
AcDbPolyline
 90
        4
 70
     1
 43
3.0
 10
2548.612022678132
 20
1802.306279299599
 42
0.4142135623731
 10
2547.112022678132
 20
1803.806279299599
 42
0.4142135623731
 10
2545.612022678132
 20
1802.306279299599
 42
0.4142135623731
 10
2547.112022678132
 20
1800.806279299599
 42
0.4142135623731
  0
LWPOLYLINE
  5
1CA
330
1F
100
AcDbEntity
  8
0-B_寸法
  6
Continuous
 62
     7
370
     9
100
AcDbPolyline
 90
        4
 70
     1
 43
3.0
 10
2548.612022678132
 20
2018.306279299598
 42
0.4142135623731
 10
2547.112022678132
 20
2019.806279299598
 42
0.4142135623731
 10
2545.612022678132
 20
2018.306279299598
 42
0.4142135623731
 10
2547.112022678132
 20
2016.806279299598
 42
0.4142135623731
  0
LINE
  5
1CB
330
1F
100
AcDbEntity
  8
0-B_寸法
  6
Continuous
 62
   120
370
     5
100
AcDbLine
 10
2547.112022678132
 20
2018.306279299598
 30
0.0
 11
2547.112022678132
 21
1802.306279299599
 31
0.0
  0
LWPOLYLINE
  5
1CC
330
1F
100
AcDbEntity
  8
0-B_寸法
  6
Continuous
 62
     7
370
     9
100
AcDbPolyline
 90
        4
 70
     1
 43
3.0
 10
2338.612022678131
 20
1802.306279299599
 42
0.4142135623731
 10
2337.112022678131
 20
1803.806279299599
 42
0.4142135623731
 10
2335.612022678131
 20
1802.306279299599
 42
0.4142135623731
 10
2337.112022678131
 20
1800.806279299599
 42
0.4142135623731
  0
LINE
  5
1CD
330
1F
100
AcDbEntity
  8
0-B_寸法
  6
Continuous
 62
   120
370
     5
100
AcDbLine
 10
2337.112022678131
 20
1757.306370852333
 30
0.0
 11
2337.112022678131
 21
1802.306279299599
 31
0.0
  0
LINE
  5
1CE
330
1F
100
AcDbEntity
  8
0-B_寸法
  6
Continuous
 62
   120
370
     5
100
AcDbLine
 10
2337.112022678131
 20
1757.306370852333
 30
0.0
 11
1977.112022678131
 21
1757.306370852333
 31
0.0
  0
LWPOLYLINE
  5
1CF
330
1F
100
AcDbEntity
  8
0-B_寸法
  6
Continuous
 62
     7
370
     9
100
AcDbPolyline
 90
        4
 70
     1
 43
3.0
 10
2338.612022678131
 20
1757.306370852333
 42
0.4142135623731
 10
2337.112022678131
 20
1758.806370852333
 42
0.4142135623731
 10
2335.612022678131
 20
1757.306370852333
 42
0.4142135623731
 10
2337.112022678131
 20
1755.806370852333
 42
0.4142135623731
  0
LINE
  5
1D0
330
1F
100
AcDbEntity
  8
0-B_寸法
  6
Continuous
 62
   120
370
     5
100
AcDbLine
 10
2337.112022678131
 20
-840.6941289761062
 30
0.0
 11
2337.112022678131
 21
1757.306370852333
 31
0.0
  0
LINE
  5
1D1
330
1F
100
AcDbEntity
  8
0-4_枠
  6
Continuous
 62
   120
370
     5
100
AcDbLine
 10
1857.112022678131
 20
2018.306279299598
 30
0.0
 11
1857.112022678131
 21
554.3061209381096
 31
0.0
  0
LINE
  5
1D2
330
1F
100
AcDbEntity
  8
0-4_枠
  6
Continuous
 62
   120
370
     5
100
AcDbLine
 10
1335.112022678131
 20
2018.306279299598
 30
0.0
 11
1335.112022678131
 21
554.3061209381096
 31
0.0
  0
LINE
  5
1D3
330
1F
100
AcDbEntity
  8
0-4_枠
  6
Continuous
 62
   120
370
     5
100
AcDbLine
 10
1851.112022678131
 20
2018.306279299598
 30
0.0
 11
1857.112022678131
 21
2018.306279299598
 31
0.0
  0
LINE
  5
1D4
330
1F
100
AcDbEntity
  8
0-4_枠
  6
Continuous
 62
   120
370
     5
100
AcDbLine
 10
1389.112022678132
 20
2018.306279299598
 30
0.0
 11
1335.112022678131
 21
2018.306279299598
 31
0.0
  0
LINE
  5
1D5
330
1F
100
AcDbEntity
  8
0-7_金物
  6
Continuous
 62
     7
370
     9
100
AcDbLine
 10
1684.325625161402
 20
1796.306370852333
 30
0.0
 11
1722.1104271214
 21
1796.306370852333
 31
0.0
  0
LINE
  5
1D6
330
1F
100
AcDbEntity
  8
0-7_金物
  6
Continuous
 62
     7
370
     9
100
AcDbLine
 10
1536.11189625668
 20
1922.306920168737
 30
0.0
 11
1536.11189625668
 21
1802.306462405065
 31
0.0
  0
LINE
  5
1D7
330
1F
100
AcDbEntity
  8
0-7_金物
  6
Continuous
 62
     7
370
     9
100
AcDbLine
 10
1704.112149099583
 20
1922.306920168737
 30
0.0
 11
1536.11189625668
 21
1922.306920168737
 31
0.0
  0
LINE
  5
1D8
330
1F
100
AcDbEntity
  8
0-7_金物
  6
Continuous
 62
     7
370
     9
100
AcDbLine
 10
1704.112149099583
 20
1802.306462405065
 30
0.0
 11
1704.112149099583
 21
1922.306920168737
 31
0.0
  0
LINE
  5
1D9
330
1F
100
AcDbEntity
  8
0-7_金物
  6
Continuous
 62
     7
370
     9
100
AcDbLine
 10
1555.116012315029
 20
1796.306370852333
 30
0.0
 11
1518.112125138515
 21
1796.306370852333
 31
0.0
  0
LINE
  5
1DA
330
1F
100
AcDbEntity
  8
0-7_金物
  6
Continuous
 62
     7
370
     9
100
AcDbLine
 10
1590.110431412934
 20
1802.306462405065
 30
0.0
 11
1650.112119416474
 21
1802.306462405065
 31
0.0
  0
LINE
  5
1DB
330
1F
100
AcDbEntity
  8
0-7_金物
  6
Continuous
 62
     7
370
     9
100
AcDbLine
 10
1554.292037705654
 20
1815.518712160927
 30
0.0
 11
1590.110431412934
 21
1815.518712160927
 31
0.0
  0
LINE
  5
1DC
330
1F
100
AcDbEntity
  8
0-7_金物
  6
Continuous
 62
     7
370
     9
100
AcDbLine
 10
1650.112119416474
 20
1815.518712160927
 30
0.0
 11
1686.291285256623
 21
1815.518712160927
 31
0.0
  0
LINE
  5
1DD
330
1F
100
AcDbEntity
  8
0-7_金物
  6
Continuous
 62
     7
370
     9
100
AcDbLine
 10
1632.112359742397
 20
1757.306370852333
 30
0.0
 11
1632.112359742397
 21
1802.306462405065
 31
0.0
  0
LINE
  5
1DE
330
1F
100
AcDbEntity
  8
0-7_金物
  6
Continuous
 62
     7
370
     9
100
AcDbLine
 10
1608.111678818934
 20
1802.306462405065
 30
0.0
 11
1608.111678818934
 21
1757.306370852333
 31
0.0
  0
LINE
  5
1DF
330
1F
100
AcDbEntity
  8
0-7_金物
  6
Continuous
 62
     7
370
     9
100
AcDbLine
 10
1608.111678818934
 20
1757.306370852333
 30
0.0
 11
1632.112359742397
 21
1757.306370852333
 31
0.0
  0
LINE
  5
1E0
330
1F
100
AcDbEntity
  8
0-7_金物
  6
Continuous
 62
     7
370
     9
100
AcDbLine
 10
1722.1104271214
 20
1802.306462405065
 30
0.0
 11
1722.1104271214
 21
1796.306370852333
 31
0.0
  0
LINE
  5
1E1
330
1F
100
AcDbEntity
  8
0-7_金物
  6
Continuous
 62
     7
370
     9
100
AcDbLine
 10
1518.112125138515
 20
1802.306462405065
 30
0.0
 11
1518.112125138515
 21
1796.306370852333
 31
0.0
  0
LINE
  5
1E2
330
1F
100
AcDbEntity
  8
0-7_金物
  6
Continuous
 62
     7
370
     9
100
AcDbLine
 10
1684.325625161402
 20
1802.306462405065
 30
0.0
 11
1692.11255572247
 21
1802.306462405065
 31
0.0
  0
LINE
  5
1E3
330
1F
100
AcDbEntity
  8
0-7_金物
  6
Continuous
 62
     7
370
     9
100
AcDbLine
 10
1684.325625161402
 20
1796.306370852333
 30
0.0
 11
1684.325625161402
 21
1802.306462405065
 31
0.0
  0
LINE
  5
1E4
330
1F
100
AcDbEntity
  8
0-7_金物
  6
Continuous
 62
     7
370
     9
100
AcDbLine
 10
1704.112149099583
 20
1802.306462405065
 30
0.0
 11
1722.1104271214
 21
1802.306462405065
 31
0.0
  0
LINE
  5
1E5
330
1F
100
AcDbEntity
  8
0-7_金物
  6
Continuous
 62
     7
370
     9
100
AcDbLine
 10
1548.112228135342
 20
1802.306462405065
 30
0.0
 11
1555.116012315029
 21
1802.306462405065
 31
0.0
  0
LINE
  5
1E6
330
1F
100
AcDbEntity
  8
0-7_金物
  6
Continuous
 62
     7
370
     9
100
AcDbLine
 10
1555.116012315029
 20
1796.306370852333
 30
0.0
 11
1555.116012315029
 21
1802.306462405065
 31
0.0
  0
LINE
  5
1E7
330
1F
100
AcDbEntity
  8
0-7_金物
  6
Continuous
 62
     7
370
     9
100
AcDbLine
 10
1536.11189625668
 20
1802.306462405065
 30
0.0
 11
1518.112125138515
 21
1802.306462405065
 31
0.0
  0
LINE
  5
1E8
330
1F
100
AcDbEntity
  8
0-7_金物
  6
Continuous
 62
     7
370
     9
100
AcDbLine
 10
1590.110431412934
 20
1881.518712160927
 30
0.0
 11
1554.292037705654
 21
1881.518712160927
 31
0.0
  0
LINE
  5
1E9
330
1F
100
AcDbEntity
  8
0-7_金物
  6
Continuous
 62
     7
370
     9
100
AcDbLine
 10
1554.292037705654
 20
1881.518712160927
 30
0.0
 11
1554.292037705654
 21
1815.518712160927
 31
0.0
  0
LINE
  5
1EA
330
1F
100
AcDbEntity
  8
0-7_金物
  6
Continuous
 62
     7
370
     9
100
AcDbLine
 10
1590.110431412934
 20
1898.306920168738
 30
0.0
 11
1590.110431412934
 21
1802.306462405065
 31
0.0
  0
LINE
  5
1EB
330
1F
100
AcDbEntity
  8
0-7_金物
  6
Continuous
 62
     7
370
     9
100
AcDbLine
 10
1650.112119416474
 20
1898.306920168738
 30
0.0
 11
1590.110431412934
 21
1898.306920168738
 31
0.0
  0
LINE
  5
1EC
330
1F
100
AcDbEntity
  8
0-7_金物
  6
Continuous
 62
     7
370
     9
100
AcDbLine
 10
1650.112119416474
 20
1802.306462405065
 30
0.0
 11
1650.112119416474
 21
1898.306920168738
 31
0.0
  0
LINE
  5
1ED
330
1F
100
AcDbEntity
  8
0-7_金物
  6
Continuous
 62
     7
370
     9
100
AcDbLine
 10
1686.291285256623
 20
1881.518712160927
 30
0.0
 11
1650.112119416474
 21
1881.518712160927
 31
0.0
  0
LINE
  5
1EE
330
1F
100
AcDbEntity
  8
0-7_金物
  6
Continuous
 62
     7
370
     9
100
AcDbLine
 10
1686.291285256623
 20
1815.518712160927
 30
0.0
 11
1686.291285256623
 21
1881.518712160927
 31
0.0
  0
LINE
  5
1EF
330
1F
100
AcDbEntity
  8
0-7_金物
  6
Continuous
 62
     7
370
     9
100
AcDbLine
 10
1692.11255572247
 20
1802.306462405065
 30
0.0
 11
1692.11255572247
 21
1910.306553957801
 31
0.0
  0
LINE
  5
1F0
330
1F
100
AcDbEntity
  8
0-7_金物
  6
Continuous
 62
     7
370
     9
100
AcDbLine
 10
1692.11255572247
 20
1910.306553957801
 30
0.0
 11
1548.112228135342
 21
1910.306553957801
 31
0.0
  0
LINE
  5
1F1
330
1F
100
AcDbEntity
  8
0-7_金物
  6
Continuous
 62
     7
370
     9
100
AcDbLine
 10
1548.112228135342
 20
1910.306553957801
 30
0.0
 11
1548.112228135342
 21
1802.306462405065
 31
0.0
  0
LINE
  5
1F2
330
1F
100
AcDbEntity
  8
0-4_枠
  6
Continuous
 62
    92
370
    13
100
AcDbLine
 10
1851.112022678131
 20
1802.306279299599
 30
0.0
 11
1704.112022678132
 21
1802.306279299599
 31
0.0
  0
LINE
  5
1F3
330
1F
100
AcDbEntity
  8
0-4_枠
  6
Continuous
 62
    92
370
    13
100
AcDbLine
 10
1704.112022678132
 20
1922.306279299599
 30
0.0
 11
1704.112022678132
 21
1802.306279299599
 31
0.0
  0
LINE
  5
1F4
330
1F
100
AcDbEntity
  8
0-4_枠
  6
Continuous
 62
    92
370
    13
100
AcDbLine
 10
1536.112022678132
 20
1802.306279299599
 30
0.0
 11
1389.112022678132
 21
1802.306279299599
 31
0.0
  0
LINE
  5
1F5
330
1F
100
AcDbEntity
  8
0-4_枠
  6
Continuous
 62
    92
370
    13
100
AcDbLine
 10
1536.112022678132
 20
1922.306279299599
 30
0.0
 11
1536.112022678132
 21
1802.306279299599
 31
0.0
  0
LINE
  5
1F6
330
1F
100
AcDbEntity
  8
0-4_枠
  6
Continuous
 62
    92
370
    13
100
AcDbLine
 10
1704.112022678132
 20
1922.306279299599
 30
0.0
 11
1536.112022678132
 21
1922.306279299599
 31
0.0
  0
LINE
  5
1F7
330
1F
100
AcDbEntity
  8
0-4_枠
  6
Continuous
 62
    92
370
    13
100
AcDbLine
 10
1389.112022678132
 20
1802.306279299599
 30
0.0
 11
1389.112022678132
 21
2018.306279299598
 31
0.0
  0
LINE
  5
1F8
330
1F
100
AcDbEntity
  8
0-4_枠
  6
Continuous
 62
    92
370
    13
100
AcDbLine
 10
1851.112022678131
 20
2018.306279299598
 30
0.0
 11
1851.112022678131
 21
1802.306279299599
 31
0.0
  0
LINE
  5
1F9
330
1F
100
AcDbEntity
  8
0-4_枠
  6
Continuous
 62
    92
370
    13
100
AcDbLine
 10
1389.112022678132
 20
2018.306279299598
 30
0.0
 11
1851.112022678131
 21
2018.306279299598
 31
0.0
  0
MTEXT
  5
1FA
330
1F
100
AcDbEntity
  8
0-B_寸法
  6
Continuous
 62
     7
370
   211
100
AcDbMText
 10
2532.112022678132
 20
1835.133779299597
 30
0.0
 40
97.15499999999999
 41
127.5
 46
0.0
 71
     7
 72
     1
  1
{\fＭＳ ゴシック|b0|i0|c128|p49;36}
 11
6.123031769111886E-17
 21
1.0
 31
0.0
 73
     1
 44
1.0
  0
MTEXT
  5
1FB
330
1F
100
AcDbEntity
  8
0-B_寸法
  6
Continuous
 62
     7
370
   211
100
AcDbMText
 10
2322.112022678131
 20
1539.836370852333
 30
0.0
 40
99.06
 41
195.0
 46
0.0
 71
     7
 72
     1
  1
{\fＭＳ ゴシック|b0|i0|c128|p49;7.5}
 11
6.123031769111886E-17
 21
1.0
 31
0.0
 73
     1
 44
1.0
  0
MTEXT
  5
1FC
330
1F
100
AcDbEntity
  8
0-B_寸法
  6
Continuous
 62
     7
370
   211
100
AcDbMText
 10
1556.284153906548
 20
1445.883779299597
 30
0.0
 40
97.15499999999999
 41
127.5
 46
0.0
 71
     7
 72
     1
  1
{\fＭＳ ゴシック|b0|i0|c128|p49;77}
 73
     1
 44
1.0
  0
MTEXT
  5
1FD
330
1F
100
AcDbEntity
  8
0-A_文字
  6
Continuous
 62
     7
370
     9
100
AcDbMText
 10
1215.112022678131
 20
2507.177901103481
 30
0.0
 40
91.44
 41
600.0
 46
0.0
 71
     7
 72
     1
  1
{\fＭＳ ゴシック|b0|i0|c128|p49;■縦断面図}
 73
     1
 44
1.0
  0
LINE
  5
1FE
330
1F
100
AcDbEntity
  8
0-0_補助線
  6
JWW_HOJO
 62
   120
370
     5
100
AcDbLine
 10
1215.112022678131
 20
2318.306279299598
 30
0.0
 11
1215.112022678131
 21
-909.694128976107
 31
0.0
  0
LINE
  5
1FF
330
1F
100
AcDbEntity
  8
0-0_補助線
  6
JWW_HOJO
 62
   120
370
     5
100
AcDbLine
 10
2757.112022678132
 20
2318.306279299598
 30
0.0
 11
2757.112022678132
 21
-909.694128976107
 31
0.0
  0
LINE
  5
200
330
1F
100
AcDbEntity
  8
0-1_通り芯
  6
JWW_CENTER1
 62
   120
370
     5
100
AcDbLine
 10
1620.112022678131
 20
2318.306279299598
 30
0.0
 11
1620.112022678131
 21
-981.6941067065243
 31
0.0
  0
LINE
  5
201
330
1F
100
AcDbEntity
  8
0-C_ハッチ
  6
JWW_DASHED1
 62
   120
370
     5
100
AcDbLine
 10
1407.112022678131
 20
2283.983603316467
 30
0.0
 11
1441.434698661261
 21
2318.306279299598
 31
0.0
  0
LINE
  5
202
330
1F
100
AcDbEntity
  8
0-3_仕上げ
  6
Continuous
 62
    40
370
    15
100
AcDbLine
 10
1407.112022678131
 20
2318.306279299598
 30
0.0
 11
1407.112022678131
 21
2018.306279299598
 31
0.0
  0
LINE
  5
203
330
1F
100
AcDbEntity
  8
0-3_仕上げ
  6
Continuous
 62
    40
370
    15
100
AcDbLine
 10
1482.112022678131
 20
2318.306279299598
 30
0.0
 11
1482.112022678131
 21
2018.306279299598
 31
0.0
  0
LINE
  5
204
330
1F
100
AcDbEntity
  8
0-0_補助線
  6
JWW_HOJO
 62
   120
370
     5
100
AcDbLine
 10
2547.112022678132
 20
2318.306279299598
 30
0.0
 11
2547.112022678132
 21
-909.694128976107
 31
0.0
  0
LINE
  5
205
330
1F
100
AcDbEntity
  8
0-0_補助線
  6
JWW_HOJO
 62
   120
370
     5
100
AcDbLine
 10
2337.112022678131
 20
2318.306279299598
 30
0.0
 11
2337.112022678131
 21
-909.694128976107
 31
0.0
  0
LINE
  5
206
330
1F
100
AcDbEntity
  8
0-0_補助線
  6
JWW_HOJO
 62
   120
370
     5
100
AcDbLine
 10
1977.112022678131
 20
2318.306279299598
 30
0.0
 11
1977.112022678131
 21
-909.694128976107
 31
0.0
  0
LINE
  5
207
330
1F
100
AcDbEntity
  8
0-0_補助線
  6
JWW_HOJO
 62
   120
370
     5
100
AcDbLine
 10
1215.112022678131
 20
2318.306279299598
 30
0.0
 11
2757.112022678132
 21
2318.306279299598
 31
0.0
  0
MTEXT
  5
208
330
1F
100
AcDbEntity
  8
0-B_寸法
  6
Continuous
 62
     7
370
   211
100
AcDbMText
 10
-2762.340610885906
 20
-474.8938790618912
 30
0.0
 40
101.6
 41
600.0
 46
0.0
 71
     7
 72
     1
  1
{\fＭＳ ゴシック|b0|i0|c128|p49;枠外＝706}
 73
     1
 44
1.0
  0
MTEXT
  5
209
330
1F
100
AcDbEntity
  8
0-B_寸法
  6
Continuous
 62
     7
370
   211
100
AcDbMText
 10
-713.9690882351986
 20
-267.1163790618912
 30
0.0
 40
97.15499999999999
 41
127.5
 46
0.0
 71
     7
 72
     1
  1
{\fＭＳ ゴシック|b0|i0|c128|p49;24}
 73
     1
 44
1.0
  0
MTEXT
  5
20A
330
1F
100
AcDbEntity
  8
0-B_寸法
  6
Continuous
 62
     7
370
   211
100
AcDbMText
 10
-3234.840610885907
 20
-264.5073573227608
 30
0.0
 40
102.3730434782609
 41
1545.0
 46
0.0
 71
     7
 72
     1
  1
{\fＭＳ ゴシック|b0|i0|c128|p49;見えがかり枠内寸法＝658}
 73
     1
 44
1.0
  0
MTEXT
  5
20B
330
1F
100
AcDbEntity
  8
0-B_寸法
  6
Continuous
 62
     7
370
   211
100
AcDbMText
 10
-4338.212133536613
 20
-267.1163790618912
 30
0.0
 40
97.15499999999999
 41
127.5
 46
0.0
 71
     7
 72
     1
  1
{\fＭＳ ゴシック|b0|i0|c128|p49;24}
 73
     1
 44
1.0
  0
MTEXT
  5
20C
330
1F
100
AcDbEntity
  8
0-B_寸法
  6
Continuous
 62
     7
370
   211
100
AcDbMText
 10
-3930.002725214717
 20
419.1336209381105
 30
0.0
 40
97.15499999999999
 41
127.5
 46
0.0
 71
     7
 72
     1
  1
{\fＭＳ ゴシック|b0|i0|c128|p49;87}
 11
6.123031769111886E-17
 21
1.0
 31
0.0
 73
     1
 44
1.0
  0
MTEXT
  5
20D
330
1F
100
AcDbEntity
  8
0-B_寸法
  6
Continuous
 62
     7
370
   211
100
AcDbMText
 10
-875.2190882351986
 20
1065.836120938109
 30
0.0
 40
99.06
 41
195.0
 46
0.0
 71
     7
 72
     1
  1
{\fＭＳ ゴシック|b0|i0|c128|p49;3.5}
 73
     1
 44
1.0
  0
MTEXT
  5
20E
330
1F
100
AcDbEntity
  8
0-B_寸法
  6
Continuous
 62
     7
370
   211
100
AcDbMText
 10
-2762.340610885906
 20
1067.106120938109
 30
0.0
 40
101.6
 41
600.0
 46
0.0
 71
     7
 72
     1
  1
{\fＭＳ ゴシック|b0|i0|c128|p49;ＤＷ＝669}
 73
     1
 44
1.0
  0
MTEXT
  5
20F
330
1F
100
AcDbEntity
  8
0-B_寸法
  6
Continuous
 62
     7
370
   211
100
AcDbMText
 10
-4244.462133536613
 20
1065.836120938109
 30
0.0
 40
99.06
 41
195.0
 46
0.0
 71
     7
 72
     1
  1
{\fＭＳ ゴシック|b0|i0|c128|p49;3.5}
 73
     1
 44
1.0
  0
MTEXT
  5
210
330
1F
100
AcDbEntity
  8
0-B_寸法
  6
Continuous
 62
     7
370
   211
100
AcDbMText
 10
-686.9690882351983
 20
1274.883620938109
 30
0.0
 40
97.15499999999999
 41
127.5
 46
0.0
 71
     7
 72
     1
  1
{\fＭＳ ゴシック|b0|i0|c128|p49;15}
 73
     1
 44
1.0
  0
MTEXT
  5
211
330
1F
100
AcDbEntity
  8
0-B_寸法
  6
Continuous
 62
     7
370
   211
100
AcDbMText
 10
-2762.340610885906
 20
1277.106120938109
 30
0.0
 40
101.6
 41
600.0
 46
0.0
 71
     7
 72
     1
  1
{\fＭＳ ゴシック|b0|i0|c128|p49;枠内＝676}
 73
     1
 44
1.0
  0
MTEXT
  5
212
330
1F
100
AcDbEntity
  8
0-B_寸法
  6
Continuous
 62
     7
370
   211
100
AcDbMText
 10
-4365.212133536614
 20
1274.883620938109
 30
0.0
 40
97.15499999999999
 41
127.5
 46
0.0
 71
     7
 72
     1
  1
{\fＭＳ ゴシック|b0|i0|c128|p49;15}
 73
     1
 44
1.0
  0
LINE
  5
213
330
1F
100
AcDbEntity
  8
0-0_補助線
  6
JWW_HOJO
 62
   120
370
     5
100
AcDbLine
 10
-2462.340610885906
 20
851.306120938109
 30
0.0
 11
-2462.340610885906
 21
89.30612093810879
 31
0.0
  0
LINE
  5
214
330
1F
100
AcDbEntity
  8
0-0_補助線
  6
JWW_HOJO
 62
   120
370
     5
100
AcDbLine
 10
-3254.40137221126
 20
710.3061209381101
 30
0.0
 11
-3254.40137221126
 21
278.3061209381108
 31
0.0
  0
LINE
  5
215
330
1F
100
AcDbEntity
  8
0-0_補助線
  6
JWW_HOJO
 62
   120
370
     5
100
AcDbLine
 10
-1670.279849560552
 20
710.3061209381101
 30
0.0
 11
-1670.279849560552
 21
278.3061209381108
 31
0.0
  0
LINE
  5
216
330
1F
100
AcDbEntity
  8
0-0_補助線
  6
JWW_HOJO
 62
   120
370
     5
100
AcDbLine
 10
-1550.279849560552
 20
710.3061209381101
 30
0.0
 11
-1550.279849560552
 21
278.3061209381108
 31
0.0
  0
LINE
  5
217
330
1F
100
AcDbEntity
  8
0-0_補助線
  6
JWW_HOJO
 62
   120
370
     5
100
AcDbLine
 10
-3374.40137221126
 20
710.3061209381101
 30
0.0
 11
-3374.40137221126
 21
278.3061209381108
 31
0.0
  0
LINE
  5
218
330
1F
100
AcDbEntity
  8
0-0_補助線
  6
JWW_HOJO
 62
   120
370
     5
100
AcDbLine
 10
-4724.462118690224
 20
1271.306120938109
 30
0.0
 11
-4724.462118690224
 21
-480.6938790618912
 31
0.0
  0
LINE
  5
219
330
1F
100
AcDbEntity
  8
0-0_補助線
  6
JWW_HOJO
 62
   120
370
     5
100
AcDbLine
 10
-188.2191377351992
 20
1271.306120938109
 30
0.0
 11
-188.2191377351992
 21
-480.6938790618912
 31
0.0
  0
LINE
  5
21A
330
1F
100
AcDbEntity
  8
0-0_補助線
  6
JWW_HOJO
 62
   120
370
     5
100
AcDbLine
 10
-4724.462118690224
 20
1271.306120938109
 30
0.0
 11
-188.2191377351992
 21
1271.306120938109
 31
0.0
  0
LINE
  5
21B
330
1F
100
AcDbEntity
  8
0-0_補助線
  6
JWW_HOJO
 62
   120
370
     5
100
AcDbLine
 10
-4724.462118690224
 20
1061.306120938109
 30
0.0
 11
-188.2191377351992
 21
1061.306120938109
 31
0.0
  0
LINE
  5
21C
330
1F
100
AcDbEntity
  8
0-0_補助線
  6
JWW_HOJO
 62
   120
370
     5
100
AcDbLine
 10
-4724.462118690224
 20
851.306120938109
 30
0.0
 11
-188.2191377351992
 21
851.306120938109
 31
0.0
  0
LINE
  5
21D
330
1F
100
AcDbEntity
  8
0-0_補助線
  6
JWW_HOJO
 62
   120
370
     5
100
AcDbLine
 10
-4724.462118690224
 20
-480.6938790618912
 30
0.0
 11
-188.2191377351992
 21
-480.6938790618912
 31
0.0
  0
LINE
  5
21E
330
1F
100
AcDbEntity
  8
0-0_補助線
  6
JWW_HOJO
 62
   120
370
     5
100
AcDbLine
 10
-4724.462118690224
 20
-270.6938790618912
 30
0.0
 11
-188.2191377351992
 21
-270.6938790618912
 31
0.0
  0
LINE
  5
21F
330
1F
100
AcDbEntity
  8
0-0_補助線
  6
JWW_HOJO
 62
   120
370
     5
100
AcDbLine
 10
-4724.462118690224
 20
89.30612093810879
 30
0.0
 11
-188.2191377351992
 21
89.30612093810879
 31
0.0
  0
LINE
  5
220
330
1F
100
AcDbEntity
  8
0-C_ハッチ
  6
JWW_DASHED1
 62
   120
370
     5
100
AcDbLine
 10
-188.2191377351992
 20
336.9985622030214
 30
0.0
 11
-243.9115790001057
 21
281.3061209381158
 31
0.0
  0
LINE
  5
221
330
1F
100
AcDbEntity
  8
0-C_ハッチ
  6
JWW_DASHED1
 62
   120
370
     5
100
AcDbLine
 10
-188.2191377351992
 20
294.5721553318222
 30
0.0
 11
-201.4851721289057
 21
281.3061209381158
 31
0.0
  0
LINE
  5
222
330
1F
100
AcDbEntity
  8
0-3_仕上げ
  6
Continuous
 62
    40
370
    15
100
AcDbLine
 10
-578.2190882351974
 20
281.306120938109
 30
0.0
 11
-188.2191377351992
 21
281.306120938109
 31
0.0
  0
LINE
  5
223
330
1F
100
AcDbEntity
  8
0-3_仕上げ
  6
Continuous
 62
    40
370
    15
100
AcDbLine
 10
-578.2190882351974
 20
356.306120938109
 30
0.0
 11
-188.2191377351992
 21
356.306120938109
 31
0.0
  0
LINE
  5
224
330
1F
100
AcDbEntity
  8
0-B_寸法
  6
Continuous
 62
   120
370
     5
100
AcDbLine
 10
-4346.462133536614
 20
1271.306120938109
 30
0.0
 11
-4346.462133536614
 21
851.306120938109
 31
0.0
  0
LWPOLYLINE
  5
225
330
1F
100
AcDbEntity
  8
0-B_寸法
  6
Continuous
 62
     7
370
     9
100
AcDbPolyline
 90
        4
 70
     1
 43
3.0
 10
-4344.962133536614
 20
1271.306120938109
 42
0.4142135623731
 10
-4346.462133536614
 20
1272.806120938109
 42
0.4142135623731
 10
-4347.962133536615
 20
1271.306120938109
 42
0.4142135623731
 10
-4346.462133536614
 20
1269.806120938109
 42
0.4142135623731
  0
LINE
  5
226
330
1F
100
AcDbEntity
  8
0-B_寸法
  6
Continuous
 62
   120
370
     5
100
AcDbLine
 10
-4256.462133536614
 20
1271.306120938109
 30
0.0
 11
-4346.462133536614
 21
1271.306120938109
 31
0.0
  0
LWPOLYLINE
  5
227
330
1F
100
AcDbEntity
  8
0-B_寸法
  6
Continuous
 62
     7
370
     9
100
AcDbPolyline
 90
        4
 70
     1
 43
3.0
 10
-4254.962133536614
 20
1271.306120938109
 42
0.4142135623731
 10
-4256.462133536614
 20
1272.806120938109
 42
0.4142135623731
 10
-4257.962133536615
 20
1271.306120938109
 42
0.4142135623731
 10
-4256.462133536614
 20
1269.806120938109
 42
0.4142135623731
  0
LINE
  5
228
330
1F
100
AcDbEntity
  8
0-B_寸法
  6
Continuous
 62
   120
370
     5
100
AcDbLine
 10
-668.2190882351974
 20
1271.306120938109
 30
0.0
 11
-4256.462133536614
 21
1271.306120938109
 31
0.0
  0
LINE
  5
229
330
1F
100
AcDbEntity
  8
0-B_寸法
  6
Continuous
 62
   120
370
     5
100
AcDbLine
 10
-578.2190882351974
 20
1271.306120938109
 30
0.0
 11
-578.2190882351974
 21
851.306120938109
 31
0.0
  0
LWPOLYLINE
  5
22A
330
1F
100
AcDbEntity
  8
0-B_寸法
  6
Continuous
 62
     7
370
     9
100
AcDbPolyline
 90
        4
 70
     1
 43
3.0
 10
-666.7190882351974
 20
1271.306120938109
 42
0.4142135623731
 10
-668.2190882351974
 20
1272.806120938109
 42
0.4142135623731
 10
-669.7190882351975
 20
1271.306120938109
 42
0.4142135623731
 10
-668.2190882351974
 20
1269.806120938109
 42
0.4142135623731
  0
LWPOLYLINE
  5
22B
330
1F
100
AcDbEntity
  8
0-B_寸法
  6
Continuous
 62
     7
370
     9
100
AcDbPolyline
 90
        4
 70
     1
 43
3.0
 10
-576.7190882351974
 20
1271.306120938109
 42
0.4142135623731
 10
-578.2190882351974
 20
1272.806120938109
 42
0.4142135623731
 10
-579.7190882351975
 20
1271.306120938109
 42
0.4142135623731
 10
-578.2190882351974
 20
1269.806120938109
 42
0.4142135623731
  0
LINE
  5
22C
330
1F
100
AcDbEntity
  8
0-B_寸法
  6
Continuous
 62
   120
370
     5
100
AcDbLine
 10
-578.2190882351974
 20
1271.306120938109
 30
0.0
 11
-668.2190882351974
 21
1271.306120938109
 31
0.0
  0
LINE
  5
22D
330
1F
100
AcDbEntity
  8
0-B_寸法
  6
Continuous
 62
   120
370
     5
100
AcDbLine
 10
-668.2190882351974
 20
1271.306120938109
 30
0.0
 11
-668.2190882351974
 21
851.306120938109
 31
0.0
  0
LWPOLYLINE
  5
22E
330
1F
100
AcDbEntity
  8
0-B_寸法
  6
Continuous
 62
     7
370
     9
100
AcDbPolyline
 90
        4
 70
     1
 43
3.0
 10
-666.7190882351974
 20
1061.306120938109
 42
0.4142135623731
 10
-668.2190882351974
 20
1062.806120938109
 42
0.4142135623731
 10
-669.7190882351975
 20
1061.306120938109
 42
0.4142135623731
 10
-668.2190882351974
 20
1059.806120938109
 42
0.4142135623731
  0
LINE
  5
22F
330
1F
100
AcDbEntity
  8
0-B_寸法
  6
Continuous
 62
   120
370
     5
100
AcDbLine
 10
-689.219088235198
 20
1061.306120938109
 30
0.0
 11
-668.2190882351974
 21
1061.306120938109
 31
0.0
  0
LINE
  5
230
330
1F
100
AcDbEntity
  8
0-B_寸法
  6
Continuous
 62
   120
370
     5
100
AcDbLine
 10
-689.219088235198
 20
1061.306120938109
 30
0.0
 11
-689.219088235198
 21
851.306120938109
 31
0.0
  0
LWPOLYLINE
  5
231
330
1F
100
AcDbEntity
  8
0-B_寸法
  6
Continuous
 62
     7
370
     9
100
AcDbPolyline
 90
        4
 70
     1
 43
3.0
 10
-687.719088235198
 20
1061.306120938109
 42
0.4142135623731
 10
-689.219088235198
 20
1062.806120938109
 42
0.4142135623731
 10
-690.719088235198
 20
1061.306120938109
 42
0.4142135623731
 10
-689.219088235198
 20
1059.806120938109
 42
0.4142135623731
  0
LINE
  5
232
330
1F
100
AcDbEntity
  8
0-B_寸法
  6
Continuous
 62
   120
370
     5
100
AcDbLine
 10
-4235.462133536614
 20
1061.306120938109
 30
0.0
 11
-689.219088235198
 21
1061.306120938109
 31
0.0
  0
LINE
  5
233
330
1F
100
AcDbEntity
  8
0-B_寸法
  6
Continuous
 62
   120
370
     5
100
AcDbLine
 10
-4235.462133536614
 20
1061.306120938109
 30
0.0
 11
-4235.462133536614
 21
851.306120938109
 31
0.0
  0
LINE
  5
234
330
1F
100
AcDbEntity
  8
0-B_寸法
  6
Continuous
 62
   120
370
     5
100
AcDbLine
 10
-4256.462133536614
 20
1271.306120938109
 30
0.0
 11
-4256.462133536614
 21
851.306120938109
 31
0.0
  0
LWPOLYLINE
  5
235
330
1F
100
AcDbEntity
  8
0-B_寸法
  6
Continuous
 62
     7
370
     9
100
AcDbPolyline
 90
        4
 70
     1
 43
3.0
 10
-4233.962133536614
 20
1061.306120938109
 42
0.4142135623731
 10
-4235.462133536614
 20
1062.806120938109
 42
0.4142135623731
 10
-4236.962133536614
 20
1061.306120938109
 42
0.4142135623731
 10
-4235.462133536614
 20
1059.806120938109
 42
0.4142135623731
  0
LWPOLYLINE
  5
236
330
1F
100
AcDbEntity
  8
0-B_寸法
  6
Continuous
 62
     7
370
     9
100
AcDbPolyline
 90
        4
 70
     1
 43
3.0
 10
-4254.962133536614
 20
1061.306120938109
 42
0.4142135623731
 10
-4256.462133536614
 20
1062.806120938109
 42
0.4142135623731
 10
-4257.962133536615
 20
1061.306120938109
 42
0.4142135623731
 10
-4256.462133536614
 20
1059.806120938109
 42
0.4142135623731
  0
LINE
  5
237
330
1F
100
AcDbEntity
  8
0-B_寸法
  6
Continuous
 62
   120
370
     5
100
AcDbLine
 10
-4256.462133536614
 20
1061.306120938109
 30
0.0
 11
-4235.462133536614
 21
1061.306120938109
 31
0.0
  0
LWPOLYLINE
  5
238
330
1F
100
AcDbEntity
  8
0-B_寸法
  6
Continuous
 62
     7
370
     9
100
AcDbPolyline
 90
        4
 70
     1
 43
3.0
 10
-576.7190882351974
 20
-480.6938790618912
 42
0.4142135623731
 10
-578.2190882351974
 20
-479.1938790618912
 42
0.4142135623731
 10
-579.7190882351975
 20
-480.6938790618912
 42
0.4142135623731
 10
-578.2190882351974
 20
-482.1938790618912
 42
0.4142135623731
  0
LWPOLYLINE
  5
239
330
1F
100
AcDbEntity
  8
0-B_寸法
  6
Continuous
 62
     7
370
     9
100
AcDbPolyline
 90
        4
 70
     1
 43
3.0
 10
-4344.962133536614
 20
-480.6938790618912
 42
0.4142135623731
 10
-4346.462133536614
 20
-479.1938790618912
 42
0.4142135623731
 10
-4347.962133536615
 20
-480.6938790618912
 42
0.4142135623731
 10
-4346.462133536614
 20
-482.1938790618912
 42
0.4142135623731
  0
LINE
  5
23A
330
1F
100
AcDbEntity
  8
0-B_寸法
  6
Continuous
 62
   120
370
     5
100
AcDbLine
 10
-4346.462133536614
 20
-480.6938790618912
 30
0.0
 11
-578.2190882351974
 21
-480.6938790618912
 31
0.0
  0
LINE
  5
23B
330
1F
100
AcDbEntity
  8
0-B_寸法
  6
Continuous
 62
   120
370
     5
100
AcDbLine
 10
-578.2190882351974
 20
-480.6938790618912
 30
0.0
 11
-578.2190882351974
 21
89.30612093810879
 31
0.0
  0
LWPOLYLINE
  5
23C
330
1F
100
AcDbEntity
  8
0-B_寸法
  6
Continuous
 62
     7
370
     9
100
AcDbPolyline
 90
        4
 70
     1
 43
3.0
 10
-576.7190882351974
 20
-270.6938790618912
 42
0.4142135623731
 10
-578.2190882351974
 20
-269.1938790618912
 42
0.4142135623731
 10
-579.7190882351975
 20
-270.6938790618912
 42
0.4142135623731
 10
-578.2190882351974
 20
-272.1938790618912
 42
0.4142135623731
  0
LINE
  5
23D
330
1F
100
AcDbEntity
  8
0-B_寸法
  6
Continuous
 62
   120
370
     5
100
AcDbLine
 10
-722.2190882351987
 20
-270.6938790618912
 30
0.0
 11
-578.2190882351974
 21
-270.6938790618912
 31
0.0
  0
LINE
  5
23E
330
1F
100
AcDbEntity
  8
0-B_寸法
  6
Continuous
 62
   120
370
     5
100
AcDbLine
 10
-722.2190882351987
 20
-270.6938790618912
 30
0.0
 11
-722.2190882351987
 21
89.30612093810879
 31
0.0
  0
LWPOLYLINE
  5
23F
330
1F
100
AcDbEntity
  8
0-B_寸法
  6
Continuous
 62
     7
370
     9
100
AcDbPolyline
 90
        4
 70
     1
 43
3.0
 10
-720.7190882351987
 20
-270.6938790618912
 42
0.4142135623731
 10
-722.2190882351987
 20
-269.1938790618912
 42
0.4142135623731
 10
-723.7190882351987
 20
-270.6938790618912
 42
0.4142135623731
 10
-722.2190882351987
 20
-272.1938790618912
 42
0.4142135623731
  0
LINE
  5
240
330
1F
100
AcDbEntity
  8
0-B_寸法
  6
Continuous
 62
   120
370
     5
100
AcDbLine
 10
-4202.462133536613
 20
-270.6938790618912
 30
0.0
 11
-722.2190882351987
 21
-270.6938790618912
 31
0.0
  0
LINE
  5
241
330
1F
100
AcDbEntity
  8
0-B_寸法
  6
Continuous
 62
   120
370
     5
100
AcDbLine
 10
-4202.462133536613
 20
-270.6938790618912
 30
0.0
 11
-4202.462133536613
 21
89.30612093810879
 31
0.0
  0
LINE
  5
242
330
1F
100
AcDbEntity
  8
0-B_寸法
  6
Continuous
 62
   120
370
     5
100
AcDbLine
 10
-4346.462133536614
 20
-480.6938790618912
 30
0.0
 11
-4346.462133536614
 21
89.30612093810879
 31
0.0
  0
LWPOLYLINE
  5
243
330
1F
100
AcDbEntity
  8
0-B_寸法
  6
Continuous
 62
     7
370
     9
100
AcDbPolyline
 90
        4
 70
     1
 43
3.0
 10
-4200.962133536613
 20
-270.6938790618912
 42
0.4142135623731
 10
-4202.462133536613
 20
-269.1938790618912
 42
0.4142135623731
 10
-4203.962133536614
 20
-270.6938790618912
 42
0.4142135623731
 10
-4202.462133536613
 20
-272.1938790618912
 42
0.4142135623731
  0
LWPOLYLINE
  5
244
330
1F
100
AcDbEntity
  8
0-B_寸法
  6
Continuous
 62
     7
370
     9
100
AcDbPolyline
 90
        4
 70
     1
 43
3.0
 10
-4344.962133536614
 20
-270.6938790618912
 42
0.4142135623731
 10
-4346.462133536614
 20
-269.1938790618912
 42
0.4142135623731
 10
-4347.962133536615
 20
-270.6938790618912
 42
0.4142135623731
 10
-4346.462133536614
 20
-272.1938790618912
 42
0.4142135623731
  0
LINE
  5
245
330
1F
100
AcDbEntity
  8
0-B_寸法
  6
Continuous
 62
   120
370
     5
100
AcDbLine
 10
-4346.462133536614
 20
-270.6938790618912
 30
0.0
 11
-4202.462133536613
 21
-270.6938790618912
 31
0.0
  0
LINE
  5
246
330
1F
100
AcDbEntity
  8
0-B_寸法
  6
Continuous
 62
   120
370
     5
100
AcDbLine
 10
-3915.002725214717
 20
731.306120938109
 30
0.0
 11
-4106.462133536614
 21
731.306120938109
 31
0.0
  0
LINE
  5
247
330
1F
100
AcDbEntity
  8
0-B_寸法
  6
Continuous
 62
   120
370
     5
100
AcDbLine
 10
-3915.002725214717
 20
209.3061209381088
 30
0.0
 11
-4106.462133536614
 21
209.3061209381088
 31
0.0
  0
LWPOLYLINE
  5
248
330
1F
100
AcDbEntity
  8
0-B_寸法
  6
Continuous
 62
     7
370
     9
100
AcDbPolyline
 90
        4
 70
     1
 43
3.0
 10
-3913.502725214716
 20
731.306120938109
 42
0.4142135623731
 10
-3915.002725214717
 20
732.806120938109
 42
0.4142135623731
 10
-3916.502725214717
 20
731.306120938109
 42
0.4142135623731
 10
-3915.002725214717
 20
729.806120938109
 42
0.4142135623731
  0
LWPOLYLINE
  5
249
330
1F
100
AcDbEntity
  8
0-B_寸法
  6
Continuous
 62
     7
370
     9
100
AcDbPolyline
 90
        4
 70
     1
 43
3.0
 10
-3913.502725214716
 20
209.3061209381088
 42
0.4142135623731
 10
-3915.002725214717
 20
210.8061209381088
 42
0.4142135623731
 10
-3916.502725214717
 20
209.3061209381088
 42
0.4142135623731
 10
-3915.002725214717
 20
207.8061209381088
 42
0.4142135623731
  0
LINE
  5
24A
330
1F
100
AcDbEntity
  8
0-B_寸法
  6
Continuous
 62
   120
370
     5
100
AcDbLine
 10
-3915.002725214717
 20
209.3061209381088
 30
0.0
 11
-3915.002725214717
 21
731.306120938109
 31
0.0
  0
LINE
  5
24B
330
1F
100
AcDbEntity
  8
0-C_ハッチ
  6
Continuous
 62
   120
370
     5
100
AcDbLine
 10
-4346.462133536614
 20
707.8574800125057
 30
0.0
 11
-4323.013492611011
 21
731.306120938108
 31
0.0
  0
LINE
  5
24C
330
1F
100
AcDbEntity
  8
0-C_ハッチ
  6
Continuous
 62
   120
370
     5
100
AcDbLine
 10
-4346.462133536595
 20
648.460510392878
 30
0.0
 11
-4263.616522991375
 21
731.3061209380978
 31
0.0
  0
LINE
  5
24D
330
1F
100
AcDbEntity
  8
0-C_ハッチ
  6
Continuous
 62
   120
370
     5
100
AcDbLine
 10
-4346.462133536608
 20
589.063540773217
 30
0.0
 11
-4256.462133536614
 21
679.0635407732111
 31
0.0
  0
LINE
  5
24E
330
1F
100
AcDbEntity
  8
0-C_ハッチ
  6
Continuous
 62
   120
370
     5
100
AcDbLine
 10
-4346.462133536618
 20
529.6665711535042
 30
0.0
 11
-4256.462133536614
 21
619.6665711535084
 31
0.0
  0
LINE
  5
24F
330
1F
100
AcDbEntity
  8
0-C_ハッチ
  6
Continuous
 62
   120
370
     5
100
AcDbLine
 10
-4346.462133536607
 20
470.2696015338697
 30
0.0
 11
-4256.46213353661
 21
560.2696015338654
 31
0.0
  0
LINE
  5
250
330
1F
100
AcDbEntity
  8
0-C_ハッチ
  6
Continuous
 62
   120
370
     5
100
AcDbLine
 10
-4346.462133536614
 20
410.8726319141601
 30
0.0
 11
-4256.46213353661
 21
500.8726319141635
 31
0.0
  0
LINE
  5
251
330
1F
100
AcDbEntity
  8
0-C_ハッチ
  6
Continuous
 62
   120
370
     5
100
AcDbLine
 10
-4346.462133536604
 20
351.4756622945222
 30
0.0
 11
-4256.462133536616
 21
441.4756622945112
 31
0.0
  0
LINE
  5
252
330
1F
100
AcDbEntity
  8
0-C_ハッチ
  6
Continuous
 62
   120
370
     5
100
AcDbLine
 10
-4346.462133536608
 20
292.0786926748161
 30
0.0
 11
-4256.462133536607
 21
382.0786926748178
 31
0.0
  0
LINE
  5
253
330
1F
100
AcDbEntity
  8
0-C_ハッチ
  6
Continuous
 62
   120
370
     5
100
AcDbLine
 10
-4346.462133536618
 20
232.6817230551586
 30
0.0
 11
-4256.462133536616
 21
322.6817230551603
 31
0.0
  0
LINE
  5
254
330
1F
100
AcDbEntity
  8
0-C_ハッチ
  6
Continuous
 62
   120
370
     5
100
AcDbLine
 10
-4310.44076603402
 20
209.3061209381113
 30
0.0
 11
-4256.440766034019
 21
263.30612093811
 31
0.0
  0
LINE
  5
255
330
1F
100
AcDbEntity
  8
0-C_ハッチ
  6
Continuous
 62
   120
370
     5
100
AcDbLine
 10
-4251.043796414328
 20
209.3061209381003
 30
0.0
 11
-4202.462133536606
 21
257.8877838158218
 31
0.0
  0
LINE
  5
256
330
1F
100
AcDbEntity
  8
0-C_ハッチ
  6
Continuous
 62
   120
370
     5
100
AcDbLine
 10
-668.2190882351974
 20
703.4884088943704
 30
0.0
 11
-640.4013761914615
 21
731.3061209381073
 31
0.0
  0
LINE
  5
257
330
1F
100
AcDbEntity
  8
0-C_ハッチ
  6
Continuous
 62
   120
370
     5
100
AcDbLine
 10
-668.2190882351949
 20
644.0914392747266
 30
0.0
 11
-581.0044065718082
 21
731.3061209381124
 31
0.0
  0
LINE
  5
258
330
1F
100
AcDbEntity
  8
0-C_ハッチ
  6
Continuous
 62
   120
370
     5
100
AcDbLine
 10
-668.2190882351906
 20
584.6944696550836
 30
0.0
 11
-578.2190882351838
 21
674.6944696550904
 31
0.0
  0
LINE
  5
259
330
1F
100
AcDbEntity
  8
0-C_ハッチ
  6
Continuous
 62
   120
370
     5
100
AcDbLine
 10
-668.2190882351906
 20
525.2975000353808
 30
0.0
 11
-578.2190882351974
 21
615.2975000353749
 31
0.0
  0
LINE
  5
25A
330
1F
100
AcDbEntity
  8
0-C_ハッチ
  6
Continuous
 62
   120
370
     5
100
AcDbLine
 10
-668.2190882351966
 20
465.9005304157284
 30
0.0
 11
-578.2190882351974
 21
555.9005304157267
 31
0.0
  0
LINE
  5
25B
330
1F
100
AcDbEntity
  8
0-C_ハッチ
  6
Continuous
 62
   120
370
     5
100
AcDbLine
 10
-668.2190882352035
 20
406.5035607960198
 30
0.0
 11
-578.2190882351906
 21
496.5035607960309
 31
0.0
  0
LINE
  5
25C
330
1F
100
AcDbEntity
  8
0-C_ハッチ
  6
Continuous
 62
   120
370
     5
100
AcDbLine
 10
-668.2190882352
 20
347.1065911763759
 30
0.0
 11
-578.2190882352027
 21
437.1065911763725
 31
0.0
  0
LINE
  5
25D
330
1F
100
AcDbEntity
  8
0-C_ハッチ
  6
Continuous
 62
   120
370
     5
100
AcDbLine
 10
-668.2190882352
 20
287.7096215566741
 30
0.0
 11
-578.2190882351966
 21
377.7096215566766
 31
0.0
  0
LINE
  5
25E
330
1F
100
AcDbEntity
  8
0-C_ハッチ
  6
Continuous
 62
   120
370
     5
100
AcDbLine
 10
-722.2190882351961
 20
233.709621556678
 30
0.0
 11
-692.6225888537675
 21
263.3061209381066
 31
0.0
  0
LINE
  5
25F
330
1F
100
AcDbEntity
  8
0-C_ハッチ
  6
Continuous
 62
   120
370
     5
100
AcDbLine
 10
-687.2256192341197
 20
209.3061209381062
 30
0.0
 11
-578.2190882351974
 21
318.3126519370293
 31
0.0
  0
LINE
  5
260
330
1F
100
AcDbEntity
  8
0-C_ハッチ
  6
Continuous
 62
   120
370
     5
100
AcDbLine
 10
-627.8286496144716
 20
209.3061209381071
 30
0.0
 11
-578.2190882351906
 21
258.915682317388
 31
0.0
  0
LINE
  5
261
330
1F
100
AcDbEntity
  8
0-3_仕上げ
  6
Continuous
 62
    40
370
    15
100
AcDbLine
 10
-578.2190882351974
 20
356.306120938109
 30
0.0
 11
-578.2190882351974
 21
281.306120938109
 31
0.0
  0
LINE
  5
262
330
1F
100
AcDbEntity
  8
0-C_ハッチ
  6
JWW_DASHED1
 62
   120
370
     5
100
AcDbLine
 10
-508.3228339696512
 20
356.3061209381124
 30
0.0
 11
-578.2190882351974
 21
286.4098666725764
 31
0.0
  0
LINE
  5
263
330
1F
100
AcDbEntity
  8
0-C_ハッチ
  6
JWW_DASHED1
 62
   120
370
     5
100
AcDbLine
 10
-465.8964270984563
 20
356.306120938109
 30
0.0
 11
-540.8964270984607
 21
281.306120938109
 31
0.0
  0
LINE
  5
264
330
1F
100
AcDbEntity
  8
0-C_ハッチ
  6
JWW_DASHED1
 62
   120
370
     5
100
AcDbLine
 10
-550.7492408408513
 20
356.3061209381124
 30
0.0
 11
-578.2190882351974
 21
328.8362735437661
 31
0.0
  0
LINE
  5
265
330
1F
100
AcDbEntity
  8
0-C_ハッチ
  6
JWW_DASHED1
 62
   120
370
     5
100
AcDbLine
 10
-211.3379858713057
 20
356.3061209381124
 30
0.0
 11
-286.3379858713176
 21
281.3061209381021
 31
0.0
  0
LINE
  5
266
330
1F
100
AcDbEntity
  8
0-C_ハッチ
  6
JWW_DASHED1
 62
   120
370
     5
100
AcDbLine
 10
-253.764392742504
 20
356.3061209381158
 30
0.0
 11
-328.7643927425134
 21
281.3061209381056
 31
0.0
  0
LINE
  5
267
330
1F
100
AcDbEntity
  8
0-C_ハッチ
  6
JWW_DASHED1
 62
   120
370
     5
100
AcDbLine
 10
-296.190799613716
 20
356.3061209381038
 30
0.0
 11
-371.1907996137109
 21
281.306120938109
 31
0.0
  0
LINE
  5
268
330
1F
100
AcDbEntity
  8
0-C_ハッチ
  6
JWW_DASHED1
 62
   120
370
     5
100
AcDbLine
 10
-338.6172064849126
 20
356.306120938109
 30
0.0
 11
-413.6172064849058
 21
281.3061209381124
 31
0.0
  0
LINE
  5
269
330
1F
100
AcDbEntity
  8
0-C_ハッチ
  6
JWW_DASHED1
 62
   120
370
     5
100
AcDbLine
 10
-381.0436133560631
 20
356.3061209381021
 30
0.0
 11
-456.0436133560589
 21
281.3061209381056
 31
0.0
  0
LINE
  5
26A
330
1F
100
AcDbEntity
  8
0-C_ハッチ
  6
JWW_DASHED1
 62
   120
370
     5
100
AcDbLine
 10
-423.4700202272589
 20
356.3061209381056
 30
0.0
 11
-498.4700202272563
 21
281.306120938109
 31
0.0
  0
LINE
  5
26B
330
1F
100
AcDbEntity
  8
0-4_枠
  6
Continuous
 62
    92
370
    13
100
AcDbLine
 10
-668.2190882351974
 20
731.306120938109
 30
0.0
 11
-668.2190882351974
 21
263.3061209381083
 31
0.0
  0
LINE
  5
26C
330
1F
100
AcDbEntity
  8
0-4_枠
  6
Continuous
 62
    92
370
    13
100
AcDbLine
 10
-668.2190882351974
 20
731.306120938109
 30
0.0
 11
-578.2190882351974
 21
731.306120938109
 31
0.0
  0
LINE
  5
26D
330
1F
100
AcDbEntity
  8
0-4_枠
  6
Continuous
 62
    92
370
    13
100
AcDbLine
 10
-722.2190882351987
 20
209.3061209381088
 30
0.0
 11
-722.2190882351987
 21
263.3061209381083
 31
0.0
  0
LINE
  5
26E
330
1F
100
AcDbEntity
  8
0-4_枠
  6
Continuous
 62
    92
370
    13
100
AcDbLine
 10
-668.2190882351974
 20
263.3061209381083
 30
0.0
 11
-722.2190882351987
 21
263.3061209381083
 31
0.0
  0
LINE
  5
26F
330
1F
100
AcDbEntity
  8
0-4_枠
  6
Continuous
 62
    92
370
    13
100
AcDbLine
 10
-578.2190882351974
 20
731.306120938109
 30
0.0
 11
-578.2190882351974
 21
209.3061209381088
 31
0.0
  0
LINE
  5
270
330
1F
100
AcDbEntity
  8
0-4_枠
  6
Continuous
 62
    92
370
    13
100
AcDbLine
 10
-578.2190882351974
 20
209.3061209381088
 30
0.0
 11
-722.2190882351987
 21
209.3061209381088
 31
0.0
  0
LINE
  5
271
330
1F
100
AcDbEntity
  8
0-3_仕上げ
  6
Continuous
 62
    40
370
    15
100
AcDbLine
 10
-4724.462118690224
 20
356.306120938109
 30
0.0
 11
-4346.462133536614
 21
356.306120938109
 31
0.0
  0
LINE
  5
272
330
1F
100
AcDbEntity
  8
0-3_仕上げ
  6
Continuous
 62
    40
370
    15
100
AcDbLine
 10
-4724.462118690224
 20
281.306120938109
 30
0.0
 11
-4346.462133536614
 21
281.306120938109
 31
0.0
  0
LINE
  5
273
330
1F
100
AcDbEntity
  8
0-3_仕上げ
  6
Continuous
 62
    40
370
    15
100
AcDbLine
 10
-4346.462133536614
 20
356.306120938109
 30
0.0
 11
-4346.462133536614
 21
281.306120938109
 31
0.0
  0
LINE
  5
274
330
1F
100
AcDbEntity
  8
0-C_ハッチ
  6
JWW_DASHED1
 62
   120
370
     5
100
AcDbLine
 10
-4346.462133536614
 20
282.5721899854341
 30
0.0
 11
-4347.728202583931
 21
281.3061209381158
 31
0.0
  0
LINE
  5
275
330
1F
100
AcDbEntity
  8
0-C_ハッチ
  6
JWW_DASHED1
 62
   120
370
     5
100
AcDbLine
 10
-4346.462133536614
 20
324.9985968566332
 30
0.0
 11
-4390.154609455131
 21
281.3061209381158
 31
0.0
  0
LINE
  5
276
330
1F
100
AcDbEntity
  8
0-C_ハッチ
  6
JWW_DASHED1
 62
   120
370
     5
100
AcDbLine
 10
-4654.565864424677
 20
356.3061209381124
 30
0.0
 11
-4724.462118690224
 21
286.4098666725764
 31
0.0
  0
LINE
  5
277
330
1F
100
AcDbEntity
  8
0-C_ハッチ
  6
JWW_DASHED1
 62
   120
370
     5
100
AcDbLine
 10
-4612.139457553482
 20
356.306120938109
 30
0.0
 11
-4687.139457553487
 21
281.306120938109
 31
0.0
  0
LINE
  5
278
330
1F
100
AcDbEntity
  8
0-C_ハッチ
  6
JWW_DASHED1
 62
   120
370
     5
100
AcDbLine
 10
-4696.992271295877
 20
356.3061209381124
 30
0.0
 11
-4724.462118690224
 21
328.8362735437661
 31
0.0
  0
LINE
  5
279
330
1F
100
AcDbEntity
  8
0-C_ハッチ
  6
JWW_DASHED1
 62
   120
370
     5
100
AcDbLine
 10
-4357.581016326331
 20
356.3061209381124
 30
0.0
 11
-4432.581016326343
 21
281.3061209381021
 31
0.0
  0
LINE
  5
27A
330
1F
100
AcDbEntity
  8
0-C_ハッチ
  6
JWW_DASHED1
 62
   120
370
     5
100
AcDbLine
 10
-4400.00742319753
 20
356.3061209381158
 30
0.0
 11
-4475.00742319754
 21
281.3061209381056
 31
0.0
  0
LINE
  5
27B
330
1F
100
AcDbEntity
  8
0-C_ハッチ
  6
JWW_DASHED1
 62
   120
370
     5
100
AcDbLine
 10
-4442.433830068742
 20
356.3061209381038
 30
0.0
 11
-4517.433830068737
 21
281.306120938109
 31
0.0
  0
LINE
  5
27C
330
1F
100
AcDbEntity
  8
0-C_ハッチ
  6
JWW_DASHED1
 62
   120
370
     5
100
AcDbLine
 10
-4484.860236939939
 20
356.306120938109
 30
0.0
 11
-4559.860236939931
 21
281.3061209381124
 31
0.0
  0
LINE
  5
27D
330
1F
100
AcDbEntity
  8
0-C_ハッチ
  6
JWW_DASHED1
 62
   120
370
     5
100
AcDbLine
 10
-4527.286643811089
 20
356.3061209381021
 30
0.0
 11
-4602.286643811086
 21
281.3061209381056
 31
0.0
  0
LINE
  5
27E
330
1F
100
AcDbEntity
  8
0-C_ハッチ
  6
JWW_DASHED1
 62
   120
370
     5
100
AcDbLine
 10
-4569.713050682286
 20
356.3061209381056
 30
0.0
 11
-4644.713050682282
 21
281.306120938109
 31
0.0
  0
LINE
  5
27F
330
1F
100
AcDbEntity
  8
0-4_枠
  6
Continuous
 62
    92
370
    13
100
AcDbLine
 10
-4256.462133536614
 20
731.306120938109
 30
0.0
 11
-4256.462133536614
 21
263.3061209381083
 31
0.0
  0
LINE
  5
280
330
1F
100
AcDbEntity
  8
0-4_枠
  6
Continuous
 62
    92
370
    13
100
AcDbLine
 10
-4256.462133536614
 20
731.306120938109
 30
0.0
 11
-4346.462133536614
 21
731.306120938109
 31
0.0
  0
LINE
  5
281
330
1F
100
AcDbEntity
  8
0-4_枠
  6
Continuous
 62
    92
370
    13
100
AcDbLine
 10
-4202.462133536613
 20
209.3061209381088
 30
0.0
 11
-4202.462133536613
 21
263.3061209381083
 31
0.0
  0
LINE
  5
282
330
1F
100
AcDbEntity
  8
0-4_枠
  6
Continuous
 62
    92
370
    13
100
AcDbLine
 10
-4256.462133536614
 20
263.3061209381083
 30
0.0
 11
-4202.462133536613
 21
263.3061209381083
 31
0.0
  0
LINE
  5
283
330
1F
100
AcDbEntity
  8
0-4_枠
  6
Continuous
 62
    92
370
    13
100
AcDbLine
 10
-4346.462133536614
 20
731.306120938109
 30
0.0
 11
-4346.462133536614
 21
209.3061209381088
 31
0.0
  0
LINE
  5
284
330
1F
100
AcDbEntity
  8
0-4_枠
  6
Continuous
 62
    92
370
    13
100
AcDbLine
 10
-4346.462133536614
 20
209.3061209381088
 30
0.0
 11
-4202.462133536613
 21
209.3061209381088
 31
0.0
  0
LINE
  5
285
330
1F
100
AcDbEntity
  8
0-1_通り芯
  6
JWW_CENTER1
 62
   120
370
     5
100
AcDbLine
 10
-4724.462118690224
 20
494.3061209381113
 30
0.0
 11
-188.2191377351992
 21
494.3061209381113
 31
0.0
  0
MTEXT
  5
286
330
1F
100
AcDbEntity
  8
0-A_文字
  6
Continuous
 62
     7
370
     9
100
AcDbMText
 10
-4724.462118690224
 20
1464.49612233733
 30
0.0
 40
91.43999999999994
 41
1140.0
 46
0.0
 71
     7
 72
     1
  1
{\fＭＳ ゴシック|b0|i0|c128|p49;■横断面図[間口3尺]}
 73
     1
 44
1.0
  0
MTEXT
  5
287
330
1F
100
AcDbEntity
  8
0-B_寸法
  6
Continuous
 62
     7
370
   211
100
AcDbMText
 10
2322.112022678131
 20
117.7215754835667
 30
0.0
 40
101.8309090909091
 41
735.0
 46
0.0
 71
     7
 72
     1
  1
{\fＭＳ ゴシック|b0|i0|c128|p49;ＤＨ＝1,983}
 11
6.123031769111886E-17
 21
1.0
 31
0.0
 73
     1
 44
1.0
  0
MTEXT
  5
288
330
1F
100
AcDbEntity
  8
0-B_寸法
  6
Continuous
 62
     7
370
   211
100
AcDbMText
 10
2532.112022678132
 20
-17.13987906188823
 30
0.0
 40
102.108
 41
1005.0
 46
0.0
 71
     7
 72
     1
  1
{\fＭＳ ゴシック|b0|i0|c128|p49;枠内寸法＝2,002}
 11
6.123031769111886E-17
 21
1.0
 31
0.0
 73
     1
 44
1.0
  0
MTEXT
  5
289
330
1F
100
AcDbEntity
  8
0-B_寸法
  6
Continuous
 62
     7
370
   211
100
AcDbMText
 10
2742.112022678132
 20
-17.13987906188823
 30
0.0
 40
102.108
 41
1005.0
 46
0.0
 71
     7
 72
     1
  1
{\fＭＳ ゴシック|b0|i0|c128|p49;枠外寸法＝2,038}
 11
6.123031769111886E-17
 21
1.0
 31
0.0
 73
     1
 44
1.0
  0
MTEXT
  5
28A
330
1F
100
AcDbEntity
  8
0-A_文字
  6
Continuous
 62
    92
370
    13
100
AcDbMText
 10
-5592.499495325867
 20
3759.065839136402
 30
0.0
 40
148.1328
 41
4860.0
 46
0.0
 71
     7
 72
     1
  1
{\fＭＳ ゴシック|b0|i0|c128|p49;クローゼットドア　シューズインクローク用　間口３尺}
 73
     1
 44
1.0
  0
LINE
  5
28B
330
1F
100
AcDbEntity
  8
0-A_文字
  6
Continuous
 62
    92
370
    13
100
AcDbLine
 10
-5659.999495325867
 20
3729.999439136402
 30
0.0
 11
-628.5714285714284
 21
3729.999439136402
 31
0.0
  0
LINE
  5
28C
330
1F
100
AcDbEntity
  8
0-A_文字
  6
Continuous
 62
    92
370
    13
100
AcDbLine
 10
-5659.999495325867
 20
3999.999439136402
 30
0.0
 11
-628.5714285714284
 21
3999.999439136402
 31
0.0
  0
LINE
  5
28D
330
1F
100
AcDbEntity
  8
0-A_文字
  6
Continuous
 62
    92
370
    13
100
AcDbLine
 10
-628.5714285714284
 20
3729.999439136402
 30
0.0
 11
-628.5714285714284
 21
3999.999439136402
 31
0.0
  0
MTEXT
  5
28E
330
1F
100
AcDbEntity
  8
F-A_文字
  6
Continuous
 62
     7
370
     0
100
AcDbMText
 10
-5080.081323642279
 20
-4045.07431107839
 30
0.0
 40
79.85124999999996
 41
3772.5
 46
0.0
 71
     7
 72
     1
  1
{\fＭＳ ゴシック|b0|i0|c128|p49;ドレタス　クローゼットドア　シューズインクローク用　枠外H2,038　枠外W706}
 73
     1
 44
1.0
  0
CIRCLE
  5
28F
330
1F
100
AcDbEntity
  8
0-A_文字
  6
Continuous
 62
     7
370
     9
100
AcDbCircle
 10
-2462.340610885906
 20
602.3061209381112
 30
0.0
 40
21.00000000000001
  0
CIRCLE
  5
290
330
1F
100
AcDbEntity
  8
0-A_文字
  6
Continuous
 62
     7
370
     9
100
AcDbCircle
 10
-2462.340610885906
 20
602.3061209381112
 30
0.0
 40
30.0
  0
LINE
  5
291
330
1F
100
AcDbEntity
  8
0-6_扉
  6
Continuous
 62
   200
370
    20
100
AcDbLine
 10
-2459.340610885906
 20
554.3061209381113
 30
0.0
 11
-1670.279849560552
 21
554.3061209381113
 31
0.0
  0
LINE
  5
292
330
1F
100
AcDbEntity
  8
0-6_扉
  6
Continuous
 62
   200
370
    20
100
AcDbLine
 10
-1550.279849560552
 20
554.3061209381113
 30
0.0
 11
-689.219088235198
 21
554.3061209381113
 31
0.0
  0
LINE
  5
293
330
1F
100
AcDbEntity
  8
0-6_扉
  6
Continuous
 62
   200
370
    20
100
AcDbLine
 10
-3254.40137221126
 20
554.3061209381113
 30
0.0
 11
-2465.340610885905
 21
554.3061209381113
 31
0.0
  0
LINE
  5
294
330
1F
100
AcDbEntity
  8
0-6_扉
  6
Continuous
 62
   200
370
    20
100
AcDbLine
 10
-3374.40137221126
 20
554.3061209381113
 30
0.0
 11
-4235.462133536614
 21
554.3061209381113
 31
0.0
  0
LWPOLYLINE
  5
295
330
1F
100
AcDbEntity
  8
0-B_寸法
  6
Continuous
 62
     7
370
     9
100
AcDbPolyline
 90
        4
 70
     1
 43
3.0
 10
-3579.457236567713
 20
554.3061209381113
 42
0.4142135623731
 10
-3580.957236567713
 20
555.8061209381113
 42
0.4142135623731
 10
-3582.457236567713
 20
554.3061209381113
 42
0.4142135623731
 10
-3580.957236567713
 20
552.8061209381113
 42
0.4142135623731
  0
LINE
  5
296
330
1F
100
AcDbEntity
  8
0-6_扉
  6
Continuous
 62
   200
370
    20
100
AcDbLine
 10
-2459.340610885906
 20
434.3061209381113
 30
0.0
 11
-1670.279849560552
 21
434.3061209381113
 31
0.0
  0
LINE
  5
297
330
1F
100
AcDbEntity
  8
0-6_扉
  6
Continuous
 62
   200
370
    20
100
AcDbLine
 10
-1550.279849560552
 20
434.3061209381113
 30
0.0
 11
-689.219088235198
 21
434.3061209381113
 31
0.0
  0
LINE
  5
298
330
1F
100
AcDbEntity
  8
0-6_扉
  6
Continuous
 62
   200
370
    20
100
AcDbLine
 10
-3254.40137221126
 20
434.3061209381113
 30
0.0
 11
-2465.340610885905
 21
434.3061209381113
 31
0.0
  0
LINE
  5
299
330
1F
100
AcDbEntity
  8
0-6_扉
  6
Continuous
 62
   200
370
    20
100
AcDbLine
 10
-3374.40137221126
 20
434.3061209381113
 30
0.0
 11
-4235.462133536614
 21
434.3061209381113
 31
0.0
  0
LWPOLYLINE
  5
29A
330
1F
100
AcDbEntity
  8
0-B_寸法
  6
Continuous
 62
     7
370
     9
100
AcDbPolyline
 90
        4
 70
     1
 43
3.0
 10
-3579.457236567713
 20
434.3061209381113
 42
0.4142135623731
 10
-3580.957236567713
 20
435.8061209381113
 42
0.4142135623731
 10
-3582.457236567713
 20
434.3061209381113
 42
0.4142135623731
 10
-3580.957236567713
 20
432.8061209381113
 42
0.4142135623731
  0
LINE
  5
29B
330
1F
100
AcDbEntity
  8
0-B_寸法
  6
Continuous
 62
   120
370
     5
100
AcDbLine
 10
-3580.957236567713
 20
554.3061209381113
 30
0.0
 11
-3580.957236567713
 21
434.3061209381113
 31
0.0
  0
LINE
  5
29C
330
1F
100
AcDbEntity
  8
0-6_扉
  6
Continuous
 62
   200
370
    20
100
AcDbLine
 10
-2459.340610885906
 20
434.3061209381113
 30
0.0
 11
-2459.340610885906
 21
554.3061209381113
 31
0.0
  0
LINE
  5
29D
330
1F
100
AcDbEntity
  8
0-6_扉
  6
Continuous
 62
   200
370
    20
100
AcDbLine
 10
-2465.340610885905
 20
554.3061209381113
 30
0.0
 11
-2465.340610885905
 21
434.3061209381113
 31
0.0
  0
LINE
  5
29E
330
1F
100
AcDbEntity
  8
0-6_扉
  6
Continuous
 62
   200
370
    20
100
AcDbLine
 10
-689.219088235198
 20
554.3061209381113
 30
0.0
 11
-689.219088235198
 21
434.3061209381113
 31
0.0
  0
LINE
  5
29F
330
1F
100
AcDbEntity
  8
0-6_扉
  6
Continuous
 62
   200
370
    20
100
AcDbLine
 10
-4235.462133536614
 20
554.3061209381113
 30
0.0
 11
-4235.462133536614
 21
434.3061209381113
 31
0.0
  0
MTEXT
  5
2A0
330
1F
100
AcDbEntity
  8
0-B_寸法
  6
Continuous
 62
     7
370
   211
100
AcDbMText
 10
-3595.957236567713
 20
419.1336209381105
 30
0.0
 40
97.15499999999999
 41
127.5
 46
0.0
 71
     7
 72
     1
  1
{\fＭＳ ゴシック|b0|i0|c128|p49;20}
 11
6.123031769111886E-17
 21
1.0
 31
0.0
 73
     1
 44
1.0
  0
MTEXT
  5
2A1
330
1F
100
AcDbEntity
  8
F-A_文字
  6
Continuous
 62
     7
370
     0
100
AcDbMText
 10
4938.667793092893
 20
-3938.071010139966
 30
0.0
 40
78.86699999999999
 41
517.5
 46
0.0
 71
     7
 72
     1
  1
{\fＭＳ ゴシック|b0|i0|c128|p49;2024.04.01}
 73
     1
 44
1.0
  0
MTEXT
  5
2A2
330
1F
100
AcDbEntity
  8
0-B_寸法
  6
Continuous
 62
     7
370
   211
100
AcDbMText
 10
1556.362022678131
 20
1171.953019793413
 30
0.0
 40
97.15499999999999
 41
127.5
 46
0.0
 71
     7
 72
     1
  1
{\fＭＳ ゴシック|b0|i0|c128|p49;20}
 73
     1
 44
1.0
  0
LINE
  5
2A3
330
1F
100
AcDbEntity
  8
0-6_扉
  6
Continuous
 62
   200
370
    20
100
AcDbLine
 10
1680.112022678131
 20
434.3061209381122
 30
0.0
 11
1680.112022678131
 21
-840.6941289761062
 31
0.0
  0
LWPOLYLINE
  5
2A4
330
1F
100
AcDbEntity
  8
0-B_寸法
  6
Continuous
 62
     7
370
     9
100
AcDbPolyline
 90
        4
 70
     1
 43
3.0
 10
1681.612022678131
 20
1168.375519793413
 42
0.4142135623731
 10
1680.112022678131
 20
1169.875519793413
 42
0.4142135623731
 10
1678.612022678131
 20
1168.375519793413
 42
0.4142135623731
 10
1680.112022678131
 20
1166.875519793413
 42
0.4142135623731
  0
LINE
  5
2A5
330
1F
100
AcDbEntity
  8
0-6_扉
  6
Continuous
 62
   200
370
    20
100
AcDbLine
 10
1680.112022678131
 20
1757.306370852333
 30
0.0
 11
1680.112022678131
 21
554.3061209381096
 31
0.0
  0
LINE
  5
2A6
330
1F
100
AcDbEntity
  8
0-6_扉
  6
Continuous
 62
   200
370
    20
100
AcDbLine
 10
1560.112022678131
 20
434.3061209381122
 30
0.0
 11
1560.112022678131
 21
-840.6941289761062
 31
0.0
  0
LWPOLYLINE
  5
2A7
330
1F
100
AcDbEntity
  8
0-B_寸法
  6
Continuous
 62
     7
370
     9
100
AcDbPolyline
 90
        4
 70
     1
 43
3.0
 10
1561.612022678131
 20
1168.375519793413
 42
0.4142135623731
 10
1560.112022678131
 20
1169.875519793413
 42
0.4142135623731
 10
1558.612022678131
 20
1168.375519793413
 42
0.4142135623731
 10
1560.112022678131
 20
1166.875519793413
 42
0.4142135623731
  0
LINE
  5
2A8
330
1F
100
AcDbEntity
  8
0-6_扉
  6
Continuous
 62
   200
370
    20
100
AcDbLine
 10
1560.112022678131
 20
1757.306370852333
 30
0.0
 11
1560.112022678131
 21
554.3061209381096
 31
0.0
  0
LINE
  5
2A9
330
1F
100
AcDbEntity
  8
0-6_扉
  6
Continuous
 62
   200
370
    20
100
AcDbLine
 10
1560.112022678131
 20
-840.6941289761062
 30
0.0
 11
1680.112022678131
 21
-840.6941289761062
 31
0.0
  0
LINE
  5
2AA
330
1F
100
AcDbEntity
  8
0-B_寸法
  6
Continuous
 62
   120
370
     5
100
AcDbLine
 10
1560.112022678131
 20
1168.375519793413
 30
0.0
 11
1680.112022678131
 21
1168.375519793413
 31
0.0
  0
LINE
  5
2AB
330
1F
100
AcDbEntity
  8
0-6_扉
  6
Continuous
 62
   200
370
    20
100
AcDbLine
 10
1560.112022678131
 20
1757.306370852333
 30
0.0
 11
1680.112022678131
 21
1757.306370852333
 31
0.0
  0
ENDSEC
  0
SECTION
  2
OBJECTS
  0
DICTIONARY
  5
C
330
0
100
AcDbDictionary
281
     1
  3
ACAD_GROUP
350
D
  3
ACAD_LAYOUT
350
1A
  3
ACAD_MATERIAL
350
3B
  3
ACAD_MLEADERSTYLE
350
2AD
  3
ACAD_MLINESTYLE
350
17
  3
ACAD_PLOTSETTINGS
350
19
  3
ACAD_PLOTSTYLENAME
350
E
  3
ACAD_TABLESTYLE
350
2AC
  3
ACAD_VISUALSTYLE
350
2A
  0
DICTIONARY
  5
D
102
{ACAD_REACTORS
330
C
102
}
330
C
100
AcDbDictionary
281
     1
  0
DICTIONARY
  5
1A
102
{ACAD_REACTORS
330
C
102
}
330
C
100
AcDbDictionary
281
     1
  3
Layout1
350
1E
  3
Layout2
350
26
  3
Model
350
22
  0
DICTIONARY
  5
3B
102
{ACAD_REACTORS
330
C
102
}
330
C
100
AcDbDictionary
281
     1
  3
ByBlock
350
3D
  3
ByLayer
350
3C
  3
Global
350
3E
  0
DICTIONARY
  5
2AD
102
{ACAD_REACTORS
330
C
102
}
330
C
100
AcDbDictionary
281
     1
  0
DICTIONARY
  5
17
102
{ACAD_REACTORS
330
C
102
}
330
C
100
AcDbDictionary
281
     1
  3
Standard
350
18
  0
DICTIONARY
  5
19
102
{ACAD_REACTORS
330
C
102
}
330
C
100
AcDbDictionary
281
     1
  0
ACDBDICTIONARYWDFLT
  5
E
102
{ACAD_REACTORS
330
C
102
}
330
C
100
AcDbDictionary
281
     1
  3
Normal
350
F
100
AcDbDictionaryWithDefault
340
F
  0
DICTIONARY
  5
2AC
102
{ACAD_REACTORS
330
C
102
}
330
C
100
AcDbDictionary
281
     1
  0
DICTIONARY
  5
2A
102
{ACAD_REACTORS
330
C
102
}
330
C
100
AcDbDictionary
281
     1
  3
2dWireframe
350
2F
  3
3D Hidden
350
31
  3
3dWireframe
350
30
  3
Basic
350
32
  3
Brighten
350
36
  3
ColorChange
350
3A
  3
Conceptual
350
34
  3
Dim
350
35
  3
Facepattern
350
39
  3
Flat
350
2B
  3
FlatWithEdges
350
2C
  3
Gouraud
350
2D
  3
GouraudWithEdges
350
2E
  3
Linepattern
350
38
  3
Realistic
350
33
  3
Thicken
350
37
  0
LAYOUT
  5
1E
102
{ACAD_REACTORS
330
1A
102
}
330
1A
100
AcDbPlotSettings
  1

  2
none_device
  4

  6

 40
0.0
 41
0.0
 42
0.0
 43
0.0
 44
0.0
 45
0.0
 46
0.0
 47
0.0
 48
0.0
 49
0.0
140
0.0
141
0.0
142
1.0
143
1.0
 70
   688
 72
     0
 73
     0
 74
     5
  7

 75
    16
 76
     0
 77
     5
 78
   300
147
1.0
148
0.0
149
0.0
100
AcDbLayout
  1
Layout1
 70
     1
 71
     1
 10
0.0
 20
0.0
 11
420.0
 21
297.0
 12
0.0
 22
0.0
 32
0.0
 14
1.000000000000000E+20
 24
1.000000000000000E+20
 34
1.000000000000000E+20
 15
-1.000000000000000E+20
 25
-1.000000000000000E+20
 35
-1.000000000000000E+20
146
0.0
 13
0.0
 23
0.0
 33
0.0
 16
1.0
 26
0.0
 36
0.0
 17
0.0
 27
1.0
 37
0.0
 76
     0
330
1B
  0
LAYOUT
  5
26
102
{ACAD_REACTORS
330
1A
102
}
330
1A
100
AcDbPlotSettings
  1

  2
none_device
  4

  6

 40
0.0
 41
0.0
 42
0.0
 43
0.0
 44
0.0
 45
0.0
 46
0.0
 47
0.0
 48
0.0
 49
0.0
140
0.0
141
0.0
142
1.0
143
1.0
 70
   688
 72
     0
 73
     0
 74
     5
  7

 75
    16
 76
     0
 77
     5
 78
   300
147
1.0
148
0.0
149
0.0
100
AcDbLayout
  1
Layout2
 70
     1
 71
     2
 10
0.0
 20
0.0
 11
0.0
 21
0.0
 12
0.0
 22
0.0
 32
0.0
 14
0.0
 24
0.0
 34
0.0
 15
0.0
 25
0.0
 35
0.0
146
0.0
 13
0.0
 23
0.0
 33
0.0
 16
1.0
 26
0.0
 36
0.0
 17
0.0
 27
1.0
 37
0.0
 76
     0
330
23
  0
LAYOUT
  5
22
102
{ACAD_REACTORS
330
1A
102
}
330
1A
100
AcDbPlotSettings
  1

  2
none_device
  4

  6

 40
0.0
 41
0.0
 42
0.0
 43
0.0
 44
0.0
 45
0.0
 46
0.0
 47
0.0
 48
0.0
 49
0.0
140
0.0
141
0.0
142
1.0
143
1.0
 70
  1712
 72
     0
 73
     0
 74
     0
  7

 75
     0
 76
     0
 77
     5
 78
   300
147
1.0
148
0.0
149
0.0
100
AcDbLayout
  1
Model
 70
     1
 71
     0
 10
-6300.0
 20
-4455.0
 11
6300.0
 21
4455.0
 12
0.0
 22
0.0
 32
0.0
 14
-6300.0
 24
-4455.0
 34
0.0
 15
6300.0
 25
4455.0
 35
0.0
146
0.0
 13
0.0
 23
0.0
 33
0.0
 16
1.0
 26
0.0
 36
0.0
 17
0.0
 27
1.0
 37
0.0
 76
     0
330
1F
331
29
  0
MATERIAL
  5
3D
102
{ACAD_REACTORS
330
3B
102
}
330
3B
100
AcDbMaterial
  1
ByBlock
 72
     1
 94
      127
  0
MATERIAL
  5
3C
102
{ACAD_REACTORS
330
3B
102
}
330
3B
100
AcDbMaterial
  1
ByLayer
 72
     1
 94
      127
  0
MATERIAL
  5
3E
102
{ACAD_REACTORS
330
3B
102
}
330
3B
100
AcDbMaterial
  1
Global
 72
     1
 94
      127
  0
MLINESTYLE
  5
18
102
{ACAD_REACTORS
330
17
102
}
330
17
100
AcDbMlineStyle
  2
Standard
 70
     0
  3

 62
   256
 51
90.0
 52
90.0
 71
     2
 49
0.5
 62
   256
  6
BYLAYER
 49
-0.5
 62
   256
  6
BYLAYER
  0
ACDBPLACEHOLDER
  5
F
102
{ACAD_REACTORS
330
E
102
}
330
E
  0
VISUALSTYLE
  5
2F
102
{ACAD_REACTORS
330
2A
102
}
330
2A
100
AcDbVisualStyle
  2
2dWireframe
 70
     4
177
     2
291
     0
 71
     0
176
     1
 72
     2
176
     1
 73
     0
176
     1
 90
        0
176
     1
 40
-0.6
176
     1
 41
-30.0
176
     1
 62
     5
 63
     7
421
 16777215
176
     1
 74
     1
176
     1
 91
        4
176
     1
 64
     7
176
     1
 65
   257
176
     1
 75
     1
176
     1
175
     1
176
     1
 42
1.0
176
     1
 92
        0
176
     1
 66
   257
176
     1
 43
1.0
176
     1
 76
     1
176
     1
 77
     6
176
     1
 78
     2
176
     1
 67
     7
176
     1
 79
     5
176
     1
170
     0
176
     1
171
     0
176
     1
290
     0
176
     1
 93
        1
176
     1
 44
0.0
176
     1
173
     0
176
     1
  0
VISUALSTYLE
  5
31
102
{ACAD_REACTORS
330
2A
102
}
330
2A
100
AcDbVisualStyle
  2
3D Hidden
 70
     6
177
     2
291
     0
 71
     1
176
     1
 72
     2
176
     1
 73
     2
176
     1
 90
        0
176
     1
 40
-0.6
176
     1
 41
-30.0
176
     1
 62
     5
 63
     7
421
 16777215
176
     1
 74
     2
176
     1
 91
        2
176
     1
 64
     7
176
     1
 65
   257
176
     1
 75
     2
176
     1
175
     1
176
     1
 42
40.0
176
     1
 92
        0
176
     1
 66
   257
176
     1
 43
1.0
176
     1
 76
     1
176
     1
 77
     6
176
     1
 78
     2
176
     1
 67
     7
176
     1
 79
     3
176
     1
170
     0
176
     1
171
     0
176
     1
290
     0
176
     1
 93
        1
176
     1
 44
0.0
176
     1
173
     0
176
     1
  0
VISUALSTYLE
  5
30
102
{ACAD_REACTORS
330
2A
102
}
330
2A
100
AcDbVisualStyle
  2
3dWireframe
 70
     5
177
     2
291
     0
 71
     0
176
     1
 72
     2
176
     1
 73
     0
176
     1
 90
        0
176
     1
 40
-0.6
176
     1
 41
-30.0
176
     1
 62
     5
 63
     7
421
 16777215
176
     1
 74
     1
176
     1
 91
        4
176
     1
 64
     7
176
     1
 65
   257
176
     1
 75
     1
176
     1
175
     1
176
     1
 42
1.0
176
     1
 92
        0
176
     1
 66
   257
176
     1
 43
1.0
176
     1
 76
     1
176
     1
 77
     6
176
     1
 78
     2
176
     1
 67
     7
176
     1
 79
     5
176
     1
170
     0
176
     1
171
     0
176
     1
290
     0
176
     1
 93
        1
176
     1
 44
0.0
176
     1
173
     0
176
     1
  0
VISUALSTYLE
  5
32
102
{ACAD_REACTORS
330
2A
102
}
330
2A
100
AcDbVisualStyle
  2
Basic
 70
     7
177
     2
291
     1
 71
     1
176
     1
 72
     0
176
     1
 73
     1
176
     1
 90
        0
176
     1
 40
-0.6
176
     1
 41
-30.0
176
     1
 62
     5
 63
     7
421
 16777215
176
     1
 74
     0
176
     1
 91
        4
176
     1
 64
     7
176
     1
 65
   257
176
     1
 75
     1
176
     1
175
     1
176
     1
 42
1.0
176
     1
 92
        8
176
     1
 66
     7
176
     1
 43
1.0
176
     1
 76
     1
176
     1
 77
     6
176
     1
 78
     2
176
     1
 67
     7
176
     1
 79
     5
176
     1
170
     0
176
     1
171
     0
176
     1
290
     0
176
     1
 93
        1
176
     1
 44
0.0
176
     1
173
     0
176
     1
  0
VISUALSTYLE
  5
36
102
{ACAD_REACTORS
330
2A
102
}
330
2A
100
AcDbVisualStyle
  2
Brighten
 70
    12
177
     2
291
     1
 71
     2
176
     1
 72
     2
176
     1
 73
     0
176
     1
 90
        0
176
     1
 40
-0.6
176
     1
 41
-30.0
176
     1
 62
     5
 63
     7
421
 16777215
176
     1
 74
     1
176
     1
 91
        4
176
     1
 64
     7
176
     1
 65
   257
176
     1
 75
     1
176
     1
175
     1
176
     1
 42
1.0
176
     1
 92
        8
176
     1
 66
     7
176
     1
 43
1.0
176
     1
 76
     1
176
     1
 77
     6
176
     1
 78
     2
176
     1
 67
     7
176
     1
 79
     5
176
     1
170
     0
176
     1
171
     0
176
     1
290
     0
176
     1
 93
        1
176
     1
 44
50.0
176
     1
173
     0
176
     1
  0
VISUALSTYLE
  5
3A
102
{ACAD_REACTORS
330
2A
102
}
330
2A
100
AcDbVisualStyle
  2
ColorChange
 70
    16
177
     2
291
     1
 71
     2
176
     1
 72
     2
176
     1
 73
     3
176
     1
 90
        0
176
     1
 40
-0.6
176
     1
 41
-30.0
176
     1
 62
     5
 63
     8
421
  8421504
176
     1
 74
     1
176
     1
 91
        4
176
     1
 64
     7
176
     1
 65
   257
176
     1
 75
     1
176
     1
175
     1
176
     1
 42
1.0
176
     1
 92
        8
176
     1
 66
     8
424
  8421504
176
     1
 43
1.0
176
     1
 76
     1
176
     1
 77
     6
176
     1
 78
     2
176
     1
 67
     7
176
     1
 79
     5
176
     1
170
     0
176
     1
171
     0
176
     1
290
     0
176
     1
 93
        1
176
     1
 44
0.0
176
     1
173
     0
176
     1
  0
VISUALSTYLE
  5
34
102
{ACAD_REACTORS
330
2A
102
}
330
2A
100
AcDbVisualStyle
  2
Conceptual
 70
     9
177
     2
291
     0
 71
     3
176
     1
 72
     2
176
     1
 73
     0
176
     1
 90
        0
176
     1
 40
-0.6
176
     1
 41
-30.0
176
     1
 62
     5
 63
     7
421
 16777215
176
     1
 74
     2
176
     1
 91
        2
176
     1
 64
     7
176
     1
 65
   257
176
     1
 75
     1
176
     1
175
     1
176
     1
 42
40.0
176
     1
 92
        8
176
     1
 66
     7
176
     1
 43
1.0
176
     1
 76
     1
176
     1
 77
     6
176
     1
 78
     2
176
     1
 67
     7
176
     1
 79
     3
176
     1
170
     0
176
     1
171
     0
176
     1
290
     0
176
     1
 93
        1
176
     1
 44
0.0
176
     1
173
     0
176
     1
  0
VISUALSTYLE
  5
35
102
{ACAD_REACTORS
330
2A
102
}
330
2A
100
AcDbVisualStyle
  2
Dim
 70
    11
177
     2
291
     1
 71
     2
176
     1
 72
     2
176
     1
 73
     0
176
     1
 90
        0
176
     1
 40
-0.6
176
     1
 41
-30.0
176
     1
 62
     5
 63
     7
421
 16777215
176
     1
 74
     1
176
     1
 91
        4
176
     1
 64
     7
176
     1
 65
   257
176
     1
 75
     1
176
     1
175
     1
176
     1
 42
1.0
176
     1
 92
        8
176
     1
 66
     7
176
     1
 43
1.0
176
     1
 76
     1
176
     1
 77
     6
176
     1
 78
     2
176
     1
 67
     7
176
     1
 79
     5
176
     1
170
     0
176
     1
171
     0
176
     1
290
     0
176
     1
 93
        1
176
     1
 44
-50.0
176
     1
173
     0
176
     1
  0
VISUALSTYLE
  5
39
102
{ACAD_REACTORS
330
2A
102
}
330
2A
100
AcDbVisualStyle
  2
Facepattern
 70
    15
177
     2
291
     1
 71
     2
176
     1
 72
     2
176
     1
 73
     0
176
     1
 90
        0
176
     1
 40
-0.6
176
     1
 41
-30.0
176
     1
 62
     5
 63
     7
421
 16777215
176
     1
 74
     1
176
     1
 91
        4
176
     1
 64
     7
176
     1
 65
   257
176
     1
 75
     1
176
     1
175
     1
176
     1
 42
1.0
176
     1
 92
        8
176
     1
 66
     7
176
     1
 43
1.0
176
     1
 76
     1
176
     1
 77
     6
176
     1
 78
     2
176
     1
 67
     7
176
     1
 79
     5
176
     1
170
     0
176
     1
171
     0
176
     1
290
     0
176
     1
 93
        1
176
     1
 44
0.0
176
     1
173
     0
176
     1
  0
VISUALSTYLE
  5
2B
102
{ACAD_REACTORS
330
2A
102
}
330
2A
100
AcDbVisualStyle
  2
Flat
 70
     0
177
     2
291
     1
 71
     2
176
     1
 72
     1
176
     1
 73
     1
176
     1
 90
        2
176
     1
 40
-0.6
176
     1
 41
30.0
176
     1
 62
     5
 63
     7
421
 16777215
176
     1
 74
     0
176
     1
 91
        4
176
     1
 64
     7
176
     1
 65
   257
176
     1
 75
     1
176
     1
175
     1
176
     1
 42
1.0
176
     1
 92
        8
176
     1
 66
     7
176
     1
 43
1.0
176
     1
 76
     1
176
     1
 77
     6
176
     1
 78
     2
176
     1
 67
     7
176
     1
 79
     5
176
     1
170
     0
176
     1
171
     0
176
     1
290
     0
176
     1
 93
       13
176
     1
 44
0.0
176
     1
173
     0
176
     1
  0
VISUALSTYLE
  5
2C
102
{ACAD_REACTORS
330
2A
102
}
330
2A
100
AcDbVisualStyle
  2
FlatWithEdges
 70
     1
177
     2
291
     1
 71
     2
176
     1
 72
     1
176
     1
 73
     1
176
     1
 90
        2
176
     1
 40
-0.6
176
     1
 41
30.0
176
     1
 62
     5
 63
     7
421
 16777215
176
     1
 74
     1
176
     1
 91
        4
176
     1
 64
     7
176
     1
 65
   257
176
     1
 75
     1
176
     1
175
     1
176
     1
 42
1.0
176
     1
 92
        0
176
     1
 66
   257
176
     1
 43
1.0
176
     1
 76
     1
176
     1
 77
     6
176
     1
 78
     2
176
     1
 67
     7
176
     1
 79
     5
176
     1
170
     0
176
     1
171
     0
176
     1
290
     0
176
     1
 93
       13
176
     1
 44
0.0
176
     1
173
     0
176
     1
  0
VISUALSTYLE
  5
2D
102
{ACAD_REACTORS
330
2A
102
}
330
2A
100
AcDbVisualStyle
  2
Gouraud
 70
     2
177
     2
291
     1
 71
     2
176
     1
 72
     2
176
     1
 73
     1
176
     1
 90
        2
176
     1
 40
-0.6
176
     1
 41
30.0
176
     1
 62
     5
 63
     7
421
 16777215
176
     1
 74
     0
176
     1
 91
        4
176
     1
 64
     7
176
     1
 65
   257
176
     1
 75
     1
176
     1
175
     1
176
     1
 42
1.0
176
     1
 92
        0
176
     1
 66
     7
176
     1
 43
1.0
176
     1
 76
     1
176
     1
 77
     6
176
     1
 78
     2
176
     1
 67
     7
176
     1
 79
     5
176
     1
170
     0
176
     1
171
     0
176
     1
290
     0
176
     1
 93
       13
176
     1
 44
0.0
176
     1
173
     0
176
     1
  0
VISUALSTYLE
  5
2E
102
{ACAD_REACTORS
330
2A
102
}
330
2A
100
AcDbVisualStyle
  2
GouraudWithEdges
 70
     3
177
     2
291
     1
 71
     2
176
     1
 72
     2
176
     1
 73
     1
176
     1
 90
        2
176
     1
 40
-0.6
176
     1
 41
30.0
176
     1
 62
     5
 63
     7
421
 16777215
176
     1
 74
     1
176
     1
 91
        4
176
     1
 64
     7
176
     1
 65
   257
176
     1
 75
     1
176
     1
175
     1
176
     1
 42
1.0
176
     1
 92
        0
176
     1
 66
   257
176
     1
 43
1.0
176
     1
 76
     1
176
     1
 77
     6
176
     1
 78
     2
176
     1
 67
     7
176
     1
 79
     5
176
     1
170
     0
176
     1
171
     0
176
     1
290
     0
176
     1
 93
       13
176
     1
 44
0.0
176
     1
173
     0
176
     1
  0
VISUALSTYLE
  5
38
102
{ACAD_REACTORS
330
2A
102
}
330
2A
100
AcDbVisualStyle
  2
Linepattern
 70
    14
177
     2
291
     1
 71
     2
176
     1
 72
     2
176
     1
 73
     0
176
     1
 90
        0
176
     1
 40
-0.6
176
     1
 41
-30.0
176
     1
 62
     5
 63
     7
421
 16777215
176
     1
 74
     1
176
     1
 91
        4
176
     1
 64
     7
176
     1
 65
   257
176
     1
 75
     7
176
     1
175
     7
176
     1
 42
1.0
176
     1
 92
        8
176
     1
 66
     7
176
     1
 43
1.0
176
     1
 76
     1
176
     1
 77
     6
176
     1
 78
     2
176
     1
 67
     7
176
     1
 79
     5
176
     1
170
     0
176
     1
171
     0
176
     1
290
     0
176
     1
 93
        1
176
     1
 44
0.0
176
     1
173
     0
176
     1
  0
VISUALSTYLE
  5
33
102
{ACAD_REACTORS
330
2A
102
}
330
2A
100
AcDbVisualStyle
  2
Realistic
 70
     8
177
     2
291
     0
 71
     2
176
     1
 72
     2
176
     1
 73
     0
176
     1
 90
        0
176
     1
 40
-0.6
176
     1
 41
-30.0
176
     1
 62
     5
 63
     7
421
 16777215
176
     1
 74
     1
176
     1
 91
        0
176
     1
 64
     7
176
     1
 65
   257
176
     1
 75
     1
176
     1
175
     1
176
     1
 42
1.0
176
     1
 92
        8
176
     1
 66
     8
424
  7895160
176
     1
 43
1.0
176
     1
 76
     1
176
     1
 77
     6
176
     1
 78
     2
176
     1
 67
     7
176
     1
 79
     5
176
     1
170
     0
176
     1
171
     0
176
     1
290
     0
176
     1
 93
       13
176
     1
 44
0.0
176
     1
173
     0
176
     1
  0
VISUALSTYLE
  5
37
102
{ACAD_REACTORS
330
2A
102
}
330
2A
100
AcDbVisualStyle
  2
Thicken
 70
    13
177
     2
291
     1
 71
     2
176
     1
 72
     2
176
     1
 73
     0
176
     1
 90
        0
176
     1
 40
-0.6
176
     1
 41
-30.0
176
     1
 62
     5
 63
     7
421
 16777215
176
     1
 74
     1
176
     1
 91
        4
176
     1
 64
     7
176
     1
 65
   257
176
     1
 75
     1
176
     1
175
     1
176
     1
 42
1.0
176
     1
 92
       12
176
     1
 66
     7
176
     1
 43
1.0
176
     1
 76
     1
176
     1
 77
     6
176
     1
 78
     2
176
     1
 67
     7
176
     1
 79
     5
176
     1
170
     0
176
     1
171
     0
176
     1
290
     0
176
     1
 93
        1
176
     1
 44
0.0
176
     1
173
     0
176
     1
  0
ENDSEC
  0
EOF
