  0
SECTION
  2
HEADER
  9
$ACADVER
  1
AC1024
  9
$ACADMAINTVER
 70
     6
  9
$DWGCODEPAGE
  3
ANSI_932
  9
$INSBASE
 10
0.0
 20
0.0
 30
0.0
  9
$EXTMIN
 10
-6300.0
 20
-4455.0
 30
0.0
  9
$EXTMAX
 10
6300.0
 20
4455.0
 30
0.0
  9
$LIMMIN
 10
-6300.0
 20
-4455.0
  9
$LIMMAX
 10
6300.0
 20
4455.0
  9
$ORTHOMODE
 70
     0
  9
$REGENMODE
 70
     1
  9
$FILLMODE
 70
     1
  9
$QTEXTMODE
 70
     0
  9
$MIRRTEXT
 70
     1
  9
$LTSCALE
 40
30.0
  9
$ATTMODE
 70
     1
  9
$TEXTSIZE
 40
2.5
  9
$TRACEWID
 40
1.0
  9
$TEXTSTYLE
  7
Standard
  9
$CLAYER
  8
0
  9
$CELTYPE
  6
ByLayer
  9
$CECOLOR
 62
   256
  9
$CELTSCALE
 40
1.0
  9
$DISPSILH
 70
     0
  9
$DIMSCALE
 40
1.0
  9
$DIMASZ
 40
2.5
  9
$DIMEXO
 40
0.625
  9
$DIMDLI
 40
3.75
  9
$DIMRND
 40
0.0
  9
$DIMDLE
 40
0.0
  9
$DIMEXE
 40
1.25
  9
$DIMTP
 40
0.0
  9
$DIMTM
 40
0.0
  9
$DIMTXT
 40
2.5
  9
$DIMCEN
 40
2.5
  9
$DIMTSZ
 40
0.0
  9
$DIMTOL
 70
     0
  9
$DIMLIM
 70
     0
  9
$DIMTIH
 70
     0
  9
$DIMTOH
 70
     0
  9
$DIMSE1
 70
     0
  9
$DIMSE2
 70
     0
  9
$DIMTAD
 70
     1
  9
$DIMZIN
 70
     8
  9
$DIMBLK
  1

  9
$DIMASO
 70
     1
  9
$DIMSHO
 70
     1
  9
$DIMPOST
  1

  9
$DIMAPOST
  1

  9
$DIMALT
 70
     0
  9
$DIMALTD
 70
     3
  9
$DIMALTF
 40
0.03937007874016
  9
$DIMLFAC
 40
1.0
  9
$DIMTOFL
 70
     1
  9
$DIMTVP
 40
0.0
  9
$DIMTIX
 70
     0
  9
$DIMSOXD
 70
     0
  9
$DIMSAH
 70
     0
  9
$DIMBLK1
  1

  9
$DIMBLK2
  1

  9
$DIMSTYLE
  2
ISO-25
  9
$DIMCLRD
 70
     0
  9
$DIMCLRE
 70
     0
  9
$DIMCLRT
 70
     0
  9
$DIMTFAC
 40
1.0
  9
$DIMGAP
 40
0.625
  9
$DIMJUST
 70
     0
  9
$DIMSD1
 70
     0
  9
$DIMSD2
 70
     0
  9
$DIMTOLJ
 70
     0
  9
$DIMTZIN
 70
     8
  9
$DIMALTZ
 70
     0
  9
$DIMALTTZ
 70
     0
  9
$DIMUPT
 70
     0
  9
$DIMDEC
 70
     2
  9
$DIMTDEC
 70
     2
  9
$DIMALTU
 70
     2
  9
$DIMALTTD
 70
     3
  9
$DIMTXSTY
  7
Standard
  9
$DIMAUNIT
 70
     0
  9
$DIMADEC
 70
     0
  9
$DIMALTRND
 40
0.0
  9
$DIMAZIN
 70
     0
  9
$DIMDSEP
 70
    44
  9
$DIMATFIT
 70
     3
  9
$DIMFRAC
 70
     0
  9
$DIMLDRBLK
  1

  9
$DIMLUNIT
 70
     2
  9
$DIMLWD
 70
    -2
  9
$DIMLWE
 70
    -2
  9
$DIMTMOVE
 70
     0
  9
$DIMFXL
 40
1.0
  9
$DIMFXLON
 70
     0
  9
$DIMJOGANG
 40
0.7853981633974483
  9
$DIMTFILL
 70
     0
  9
$DIMTFILLCLR
 70
     0
  9
$DIMARCSYM
 70
     0
  9
$DIMLTYPE
  6

  9
$DIMLTEX1
  6

  9
$DIMLTEX2
  6

  9
$DIMTXTDIRECTION
 70
     0
  9
$LUNITS
 70
     2
  9
$LUPREC
 70
     4
  9
$SKETCHINC
 40
1.0
  9
$FILLETRAD
 40
10.0
  9
$AUNITS
 70
     0
  9
$AUPREC
 70
     0
  9
$MENU
  1
.
  9
$ELEVATION
 40
0.0
  9
$PELEVATION
 40
0.0
  9
$THICKNESS
 40
0.0
  9
$LIMCHECK
 70
     0
  9
$CHAMFERA
 40
10.0
  9
$CHAMFERB
 40
10.0
  9
$CHAMFERC
 40
20.0
  9
$CHAMFERD
 40
0.0
  9
$SKPOLY
 70
     0
  9
$TDCREATE
 40
2459432.542957813
  9
$TDUCREATE
 40
2459432.167957813
  9
$TDUPDATE
 40
2459432.542957824
  9
$TDUUPDATE
 40
2459432.167957824
  9
$TDINDWG
 40
0.0000000116
  9
$TDUSRTIMER
 40
0.0000000116
  9
$USRTIMER
 70
     1
  9
$ANGBASE
 50
0.0
  9
$ANGDIR
 70
     0
  9
$PDMODE
 70
     0
  9
$PDSIZE
 40
0.0
  9
$PLINEWID
 40
0.0
  9
$SPLFRAME
 70
     0
  9
$SPLINETYPE
 70
     6
  9
$SPLINESEGS
 70
     8
  9
$HANDSEED
  5
27D
  9
$SURFTAB1
 70
     6
  9
$SURFTAB2
 70
     6
  9
$SURFTYPE
 70
     6
  9
$SURFU
 70
     6
  9
$SURFV
 70
     6
  9
$UCSBASE
  2

  9
$UCSNAME
  2

  9
$UCSORG
 10
0.0
 20
0.0
 30
0.0
  9
$UCSXDIR
 10
1.0
 20
0.0
 30
0.0
  9
$UCSYDIR
 10
0.0
 20
1.0
 30
0.0
  9
$UCSORTHOREF
  2

  9
$UCSORTHOVIEW
 70
     0
  9
$UCSORGTOP
 10
0.0
 20
0.0
 30
0.0
  9
$UCSORGBOTTOM
 10
0.0
 20
0.0
 30
0.0
  9
$UCSORGLEFT
 10
0.0
 20
0.0
 30
0.0
  9
$UCSORGRIGHT
 10
0.0
 20
0.0
 30
0.0
  9
$UCSORGFRONT
 10
0.0
 20
0.0
 30
0.0
  9
$UCSORGBACK
 10
0.0
 20
0.0
 30
0.0
  9
$PUCSBASE
  2

  9
$PUCSNAME
  2

  9
$PUCSORG
 10
0.0
 20
0.0
 30
0.0
  9
$PUCSXDIR
 10
1.0
 20
0.0
 30
0.0
  9
$PUCSYDIR
 10
0.0
 20
1.0
 30
0.0
  9
$PUCSORTHOREF
  2

  9
$PUCSORTHOVIEW
 70
     0
  9
$PUCSORGTOP
 10
0.0
 20
0.0
 30
0.0
  9
$PUCSORGBOTTOM
 10
0.0
 20
0.0
 30
0.0
  9
$PUCSORGLEFT
 10
0.0
 20
0.0
 30
0.0
  9
$PUCSORGRIGHT
 10
0.0
 20
0.0
 30
0.0
  9
$PUCSORGFRONT
 10
0.0
 20
0.0
 30
0.0
  9
$PUCSORGBACK
 10
0.0
 20
0.0
 30
0.0
  9
$USERI1
 70
     0
  9
$USERI2
 70
     0
  9
$USERI3
 70
     0
  9
$USERI4
 70
     0
  9
$USERI5
 70
     0
  9
$USERR1
 40
0.0
  9
$USERR2
 40
0.0
  9
$USERR3
 40
0.0
  9
$USERR4
 40
0.0
  9
$USERR5
 40
0.0
  9
$WORLDVIEW
 70
     1
  9
$SHADEDGE
 70
     3
  9
$SHADEDIF
 70
    70
  9
$TILEMODE
 70
     1
  9
$MAXACTVP
 70
    64
  9
$PINSBASE
 10
0.0
 20
0.0
 30
0.0
  9
$PLIMCHECK
 70
     0
  9
$PEXTMIN
 10
1.000000000000000E+20
 20
1.000000000000000E+20
 30
1.000000000000000E+20
  9
$PEXTMAX
 10
-1.000000000000000E+20
 20
-1.000000000000000E+20
 30
-1.000000000000000E+20
  9
$PLIMMIN
 10
0.0
 20
0.0
  9
$PLIMMAX
 10
420.0
 20
297.0
  9
$UNITMODE
 70
     0
  9
$VISRETAIN
 70
     1
  9
$PLINEGEN
 70
     0
  9
$PSLTSCALE
 70
     1
  9
$TREEDEPTH
 70
  3020
  9
$CMLSTYLE
  2
Standard
  9
$CMLJUST
 70
     0
  9
$CMLSCALE
 40
20.0
  9
$PROXYGRAPHICS
 70
     1
  9
$MEASUREMENT
 70
     1
  9
$CELWEIGHT
370
    -1
  9
$ENDCAPS
280
     0
  9
$JOINSTYLE
280
     0
  9
$LWDISPLAY
290
     0
  9
$INSUNITS
 70
     4
  9
$HYPERLINKBASE
  1

  9
$STYLESHEET
  1

  9
$XEDIT
290
     1
  9
$CEPSNTYPE
380
     0
  9
$PSTYLEMODE
290
     1
  9
$FINGERPRINTGUID
  2
{A9D35F58-742E-41A4-A0D5-1A9B8C30BE72}
  9
$VERSIONGUID
  2
{FAEB1C32-E019-11D5-929B-00C0DF256EC4}
  9
$EXTNAMES
290
     1
  9
$PSVPSCALE
 40
0.0
  9
$OLESTARTUP
290
     0
  9
$SORTENTS
280
   127
  9
$INDEXCTL
280
     0
  9
$HIDETEXT
280
     1
  9
$XCLIPFRAME
280
     2
  9
$HALOGAP
280
     0
  9
$OBSCOLOR
 70
   257
  9
$OBSLTYPE
280
     0
  9
$INTERSECTIONDISPLAY
280
     0
  9
$INTERSECTIONCOLOR
 70
   257
  9
$DIMASSOC
280
     2
  9
$PROJECTNAME
  1

  9
$CAMERADISPLAY
290
     0
  9
$LENSLENGTH
 40
50.0
  9
$CAMERAHEIGHT
 40
0.0
  9
$STEPSPERSEC
 40
2.0
  9
$STEPSIZE
 40
6.0
  9
$3DDWFPREC
 40
2.0
  9
$PSOLWIDTH
 40
5.0
  9
$PSOLHEIGHT
 40
80.0
  9
$LOFTANG1
 40
1.570796326794897
  9
$LOFTANG2
 40
1.570796326794897
  9
$LOFTMAG1
 40
0.0
  9
$LOFTMAG2
 40
0.0
  9
$LOFTPARAM
 70
     7
  9
$LOFTNORMALS
280
     1
  9
$LATITUDE
 40
37.795
  9
$LONGITUDE
 40
-122.394
  9
$NORTHDIRECTION
 40
0.0
  9
$TIMEZONE
 70
 -8000
  9
$LIGHTGLYPHDISPLAY
280
     1
  9
$TILEMODELIGHTSYNCH
280
     1
  9
$SOLIDHIST
280
     1
  9
$SHOWHIST
280
     1
  9
$DWFFRAME
280
     2
  9
$DGNFRAME
280
     2
  9
$REALWORLDSCALE
290
     1
  9
$INTERFERECOLOR
 62
   256
  9
$CSHADOW
280
     0
  9
$SHADOWPLANELOCATION
 40
0.0
  0
ENDSEC
  0
SECTION
  2
CLASSES
  0
CLASS
  1
ACDBDICTIONARYWDFLT
  2
AcDbDictionaryWithDefault
  3
ObjectDBX Classes
 90
        0
 91
        4
280
     0
281
     0
  0
CLASS
  1
VISUALSTYLE
  2
AcDbVisualStyle
  3
ObjectDBX Classes
 90
     4095
 91
        4
280
     0
281
     0
  0
CLASS
  1
MATERIAL
  2
AcDbMaterial
  3
ObjectDBX Classes
 90
     1153
 91
        4
280
     0
281
     0
  0
ENDSEC
  0
SECTION
  2
TABLES
  0
TABLE
  2
VPORT
  5
8
330
0
100
AcDbSymbolTable
 70
     1
  0
VPORT
  5
29
330
8
100
AcDbSymbolTableRecord
100
AcDbViewportTableRecord
  2
*Active
 70
     0
 10
0.0
 20
0.0
 11
1.0
 21
1.0
 12
0.0
 22
0.0
 13
0.0
 23
0.0
 14
10.0
 24
10.0
 15
10.0
 25
10.0
 16
0.0
 26
0.0
 36
1.0
 17
0.0
 27
0.0
 37
0.0
 40
9801.0
 41
1.414141414141414
 42
50.0
 43
0.0
 44
0.0
 50
0.0
 51
0.0
 71
     0
 72
 10000
 73
     1
 74
     3
 75
     0
 76
     0
 77
     0
 78
     0
281
     0
 65
     1
110
0.0
120
0.0
130
0.0
111
1.0
121
0.0
131
0.0
112
0.0
122
1.0
132
0.0
 79
     0
146
0.0
 60
     3
 61
     5
292
     1
282
     1
141
0.0
142
0.0
 63
   250
  0
ENDTAB
  0
TABLE
  2
LTYPE
  5
5
330
0
100
AcDbSymbolTable
 70
     3
  0
LTYPE
  5
14
330
5
100
AcDbSymbolTableRecord
100
AcDbLinetypeTableRecord
  2
ByBlock
 70
     0
  3

 72
    65
 73
     0
 40
0.0
  0
LTYPE
  5
15
330
5
100
AcDbSymbolTableRecord
100
AcDbLinetypeTableRecord
  2
ByLayer
 70
     0
  3

 72
    65
 73
     0
 40
0.0
  0
LTYPE
  5
16
330
5
100
AcDbSymbolTableRecord
100
AcDbLinetypeTableRecord
  2
Continuous
 70
     0
  3
Solid line
 72
    65
 73
     0
 40
0.0
  0
LTYPE
  5
3F
330
5
100
AcDbSymbolTableRecord
100
AcDbLinetypeTableRecord
  2
JWW_HOJO
 70
     0
  3
  -   -   -   -   -   -   -   - 
 72
    65
 73
     2
 40
1.693333333333333
 49
-1.27
 74
     0
 49
0.4233333333333333
 74
     0
  0
LTYPE
  5
40
330
5
100
AcDbSymbolTableRecord
100
AcDbLinetypeTableRecord
  2
JWW_DASHED1
 70
     0
  3
-  --  --  --  --  --  --  --  -
 72
    65
 73
     2
 40
1.693333333333333
 49
0.8466666666666667
 74
     0
 49
-0.8466666666666667
 74
     0
  0
ENDTAB
  0
TABLE
  2
LAYER
  5
2
330
0
100
AcDbSymbolTable
 70
    16
  0
LAYER
  5
10
330
2
100
AcDbSymbolTableRecord
100
AcDbLayerTableRecord
  2
0
 70
     0
 62
     7
  6
Continuous
370
    -3
390
F
347
3E
  0
LAYER
  5
41
330
2
100
AcDbSymbolTableRecord
100
AcDbLayerTableRecord
  2
天板
 70
     0
 62
     7
  6
Continuous
370
    -3
390
F
347
3E
  0
LAYER
  5
42
330
2
100
AcDbSymbolTableRecord
100
AcDbLayerTableRecord
  2
0-0_補助線
 70
     0
 62
     7
  6
Continuous
370
    -3
390
F
347
3E
  0
LAYER
  5
43
330
2
100
AcDbSymbolTableRecord
100
AcDbLayerTableRecord
  2
0-B_寸法
 70
     0
 62
     7
  6
Continuous
370
    -3
390
F
347
3E
  0
LAYER
  5
44
330
2
100
AcDbSymbolTableRecord
100
AcDbLayerTableRecord
  2
F-1_枠
 70
     0
 62
     7
  6
Continuous
370
    -3
390
F
347
3E
  0
LAYER
  5
45
330
2
100
AcDbSymbolTableRecord
100
AcDbLayerTableRecord
  2
F-0_補助線
 70
     0
 62
     7
  6
Continuous
370
    -3
390
F
347
3E
  0
LAYER
  5
46
330
2
100
AcDbSymbolTableRecord
100
AcDbLayerTableRecord
  2
前板
 70
     0
 62
     7
  6
Continuous
370
    -3
390
F
347
3E
  0
LAYER
  5
47
330
2
100
AcDbSymbolTableRecord
100
AcDbLayerTableRecord
  2
1-0_補助線
 70
     0
 62
     7
  6
Continuous
370
    -3
390
F
347
3E
  0
LAYER
  5
48
330
2
100
AcDbSymbolTableRecord
100
AcDbLayerTableRecord
  2
1-A_文字
 70
     0
 62
     7
  6
Continuous
370
    -3
390
F
347
3E
  0
LAYER
  5
49
330
2
100
AcDbSymbolTableRecord
100
AcDbLayerTableRecord
  2
0-A_文字
 70
     0
 62
     7
  6
Continuous
370
    -3
390
F
347
3E
  0
LAYER
  5
4A
330
2
100
AcDbSymbolTableRecord
100
AcDbLayerTableRecord
  2
1-B_寸法
 70
     0
 62
     7
  6
Continuous
370
    -3
390
F
347
3E
  0
LAYER
  5
4B
330
2
100
AcDbSymbolTableRecord
100
AcDbLayerTableRecord
  2
背板
 70
     0
 62
     7
  6
Continuous
370
    -3
390
F
347
3E
  0
LAYER
  5
4C
330
2
100
AcDbSymbolTableRecord
100
AcDbLayerTableRecord
  2
シート
 70
     0
 62
     7
  6
Continuous
370
    -3
390
F
347
3E
  0
LAYER
  5
4D
330
2
100
AcDbSymbolTableRecord
100
AcDbLayerTableRecord
  2
側板右用
 70
     0
 62
     7
  6
Continuous
370
    -3
390
F
347
3E
  0
LAYER
  5
4E
330
2
100
AcDbSymbolTableRecord
100
AcDbLayerTableRecord
  2
側板左用
 70
     0
 62
     7
  6
Continuous
370
    -3
390
F
347
3E
  0
LAYER
  5
4F
330
2
100
AcDbSymbolTableRecord
100
AcDbLayerTableRecord
  2
F-A_文字
 70
     0
 62
     7
  6
Continuous
370
    -3
390
F
347
3E
  0
ENDTAB
  0
TABLE
  2
STYLE
  5
3
330
0
100
AcDbSymbolTable
 70
     1
  0
STYLE
  5
11
330
3
100
AcDbSymbolTableRecord
100
AcDbTextStyleTableRecord
  2
Standard
 70
     0
 40
0.0
 41
1.0
 50
0.0
 71
     0
 42
2.5
  3
txt
  4

  0
ENDTAB
  0
TABLE
  2
VIEW
  5
6
330
0
100
AcDbSymbolTable
 70
     0
  0
ENDTAB
  0
TABLE
  2
UCS
  5
7
330
0
100
AcDbSymbolTable
 70
     0
  0
ENDTAB
  0
TABLE
  2
APPID
  5
9
330
0
100
AcDbSymbolTable
 70
     1
  0
APPID
  5
12
330
9
100
AcDbSymbolTableRecord
100
AcDbRegAppTableRecord
  2
ACAD
 70
     0
  0
ENDTAB
  0
TABLE
  2
DIMSTYLE
  5
A
330
0
100
AcDbSymbolTable
 70
     1
100
AcDbDimStyleTable
  0
DIMSTYLE
105
27
330
A
100
AcDbSymbolTableRecord
100
AcDbDimStyleTableRecord
  2
ISO-25
 70
     0
 41
2.5
 42
0.625
 43
3.75
 44
1.25
 73
     0
 74
     0
 77
     1
 78
     8
140
2.5
141
2.5
143
0.03937007874016
147
0.625
171
     3
172
     1
178
     0
271
     2
272
     2
274
     3
278
    44
283
     0
284
     8
340
11
  0
ENDTAB
  0
TABLE
  2
BLOCK_RECORD
  5
1
330
0
100
AcDbSymbolTable
 70
     1
  0
BLOCK_RECORD
  5
1F
330
1
100
AcDbSymbolTableRecord
100
AcDbBlockTableRecord
  2
*Model_Space
340
22
 70
     0
280
     1
281
     0
  0
BLOCK_RECORD
  5
1B
330
1
100
AcDbSymbolTableRecord
100
AcDbBlockTableRecord
  2
*Paper_Space
340
1E
 70
     0
280
     1
281
     0
  0
BLOCK_RECORD
  5
23
330
1
100
AcDbSymbolTableRecord
100
AcDbBlockTableRecord
  2
*Paper_Space0
340
26
 70
     0
280
     1
281
     0
  0
ENDTAB
  0
ENDSEC
  0
SECTION
  2
BLOCKS
  0
BLOCK
  5
20
330
1F
100
AcDbEntity
  8
0
100
AcDbBlockBegin
  2
*Model_Space
 70
     0
 10
0.0
 20
0.0
 30
0.0
  3
*Model_Space
  1

  0
ENDBLK
  5
21
330
1F
100
AcDbEntity
  8
0
100
AcDbBlockEnd
  0
BLOCK
  5
1C
330
1B
100
AcDbEntity
 67
     1
  8
0
100
AcDbBlockBegin
  2
*Paper_Space
 70
     0
 10
0.0
 20
0.0
 30
0.0
  3
*Paper_Space
  1

  0
ENDBLK
  5
1D
330
1B
100
AcDbEntity
 67
     1
  8
0
100
AcDbBlockEnd
  0
BLOCK
  5
24
330
23
100
AcDbEntity
  8
0
100
AcDbBlockBegin
  2
*Paper_Space0
 70
     0
 10
0.0
 20
0.0
 30
0.0
  3
*Paper_Space0
  1

  0
ENDBLK
  5
25
330
23
100
AcDbEntity
  8
0
100
AcDbBlockEnd
  0
ENDSEC
  0
SECTION
  2
ENTITIES
  0
LINE
  5
50
330
1F
100
AcDbEntity
  8
天板
  6
Continuous
 62
     7
370
     9
100
AcDbLine
 10
4888.712034758013
 20
-900.2862240684889
 30
0.0
 11
4888.712034758013
 21
-1875.286224068489
 31
0.0
  0
LINE
  5
51
330
1F
100
AcDbEntity
  8
0-0_補助線
  6
JWW_HOJO
 62
   120
370
     5
100
AcDbLine
 10
-916.0134228127025
 20
-3287.827506420967
 30
0.0
 11
2833.986577187298
 21
-3287.827506420967
 31
0.0
  0
LINE
  5
52
330
1F
100
AcDbEntity
  8
0-0_補助線
  6
JWW_HOJO
 62
   120
370
     5
100
AcDbLine
 10
-916.0134228127025
 20
-3497.827506420967
 30
0.0
 11
2833.986577187298
 21
-3497.827506420967
 31
0.0
  0
LINE
  5
53
330
1F
100
AcDbEntity
  8
0-B_寸法
  6
Continuous
 62
   120
370
     5
100
AcDbLine
 10
-916.0134228127025
 20
-3497.827506420967
 30
0.0
 11
2833.986577187298
 21
-3497.827506420967
 31
0.0
  0
LWPOLYLINE
  5
54
330
1F
100
AcDbEntity
  8
0-B_寸法
  6
Continuous
 62
     7
370
     9
100
AcDbPolyline
 90
        4
 70
     1
 43
3.0
 10
-914.5134228127025
 20
-3497.827506420967
 42
0.4142135623731
 10
-916.0134228127025
 20
-3496.327506420967
 42
0.4142135623731
 10
-917.5134228127026
 20
-3497.827506420967
 42
0.4142135623731
 10
-916.0134228127025
 20
-3499.327506420967
 42
0.4142135623731
  0
LWPOLYLINE
  5
55
330
1F
100
AcDbEntity
  8
0-B_寸法
  6
Continuous
 62
     7
370
     9
100
AcDbPolyline
 90
        4
 70
     1
 43
3.0
 10
2835.486577187297
 20
-3497.827506420967
 42
0.4142135623731
 10
2833.986577187298
 20
-3496.327506420967
 42
0.4142135623731
 10
2832.486577187298
 20
-3497.827506420967
 42
0.4142135623731
 10
2833.986577187298
 20
-3499.327506420967
 42
0.4142135623731
  0
LINE
  5
56
330
1F
100
AcDbEntity
  8
0-B_寸法
  6
Continuous
 62
   120
370
     5
100
AcDbLine
 10
-916.0134228127025
 20
-3497.827506420967
 30
0.0
 11
-916.0134228127025
 21
-3287.827506420967
 31
0.0
  0
LINE
  5
57
330
1F
100
AcDbEntity
  8
0-B_寸法
  6
Continuous
 62
   120
370
     5
100
AcDbLine
 10
2833.986577187298
 20
-3497.827506420967
 30
0.0
 11
2833.986577187298
 21
-3287.827506420967
 31
0.0
  0
MTEXT
  5
58
330
1F
100
AcDbEntity
  8
0-B_寸法
  6
Continuous
 62
     7
370
   211
100
AcDbMText
 10
868.9865771872975
 20
-3497.107506420967
 30
0.0
 40
91.44
 41
180.0
 46
0.0
 71
     7
 72
     1
  1
{\fＭＳ ゴシック|b0|i0|c128|p49;198}
 73
     1
 44
1.0
  0
LINE
  5
59
330
1F
100
AcDbEntity
  8
F-1_枠
  6
Continuous
 62
   200
370
    20
100
AcDbLine
 10
-5849.999257680532
 20
4180.00018145587
 30
0.0
 11
5849.999257680533
 21
4180.00018145587
 31
0.0
  0
LINE
  5
5A
330
1F
100
AcDbEntity
  8
F-0_補助線
  6
JWW_HOJO
 62
   120
370
     5
100
AcDbLine
 10
-6149.999505120355
 20
4439.999802048143
 30
0.0
 11
6149.999505120355
 21
4439.999802048143
 31
0.0
  0
LINE
  5
5B
330
1F
100
AcDbEntity
  8
F-0_補助線
  6
JWW_HOJO
 62
   120
370
     5
100
AcDbLine
 10
6149.999505120355
 20
4439.999802048143
 30
0.0
 11
6149.999505120355
 21
-4439.999802048143
 31
0.0
  0
LINE
  5
5C
330
1F
100
AcDbEntity
  8
F-0_補助線
  6
JWW_HOJO
 62
   120
370
     5
100
AcDbLine
 10
6149.999505120355
 20
-4439.999802048143
 30
0.0
 11
-6149.999505120355
 21
-4439.999802048143
 31
0.0
  0
LINE
  5
5D
330
1F
100
AcDbEntity
  8
F-1_枠
  6
Continuous
 62
   200
370
    20
100
AcDbLine
 10
5849.999257680533
 20
4189.999967008023
 30
0.0
 11
5849.999257680533
 21
-4189.999967008024
 31
0.0
  0
LINE
  5
5E
330
1F
100
AcDbEntity
  8
F-1_枠
  6
Continuous
 62
   200
370
    20
100
AcDbLine
 10
-5849.999489655365
 20
4189.999967008023
 30
0.0
 11
-5849.999489655365
 21
-4189.999967008024
 31
0.0
  0
LINE
  5
5F
330
1F
100
AcDbEntity
  8
F-1_枠
  6
Continuous
 62
   200
370
    20
100
AcDbLine
 10
-5839.999495325861
 20
4189.999967008023
 30
0.0
 11
-5839.999495325861
 21
-4189.999967008024
 31
0.0
  0
LINE
  5
60
330
1F
100
AcDbEntity
  8
F-1_枠
  6
Continuous
 62
   200
370
    20
100
AcDbLine
 10
-5844.999480891873
 20
4189.999967008023
 30
0.0
 11
-5844.999480891873
 21
-4189.999967008024
 31
0.0
  0
LINE
  5
61
330
1F
100
AcDbEntity
  8
F-1_枠
  6
Continuous
 62
   200
370
    20
100
AcDbLine
 10
5844.998993744722
 20
4189.999967008023
 30
0.0
 11
5844.998993744722
 21
-4189.999967008024
 31
0.0
  0
LINE
  5
62
330
1F
100
AcDbEntity
  8
F-1_枠
  6
Continuous
 62
   200
370
    20
100
AcDbLine
 10
5839.99947212838
 20
4189.999967008023
 30
0.0
 11
5839.99947212838
 21
-4189.999967008024
 31
0.0
  0
LINE
  5
63
330
1F
100
AcDbEntity
  8
F-1_枠
  6
Continuous
 62
   200
370
    20
100
AcDbLine
 10
-5849.999257680532
 20
4189.999967008023
 30
0.0
 11
5849.999257680533
 21
4189.999967008023
 31
0.0
  0
LINE
  5
64
330
1F
100
AcDbEntity
  8
F-1_枠
  6
Continuous
 62
   200
370
    20
100
AcDbLine
 10
-5849.999257680532
 20
4184.999703072212
 30
0.0
 11
5849.999257680533
 21
4184.999703072212
 31
0.0
  0
LINE
  5
65
330
1F
100
AcDbEntity
  8
F-0_補助線
  6
JWW_HOJO
 62
   120
370
     5
100
AcDbLine
 10
-6149.999505120355
 20
-4439.999802048143
 30
0.0
 11
-6149.999505120355
 21
4439.999802048143
 31
0.0
  0
LINE
  5
66
330
1F
100
AcDbEntity
  8
0-0_補助線
  6
JWW_HOJO
 62
   120
370
     5
100
AcDbLine
 10
-2629.253079891356
 20
1653.112074684366
 30
0.0
 11
-2269.253079891356
 21
1653.112074684366
 31
0.0
  0
LINE
  5
67
330
1F
100
AcDbEntity
  8
0-0_補助線
  6
JWW_HOJO
 62
   120
370
     5
100
AcDbLine
 10
-2908.137429098523
 20
1803.112074684366
 30
0.0
 11
-1808.636597151768
 21
1803.112074684366
 31
0.0
  0
LINE
  5
68
330
1F
100
AcDbEntity
  8
0-0_補助線
  6
JWW_HOJO
 62
   120
370
     5
100
AcDbLine
 10
-2908.137429098523
 20
1503.112074684366
 30
0.0
 11
-1808.636597151768
 21
1503.112074684366
 31
0.0
  0
LINE
  5
69
330
1F
100
AcDbEntity
  8
0-0_補助線
  6
JWW_HOJO
 62
   120
370
     5
100
AcDbLine
 10
-2755.447699019025
 20
562.6120746843671
 30
0.0
 11
-2035.447699019025
 21
562.6120746843671
 31
0.0
  0
LINE
  5
6A
330
1F
100
AcDbEntity
  8
0-0_補助線
  6
JWW_HOJO
 62
   120
370
     5
100
AcDbLine
 10
-2905.447699019025
 20
1503.112074684366
 30
0.0
 11
-2905.447699019025
 21
712.6120746843671
 31
0.0
  0
LINE
  5
6B
330
1F
100
AcDbEntity
  8
0-0_補助線
  6
JWW_HOJO
 62
   120
370
     5
100
AcDbLine
 10
-3205.447699019025
 20
1503.112074684366
 30
0.0
 11
-3205.447699019025
 21
712.6120746843671
 31
0.0
  0
LINE
  5
6C
330
1F
100
AcDbEntity
  8
0-0_補助線
  6
JWW_HOJO
 62
   120
370
     5
100
AcDbLine
 10
-3502.757968949025
 20
1503.112074684366
 30
0.0
 11
-3502.757968949025
 21
712.6120746843671
 31
0.0
  0
LINE
  5
6D
330
1F
100
AcDbEntity
  8
0-0_補助線
  6
JWW_HOJO
 62
   120
370
     5
100
AcDbLine
 10
-1885.447699019026
 20
712.6120746843671
 30
0.0
 11
-1885.447699019026
 21
1503.112074684366
 31
0.0
  0
LINE
  5
6E
330
1F
100
AcDbEntity
  8
0-0_補助線
  6
JWW_HOJO
 62
   120
370
     5
100
AcDbLine
 10
-1585.447699019026
 20
712.6120746843671
 30
0.0
 11
-1585.447699019026
 21
1503.112074684366
 31
0.0
  0
LINE
  5
6F
330
1F
100
AcDbEntity
  8
0-0_補助線
  6
JWW_HOJO
 62
   120
370
     5
100
AcDbLine
 10
-2395.447699019025
 20
712.6120746843671
 30
0.0
 11
-2395.447699019025
 21
3089.866428463878
 31
0.0
  0
LINE
  5
70
330
1F
100
AcDbEntity
  8
天板
  6
Continuous
 62
    40
370
    15
100
AcDbLine
 10
-196.0134228127026
 20
2782.612074684367
 30
0.0
 11
-496.0134228127026
 21
2782.612074684367
 31
0.0
  0
LINE
  5
71
330
1F
100
AcDbEntity
  8
天板
  6
Continuous
 62
    40
370
    15
100
AcDbLine
 10
-196.0134228127026
 20
2782.612074684367
 30
0.0
 11
-196.0134228127026
 21
2962.612074684367
 31
0.0
  0
LINE
  5
72
330
1F
100
AcDbEntity
  8
天板
  6
Continuous
 62
    40
370
    15
100
AcDbLine
 10
2113.986577187298
 20
2782.612074684367
 30
0.0
 11
2113.986577187298
 21
2962.612074684367
 31
0.0
  0
LINE
  5
73
330
1F
100
AcDbEntity
  8
天板
  6
Continuous
 62
    40
370
    15
100
AcDbLine
 10
2113.986577187298
 20
2782.612074684367
 30
0.0
 11
2413.986577187298
 21
2782.612074684367
 31
0.0
  0
LINE
  5
74
330
1F
100
AcDbEntity
  8
0-0_補助線
  6
JWW_HOJO
 62
   120
370
     5
100
AcDbLine
 10
958.9865771872975
 20
2962.612074684367
 30
0.0
 11
958.9865771872975
 21
2602.612074684367
 31
0.0
  0
LINE
  5
75
330
1F
100
AcDbEntity
  8
天板
  6
Continuous
 62
    40
370
    15
100
AcDbLine
 10
-196.0134228127026
 20
2962.612074684367
 30
0.0
 11
808.9865771872975
 21
2962.612074684367
 31
0.0
  0
LINE
  5
76
330
1F
100
AcDbEntity
  8
天板
  6
Continuous
 62
    40
370
    15
100
AcDbLine
 10
1108.986577187297
 20
2962.612074684367
 30
0.0
 11
2113.986577187298
 21
2962.612074684367
 31
0.0
  0
LINE
  5
77
330
1F
100
AcDbEntity
  8
0-0_補助線
  6
JWW_HOJO
 62
   120
370
     5
100
AcDbLine
 10
-930.6938696325215
 20
2152.612074684367
 30
0.0
 11
2801.086496424051
 21
2152.612074684367
 31
0.0
  0
LINE
  5
78
330
1F
100
AcDbEntity
  8
0-0_補助線
  6
JWW_HOJO
 62
   120
370
     5
100
AcDbLine
 10
-646.0134228127025
 20
2602.612074684367
 30
0.0
 11
-646.0134228127025
 21
2782.612074684367
 31
0.0
  0
LINE
  5
79
330
1F
100
AcDbEntity
  8
0-0_補助線
  6
JWW_HOJO
 62
   120
370
     5
100
AcDbLine
 10
2563.986577187298
 20
2602.612074684367
 30
0.0
 11
2563.986577187298
 21
2782.612074684367
 31
0.0
  0
LINE
  5
7A
330
1F
100
AcDbEntity
  8
0-0_補助線
  6
JWW_HOJO
 62
   120
370
     5
100
AcDbLine
 10
-946.0134228127025
 20
2602.612074684367
 30
0.0
 11
-946.0134228127025
 21
2782.612074684367
 31
0.0
  0
LINE
  5
7B
330
1F
100
AcDbEntity
  8
0-0_補助線
  6
JWW_HOJO
 62
   120
370
     5
100
AcDbLine
 10
2863.986577187298
 20
2602.612074684367
 30
0.0
 11
2863.986577187298
 21
2782.612074684367
 31
0.0
  0
LINE
  5
7C
330
1F
100
AcDbEntity
  8
0-0_補助線
  6
JWW_HOJO
 62
   120
370
     5
100
AcDbLine
 10
-1246.013422812703
 20
2602.612074684367
 30
0.0
 11
-1246.013422812703
 21
2782.612074684367
 31
0.0
  0
LINE
  5
7D
330
1F
100
AcDbEntity
  8
0-0_補助線
  6
JWW_HOJO
 62
   120
370
     5
100
AcDbLine
 10
3163.986577187298
 20
2602.612074684367
 30
0.0
 11
3163.986577187298
 21
2782.612074684367
 31
0.0
  0
LINE
  5
7E
330
1F
100
AcDbEntity
  8
天板
  6
Continuous
 62
    40
370
    15
100
AcDbLine
 10
-496.0134228127026
 20
2611.612074684367
 30
0.0
 11
-496.0134228127026
 21
2782.612074684367
 31
0.0
  0
LINE
  5
7F
330
1F
100
AcDbEntity
  8
天板
  6
Continuous
 62
    40
370
    15
100
AcDbLine
 10
-487.0134228127022
 20
2602.612074684367
 30
0.0
 11
808.9865771872975
 21
2602.612074684367
 31
0.0
  0
LINE
  5
80
330
1F
100
AcDbEntity
  8
天板
  6
Continuous
 62
    40
370
    15
100
AcDbLine
 10
-496.0134228127026
 20
2611.612074684367
 30
0.0
 11
-487.0134228127022
 21
2602.612074684367
 31
0.0
  0
LINE
  5
81
330
1F
100
AcDbEntity
  8
天板
  6
Continuous
 62
    40
370
    15
100
AcDbLine
 10
2413.986577187298
 20
2611.612074684367
 30
0.0
 11
2413.986577187298
 21
2782.612074684367
 31
0.0
  0
LINE
  5
82
330
1F
100
AcDbEntity
  8
天板
  6
Continuous
 62
    40
370
    15
100
AcDbLine
 10
2404.986577187297
 20
2602.612074684367
 30
0.0
 11
1108.986577187297
 21
2602.612074684367
 31
0.0
  0
LINE
  5
83
330
1F
100
AcDbEntity
  8
天板
  6
Continuous
 62
    40
370
    15
100
AcDbLine
 10
2413.986577187298
 20
2611.612074684367
 30
0.0
 11
2404.986577187297
 21
2602.612074684367
 31
0.0
  0
LINE
  5
84
330
1F
100
AcDbEntity
  8
前板
  6
Continuous
 62
    40
370
    15
100
AcDbLine
 10
4483.712034758013
 20
2785.612074684366
 30
0.0
 11
4483.712034758013
 21
2593.612074684367
 31
0.0
  0
LINE
  5
85
330
1F
100
AcDbEntity
  8
前板
  6
Continuous
 62
    40
370
    15
100
AcDbLine
 10
4168.712034758013
 20
2785.612074684366
 30
0.0
 11
4483.712034758013
 21
2785.612074684366
 31
0.0
  0
LINE
  5
86
330
1F
100
AcDbEntity
  8
0-0_補助線
  6
JWW_HOJO
 62
   120
370
     5
100
AcDbLine
 10
4294.906653885684
 20
1653.112074684366
 30
0.0
 11
4654.906653885684
 21
1653.112074684366
 31
0.0
  0
LINE
  5
87
330
1F
100
AcDbEntity
  8
0-0_補助線
  6
JWW_HOJO
 62
   120
370
     5
100
AcDbLine
 10
3941.642105011296
 20
1803.112074684366
 30
0.0
 11
5050.460740618616
 21
1803.112074684366
 31
0.0
  0
LINE
  5
88
330
1F
100
AcDbEntity
  8
0-0_補助線
  6
JWW_HOJO
 62
   120
370
     5
100
AcDbLine
 10
3941.642105011296
 20
1503.112074684366
 30
0.0
 11
5050.460740618616
 21
1503.112074684366
 31
0.0
  0
LINE
  5
89
330
1F
100
AcDbEntity
  8
0-0_補助線
  6
JWW_HOJO
 62
   120
370
     5
100
AcDbLine
 10
5038.712034758013
 20
2962.612074684367
 30
0.0
 11
5038.712034758013
 21
1803.112074684366
 31
0.0
  0
LINE
  5
8A
330
1F
100
AcDbEntity
  8
0-0_補助線
  6
JWW_HOJO
 62
   120
370
     5
100
AcDbLine
 10
4888.712034758013
 20
562.6120746843671
 30
0.0
 11
4168.712034758013
 21
562.6120746843671
 31
0.0
  0
LINE
  5
8B
330
1F
100
AcDbEntity
  8
0-0_補助線
  6
JWW_HOJO
 62
   120
370
     5
100
AcDbLine
 10
5338.712034758013
 20
2962.612074684367
 30
0.0
 11
5338.712034758013
 21
1803.112074684366
 31
0.0
  0
LINE
  5
8C
330
1F
100
AcDbEntity
  8
前板
  6
Continuous
 62
    40
370
    15
100
AcDbLine
 10
4168.712034758013
 20
721.6120746843667
 30
0.0
 11
4168.712034758013
 21
1503.112074684366
 31
0.0
  0
LINE
  5
8D
330
1F
100
AcDbEntity
  8
前板
  6
Continuous
 62
    40
370
    15
100
AcDbLine
 10
4168.712034758013
 20
721.6120746843667
 30
0.0
 11
4177.712034758015
 21
712.6120746843671
 31
0.0
  0
LINE
  5
8E
330
1F
100
AcDbEntity
  8
前板
  6
Continuous
 62
    40
370
    15
100
AcDbLine
 10
4168.712034758013
 20
2953.612074684367
 30
0.0
 11
4168.712034758013
 21
2785.612074684366
 31
0.0
  0
LINE
  5
8F
330
1F
100
AcDbEntity
  8
前板
  6
Continuous
 62
    40
370
    15
100
AcDbLine
 10
4177.712034758015
 20
2962.612074684367
 30
0.0
 11
4168.712034758013
 21
2953.612074684367
 31
0.0
  0
LINE
  5
90
330
1F
100
AcDbEntity
  8
前板
  6
Continuous
 62
    40
370
    15
100
AcDbLine
 10
4879.712034758015
 20
2962.612074684367
 30
0.0
 11
4177.712034758015
 21
2962.612074684367
 31
0.0
  0
LINE
  5
91
330
1F
100
AcDbEntity
  8
前板
  6
Continuous
 62
    40
370
    15
100
AcDbLine
 10
4888.712034758013
 20
2953.612074684367
 30
0.0
 11
4888.712034758013
 21
1803.112074684366
 31
0.0
  0
LINE
  5
92
330
1F
100
AcDbEntity
  8
前板
  6
Continuous
 62
    40
370
    15
100
AcDbLine
 10
4879.712034758015
 20
2962.612074684367
 30
0.0
 11
4888.712034758013
 21
2953.612074684367
 31
0.0
  0
LINE
  5
93
330
1F
100
AcDbEntity
  8
0-0_補助線
  6
JWW_HOJO
 62
   120
370
     5
100
AcDbLine
 10
4018.712034758013
 20
1803.112074684366
 30
0.0
 11
4018.712034758013
 21
2593.612074684367
 31
0.0
  0
LINE
  5
94
330
1F
100
AcDbEntity
  8
0-0_補助線
  6
JWW_HOJO
 62
   120
370
     5
100
AcDbLine
 10
3718.712034758013
 20
1803.112074684366
 30
0.0
 11
3718.712034758013
 21
2593.612074684367
 31
0.0
  0
LINE
  5
95
330
1F
100
AcDbEntity
  8
前板
  6
Continuous
 62
    40
370
    15
100
AcDbLine
 10
4888.712034758013
 20
1503.112074684366
 30
0.0
 11
4888.712034758013
 21
862.6120746843671
 31
0.0
  0
LINE
  5
96
330
1F
100
AcDbEntity
  8
前板
  6
Continuous
 62
    40
370
    15
100
AcDbLine
 10
4177.712034758015
 20
712.6120746843671
 30
0.0
 11
4738.712034758013
 21
712.6120746843671
 31
0.0
  0
LINE
  5
97
330
1F
100
AcDbEntity
  8
前板
  6
Continuous
 62
    40
370
    15
100
AcDbLine
 10
4888.712034758013
 20
862.6120746843671
 30
0.0
 11
4738.712034758013
 21
712.6120746843671
 31
0.0
  0
LINE
  5
98
330
1F
100
AcDbEntity
  8
前板
  6
Continuous
 62
    40
370
    15
100
AcDbLine
 10
4483.712034758013
 20
2593.612074684367
 30
0.0
 11
4168.712034758013
 21
2593.612074684367
 31
0.0
  0
LINE
  5
99
330
1F
100
AcDbEntity
  8
前板
  6
Continuous
 62
    40
370
    15
100
AcDbLine
 10
4168.712034758013
 20
1803.112074684366
 30
0.0
 11
4168.712034758013
 21
2593.612074684367
 31
0.0
  0
LINE
  5
9A
330
1F
100
AcDbEntity
  8
0-0_補助線
  6
JWW_HOJO
 62
   120
370
     5
100
AcDbLine
 10
3650.716192643103
 20
-991.0983473873797
 30
0.0
 11
5285.665955774352
 21
-991.0983473873797
 31
0.0
  0
LINE
  5
9B
330
1F
100
AcDbEntity
  8
0-0_補助線
  6
JWW_HOJO
 62
   120
370
     5
100
AcDbLine
 10
-1792.67863775795
 20
3112.612074684367
 30
0.0
 11
5048.19665780208
 21
3112.612074684367
 31
0.0
  0
LINE
  5
9C
330
1F
100
AcDbEntity
  8
0-0_補助線
  6
JWW_HOJO
 62
   120
370
     5
100
AcDbLine
 10
-1885.856674363608
 20
3412.612074684367
 30
0.0
 11
5029.561050480947
 21
3412.612074684367
 31
0.0
  0
LINE
  5
9D
330
1F
100
AcDbEntity
  8
0-0_補助線
  6
JWW_HOJO
 62
   120
370
     5
100
AcDbLine
 10
-1792.67863775795
 20
3262.612074684367
 30
0.0
 11
5048.19665780208
 21
3262.612074684367
 31
0.0
  0
LINE
  5
9E
330
1F
100
AcDbEntity
  8
1-0_補助線
  6
Continuous
 62
    40
370
    15
100
AcDbLine
 10
-3136.915611850722
 20
-945.2053567547251
 30
0.0
 11
-3002.561782778241
 21
-909.2053567547247
 31
0.0
  0
LINE
  5
9F
330
1F
100
AcDbEntity
  8
1-0_補助線
  6
Continuous
 62
    40
370
    15
100
AcDbLine
 10
-3136.915611850722
 20
-945.2053567547251
 30
0.0
 11
-3658.915611850722
 21
-945.2053567547251
 31
0.0
  0
LINE
  5
A0
330
1F
100
AcDbEntity
  8
1-0_補助線
  6
Continuous
 62
    40
370
    15
100
AcDbLine
 10
-4829.322628303507
 20
-2007.509382146821
 30
0.0
 11
-4829.322628303507
 21
-1699.40938214682
 31
0.0
  0
LINE
  5
A1
330
1F
100
AcDbEntity
  8
1-0_補助線
  6
Continuous
 62
    40
370
    15
100
AcDbLine
 10
-4901.322628303507
 20
-1662.509382146821
 30
0.0
 11
-4901.322628303507
 21
-2007.509382146821
 31
0.0
  0
LINE
  5
A2
330
1F
100
AcDbEntity
  8
1-0_補助線
  6
Continuous
 62
    40
370
    15
100
AcDbLine
 10
-4860.822628303508
 20
-1680.209382146821
 30
0.0
 11
-4860.822628303508
 21
-1699.40938214682
 31
0.0
  0
LINE
  5
A3
330
1F
100
AcDbEntity
  8
1-0_補助線
  6
Continuous
 62
    40
370
    15
100
AcDbLine
 10
-4829.322628303507
 20
-1699.40938214682
 30
0.0
 11
-4860.822628303508
 21
-1699.40938214682
 31
0.0
  0
LINE
  5
A4
330
1F
100
AcDbEntity
  8
1-0_補助線
  6
Continuous
 62
    40
370
    15
100
AcDbLine
 10
-4829.322628303507
 20
-1680.209382146821
 30
0.0
 11
-4860.822628303508
 21
-1680.209382146821
 31
0.0
  0
LINE
  5
A5
330
1F
100
AcDbEntity
  8
1-0_補助線
  6
Continuous
 62
    40
370
    15
100
AcDbLine
 10
-4829.322628303507
 20
-1680.509382146821
 30
0.0
 11
-4829.322628303507
 21
-1662.509382146821
 31
0.0
  0
LINE
  5
A6
330
1F
100
AcDbEntity
  8
1-0_補助線
  6
Continuous
 62
    40
370
    15
100
AcDbLine
 10
-4379.322628303507
 20
-1662.509382146821
 30
0.0
 11
-4901.322628303507
 21
-1662.509382146821
 31
0.0
  0
LINE
  5
A7
330
1F
100
AcDbEntity
  8
1-0_補助線
  6
Continuous
 62
    40
370
    15
100
AcDbLine
 10
-4379.322628303507
 20
-1680.509382146821
 30
0.0
 11
-4379.322628303507
 21
-1662.509382146821
 31
0.0
  0
LINE
  5
A8
330
1F
100
AcDbEntity
  8
1-0_補助線
  6
Continuous
 62
    40
370
    15
100
AcDbLine
 10
-4379.322628303507
 20
-1680.209382146821
 30
0.0
 11
-4347.822628303508
 21
-1680.209382146821
 31
0.0
  0
LINE
  5
A9
330
1F
100
AcDbEntity
  8
1-0_補助線
  6
Continuous
 62
    40
370
    15
100
AcDbLine
 10
-4379.322628303507
 20
-1699.40938214682
 30
0.0
 11
-4347.822628303508
 21
-1699.40938214682
 31
0.0
  0
LINE
  5
AA
330
1F
100
AcDbEntity
  8
1-0_補助線
  6
Continuous
 62
    40
370
    15
100
AcDbLine
 10
-4347.822628303508
 20
-1680.209382146821
 30
0.0
 11
-4347.822628303508
 21
-1699.40938214682
 31
0.0
  0
LINE
  5
AB
330
1F
100
AcDbEntity
  8
1-0_補助線
  6
Continuous
 62
    40
370
    15
100
AcDbLine
 10
-4379.322628303507
 20
-2007.509382146821
 30
0.0
 11
-4379.322628303507
 21
-1699.40938214682
 31
0.0
  0
LINE
  5
AC
330
1F
100
AcDbEntity
  8
1-0_補助線
  6
Continuous
 62
    40
370
    15
100
AcDbLine
 10
-4829.322628303507
 20
-1680.509382146821
 30
0.0
 11
-4859.322628303507
 21
-1680.509382146821
 31
0.0
  0
LINE
  5
AD
330
1F
100
AcDbEntity
  8
1-0_補助線
  6
Continuous
 62
    40
370
    15
100
AcDbLine
 10
-4859.322628303507
 20
-1698.509382146821
 30
0.0
 11
-4859.322628303507
 21
-1680.509382146821
 31
0.0
  0
LINE
  5
AE
330
1F
100
AcDbEntity
  8
1-0_補助線
  6
Continuous
 62
    40
370
    15
100
AcDbLine
 10
-4349.322628303507
 20
-1698.509382146821
 30
0.0
 11
-4349.322628303507
 21
-1680.509382146821
 31
0.0
  0
LINE
  5
AF
330
1F
100
AcDbEntity
  8
1-0_補助線
  6
Continuous
 62
    40
370
    15
100
AcDbLine
 10
-4379.322628303507
 20
-1680.509382146821
 30
0.0
 11
-4349.322628303507
 21
-1680.509382146821
 31
0.0
  0
LINE
  5
B0
330
1F
100
AcDbEntity
  8
1-0_補助線
  6
Continuous
 62
    40
370
    15
100
AcDbLine
 10
-4859.322628303507
 20
-1698.509382146821
 30
0.0
 11
-4349.322628303507
 21
-1698.509382146821
 31
0.0
  0
LINE
  5
B1
330
1F
100
AcDbEntity
  8
1-0_補助線
  6
Continuous
 62
    40
370
    15
100
AcDbLine
 10
-4829.322628303507
 20
-2007.509382146821
 30
0.0
 11
-4379.322628303507
 21
-1747.701761011489
 31
0.0
  0
LINE
  5
B2
330
1F
100
AcDbEntity
  8
1-0_補助線
  6
Continuous
 62
    40
370
    15
100
AcDbLine
 10
-4379.322628303507
 20
-1662.509382146821
 30
0.0
 11
-3136.915611850722
 21
-945.2053567547254
 31
0.0
  0
LINE
  5
B3
330
1F
100
AcDbEntity
  8
1-0_補助線
  6
Continuous
 62
    40
370
    15
100
AcDbLine
 10
-4901.322628303507
 20
-1662.509382146821
 30
0.0
 11
-3658.915611850722
 21
-945.2053567547251
 31
0.0
  0
LINE
  5
B4
330
1F
100
AcDbEntity
  8
1-0_補助線
  6
Continuous
 62
    40
370
    15
100
AcDbLine
 10
-4829.322628303508
 20
-1662.509382146821
 30
0.0
 11
-3586.915611850722
 21
-945.2053567547251
 31
0.0
  0
LINE
  5
B5
330
1F
100
AcDbEntity
  8
1-0_補助線
  6
Continuous
 62
    40
370
    15
100
AcDbLine
 10
-4330.145713767268
 20
-1675.686296683061
 30
0.0
 11
-4330.145713767268
 21
-2020.68629668306
 31
0.0
  0
LINE
  5
B6
330
1F
100
AcDbEntity
  8
1-0_補助線
  6
Continuous
 62
    40
370
    15
100
AcDbLine
 10
-3002.561782778241
 20
-1254.205356754724
 30
0.0
 11
-4330.145713767268
 21
-2020.68629668306
 31
0.0
  0
LINE
  5
B7
330
1F
100
AcDbEntity
  8
1-0_補助線
  6
Continuous
 62
    40
370
    15
100
AcDbLine
 10
-4379.322628303507
 20
-1662.509382146821
 30
0.0
 11
-4330.145713767268
 21
-1675.686296683061
 31
0.0
  0
LINE
  5
B8
330
1F
100
AcDbEntity
  8
1-0_補助線
  6
Continuous
 62
    40
370
    15
100
AcDbLine
 10
-3002.561782778241
 20
-909.2053567547249
 30
0.0
 11
-4330.145713767268
 21
-1675.686296683061
 31
0.0
  0
LINE
  5
B9
330
1F
100
AcDbEntity
  8
1-0_補助線
  6
Continuous
 62
    40
370
    15
100
AcDbLine
 10
-4379.322628303507
 20
-2007.509382146821
 30
0.0
 11
-4330.145713767268
 21
-2020.68629668306
 31
0.0
  0
LINE
  5
BA
330
1F
100
AcDbEntity
  8
1-0_補助線
  6
Continuous
 62
    40
370
    15
100
AcDbLine
 10
-4901.322628303507
 20
-2007.509382146821
 30
0.0
 11
-4829.322628303507
 21
-2007.509382146821
 31
0.0
  0
LINE
  5
BB
330
1F
100
AcDbEntity
  8
1-0_補助線
  6
Continuous
 62
    40
370
    15
100
AcDbLine
 10
-4854.868604109855
 20
-2139.619130494006
 30
0.0
 11
-5448.868604109855
 21
-2139.619130494006
 31
0.0
  0
LINE
  5
BC
330
1F
100
AcDbEntity
  8
1-0_補助線
  6
Continuous
 62
    40
370
    15
100
AcDbLine
 10
-4854.868604109855
 20
-2484.619130494006
 30
0.0
 11
-5448.868604109855
 21
-2484.619130494006
 31
0.0
  0
LINE
  5
BD
330
1F
100
AcDbEntity
  8
1-0_補助線
  6
Continuous
 62
    40
370
    15
100
AcDbLine
 10
-4854.868604109855
 20
-2484.619130494006
 30
0.0
 11
-4854.868604109855
 21
-2139.619130494006
 31
0.0
  0
LINE
  5
BE
330
1F
100
AcDbEntity
  8
1-0_補助線
  6
Continuous
 62
    40
370
    15
100
AcDbLine
 10
-5448.868604109855
 20
-2484.619130494006
 30
0.0
 11
-5448.868604109855
 21
-2139.619130494006
 31
0.0
  0
LINE
  5
BF
330
1F
100
AcDbEntity
  8
1-0_補助線
  6
Continuous
 62
    40
370
    15
100
AcDbLine
 10
-5448.868604109855
 20
-2139.619130494006
 30
0.0
 11
-5397.984896330115
 21
-2110.241408110006
 31
0.0
  0
LINE
  5
C0
330
1F
100
AcDbEntity
  8
1-0_補助線
  6
Continuous
 62
    40
370
    15
100
AcDbLine
 10
-4875.984896330115
 20
-2110.241408110006
 30
0.0
 11
-4854.868604109855
 21
-2139.619130494006
 31
0.0
  0
LINE
  5
C1
330
1F
100
AcDbEntity
  8
1-0_補助線
  6
Continuous
 62
    40
370
    15
100
AcDbLine
 10
-5397.984896330115
 20
-2110.241408110006
 30
0.0
 11
-4875.984896330115
 21
-2110.241408110006
 31
0.0
  0
LINE
  5
C2
330
1F
100
AcDbEntity
  8
1-0_補助線
  6
Continuous
 62
    40
370
    15
100
AcDbLine
 10
-3002.561782778241
 20
-909.2053567547249
 30
0.0
 11
-3002.561782778241
 21
-1254.205356754724
 31
0.0
  0
LINE
  5
C3
330
1F
100
AcDbEntity
  8
1-0_補助線
  6
Continuous
 62
    40
370
    15
100
AcDbLine
 10
-2574.226074508664
 20
-494.3029097170805
 30
0.0
 11
-3168.226074508664
 21
-494.3029097170805
 31
0.0
  0
LINE
  5
C4
330
1F
100
AcDbEntity
  8
1-0_補助線
  6
Continuous
 62
    40
370
    15
100
AcDbLine
 10
-2574.226074508664
 20
-839.3029097170805
 30
0.0
 11
-2574.226074508664
 21
-494.3029097170805
 31
0.0
  0
LINE
  5
C5
330
1F
100
AcDbEntity
  8
1-0_補助線
  6
Continuous
 62
    40
370
    15
100
AcDbLine
 10
-3168.226074508664
 20
-494.3029097170805
 30
0.0
 11
-3219.109782288405
 21
-523.6806321010804
 31
0.0
  0
LINE
  5
C6
330
1F
100
AcDbEntity
  8
1-0_補助線
  6
Continuous
 62
    40
370
    15
100
AcDbLine
 10
-3219.109782288405
 20
-523.6806321010804
 30
0.0
 11
-3219.109782288405
 21
-868.6806321010804
 31
0.0
  0
LINE
  5
C7
330
1F
100
AcDbEntity
  8
1-0_補助線
  6
Continuous
 62
    40
370
    15
100
AcDbLine
 10
-2683.865227056405
 20
-523.6806321010805
 30
0.0
 11
-2683.865227056405
 21
-868.6806321010804
 31
0.0
  0
LINE
  5
C8
330
1F
100
AcDbEntity
  8
1-0_補助線
  6
Continuous
 62
    40
370
    15
100
AcDbLine
 10
-3219.109782288405
 20
-868.6806321010804
 30
0.0
 11
-2683.865227056404
 21
-868.6806321010804
 31
0.0
  0
LINE
  5
C9
330
1F
100
AcDbEntity
  8
1-0_補助線
  6
Continuous
 62
    40
370
    15
100
AcDbLine
 10
-2683.865227056404
 20
-868.6806321010804
 30
0.0
 11
-2574.226074508664
 21
-839.3029097170805
 31
0.0
  0
LINE
  5
CA
330
1F
100
AcDbEntity
  8
1-0_補助線
  6
Continuous
 62
    40
370
    15
100
AcDbLine
 10
-2683.865227056405
 20
-523.6806321010805
 30
0.0
 11
-3219.109782288405
 21
-523.6806321010805
 31
0.0
  0
LINE
  5
CB
330
1F
100
AcDbEntity
  8
1-0_補助線
  6
Continuous
 62
    40
370
    15
100
AcDbLine
 10
-2683.865227056405
 20
-523.6806321010805
 30
0.0
 11
-2574.226074508664
 21
-494.3029097170805
 31
0.0
  0
LINE
  5
CC
330
1F
100
AcDbEntity
  8
1-A_文字
  6
Continuous
 62
     7
370
     9
100
AcDbLine
 10
-4013.061564059901
 20
-1305.074875207987
 30
0.0
 11
-4204.92688449094
 21
-972.7543920109442
 31
0.0
  0
LINE
  5
CD
330
1F
100
AcDbEntity
  8
1-A_文字
  6
Continuous
 62
     7
370
     9
100
AcDbLine
 10
-4874.764281752636
 20
-1873.266777592901
 30
0.0
 11
-5003.295194121718
 21
-1650.644707026467
 31
0.0
  0
LINE
  5
CE
330
1F
100
AcDbEntity
  8
1-A_文字
  6
Continuous
 62
     7
370
     9
100
AcDbLine
 10
-3169.606211869108
 20
-695.5352190793121
 30
0.0
 11
-3297.535278789869
 21
-473.9555754076748
 31
0.0
  0
LINE
  5
CF
330
1F
100
AcDbEntity
  8
1-A_文字
  6
Continuous
 62
     7
370
     9
100
AcDbLine
 10
-4950.471436494732
 20
-2398.363838047698
 30
0.0
 11
-4830.239269700792
 21
-2606.612059638898
 31
0.0
  0
LINE
  5
D0
330
1F
100
AcDbEntity
  8
1-A_文字
  6
Continuous
 62
     7
370
     9
100
AcDbLine
 10
-3148.123497873914
 20
-1295.562950637826
 30
0.0
 11
-2975.082372547657
 21
-1595.278971501798
 31
0.0
  0
MTEXT
  5
D1
330
1F
100
AcDbEntity
  8
1-A_文字
  6
Continuous
 62
     7
370
     9
100
AcDbMText
 10
-5513.810316139768
 20
-286.8257570715475
 30
0.0
 40
91.43999999999997
 41
1140.0
 46
0.0
 71
     7
 72
     1
  1
{\fＭＳ ゴシック|b0|i0|c128|p49;■組立全体図 S=1/10}
 73
     1
 44
1.0
  0
MTEXT
  5
D2
330
1F
100
AcDbEntity
  8
0-B_寸法
  6
Continuous
 62
     7
370
   211
100
AcDbMText
 10
-3531.407023050038
 20
1728.589778652554
 30
0.0
 40
91.44
 41
180.0
 46
0.0
 71
     7
 72
     1
  1
{\fＭＳ ゴシック|b0|i0|c128|p49;115}
 11
6.123031769111886E-17
 21
1.0
 31
0.0
 73
     1
 44
1.0
  0
LINE
  5
D3
330
1F
100
AcDbEntity
  8
0-B_寸法
  6
Continuous
 62
   120
370
     5
100
AcDbLine
 10
-2755.447699019025
 20
3412.612074684367
 30
0.0
 11
-2035.447699019025
 21
3412.612074684367
 31
0.0
  0
LWPOLYLINE
  5
D4
330
1F
100
AcDbEntity
  8
0-B_寸法
  6
Continuous
 62
     7
370
     9
100
AcDbPolyline
 90
        4
 70
     1
 43
3.0
 10
-2753.947699019026
 20
3412.612074684367
 42
0.4142135623731
 10
-2755.447699019025
 20
3414.112074684366
 42
0.4142135623731
 10
-2756.947699019025
 20
3412.612074684367
 42
0.4142135623731
 10
-2755.447699019025
 20
3411.112074684367
 42
0.4142135623731
  0
LWPOLYLINE
  5
D5
330
1F
100
AcDbEntity
  8
0-B_寸法
  6
Continuous
 62
     7
370
     9
100
AcDbPolyline
 90
        4
 70
     1
 43
3.0
 10
-2033.947699019025
 20
3412.612074684367
 42
0.4142135623731
 10
-2035.447699019025
 20
3414.112074684366
 42
0.4142135623731
 10
-2036.947699019025
 20
3412.612074684367
 42
0.4142135623731
 10
-2035.447699019025
 20
3411.112074684367
 42
0.4142135623731
  0
LINE
  5
D6
330
1F
100
AcDbEntity
  8
0-B_寸法
  6
Continuous
 62
   120
370
     5
100
AcDbLine
 10
-2755.447699019025
 20
3412.612074684367
 30
0.0
 11
-2755.447699019025
 21
3112.612074684367
 31
0.0
  0
LINE
  5
D7
330
1F
100
AcDbEntity
  8
0-B_寸法
  6
Continuous
 62
   120
370
     5
100
AcDbLine
 10
-2035.447699019025
 20
3412.612074684367
 30
0.0
 11
-2035.447699019025
 21
3112.612074684367
 31
0.0
  0
LINE
  5
D8
330
1F
100
AcDbEntity
  8
0-B_寸法
  6
Continuous
 62
   120
370
     5
100
AcDbLine
 10
-3205.447699019025
 20
712.6120746843671
 30
0.0
 11
-3205.447699019025
 21
1162.612074684367
 31
0.0
  0
LWPOLYLINE
  5
D9
330
1F
100
AcDbEntity
  8
0-B_寸法
  6
Continuous
 62
     7
370
     9
100
AcDbPolyline
 90
        4
 70
     1
 43
3.0
 10
-3203.947699019026
 20
712.6120746843671
 42
0.4142135623731
 10
-3205.447699019025
 20
714.1120746843671
 42
0.4142135623731
 10
-3206.947699019025
 20
712.6120746843671
 42
0.4142135623731
 10
-3205.447699019025
 20
711.1120746843671
 42
0.4142135623731
  0
LWPOLYLINE
  5
DA
330
1F
100
AcDbEntity
  8
0-B_寸法
  6
Continuous
 62
     7
370
     9
100
AcDbPolyline
 90
        4
 70
     1
 43
3.0
 10
-3203.947699019026
 20
1162.612074684367
 42
0.4142135623731
 10
-3205.447699019025
 20
1164.112074684367
 42
0.4142135623731
 10
-3206.947699019025
 20
1162.612074684367
 42
0.4142135623731
 10
-3205.447699019025
 20
1161.112074684367
 42
0.4142135623731
  0
LINE
  5
DB
330
1F
100
AcDbEntity
  8
0-B_寸法
  6
Continuous
 62
   120
370
     5
100
AcDbLine
 10
-3205.447699019025
 20
1162.612074684367
 30
0.0
 11
-2905.447699019025
 21
1162.612074684367
 31
0.0
  0
LINE
  5
DC
330
1F
100
AcDbEntity
  8
0-B_寸法
  6
Continuous
 62
   120
370
     5
100
AcDbLine
 10
-3502.757968949025
 20
712.6120746843671
 30
0.0
 11
-3502.757968949025
 21
2962.612074684367
 31
0.0
  0
LWPOLYLINE
  5
DD
330
1F
100
AcDbEntity
  8
0-B_寸法
  6
Continuous
 62
     7
370
     9
100
AcDbPolyline
 90
        4
 70
     1
 43
3.0
 10
-3501.257968949025
 20
712.6120746843671
 42
0.4142135623731
 10
-3502.757968949025
 20
714.1120746843671
 42
0.4142135623731
 10
-3504.257968949024
 20
712.6120746843671
 42
0.4142135623731
 10
-3502.757968949025
 20
711.1120746843671
 42
0.4142135623731
  0
LWPOLYLINE
  5
DE
330
1F
100
AcDbEntity
  8
0-B_寸法
  6
Continuous
 62
     7
370
     9
100
AcDbPolyline
 90
        4
 70
     1
 43
3.0
 10
-3501.257968949025
 20
2962.612074684367
 42
0.4142135623731
 10
-3502.757968949025
 20
2964.112074684367
 42
0.4142135623731
 10
-3504.257968949024
 20
2962.612074684367
 42
0.4142135623731
 10
-3502.757968949025
 20
2961.112074684368
 42
0.4142135623731
  0
LINE
  5
DF
330
1F
100
AcDbEntity
  8
0-B_寸法
  6
Continuous
 62
   120
370
     5
100
AcDbLine
 10
-1585.447699019026
 20
712.6120746843671
 30
0.0
 11
-1585.447699019026
 21
2962.612074684367
 31
0.0
  0
LWPOLYLINE
  5
E0
330
1F
100
AcDbEntity
  8
0-B_寸法
  6
Continuous
 62
     7
370
     9
100
AcDbPolyline
 90
        4
 70
     1
 43
3.0
 10
-1583.947699019026
 20
712.6120746843671
 42
0.4142135623731
 10
-1585.447699019026
 20
714.1120746843671
 42
0.4142135623731
 10
-1586.947699019025
 20
712.6120746843671
 42
0.4142135623731
 10
-1585.447699019026
 20
711.1120746843671
 42
0.4142135623731
  0
LWPOLYLINE
  5
E1
330
1F
100
AcDbEntity
  8
0-B_寸法
  6
Continuous
 62
     7
370
     9
100
AcDbPolyline
 90
        4
 70
     1
 43
3.0
 10
-1583.947699019026
 20
2593.612074684367
 42
0.4142135623731
 10
-1585.447699019026
 20
2595.112074684367
 42
0.4142135623731
 10
-1586.947699019025
 20
2593.612074684367
 42
0.4142135623731
 10
-1585.447699019026
 20
2592.112074684367
 42
0.4142135623731
  0
LINE
  5
E2
330
1F
100
AcDbEntity
  8
0-B_寸法
  6
Continuous
 62
   120
370
     5
100
AcDbLine
 10
-1585.447699019026
 20
712.6120746843671
 30
0.0
 11
-1885.447699019026
 21
712.6120746843671
 31
0.0
  0
LINE
  5
E3
330
1F
100
AcDbEntity
  8
0-B_寸法
  6
Continuous
 62
   120
370
     5
100
AcDbLine
 10
-1585.447699019026
 20
2593.612074684367
 30
0.0
 11
-1885.447699019026
 21
2593.612074684367
 31
0.0
  0
LWPOLYLINE
  5
E4
330
1F
100
AcDbEntity
  8
0-B_寸法
  6
Continuous
 62
     7
370
     9
100
AcDbPolyline
 90
        4
 70
     1
 43
3.0
 10
-1583.947699019026
 20
2785.612074684366
 42
0.4142135623731
 10
-1585.447699019026
 20
2787.112074684366
 42
0.4142135623731
 10
-1586.947699019025
 20
2785.612074684366
 42
0.4142135623731
 10
-1585.447699019026
 20
2784.112074684366
 42
0.4142135623731
  0
LINE
  5
E5
330
1F
100
AcDbEntity
  8
0-B_寸法
  6
Continuous
 62
   120
370
     5
100
AcDbLine
 10
-1585.447699019026
 20
2785.612074684366
 30
0.0
 11
-1885.447699019026
 21
2785.612074684366
 31
0.0
  0
LWPOLYLINE
  5
E6
330
1F
100
AcDbEntity
  8
0-B_寸法
  6
Continuous
 62
     7
370
     9
100
AcDbPolyline
 90
        4
 70
     1
 43
3.0
 10
-1583.947699019026
 20
2962.612074684367
 42
0.4142135623731
 10
-1585.447699019026
 20
2964.112074684367
 42
0.4142135623731
 10
-1586.947699019025
 20
2962.612074684367
 42
0.4142135623731
 10
-1585.447699019026
 20
2961.112074684368
 42
0.4142135623731
  0
LINE
  5
E7
330
1F
100
AcDbEntity
  8
0-B_寸法
  6
Continuous
 62
   120
370
     5
100
AcDbLine
 10
-1585.447699019026
 20
2962.612074684367
 30
0.0
 11
-1885.447699019026
 21
2962.612074684367
 31
0.0
  0
LINE
  5
E8
330
1F
100
AcDbEntity
  8
0-B_寸法
  6
Continuous
 62
   120
370
     5
100
AcDbLine
 10
-3502.757968949025
 20
712.6120746843671
 30
0.0
 11
-2905.447699019025
 21
712.6120746843671
 31
0.0
  0
LINE
  5
E9
330
1F
100
AcDbEntity
  8
0-B_寸法
  6
Continuous
 62
   120
370
     5
100
AcDbLine
 10
-3502.757968949025
 20
2962.612074684367
 30
0.0
 11
-2908.137429098523
 21
2962.612074684367
 31
0.0
  0
MTEXT
  5
EA
330
1F
100
AcDbEntity
  8
0-B_寸法
  6
Continuous
 62
     7
370
   211
100
AcDbMText
 10
-3235.566756827076
 20
719.0223909653661
 30
0.0
 40
91.44
 41
480.0
 46
0.0
 71
     7
 72
     1
  1
{\fＭＳ ゴシック|b0|i0|c128|p49;15㎜以上}
 11
6.123031769111886E-17
 21
1.0
 31
0.0
 73
     1
 44
1.0
  0
MTEXT
  5
EB
330
1F
100
AcDbEntity
  8
0-B_寸法
  6
Continuous
 62
     7
370
   211
100
AcDbMText
 10
-1623.020999755529
 20
1488.832074684367
 30
0.0
 40
91.44
 41
300.0
 46
0.0
 71
     7
 72
     1
  1
{\fＭＳ ゴシック|b0|i0|c128|p49;102.7}
 11
6.123031769111886E-17
 21
1.0
 31
0.0
 73
     1
 44
1.0
  0
MTEXT
  5
EC
330
1F
100
AcDbEntity
  8
0-B_寸法
  6
Continuous
 62
     7
370
   211
100
AcDbMText
 10
-1623.020999755529
 20
2769.832074684366
 30
0.0
 40
91.44
 41
180.0
 46
0.0
 71
     7
 72
     1
  1
{\fＭＳ ゴシック|b0|i0|c128|p49;5.9}
 11
6.123031769111886E-17
 21
1.0
 31
0.0
 73
     1
 44
1.0
  0
MTEXT
  5
ED
330
1F
100
AcDbEntity
  8
0-B_寸法
  6
Continuous
 62
     7
370
   211
100
AcDbMText
 10
-1436.664926544215
 20
2585.332074684366
 30
0.0
 40
91.44
 41
180.0
 46
0.0
 71
     7
 72
     1
  1
{\fＭＳ ゴシック|b0|i0|c128|p49;6.4}
 11
6.123031769111886E-17
 21
1.0
 31
0.0
 73
     1
 44
1.0
  0
MTEXT
  5
EE
330
1F
100
AcDbEntity
  8
0-B_寸法
  6
Continuous
 62
     7
370
   211
100
AcDbMText
 10
-2455.447699019025
 20
3407.275302779008
 30
0.0
 40
91.44
 41
120.0
 46
0.0
 71
     7
 72
     1
  1
{\fＭＳ ゴシック|b0|i0|c128|p49;24}
 73
     1
 44
1.0
  0
MTEXT
  5
EF
330
1F
100
AcDbEntity
  8
0-B_寸法
  6
Continuous
 62
     7
370
   211
100
AcDbMText
 10
-3186.594599383904
 20
487.5713355227909
 30
0.0
 40
68.58
 41
180.0
 46
0.0
 71
     7
 72
     1
  1
{\fＭＳ ゴシック|b0|i0|c128|p49;C0.3}
 73
     1
 44
1.0
  0
MTEXT
  5
F0
330
1F
100
AcDbEntity
  8
0-B_寸法
  6
Continuous
 62
     7
370
   211
100
AcDbMText
 10
-1784.300798654147
 20
487.5713355227909
 30
0.0
 40
68.58
 41
180.0
 46
0.0
 71
     7
 72
     1
  1
{\fＭＳ ゴシック|b0|i0|c128|p49;C0.3}
 73
     1
 44
1.0
  0
LINE
  5
F1
330
1F
100
AcDbEntity
  8
0-B_寸法
  6
Continuous
 62
   120
370
     5
100
AcDbLine
 10
-2035.447699019025
 20
2313.973289262445
 30
0.0
 11
-2350.447699019025
 21
2313.973289262445
 31
0.0
  0
LWPOLYLINE
  5
F2
330
1F
100
AcDbEntity
  8
0-B_寸法
  6
Continuous
 62
     7
370
     9
100
AcDbPolyline
 90
        4
 70
     1
 43
3.0
 10
-2033.947699019025
 20
2313.973289262445
 42
0.4142135623731
 10
-2035.447699019025
 20
2315.473289262444
 42
0.4142135623731
 10
-2036.947699019025
 20
2313.973289262445
 42
0.4142135623731
 10
-2035.447699019025
 20
2312.473289262445
 42
0.4142135623731
  0
LWPOLYLINE
  5
F3
330
1F
100
AcDbEntity
  8
0-B_寸法
  6
Continuous
 62
     7
370
     9
100
AcDbPolyline
 90
        4
 70
     1
 43
3.0
 10
-2348.947699019026
 20
2313.973289262445
 42
0.4142135623731
 10
-2350.447699019025
 20
2315.473289262444
 42
0.4142135623731
 10
-2351.947699019025
 20
2313.973289262445
 42
0.4142135623731
 10
-2350.447699019025
 20
2312.473289262445
 42
0.4142135623731
  0
LINE
  5
F4
330
1F
100
AcDbEntity
  8
0-B_寸法
  6
Continuous
 62
   120
370
     5
100
AcDbLine
 10
-2035.447699019025
 20
2313.973289262445
 30
0.0
 11
-2035.447699019025
 21
2458.399246001213
 31
0.0
  0
LINE
  5
F5
330
1F
100
AcDbEntity
  8
0-B_寸法
  6
Continuous
 62
   120
370
     5
100
AcDbLine
 10
-2350.447699019025
 20
2313.973289262445
 30
0.0
 11
-2350.447699019025
 21
2458.399246001213
 31
0.0
  0
MTEXT
  5
F6
330
1F
100
AcDbEntity
  8
0-B_寸法
  6
Continuous
 62
     7
370
   211
100
AcDbMText
 10
-2312.947699019025
 20
2314.693289262445
 30
0.0
 40
91.44
 41
240.0
 46
0.0
 71
     7
 72
     1
  1
{\fＭＳ ゴシック|b0|i0|c128|p49;10.5}
 73
     1
 44
1.0
  0
MTEXT
  5
F7
330
1F
100
AcDbEntity
  8
0-B_寸法
  6
Continuous
 62
     7
370
   211
100
AcDbMText
 10
-1961.197969624175
 20
3022.191276225188
 30
0.0
 40
68.57999999999991
 41
179.9999999999998
 46
0.0
 71
     7
 72
     1
  1
{\fＭＳ ゴシック|b0|i0|c128|p49;C0.3}
 73
     1
 44
1.0
  0
MTEXT
  5
F8
330
1F
100
AcDbEntity
  8
0-B_寸法
  6
Continuous
 62
     7
370
   211
100
AcDbMText
 10
-3009.697428413874
 20
3022.191276225188
 30
0.0
 40
68.58
 41
180.0
 46
0.0
 71
     7
 72
     1
  1
{\fＭＳ ゴシック|b0|i0|c128|p49;C0.3}
 73
     1
 44
1.0
  0
MTEXT
  5
F9
330
1F
100
AcDbEntity
  8
0-B_寸法
  6
Continuous
 62
     7
370
   211
100
AcDbMText
 10
-259.122901605449
 20
2588.332074684367
 30
0.0
 40
91.44
 41
60.0
 46
0.0
 71
     7
 72
     1
  1
{\fＭＳ ゴシック|b0|i0|c128|p49;2}
 11
6.123031769111886E-17
 21
1.0
 31
0.0
 73
     1
 44
1.0
  0
MTEXT
  5
FA
330
1F
100
AcDbEntity
  8
0-B_寸法
  6
Continuous
 62
     7
370
   211
100
AcDbMText
 10
2297.096055980044
 20
2588.332074684367
 30
0.0
 40
91.44
 41
60.0
 46
0.0
 71
     7
 72
     1
  1
{\fＭＳ ゴシック|b0|i0|c128|p49;2}
 11
6.123031769111886E-17
 21
1.0
 31
0.0
 73
     1
 44
1.0
  0
LINE
  5
FB
330
1F
100
AcDbEntity
  8
0-B_寸法
  6
Continuous
 62
   120
370
     5
100
AcDbLine
 10
-496.0134228127026
 20
3412.612074684367
 30
0.0
 11
2413.986577187298
 21
3412.612074684367
 31
0.0
  0
LWPOLYLINE
  5
FC
330
1F
100
AcDbEntity
  8
0-B_寸法
  6
Continuous
 62
     7
370
     9
100
AcDbPolyline
 90
        4
 70
     1
 43
3.0
 10
-494.5134228127025
 20
3412.612074684367
 42
0.4142135623731
 10
-496.0134228127026
 20
3414.112074684366
 42
0.4142135623731
 10
-497.5134228127026
 20
3412.612074684367
 42
0.4142135623731
 10
-496.0134228127026
 20
3411.112074684367
 42
0.4142135623731
  0
LWPOLYLINE
  5
FD
330
1F
100
AcDbEntity
  8
0-B_寸法
  6
Continuous
 62
     7
370
     9
100
AcDbPolyline
 90
        4
 70
     1
 43
3.0
 10
-194.5134228127026
 20
3412.612074684367
 42
0.4142135623731
 10
-196.0134228127026
 20
3414.112074684366
 42
0.4142135623731
 10
-197.5134228127025
 20
3412.612074684367
 42
0.4142135623731
 10
-196.0134228127026
 20
3411.112074684367
 42
0.4142135623731
  0
LINE
  5
FE
330
1F
100
AcDbEntity
  8
0-B_寸法
  6
Continuous
 62
   120
370
     5
100
AcDbLine
 10
-496.0134228127026
 20
3412.612074684367
 30
0.0
 11
-496.0134228127026
 21
3112.612074684367
 31
0.0
  0
LINE
  5
FF
330
1F
100
AcDbEntity
  8
0-B_寸法
  6
Continuous
 62
   120
370
     5
100
AcDbLine
 10
-196.0134228127026
 20
3412.612074684367
 30
0.0
 11
-196.0134228127026
 21
3112.612074684367
 31
0.0
  0
LWPOLYLINE
  5
100
330
1F
100
AcDbEntity
  8
0-B_寸法
  6
Continuous
 62
     7
370
     9
100
AcDbPolyline
 90
        4
 70
     1
 43
3.0
 10
2115.486577187297
 20
3412.612074684367
 42
0.4142135623731
 10
2113.986577187298
 20
3414.112074684366
 42
0.4142135623731
 10
2112.486577187298
 20
3412.612074684367
 42
0.4142135623731
 10
2113.986577187298
 20
3411.112074684367
 42
0.4142135623731
  0
LINE
  5
101
330
1F
100
AcDbEntity
  8
0-B_寸法
  6
Continuous
 62
   120
370
     5
100
AcDbLine
 10
2113.986577187298
 20
3412.612074684367
 30
0.0
 11
2113.986577187298
 21
3112.612074684367
 31
0.0
  0
LWPOLYLINE
  5
102
330
1F
100
AcDbEntity
  8
0-B_寸法
  6
Continuous
 62
     7
370
     9
100
AcDbPolyline
 90
        4
 70
     1
 43
3.0
 10
2415.486577187297
 20
3412.612074684367
 42
0.4142135623731
 10
2413.986577187298
 20
3414.112074684366
 42
0.4142135623731
 10
2412.486577187298
 20
3412.612074684367
 42
0.4142135623731
 10
2413.986577187298
 20
3411.112074684367
 42
0.4142135623731
  0
LINE
  5
103
330
1F
100
AcDbEntity
  8
0-B_寸法
  6
Continuous
 62
   120
370
     5
100
AcDbLine
 10
2413.986577187298
 20
3412.612074684367
 30
0.0
 11
2413.986577187298
 21
3112.612074684367
 31
0.0
  0
LINE
  5
104
330
1F
100
AcDbEntity
  8
0-B_寸法
  6
Continuous
 62
   120
370
     5
100
AcDbLine
 10
-946.0134228127025
 20
2962.612074684367
 30
0.0
 11
-946.0134228127025
 21
2602.612074684367
 31
0.0
  0
LWPOLYLINE
  5
105
330
1F
100
AcDbEntity
  8
0-B_寸法
  6
Continuous
 62
     7
370
     9
100
AcDbPolyline
 90
        4
 70
     1
 43
3.0
 10
-944.5134228127025
 20
2962.612074684367
 42
0.4142135623731
 10
-946.0134228127025
 20
2964.112074684367
 42
0.4142135623731
 10
-947.5134228127026
 20
2962.612074684367
 42
0.4142135623731
 10
-946.0134228127025
 20
2961.112074684368
 42
0.4142135623731
  0
LWPOLYLINE
  5
106
330
1F
100
AcDbEntity
  8
0-B_寸法
  6
Continuous
 62
     7
370
     9
100
AcDbPolyline
 90
        4
 70
     1
 43
3.0
 10
-944.5134228127025
 20
2782.612074684367
 42
0.4142135623731
 10
-946.0134228127025
 20
2784.112074684367
 42
0.4142135623731
 10
-947.5134228127026
 20
2782.612074684367
 42
0.4142135623731
 10
-946.0134228127025
 20
2781.112074684368
 42
0.4142135623731
  0
LINE
  5
107
330
1F
100
AcDbEntity
  8
0-B_寸法
  6
Continuous
 62
   120
370
     5
100
AcDbLine
 10
-946.0134228127025
 20
2962.612074684367
 30
0.0
 11
-646.0134228127025
 21
2962.612074684367
 31
0.0
  0
LINE
  5
108
330
1F
100
AcDbEntity
  8
0-B_寸法
  6
Continuous
 62
   120
370
     5
100
AcDbLine
 10
-946.0134228127025
 20
2782.612074684367
 30
0.0
 11
-646.0134228127025
 21
2782.612074684367
 31
0.0
  0
LWPOLYLINE
  5
109
330
1F
100
AcDbEntity
  8
0-B_寸法
  6
Continuous
 62
     7
370
     9
100
AcDbPolyline
 90
        4
 70
     1
 43
3.0
 10
-944.5134228127025
 20
2602.612074684367
 42
0.4142135623731
 10
-946.0134228127025
 20
2604.112074684367
 42
0.4142135623731
 10
-947.5134228127026
 20
2602.612074684367
 42
0.4142135623731
 10
-946.0134228127025
 20
2601.112074684368
 42
0.4142135623731
  0
LINE
  5
10A
330
1F
100
AcDbEntity
  8
0-B_寸法
  6
Continuous
 62
   120
370
     5
100
AcDbLine
 10
-946.0134228127025
 20
2602.612074684367
 30
0.0
 11
-646.0134228127025
 21
2602.612074684367
 31
0.0
  0
LINE
  5
10B
330
1F
100
AcDbEntity
  8
0-B_寸法
  6
Continuous
 62
   120
370
     5
100
AcDbLine
 10
2863.986577187298
 20
2962.612074684367
 30
0.0
 11
2863.986577187298
 21
2602.612074684367
 31
0.0
  0
LWPOLYLINE
  5
10C
330
1F
100
AcDbEntity
  8
0-B_寸法
  6
Continuous
 62
     7
370
     9
100
AcDbPolyline
 90
        4
 70
     1
 43
3.0
 10
2865.486577187297
 20
2962.612074684367
 42
0.4142135623731
 10
2863.986577187298
 20
2964.112074684367
 42
0.4142135623731
 10
2862.486577187298
 20
2962.612074684367
 42
0.4142135623731
 10
2863.986577187298
 20
2961.112074684368
 42
0.4142135623731
  0
LWPOLYLINE
  5
10D
330
1F
100
AcDbEntity
  8
0-B_寸法
  6
Continuous
 62
     7
370
     9
100
AcDbPolyline
 90
        4
 70
     1
 43
3.0
 10
2865.486577187297
 20
2782.612074684367
 42
0.4142135623731
 10
2863.986577187298
 20
2784.112074684367
 42
0.4142135623731
 10
2862.486577187298
 20
2782.612074684367
 42
0.4142135623731
 10
2863.986577187298
 20
2781.112074684368
 42
0.4142135623731
  0
LINE
  5
10E
330
1F
100
AcDbEntity
  8
0-B_寸法
  6
Continuous
 62
   120
370
     5
100
AcDbLine
 10
3163.986577187298
 20
2962.612074684367
 30
0.0
 11
2563.986577187298
 21
2962.612074684367
 31
0.0
  0
LINE
  5
10F
330
1F
100
AcDbEntity
  8
0-B_寸法
  6
Continuous
 62
   120
370
     5
100
AcDbLine
 10
2863.986577187298
 20
2782.612074684367
 30
0.0
 11
2563.986577187298
 21
2782.612074684367
 31
0.0
  0
LWPOLYLINE
  5
110
330
1F
100
AcDbEntity
  8
0-B_寸法
  6
Continuous
 62
     7
370
     9
100
AcDbPolyline
 90
        4
 70
     1
 43
3.0
 10
2865.486577187297
 20
2602.612074684367
 42
0.4142135623731
 10
2863.986577187298
 20
2604.112074684367
 42
0.4142135623731
 10
2862.486577187298
 20
2602.612074684367
 42
0.4142135623731
 10
2863.986577187298
 20
2601.112074684368
 42
0.4142135623731
  0
LINE
  5
111
330
1F
100
AcDbEntity
  8
0-B_寸法
  6
Continuous
 62
   120
370
     5
100
AcDbLine
 10
3163.986577187298
 20
2602.612074684367
 30
0.0
 11
2563.986577187298
 21
2602.612074684367
 31
0.0
  0
LINE
  5
112
330
1F
100
AcDbEntity
  8
0-B_寸法
  6
Continuous
 62
   120
370
     5
100
AcDbLine
 10
3163.986577187298
 20
2962.612074684367
 30
0.0
 11
3163.986577187298
 21
2602.612074684367
 31
0.0
  0
LWPOLYLINE
  5
113
330
1F
100
AcDbEntity
  8
0-B_寸法
  6
Continuous
 62
     7
370
     9
100
AcDbPolyline
 90
        4
 70
     1
 43
3.0
 10
3165.486577187297
 20
2962.612074684367
 42
0.4142135623731
 10
3163.986577187298
 20
2964.112074684367
 42
0.4142135623731
 10
3162.486577187298
 20
2962.612074684367
 42
0.4142135623731
 10
3163.986577187298
 20
2961.112074684368
 42
0.4142135623731
  0
LWPOLYLINE
  5
114
330
1F
100
AcDbEntity
  8
0-B_寸法
  6
Continuous
 62
     7
370
     9
100
AcDbPolyline
 90
        4
 70
     1
 43
3.0
 10
3165.486577187297
 20
2602.612074684367
 42
0.4142135623731
 10
3163.986577187298
 20
2604.112074684367
 42
0.4142135623731
 10
3162.486577187298
 20
2602.612074684367
 42
0.4142135623731
 10
3163.986577187298
 20
2601.112074684368
 42
0.4142135623731
  0
LINE
  5
115
330
1F
100
AcDbEntity
  8
0-B_寸法
  6
Continuous
 62
   120
370
     5
100
AcDbLine
 10
-496.0134228127026
 20
2152.612074684367
 30
0.0
 11
2413.986577187298
 21
2152.612074684367
 31
0.0
  0
LWPOLYLINE
  5
116
330
1F
100
AcDbEntity
  8
0-B_寸法
  6
Continuous
 62
     7
370
     9
100
AcDbPolyline
 90
        4
 70
     1
 43
3.0
 10
-494.5134228127025
 20
2152.612074684367
 42
0.4142135623731
 10
-496.0134228127026
 20
2154.112074684367
 42
0.4142135623731
 10
-497.5134228127026
 20
2152.612074684367
 42
0.4142135623731
 10
-496.0134228127026
 20
2151.112074684368
 42
0.4142135623731
  0
LWPOLYLINE
  5
117
330
1F
100
AcDbEntity
  8
0-B_寸法
  6
Continuous
 62
     7
370
     9
100
AcDbPolyline
 90
        4
 70
     1
 43
3.0
 10
2415.486577187297
 20
2152.612074684367
 42
0.4142135623731
 10
2413.986577187298
 20
2154.112074684367
 42
0.4142135623731
 10
2412.486577187298
 20
2152.612074684367
 42
0.4142135623731
 10
2413.986577187298
 20
2151.112074684368
 42
0.4142135623731
  0
LINE
  5
118
330
1F
100
AcDbEntity
  8
0-B_寸法
  6
Continuous
 62
   120
370
     5
100
AcDbLine
 10
-496.0134228127026
 20
2152.612074684367
 30
0.0
 11
-496.0134228127026
 21
2452.612074684367
 31
0.0
  0
LINE
  5
119
330
1F
100
AcDbEntity
  8
0-B_寸法
  6
Continuous
 62
   120
370
     5
100
AcDbLine
 10
2413.986577187298
 20
2152.612074684367
 30
0.0
 11
2413.986577187298
 21
2452.612074684367
 31
0.0
  0
MTEXT
  5
11A
330
1F
100
AcDbEntity
  8
0-B_寸法
  6
Continuous
 62
     7
370
   211
100
AcDbMText
 10
-961.3690103322633
 20
2828.332074684367
 30
0.0
 40
91.44
 41
60.0
 46
0.0
 71
     7
 72
     1
  1
{\fＭＳ ゴシック|b0|i0|c128|p49;6}
 11
6.123031769111886E-17
 21
1.0
 31
0.0
 73
     1
 44
1.0
  0
MTEXT
  5
11B
330
1F
100
AcDbEntity
  8
0-B_寸法
  6
Continuous
 62
     7
370
   211
100
AcDbMText
 10
-961.3690103322633
 20
2648.332074684367
 30
0.0
 40
91.44
 41
60.0
 46
0.0
 71
     7
 72
     1
  1
{\fＭＳ ゴシック|b0|i0|c128|p49;6}
 11
6.123031769111886E-17
 21
1.0
 31
0.0
 73
     1
 44
1.0
  0
MTEXT
  5
11C
330
1F
100
AcDbEntity
  8
0-B_寸法
  6
Continuous
 62
     7
370
   211
100
AcDbMText
 10
2848.630989667737
 20
2828.332074684367
 30
0.0
 40
91.44
 41
60.0
 46
0.0
 71
     7
 72
     1
  1
{\fＭＳ ゴシック|b0|i0|c128|p49;6}
 11
6.123031769111886E-17
 21
1.0
 31
0.0
 73
     1
 44
1.0
  0
MTEXT
  5
11D
330
1F
100
AcDbEntity
  8
0-B_寸法
  6
Continuous
 62
     7
370
   211
100
AcDbMText
 10
2848.630989667737
 20
2648.332074684367
 30
0.0
 40
91.44
 41
60.0
 46
0.0
 71
     7
 72
     1
  1
{\fＭＳ ゴシック|b0|i0|c128|p49;6}
 11
6.123031769111886E-17
 21
1.0
 31
0.0
 73
     1
 44
1.0
  0
MTEXT
  5
11E
330
1F
100
AcDbEntity
  8
0-B_寸法
  6
Continuous
 62
     7
370
   211
100
AcDbMText
 10
3148.630989667737
 20
2708.332074684367
 30
0.0
 40
91.44
 41
120.0
 46
0.0
 71
     7
 72
     1
  1
{\fＭＳ ゴシック|b0|i0|c128|p49;12}
 11
6.123031769111886E-17
 21
1.0
 31
0.0
 73
     1
 44
1.0
  0
MTEXT
  5
11F
330
1F
100
AcDbEntity
  8
0-B_寸法
  6
Continuous
 62
     7
370
   211
100
AcDbMText
 10
-406.0134228127026
 20
3407.275302779008
 30
0.0
 40
91.44
 41
120.0
 46
0.0
 71
     7
 72
     1
  1
{\fＭＳ ゴシック|b0|i0|c128|p49;10}
 73
     1
 44
1.0
  0
MTEXT
  5
120
330
1F
100
AcDbEntity
  8
0-B_寸法
  6
Continuous
 62
     7
370
   211
100
AcDbMText
 10
2203.986577187298
 20
3407.275302779008
 30
0.0
 40
91.44
 41
120.0
 46
0.0
 71
     7
 72
     1
  1
{\fＭＳ ゴシック|b0|i0|c128|p49;10}
 73
     1
 44
1.0
  0
MTEXT
  5
121
330
1F
100
AcDbEntity
  8
0-B_寸法
  6
Continuous
 62
     7
370
   211
100
AcDbMText
 10
868.9865771872975
 20
3407.275302779008
 30
0.0
 40
91.44
 41
180.0
 46
0.0
 71
     7
 72
     1
  1
{\fＭＳ ゴシック|b0|i0|c128|p49;150}
 73
     1
 44
1.0
  0
MTEXT
  5
122
330
1F
100
AcDbEntity
  8
0-B_寸法
  6
Continuous
 62
     7
370
   211
100
AcDbMText
 10
868.9865771872975
 20
2163.348514093486
 30
0.0
 40
91.44
 41
180.0
 46
0.0
 71
     7
 72
     1
  1
{\fＭＳ ゴシック|b0|i0|c128|p49;170}
 73
     1
 44
1.0
  0
MTEXT
  5
123
330
1F
100
AcDbEntity
  8
0-B_寸法
  6
Continuous
 62
     7
370
   211
100
AcDbMText
 10
-927.1603231775813
 20
2377.571335522791
 30
0.0
 40
68.58
 41
180.0
 46
0.0
 71
     7
 72
     1
  1
{\fＭＳ ゴシック|b0|i0|c128|p49;C0.3}
 73
     1
 44
1.0
  0
MTEXT
  5
124
330
1F
100
AcDbEntity
  8
0-B_寸法
  6
Continuous
 62
     7
370
   211
100
AcDbMText
 10
2665.133477552176
 20
2377.571335522791
 30
0.0
 40
68.58
 41
180.0
 46
0.0
 71
     7
 72
     1
  1
{\fＭＳ ゴシック|b0|i0|c128|p49;C0.3}
 73
     1
 44
1.0
  0
LINE
  5
125
330
1F
100
AcDbEntity
  8
0-B_寸法
  6
Continuous
 62
   120
370
     5
100
AcDbLine
 10
-244.122901605449
 20
2602.612074684367
 30
0.0
 11
-244.122901605449
 21
2662.612074684367
 31
0.0
  0
LWPOLYLINE
  5
126
330
1F
100
AcDbEntity
  8
0-B_寸法
  6
Continuous
 62
     7
370
     9
100
AcDbPolyline
 90
        4
 70
     1
 43
3.0
 10
-242.622901605449
 20
2602.612074684367
 42
0.4142135623731
 10
-244.122901605449
 20
2604.112074684367
 42
0.4142135623731
 10
-245.6229016054491
 20
2602.612074684367
 42
0.4142135623731
 10
-244.122901605449
 20
2601.112074684368
 42
0.4142135623731
  0
LWPOLYLINE
  5
127
330
1F
100
AcDbEntity
  8
0-B_寸法
  6
Continuous
 62
     7
370
     9
100
AcDbPolyline
 90
        4
 70
     1
 43
3.0
 10
-242.622901605449
 20
2662.612074684367
 42
0.4142135623731
 10
-244.122901605449
 20
2664.112074684367
 42
0.4142135623731
 10
-245.6229016054491
 20
2662.612074684367
 42
0.4142135623731
 10
-244.122901605449
 20
2661.112074684368
 42
0.4142135623731
  0
LINE
  5
128
330
1F
100
AcDbEntity
  8
0-B_寸法
  6
Continuous
 62
   120
370
     5
100
AcDbLine
 10
-244.122901605449
 20
2602.612074684367
 30
0.0
 11
-352.8306109787156
 21
2602.612074684367
 31
0.0
  0
LINE
  5
129
330
1F
100
AcDbEntity
  8
0-B_寸法
  6
Continuous
 62
   120
370
     5
100
AcDbLine
 10
-244.122901605449
 20
2662.612074684367
 30
0.0
 11
-352.8306109787156
 21
2662.612074684367
 31
0.0
  0
LINE
  5
12A
330
1F
100
AcDbEntity
  8
0-B_寸法
  6
Continuous
 62
   120
370
     5
100
AcDbLine
 10
2162.096055980044
 20
2602.612074684367
 30
0.0
 11
2162.096055980044
 21
2662.612074684367
 31
0.0
  0
LWPOLYLINE
  5
12B
330
1F
100
AcDbEntity
  8
0-B_寸法
  6
Continuous
 62
     7
370
     9
100
AcDbPolyline
 90
        4
 70
     1
 43
3.0
 10
2163.596055980044
 20
2602.612074684367
 42
0.4142135623731
 10
2162.096055980044
 20
2604.112074684367
 42
0.4142135623731
 10
2160.596055980044
 20
2602.612074684367
 42
0.4142135623731
 10
2162.096055980044
 20
2601.112074684368
 42
0.4142135623731
  0
LWPOLYLINE
  5
12C
330
1F
100
AcDbEntity
  8
0-B_寸法
  6
Continuous
 62
     7
370
     9
100
AcDbPolyline
 90
        4
 70
     1
 43
3.0
 10
2163.596055980044
 20
2662.612074684367
 42
0.4142135623731
 10
2162.096055980044
 20
2664.112074684367
 42
0.4142135623731
 10
2160.596055980044
 20
2662.612074684367
 42
0.4142135623731
 10
2162.096055980044
 20
2661.112074684368
 42
0.4142135623731
  0
LINE
  5
12D
330
1F
100
AcDbEntity
  8
0-B_寸法
  6
Continuous
 62
   120
370
     5
100
AcDbLine
 10
2162.096055980044
 20
2602.612074684367
 30
0.0
 11
2270.80376535331
 21
2602.612074684367
 31
0.0
  0
LINE
  5
12E
330
1F
100
AcDbEntity
  8
0-B_寸法
  6
Continuous
 62
   120
370
     5
100
AcDbLine
 10
2162.096055980044
 20
2662.612074684367
 30
0.0
 11
2270.80376535331
 21
2662.612074684367
 31
0.0
  0
LINE
  5
12F
330
1F
100
AcDbEntity
  8
0-B_寸法
  6
Continuous
 62
   120
370
     5
100
AcDbLine
 10
4168.712034758013
 20
3412.612074684367
 30
0.0
 11
4888.712034758013
 21
3412.612074684367
 31
0.0
  0
LWPOLYLINE
  5
130
330
1F
100
AcDbEntity
  8
0-B_寸法
  6
Continuous
 62
     7
370
     9
100
AcDbPolyline
 90
        4
 70
     1
 43
3.0
 10
4170.212034758013
 20
3412.612074684367
 42
0.4142135623731
 10
4168.712034758013
 20
3414.112074684366
 42
0.4142135623731
 10
4167.212034758013
 20
3412.612074684367
 42
0.4142135623731
 10
4168.712034758013
 20
3411.112074684367
 42
0.4142135623731
  0
LWPOLYLINE
  5
131
330
1F
100
AcDbEntity
  8
0-B_寸法
  6
Continuous
 62
     7
370
     9
100
AcDbPolyline
 90
        4
 70
     1
 43
3.0
 10
4890.212034758013
 20
3412.612074684367
 42
0.4142135623731
 10
4888.712034758013
 20
3414.112074684366
 42
0.4142135623731
 10
4887.212034758013
 20
3412.612074684367
 42
0.4142135623731
 10
4888.712034758013
 20
3411.112074684367
 42
0.4142135623731
  0
LINE
  5
132
330
1F
100
AcDbEntity
  8
0-B_寸法
  6
Continuous
 62
   120
370
     5
100
AcDbLine
 10
4168.712034758013
 20
3412.612074684367
 30
0.0
 11
4168.712034758013
 21
3112.612074684367
 31
0.0
  0
LINE
  5
133
330
1F
100
AcDbEntity
  8
0-B_寸法
  6
Continuous
 62
   120
370
     5
100
AcDbLine
 10
4888.712034758013
 20
3412.612074684367
 30
0.0
 11
4888.712034758013
 21
3112.612074684367
 31
0.0
  0
MTEXT
  5
134
330
1F
100
AcDbEntity
  8
0-B_寸法
  6
Continuous
 62
     7
370
   211
100
AcDbMText
 10
4468.712034758013
 20
3416.010743710789
 30
0.0
 40
91.44
 41
120.0
 46
0.0
 71
     7
 72
     1
  1
{\fＭＳ ゴシック|b0|i0|c128|p49;24}
 73
     1
 44
1.0
  0
LINE
  5
135
330
1F
100
AcDbEntity
  8
0-B_寸法
  6
Continuous
 62
   120
370
     5
100
AcDbLine
 10
5338.712034758013
 20
2953.612074684367
 30
0.0
 11
5338.712034758013
 21
712.6120746843674
 31
0.0
  0
LWPOLYLINE
  5
136
330
1F
100
AcDbEntity
  8
0-B_寸法
  6
Continuous
 62
     7
370
     9
100
AcDbPolyline
 90
        4
 70
     1
 43
3.0
 10
5340.212034758013
 20
2953.612074684367
 42
0.4142135623731
 10
5338.712034758013
 20
2955.112074684367
 42
0.4142135623731
 10
5337.212034758013
 20
2953.612074684367
 42
0.4142135623731
 10
5338.712034758013
 20
2952.112074684367
 42
0.4142135623731
  0
LWPOLYLINE
  5
137
330
1F
100
AcDbEntity
  8
0-B_寸法
  6
Continuous
 62
     7
370
     9
100
AcDbPolyline
 90
        4
 70
     1
 43
3.0
 10
5340.212034758013
 20
712.6120746843674
 42
0.4142135623731
 10
5338.712034758013
 20
714.1120746843674
 42
0.4142135623731
 10
5337.212034758013
 20
712.6120746843674
 42
0.4142135623731
 10
5338.712034758013
 20
711.1120746843674
 42
0.4142135623731
  0
LINE
  5
138
330
1F
100
AcDbEntity
  8
0-B_寸法
  6
Continuous
 62
   120
370
     5
100
AcDbLine
 10
5338.712034758013
 20
2953.612074684367
 30
0.0
 11
5038.712034758013
 21
2953.612074684367
 31
0.0
  0
LINE
  5
139
330
1F
100
AcDbEntity
  8
0-B_寸法
  6
Continuous
 62
   120
370
     5
100
AcDbLine
 10
5338.712034758013
 20
712.6120746843674
 30
0.0
 11
5038.712034758013
 21
712.6120746843674
 31
0.0
  0
LINE
  5
13A
330
1F
100
AcDbEntity
  8
0-B_寸法
  6
Continuous
 62
   120
370
     5
100
AcDbLine
 10
3718.712034758013
 20
2962.612074684367
 30
0.0
 11
3718.712034758013
 21
712.6120746843671
 31
0.0
  0
LWPOLYLINE
  5
13B
330
1F
100
AcDbEntity
  8
0-B_寸法
  6
Continuous
 62
     7
370
     9
100
AcDbPolyline
 90
        4
 70
     1
 43
3.0
 10
3720.212034758013
 20
2962.612074684367
 42
0.4142135623731
 10
3718.712034758013
 20
2964.112074684367
 42
0.4142135623731
 10
3717.212034758013
 20
2962.612074684367
 42
0.4142135623731
 10
3718.712034758013
 20
2961.112074684368
 42
0.4142135623731
  0
LWPOLYLINE
  5
13C
330
1F
100
AcDbEntity
  8
0-B_寸法
  6
Continuous
 62
     7
370
     9
100
AcDbPolyline
 90
        4
 70
     1
 43
3.0
 10
3720.212034758013
 20
2785.612074684366
 42
0.4142135623731
 10
3718.712034758013
 20
2787.112074684366
 42
0.4142135623731
 10
3717.212034758013
 20
2785.612074684366
 42
0.4142135623731
 10
3718.712034758013
 20
2784.112074684366
 42
0.4142135623731
  0
LINE
  5
13D
330
1F
100
AcDbEntity
  8
0-B_寸法
  6
Continuous
 62
   120
370
     5
100
AcDbLine
 10
3718.712034758013
 20
2962.612074684367
 30
0.0
 11
4018.712034758013
 21
2962.612074684367
 31
0.0
  0
LINE
  5
13E
330
1F
100
AcDbEntity
  8
0-B_寸法
  6
Continuous
 62
   120
370
     5
100
AcDbLine
 10
3718.712034758013
 20
2785.612074684366
 30
0.0
 11
4018.712034758013
 21
2785.612074684366
 31
0.0
  0
MTEXT
  5
13F
330
1F
100
AcDbEntity
  8
0-B_寸法
  6
Continuous
 62
     7
370
   211
100
AcDbMText
 10
3703.712034758013
 20
2769.832074684366
 30
0.0
 40
91.44
 41
180.0
 46
0.0
 71
     7
 72
     1
  1
{\fＭＳ ゴシック|b0|i0|c128|p49;5.9}
 11
6.123031769111886E-17
 21
1.0
 31
0.0
 73
     1
 44
1.0
  0
LWPOLYLINE
  5
140
330
1F
100
AcDbEntity
  8
0-B_寸法
  6
Continuous
 62
     7
370
     9
100
AcDbPolyline
 90
        4
 70
     1
 43
3.0
 10
3720.212034758013
 20
2593.612074684367
 42
0.4142135623731
 10
3718.712034758013
 20
2595.112074684367
 42
0.4142135623731
 10
3717.212034758013
 20
2593.612074684367
 42
0.4142135623731
 10
3718.712034758013
 20
2592.112074684367
 42
0.4142135623731
  0
LINE
  5
141
330
1F
100
AcDbEntity
  8
0-B_寸法
  6
Continuous
 62
   120
370
     5
100
AcDbLine
 10
3718.712034758013
 20
2593.612074684367
 30
0.0
 11
4018.712034758013
 21
2593.612074684367
 31
0.0
  0
MTEXT
  5
142
330
1F
100
AcDbEntity
  8
0-B_寸法
  6
Continuous
 62
     7
370
   211
100
AcDbMText
 10
3703.712034758013
 20
2585.332074684366
 30
0.0
 40
91.44
 41
180.0
 46
0.0
 71
     7
 72
     1
  1
{\fＭＳ ゴシック|b0|i0|c128|p49;6.4}
 11
6.123031769111886E-17
 21
1.0
 31
0.0
 73
     1
 44
1.0
  0
LWPOLYLINE
  5
143
330
1F
100
AcDbEntity
  8
0-B_寸法
  6
Continuous
 62
     7
370
     9
100
AcDbPolyline
 90
        4
 70
     1
 43
3.0
 10
3720.212034758013
 20
712.6120746843671
 42
0.4142135623731
 10
3718.712034758013
 20
714.1120746843671
 42
0.4142135623731
 10
3717.212034758013
 20
712.6120746843671
 42
0.4142135623731
 10
3718.712034758013
 20
711.1120746843671
 42
0.4142135623731
  0
LINE
  5
144
330
1F
100
AcDbEntity
  8
0-B_寸法
  6
Continuous
 62
   120
370
     5
100
AcDbLine
 10
3718.712034758013
 20
712.6120746843671
 30
0.0
 11
4018.712034758013
 21
712.6120746843671
 31
0.0
  0
MTEXT
  5
145
330
1F
100
AcDbEntity
  8
0-B_寸法
  6
Continuous
 62
     7
370
   211
100
AcDbMText
 10
3703.712034758013
 20
1488.832074684367
 30
0.0
 40
91.44
 41
300.0
 46
0.0
 71
     7
 72
     1
  1
{\fＭＳ ゴシック|b0|i0|c128|p49;102.7}
 11
6.123031769111886E-17
 21
1.0
 31
0.0
 73
     1
 44
1.0
  0
LINE
  5
146
330
1F
100
AcDbEntity
  8
0-B_寸法
  6
Continuous
 62
   120
370
     5
100
AcDbLine
 10
4168.712034758013
 20
3262.612074684367
 30
0.0
 11
4318.712034758013
 21
3262.612074684367
 31
0.0
  0
LWPOLYLINE
  5
147
330
1F
100
AcDbEntity
  8
0-B_寸法
  6
Continuous
 62
     7
370
     9
100
AcDbPolyline
 90
        4
 70
     1
 43
3.0
 10
4170.212034758013
 20
3262.612074684367
 42
0.4142135623731
 10
4168.712034758013
 20
3264.112074684367
 42
0.4142135623731
 10
4167.212034758013
 20
3262.612074684367
 42
0.4142135623731
 10
4168.712034758013
 20
3261.112074684368
 42
0.4142135623731
  0
LWPOLYLINE
  5
148
330
1F
100
AcDbEntity
  8
0-B_寸法
  6
Continuous
 62
     7
370
     9
100
AcDbPolyline
 90
        4
 70
     1
 43
3.0
 10
4320.212034758013
 20
3262.612074684367
 42
0.4142135623731
 10
4318.712034758013
 20
3264.112074684367
 42
0.4142135623731
 10
4317.212034758013
 20
3262.612074684367
 42
0.4142135623731
 10
4318.712034758013
 20
3261.112074684368
 42
0.4142135623731
  0
LINE
  5
149
330
1F
100
AcDbEntity
  8
0-B_寸法
  6
Continuous
 62
   120
370
     5
100
AcDbLine
 10
4318.712034758013
 20
3262.612074684367
 30
0.0
 11
4318.712034758013
 21
3112.612074684367
 31
0.0
  0
LINE
  5
14A
330
1F
100
AcDbEntity
  8
0-B_寸法
  6
Continuous
 62
   120
370
     5
100
AcDbLine
 10
4888.712034758013
 20
3262.612074684367
 30
0.0
 11
4738.712034758013
 21
3262.612074684367
 31
0.0
  0
LWPOLYLINE
  5
14B
330
1F
100
AcDbEntity
  8
0-B_寸法
  6
Continuous
 62
     7
370
     9
100
AcDbPolyline
 90
        4
 70
     1
 43
3.0
 10
4890.212034758013
 20
3262.612074684367
 42
0.4142135623731
 10
4888.712034758013
 20
3264.112074684367
 42
0.4142135623731
 10
4887.212034758013
 20
3262.612074684367
 42
0.4142135623731
 10
4888.712034758013
 20
3261.112074684368
 42
0.4142135623731
  0
LWPOLYLINE
  5
14C
330
1F
100
AcDbEntity
  8
0-B_寸法
  6
Continuous
 62
     7
370
     9
100
AcDbPolyline
 90
        4
 70
     1
 43
3.0
 10
4740.212034758013
 20
3262.612074684367
 42
0.4142135623731
 10
4738.712034758013
 20
3264.112074684367
 42
0.4142135623731
 10
4737.212034758013
 20
3262.612074684367
 42
0.4142135623731
 10
4738.712034758013
 20
3261.112074684368
 42
0.4142135623731
  0
LINE
  5
14D
330
1F
100
AcDbEntity
  8
0-B_寸法
  6
Continuous
 62
   120
370
     5
100
AcDbLine
 10
4738.712034758013
 20
3262.612074684367
 30
0.0
 11
4738.712034758013
 21
3112.612074684367
 31
0.0
  0
MTEXT
  5
14E
330
1F
100
AcDbEntity
  8
0-B_寸法
  6
Continuous
 62
     7
370
   211
100
AcDbMText
 10
4935.624986628437
 20
3166.713095141534
 30
0.0
 40
68.58
 41
810.0
 46
0.0
 71
     7
 72
     1
  1
{\fＭＳ ゴシック|b0|i0|c128|p49;ﾗｯﾋﾟﾝｸﾞ範囲5㎜以上}
 73
     1
 44
1.0
  0
MTEXT
  5
14F
330
1F
100
AcDbEntity
  8
0-B_寸法
  6
Continuous
 62
     7
370
   211
100
AcDbMText
 10
3311.799082887589
 20
3166.713095141534
 30
0.0
 40
68.58
 41
810.0
 46
0.0
 71
     7
 72
     1
  1
{\fＭＳ ゴシック|b0|i0|c128|p49;ﾗｯﾋﾟﾝｸﾞ範囲5㎜以上}
 73
     1
 44
1.0
  0
LINE
  5
150
330
1F
100
AcDbEntity
  8
0-B_寸法
  6
Continuous
 62
   120
370
     5
100
AcDbLine
 10
4483.712034758013
 20
2313.973289262445
 30
0.0
 11
4168.712034758013
 21
2313.973289262445
 31
0.0
  0
LWPOLYLINE
  5
151
330
1F
100
AcDbEntity
  8
0-B_寸法
  6
Continuous
 62
     7
370
     9
100
AcDbPolyline
 90
        4
 70
     1
 43
3.0
 10
4485.212034758013
 20
2313.973289262445
 42
0.4142135623731
 10
4483.712034758013
 20
2315.473289262444
 42
0.4142135623731
 10
4482.212034758013
 20
2313.973289262445
 42
0.4142135623731
 10
4483.712034758013
 20
2312.473289262445
 42
0.4142135623731
  0
LWPOLYLINE
  5
152
330
1F
100
AcDbEntity
  8
0-B_寸法
  6
Continuous
 62
     7
370
     9
100
AcDbPolyline
 90
        4
 70
     1
 43
3.0
 10
4170.212034758013
 20
2313.973289262445
 42
0.4142135623731
 10
4168.712034758013
 20
2315.473289262444
 42
0.4142135623731
 10
4167.212034758013
 20
2313.973289262445
 42
0.4142135623731
 10
4168.712034758013
 20
2312.473289262445
 42
0.4142135623731
  0
LINE
  5
153
330
1F
100
AcDbEntity
  8
0-B_寸法
  6
Continuous
 62
   120
370
     5
100
AcDbLine
 10
4483.712034758013
 20
2313.973289262445
 30
0.0
 11
4483.712034758013
 21
2458.399246001213
 31
0.0
  0
LINE
  5
154
330
1F
100
AcDbEntity
  8
0-B_寸法
  6
Continuous
 62
   120
370
     5
100
AcDbLine
 10
4168.712034758013
 20
2313.973289262445
 30
0.0
 11
4168.712034758013
 21
2458.399246001213
 31
0.0
  0
MTEXT
  5
155
330
1F
100
AcDbEntity
  8
0-B_寸法
  6
Continuous
 62
     7
370
   211
100
AcDbMText
 10
4206.212034758013
 20
2314.693289262445
 30
0.0
 40
91.44
 41
240.0
 46
0.0
 71
     7
 72
     1
  1
{\fＭＳ ゴシック|b0|i0|c128|p49;10.5}
 73
     1
 44
1.0
  0
MTEXT
  5
156
330
1F
100
AcDbEntity
  8
0-B_寸法
  6
Continuous
 62
     7
370
   211
100
AcDbMText
 10
3737.565134393135
 20
487.5713355227909
 30
0.0
 40
68.58
 41
180.0
 46
0.0
 71
     7
 72
     1
  1
{\fＭＳ ゴシック|b0|i0|c128|p49;C0.3}
 73
     1
 44
1.0
  0
MTEXT
  5
157
330
1F
100
AcDbEntity
  8
0-B_寸法
  6
Continuous
 62
     7
370
   211
100
AcDbMText
 10
5139.858935122895
 20
487.5713355227907
 30
0.0
 40
68.58
 41
90.0
 46
0.0
 71
     7
 72
     1
  1
{\fＭＳ ゴシック|b0|i0|c128|p49;C5}
 73
     1
 44
1.0
  0
MTEXT
  5
158
330
1F
100
AcDbEntity
  8
0-B_寸法
  6
Continuous
 62
     7
370
   211
100
AcDbMText
 10
5323.712034758013
 20
1728.832074684367
 30
0.0
 40
91.44
 41
180.0
 46
0.0
 71
     7
 72
     1
  1
{\fＭＳ ゴシック|b0|i0|c128|p49;115}
 11
6.123031769111886E-17
 21
1.0
 31
0.0
 73
     1
 44
1.0
  0
MTEXT
  5
159
330
1F
100
AcDbEntity
  8
0-B_寸法
  6
Continuous
 62
     7
370
   211
100
AcDbMText
 10
4962.961764152863
 20
3022.191276225188
 30
0.0
 40
68.58
 41
180.0
 46
0.0
 71
     7
 72
     1
  1
{\fＭＳ ゴシック|b0|i0|c128|p49;C0.3}
 73
     1
 44
1.0
  0
MTEXT
  5
15A
330
1F
100
AcDbEntity
  8
0-B_寸法
  6
Continuous
 62
     7
370
   211
100
AcDbMText
 10
3914.462305363167
 20
3022.191276225188
 30
0.0
 40
68.58
 41
180.0
 46
0.0
 71
     7
 72
     1
  1
{\fＭＳ ゴシック|b0|i0|c128|p49;C0.3}
 73
     1
 44
1.0
  0
LINE
  5
15B
330
1F
100
AcDbEntity
  8
0-A_文字
  6
Continuous
 62
   120
370
     5
100
AcDbLine
 10
-2980.225444398412
 20
487.834329304979
 30
0.0
 11
-3195.984505096605
 21
487.834329304979
 31
0.0
  0
LINE
  5
15C
330
1F
100
AcDbEntity
  8
0-A_文字
  6
Continuous
 62
   120
370
     5
100
AcDbLine
 10
-2750.947699019025
 20
717.1120746843669
 30
0.0
 11
-2980.225444398412
 21
487.834329304979
 31
0.0
  0
LINE
  5
15D
330
1F
100
AcDbEntity
  8
0-A_文字
  6
Continuous
 62
   120
370
     5
100
AcDbLine
 10
-1810.669953639638
 20
487.834329304979
 30
0.0
 11
-1594.910892941446
 21
487.834329304979
 31
0.0
  0
LINE
  5
15E
330
1F
100
AcDbEntity
  8
0-A_文字
  6
Continuous
 62
   120
370
     5
100
AcDbLine
 10
-2039.947699019026
 20
717.1120746843669
 30
0.0
 11
-1810.669953639638
 21
487.834329304979
 31
0.0
  0
LINE
  5
15F
330
1F
100
AcDbEntity
  8
0-A_文字
  6
Continuous
 62
   120
370
     5
100
AcDbLine
 10
-1970.781771736675
 20
3027.278001966717
 30
0.0
 11
-1795.275124982528
 21
3027.278001966717
 31
0.0
  0
LINE
  5
160
330
1F
100
AcDbEntity
  8
0-A_文字
  6
Continuous
 62
   120
370
     5
100
AcDbLine
 10
-2039.947699019025
 20
2958.112074684367
 30
0.0
 11
-1970.781771736675
 21
3027.278001966717
 31
0.0
  0
LINE
  5
161
330
1F
100
AcDbEntity
  8
0-A_文字
  6
Continuous
 62
   120
370
     5
100
AcDbLine
 10
-2820.113626301374
 20
3027.278001966717
 30
0.0
 11
-2995.620273055521
 21
3027.278001966717
 31
0.0
  0
LINE
  5
162
330
1F
100
AcDbEntity
  8
0-A_文字
  6
Continuous
 62
   120
370
     5
100
AcDbLine
 10
-2750.947699019024
 20
2958.112074684367
 30
0.0
 11
-2820.113626301374
 21
3027.278001966717
 31
0.0
  0
LINE
  5
163
330
1F
100
AcDbEntity
  8
0-A_文字
  6
Continuous
 62
   120
370
     5
100
AcDbLine
 10
-720.7911681920903
 20
2377.834329304979
 30
0.0
 11
-936.5502288902825
 21
2377.834329304979
 31
0.0
  0
LINE
  5
164
330
1F
100
AcDbEntity
  8
0-A_文字
  6
Continuous
 62
   120
370
     5
100
AcDbLine
 10
-491.5134228127024
 20
2607.112074684368
 30
0.0
 11
-720.7911681920903
 21
2377.834329304979
 31
0.0
  0
LINE
  5
165
330
1F
100
AcDbEntity
  8
0-A_文字
  6
Continuous
 62
   120
370
     5
100
AcDbLine
 10
2638.764322566685
 20
2377.834329304979
 30
0.0
 11
2854.523383264878
 21
2377.834329304979
 31
0.0
  0
LINE
  5
166
330
1F
100
AcDbEntity
  8
0-A_文字
  6
Continuous
 62
   120
370
     5
100
AcDbLine
 10
2409.486577187297
 20
2607.112074684368
 30
0.0
 11
2638.764322566685
 21
2377.834329304979
 31
0.0
  0
LINE
  5
167
330
1F
100
AcDbEntity
  8
0-A_文字
  6
Continuous
 62
   120
370
     5
100
AcDbLine
 10
4813.712034758013
 20
3262.612074684367
 30
0.0
 11
4904.547024950411
 21
3171.77708449197
 31
0.0
  0
LINE
  5
168
330
1F
100
AcDbEntity
  8
0-A_文字
  6
Continuous
 62
   120
370
     5
100
AcDbLine
 10
4904.547024950411
 20
3171.77708449197
 30
0.0
 11
5722.137280952712
 21
3171.77708449197
 31
0.0
  0
LINE
  5
169
330
1F
100
AcDbEntity
  8
0-A_文字
  6
Continuous
 62
   120
370
     5
100
AcDbLine
 10
4152.877044565616
 20
3171.77708449197
 30
0.0
 11
3335.286788563315
 21
3171.77708449197
 31
0.0
  0
LINE
  5
16A
330
1F
100
AcDbEntity
  8
0-A_文字
  6
Continuous
 62
   120
370
     5
100
AcDbLine
 10
4243.712034758013
 20
3262.612074684367
 30
0.0
 11
4152.877044565616
 21
3171.77708449197
 31
0.0
  0
LINE
  5
16B
330
1F
100
AcDbEntity
  8
0-A_文字
  6
Continuous
 62
   120
370
     5
100
AcDbLine
 10
3943.934289378627
 20
487.834329304979
 30
0.0
 11
3728.175228680434
 21
487.834329304979
 31
0.0
  0
LINE
  5
16C
330
1F
100
AcDbEntity
  8
0-A_文字
  6
Continuous
 62
   120
370
     5
100
AcDbLine
 10
4813.712034758014
 20
787.612074684368
 30
0.0
 11
5113.489780137404
 21
487.8343293049788
 31
0.0
  0
LINE
  5
16D
330
1F
100
AcDbEntity
  8
0-A_文字
  6
Continuous
 62
   120
370
     5
100
AcDbLine
 10
5113.489780137404
 20
487.8343293049788
 30
0.0
 11
5254.195647324258
 21
487.8343293049788
 31
0.0
  0
LINE
  5
16E
330
1F
100
AcDbEntity
  8
0-A_文字
  6
Continuous
 62
   120
370
     5
100
AcDbLine
 10
4953.377962040364
 20
3027.278001966717
 30
0.0
 11
5128.88460879451
 21
3027.278001966717
 31
0.0
  0
LINE
  5
16F
330
1F
100
AcDbEntity
  8
0-A_文字
  6
Continuous
 62
   120
370
     5
100
AcDbLine
 10
4104.046107475666
 20
3027.278001966717
 30
0.0
 11
3928.539460721519
 21
3027.278001966717
 31
0.0
  0
LINE
  5
170
330
1F
100
AcDbEntity
  8
0-A_文字
  6
Continuous
 62
   120
370
     5
100
AcDbLine
 10
4173.212034758016
 20
2958.112074684367
 30
0.0
 11
4104.046107475666
 21
3027.278001966717
 31
0.0
  0
LINE
  5
171
330
1F
100
AcDbEntity
  8
0-A_文字
  6
Continuous
 62
   120
370
     5
100
AcDbLine
 10
4884.212034758014
 20
2958.112074684367
 30
0.0
 11
4953.377962040364
 21
3027.278001966717
 31
0.0
  0
LINE
  5
172
330
1F
100
AcDbEntity
  8
0-A_文字
  6
Continuous
 62
   120
370
     5
100
AcDbLine
 10
4173.212034758014
 20
717.1120746843669
 30
0.0
 11
3943.934289378627
 21
487.834329304979
 31
0.0
  0
LWPOLYLINE
  5
173
330
1F
100
AcDbEntity
  8
1-B_寸法
  6
Continuous
 62
     7
370
     9
100
AcDbPolyline
 90
        4
 70
     1
 43
3.0
 10
-4075.905596748619
 20
-2039.267037173668
 42
0.4142135623731
 10
-4077.405596748619
 20
-2037.767037173668
 42
0.4142135623731
 10
-4078.905596748619
 20
-2039.267037173668
 42
0.4142135623731
 10
-4077.405596748619
 20
-2040.767037173668
 42
0.4142135623731
  0
LINE
  5
174
330
1F
100
AcDbEntity
  8
1-B_寸法
  6
Continuous
 62
   120
370
     5
100
AcDbLine
 10
-4077.405596748619
 20
-2039.267037173668
 30
0.0
 11
-2749.821665759591
 21
-1272.786097245332
 31
0.0
  0
LINE
  5
175
330
1F
100
AcDbEntity
  8
1-B_寸法
  6
Continuous
 62
   120
370
     5
100
AcDbLine
 10
-4077.405596748619
 20
-2039.267037173668
 30
0.0
 11
-4238.306526160104
 21
-2039.267037173668
 31
0.0
  0
LINE
  5
176
330
1F
100
AcDbEntity
  8
1-B_寸法
  6
Continuous
 62
   120
370
     5
100
AcDbLine
 10
-2749.821665759591
 20
-1272.786097245332
 30
0.0
 11
-2911.554816047329
 21
-1272.786097245332
 31
0.0
  0
LWPOLYLINE
  5
177
330
1F
100
AcDbEntity
  8
1-B_寸法
  6
Continuous
 62
     7
370
     9
100
AcDbPolyline
 90
        4
 70
     1
 43
3.0
 10
-2748.321665759591
 20
-1272.786097245332
 42
0.4142135623731
 10
-2749.821665759591
 20
-1271.286097245332
 42
0.4142135623731
 10
-2751.321665759591
 20
-1272.786097245332
 42
0.4142135623731
 10
-2749.821665759591
 20
-1274.286097245332
 42
0.4142135623731
  0
LINE
  5
178
330
1F
100
AcDbEntity
  8
背板
  6
Continuous
 62
    40
370
    15
100
AcDbLine
 10
-2035.447699019025
 20
2785.612074684366
 30
0.0
 11
-2350.447699019025
 21
2785.612074684366
 31
0.0
  0
LINE
  5
179
330
1F
100
AcDbEntity
  8
背板
  6
Continuous
 62
    40
370
    15
100
AcDbLine
 10
-2035.447699019025
 20
2593.612074684367
 30
0.0
 11
-2350.447699019025
 21
2593.612074684367
 31
0.0
  0
LINE
  5
17A
330
1F
100
AcDbEntity
  8
背板
  6
Continuous
 62
    40
370
    15
100
AcDbLine
 10
-2350.447699019025
 20
2785.612074684366
 30
0.0
 11
-2350.447699019025
 21
2593.612074684367
 31
0.0
  0
LINE
  5
17B
330
1F
100
AcDbEntity
  8
背板
  6
Continuous
 62
    40
370
    15
100
AcDbLine
 10
-2035.447699019025
 20
1803.112074684366
 30
0.0
 11
-2035.447699019025
 21
2593.612074684367
 31
0.0
  0
LINE
  5
17C
330
1F
100
AcDbEntity
  8
背板
  6
Continuous
 62
    40
370
    15
100
AcDbLine
 10
-2755.447699019025
 20
721.6120746843667
 30
0.0
 11
-2755.447699019025
 21
1503.112074684366
 31
0.0
  0
LINE
  5
17D
330
1F
100
AcDbEntity
  8
背板
  6
Continuous
 62
    40
370
    15
100
AcDbLine
 10
-2755.447699019025
 20
721.6120746843667
 30
0.0
 11
-2746.447699019025
 21
712.6120746843671
 31
0.0
  0
LINE
  5
17E
330
1F
100
AcDbEntity
  8
背板
  6
Continuous
 62
    40
370
    15
100
AcDbLine
 10
-2044.447699019026
 20
712.6120746843671
 30
0.0
 11
-2746.447699019025
 21
712.6120746843671
 31
0.0
  0
LINE
  5
17F
330
1F
100
AcDbEntity
  8
背板
  6
Continuous
 62
    40
370
    15
100
AcDbLine
 10
-2035.447699019025
 20
721.6120746843667
 30
0.0
 11
-2035.447699019025
 21
1503.112074684366
 31
0.0
  0
LINE
  5
180
330
1F
100
AcDbEntity
  8
背板
  6
Continuous
 62
    40
370
    15
100
AcDbLine
 10
-2044.447699019026
 20
712.6120746843671
 30
0.0
 11
-2035.447699019025
 21
721.6120746843667
 31
0.0
  0
LINE
  5
181
330
1F
100
AcDbEntity
  8
背板
  6
Continuous
 62
    40
370
    15
100
AcDbLine
 10
-2755.447699019025
 20
2953.612074684367
 30
0.0
 11
-2755.447699019025
 21
1803.112074684366
 31
0.0
  0
LINE
  5
182
330
1F
100
AcDbEntity
  8
背板
  6
Continuous
 62
    40
370
    15
100
AcDbLine
 10
-2746.447699019025
 20
2962.612074684367
 30
0.0
 11
-2755.447699019025
 21
2953.612074684367
 31
0.0
  0
LINE
  5
183
330
1F
100
AcDbEntity
  8
背板
  6
Continuous
 62
    40
370
    15
100
AcDbLine
 10
-2044.447699019026
 20
2962.612074684367
 30
0.0
 11
-2746.447699019025
 21
2962.612074684367
 31
0.0
  0
LINE
  5
184
330
1F
100
AcDbEntity
  8
背板
  6
Continuous
 62
    40
370
    15
100
AcDbLine
 10
-2035.447699019025
 20
2953.612074684367
 30
0.0
 11
-2035.447699019025
 21
2785.612074684366
 31
0.0
  0
LINE
  5
185
330
1F
100
AcDbEntity
  8
背板
  6
Continuous
 62
    40
370
    15
100
AcDbLine
 10
-2044.447699019026
 20
2962.612074684367
 30
0.0
 11
-2035.447699019025
 21
2953.612074684367
 31
0.0
  0
LINE
  5
186
330
1F
100
AcDbEntity
  8
シート
  6
Continuous
 62
     7
370
     9
100
AcDbLine
 10
-2770.447699019025
 20
721.6120746843667
 30
0.0
 11
-2770.447699019025
 21
1162.612074684367
 31
0.0
  0
LINE
  5
187
330
1F
100
AcDbEntity
  8
シート
  6
Continuous
 62
     7
370
     9
100
AcDbLine
 10
-2766.054300736823
 20
711.0054729665679
 30
0.0
 11
-2757.054300736822
 21
702.0054729665684
 31
0.0
  0
LINE
  5
188
330
1F
100
AcDbEntity
  8
シート
  6
Continuous
 62
     7
370
     9
100
AcDbLine
 10
-2044.447699019026
 20
697.6120746843671
 30
0.0
 11
-2746.447699019025
 21
697.6120746843671
 31
0.0
  0
LINE
  5
189
330
1F
100
AcDbEntity
  8
シート
  6
Continuous
 62
     7
370
     9
100
AcDbLine
 10
-2020.447699019025
 20
721.6120746843667
 30
0.0
 11
-2020.447699019025
 21
1503.112074684366
 31
0.0
  0
LINE
  5
18A
330
1F
100
AcDbEntity
  8
シート
  6
Continuous
 62
     7
370
     9
100
AcDbLine
 10
-2033.841097301227
 20
702.0054729665684
 30
0.0
 11
-2024.841097301227
 21
711.0054729665679
 31
0.0
  0
LINE
  5
18B
330
1F
100
AcDbEntity
  8
シート
  6
Continuous
 62
     7
370
     9
100
AcDbLine
 10
-2020.447699019025
 20
2608.612074684367
 30
0.0
 11
-2170.447699019025
 21
2608.612074684367
 31
0.0
  0
LINE
  5
18C
330
1F
100
AcDbEntity
  8
シート
  6
Continuous
 62
     7
370
     9
100
AcDbLine
 10
-2020.447699019025
 20
1803.112074684366
 30
0.0
 11
-2020.447699019025
 21
2608.612074684367
 31
0.0
  0
LINE
  5
18D
330
1F
100
AcDbEntity
  8
シート
  6
Continuous
 62
     7
370
     9
100
AcDbLine
 10
-511.0134228127026
 20
2662.612074684367
 30
0.0
 11
-511.0134228127026
 21
2605.39887124877
 31
0.0
  0
LINE
  5
18E
330
1F
100
AcDbEntity
  8
シート
  6
Continuous
 62
     7
370
     9
100
AcDbLine
 10
-493.226626248298
 20
2587.612074684367
 30
0.0
 11
-511.0134228127026
 21
2605.39887124877
 31
0.0
  0
LINE
  5
18F
330
1F
100
AcDbEntity
  8
シート
  6
Continuous
 62
     7
370
     9
100
AcDbLine
 10
-493.226626248298
 20
2587.612074684367
 30
0.0
 11
808.9865771872975
 21
2587.612074684367
 31
0.0
  0
LINE
  5
190
330
1F
100
AcDbEntity
  8
シート
  6
Continuous
 62
     7
370
     9
100
AcDbLine
 10
2411.199780622893
 20
2587.612074684367
 30
0.0
 11
1108.986577187297
 21
2587.612074684367
 31
0.0
  0
LINE
  5
191
330
1F
100
AcDbEntity
  8
シート
  6
Continuous
 62
     7
370
     9
100
AcDbLine
 10
2428.986577187298
 20
2605.39887124877
 30
0.0
 11
2411.199780622893
 21
2587.612074684367
 31
0.0
  0
LINE
  5
192
330
1F
100
AcDbEntity
  8
シート
  6
Continuous
 62
     7
370
     9
100
AcDbLine
 10
2428.986577187298
 20
2605.39887124877
 30
0.0
 11
2428.986577187298
 21
2662.612074684367
 31
0.0
  0
LINE
  5
193
330
1F
100
AcDbEntity
  8
シート
  6
Continuous
 62
     7
370
     9
100
AcDbLine
 10
4903.712034758013
 20
1803.112074684366
 30
0.0
 11
4903.712034758013
 21
2959.825278119962
 31
0.0
  0
LINE
  5
194
330
1F
100
AcDbEntity
  8
シート
  6
Continuous
 62
     7
370
     9
100
AcDbLine
 10
4885.925238193612
 20
2977.612074684367
 30
0.0
 11
4903.712034758013
 21
2959.825278119962
 31
0.0
  0
LINE
  5
195
330
1F
100
AcDbEntity
  8
シート
  6
Continuous
 62
     7
370
     9
100
AcDbLine
 10
4885.925238193612
 20
2977.612074684367
 30
0.0
 11
4738.712034758013
 21
2977.612074684367
 31
0.0
  0
LINE
  5
196
330
1F
100
AcDbEntity
  8
シート
  6
Continuous
 62
     7
370
     9
100
AcDbLine
 10
4903.712034758013
 20
1503.112074684366
 30
0.0
 11
4903.712034758013
 21
856.3988712487705
 31
0.0
  0
LINE
  5
197
330
1F
100
AcDbEntity
  8
シート
  6
Continuous
 62
     7
370
     9
100
AcDbLine
 10
4903.712034758013
 20
856.3988712487705
 30
0.0
 11
4744.925238193609
 21
697.6120746843671
 31
0.0
  0
LINE
  5
198
330
1F
100
AcDbEntity
  8
シート
  6
Continuous
 62
     7
370
     9
100
AcDbLine
 10
4744.925238193609
 20
697.6120746843671
 30
0.0
 11
4171.49883132242
 21
697.6120746843671
 31
0.0
  0
LINE
  5
199
330
1F
100
AcDbEntity
  8
シート
  6
Continuous
 62
     7
370
     9
100
AcDbLine
 10
4153.712034758013
 20
715.398871248769
 30
0.0
 11
4171.49883132242
 21
697.6120746843671
 31
0.0
  0
LINE
  5
19A
330
1F
100
AcDbEntity
  8
シート
  6
Continuous
 62
     7
370
     9
100
AcDbLine
 10
4318.712034758013
 20
2608.612074684367
 30
0.0
 11
4138.712034758013
 21
2608.612074684367
 31
0.0
  0
LINE
  5
19B
330
1F
100
AcDbEntity
  8
シート
  6
Continuous
 62
     7
370
     9
100
AcDbLine
 10
4153.712034758013
 20
1162.612074684367
 30
0.0
 11
4153.712034758013
 21
715.3988712487692
 31
0.0
  0
LINE
  5
19C
330
1F
100
AcDbEntity
  8
シート
  6
Continuous
 62
     7
370
     9
100
AcDbLine
 10
4138.712034758013
 20
862.6120746843671
 30
0.0
 11
4138.712034758013
 21
1503.112074684366
 31
0.0
  0
LINE
  5
19D
330
1F
100
AcDbEntity
  8
シート
  6
Continuous
 62
     7
370
     9
100
AcDbLine
 10
4138.712034758013
 20
1803.112074684366
 30
0.0
 11
4138.712034758013
 21
2608.612074684367
 31
0.0
  0
LINE
  5
19E
330
1F
100
AcDbEntity
  8
0-0_補助線
  6
JWW_HOJO
 62
   120
370
     5
100
AcDbLine
 10
808.9865771872975
 20
2452.612074684367
 30
0.0
 11
2801.086496424051
 21
2452.612074684367
 31
0.0
  0
LINE
  5
19F
330
1F
100
AcDbEntity
  8
0-0_補助線
  6
JWW_HOJO
 62
   120
370
     5
100
AcDbLine
 10
808.9865771872975
 20
3093.251757119632
 30
0.0
 11
808.9865771872975
 21
-3538.45951192457
 31
0.0
  0
LINE
  5
1A0
330
1F
100
AcDbEntity
  8
0-0_補助線
  6
JWW_HOJO
 62
   120
370
     5
100
AcDbLine
 10
1108.986577187297
 20
3139.84077542246
 30
0.0
 11
1108.986577187297
 21
-3538.45951192457
 31
0.0
  0
LINE
  5
1A1
330
1F
100
AcDbEntity
  8
0-A_文字
  6
Continuous
 62
     7
370
     9
100
AcDbLine
 10
-725.2036613041057
 20
-2966.371599599001
 30
0.0
 11
-937.189394140577
 21
-2754.38586676253
 31
0.0
  0
LINE
  5
1A2
330
1F
100
AcDbEntity
  8
0-A_文字
  6
Continuous
 62
     7
370
     9
100
AcDbLine
 10
-937.189394140577
 20
-2754.38586676253
 30
0.0
 11
-1261.850915879813
 21
-2754.38586676253
 31
0.0
  0
LINE
  5
1A3
330
1F
100
AcDbEntity
  8
0-B_寸法
  6
Continuous
 62
   120
370
     5
100
AcDbLine
 10
-1366.013422812703
 20
-2417.827506420963
 30
0.0
 11
-1366.013422812703
 21
-3137.827506420967
 31
0.0
  0
LWPOLYLINE
  5
1A4
330
1F
100
AcDbEntity
  8
0-B_寸法
  6
Continuous
 62
     7
370
     9
100
AcDbPolyline
 90
        4
 70
     1
 43
3.0
 10
-1364.513422812703
 20
-2417.827506420963
 42
0.4142135623731
 10
-1366.013422812703
 20
-2416.327506420963
 42
0.4142135623731
 10
-1367.513422812702
 20
-2417.827506420963
 42
0.4142135623731
 10
-1366.013422812703
 20
-2419.327506420963
 42
0.4142135623731
  0
LWPOLYLINE
  5
1A5
330
1F
100
AcDbEntity
  8
0-B_寸法
  6
Continuous
 62
     7
370
     9
100
AcDbPolyline
 90
        4
 70
     1
 43
3.0
 10
-1364.513422812703
 20
-3137.827506420967
 42
0.4142135623731
 10
-1366.013422812703
 20
-3136.327506420967
 42
0.4142135623731
 10
-1367.513422812702
 20
-3137.827506420967
 42
0.4142135623731
 10
-1366.013422812703
 20
-3139.327506420967
 42
0.4142135623731
  0
LINE
  5
1A6
330
1F
100
AcDbEntity
  8
0-B_寸法
  6
Continuous
 62
   120
370
     5
100
AcDbLine
 10
-1366.013422812703
 20
-2417.827506420963
 30
0.0
 11
-1066.013422812703
 21
-2417.827506420963
 31
0.0
  0
LINE
  5
1A7
330
1F
100
AcDbEntity
  8
0-B_寸法
  6
Continuous
 62
   120
370
     5
100
AcDbLine
 10
-1366.013422812703
 20
-3137.827506420967
 30
0.0
 11
-1066.013422812703
 21
-3137.827506420967
 31
0.0
  0
MTEXT
  5
1A8
330
1F
100
AcDbEntity
  8
0-B_寸法
  6
Continuous
 62
     7
370
   211
100
AcDbMText
 10
-1381.013422812703
 20
-2852.107506420965
 30
0.0
 40
91.44
 41
120.0
 46
0.0
 71
     7
 72
     1
  1
{\fＭＳ ゴシック|b0|i0|c128|p49;24}
 11
6.123031769111886E-17
 21
1.0
 31
0.0
 73
     1
 44
1.0
  0
MTEXT
  5
1A9
330
1F
100
AcDbEntity
  8
0-B_寸法
  6
Continuous
 62
     7
370
   211
100
AcDbMText
 10
-1247.766057310761
 20
-2750.700567985024
 30
0.0
 40
68.57999999999998
 41
270.0
 46
0.0
 71
     7
 72
     1
  1
{\fＭＳ ゴシック|b0|i0|c128|p49;留接ぎ}
 73
     1
 44
1.0
  0
MTEXT
  5
1AA
330
1F
100
AcDbEntity
  8
0-B_寸法
  6
Continuous
 62
     7
370
   211
100
AcDbMText
 10
-46.92833826394427
 20
-3326.947461354099
 30
0.0
 40
68.58
 41
90.0
 46
0.0
 71
     7
 72
     1
  1
{\fＭＳ ゴシック|b0|i0|c128|p49;5C}
 73
     1
 44
1.0
  0
ARC
  5
1AB
330
1F
100
AcDbEntity
  8
0-B_寸法
  6
Continuous
 62
   120
370
     5
100
AcDbCircle
 10
-916.0134228127025
 20
-3137.827506420967
 30
0.0
 40
345.663578768643
100
AcDbArc
 50
0.0
 51
45.0000000000001
  0
LWPOLYLINE
  5
1AC
330
1F
100
AcDbEntity
  8
0-B_寸法
  6
Continuous
 62
     7
370
     9
100
AcDbPolyline
 90
        4
 70
     1
 43
3.0
 10
-670.0923622561852
 20
-2893.406445864448
 42
0.4142135623731
 10
-671.5923622561852
 20
-2891.906445864448
 42
0.4142135623731
 10
-673.0923622561852
 20
-2893.406445864448
 42
0.4142135623731
 10
-671.5923622561852
 20
-2894.906445864448
 42
0.4142135623731
  0
LWPOLYLINE
  5
1AD
330
1F
100
AcDbEntity
  8
0-B_寸法
  6
Continuous
 62
     7
370
     9
100
AcDbPolyline
 90
        4
 70
     1
 43
3.0
 10
-568.8498440440596
 20
-3137.827506420967
 42
0.4142135623731
 10
-570.3498440440596
 20
-3136.327506420967
 42
0.4142135623731
 10
-571.8498440440598
 20
-3137.827506420967
 42
0.4142135623731
 10
-570.3498440440596
 20
-3139.327506420967
 42
0.4142135623731
  0
LINE
  5
1AE
330
1F
100
AcDbEntity
  8
0-B_寸法
  6
Continuous
 62
   120
370
     5
100
AcDbLine
 10
-797.1658100888285
 20
-3018.979893697091
 30
0.0
 11
-671.5923622561852
 21
-2893.406445864448
 31
0.0
  0
LINE
  5
1AF
330
1F
100
AcDbEntity
  8
0-B_寸法
  6
Continuous
 62
   120
370
     5
100
AcDbLine
 10
-747.9375170429345
 20
-3137.827506420967
 30
0.0
 11
-570.3498440440596
 21
-3137.827506420967
 31
0.0
  0
MTEXT
  5
1B0
330
1F
100
AcDbEntity
  8
0-B_寸法
  6
Continuous
 62
     7
370
     9
100
AcDbMText
 10
-617.2452331789393
 20
-2930.938372242688
 30
0.0
 40
91.44000000000011
 41
180.0000000000002
 46
0.0
 71
     7
 72
     1
  1
{\fＭＳ ゴシック|b0|i0|c128|p49;45ﾟ}
 11
0.3826834323650901
 21
-0.9238795325112867
 31
0.0
 73
     1
 44
1.0
  0
LINE
  5
1B1
330
1F
100
AcDbEntity
  8
0-A_文字
  6
Continuous
 62
     7
370
     9
100
AcDbLine
 10
244.9574077149799
 20
-3147.000079213222
 30
0.0
 11
70.10887788660504
 21
-3321.848609041597
 31
0.0
  0
LINE
  5
1B2
330
1F
100
AcDbEntity
  8
0-A_文字
  6
Continuous
 62
     7
370
     9
100
AcDbLine
 10
70.10887788660504
 20
-3321.848609041597
 30
0.0
 11
-68.74198219073286
 21
-3321.848609041597
 31
0.0
  0
MTEXT
  5
1B3
330
1F
100
AcDbEntity
  8
0-A_文字
  6
Continuous
 62
     7
370
     9
100
AcDbMText
 10
418.9865771872977
 20
-2852.107506420965
 30
0.0
 40
91.43999999999998
 41
1080.0
 46
0.0
 71
     7
 72
     1
  1
{\fＭＳ ゴシック|b0|i0|c128|p49;側板右用（平面図）}
 73
     1
 44
1.0
  0
LINE
  5
1B4
330
1F
100
AcDbEntity
  8
側板右用
  6
Continuous
 62
   120
370
     5
100
AcDbLine
 10
-766.013422812703
 20
-2987.827506420967
 30
0.0
 11
808.9865771872975
 21
-2987.827506420967
 31
0.0
  0
LINE
  5
1B5
330
1F
100
AcDbEntity
  8
側板右用
  6
Continuous
 62
   120
370
     5
100
AcDbLine
 10
1108.986577187297
 20
-2987.827506420967
 30
0.0
 11
2833.986577187298
 21
-2987.827506420967
 31
0.0
  0
LINE
  5
1B6
330
1F
100
AcDbEntity
  8
0-0_補助線
  6
JWW_HOJO
 62
   120
370
     5
100
AcDbLine
 10
-1366.013422812703
 20
-381.437240162437
 30
0.0
 11
-1366.013422812703
 21
1868.562759837563
 31
0.0
  0
LINE
  5
1B7
330
1F
100
AcDbEntity
  8
0-0_補助線
  6
JWW_HOJO
 62
   120
370
     5
100
AcDbLine
 10
2833.986577187298
 20
-831.4372401624369
 30
0.0
 11
-916.0134228127025
 21
-831.4372401624369
 31
0.0
  0
LINE
  5
1B8
330
1F
100
AcDbEntity
  8
0-0_補助線
  6
JWW_HOJO
 62
   120
370
     5
100
AcDbLine
 10
610.7066365457226
 20
743.5627598375631
 30
0.0
 11
970.7066365457226
 21
743.5627598375631
 31
0.0
  0
LINE
  5
1B9
330
1F
100
AcDbEntity
  8
0-0_補助線
  6
JWW_HOJO
 62
   120
370
     5
100
AcDbLine
 10
2983.986577187298
 20
-531.437240162437
 30
0.0
 11
-1066.013422812703
 21
-531.437240162437
 31
0.0
  0
LINE
  5
1BA
330
1F
100
AcDbEntity
  8
0-0_補助線
  6
JWW_HOJO
 62
   120
370
     5
100
AcDbLine
 10
-1113.062784986857
 20
893.5627598375631
 30
0.0
 11
3175.811103512637
 21
893.5627598375631
 31
0.0
  0
LINE
  5
1BB
330
1F
100
AcDbEntity
  8
0-0_補助線
  6
JWW_HOJO
 62
   120
370
     5
100
AcDbLine
 10
-1113.062784986857
 20
593.5627598375631
 30
0.0
 11
3175.811103512637
 21
593.5627598375631
 31
0.0
  0
LINE
  5
1BC
330
1F
100
AcDbEntity
  8
0-0_補助線
  6
JWW_HOJO
 62
   120
370
     5
100
AcDbLine
 10
2983.986577187298
 20
-681.437240162437
 30
0.0
 11
-1066.013422812703
 21
-681.437240162437
 31
0.0
  0
LINE
  5
1BD
330
1F
100
AcDbEntity
  8
0-0_補助線
  6
JWW_HOJO
 62
   120
370
     5
100
AcDbLine
 10
2983.986577187298
 20
-531.437240162437
 30
0.0
 11
2983.986577187298
 21
2018.562759837563
 31
0.0
  0
LINE
  5
1BE
330
1F
100
AcDbEntity
  8
0-0_補助線
  6
JWW_HOJO
 62
   120
370
     5
100
AcDbLine
 10
-1066.013422812703
 20
-531.437240162437
 30
0.0
 11
-1066.013422812703
 21
2018.562759837563
 31
0.0
  0
LINE
  5
1BF
330
1F
100
AcDbEntity
  8
0-0_補助線
  6
JWW_HOJO
 62
   120
370
     5
100
AcDbLine
 10
2983.986577187298
 20
2018.562759837563
 30
0.0
 11
-1066.013422812703
 21
2018.562759837563
 31
0.0
  0
LINE
  5
1C0
330
1F
100
AcDbEntity
  8
0-A_文字
  6
Continuous
 62
     7
370
     9
100
AcDbLine
 10
2643.1768156787
 20
-1703.830317246524
 30
0.0
 11
2855.162548515172
 21
-1491.844584410053
 31
0.0
  0
LINE
  5
1C1
330
1F
100
AcDbEntity
  8
0-A_文字
  6
Continuous
 62
     7
370
     9
100
AcDbLine
 10
2855.162548515172
 20
-1491.844584410053
 30
0.0
 11
3179.824070254408
 21
-1491.844584410053
 31
0.0
  0
LINE
  5
1C2
330
1F
100
AcDbEntity
  8
0-A_文字
  6
Continuous
 62
     7
370
     9
100
AcDbLine
 10
2128.692742718841
 20
-1018.673840507914
 30
0.0
 11
2354.643781928958
 21
-1018.673840507914
 31
0.0
  0
LINE
  5
1C3
330
1F
100
AcDbEntity
  8
0-A_文字
  6
Continuous
 62
     7
370
     9
100
AcDbLine
 10
1992.080359158268
 20
-1155.286224068486
 30
0.0
 11
2128.692742718841
 21
-1018.673840507914
 31
0.0
  0
LINE
  5
1C4
330
1F
100
AcDbEntity
  8
0-0_補助線
  6
JWW_HOJO
 62
   120
370
     5
100
AcDbLine
 10
4540.432094116439
 20
-750.2862240684889
 30
0.0
 11
4900.432094116439
 21
-750.2862240684889
 31
0.0
  0
LINE
  5
1C5
330
1F
100
AcDbEntity
  8
0-0_補助線
  6
JWW_HOJO
 62
   120
370
     5
100
AcDbLine
 10
3807.95412941515
 20
-600.2862240684889
 30
0.0
 11
5145.898900865866
 21
-600.2862240684889
 31
0.0
  0
LINE
  5
1C6
330
1F
100
AcDbEntity
  8
0-A_文字
  6
Continuous
 62
     7
370
     9
100
AcDbLine
 10
4403.973409813619
 20
-1378.413317104781
 30
0.0
 11
4167.307616668936
 21
-1615.079110249465
 31
0.0
  0
LINE
  5
1C7
330
1F
100
AcDbEntity
  8
0-A_文字
  6
Continuous
 62
     7
370
     9
100
AcDbLine
 10
4167.307616668936
 20
-1615.079110249465
 30
0.0
 11
3835.58738651911
 21
-1615.079110249465
 31
0.0
  0
LINE
  5
1C8
330
1F
100
AcDbEntity
  8
0-0_補助線
  6
JWW_HOJO
 62
     7
370
     9
100
AcDbLine
 10
2833.986577187298
 20
-1875.286224068489
 30
0.0
 11
5498.305772542402
 21
-1875.286224068489
 31
0.0
  0
LINE
  5
1C9
330
1F
100
AcDbEntity
  8
0-0_補助線
  6
JWW_HOJO
 62
     7
370
     9
100
AcDbLine
 10
2113.986577187298
 20
-1155.286224068486
 30
0.0
 11
4168.712034758013
 21
-1155.286224068486
 31
0.0
  0
LINE
  5
1CA
330
1F
100
AcDbEntity
  8
0-0_補助線
  6
JWW_HOJO
 62
     7
370
     9
100
AcDbLine
 10
2113.986577187298
 20
-381.437240162437
 30
0.0
 11
2113.986577187298
 21
-1875.286224068489
 31
0.0
  0
LINE
  5
1CB
330
1F
100
AcDbEntity
  8
0-B_寸法
  6
Continuous
 62
   120
370
     5
100
AcDbLine
 10
2833.986577187298
 20
-831.4372401624369
 30
0.0
 11
-916.0134228127025
 21
-831.4372401624369
 31
0.0
  0
LWPOLYLINE
  5
1CC
330
1F
100
AcDbEntity
  8
0-B_寸法
  6
Continuous
 62
     7
370
     9
100
AcDbPolyline
 90
        4
 70
     1
 43
3.0
 10
2835.486577187297
 20
-831.4372401624369
 42
0.4142135623731
 10
2833.986577187298
 20
-829.9372401624368
 42
0.4142135623731
 10
2832.486577187298
 20
-831.4372401624369
 42
0.4142135623731
 10
2833.986577187298
 20
-832.9372401624369
 42
0.4142135623731
  0
LWPOLYLINE
  5
1CD
330
1F
100
AcDbEntity
  8
0-B_寸法
  6
Continuous
 62
     7
370
     9
100
AcDbPolyline
 90
        4
 70
     1
 43
3.0
 10
-914.5134228127025
 20
-831.4372401624369
 42
0.4142135623731
 10
-916.0134228127025
 20
-829.9372401624368
 42
0.4142135623731
 10
-917.5134228127026
 20
-831.4372401624369
 42
0.4142135623731
 10
-916.0134228127025
 20
-832.9372401624369
 42
0.4142135623731
  0
LINE
  5
1CE
330
1F
100
AcDbEntity
  8
0-B_寸法
  6
Continuous
 62
   120
370
     5
100
AcDbLine
 10
-1366.013422812703
 20
1868.562759837563
 30
0.0
 11
-1366.013422812703
 21
-381.437240162437
 31
0.0
  0
LWPOLYLINE
  5
1CF
330
1F
100
AcDbEntity
  8
0-B_寸法
  6
Continuous
 62
     7
370
     9
100
AcDbPolyline
 90
        4
 70
     1
 43
3.0
 10
-1364.513422812703
 20
1868.562759837563
 42
0.4142135623731
 10
-1366.013422812703
 20
1870.062759837563
 42
0.4142135623731
 10
-1367.513422812702
 20
1868.562759837563
 42
0.4142135623731
 10
-1366.013422812703
 20
1867.062759837563
 42
0.4142135623731
  0
LWPOLYLINE
  5
1D0
330
1F
100
AcDbEntity
  8
0-B_寸法
  6
Continuous
 62
     7
370
     9
100
AcDbPolyline
 90
        4
 70
     1
 43
3.0
 10
-1364.513422812703
 20
-381.437240162437
 42
0.4142135623731
 10
-1366.013422812703
 20
-379.937240162437
 42
0.4142135623731
 10
-1367.513422812702
 20
-381.437240162437
 42
0.4142135623731
 10
-1366.013422812703
 20
-382.937240162437
 42
0.4142135623731
  0
MTEXT
  5
1D1
330
1F
100
AcDbEntity
  8
0-B_寸法
  6
Continuous
 62
     7
370
   211
100
AcDbMText
 10
-1381.013422812703
 20
639.2827598375628
 30
0.0
 40
91.44
 41
180.0
 46
0.0
 71
     7
 72
     1
  1
{\fＭＳ ゴシック|b0|i0|c128|p49;115}
 11
6.123031769111886E-17
 21
1.0
 31
0.0
 73
     1
 44
1.0
  0
MTEXT
  5
1D2
330
1F
100
AcDbEntity
  8
0-B_寸法
  6
Continuous
 62
     7
370
   211
100
AcDbMText
 10
868.9865771872975
 20
-830.7172401624368
 30
0.0
 40
91.44
 41
180.0
 46
0.0
 71
     7
 72
     1
  1
{\fＭＳ ゴシック|b0|i0|c128|p49;198}
 73
     1
 44
1.0
  0
LINE
  5
1D3
330
1F
100
AcDbEntity
  8
0-B_寸法
  6
Continuous
 62
   120
370
     5
100
AcDbLine
 10
2833.986577187298
 20
-831.4372401624369
 30
0.0
 11
2833.986577187298
 21
-531.437240162437
 31
0.0
  0
LINE
  5
1D4
330
1F
100
AcDbEntity
  8
0-B_寸法
  6
Continuous
 62
   120
370
     5
100
AcDbLine
 10
-1366.013422812703
 20
1868.562759837563
 30
0.0
 11
-1066.013422812703
 21
1868.562759837563
 31
0.0
  0
LINE
  5
1D5
330
1F
100
AcDbEntity
  8
0-B_寸法
  6
Continuous
 62
   120
370
     5
100
AcDbLine
 10
2833.986577187298
 20
-681.437240162437
 30
0.0
 11
2113.986577187298
 21
-681.437240162437
 31
0.0
  0
LWPOLYLINE
  5
1D6
330
1F
100
AcDbEntity
  8
0-B_寸法
  6
Continuous
 62
     7
370
     9
100
AcDbPolyline
 90
        4
 70
     1
 43
3.0
 10
2835.486577187297
 20
-681.437240162437
 42
0.4142135623731
 10
2833.986577187298
 20
-679.937240162437
 42
0.4142135623731
 10
2832.486577187298
 20
-681.437240162437
 42
0.4142135623731
 10
2833.986577187298
 20
-682.9372401624371
 42
0.4142135623731
  0
LWPOLYLINE
  5
1D7
330
1F
100
AcDbEntity
  8
0-B_寸法
  6
Continuous
 62
     7
370
     9
100
AcDbPolyline
 90
        4
 70
     1
 43
3.0
 10
2115.486577187297
 20
-681.437240162437
 42
0.4142135623731
 10
2113.986577187298
 20
-679.937240162437
 42
0.4142135623731
 10
2112.486577187298
 20
-681.437240162437
 42
0.4142135623731
 10
2113.986577187298
 20
-682.9372401624371
 42
0.4142135623731
  0
LINE
  5
1D8
330
1F
100
AcDbEntity
  8
0-B_寸法
  6
Continuous
 62
   120
370
     5
100
AcDbLine
 10
2113.986577187298
 20
-681.437240162437
 30
0.0
 11
2113.986577187298
 21
-531.437240162437
 31
0.0
  0
MTEXT
  5
1D9
330
1F
100
AcDbEntity
  8
0-B_寸法
  6
Continuous
 62
     7
370
   211
100
AcDbMText
 10
2413.986577187298
 20
-680.717240162437
 30
0.0
 40
91.44
 41
120.0
 46
0.0
 71
     7
 72
     1
  1
{\fＭＳ ゴシック|b0|i0|c128|p49;24}
 73
     1
 44
1.0
  0
MTEXT
  5
1DA
330
1F
100
AcDbEntity
  8
0-B_寸法
  6
Continuous
 62
     7
370
   211
100
AcDbMText
 10
2895.739211685357
 20
-1488.159285632547
 30
0.0
 40
68.57999999999998
 41
270.0
 46
0.0
 71
     7
 72
     1
  1
{\fＭＳ ゴシック|b0|i0|c128|p49;留接ぎ}
 73
     1
 44
1.0
  0
LINE
  5
1DB
330
1F
100
AcDbEntity
  8
0-B_寸法
  6
Continuous
 62
   120
370
     5
100
AcDbLine
 10
-1366.013422812703
 20
-1155.286224068486
 30
0.0
 11
-1366.013422812703
 21
-1875.286224068489
 31
0.0
  0
LWPOLYLINE
  5
1DC
330
1F
100
AcDbEntity
  8
0-B_寸法
  6
Continuous
 62
     7
370
     9
100
AcDbPolyline
 90
        4
 70
     1
 43
3.0
 10
-1364.513422812703
 20
-1155.286224068486
 42
0.4142135623731
 10
-1366.013422812703
 20
-1153.786224068486
 42
0.4142135623731
 10
-1367.513422812702
 20
-1155.286224068486
 42
0.4142135623731
 10
-1366.013422812703
 20
-1156.786224068486
 42
0.4142135623731
  0
LWPOLYLINE
  5
1DD
330
1F
100
AcDbEntity
  8
0-B_寸法
  6
Continuous
 62
     7
370
     9
100
AcDbPolyline
 90
        4
 70
     1
 43
3.0
 10
-1364.513422812703
 20
-1875.286224068489
 42
0.4142135623731
 10
-1366.013422812703
 20
-1873.786224068489
 42
0.4142135623731
 10
-1367.513422812702
 20
-1875.286224068489
 42
0.4142135623731
 10
-1366.013422812703
 20
-1876.786224068489
 42
0.4142135623731
  0
LINE
  5
1DE
330
1F
100
AcDbEntity
  8
0-B_寸法
  6
Continuous
 62
   120
370
     5
100
AcDbLine
 10
-1366.013422812703
 20
-1155.286224068486
 30
0.0
 11
-1066.013422812703
 21
-1155.286224068486
 31
0.0
  0
LINE
  5
1DF
330
1F
100
AcDbEntity
  8
0-B_寸法
  6
Continuous
 62
   120
370
     5
100
AcDbLine
 10
-1366.013422812703
 20
-1875.286224068489
 30
0.0
 11
-1066.013422812703
 21
-1875.286224068489
 31
0.0
  0
MTEXT
  5
1E0
330
1F
100
AcDbEntity
  8
0-B_寸法
  6
Continuous
 62
     7
370
   211
100
AcDbMText
 10
-1381.013422812703
 20
-1589.566224068487
 30
0.0
 40
91.44
 41
120.0
 46
0.0
 71
     7
 72
     1
  1
{\fＭＳ ゴシック|b0|i0|c128|p49;24}
 11
6.123031769111886E-17
 21
1.0
 31
0.0
 73
     1
 44
1.0
  0
MTEXT
  5
1E1
330
1F
100
AcDbEntity
  8
0-B_寸法
  6
Continuous
 62
     7
370
   211
100
AcDbMText
 10
1874.901492638539
 20
-2064.406179001622
 30
0.0
 40
68.58000000000015
 41
90.00000000000021
 46
0.0
 71
     7
 72
     1
  1
{\fＭＳ ゴシック|b0|i0|c128|p49;5C}
 73
     1
 44
1.0
  0
MTEXT
  5
1E2
330
1F
100
AcDbEntity
  8
0-B_寸法
  6
Continuous
 62
     7
370
   211
100
AcDbMText
 10
2169.269405889025
 20
-1014.988541730408
 30
0.0
 40
68.58
 41
180.0
 46
0.0
 71
     7
 72
     1
  1
{\fＭＳ ゴシック|b0|i0|c128|p49;C0.3}
 73
     1
 44
1.0
  0
LINE
  5
1E3
330
1F
100
AcDbEntity
  8
0-B_寸法
  6
Continuous
 62
   120
370
     5
100
AcDbLine
 10
5338.712034758013
 20
374.7137759315111
 30
0.0
 11
5338.712034758013
 21
-1875.286224068489
 31
0.0
  0
LWPOLYLINE
  5
1E4
330
1F
100
AcDbEntity
  8
0-B_寸法
  6
Continuous
 62
     7
370
     9
100
AcDbPolyline
 90
        4
 70
     1
 43
3.0
 10
5340.212034758013
 20
374.7137759315111
 42
0.4142135623731
 10
5338.712034758013
 20
376.2137759315111
 42
0.4142135623731
 10
5337.212034758013
 20
374.7137759315111
 42
0.4142135623731
 10
5338.712034758013
 20
373.2137759315111
 42
0.4142135623731
  0
LWPOLYLINE
  5
1E5
330
1F
100
AcDbEntity
  8
0-B_寸法
  6
Continuous
 62
     7
370
     9
100
AcDbPolyline
 90
        4
 70
     1
 43
3.0
 10
5340.212034758013
 20
-1875.286224068489
 42
0.4142135623731
 10
5338.712034758013
 20
-1873.786224068489
 42
0.4142135623731
 10
5337.212034758013
 20
-1875.286224068489
 42
0.4142135623731
 10
5338.712034758013
 20
-1876.786224068489
 42
0.4142135623731
  0
LINE
  5
1E6
330
1F
100
AcDbEntity
  8
0-B_寸法
  6
Continuous
 62
   120
370
     5
100
AcDbLine
 10
5338.712034758013
 20
374.7137759315111
 30
0.0
 11
5038.712034758013
 21
374.7137759315111
 31
0.0
  0
LINE
  5
1E7
330
1F
100
AcDbEntity
  8
0-B_寸法
  6
Continuous
 62
   120
370
     5
100
AcDbLine
 10
5338.712034758013
 20
-1875.286224068489
 30
0.0
 11
5038.712034758013
 21
-1875.286224068489
 31
0.0
  0
MTEXT
  5
1E8
330
1F
100
AcDbEntity
  8
0-B_寸法
  6
Continuous
 62
     7
370
   211
100
AcDbMText
 10
3831.036637767029
 20
-1611.16158665553
 30
0.0
 40
68.57999999999998
 41
270.0
 46
0.0
 71
     7
 72
     1
  1
{\fＭＳ ゴシック|b0|i0|c128|p49;留接ぎ}
 73
     1
 44
1.0
  0
MTEXT
  5
1E9
330
1F
100
AcDbEntity
  8
0-A_文字
  6
Continuous
 62
     7
370
     9
100
AcDbMText
 10
2398.986577187298
 20
-1608.136224068487
 30
0.0
 40
114.3
 41
150.0
 46
0.0
 71
     7
 72
     1
  1
{\fＭＳ ゴシック|b0|i0|c128|p49;◎}
 73
     1
 44
1.0
  0
MTEXT
  5
1EA
330
1F
100
AcDbEntity
  8
0-A_文字
  6
Continuous
 62
     7
370
     9
100
AcDbMText
 10
4453.712034758013
 20
-1608.136224068489
 30
0.0
 40
114.3
 41
150.0
 46
0.0
 71
     7
 72
     1
  1
{\fＭＳ ゴシック|b0|i0|c128|p49;◎}
 73
     1
 44
1.0
  0
ARC
  5
1EB
330
1F
100
AcDbEntity
  8
0-B_寸法
  6
Continuous
 62
   120
370
     5
100
AcDbCircle
 10
2833.986577187298
 20
-1875.286224068489
 30
0.0
 40
345.663578768643
100
AcDbArc
 50
134.9999999999999
 51
180.0
  0
LWPOLYLINE
  5
1EC
330
1F
100
AcDbEntity
  8
0-B_寸法
  6
Continuous
 62
     7
370
     9
100
AcDbPolyline
 90
        4
 70
     1
 43
3.0
 10
2591.06551663078
 20
-1630.86516351197
 42
0.4142135623731
 10
2589.56551663078
 20
-1629.365163511971
 42
0.4142135623731
 10
2588.06551663078
 20
-1630.86516351197
 42
0.4142135623731
 10
2589.56551663078
 20
-1632.36516351197
 42
0.4142135623731
  0
LWPOLYLINE
  5
1ED
330
1F
100
AcDbEntity
  8
0-B_寸法
  6
Continuous
 62
     7
370
     9
100
AcDbPolyline
 90
        4
 70
     1
 43
3.0
 10
2489.822998418655
 20
-1875.286224068489
 42
0.4142135623731
 10
2488.322998418655
 20
-1873.786224068489
 42
0.4142135623731
 10
2486.822998418655
 20
-1875.286224068489
 42
0.4142135623731
 10
2488.322998418655
 20
-1876.786224068489
 42
0.4142135623731
  0
LINE
  5
1EE
330
1F
100
AcDbEntity
  8
0-B_寸法
  6
Continuous
 62
   120
370
     5
100
AcDbLine
 10
2715.138964463424
 20
-1756.438611344614
 30
0.0
 11
2589.56551663078
 21
-1630.86516351197
 31
0.0
  0
LINE
  5
1EF
330
1F
100
AcDbEntity
  8
0-B_寸法
  6
Continuous
 62
   120
370
     5
100
AcDbLine
 10
2665.910671417529
 20
-1875.286224068489
 30
0.0
 11
2488.322998418655
 21
-1875.286224068489
 31
0.0
  0
MTEXT
  5
1F0
330
1F
100
AcDbEntity
  8
0-B_寸法
  6
Continuous
 62
     7
370
     9
100
AcDbMText
 10
2466.335369727818
 20
-1834.695405742243
 30
0.0
 40
91.44000000000001
 41
180.0
 46
0.0
 71
     7
 72
     1
  1
{\fＭＳ ゴシック|b0|i0|c128|p49;45ﾟ}
 11
0.3826834323650898
 21
0.9238795325112867
 31
0.0
 73
     1
 44
1.0
  0
LINE
  5
1F1
330
1F
100
AcDbEntity
  8
0-A_文字
  6
Continuous
 62
     7
370
     9
100
AcDbLine
 10
1673.015746659615
 20
-1884.458796860745
 30
0.0
 11
1847.86427648799
 21
-2059.30732668912
 31
0.0
  0
LINE
  5
1F2
330
1F
100
AcDbEntity
  8
0-A_文字
  6
Continuous
 62
     7
370
     9
100
AcDbLine
 10
1847.86427648799
 20
-2059.30732668912
 30
0.0
 11
1986.715136565328
 21
-2059.30732668912
 31
0.0
  0
LINE
  5
1F3
330
1F
100
AcDbEntity
  8
側板左用
  6
Continuous
 62
    40
370
    15
100
AcDbLine
 10
2833.986577187298
 20
893.562759837563
 30
0.0
 11
2833.986577187298
 21
1868.562759837564
 31
0.0
  0
LINE
  5
1F4
330
1F
100
AcDbEntity
  8
側板左用
  6
Continuous
 62
    40
370
    15
100
AcDbLine
 10
2833.986577187298
 20
593.562759837563
 30
0.0
 11
2833.986577187298
 21
-381.437240162437
 31
0.0
  0
LINE
  5
1F5
330
1F
100
AcDbEntity
  8
側板左用
  6
Continuous
 62
    40
370
    15
100
AcDbLine
 10
-916.0134228127025
 20
593.562759837563
 30
0.0
 11
-916.0134228127025
 21
-381.437240162437
 31
0.0
  0
LINE
  5
1F6
330
1F
100
AcDbEntity
  8
側板左用
  6
Continuous
 62
    40
370
    15
100
AcDbLine
 10
-916.0134228127025
 20
893.562759837563
 30
0.0
 11
-916.0134228127025
 21
1868.562759837564
 31
0.0
  0
LINE
  5
1F7
330
1F
100
AcDbEntity
  8
側板左用
  6
JWW_DASHED1
 62
     7
370
     9
100
AcDbLine
 10
2113.986577187298
 20
-381.437240162437
 30
0.0
 11
2113.986577187298
 21
593.562759837563
 31
0.0
  0
LINE
  5
1F8
330
1F
100
AcDbEntity
  8
側板左用
  6
JWW_DASHED1
 62
     7
370
     9
100
AcDbLine
 10
2113.986577187298
 20
893.562759837563
 30
0.0
 11
2113.986577187298
 21
1868.562759837563
 31
0.0
  0
LINE
  5
1F9
330
1F
100
AcDbEntity
  8
0-B_寸法
  6
Continuous
 62
   120
370
     5
100
AcDbLine
 10
-1366.013422812703
 20
-381.437240162437
 30
0.0
 11
-1066.013422812703
 21
-381.437240162437
 31
0.0
  0
LINE
  5
1FA
330
1F
100
AcDbEntity
  8
0-B_寸法
  6
Continuous
 62
   120
370
     5
100
AcDbLine
 10
-916.0134228127025
 20
-831.4372401624369
 30
0.0
 11
-916.0134228127025
 21
-531.437240162437
 31
0.0
  0
MTEXT
  5
1FB
330
1F
100
AcDbEntity
  8
0-A_文字
  6
Continuous
 62
     7
370
     9
100
AcDbMText
 10
418.9865771872977
 20
-1589.566224068487
 30
0.0
 40
91.43999999999998
 41
1080.0
 46
0.0
 71
     7
 72
     1
  1
{\fＭＳ ゴシック|b0|i0|c128|p49;側板左用（平面図）}
 73
     1
 44
1.0
  0
MTEXT
  5
1FC
330
1F
100
AcDbEntity
  8
0-A_文字
  6
Continuous
 62
     7
370
     9
100
AcDbMText
 10
4408.712034758013
 20
-674.5662240684889
 30
0.0
 40
91.44
 41
240.0
 46
0.0
 71
     7
 72
     1
  1
{\fＭＳ ゴシック|b0|i0|c128|p49;前板}
 73
     1
 44
1.0
  0
MTEXT
  5
1FD
330
1F
100
AcDbEntity
  8
0-A_文字
  6
Continuous
 62
     7
370
     9
100
AcDbMText
 10
4228.712034758013
 20
-974.5662240684889
 30
0.0
 40
91.44
 41
600.0
 46
0.0
 71
     7
 72
     1
  1
{\fＭＳ ゴシック|b0|i0|c128|p49;（平面図）}
 73
     1
 44
1.0
  0
LINE
  5
1FE
330
1F
100
AcDbEntity
  8
側板左用
  6
Continuous
 62
    40
370
    15
100
AcDbLine
 10
2833.986577187298
 20
1868.562759837563
 30
0.0
 11
1108.986577187297
 21
1868.562759837563
 31
0.0
  0
LINE
  5
1FF
330
1F
100
AcDbEntity
  8
側板左用
  6
Continuous
 62
    40
370
    15
100
AcDbLine
 10
808.9865771872976
 20
1868.562759837563
 30
0.0
 11
-916.0134228127025
 21
1868.562759837563
 31
0.0
  0
LINE
  5
200
330
1F
100
AcDbEntity
  8
側板左用
  6
Continuous
 62
    40
370
    15
100
AcDbLine
 10
2833.986577187298
 20
-381.437240162437
 30
0.0
 11
1108.986577187297
 21
-381.437240162437
 31
0.0
  0
LINE
  5
201
330
1F
100
AcDbEntity
  8
側板左用
  6
Continuous
 62
    40
370
    15
100
AcDbLine
 10
808.9865771872976
 20
-381.437240162437
 30
0.0
 11
-916.0134228127025
 21
-381.437240162437
 31
0.0
  0
LINE
  5
202
330
1F
100
AcDbEntity
  8
側板左用
  6
Continuous
 62
   120
370
     5
100
AcDbLine
 10
2683.986577187298
 20
-1725.286224068489
 30
0.0
 11
1108.986577187297
 21
-1725.286224068489
 31
0.0
  0
LINE
  5
203
330
1F
100
AcDbEntity
  8
側板左用
  6
Continuous
 62
   120
370
     5
100
AcDbLine
 10
808.9865771872975
 20
-1725.286224068489
 30
0.0
 11
-916.0134228127025
 21
-1725.286224068489
 31
0.0
  0
LINE
  5
204
330
1F
100
AcDbEntity
  8
0-0_補助線
  6
JWW_HOJO
 62
   120
370
     5
100
AcDbLine
 10
4888.712034758013
 20
374.7137759315112
 30
0.0
 11
4168.712034758013
 21
374.7137759315112
 31
0.0
  0
MTEXT
  5
205
330
1F
100
AcDbEntity
  8
0-B_寸法
  6
Continuous
 62
     7
370
   211
100
AcDbMText
 10
868.9865771872975
 20
-2234.566224068489
 30
0.0
 40
91.44
 41
180.0
 46
0.0
 71
     7
 72
     1
  1
{\fＭＳ ゴシック|b0|i0|c128|p49;198}
 73
     1
 44
1.0
  0
LINE
  5
206
330
1F
100
AcDbEntity
  8
0-B_寸法
  6
Continuous
 62
   120
370
     5
100
AcDbLine
 10
2833.986577187298
 20
-2235.286224068489
 30
0.0
 11
2833.986577187298
 21
-2025.286224068489
 31
0.0
  0
LINE
  5
207
330
1F
100
AcDbEntity
  8
0-B_寸法
  6
Continuous
 62
   120
370
     5
100
AcDbLine
 10
-916.0134228127025
 20
-2235.286224068489
 30
0.0
 11
-916.0134228127025
 21
-2025.286224068489
 31
0.0
  0
LWPOLYLINE
  5
208
330
1F
100
AcDbEntity
  8
0-B_寸法
  6
Continuous
 62
     7
370
     9
100
AcDbPolyline
 90
        4
 70
     1
 43
3.0
 10
2835.486577187297
 20
-2235.286224068489
 42
0.4142135623731
 10
2833.986577187298
 20
-2233.786224068489
 42
0.4142135623731
 10
2832.486577187298
 20
-2235.286224068489
 42
0.4142135623731
 10
2833.986577187298
 20
-2236.786224068489
 42
0.4142135623731
  0
LWPOLYLINE
  5
209
330
1F
100
AcDbEntity
  8
0-B_寸法
  6
Continuous
 62
     7
370
     9
100
AcDbPolyline
 90
        4
 70
     1
 43
3.0
 10
-914.5134228127025
 20
-2235.286224068489
 42
0.4142135623731
 10
-916.0134228127025
 20
-2233.786224068489
 42
0.4142135623731
 10
-917.5134228127026
 20
-2235.286224068489
 42
0.4142135623731
 10
-916.0134228127025
 20
-2236.786224068489
 42
0.4142135623731
  0
LINE
  5
20A
330
1F
100
AcDbEntity
  8
0-B_寸法
  6
Continuous
 62
   120
370
     5
100
AcDbLine
 10
-916.0134228127025
 20
-2235.286224068489
 30
0.0
 11
2833.986577187298
 21
-2235.286224068489
 31
0.0
  0
LINE
  5
20B
330
1F
100
AcDbEntity
  8
0-0_補助線
  6
JWW_HOJO
 62
   120
370
     5
100
AcDbLine
 10
-916.0134228127025
 20
-2235.286224068489
 30
0.0
 11
2833.986577187298
 21
-2235.286224068489
 31
0.0
  0
LINE
  5
20C
330
1F
100
AcDbEntity
  8
0-0_補助線
  6
JWW_HOJO
 62
   120
370
     5
100
AcDbLine
 10
-916.0134228127025
 20
-2025.286224068489
 30
0.0
 11
2833.986577187298
 21
-2025.286224068489
 31
0.0
  0
LINE
  5
20D
330
1F
100
AcDbEntity
  8
0-A_文字
  6
Continuous
 62
     7
370
     9
100
AcDbLine
 10
2915.128762846383
 20
-2281.215122860391
 30
0.0
 11
3141.079802056501
 21
-2281.215122860391
 31
0.0
  0
LINE
  5
20E
330
1F
100
AcDbEntity
  8
0-A_文字
  6
Continuous
 62
     7
370
     9
100
AcDbLine
 10
2778.516379285811
 20
-2417.827506420962
 30
0.0
 11
2915.128762846383
 21
-2281.215122860391
 31
0.0
  0
MTEXT
  5
20F
330
1F
100
AcDbEntity
  8
0-B_寸法
  6
Continuous
 62
     7
370
   211
100
AcDbMText
 10
2955.705426016568
 20
-2277.529824082885
 30
0.0
 40
68.58
 41
180.0
 46
0.0
 71
     7
 72
     1
  1
{\fＭＳ ゴシック|b0|i0|c128|p49;C0.3}
 73
     1
 44
1.0
  0
LINE
  5
210
330
1F
100
AcDbEntity
  8
天板
  6
Continuous
 62
     7
370
     9
100
AcDbLine
 10
4888.712034758013
 20
374.7137759315112
 30
0.0
 11
4168.712034758013
 21
-345.2862240684889
 31
0.0
  0
LINE
  5
211
330
1F
100
AcDbEntity
  8
天板
  6
Continuous
 62
     7
370
     9
100
AcDbLine
 10
4168.712034758013
 20
-345.2862240684889
 30
0.0
 11
4168.712034758013
 21
-600.2862240684889
 31
0.0
  0
LINE
  5
212
330
1F
100
AcDbEntity
  8
天板
  6
Continuous
 62
     7
370
     9
100
AcDbLine
 10
4168.712034758013
 20
-900.2862240684889
 30
0.0
 11
4168.712034758013
 21
-1155.286224068489
 31
0.0
  0
LINE
  5
213
330
1F
100
AcDbEntity
  8
天板
  6
Continuous
 62
     7
370
     9
100
AcDbLine
 10
4888.712034758013
 20
-1875.286224068489
 30
0.0
 11
4168.712034758013
 21
-1155.286224068489
 31
0.0
  0
LINE
  5
214
330
1F
100
AcDbEntity
  8
天板
  6
Continuous
 62
     7
370
     9
100
AcDbLine
 10
4888.712034758013
 20
374.7137759315112
 30
0.0
 11
4888.712034758013
 21
-600.2862240684889
 31
0.0
  0
LINE
  5
215
330
1F
100
AcDbEntity
  8
側板左用
  6
Continuous
 62
     7
370
     9
100
AcDbLine
 10
-916.0134228127025
 20
-1155.286224068486
 30
0.0
 11
808.9865771872975
 21
-1155.286224068486
 31
0.0
  0
LINE
  5
216
330
1F
100
AcDbEntity
  8
側板左用
  6
Continuous
 62
     7
370
     9
100
AcDbLine
 10
-916.0134228127025
 20
-1155.286224068486
 30
0.0
 11
-916.0134228127025
 21
-1875.286224068489
 31
0.0
  0
LINE
  5
217
330
1F
100
AcDbEntity
  8
側板左用
  6
Continuous
 62
     7
370
     9
100
AcDbLine
 10
808.9865771872976
 20
-1875.286224068489
 30
0.0
 11
-916.0134228127025
 21
-1875.286224068489
 31
0.0
  0
LINE
  5
218
330
1F
100
AcDbEntity
  8
側板左用
  6
Continuous
 62
     7
370
     9
100
AcDbLine
 10
2833.986577187298
 20
-1875.286224068489
 30
0.0
 11
1108.986577187297
 21
-1875.286224068489
 31
0.0
  0
LINE
  5
219
330
1F
100
AcDbEntity
  8
側板左用
  6
Continuous
 62
     7
370
     9
100
AcDbLine
 10
2833.986577187298
 20
-1875.286224068489
 30
0.0
 11
2113.986577187298
 21
-1155.286224068486
 31
0.0
  0
LINE
  5
21A
330
1F
100
AcDbEntity
  8
側板左用
  6
Continuous
 62
     7
370
     9
100
AcDbLine
 10
1108.986577187297
 20
-1155.286224068486
 30
0.0
 11
2113.986577187298
 21
-1155.286224068486
 31
0.0
  0
LINE
  5
21B
330
1F
100
AcDbEntity
  8
側板右用
  6
Continuous
 62
     7
370
     9
100
AcDbLine
 10
808.9865771872976
 20
-2417.827506420963
 30
0.0
 11
-196.0134228127026
 21
-2417.827506420963
 31
0.0
  0
LINE
  5
21C
330
1F
100
AcDbEntity
  8
側板右用
  6
Continuous
 62
     7
370
     9
100
AcDbLine
 10
-916.0134228127025
 20
-3137.827506420967
 30
0.0
 11
-196.0134228127026
 21
-2417.827506420963
 31
0.0
  0
LINE
  5
21D
330
1F
100
AcDbEntity
  8
側板右用
  6
Continuous
 62
     7
370
     9
100
AcDbLine
 10
-916.0134228127025
 20
-3137.827506420967
 30
0.0
 11
808.9865771872975
 21
-3137.827506420967
 31
0.0
  0
LINE
  5
21E
330
1F
100
AcDbEntity
  8
側板右用
  6
Continuous
 62
     7
370
     9
100
AcDbLine
 10
1108.986577187297
 20
-3137.827506420967
 30
0.0
 11
2833.986577187298
 21
-3137.827506420967
 31
0.0
  0
LINE
  5
21F
330
1F
100
AcDbEntity
  8
側板右用
  6
Continuous
 62
     7
370
     9
100
AcDbLine
 10
2833.986577187298
 20
-2417.827506420963
 30
0.0
 11
2833.986577187298
 21
-3137.827506420967
 31
0.0
  0
LINE
  5
220
330
1F
100
AcDbEntity
  8
側板右用
  6
Continuous
 62
     7
370
     9
100
AcDbLine
 10
2833.986577187298
 20
-2417.827506420963
 30
0.0
 11
1108.986577187297
 21
-2417.827506420963
 31
0.0
  0
LINE
  5
221
330
1F
100
AcDbEntity
  8
側板右用
  6
Continuous
 62
   120
370
     5
100
AcDbLine
 10
4483.712034758013
 20
-30.28622406848884
 30
0.0
 11
4483.712034758013
 21
-600.2862240684888
 31
0.0
  0
LINE
  5
222
330
1F
100
AcDbEntity
  8
側板右用
  6
Continuous
 62
   120
370
     5
100
AcDbLine
 10
4483.712034758013
 20
-991.0983473873797
 30
0.0
 11
4483.712034758013
 21
-1470.286224068489
 31
0.0
  0
LINE
  5
223
330
1F
100
AcDbEntity
  8
0-0_補助線
  6
JWW_HOJO
 62
     7
370
     9
100
AcDbLine
 10
4483.712034758013
 20
2593.612074684367
 30
0.0
 11
4483.712034758013
 21
-30.28622406848884
 31
0.0
  0
LINE
  5
224
330
1F
100
AcDbEntity
  8
0-B_寸法
  6
Continuous
 62
   120
370
     5
100
AcDbLine
 10
4168.712034758013
 20
-2235.286224068489
 30
0.0
 11
4888.712034758013
 21
-2235.286224068489
 31
0.0
  0
LWPOLYLINE
  5
225
330
1F
100
AcDbEntity
  8
0-B_寸法
  6
Continuous
 62
     7
370
     9
100
AcDbPolyline
 90
        4
 70
     1
 43
3.0
 10
4170.212034758013
 20
-2235.286224068489
 42
0.4142135623731
 10
4168.712034758013
 20
-2233.786224068489
 42
0.4142135623731
 10
4167.212034758013
 20
-2235.286224068489
 42
0.4142135623731
 10
4168.712034758013
 20
-2236.786224068489
 42
0.4142135623731
  0
LWPOLYLINE
  5
226
330
1F
100
AcDbEntity
  8
0-B_寸法
  6
Continuous
 62
     7
370
     9
100
AcDbPolyline
 90
        4
 70
     1
 43
3.0
 10
4890.212034758013
 20
-2235.286224068489
 42
0.4142135623731
 10
4888.712034758013
 20
-2233.786224068489
 42
0.4142135623731
 10
4887.212034758013
 20
-2235.286224068489
 42
0.4142135623731
 10
4888.712034758013
 20
-2236.786224068489
 42
0.4142135623731
  0
LINE
  5
227
330
1F
100
AcDbEntity
  8
0-B_寸法
  6
Continuous
 62
   120
370
     5
100
AcDbLine
 10
4168.712034758013
 20
-2235.286224068489
 30
0.0
 11
4168.712034758013
 21
-2025.286224068489
 31
0.0
  0
LINE
  5
228
330
1F
100
AcDbEntity
  8
0-B_寸法
  6
Continuous
 62
   120
370
     5
100
AcDbLine
 10
4888.712034758013
 20
-2235.286224068489
 30
0.0
 11
4888.712034758013
 21
-2025.286224068489
 31
0.0
  0
MTEXT
  5
229
330
1F
100
AcDbEntity
  8
0-B_寸法
  6
Continuous
 62
     7
370
   211
100
AcDbMText
 10
4468.712034758013
 20
-2234.566224068489
 30
0.0
 40
91.44
 41
120.0
 46
0.0
 71
     7
 72
     1
  1
{\fＭＳ ゴシック|b0|i0|c128|p49;24}
 73
     1
 44
1.0
  0
ARC
  5
22A
330
1F
100
AcDbEntity
  8
0-B_寸法
  6
Continuous
 62
   120
370
     5
100
AcDbCircle
 10
4888.712034758013
 20
374.7137759315112
 30
0.0
 40
212.6932313095327
100
AcDbArc
 50
225.0000000000002
 51
270.0
  0
LWPOLYLINE
  5
22B
330
1F
100
AcDbEntity
  8
0-B_寸法
  6
Continuous
 62
     7
370
     9
100
AcDbPolyline
 90
        4
 70
     1
 43
3.0
 10
4739.815208586564
 20
224.3169497600615
 42
0.4142135623731
 10
4738.315208586564
 20
225.8169497600615
 42
0.4142135623731
 10
4736.815208586564
 20
224.3169497600615
 42
0.4142135623731
 10
4738.315208586564
 20
222.8169497600615
 42
0.4142135623731
  0
LWPOLYLINE
  5
22C
330
1F
100
AcDbEntity
  8
0-B_寸法
  6
Continuous
 62
     7
370
     9
100
AcDbPolyline
 90
        4
 70
     1
 43
3.0
 10
4890.212034758013
 20
162.0205446219785
 42
0.4142135623731
 10
4888.712034758013
 20
163.5205446219785
 42
0.4142135623731
 10
4887.212034758013
 20
162.0205446219785
 42
0.4142135623731
 10
4888.712034758013
 20
160.5205446219785
 42
0.4142135623731
  0
LINE
  5
22D
330
1F
100
AcDbEntity
  8
0-B_寸法
  6
Continuous
 62
   120
370
     5
100
AcDbLine
 10
4818.428876765383
 20
304.4306179388813
 30
0.0
 11
4738.315208586564
 21
224.3169497600615
 31
0.0
  0
LINE
  5
22E
330
1F
100
AcDbEntity
  8
0-B_寸法
  6
Continuous
 62
   120
370
     5
100
AcDbLine
 10
4888.712034758013
 20
275.3183806919232
 30
0.0
 11
4888.712034758013
 21
162.0205446219785
 31
0.0
  0
MTEXT
  5
22F
330
1F
100
AcDbEntity
  8
0-B_寸法
  6
Continuous
 62
     7
370
     9
100
AcDbMText
 10
4884.726765400199
 20
115.6311509204176
 30
0.0
 40
91.43999999999974
 41
179.9999999999995
 46
0.0
 71
     7
 72
     1
  1
{\fＭＳ ゴシック|b0|i0|c128|p49;45ﾟ}
 11
-0.9238795325112867
 21
0.3826834323650899
 31
0.0
 73
     1
 44
1.0
  0
ARC
  5
230
330
1F
100
AcDbEntity
  8
0-B_寸法
  6
Continuous
 62
   120
370
     5
100
AcDbCircle
 10
4888.712034758013
 20
-1875.286224068489
 30
0.0
 40
224.1169737330285
100
AcDbArc
 50
90.0
 51
135.0000000000001
  0
LWPOLYLINE
  5
231
330
1F
100
AcDbEntity
  8
0-B_寸法
  6
Continuous
 62
     7
370
     9
100
AcDbPolyline
 90
        4
 70
     1
 43
3.0
 10
4890.212034758013
 20
-1651.16925033546
 42
0.4142135623731
 10
4888.712034758013
 20
-1649.66925033546
 42
0.4142135623731
 10
4887.212034758013
 20
-1651.16925033546
 42
0.4142135623731
 10
4888.712034758013
 20
-1652.66925033546
 42
0.4142135623731
  0
LWPOLYLINE
  5
232
330
1F
100
AcDbEntity
  8
0-B_寸法
  6
Continuous
 62
     7
370
     9
100
AcDbPolyline
 90
        4
 70
     1
 43
3.0
 10
4731.737402852381
 20
-1716.811592162857
 42
0.4142135623731
 10
4730.237402852381
 20
-1715.311592162857
 42
0.4142135623731
 10
4728.737402852381
 20
-1716.811592162857
 42
0.4142135623731
 10
4730.237402852381
 20
-1718.311592162857
 42
0.4142135623731
  0
LINE
  5
233
330
1F
100
AcDbEntity
  8
0-B_寸法
  6
Continuous
 62
   120
370
     5
100
AcDbLine
 10
4888.712034758013
 20
-1780.107962745379
 30
0.0
 11
4888.712034758013
 21
-1651.16925033546
 31
0.0
  0
LINE
  5
234
330
1F
100
AcDbEntity
  8
0-B_寸法
  6
Continuous
 62
   120
370
     5
100
AcDbLine
 10
4821.410840754897
 20
-1807.985030065372
 30
0.0
 11
4730.237402852381
 21
-1716.811592162857
 31
0.0
  0
MTEXT
  5
235
330
1F
100
AcDbEntity
  8
0-B_寸法
  6
Continuous
 62
     7
370
     9
100
AcDbMText
 10
4714.05677258709
 20
-1703.092455073363
 30
0.0
 40
91.4400000000002
 41
180.0000000000004
 46
0.0
 71
     7
 72
     1
  1
{\fＭＳ ゴシック|b0|i0|c128|p49;45ﾟ}
 11
0.9238795325112867
 21
0.3826834323650898
 31
0.0
 73
     1
 44
1.0
  0
MTEXT
  5
236
330
1F
100
AcDbEntity
  8
0-B_寸法
  6
Continuous
 62
     7
370
   211
100
AcDbMText
 10
3737.565134393135
 20
-655.9866318096329
 30
0.0
 40
68.58
 41
180.0
 46
0.0
 71
     7
 72
     1
  1
{\fＭＳ ゴシック|b0|i0|c128|p49;C0.3}
 73
     1
 44
1.0
  0
LINE
  5
237
330
1F
100
AcDbEntity
  8
0-A_文字
  6
Continuous
 62
   120
370
     5
100
AcDbLine
 10
3943.934289378627
 20
-655.7236380274446
 30
0.0
 11
3728.175228680434
 21
-655.7236380274446
 31
0.0
  0
LINE
  5
238
330
1F
100
AcDbEntity
  8
0-A_文字
  6
Continuous
 62
   120
370
     5
100
AcDbLine
 10
4168.712034758013
 20
-430.9458926480578
 30
0.0
 11
3943.934289378627
 21
-655.7236380274446
 31
0.0
  0
MTEXT
  5
239
330
1F
100
AcDbEntity
  8
0-A_文字
  6
Continuous
 62
     7
370
     9
100
AcDbMText
 10
-2620.447699019025
 20
1560.262074684366
 30
0.0
 40
114.3
 41
450.0
 46
0.0
 71
     7
 72
     1
  1
{\fＭＳ ゴシック|b0|i0|c128|p49;背板②}
 73
     1
 44
1.0
  0
MTEXT
  5
23A
330
1F
100
AcDbEntity
  8
0-A_文字
  6
Continuous
 62
     7
370
     9
100
AcDbMText
 10
733.9865771872975
 20
2689.762074684367
 30
0.0
 40
114.3
 41
450.0
 46
0.0
 71
     7
 72
     1
  1
{\fＭＳ ゴシック|b0|i0|c128|p49;天板③}
 73
     1
 44
1.0
  0
MTEXT
  5
23B
330
1F
100
AcDbEntity
  8
0-A_文字
  6
Continuous
 62
     7
370
     9
100
AcDbMText
 10
583.9865771872976
 20
650.7127598375631
 30
0.0
 40
114.3
 41
750.0
 46
0.0
 71
     7
 72
     1
  1
{\fＭＳ ゴシック|b0|i0|c128|p49;側板左用④}
 73
     1
 44
1.0
  0
MTEXT
  5
23C
330
1F
100
AcDbEntity
  8
0-A_文字
  6
Continuous
 62
     7
370
     9
100
AcDbMText
 10
4303.712034758012
 20
1560.262074684366
 30
0.0
 40
114.3
 41
450.0
 46
0.0
 71
     7
 72
     1
  1
{\fＭＳ ゴシック|b0|i0|c128|p49;前板①}
 73
     1
 44
1.0
  0
MTEXT
  5
23D
330
1F
100
AcDbEntity
  8
1-A_文字
  6
Continuous
 62
     7
370
     9
100
AcDbMText
 10
-4636.222961730449
 20
-965.2783361064892
 30
0.0
 40
91.44
 41
360.0
 46
0.0
 71
     7
 72
     1
  1
{\fＭＳ ゴシック|b0|i0|c128|p49;天板③}
 73
     1
 44
1.0
  0
MTEXT
  5
23E
330
1F
100
AcDbEntity
  8
1-A_文字
  6
Continuous
 62
     7
370
     9
100
AcDbMText
 10
-3927.87576261786
 20
-469.8817748197449
 30
0.0
 40
91.44
 41
600.0
 46
0.0
 71
     7
 72
     1
  1
{\fＭＳ ゴシック|b0|i0|c128|p49;側板右用④}
 73
     1
 44
1.0
  0
MTEXT
  5
23F
330
1F
100
AcDbEntity
  8
1-A_文字
  6
Continuous
 62
     7
370
     9
100
AcDbMText
 10
-5435.806988352746
 20
-1652.078114254021
 30
0.0
 40
91.44
 41
360.0
 46
0.0
 71
     7
 72
     1
  1
{\fＭＳ ゴシック|b0|i0|c128|p49;背板②}
 73
     1
 44
1.0
  0
MTEXT
  5
240
330
1F
100
AcDbEntity
  8
1-A_文字
  6
Continuous
 62
     7
370
     9
100
AcDbMText
 10
-2908.772416343132
 20
-1594.618325013866
 30
0.0
 40
91.44
 41
360.0
 46
0.0
 71
     7
 72
     1
  1
{\fＭＳ ゴシック|b0|i0|c128|p49;前板①}
 73
     1
 44
1.0
  0
MTEXT
  5
241
330
1F
100
AcDbEntity
  8
1-A_文字
  6
Continuous
 62
     7
370
     9
100
AcDbMText
 10
-4768.7742651137
 20
-2587.352656683306
 30
0.0
 40
91.44
 41
600.0
 46
0.0
 71
     7
 72
     1
  1
{\fＭＳ ゴシック|b0|i0|c128|p49;側板左用④}
 73
     1
 44
1.0
  0
LINE
  5
242
330
1F
100
AcDbEntity
  8
1-A_文字
  6
Continuous
 62
     7
370
     9
100
AcDbLine
 10
-3297.535278789869
 20
-473.9555754076748
 30
0.0
 11
-3914.254021075985
 21
-473.9555754076748
 31
0.0
  0
LINE
  5
243
330
1F
100
AcDbEntity
  8
1-A_文字
  6
Continuous
 62
     7
370
     9
100
AcDbLine
 10
-4204.92688449094
 20
-972.7543920109442
 30
0.0
 11
-4648.031059345536
 21
-972.7543920109442
 31
0.0
  0
LINE
  5
244
330
1F
100
AcDbEntity
  8
1-A_文字
  6
Continuous
 62
     7
370
     9
100
AcDbLine
 10
-5003.295194121718
 20
-1650.644707026467
 30
0.0
 11
-5444.703272323905
 21
-1650.644707026467
 31
0.0
  0
LINE
  5
245
330
1F
100
AcDbEntity
  8
1-A_文字
  6
Continuous
 62
     7
370
     9
100
AcDbLine
 10
-4830.239269700792
 20
-2606.612059638898
 30
0.0
 11
-4207.764836383805
 21
-2606.612059638898
 31
0.0
  0
LINE
  5
246
330
1F
100
AcDbEntity
  8
1-A_文字
  6
Continuous
 62
     7
370
     9
100
AcDbLine
 10
-2975.082372547657
 20
-1595.278971501798
 30
0.0
 11
-2579.478646699945
 21
-1595.278971501798
 31
0.0
  0
MTEXT
  5
247
330
1F
100
AcDbEntity
  8
0-A_文字
  6
Continuous
 62
     7
370
     9
100
AcDbMText
 10
4453.712034758013
 20
-78.13622406848884
 30
0.0
 40
114.3
 41
150.0
 46
0.0
 71
     7
 72
     1
  1
{\fＭＳ ゴシック|b0|i0|c128|p49;○}
 73
     1
 44
1.0
  0
MTEXT
  5
248
330
1F
100
AcDbEntity
  8
0-A_文字
  6
Continuous
 62
     7
370
     9
100
AcDbMText
 10
-631.0134228127025
 20
-2870.677506420965
 30
0.0
 40
114.3
 41
150.0
 46
0.0
 71
     7
 72
     1
  1
{\fＭＳ ゴシック|b0|i0|c128|p49;○}
 73
     1
 44
1.0
  0
LINE
  5
249
330
1F
100
AcDbEntity
  8
0-A_文字
  6
Continuous
 62
     7
370
     9
100
AcDbLine
 10
4167.307616668936
 20
114.5066621124867
 30
0.0
 11
3835.58738651911
 21
114.5066621124867
 31
0.0
  0
LINE
  5
24A
330
1F
100
AcDbEntity
  8
0-A_文字
  6
Continuous
 62
     7
370
     9
100
AcDbLine
 10
4403.973409813619
 20
-122.1591310321968
 30
0.0
 11
4167.307616668936
 21
114.5066621124867
 31
0.0
  0
MTEXT
  5
24B
330
1F
100
AcDbEntity
  8
0-B_寸法
  6
Continuous
 62
     7
370
   211
100
AcDbMText
 10
3831.036637767029
 20
112.391542172442
 30
0.0
 40
68.57999999999998
 41
270.0
 46
0.0
 71
     7
 72
     1
  1
{\fＭＳ ゴシック|b0|i0|c128|p49;留接ぎ}
 73
     1
 44
1.0
  0
MTEXT
  5
24C
330
1F
100
AcDbEntity
  8
1-B_寸法
  6
Continuous
 62
     7
370
   211
100
AcDbMText
 10
-3449.91680532446
 20
-1821.933910149751
 30
0.0
 40
91.44
 41
300.0
 46
0.0
 71
     7
 72
     1
  1
{\fＭＳ ゴシック|b0|i0|c128|p49;2,900}
 73
     1
 44
1.0
  0
MTEXT
  5
24D
330
1F
100
AcDbEntity
  8
0-B_寸法
  6
Continuous
 62
     7
370
   211
100
AcDbMText
 10
5323.712034758013
 20
-914.5662240684891
 30
0.0
 40
91.44
 41
300.0
 46
0.0
 71
     7
 72
     1
  1
{\fＭＳ ゴシック|b0|i0|c128|p49;2,900}
 11
6.123031769111886E-17
 21
1.0
 31
0.0
 73
     1
 44
1.0
  0
MTEXT
  5
24E
330
1F
100
AcDbEntity
  8
F-A_文字
  6
Continuous
 62
     7
370
     0
100
AcDbMText
 10
5340.196445721716
 20
-4301.235083535615
 30
0.0
 40
68.58
 41
45.0
 46
0.0
 71
     7
 72
     1
  1
{\fＭＳ ゴシック|b0|i0|c128|p49;,}
 73
     1
 44
1.0
  0
MTEXT
  5
24F
330
1F
100
AcDbEntity
  8
F-A_文字
  6
Continuous
 62
     7
370
     0
100
AcDbMText
 10
5073.937756795019
 20
-4299.77160695404
 30
0.0
 40
74.295
 41
97.5
 46
0.0
 71
     7
 72
     1
  1
{\fＭＳ ゴシック|b0|i0|c128|p49;$y}
 73
     1
 44
1.0
  0
MTEXT
  5
250
330
1F
100
AcDbEntity
  8
F-A_文字
  6
Continuous
 62
     7
370
     0
100
AcDbMText
 10
5228.67447783384
 20
-4299.77160695404
 30
0.0
 40
74.295
 41
97.5
 46
0.0
 71
     7
 72
     1
  1
{\fＭＳ ゴシック|b0|i0|c128|p49;$m}
 73
     1
 44
1.0
  0
MTEXT
  5
251
330
1F
100
AcDbEntity
  8
F-A_文字
  6
Continuous
 62
     7
370
     0
100
AcDbMText
 10
5383.411210316748
 20
-4299.77160695404
 30
0.0
 40
74.295
 41
97.5
 46
0.0
 71
     7
 72
     1
  1
{\fＭＳ ゴシック|b0|i0|c128|p49;$d}
 73
     1
 44
1.0
  0
MTEXT
  5
252
330
1F
100
AcDbEntity
  8
F-A_文字
  6
Continuous
 62
     7
370
     0
100
AcDbMText
 10
5538.147942799657
 20
-4299.77160695404
 30
0.0
 40
74.295
 41
195.0
 46
0.0
 71
     7
 72
     1
  1
{\fＭＳ ゴシック|b0|i0|c128|p49;印刷}
 73
     1
 44
1.0
  0
MTEXT
  5
253
330
1F
100
AcDbEntity
  8
F-A_文字
  6
Continuous
 62
     7
370
     0
100
AcDbMText
 10
5181.27763869199
 20
-4304.02313323349
 30
0.0
 40
68.58
 41
45.0
 46
0.0
 71
     7
 72
     1
  1
{\fＭＳ ゴシック|b0|i0|c128|p49;,}
 73
     1
 44
1.0
  0
MTEXT
  5
254
330
1F
100
AcDbEntity
  8
F-A_文字
  6
Continuous
 62
     7
370
     0
100
AcDbMText
 10
5758.403805989357
 20
-4299.841058686677
 30
0.0
 40
68.58
 41
90.0
 46
0.0
 71
     7
 72
     1
  1
{\fＭＳ ゴシック|b0|i0|c128|p49;）}
 73
     1
 44
1.0
  0
MTEXT
  5
255
330
1F
100
AcDbEntity
  8
F-A_文字
  6
Continuous
 62
     7
370
     0
100
AcDbMText
 10
4934.033869132644
 20
-4304.02313323349
 30
0.0
 40
68.58
 41
90.0
 46
0.0
 71
     7
 72
     1
  1
{\fＭＳ ゴシック|b0|i0|c128|p49;（}
 73
     1
 44
1.0
  0
LINE
  5
256
330
1F
100
AcDbEntity
  8
F-0_補助線
  6
JWW_HOJO
 62
     7
370
     9
100
AcDbLine
 10
1000.000082479942
 20
-3779.99980514114
 30
0.0
 11
1000.000082479942
 21
-4179.999810296136
 31
0.0
  0
LINE
  5
257
330
1F
100
AcDbEntity
  8
F-0_補助線
  6
JWW_HOJO
 62
     7
370
     9
100
AcDbLine
 10
500.0004123997047
 20
-3779.99980514114
 30
0.0
 11
500.0004123997047
 21
-4179.999810296136
 31
0.0
  0
LINE
  5
258
330
1F
100
AcDbEntity
  8
F-1_枠
  6
Continuous
 62
   200
370
    20
100
AcDbLine
 10
5849.999257680533
 20
-4189.999804625641
 30
0.0
 11
-5849.999257680533
 21
-4189.999804625641
 31
0.0
  0
LINE
  5
259
330
1F
100
AcDbEntity
  8
F-1_枠
  6
Continuous
 62
   200
370
    20
100
AcDbLine
 10
5849.999257680533
 20
-4184.999795862147
 30
0.0
 11
-5849.999257680533
 21
-4184.999795862147
 31
0.0
  0
LINE
  5
25A
330
1F
100
AcDbEntity
  8
F-1_枠
  6
Continuous
 62
   200
370
    20
100
AcDbLine
 10
5849.999257680533
 20
-4179.999810296136
 30
0.0
 11
-5849.999257680533
 21
-4179.999810296136
 31
0.0
  0
LINE
  5
25B
330
1F
100
AcDbEntity
  8
F-1_枠
  6
Continuous
 62
   200
370
    20
100
AcDbLine
 10
4339.999719568202
 20
-3779.99980514114
 30
0.0
 11
4339.999719568202
 21
-4179.999810296136
 31
0.0
  0
LINE
  5
25C
330
1F
100
AcDbEntity
  8
F-1_枠
  6
Continuous
 62
   200
370
    20
100
AcDbLine
 10
2839.999224688557
 20
-3779.99980514114
 30
0.0
 11
2839.999224688557
 21
-4179.999810296136
 31
0.0
  0
LINE
  5
25D
330
1F
100
AcDbEntity
  8
F-1_枠
  6
Continuous
 62
   200
370
    20
100
AcDbLine
 10
0.0003711597344136
 20
-3779.99980514114
 30
0.0
 11
0.0003711597344136
 21
-4179.999810296136
 31
0.0
  0
LINE
  5
25E
330
1F
100
AcDbEntity
  8
F-1_枠
  6
Continuous
 62
   200
370
    20
100
AcDbLine
 10
0.0003711597344136
 20
-3979.999738126188
 30
0.0
 11
5839.99947212838
 21
-3980.005166337297
 31
0.0
  0
LINE
  5
25F
330
1F
100
AcDbEntity
  8
F-0_補助線
  6
JWW_HOJO
 62
     7
370
     9
100
AcDbLine
 10
-5839.999495325861
 20
-3979.999738126533
 30
0.0
 11
0.0003711597344136
 21
-3979.999738126533
 31
0.0
  0
LINE
  5
260
330
1F
100
AcDbEntity
  8
F-0_補助線
  6
JWW_HOJO
 62
     7
370
     9
100
AcDbLine
 10
-5839.999495325861
 20
-3889.999738126533
 30
0.0
 11
0.0003711597344136
 21
-3889.999738126533
 31
0.0
  0
LINE
  5
261
330
1F
100
AcDbEntity
  8
F-0_補助線
  6
JWW_HOJO
 62
     7
370
     9
100
AcDbLine
 10
-5839.999495325861
 20
-4069.999738126533
 30
0.0
 11
0.0003711597344136
 21
-4069.999738126533
 31
0.0
  0
LINE
  5
262
330
1F
100
AcDbEntity
  8
F-0_補助線
  6
JWW_HOJO
 62
     7
370
     9
100
AcDbLine
 10
0.0002363841065289
 20
-4124.999541826125
 30
0.0
 11
5839.99933735275
 21
-4125.004970037234
 31
0.0
  0
LINE
  5
263
330
1F
100
AcDbEntity
  8
F-0_補助線
  6
JWW_HOJO
 62
     7
370
     9
100
AcDbLine
 10
0.0003200380581347
 20
-4034.999541826165
 30
0.0
 11
5839.999421006702
 21
-4035.004970037273
 31
0.0
  0
LINE
  5
264
330
1F
100
AcDbEntity
  8
F-0_補助線
  6
JWW_HOJO
 62
     7
370
     9
100
AcDbLine
 10
0.0004222817781852
 20
-3924.999539266212
 30
0.0
 11
5839.999523250422
 21
-3925.004967477321
 31
0.0
  0
LINE
  5
265
330
1F
100
AcDbEntity
  8
F-0_補助線
  6
JWW_HOJO
 62
     7
370
     9
100
AcDbLine
 10
0.000505935729791
 20
-3834.999539266251
 30
0.0
 11
5839.999606904374
 21
-3835.00496747736
 31
0.0
  0
LINE
  5
266
330
1F
100
AcDbEntity
  8
F-0_補助線
  6
JWW_HOJO
 62
     7
370
     9
100
AcDbLine
 10
2929.999224688557
 20
-3779.99980514114
 30
0.0
 11
2929.999224688557
 21
-4179.999810296136
 31
0.0
  0
LINE
  5
267
330
1F
100
AcDbEntity
  8
F-0_補助線
  6
JWW_HOJO
 62
     7
370
     9
100
AcDbLine
 10
90.00037115973441
 20
-3779.99980514114
 30
0.0
 11
90.00037115973441
 21
-4179.999810296136
 31
0.0
  0
LINE
  5
268
330
1F
100
AcDbEntity
  8
F-0_補助線
  6
JWW_HOJO
 62
     7
370
     9
100
AcDbLine
 10
4429.999719568202
 20
-3779.99980514114
 30
0.0
 11
4429.999719568202
 21
-4179.999810296136
 31
0.0
  0
MTEXT
  5
269
330
1F
100
AcDbEntity
  8
F-A_文字
  6
Continuous
 62
     7
370
     0
100
AcDbMText
 10
4429.999719568202
 20
-3872.143656898896
 30
0.0
 40
45.72
 41
240.0
 46
0.0
 71
     7
 72
     1
  1
{\fＭＳ ゴシック|b0|i0|c128|p49;ＤＡＴＥ}
 73
     1
 44
1.0
  0
MTEXT
  5
26A
330
1F
100
AcDbEntity
  8
F-A_文字
  6
Continuous
 62
     7
370
     0
100
AcDbMText
 10
4429.999719568202
 20
-4072.143659458982
 30
0.0
 40
45.72
 41
180.0
 46
0.0
 71
     7
 72
     1
  1
{\fＭＳ ゴシック|b0|i0|c128|p49;ＮＯ．}
 73
     1
 44
1.0
  0
MTEXT
  5
26B
330
1F
100
AcDbEntity
  8
F-A_文字
  6
Continuous
 62
     7
370
     0
100
AcDbMText
 10
2929.999224688557
 20
-3872.142262665916
 30
0.0
 40
45.72
 41
300.0
 46
0.0
 71
     7
 72
     1
  1
{\fＭＳ ゴシック|b0|i0|c128|p49;ＳＣＡＬＥ}
 73
     1
 44
1.0
  0
MTEXT
  5
26C
330
1F
100
AcDbEntity
  8
F-A_文字
  6
Continuous
 62
     7
370
     0
100
AcDbMText
 10
2929.999224688557
 20
-4072.142265226002
 30
0.0
 40
45.72
 41
240.0
 46
0.0
 71
     7
 72
     1
  1
{\fＭＳ ゴシック|b0|i0|c128|p49;ＦＩＬＥ}
 73
     1
 44
1.0
  0
MTEXT
  5
26D
330
1F
100
AcDbEntity
  8
F-A_文字
  6
Continuous
 62
     7
370
     0
100
AcDbMText
 10
90.00037115973441
 20
-3872.139622920078
 30
0.0
 40
45.72
 41
180.0
 46
0.0
 71
     7
 72
     1
  1
{\fＭＳ ゴシック|b0|i0|c128|p49;図面名}
 73
     1
 44
1.0
  0
MTEXT
  5
26E
330
1F
100
AcDbEntity
  8
F-A_文字
  6
Continuous
 62
     7
370
     0
100
AcDbMText
 10
1594.999224688556
 20
-4149.28155657207
 30
0.0
 40
101.44125
 41
1065.0
 46
0.0
 71
     7
 72
     1
  1
{\fＭＳ ゴシック|b0|i0|c128|p49;ウッドワン・・・}
 73
     1
 44
1.0
  0
MTEXT
  5
26F
330
1F
100
AcDbEntity
  8
F-A_文字
  6
Continuous
 62
     7
370
     0
100
AcDbMText
 10
1384.999224688556
 20
-4081.14047131429
 30
0.0
 40
45.72
 41
120.0
 46
0.0
 71
     7
 72
     1
  1
{\fＭＳ ゴシック|b0|i0|c128|p49;株式}
 73
     1
 44
1.0
  0
MTEXT
  5
270
330
1F
100
AcDbEntity
  8
F-A_文字
  6
Continuous
 62
     7
370
     0
100
AcDbMText
 10
1384.999224688556
 20
-4153.140471314329
 30
0.0
 40
45.72
 41
120.0
 46
0.0
 71
     7
 72
     1
  1
{\fＭＳ ゴシック|b0|i0|c128|p49;会社}
 73
     1
 44
1.0
  0
LINE
  5
271
330
1F
100
AcDbEntity
  8
F-1_枠
  6
Continuous
 62
   200
370
    20
100
AcDbLine
 10
5849.999257680533
 20
-3779.99980514114
 30
0.0
 11
-5849.999257680533
 21
-3779.99980514114
 31
0.0
  0
LINE
  5
272
330
1F
100
AcDbEntity
  8
F-1_枠
  6
Continuous
 62
   200
370
    20
100
AcDbLine
 10
5849.999257680533
 20
-3774.99981957513
 30
0.0
 11
-5849.999257680533
 21
-3774.99981957513
 31
0.0
  0
LINE
  5
273
330
1F
100
AcDbEntity
  8
F-0_補助線
  6
JWW_HOJO
 62
     7
370
     9
100
AcDbLine
 10
-5097.546881873193
 20
-3779.999805141141
 30
0.0
 11
-5097.546881873193
 21
-4189.999967008024
 31
0.0
  0
LINE
  5
274
330
1F
100
AcDbEntity
  8
F-0_補助線
  6
JWW_HOJO
 62
     7
370
     9
100
AcDbLine
 10
-59.99962884026559
 20
-3779.99980514114
 30
0.0
 11
-59.99962884026559
 21
-4179.999810296136
 31
0.0
  0
MTEXT
  5
275
330
1F
100
AcDbEntity
  8
F-A_文字
  6
Continuous
 62
     7
370
     0
100
AcDbMText
 10
3559.999472128379
 20
-3931.90291795545
 30
0.0
 40
76.19999999999999
 41
150.0
 46
0.0
 71
     7
 72
     1
  1
{\fＭＳ ゴシック|b0|i0|c128|p49;1/1}
 73
     1
 44
1.0
  0
MTEXT
  5
276
330
1F
100
AcDbEntity
  8
F-A_文字
  6
Continuous
 62
     7
370
     0
100
AcDbMText
 10
500.0004123997047
 20
-3936.497093920645
 30
0.0
 40
68.58000000000001
 41
360.0
 46
0.0
 71
     7
 72
     1
  1
{\fＭＳ ゴシック|b0|i0|c128|p49;DOORETUS}
 73
     1
 44
1.0
  0
MTEXT
  5
277
330
1F
100
AcDbEntity
  8
F-A_文字
  6
Continuous
 62
     7
370
     0
100
AcDbMText
 10
1330.418196783364
 20
-3931.137963647981
 30
0.0
 40
77.724
 41
510.0
 46
0.0
 71
     7
 72
     1
  1
{\fＭＳ ゴシック|b0|i0|c128|p49;洋風造作材}
 73
     1
 44
1.0
  0
MTEXT
  5
278
330
1F
100
AcDbEntity
  8
F-A_文字
  6
Continuous
 62
     7
370
     9
100
AcDbMText
 10
5086.249528460475
 20
-4132.856814748127
 30
0.0
 40
74.295
 41
97.5
 46
0.0
 71
     7
 72
     1
  1
{\fＭＳ ゴシック|b0|i0|c128|p49;01}
 73
     1
 44
1.0
  0
MTEXT
  5
279
330
1F
100
AcDbEntity
  8
F-A_文字
  6
Continuous
 62
     7
370
     0
100
AcDbMText
 10
-5089.999495325861
 20
-4030.098647217442
 30
0.0
 40
79.8021818181818
 41
2880.0
 46
0.0
 71
     7
 72
     1
  1
{\fＭＳ ゴシック|b0|i0|c128|p49;ドレタス　洋風造作材　カーテンボックス枠セット　Ｌ2,900}
 73
     1
 44
1.0
  0
MTEXT
  5
27A
330
1F
100
AcDbEntity
  8
F-A_文字
  6
Continuous
 62
     7
370
     0
100
AcDbMText
 10
4928.749621409312
 20
-3923.070812188108
 30
0.0
 40
78.86699999999999
 41
517.5
 46
0.0
 71
     7
 72
     1
  1
{\fＭＳ ゴシック|b0|i0|c128|p49;2021.04.01}
 73
     1
 44
1.0
  0
ENDSEC
  0
SECTION
  2
OBJECTS
  0
DICTIONARY
  5
C
330
0
100
AcDbDictionary
281
     1
  3
ACAD_GROUP
350
D
  3
ACAD_LAYOUT
350
1A
  3
ACAD_MATERIAL
350
3B
  3
ACAD_MLEADERSTYLE
350
27C
  3
ACAD_MLINESTYLE
350
17
  3
ACAD_PLOTSETTINGS
350
19
  3
ACAD_PLOTSTYLENAME
350
E
  3
ACAD_TABLESTYLE
350
27B
  3
ACAD_VISUALSTYLE
350
2A
  0
DICTIONARY
  5
D
102
{ACAD_REACTORS
330
C
102
}
330
C
100
AcDbDictionary
281
     1
  0
DICTIONARY
  5
1A
102
{ACAD_REACTORS
330
C
102
}
330
C
100
AcDbDictionary
281
     1
  3
Layout1
350
1E
  3
Layout2
350
26
  3
Model
350
22
  0
DICTIONARY
  5
3B
102
{ACAD_REACTORS
330
C
102
}
330
C
100
AcDbDictionary
281
     1
  3
ByBlock
350
3D
  3
ByLayer
350
3C
  3
Global
350
3E
  0
DICTIONARY
  5
27C
102
{ACAD_REACTORS
330
C
102
}
330
C
100
AcDbDictionary
281
     1
  0
DICTIONARY
  5
17
102
{ACAD_REACTORS
330
C
102
}
330
C
100
AcDbDictionary
281
     1
  3
Standard
350
18
  0
DICTIONARY
  5
19
102
{ACAD_REACTORS
330
C
102
}
330
C
100
AcDbDictionary
281
     1
  0
ACDBDICTIONARYWDFLT
  5
E
102
{ACAD_REACTORS
330
C
102
}
330
C
100
AcDbDictionary
281
     1
  3
Normal
350
F
100
AcDbDictionaryWithDefault
340
F
  0
DICTIONARY
  5
27B
102
{ACAD_REACTORS
330
C
102
}
330
C
100
AcDbDictionary
281
     1
  0
DICTIONARY
  5
2A
102
{ACAD_REACTORS
330
C
102
}
330
C
100
AcDbDictionary
281
     1
  3
2dWireframe
350
2F
  3
3D Hidden
350
31
  3
3dWireframe
350
30
  3
Basic
350
32
  3
Brighten
350
36
  3
ColorChange
350
3A
  3
Conceptual
350
34
  3
Dim
350
35
  3
Facepattern
350
39
  3
Flat
350
2B
  3
FlatWithEdges
350
2C
  3
Gouraud
350
2D
  3
GouraudWithEdges
350
2E
  3
Linepattern
350
38
  3
Realistic
350
33
  3
Thicken
350
37
  0
LAYOUT
  5
1E
102
{ACAD_REACTORS
330
1A
102
}
330
1A
100
AcDbPlotSettings
  1

  2
none_device
  4

  6

 40
0.0
 41
0.0
 42
0.0
 43
0.0
 44
0.0
 45
0.0
 46
0.0
 47
0.0
 48
0.0
 49
0.0
140
0.0
141
0.0
142
1.0
143
1.0
 70
   688
 72
     0
 73
     0
 74
     5
  7

 75
    16
 76
     0
 77
     5
 78
   300
147
1.0
148
0.0
149
0.0
100
AcDbLayout
  1
Layout1
 70
     1
 71
     1
 10
0.0
 20
0.0
 11
420.0
 21
297.0
 12
0.0
 22
0.0
 32
0.0
 14
1.000000000000000E+20
 24
1.000000000000000E+20
 34
1.000000000000000E+20
 15
-1.000000000000000E+20
 25
-1.000000000000000E+20
 35
-1.000000000000000E+20
146
0.0
 13
0.0
 23
0.0
 33
0.0
 16
1.0
 26
0.0
 36
0.0
 17
0.0
 27
1.0
 37
0.0
 76
     0
330
1B
  0
LAYOUT
  5
26
102
{ACAD_REACTORS
330
1A
102
}
330
1A
100
AcDbPlotSettings
  1

  2
none_device
  4

  6

 40
0.0
 41
0.0
 42
0.0
 43
0.0
 44
0.0
 45
0.0
 46
0.0
 47
0.0
 48
0.0
 49
0.0
140
0.0
141
0.0
142
1.0
143
1.0
 70
   688
 72
     0
 73
     0
 74
     5
  7

 75
    16
 76
     0
 77
     5
 78
   300
147
1.0
148
0.0
149
0.0
100
AcDbLayout
  1
Layout2
 70
     1
 71
     2
 10
0.0
 20
0.0
 11
0.0
 21
0.0
 12
0.0
 22
0.0
 32
0.0
 14
0.0
 24
0.0
 34
0.0
 15
0.0
 25
0.0
 35
0.0
146
0.0
 13
0.0
 23
0.0
 33
0.0
 16
1.0
 26
0.0
 36
0.0
 17
0.0
 27
1.0
 37
0.0
 76
     0
330
23
  0
LAYOUT
  5
22
102
{ACAD_REACTORS
330
1A
102
}
330
1A
100
AcDbPlotSettings
  1

  2
none_device
  4

  6

 40
0.0
 41
0.0
 42
0.0
 43
0.0
 44
0.0
 45
0.0
 46
0.0
 47
0.0
 48
0.0
 49
0.0
140
0.0
141
0.0
142
1.0
143
1.0
 70
  1712
 72
     0
 73
     0
 74
     0
  7

 75
     0
 76
     0
 77
     5
 78
   300
147
1.0
148
0.0
149
0.0
100
AcDbLayout
  1
Model
 70
     1
 71
     0
 10
-6300.0
 20
-4455.0
 11
6300.0
 21
4455.0
 12
0.0
 22
0.0
 32
0.0
 14
-6300.0
 24
-4455.0
 34
0.0
 15
6300.0
 25
4455.0
 35
0.0
146
0.0
 13
0.0
 23
0.0
 33
0.0
 16
1.0
 26
0.0
 36
0.0
 17
0.0
 27
1.0
 37
0.0
 76
     0
330
1F
331
29
  0
MATERIAL
  5
3D
102
{ACAD_REACTORS
330
3B
102
}
330
3B
100
AcDbMaterial
  1
ByBlock
 72
     1
 94
      127
  0
MATERIAL
  5
3C
102
{ACAD_REACTORS
330
3B
102
}
330
3B
100
AcDbMaterial
  1
ByLayer
 72
     1
 94
      127
  0
MATERIAL
  5
3E
102
{ACAD_REACTORS
330
3B
102
}
330
3B
100
AcDbMaterial
  1
Global
 72
     1
 94
      127
  0
MLINESTYLE
  5
18
102
{ACAD_REACTORS
330
17
102
}
330
17
100
AcDbMlineStyle
  2
Standard
 70
     0
  3

 62
   256
 51
90.0
 52
90.0
 71
     2
 49
0.5
 62
   256
  6
BYLAYER
 49
-0.5
 62
   256
  6
BYLAYER
  0
ACDBPLACEHOLDER
  5
F
102
{ACAD_REACTORS
330
E
102
}
330
E
  0
VISUALSTYLE
  5
2F
102
{ACAD_REACTORS
330
2A
102
}
330
2A
100
AcDbVisualStyle
  2
2dWireframe
 70
     4
177
     2
291
     0
 71
     0
176
     1
 72
     2
176
     1
 73
     0
176
     1
 90
        0
176
     1
 40
-0.6
176
     1
 41
-30.0
176
     1
 62
     5
 63
     7
421
 16777215
176
     1
 74
     1
176
     1
 91
        4
176
     1
 64
     7
176
     1
 65
   257
176
     1
 75
     1
176
     1
175
     1
176
     1
 42
1.0
176
     1
 92
        0
176
     1
 66
   257
176
     1
 43
1.0
176
     1
 76
     1
176
     1
 77
     6
176
     1
 78
     2
176
     1
 67
     7
176
     1
 79
     5
176
     1
170
     0
176
     1
171
     0
176
     1
290
     0
176
     1
 93
        1
176
     1
 44
0.0
176
     1
173
     0
176
     1
  0
VISUALSTYLE
  5
31
102
{ACAD_REACTORS
330
2A
102
}
330
2A
100
AcDbVisualStyle
  2
3D Hidden
 70
     6
177
     2
291
     0
 71
     1
176
     1
 72
     2
176
     1
 73
     2
176
     1
 90
        0
176
     1
 40
-0.6
176
     1
 41
-30.0
176
     1
 62
     5
 63
     7
421
 16777215
176
     1
 74
     2
176
     1
 91
        2
176
     1
 64
     7
176
     1
 65
   257
176
     1
 75
     2
176
     1
175
     1
176
     1
 42
40.0
176
     1
 92
        0
176
     1
 66
   257
176
     1
 43
1.0
176
     1
 76
     1
176
     1
 77
     6
176
     1
 78
     2
176
     1
 67
     7
176
     1
 79
     3
176
     1
170
     0
176
     1
171
     0
176
     1
290
     0
176
     1
 93
        1
176
     1
 44
0.0
176
     1
173
     0
176
     1
  0
VISUALSTYLE
  5
30
102
{ACAD_REACTORS
330
2A
102
}
330
2A
100
AcDbVisualStyle
  2
3dWireframe
 70
     5
177
     2
291
     0
 71
     0
176
     1
 72
     2
176
     1
 73
     0
176
     1
 90
        0
176
     1
 40
-0.6
176
     1
 41
-30.0
176
     1
 62
     5
 63
     7
421
 16777215
176
     1
 74
     1
176
     1
 91
        4
176
     1
 64
     7
176
     1
 65
   257
176
     1
 75
     1
176
     1
175
     1
176
     1
 42
1.0
176
     1
 92
        0
176
     1
 66
   257
176
     1
 43
1.0
176
     1
 76
     1
176
     1
 77
     6
176
     1
 78
     2
176
     1
 67
     7
176
     1
 79
     5
176
     1
170
     0
176
     1
171
     0
176
     1
290
     0
176
     1
 93
        1
176
     1
 44
0.0
176
     1
173
     0
176
     1
  0
VISUALSTYLE
  5
32
102
{ACAD_REACTORS
330
2A
102
}
330
2A
100
AcDbVisualStyle
  2
Basic
 70
     7
177
     2
291
     1
 71
     1
176
     1
 72
     0
176
     1
 73
     1
176
     1
 90
        0
176
     1
 40
-0.6
176
     1
 41
-30.0
176
     1
 62
     5
 63
     7
421
 16777215
176
     1
 74
     0
176
     1
 91
        4
176
     1
 64
     7
176
     1
 65
   257
176
     1
 75
     1
176
     1
175
     1
176
     1
 42
1.0
176
     1
 92
        8
176
     1
 66
     7
176
     1
 43
1.0
176
     1
 76
     1
176
     1
 77
     6
176
     1
 78
     2
176
     1
 67
     7
176
     1
 79
     5
176
     1
170
     0
176
     1
171
     0
176
     1
290
     0
176
     1
 93
        1
176
     1
 44
0.0
176
     1
173
     0
176
     1
  0
VISUALSTYLE
  5
36
102
{ACAD_REACTORS
330
2A
102
}
330
2A
100
AcDbVisualStyle
  2
Brighten
 70
    12
177
     2
291
     1
 71
     2
176
     1
 72
     2
176
     1
 73
     0
176
     1
 90
        0
176
     1
 40
-0.6
176
     1
 41
-30.0
176
     1
 62
     5
 63
     7
421
 16777215
176
     1
 74
     1
176
     1
 91
        4
176
     1
 64
     7
176
     1
 65
   257
176
     1
 75
     1
176
     1
175
     1
176
     1
 42
1.0
176
     1
 92
        8
176
     1
 66
     7
176
     1
 43
1.0
176
     1
 76
     1
176
     1
 77
     6
176
     1
 78
     2
176
     1
 67
     7
176
     1
 79
     5
176
     1
170
     0
176
     1
171
     0
176
     1
290
     0
176
     1
 93
        1
176
     1
 44
50.0
176
     1
173
     0
176
     1
  0
VISUALSTYLE
  5
3A
102
{ACAD_REACTORS
330
2A
102
}
330
2A
100
AcDbVisualStyle
  2
ColorChange
 70
    16
177
     2
291
     1
 71
     2
176
     1
 72
     2
176
     1
 73
     3
176
     1
 90
        0
176
     1
 40
-0.6
176
     1
 41
-30.0
176
     1
 62
     5
 63
     8
421
  8421504
176
     1
 74
     1
176
     1
 91
        4
176
     1
 64
     7
176
     1
 65
   257
176
     1
 75
     1
176
     1
175
     1
176
     1
 42
1.0
176
     1
 92
        8
176
     1
 66
     8
424
  8421504
176
     1
 43
1.0
176
     1
 76
     1
176
     1
 77
     6
176
     1
 78
     2
176
     1
 67
     7
176
     1
 79
     5
176
     1
170
     0
176
     1
171
     0
176
     1
290
     0
176
     1
 93
        1
176
     1
 44
0.0
176
     1
173
     0
176
     1
  0
VISUALSTYLE
  5
34
102
{ACAD_REACTORS
330
2A
102
}
330
2A
100
AcDbVisualStyle
  2
Conceptual
 70
     9
177
     2
291
     0
 71
     3
176
     1
 72
     2
176
     1
 73
     0
176
     1
 90
        0
176
     1
 40
-0.6
176
     1
 41
-30.0
176
     1
 62
     5
 63
     7
421
 16777215
176
     1
 74
     2
176
     1
 91
        2
176
     1
 64
     7
176
     1
 65
   257
176
     1
 75
     1
176
     1
175
     1
176
     1
 42
40.0
176
     1
 92
        8
176
     1
 66
     7
176
     1
 43
1.0
176
     1
 76
     1
176
     1
 77
     6
176
     1
 78
     2
176
     1
 67
     7
176
     1
 79
     3
176
     1
170
     0
176
     1
171
     0
176
     1
290
     0
176
     1
 93
        1
176
     1
 44
0.0
176
     1
173
     0
176
     1
  0
VISUALSTYLE
  5
35
102
{ACAD_REACTORS
330
2A
102
}
330
2A
100
AcDbVisualStyle
  2
Dim
 70
    11
177
     2
291
     1
 71
     2
176
     1
 72
     2
176
     1
 73
     0
176
     1
 90
        0
176
     1
 40
-0.6
176
     1
 41
-30.0
176
     1
 62
     5
 63
     7
421
 16777215
176
     1
 74
     1
176
     1
 91
        4
176
     1
 64
     7
176
     1
 65
   257
176
     1
 75
     1
176
     1
175
     1
176
     1
 42
1.0
176
     1
 92
        8
176
     1
 66
     7
176
     1
 43
1.0
176
     1
 76
     1
176
     1
 77
     6
176
     1
 78
     2
176
     1
 67
     7
176
     1
 79
     5
176
     1
170
     0
176
     1
171
     0
176
     1
290
     0
176
     1
 93
        1
176
     1
 44
-50.0
176
     1
173
     0
176
     1
  0
VISUALSTYLE
  5
39
102
{ACAD_REACTORS
330
2A
102
}
330
2A
100
AcDbVisualStyle
  2
Facepattern
 70
    15
177
     2
291
     1
 71
     2
176
     1
 72
     2
176
     1
 73
     0
176
     1
 90
        0
176
     1
 40
-0.6
176
     1
 41
-30.0
176
     1
 62
     5
 63
     7
421
 16777215
176
     1
 74
     1
176
     1
 91
        4
176
     1
 64
     7
176
     1
 65
   257
176
     1
 75
     1
176
     1
175
     1
176
     1
 42
1.0
176
     1
 92
        8
176
     1
 66
     7
176
     1
 43
1.0
176
     1
 76
     1
176
     1
 77
     6
176
     1
 78
     2
176
     1
 67
     7
176
     1
 79
     5
176
     1
170
     0
176
     1
171
     0
176
     1
290
     0
176
     1
 93
        1
176
     1
 44
0.0
176
     1
173
     0
176
     1
  0
VISUALSTYLE
  5
2B
102
{ACAD_REACTORS
330
2A
102
}
330
2A
100
AcDbVisualStyle
  2
Flat
 70
     0
177
     2
291
     1
 71
     2
176
     1
 72
     1
176
     1
 73
     1
176
     1
 90
        2
176
     1
 40
-0.6
176
     1
 41
30.0
176
     1
 62
     5
 63
     7
421
 16777215
176
     1
 74
     0
176
     1
 91
        4
176
     1
 64
     7
176
     1
 65
   257
176
     1
 75
     1
176
     1
175
     1
176
     1
 42
1.0
176
     1
 92
        8
176
     1
 66
     7
176
     1
 43
1.0
176
     1
 76
     1
176
     1
 77
     6
176
     1
 78
     2
176
     1
 67
     7
176
     1
 79
     5
176
     1
170
     0
176
     1
171
     0
176
     1
290
     0
176
     1
 93
       13
176
     1
 44
0.0
176
     1
173
     0
176
     1
  0
VISUALSTYLE
  5
2C
102
{ACAD_REACTORS
330
2A
102
}
330
2A
100
AcDbVisualStyle
  2
FlatWithEdges
 70
     1
177
     2
291
     1
 71
     2
176
     1
 72
     1
176
     1
 73
     1
176
     1
 90
        2
176
     1
 40
-0.6
176
     1
 41
30.0
176
     1
 62
     5
 63
     7
421
 16777215
176
     1
 74
     1
176
     1
 91
        4
176
     1
 64
     7
176
     1
 65
   257
176
     1
 75
     1
176
     1
175
     1
176
     1
 42
1.0
176
     1
 92
        0
176
     1
 66
   257
176
     1
 43
1.0
176
     1
 76
     1
176
     1
 77
     6
176
     1
 78
     2
176
     1
 67
     7
176
     1
 79
     5
176
     1
170
     0
176
     1
171
     0
176
     1
290
     0
176
     1
 93
       13
176
     1
 44
0.0
176
     1
173
     0
176
     1
  0
VISUALSTYLE
  5
2D
102
{ACAD_REACTORS
330
2A
102
}
330
2A
100
AcDbVisualStyle
  2
Gouraud
 70
     2
177
     2
291
     1
 71
     2
176
     1
 72
     2
176
     1
 73
     1
176
     1
 90
        2
176
     1
 40
-0.6
176
     1
 41
30.0
176
     1
 62
     5
 63
     7
421
 16777215
176
     1
 74
     0
176
     1
 91
        4
176
     1
 64
     7
176
     1
 65
   257
176
     1
 75
     1
176
     1
175
     1
176
     1
 42
1.0
176
     1
 92
        0
176
     1
 66
     7
176
     1
 43
1.0
176
     1
 76
     1
176
     1
 77
     6
176
     1
 78
     2
176
     1
 67
     7
176
     1
 79
     5
176
     1
170
     0
176
     1
171
     0
176
     1
290
     0
176
     1
 93
       13
176
     1
 44
0.0
176
     1
173
     0
176
     1
  0
VISUALSTYLE
  5
2E
102
{ACAD_REACTORS
330
2A
102
}
330
2A
100
AcDbVisualStyle
  2
GouraudWithEdges
 70
     3
177
     2
291
     1
 71
     2
176
     1
 72
     2
176
     1
 73
     1
176
     1
 90
        2
176
     1
 40
-0.6
176
     1
 41
30.0
176
     1
 62
     5
 63
     7
421
 16777215
176
     1
 74
     1
176
     1
 91
        4
176
     1
 64
     7
176
     1
 65
   257
176
     1
 75
     1
176
     1
175
     1
176
     1
 42
1.0
176
     1
 92
        0
176
     1
 66
   257
176
     1
 43
1.0
176
     1
 76
     1
176
     1
 77
     6
176
     1
 78
     2
176
     1
 67
     7
176
     1
 79
     5
176
     1
170
     0
176
     1
171
     0
176
     1
290
     0
176
     1
 93
       13
176
     1
 44
0.0
176
     1
173
     0
176
     1
  0
VISUALSTYLE
  5
38
102
{ACAD_REACTORS
330
2A
102
}
330
2A
100
AcDbVisualStyle
  2
Linepattern
 70
    14
177
     2
291
     1
 71
     2
176
     1
 72
     2
176
     1
 73
     0
176
     1
 90
        0
176
     1
 40
-0.6
176
     1
 41
-30.0
176
     1
 62
     5
 63
     7
421
 16777215
176
     1
 74
     1
176
     1
 91
        4
176
     1
 64
     7
176
     1
 65
   257
176
     1
 75
     7
176
     1
175
     7
176
     1
 42
1.0
176
     1
 92
        8
176
     1
 66
     7
176
     1
 43
1.0
176
     1
 76
     1
176
     1
 77
     6
176
     1
 78
     2
176
     1
 67
     7
176
     1
 79
     5
176
     1
170
     0
176
     1
171
     0
176
     1
290
     0
176
     1
 93
        1
176
     1
 44
0.0
176
     1
173
     0
176
     1
  0
VISUALSTYLE
  5
33
102
{ACAD_REACTORS
330
2A
102
}
330
2A
100
AcDbVisualStyle
  2
Realistic
 70
     8
177
     2
291
     0
 71
     2
176
     1
 72
     2
176
     1
 73
     0
176
     1
 90
        0
176
     1
 40
-0.6
176
     1
 41
-30.0
176
     1
 62
     5
 63
     7
421
 16777215
176
     1
 74
     1
176
     1
 91
        0
176
     1
 64
     7
176
     1
 65
   257
176
     1
 75
     1
176
     1
175
     1
176
     1
 42
1.0
176
     1
 92
        8
176
     1
 66
     8
424
  7895160
176
     1
 43
1.0
176
     1
 76
     1
176
     1
 77
     6
176
     1
 78
     2
176
     1
 67
     7
176
     1
 79
     5
176
     1
170
     0
176
     1
171
     0
176
     1
290
     0
176
     1
 93
       13
176
     1
 44
0.0
176
     1
173
     0
176
     1
  0
VISUALSTYLE
  5
37
102
{ACAD_REACTORS
330
2A
102
}
330
2A
100
AcDbVisualStyle
  2
Thicken
 70
    13
177
     2
291
     1
 71
     2
176
     1
 72
     2
176
     1
 73
     0
176
     1
 90
        0
176
     1
 40
-0.6
176
     1
 41
-30.0
176
     1
 62
     5
 63
     7
421
 16777215
176
     1
 74
     1
176
     1
 91
        4
176
     1
 64
     7
176
     1
 65
   257
176
     1
 75
     1
176
     1
175
     1
176
     1
 42
1.0
176
     1
 92
       12
176
     1
 66
     7
176
     1
 43
1.0
176
     1
 76
     1
176
     1
 77
     6
176
     1
 78
     2
176
     1
 67
     7
176
     1
 79
     5
176
     1
170
     0
176
     1
171
     0
176
     1
290
     0
176
     1
 93
        1
176
     1
 44
0.0
176
     1
173
     0
176
     1
  0
ENDSEC
  0
EOF
