  0
SECTION
  2
HEADER
  9
$ACADVER
  1
AC1024
  9
$ACADMAINTVER
 70
     6
  9
$DWGCODEPAGE
  3
ANSI_932
  9
$INSBASE
 10
0.0
 20
0.0
 30
0.0
  9
$EXTMIN
 10
-6300.0
 20
-4455.0
 30
0.0
  9
$EXTMAX
 10
6300.0
 20
4455.0
 30
0.0
  9
$LIMMIN
 10
-6300.0
 20
-4455.0
  9
$LIMMAX
 10
6300.0
 20
4455.0
  9
$ORTHOMODE
 70
     0
  9
$REGENMODE
 70
     1
  9
$FILLMODE
 70
     1
  9
$QTEXTMODE
 70
     0
  9
$MIRRTEXT
 70
     1
  9
$LTSCALE
 40
30.0
  9
$ATTMODE
 70
     1
  9
$TEXTSIZE
 40
2.5
  9
$TRACEWID
 40
1.0
  9
$TEXTSTYLE
  7
Standard
  9
$CLAYER
  8
0
  9
$CELTYPE
  6
ByLayer
  9
$CECOLOR
 62
   256
  9
$CELTSCALE
 40
1.0
  9
$DISPSILH
 70
     0
  9
$DIMSCALE
 40
1.0
  9
$DIMASZ
 40
2.5
  9
$DIMEXO
 40
0.625
  9
$DIMDLI
 40
3.75
  9
$DIMRND
 40
0.0
  9
$DIMDLE
 40
0.0
  9
$DIMEXE
 40
1.25
  9
$DIMTP
 40
0.0
  9
$DIMTM
 40
0.0
  9
$DIMTXT
 40
2.5
  9
$DIMCEN
 40
2.5
  9
$DIMTSZ
 40
0.0
  9
$DIMTOL
 70
     0
  9
$DIMLIM
 70
     0
  9
$DIMTIH
 70
     0
  9
$DIMTOH
 70
     0
  9
$DIMSE1
 70
     0
  9
$DIMSE2
 70
     0
  9
$DIMTAD
 70
     1
  9
$DIMZIN
 70
     8
  9
$DIMBLK
  1

  9
$DIMASO
 70
     1
  9
$DIMSHO
 70
     1
  9
$DIMPOST
  1

  9
$DIMAPOST
  1

  9
$DIMALT
 70
     0
  9
$DIMALTD
 70
     3
  9
$DIMALTF
 40
0.03937007874016
  9
$DIMLFAC
 40
1.0
  9
$DIMTOFL
 70
     1
  9
$DIMTVP
 40
0.0
  9
$DIMTIX
 70
     0
  9
$DIMSOXD
 70
     0
  9
$DIMSAH
 70
     0
  9
$DIMBLK1
  1

  9
$DIMBLK2
  1

  9
$DIMSTYLE
  2
ISO-25
  9
$DIMCLRD
 70
     0
  9
$DIMCLRE
 70
     0
  9
$DIMCLRT
 70
     0
  9
$DIMTFAC
 40
1.0
  9
$DIMGAP
 40
0.625
  9
$DIMJUST
 70
     0
  9
$DIMSD1
 70
     0
  9
$DIMSD2
 70
     0
  9
$DIMTOLJ
 70
     0
  9
$DIMTZIN
 70
     8
  9
$DIMALTZ
 70
     0
  9
$DIMALTTZ
 70
     0
  9
$DIMUPT
 70
     0
  9
$DIMDEC
 70
     2
  9
$DIMTDEC
 70
     2
  9
$DIMALTU
 70
     2
  9
$DIMALTTD
 70
     3
  9
$DIMTXSTY
  7
Standard
  9
$DIMAUNIT
 70
     0
  9
$DIMADEC
 70
     0
  9
$DIMALTRND
 40
0.0
  9
$DIMAZIN
 70
     0
  9
$DIMDSEP
 70
    44
  9
$DIMATFIT
 70
     3
  9
$DIMFRAC
 70
     0
  9
$DIMLDRBLK
  1

  9
$DIMLUNIT
 70
     2
  9
$DIMLWD
 70
    -2
  9
$DIMLWE
 70
    -2
  9
$DIMTMOVE
 70
     0
  9
$DIMFXL
 40
1.0
  9
$DIMFXLON
 70
     0
  9
$DIMJOGANG
 40
0.7853981633974483
  9
$DIMTFILL
 70
     0
  9
$DIMTFILLCLR
 70
     0
  9
$DIMARCSYM
 70
     0
  9
$DIMLTYPE
  6

  9
$DIMLTEX1
  6

  9
$DIMLTEX2
  6

  9
$DIMTXTDIRECTION
 70
     0
  9
$LUNITS
 70
     2
  9
$LUPREC
 70
     4
  9
$SKETCHINC
 40
1.0
  9
$FILLETRAD
 40
10.0
  9
$AUNITS
 70
     0
  9
$AUPREC
 70
     0
  9
$MENU
  1
.
  9
$ELEVATION
 40
0.0
  9
$PELEVATION
 40
0.0
  9
$THICKNESS
 40
0.0
  9
$LIMCHECK
 70
     0
  9
$CHAMFERA
 40
10.0
  9
$CHAMFERB
 40
10.0
  9
$CHAMFERC
 40
20.0
  9
$CHAMFERD
 40
0.0
  9
$SKPOLY
 70
     0
  9
$TDCREATE
 40
2459396.754476771
  9
$TDUCREATE
 40
2459396.379476771
  9
$TDUPDATE
 40
2459396.754476782
  9
$TDUUPDATE
 40
2459396.379476782
  9
$TDINDWG
 40
0.0000000116
  9
$TDUSRTIMER
 40
0.0000000116
  9
$USRTIMER
 70
     1
  9
$ANGBASE
 50
0.0
  9
$ANGDIR
 70
     0
  9
$PDMODE
 70
     0
  9
$PDSIZE
 40
0.0
  9
$PLINEWID
 40
0.0
  9
$SPLFRAME
 70
     0
  9
$SPLINETYPE
 70
     6
  9
$SPLINESEGS
 70
     8
  9
$HANDSEED
  5
3DA
  9
$SURFTAB1
 70
     6
  9
$SURFTAB2
 70
     6
  9
$SURFTYPE
 70
     6
  9
$SURFU
 70
     6
  9
$SURFV
 70
     6
  9
$UCSBASE
  2

  9
$UCSNAME
  2

  9
$UCSORG
 10
0.0
 20
0.0
 30
0.0
  9
$UCSXDIR
 10
1.0
 20
0.0
 30
0.0
  9
$UCSYDIR
 10
0.0
 20
1.0
 30
0.0
  9
$UCSORTHOREF
  2

  9
$UCSORTHOVIEW
 70
     0
  9
$UCSORGTOP
 10
0.0
 20
0.0
 30
0.0
  9
$UCSORGBOTTOM
 10
0.0
 20
0.0
 30
0.0
  9
$UCSORGLEFT
 10
0.0
 20
0.0
 30
0.0
  9
$UCSORGRIGHT
 10
0.0
 20
0.0
 30
0.0
  9
$UCSORGFRONT
 10
0.0
 20
0.0
 30
0.0
  9
$UCSORGBACK
 10
0.0
 20
0.0
 30
0.0
  9
$PUCSBASE
  2

  9
$PUCSNAME
  2

  9
$PUCSORG
 10
0.0
 20
0.0
 30
0.0
  9
$PUCSXDIR
 10
1.0
 20
0.0
 30
0.0
  9
$PUCSYDIR
 10
0.0
 20
1.0
 30
0.0
  9
$PUCSORTHOREF
  2

  9
$PUCSORTHOVIEW
 70
     0
  9
$PUCSORGTOP
 10
0.0
 20
0.0
 30
0.0
  9
$PUCSORGBOTTOM
 10
0.0
 20
0.0
 30
0.0
  9
$PUCSORGLEFT
 10
0.0
 20
0.0
 30
0.0
  9
$PUCSORGRIGHT
 10
0.0
 20
0.0
 30
0.0
  9
$PUCSORGFRONT
 10
0.0
 20
0.0
 30
0.0
  9
$PUCSORGBACK
 10
0.0
 20
0.0
 30
0.0
  9
$USERI1
 70
     0
  9
$USERI2
 70
     0
  9
$USERI3
 70
     0
  9
$USERI4
 70
     0
  9
$USERI5
 70
     0
  9
$USERR1
 40
0.0
  9
$USERR2
 40
0.0
  9
$USERR3
 40
0.0
  9
$USERR4
 40
0.0
  9
$USERR5
 40
0.0
  9
$WORLDVIEW
 70
     1
  9
$SHADEDGE
 70
     3
  9
$SHADEDIF
 70
    70
  9
$TILEMODE
 70
     1
  9
$MAXACTVP
 70
    64
  9
$PINSBASE
 10
0.0
 20
0.0
 30
0.0
  9
$PLIMCHECK
 70
     0
  9
$PEXTMIN
 10
1.000000000000000E+20
 20
1.000000000000000E+20
 30
1.000000000000000E+20
  9
$PEXTMAX
 10
-1.000000000000000E+20
 20
-1.000000000000000E+20
 30
-1.000000000000000E+20
  9
$PLIMMIN
 10
0.0
 20
0.0
  9
$PLIMMAX
 10
420.0
 20
297.0
  9
$UNITMODE
 70
     0
  9
$VISRETAIN
 70
     1
  9
$PLINEGEN
 70
     0
  9
$PSLTSCALE
 70
     1
  9
$TREEDEPTH
 70
  3020
  9
$CMLSTYLE
  2
Standard
  9
$CMLJUST
 70
     0
  9
$CMLSCALE
 40
20.0
  9
$PROXYGRAPHICS
 70
     1
  9
$MEASUREMENT
 70
     1
  9
$CELWEIGHT
370
    -1
  9
$ENDCAPS
280
     0
  9
$JOINSTYLE
280
     0
  9
$LWDISPLAY
290
     0
  9
$INSUNITS
 70
     4
  9
$HYPERLINKBASE
  1

  9
$STYLESHEET
  1

  9
$XEDIT
290
     1
  9
$CEPSNTYPE
380
     0
  9
$PSTYLEMODE
290
     1
  9
$FINGERPRINTGUID
  2
{B470EFF4-0481-4A64-A5FB-9EE8338AB954}
  9
$VERSIONGUID
  2
{FAEB1C32-E019-11D5-929B-00C0DF256EC4}
  9
$EXTNAMES
290
     1
  9
$PSVPSCALE
 40
0.0
  9
$OLESTARTUP
290
     0
  9
$SORTENTS
280
   127
  9
$INDEXCTL
280
     0
  9
$HIDETEXT
280
     1
  9
$XCLIPFRAME
280
     2
  9
$HALOGAP
280
     0
  9
$OBSCOLOR
 70
   257
  9
$OBSLTYPE
280
     0
  9
$INTERSECTIONDISPLAY
280
     0
  9
$INTERSECTIONCOLOR
 70
   257
  9
$DIMASSOC
280
     2
  9
$PROJECTNAME
  1

  9
$CAMERADISPLAY
290
     0
  9
$LENSLENGTH
 40
50.0
  9
$CAMERAHEIGHT
 40
0.0
  9
$STEPSPERSEC
 40
2.0
  9
$STEPSIZE
 40
6.0
  9
$3DDWFPREC
 40
2.0
  9
$PSOLWIDTH
 40
5.0
  9
$PSOLHEIGHT
 40
80.0
  9
$LOFTANG1
 40
1.570796326794897
  9
$LOFTANG2
 40
1.570796326794897
  9
$LOFTMAG1
 40
0.0
  9
$LOFTMAG2
 40
0.0
  9
$LOFTPARAM
 70
     7
  9
$LOFTNORMALS
280
     1
  9
$LATITUDE
 40
37.795
  9
$LONGITUDE
 40
-122.394
  9
$NORTHDIRECTION
 40
0.0
  9
$TIMEZONE
 70
 -8000
  9
$LIGHTGLYPHDISPLAY
280
     1
  9
$TILEMODELIGHTSYNCH
280
     1
  9
$SOLIDHIST
280
     1
  9
$SHOWHIST
280
     1
  9
$DWFFRAME
280
     2
  9
$DGNFRAME
280
     2
  9
$REALWORLDSCALE
290
     1
  9
$INTERFERECOLOR
 62
   256
  9
$CSHADOW
280
     0
  9
$SHADOWPLANELOCATION
 40
0.0
  0
ENDSEC
  0
SECTION
  2
CLASSES
  0
CLASS
  1
ACDBDICTIONARYWDFLT
  2
AcDbDictionaryWithDefault
  3
ObjectDBX Classes
 90
        0
 91
        4
280
     0
281
     0
  0
CLASS
  1
VISUALSTYLE
  2
AcDbVisualStyle
  3
ObjectDBX Classes
 90
     4095
 91
        4
280
     0
281
     0
  0
CLASS
  1
MATERIAL
  2
AcDbMaterial
  3
ObjectDBX Classes
 90
     1153
 91
        4
280
     0
281
     0
  0
ENDSEC
  0
SECTION
  2
TABLES
  0
TABLE
  2
VPORT
  5
8
330
0
100
AcDbSymbolTable
 70
     1
  0
VPORT
  5
29
330
8
100
AcDbSymbolTableRecord
100
AcDbViewportTableRecord
  2
*Active
 70
     0
 10
0.0
 20
0.0
 11
1.0
 21
1.0
 12
0.0
 22
0.0
 13
0.0
 23
0.0
 14
10.0
 24
10.0
 15
10.0
 25
10.0
 16
0.0
 26
0.0
 36
1.0
 17
0.0
 27
0.0
 37
0.0
 40
9801.0
 41
1.414141414141414
 42
50.0
 43
0.0
 44
0.0
 50
0.0
 51
0.0
 71
     0
 72
 10000
 73
     1
 74
     3
 75
     0
 76
     0
 77
     0
 78
     0
281
     0
 65
     1
110
0.0
120
0.0
130
0.0
111
1.0
121
0.0
131
0.0
112
0.0
122
1.0
132
0.0
 79
     0
146
0.0
 60
     3
 61
     5
292
     1
282
     1
141
0.0
142
0.0
 63
   250
  0
ENDTAB
  0
TABLE
  2
LTYPE
  5
5
330
0
100
AcDbSymbolTable
 70
     4
  0
LTYPE
  5
14
330
5
100
AcDbSymbolTableRecord
100
AcDbLinetypeTableRecord
  2
ByBlock
 70
     0
  3

 72
    65
 73
     0
 40
0.0
  0
LTYPE
  5
15
330
5
100
AcDbSymbolTableRecord
100
AcDbLinetypeTableRecord
  2
ByLayer
 70
     0
  3

 72
    65
 73
     0
 40
0.0
  0
LTYPE
  5
16
330
5
100
AcDbSymbolTableRecord
100
AcDbLinetypeTableRecord
  2
Continuous
 70
     0
  3
Solid line
 72
    65
 73
     0
 40
0.0
  0
LTYPE
  5
3F
330
5
100
AcDbSymbolTableRecord
100
AcDbLinetypeTableRecord
  2
JWW_HOJO
 70
     0
  3
  -   -   -   -   -   -   -   - 
 72
    65
 73
     2
 40
1.693333333333333
 49
-1.27
 74
     0
 49
0.4233333333333333
 74
     0
  0
LTYPE
  5
40
330
5
100
AcDbSymbolTableRecord
100
AcDbLinetypeTableRecord
  2
JWW_DASHED1
 70
     0
  3
-  --  --  --  --  --  --  --  -
 72
    65
 73
     2
 40
1.693333333333333
 49
0.8466666666666667
 74
     0
 49
-0.8466666666666667
 74
     0
  0
LTYPE
  5
41
330
5
100
AcDbSymbolTableRecord
100
AcDbLinetypeTableRecord
  2
JWW_CENTER1
 70
     0
  3
-----  --  ----------  --  -----
 72
    65
 73
     4
 40
6.773333333333333
 49
4.233333333333333
 74
     0
 49
-0.8466666666666667
 74
     0
 49
0.8466666666666667
 74
     0
 49
-0.8466666666666667
 74
     0
  0
ENDTAB
  0
TABLE
  2
LAYER
  5
2
330
0
100
AcDbSymbolTable
 70
    11
  0
LAYER
  5
10
330
2
100
AcDbSymbolTableRecord
100
AcDbLayerTableRecord
  2
0
 70
     0
 62
     7
  6
Continuous
370
    -3
390
F
347
3E
  0
LAYER
  5
42
330
2
100
AcDbSymbolTableRecord
100
AcDbLayerTableRecord
  2
F-0_補助線
 70
     0
 62
     7
  6
Continuous
370
    -3
390
F
347
3E
  0
LAYER
  5
43
330
2
100
AcDbSymbolTableRecord
100
AcDbLayerTableRecord
  2
0-0_補助線
 70
     0
 62
     7
  6
Continuous
370
    -3
390
F
347
3E
  0
LAYER
  5
44
330
2
100
AcDbSymbolTableRecord
100
AcDbLayerTableRecord
  2
F-1_枠
 70
     0
 62
     7
  6
Continuous
370
    -3
390
F
347
3E
  0
LAYER
  5
45
330
2
100
AcDbSymbolTableRecord
100
AcDbLayerTableRecord
  2
F-A_文字
 70
     0
 62
     7
  6
Continuous
370
    -3
390
F
347
3E
  0
LAYER
  5
46
330
2
100
AcDbSymbolTableRecord
100
AcDbLayerTableRecord
  2
0-B_寸法
 70
     0
 62
     7
  6
Continuous
370
    -3
390
F
347
3E
  0
LAYER
  5
47
330
2
100
AcDbSymbolTableRecord
100
AcDbLayerTableRecord
  2
0-4_枠
 70
     0
 62
     7
  6
Continuous
370
    -3
390
F
347
3E
  0
LAYER
  5
48
330
2
100
AcDbSymbolTableRecord
100
AcDbLayerTableRecord
  2
0-A_文字
 70
     0
 62
     7
  6
Continuous
370
    -3
390
F
347
3E
  0
LAYER
  5
49
330
2
100
AcDbSymbolTableRecord
100
AcDbLayerTableRecord
  2
引手
 70
     0
 62
     7
  6
Continuous
370
    -3
390
F
347
3E
  0
LAYER
  5
4A
330
2
100
AcDbSymbolTableRecord
100
AcDbLayerTableRecord
  2
0-2_扉
 70
     0
 62
     7
  6
Continuous
370
    -3
390
F
347
3E
  0
LAYER
  5
4B
330
2
100
AcDbSymbolTableRecord
100
AcDbLayerTableRecord
  2
0-C_ハッチ
 70
     0
 62
     7
  6
Continuous
370
    -3
390
F
347
3E
  0
ENDTAB
  0
TABLE
  2
STYLE
  5
3
330
0
100
AcDbSymbolTable
 70
     1
  0
STYLE
  5
11
330
3
100
AcDbSymbolTableRecord
100
AcDbTextStyleTableRecord
  2
Standard
 70
     0
 40
0.0
 41
1.0
 50
0.0
 71
     0
 42
2.5
  3
txt
  4

  0
ENDTAB
  0
TABLE
  2
VIEW
  5
6
330
0
100
AcDbSymbolTable
 70
     0
  0
ENDTAB
  0
TABLE
  2
UCS
  5
7
330
0
100
AcDbSymbolTable
 70
     0
  0
ENDTAB
  0
TABLE
  2
APPID
  5
9
330
0
100
AcDbSymbolTable
 70
     1
  0
APPID
  5
12
330
9
100
AcDbSymbolTableRecord
100
AcDbRegAppTableRecord
  2
ACAD
 70
     0
  0
ENDTAB
  0
TABLE
  2
DIMSTYLE
  5
A
330
0
100
AcDbSymbolTable
 70
     1
100
AcDbDimStyleTable
  0
DIMSTYLE
105
27
330
A
100
AcDbSymbolTableRecord
100
AcDbDimStyleTableRecord
  2
ISO-25
 70
     0
 41
2.5
 42
0.625
 43
3.75
 44
1.25
 73
     0
 74
     0
 77
     1
 78
     8
140
2.5
141
2.5
143
0.03937007874016
147
0.625
171
     3
172
     1
178
     0
271
     2
272
     2
274
     3
278
    44
283
     0
284
     8
340
11
  0
ENDTAB
  0
TABLE
  2
BLOCK_RECORD
  5
1
330
0
100
AcDbSymbolTable
 70
     1
  0
BLOCK_RECORD
  5
1F
330
1
100
AcDbSymbolTableRecord
100
AcDbBlockTableRecord
  2
*Model_Space
340
22
 70
     0
280
     1
281
     0
  0
BLOCK_RECORD
  5
1B
330
1
100
AcDbSymbolTableRecord
100
AcDbBlockTableRecord
  2
*Paper_Space
340
1E
 70
     0
280
     1
281
     0
  0
BLOCK_RECORD
  5
23
330
1
100
AcDbSymbolTableRecord
100
AcDbBlockTableRecord
  2
*Paper_Space0
340
26
 70
     0
280
     1
281
     0
  0
ENDTAB
  0
ENDSEC
  0
SECTION
  2
BLOCKS
  0
BLOCK
  5
20
330
1F
100
AcDbEntity
  8
0
100
AcDbBlockBegin
  2
*Model_Space
 70
     0
 10
0.0
 20
0.0
 30
0.0
  3
*Model_Space
  1

  0
ENDBLK
  5
21
330
1F
100
AcDbEntity
  8
0
100
AcDbBlockEnd
  0
BLOCK
  5
1C
330
1B
100
AcDbEntity
 67
     1
  8
0
100
AcDbBlockBegin
  2
*Paper_Space
 70
     0
 10
0.0
 20
0.0
 30
0.0
  3
*Paper_Space
  1

  0
ENDBLK
  5
1D
330
1B
100
AcDbEntity
 67
     1
  8
0
100
AcDbBlockEnd
  0
BLOCK
  5
24
330
23
100
AcDbEntity
  8
0
100
AcDbBlockBegin
  2
*Paper_Space0
 70
     0
 10
0.0
 20
0.0
 30
0.0
  3
*Paper_Space0
  1

  0
ENDBLK
  5
25
330
23
100
AcDbEntity
  8
0
100
AcDbBlockEnd
  0
ENDSEC
  0
SECTION
  2
ENTITIES
  0
LINE
  5
4C
330
1F
100
AcDbEntity
  8
F-0_補助線
  6
JWW_HOJO
 62
   200
370
    20
100
AcDbLine
 10
-5999.99998453501
 20
84.49993236644843
 30
0.0
 11
5689.998977248734
 21
84.49993236644843
 31
0.0
  0
LINE
  5
4D
330
1F
100
AcDbEntity
  8
0-0_補助線
  6
JWW_HOJO
 62
   120
370
     5
100
AcDbLine
 10
5699.998762800888
 20
-3430.000017526988
 30
0.0
 11
-5999.99998453501
 21
-3430.000017526988
 31
0.0
  0
LINE
  5
4E
330
1F
100
AcDbEntity
  8
0-0_補助線
  6
JWW_HOJO
 62
   120
370
     5
100
AcDbLine
 10
5699.998762800888
 20
-3310.000017526988
 30
0.0
 11
-5999.99998453501
 21
-3310.000017526988
 31
0.0
  0
LINE
  5
4F
330
1F
100
AcDbEntity
  8
0-0_補助線
  6
JWW_HOJO
 62
   120
370
     5
100
AcDbLine
 10
-5999.99998453501
 20
550.5001831054688
 30
0.0
 11
5699.998762800888
 21
550.5001831054688
 31
0.0
  0
LINE
  5
50
330
1F
100
AcDbEntity
  8
F-1_枠
  6
Continuous
 62
   200
370
    20
100
AcDbLine
 10
-5999.99998453501
 20
-15.50015011349217
 30
0.0
 11
5699.998762800888
 21
-15.50015011349217
 31
0.0
  0
LINE
  5
51
330
1F
100
AcDbEntity
  8
0-0_補助線
  6
JWW_HOJO
 62
   120
370
     5
100
AcDbLine
 10
5699.998762800888
 20
-3550.000017526988
 30
0.0
 11
-5999.99998453501
 21
-3550.000017526988
 31
0.0
  0
LINE
  5
52
330
1F
100
AcDbEntity
  8
F-1_枠
  6
Continuous
 62
   200
370
    20
100
AcDbLine
 10
-5999.99998453501
 20
184.5000148463899
 30
0.0
 11
5699.998762800888
 21
184.5000148463899
 31
0.0
  0
LINE
  5
53
330
1F
100
AcDbEntity
  8
F-0_補助線
  6
JWW_HOJO
 62
     7
370
     9
100
AcDbLine
 10
-5247.547376752838
 20
-3795.000003092999
 30
0.0
 11
-5247.547376752838
 21
-4205.000164959882
 31
0.0
  0
LINE
  5
54
330
1F
100
AcDbEntity
  8
F-0_補助線
  6
JWW_HOJO
 62
     7
370
     9
100
AcDbLine
 10
849.9995876002961
 20
-3795.000003092998
 30
0.0
 11
849.9995876002961
 21
-4195.000008247994
 31
0.0
  0
LINE
  5
55
330
1F
100
AcDbEntity
  8
F-0_補助線
  6
JWW_HOJO
 62
     7
370
     9
100
AcDbLine
 10
349.9999175200594
 20
-3795.000003092998
 30
0.0
 11
349.9999175200594
 21
-4195.000008247994
 31
0.0
  0
LINE
  5
56
330
1F
100
AcDbEntity
  8
F-1_枠
  6
Continuous
 62
   200
370
    20
100
AcDbLine
 10
5699.998762800888
 20
-4205.000002577498
 30
0.0
 11
-5999.999752560178
 21
-4205.000002577498
 31
0.0
  0
LINE
  5
57
330
1F
100
AcDbEntity
  8
F-1_枠
  6
Continuous
 62
   200
370
    20
100
AcDbLine
 10
5699.998762800888
 20
-4199.999993814004
 30
0.0
 11
-5999.999752560178
 21
-4199.999993814004
 31
0.0
  0
LINE
  5
58
330
1F
100
AcDbEntity
  8
F-1_枠
  6
Continuous
 62
   200
370
    20
100
AcDbLine
 10
5699.998762800888
 20
-4195.000008247994
 30
0.0
 11
-5999.999752560178
 21
-4195.000008247994
 31
0.0
  0
LINE
  5
59
330
1F
100
AcDbEntity
  8
F-1_枠
  6
Continuous
 62
   200
370
    20
100
AcDbLine
 10
4189.999224688556
 20
-3795.000003092998
 30
0.0
 11
4189.999224688556
 21
-4195.000008247994
 31
0.0
  0
LINE
  5
5A
330
1F
100
AcDbEntity
  8
F-1_枠
  6
Continuous
 62
   200
370
    20
100
AcDbLine
 10
2689.998729808911
 20
-3795.000003092998
 30
0.0
 11
2689.998729808911
 21
-4195.000008247994
 31
0.0
  0
LINE
  5
5B
330
1F
100
AcDbEntity
  8
F-1_枠
  6
Continuous
 62
   200
370
    20
100
AcDbLine
 10
-150.0001237199109
 20
-3795.000003092998
 30
0.0
 11
-150.0001237199109
 21
-4195.000008247994
 31
0.0
  0
LINE
  5
5C
330
1F
100
AcDbEntity
  8
F-1_枠
  6
Continuous
 62
   200
370
    20
100
AcDbLine
 10
-150.0001237199109
 20
-3994.999936078046
 30
0.0
 11
5689.998977248734
 21
-3995.005364289155
 31
0.0
  0
LINE
  5
5D
330
1F
100
AcDbEntity
  8
F-0_補助線
  6
JWW_HOJO
 62
     7
370
     9
100
AcDbLine
 10
-5989.999990205507
 20
-3994.99993607839
 30
0.0
 11
-150.0001237199109
 21
-3994.99993607839
 31
0.0
  0
LINE
  5
5E
330
1F
100
AcDbEntity
  8
F-0_補助線
  6
JWW_HOJO
 62
     7
370
     9
100
AcDbLine
 10
-5989.999990205507
 20
-3904.99993607839
 30
0.0
 11
-150.0001237199109
 21
-3904.99993607839
 31
0.0
  0
LINE
  5
5F
330
1F
100
AcDbEntity
  8
F-0_補助線
  6
JWW_HOJO
 62
     7
370
     9
100
AcDbLine
 10
-5989.999990205507
 20
-4084.99993607839
 30
0.0
 11
-150.0001237199109
 21
-4084.99993607839
 31
0.0
  0
LINE
  5
60
330
1F
100
AcDbEntity
  8
F-0_補助線
  6
JWW_HOJO
 62
     7
370
     9
100
AcDbLine
 10
-150.0002584955388
 20
-4139.999739777983
 30
0.0
 11
5689.998842473105
 21
-4140.005167989091
 31
0.0
  0
LINE
  5
61
330
1F
100
AcDbEntity
  8
F-0_補助線
  6
JWW_HOJO
 62
     7
370
     9
100
AcDbLine
 10
-150.0001748415872
 20
-4049.999739778022
 30
0.0
 11
5689.998926127057
 21
-4050.005167989131
 31
0.0
  0
LINE
  5
62
330
1F
100
AcDbEntity
  8
F-0_補助線
  6
JWW_HOJO
 62
     7
370
     9
100
AcDbLine
 10
-150.0000725978671
 20
-3939.99973721807
 30
0.0
 11
5689.999028370777
 21
-3940.005165429179
 31
0.0
  0
LINE
  5
63
330
1F
100
AcDbEntity
  8
F-0_補助線
  6
JWW_HOJO
 62
     7
370
     9
100
AcDbLine
 10
-149.9999889439155
 20
-3849.999737218109
 30
0.0
 11
5689.999112024728
 21
-3850.005165429218
 31
0.0
  0
LINE
  5
64
330
1F
100
AcDbEntity
  8
F-0_補助線
  6
JWW_HOJO
 62
     7
370
     9
100
AcDbLine
 10
2779.998729808911
 20
-3795.000003092998
 30
0.0
 11
2779.998729808911
 21
-4195.000008247994
 31
0.0
  0
LINE
  5
65
330
1F
100
AcDbEntity
  8
F-0_補助線
  6
JWW_HOJO
 62
     7
370
     9
100
AcDbLine
 10
-60.0001237199109
 20
-3795.000003092998
 30
0.0
 11
-60.0001237199109
 21
-4195.000008247994
 31
0.0
  0
LINE
  5
66
330
1F
100
AcDbEntity
  8
F-0_補助線
  6
JWW_HOJO
 62
     7
370
     9
100
AcDbLine
 10
4279.999224688556
 20
-3795.000003092998
 30
0.0
 11
4279.999224688556
 21
-4195.000008247994
 31
0.0
  0
LINE
  5
67
330
1F
100
AcDbEntity
  8
F-0_補助線
  6
JWW_HOJO
 62
     7
370
     9
100
AcDbLine
 10
-210.0001237199109
 20
-3795.000003092998
 30
0.0
 11
-210.0001237199109
 21
-4195.000008247994
 31
0.0
  0
LINE
  5
68
330
1F
100
AcDbEntity
  8
F-1_枠
  6
Continuous
 62
   200
370
    20
100
AcDbLine
 10
5699.998762800888
 20
-3795.000003092998
 30
0.0
 11
-5999.99998453501
 21
-3795.000003092998
 31
0.0
  0
LINE
  5
69
330
1F
100
AcDbEntity
  8
F-1_枠
  6
Continuous
 62
   200
370
    20
100
AcDbLine
 10
5699.998762800888
 20
-3790.000017526987
 30
0.0
 11
-5999.99998453501
 21
-3790.000017526987
 31
0.0
  0
LINE
  5
6A
330
1F
100
AcDbEntity
  8
F-1_枠
  6
Continuous
 62
   200
370
    20
100
AcDbLine
 10
-5999.999752560178
 20
4174.999769056166
 30
0.0
 11
5699.998762800888
 21
4174.999769056166
 31
0.0
  0
LINE
  5
6B
330
1F
100
AcDbEntity
  8
F-0_補助線
  6
JWW_HOJO
 62
   120
370
     5
100
AcDbLine
 10
-6300.0
 20
-4455.0
 30
0.0
 11
-6300.0
 21
4424.999604096284
 31
0.0
  0
LINE
  5
6C
330
1F
100
AcDbEntity
  8
F-0_補助線
  6
JWW_HOJO
 62
   120
370
     5
100
AcDbLine
 10
5999.999010240709
 20
4424.999604096284
 30
0.0
 11
5999.999010240709
 21
-4455.0
 31
0.0
  0
LINE
  5
6D
330
1F
100
AcDbEntity
  8
F-0_補助線
  6
JWW_HOJO
 62
   120
370
     5
100
AcDbLine
 10
5999.999010240709
 20
-4455.0
 30
0.0
 11
-6300.0
 21
-4455.0
 31
0.0
  0
LINE
  5
6E
330
1F
100
AcDbEntity
  8
F-1_枠
  6
Continuous
 62
   200
370
    20
100
AcDbLine
 10
-5999.999752560178
 20
4164.999983504013
 30
0.0
 11
5699.998762800888
 21
4164.999983504013
 31
0.0
  0
LINE
  5
6F
330
1F
100
AcDbEntity
  8
F-1_枠
  6
Continuous
 62
   200
370
    20
100
AcDbLine
 10
-5999.999752560178
 20
4169.999505120355
 30
0.0
 11
5699.998762800888
 21
4169.999505120355
 31
0.0
  0
LINE
  5
70
330
1F
100
AcDbEntity
  8
F-1_枠
  6
Continuous
 62
   200
370
    20
100
AcDbLine
 10
5689.998977248734
 20
4174.999769056166
 30
0.0
 11
5689.998977248734
 21
-4205.000164959882
 31
0.0
  0
LINE
  5
71
330
1F
100
AcDbEntity
  8
F-1_枠
  6
Continuous
 62
   200
370
    20
100
AcDbLine
 10
5694.998498865077
 20
4174.999769056166
 30
0.0
 11
5694.998498865077
 21
-4205.000164959882
 31
0.0
  0
LINE
  5
72
330
1F
100
AcDbEntity
  8
F-1_枠
  6
Continuous
 62
   200
370
    20
100
AcDbLine
 10
5699.998762800888
 20
4174.999769056166
 30
0.0
 11
5699.998762800888
 21
-4205.000164959882
 31
0.0
  0
LINE
  5
73
330
1F
100
AcDbEntity
  8
F-1_枠
  6
Continuous
 62
   200
370
    20
100
AcDbLine
 10
-5989.999990205507
 20
4174.999769056166
 30
0.0
 11
-5989.999990205507
 21
-4205.000164959882
 31
0.0
  0
LINE
  5
74
330
1F
100
AcDbEntity
  8
F-1_枠
  6
Continuous
 62
   200
370
    20
100
AcDbLine
 10
-5994.999975771518
 20
4174.999769056166
 30
0.0
 11
-5994.999975771518
 21
-4205.000164959882
 31
0.0
  0
LINE
  5
75
330
1F
100
AcDbEntity
  8
F-1_枠
  6
Continuous
 62
   200
370
    20
100
AcDbLine
 10
-5999.99998453501
 20
4174.999769056166
 30
0.0
 11
-5999.99998453501
 21
-4205.000164959882
 31
0.0
  0
LINE
  5
76
330
1F
100
AcDbEntity
  8
F-1_枠
  6
Continuous
 62
   200
370
    20
100
AcDbLine
 10
-5490.000018557986
 20
4174.999769056166
 30
0.0
 11
-5490.000018557986
 21
-3790.000179909372
 31
0.0
  0
LINE
  5
77
330
1F
100
AcDbEntity
  8
F-0_補助線
  6
JWW_HOJO
 62
   120
370
     5
100
AcDbLine
 10
-6300.0
 20
4424.999604096284
 30
0.0
 11
5999.999010240709
 21
4424.999604096284
 31
0.0
  0
LINE
  5
78
330
1F
100
AcDbEntity
  8
0-0_補助線
  6
JWW_HOJO
 62
   120
370
     5
100
AcDbLine
 10
-5490.000018557986
 20
1368.000148463894
 30
0.0
 11
5689.998977248734
 21
1368.000148463894
 31
0.0
  0
LINE
  5
79
330
1F
100
AcDbEntity
  8
0-0_補助線
  6
JWW_HOJO
 62
   120
370
     5
100
AcDbLine
 10
-5490.000018557986
 20
-2751.250083820241
 30
0.0
 11
5699.998762800888
 21
-2751.250083820241
 31
0.0
  0
LINE
  5
7A
330
1F
100
AcDbEntity
  8
F-1_枠
  6
Continuous
 62
   200
370
    20
100
AcDbLine
 10
-2916.000018557986
 20
-3790.000179909372
 30
0.0
 11
-2916.000018557986
 21
4174.999769056166
 31
0.0
  0
LINE
  5
7B
330
1F
100
AcDbEntity
  8
F-1_枠
  6
Continuous
 62
   200
370
    20
100
AcDbLine
 10
-522.0000185579818
 20
-3790.000179909372
 30
0.0
 11
-522.0000185579818
 21
4174.999769056166
 31
0.0
  0
LINE
  5
7C
330
1F
100
AcDbEntity
  8
F-1_枠
  6
Continuous
 62
   200
370
    20
100
AcDbLine
 10
1677.99998144202
 20
-3790.000179909372
 30
0.0
 11
1677.99998144202
 21
4174.999769056166
 31
0.0
  0
LINE
  5
7D
330
1F
100
AcDbEntity
  8
F-1_枠
  6
Continuous
 62
   200
370
    20
100
AcDbLine
 10
3751.999981442023
 20
-3790.000179909372
 30
0.0
 11
3751.999981442023
 21
4174.999769056166
 31
0.0
  0
LINE
  5
7E
330
1F
100
AcDbEntity
  8
0-0_補助線
  6
JWW_HOJO
 62
     7
370
     9
100
AcDbLine
 10
-4890.000018557986
 20
3964.999818544131
 30
0.0
 11
-4890.000018557986
 21
-3790.000179909372
 31
0.0
  0
LINE
  5
7F
330
1F
100
AcDbEntity
  8
0-0_補助線
  6
JWW_HOJO
 62
   120
370
     5
100
AcDbLine
 10
-4940.000018557987
 20
3964.999818544131
 30
0.0
 11
-4940.000018557987
 21
-3790.000179909372
 31
0.0
  0
LINE
  5
80
330
1F
100
AcDbEntity
  8
0-0_補助線
  6
JWW_HOJO
 62
     7
370
     9
100
AcDbLine
 10
-2316.000018557984
 20
3964.999818544131
 30
0.0
 11
-2316.000018557984
 21
-3790.000179909372
 31
0.0
  0
LINE
  5
81
330
1F
100
AcDbEntity
  8
0-0_補助線
  6
JWW_HOJO
 62
   120
370
     5
100
AcDbLine
 10
-2366.000018557984
 20
3964.999818544131
 30
0.0
 11
-2366.000018557984
 21
-3790.000179909372
 31
0.0
  0
LINE
  5
82
330
1F
100
AcDbEntity
  8
0-0_補助線
  6
JWW_HOJO
 62
     7
370
     9
100
AcDbLine
 10
77.99998144201822
 20
3964.999818544131
 30
0.0
 11
77.99998144201822
 21
-3790.000179909372
 31
0.0
  0
LINE
  5
83
330
1F
100
AcDbEntity
  8
0-0_補助線
  6
JWW_HOJO
 62
   120
370
     5
100
AcDbLine
 10
27.99998144201936
 20
3964.999818544131
 30
0.0
 11
27.99998144201936
 21
-3790.000179909372
 31
0.0
  0
LINE
  5
84
330
1F
100
AcDbEntity
  8
0-0_補助線
  6
JWW_HOJO
 62
     7
370
     9
100
AcDbLine
 10
2277.999981442021
 20
3964.999818544131
 30
0.0
 11
2277.999981442021
 21
-3790.000179909372
 31
0.0
  0
LINE
  5
85
330
1F
100
AcDbEntity
  8
0-0_補助線
  6
JWW_HOJO
 62
   120
370
     5
100
AcDbLine
 10
2227.999981442021
 20
3964.999818544131
 30
0.0
 11
2227.999981442021
 21
-3790.000179909372
 31
0.0
  0
LINE
  5
86
330
1F
100
AcDbEntity
  8
0-0_補助線
  6
JWW_HOJO
 62
     7
370
     9
100
AcDbLine
 10
4351.999981442024
 20
3964.999818544131
 30
0.0
 11
4351.999981442024
 21
-3790.000179909372
 31
0.0
  0
LINE
  5
87
330
1F
100
AcDbEntity
  8
0-0_補助線
  6
JWW_HOJO
 62
   120
370
     5
100
AcDbLine
 10
4301.999981442023
 20
3964.999818544131
 30
0.0
 11
4301.999981442023
 21
-3790.000179909372
 31
0.0
  0
LINE
  5
88
330
1F
100
AcDbEntity
  8
0-0_補助線
  6
JWW_HOJO
 62
     7
370
     9
100
AcDbLine
 10
-5490.000018557986
 20
1168.000148463894
 30
0.0
 11
5689.998977248734
 21
1168.000148463894
 31
0.0
  0
LINE
  5
89
330
1F
100
AcDbEntity
  8
0-0_補助線
  6
JWW_HOJO
 62
     7
370
     9
100
AcDbLine
 10
-5490.000018557986
 20
-2951.250083820241
 30
0.0
 11
5699.998762800888
 21
-2951.250083820241
 31
0.0
  0
LINE
  5
8A
330
1F
100
AcDbEntity
  8
F-A_文字
  6
Continuous
 62
     7
370
     9
100
AcDbLine
 10
1677.99998144202
 20
-3790.000017526987
 30
0.0
 11
3751.999981442023
 21
184.5000148463899
 31
0.0
  0
LINE
  5
8B
330
1F
100
AcDbEntity
  8
F-A_文字
  6
Continuous
 62
     7
370
     9
100
AcDbLine
 10
3751.999981442023
 20
-3790.000017526987
 30
0.0
 11
5689.998977248734
 21
184.5000148463899
 31
0.0
  0
LINE
  5
8C
330
1F
100
AcDbEntity
  8
F-1_枠
  6
Continuous
 62
   200
370
    20
100
AcDbLine
 10
-5999.99998453501
 20
3964.999818544131
 30
0.0
 11
5699.998762800888
 21
3964.999818544131
 31
0.0
  0
LINE
  5
8D
330
1F
100
AcDbEntity
  8
F-1_枠
  6
Continuous
 62
   200
370
    20
100
AcDbLine
 10
-5999.99998453501
 20
190.5001831054688
 30
0.0
 11
5699.998762800888
 21
190.5001831054688
 31
0.0
  0
LINE
  5
8E
330
1F
100
AcDbEntity
  8
F-1_枠
  6
Continuous
 62
   200
370
    20
100
AcDbLine
 10
-5999.99998453501
 20
187.5000989759289
 30
0.0
 11
5699.998762800888
 21
187.5000989759289
 31
0.0
  0
LINE
  5
8F
330
1F
100
AcDbEntity
  8
F-A_文字
  6
Continuous
 62
     7
370
     9
100
AcDbLine
 10
1677.99998144202
 20
190.499951130636
 30
0.0
 11
3751.999981442023
 21
4164.999983504013
 31
0.0
  0
LINE
  5
90
330
1F
100
AcDbEntity
  8
F-A_文字
  6
Continuous
 62
     7
370
     9
100
AcDbLine
 10
3751.999981442023
 20
190.499951130636
 30
0.0
 11
5689.998977248734
 21
4164.999983504013
 31
0.0
  0
LINE
  5
91
330
1F
100
AcDbEntity
  8
0-B_寸法
  6
Continuous
 62
   120
370
     5
100
AcDbLine
 10
-3109.000018557984
 20
1168.000148463893
 30
0.0
 11
-4009.000018557984
 21
1168.000148463893
 31
0.0
  0
LINE
  5
92
330
1F
100
AcDbEntity
  8
0-B_寸法
  6
Continuous
 62
   120
370
     5
100
AcDbLine
 10
-3109.000018557984
 20
1168.000148463893
 30
0.0
 11
-3109.000018557984
 21
1368.000148463894
 31
0.0
  0
LINE
  5
93
330
1F
100
AcDbEntity
  8
0-B_寸法
  6
Continuous
 62
   120
370
     5
100
AcDbLine
 10
-4009.000018557984
 20
1168.000148463893
 30
0.0
 11
-4009.000018557984
 21
1368.000148463894
 31
0.0
  0
LWPOLYLINE
  5
94
330
1F
100
AcDbEntity
  8
0-B_寸法
  6
Continuous
 62
     7
370
     9
100
AcDbPolyline
 90
        4
 70
     1
 43
3.0
 10
-3107.500018557984
 20
1168.000148463893
 42
0.4142135623731
 10
-3109.000018557984
 20
1169.500148463893
 42
0.4142135623731
 10
-3110.500018557984
 20
1168.000148463893
 42
0.4142135623731
 10
-3109.000018557984
 20
1166.500148463893
 42
0.4142135623731
  0
LWPOLYLINE
  5
95
330
1F
100
AcDbEntity
  8
0-B_寸法
  6
Continuous
 62
     7
370
     9
100
AcDbPolyline
 90
        4
 70
     1
 43
3.0
 10
-4007.500018557984
 20
1168.000148463893
 42
0.4142135623731
 10
-4009.000018557984
 20
1169.500148463893
 42
0.4142135623731
 10
-4010.500018557984
 20
1168.000148463893
 42
0.4142135623731
 10
-4009.000018557984
 20
1166.500148463893
 42
0.4142135623731
  0
LINE
  5
96
330
1F
100
AcDbEntity
  8
0-0_補助線
  6
JWW_HOJO
 62
     7
370
     9
100
AcDbLine
 10
-5490.000018557986
 20
3462.000148463893
 30
0.0
 11
5689.998977248734
 21
3462.000148463893
 31
0.0
  0
LINE
  5
97
330
1F
100
AcDbEntity
  8
0-B_寸法
  6
Continuous
 62
   120
370
     5
100
AcDbLine
 10
-1525.000018557985
 20
1168.000148463893
 30
0.0
 11
-1525.000018557985
 21
1368.000148463894
 31
0.0
  0
LWPOLYLINE
  5
98
330
1F
100
AcDbEntity
  8
0-B_寸法
  6
Continuous
 62
     7
370
     9
100
AcDbPolyline
 90
        4
 70
     1
 43
3.0
 10
-1523.500018557985
 20
1168.000148463893
 42
0.4142135623731
 10
-1525.000018557985
 20
1169.500148463893
 42
0.4142135623731
 10
-1526.500018557985
 20
1168.000148463893
 42
0.4142135623731
 10
-1525.000018557985
 20
1166.500148463893
 42
0.4142135623731
  0
LINE
  5
99
330
1F
100
AcDbEntity
  8
0-B_寸法
  6
Continuous
 62
   120
370
     5
100
AcDbLine
 10
-715.0000185579853
 20
1168.000148463893
 30
0.0
 11
-1525.000018557985
 21
1168.000148463893
 31
0.0
  0
LINE
  5
9A
330
1F
100
AcDbEntity
  8
0-B_寸法
  6
Continuous
 62
   120
370
     5
100
AcDbLine
 10
-715.0000185579853
 20
1168.000148463893
 30
0.0
 11
-715.0000185579853
 21
1368.000148463894
 31
0.0
  0
LWPOLYLINE
  5
9B
330
1F
100
AcDbEntity
  8
0-B_寸法
  6
Continuous
 62
     7
370
     9
100
AcDbPolyline
 90
        4
 70
     1
 43
3.0
 10
-713.5000185579853
 20
1168.000148463893
 42
0.4142135623731
 10
-715.0000185579853
 20
1169.500148463893
 42
0.4142135623731
 10
-716.5000185579853
 20
1168.000148463893
 42
0.4142135623731
 10
-715.0000185579853
 20
1166.500148463893
 42
0.4142135623731
  0
LINE
  5
9C
330
1F
100
AcDbEntity
  8
0-B_寸法
  6
Continuous
 62
   120
370
     5
100
AcDbLine
 10
1484.999981442018
 20
1168.000148463893
 30
0.0
 11
1484.999981442018
 21
1368.000148463894
 31
0.0
  0
LWPOLYLINE
  5
9D
330
1F
100
AcDbEntity
  8
0-B_寸法
  6
Continuous
 62
     7
370
     9
100
AcDbPolyline
 90
        4
 70
     1
 43
3.0
 10
1486.499981442018
 20
1168.000148463893
 42
0.4142135623731
 10
1484.999981442018
 20
1169.500148463893
 42
0.4142135623731
 10
1483.499981442018
 20
1168.000148463893
 42
0.4142135623731
 10
1484.999981442018
 20
1166.500148463893
 42
0.4142135623731
  0
LINE
  5
9E
330
1F
100
AcDbEntity
  8
0-B_寸法
  6
Continuous
 62
   120
370
     5
100
AcDbLine
 10
771.9999814420163
 20
1168.000148463893
 30
0.0
 11
771.9999814420163
 21
1368.000148463894
 31
0.0
  0
LWPOLYLINE
  5
9F
330
1F
100
AcDbEntity
  8
0-B_寸法
  6
Continuous
 62
     7
370
     9
100
AcDbPolyline
 90
        4
 70
     1
 43
3.0
 10
773.4999814420163
 20
1168.000148463893
 42
0.4142135623731
 10
771.9999814420163
 20
1169.500148463893
 42
0.4142135623731
 10
770.4999814420163
 20
1168.000148463893
 42
0.4142135623731
 10
771.9999814420163
 20
1166.500148463893
 42
0.4142135623731
  0
LINE
  5
A0
330
1F
100
AcDbEntity
  8
0-B_寸法
  6
Continuous
 62
   120
370
     5
100
AcDbLine
 10
1484.999981442018
 20
1168.000148463893
 30
0.0
 11
771.9999814420163
 21
1168.000148463893
 31
0.0
  0
LINE
  5
A1
330
1F
100
AcDbEntity
  8
0-0_補助線
  6
JWW_HOJO
 62
     7
370
     9
100
AcDbLine
 10
-5490.000018557986
 20
-457.250083820241
 30
0.0
 11
5699.998762800888
 21
-457.250083820241
 31
0.0
  0
MTEXT
  5
A2
330
1F
100
AcDbEntity
  8
0-B_寸法
  6
Continuous
 62
     7
370
   211
100
AcDbMText
 10
-3727.750018557984
 20
1174.075148463893
 30
0.0
 40
57.15
 41
337.5
 46
0.0
 71
     7
 72
     1
  1
{\fＭＳ ゴシック|b0|i0|c128|p49;ＤＷ＝900}
 73
     1
 44
1.0
  0
MTEXT
  5
A3
330
1F
100
AcDbEntity
  8
0-B_寸法
  6
Continuous
 62
     7
370
   211
100
AcDbMText
 10
-1288.750018557985
 20
1174.075148463893
 30
0.0
 40
57.15
 41
337.5
 46
0.0
 71
     7
 72
     1
  1
{\fＭＳ ゴシック|b0|i0|c128|p49;ＤＷ＝810}
 73
     1
 44
1.0
  0
MTEXT
  5
A4
330
1F
100
AcDbEntity
  8
0-B_寸法
  6
Continuous
 62
     7
370
   211
100
AcDbMText
 10
959.7499814420161
 20
1174.075148463893
 30
0.0
 40
57.15
 41
337.5
 46
0.0
 71
     7
 72
     1
  1
{\fＭＳ ゴシック|b0|i0|c128|p49;ＤＷ＝713}
 73
     1
 44
1.0
  0
MTEXT
  5
A5
330
1F
100
AcDbEntity
  8
F-A_文字
  6
Continuous
 62
     7
370
     9
100
AcDbMText
 10
-5890.000004381747
 20
4018.575148463894
 30
0.0
 40
57.15
 41
300.0
 46
0.0
 71
     7
 72
     1
  1
{\fＭＳ ゴシック|b0|i0|c128|p49;デザイン}
 73
     1
 44
1.0
  0
MTEXT
  5
A6
330
1F
100
AcDbEntity
  8
F-A_文字
  6
Continuous
 62
     7
370
     9
100
AcDbMText
 10
-5852.500004381747
 20
2031.325062684755
 30
0.0
 40
57.15
 41
225.0
 46
0.0
 71
     7
 72
     1
  1
{\fＭＳ ゴシック|b0|i0|c128|p49;姿　図}
 73
     1
 44
1.0
  0
MTEXT
  5
A7
330
1F
100
AcDbEntity
  8
F-A_文字
  6
Continuous
 62
     7
370
     9
100
AcDbMText
 10
-5890.000004381747
 20
38.07493236644844
 30
0.0
 40
57.15
 41
300.0
 46
0.0
 71
     7
 72
     1
  1
{\fＭＳ ゴシック|b0|i0|c128|p49;デザイン}
 73
     1
 44
1.0
  0
MTEXT
  5
A8
330
1F
100
AcDbEntity
  8
F-A_文字
  6
Continuous
 62
     7
370
     9
100
AcDbMText
 10
-5852.500004381747
 20
-1949.175091552734
 30
0.0
 40
57.15
 41
225.0
 46
0.0
 71
     7
 72
     1
  1
{\fＭＳ ゴシック|b0|i0|c128|p49;姿　図}
 73
     1
 44
1.0
  0
MTEXT
  5
A9
330
1F
100
AcDbEntity
  8
F-A_文字
  6
Continuous
 62
     7
370
     0
100
AcDbMText
 10
-60.0001237199109
 20
-3887.139820871936
 30
0.0
 40
45.72
 41
180.0
 46
0.0
 71
     7
 72
     1
  1
{\fＭＳ ゴシック|b0|i0|c128|p49;図面名}
 73
     1
 44
1.0
  0
MTEXT
  5
AA
330
1F
100
AcDbEntity
  8
F-A_文字
  6
Continuous
 62
     7
370
     0
100
AcDbMText
 10
2779.998729808911
 20
-3887.142460617774
 30
0.0
 40
45.72
 41
300.0
 46
0.0
 71
     7
 72
     1
  1
{\fＭＳ ゴシック|b0|i0|c128|p49;ＳＣＡＬＥ}
 73
     1
 44
1.0
  0
MTEXT
  5
AB
330
1F
100
AcDbEntity
  8
F-A_文字
  6
Continuous
 62
     7
370
     0
100
AcDbMText
 10
4279.999224688556
 20
-3887.143854850754
 30
0.0
 40
45.72
 41
240.0
 46
0.0
 71
     7
 72
     1
  1
{\fＭＳ ゴシック|b0|i0|c128|p49;ＤＡＴＥ}
 73
     1
 44
1.0
  0
MTEXT
  5
AC
330
1F
100
AcDbEntity
  8
F-A_文字
  6
Continuous
 62
     7
370
     0
100
AcDbMText
 10
1180.417701903717
 20
-3946.423911599839
 30
0.0
 40
77.15249999999999
 41
405.0
 46
0.0
 71
     7
 72
     1
  1
{\fＭＳ ゴシック|b0|i0|c128|p49;建具姿図}
 73
     1
 44
1.0
  0
MTEXT
  5
AD
330
1F
100
AcDbEntity
  8
F-A_文字
  6
Continuous
 62
     7
370
     0
100
AcDbMText
 10
3383.748977248734
 20
-3946.426865907308
 30
0.0
 40
77.15249999999999
 41
202.5
 46
0.0
 71
     7
 72
     1
  1
{\fＭＳ ゴシック|b0|i0|c128|p49;1/30}
 73
     1
 44
1.0
  0
MTEXT
  5
AE
330
1F
100
AcDbEntity
  8
F-A_文字
  6
Continuous
 62
     7
370
     0
100
AcDbMText
 10
349.9999175200577
 20
-3946.496666872502
 30
0.0
 40
78.58125
 41
412.5
 46
0.0
 71
     7
 72
     1
  1
{\fＭＳ ゴシック|b0|i0|c128|p49;DOORETUS}
 73
     1
 44
1.0
  0
MTEXT
  5
AF
330
1F
100
AcDbEntity
  8
F-A_文字
  6
Continuous
 62
     7
370
     0
100
AcDbMText
 10
2779.998729808911
 20
-4087.14246317786
 30
0.0
 40
45.72
 41
240.0
 46
0.0
 71
     7
 72
     1
  1
{\fＭＳ ゴシック|b0|i0|c128|p49;ＦＩＬＥ}
 73
     1
 44
1.0
  0
MTEXT
  5
B0
330
1F
100
AcDbEntity
  8
F-A_文字
  6
Continuous
 62
     7
370
     0
100
AcDbMText
 10
4279.999224688556
 20
-4087.143857410839
 30
0.0
 40
45.72
 41
180.0
 46
0.0
 71
     7
 72
     1
  1
{\fＭＳ ゴシック|b0|i0|c128|p49;ＮＯ．}
 73
     1
 44
1.0
  0
MTEXT
  5
B1
330
1F
100
AcDbEntity
  8
F-A_文字
  6
Continuous
 62
     7
370
     0
100
AcDbMText
 10
1234.998729808911
 20
-4096.140669266149
 30
0.0
 40
45.72
 41
120.0
 46
0.0
 71
     7
 72
     1
  1
{\fＭＳ ゴシック|b0|i0|c128|p49;株式}
 73
     1
 44
1.0
  0
MTEXT
  5
B2
330
1F
100
AcDbEntity
  8
F-A_文字
  6
Continuous
 62
     7
370
     9
100
AcDbMText
 10
4936.249033580831
 20
-4147.857012699985
 30
0.0
 40
74.295
 41
97.5
 46
0.0
 71
     7
 72
     1
  1
{\fＭＳ ゴシック|b0|i0|c128|p49;01}
 73
     1
 44
1.0
  0
MTEXT
  5
B3
330
1F
100
AcDbEntity
  8
F-A_文字
  6
Continuous
 62
     7
370
     0
100
AcDbMText
 10
1444.998729808911
 20
-4164.281754523929
 30
0.0
 40
101.44125
 41
1065.0
 46
0.0
 71
     7
 72
     1
  1
{\fＭＳ ゴシック|b0|i0|c128|p49;ウッドワン・・・}
 73
     1
 44
1.0
  0
MTEXT
  5
B4
330
1F
100
AcDbEntity
  8
F-A_文字
  6
Continuous
 62
     7
370
     0
100
AcDbMText
 10
1234.998729808911
 20
-4168.140669266187
 30
0.0
 40
45.72
 41
120.0
 46
0.0
 71
     7
 72
     1
  1
{\fＭＳ ゴシック|b0|i0|c128|p49;会社}
 73
     1
 44
1.0
  0
MTEXT
  5
B5
330
1F
100
AcDbEntity
  8
F-A_文字
  6
Continuous
 62
     7
370
     0
100
AcDbMText
 10
5608.403311109712
 20
-4314.841419020919
 30
0.0
 40
68.58
 41
90.0
 46
0.0
 71
     7
 72
     1
  1
{\fＭＳ ゴシック|b0|i0|c128|p49;）}
 73
     1
 44
1.0
  0
MTEXT
  5
B6
330
1F
100
AcDbEntity
  8
F-A_文字
  6
Continuous
 62
     7
370
     0
100
AcDbMText
 10
5190.195950842071
 20
-4316.235443869856
 30
0.0
 40
68.58
 41
45.0
 46
0.0
 71
     7
 72
     1
  1
{\fＭＳ ゴシック|b0|i0|c128|p49;,}
 73
     1
 44
1.0
  0
MTEXT
  5
B7
330
1F
100
AcDbEntity
  8
F-A_文字
  6
Continuous
 62
     7
370
     0
100
AcDbMText
 10
4923.937261915373
 20
-4314.771967288282
 30
0.0
 40
74.295
 41
97.5
 46
0.0
 71
     7
 72
     1
  1
{\fＭＳ ゴシック|b0|i0|c128|p49;$y}
 73
     1
 44
1.0
  0
MTEXT
  5
B8
330
1F
100
AcDbEntity
  8
F-A_文字
  6
Continuous
 62
     7
370
     0
100
AcDbMText
 10
5078.673982954195
 20
-4314.771967288282
 30
0.0
 40
74.295
 41
97.5
 46
0.0
 71
     7
 72
     1
  1
{\fＭＳ ゴシック|b0|i0|c128|p49;$m}
 73
     1
 44
1.0
  0
MTEXT
  5
B9
330
1F
100
AcDbEntity
  8
F-A_文字
  6
Continuous
 62
     7
370
     0
100
AcDbMText
 10
5233.410715437103
 20
-4314.771967288282
 30
0.0
 40
74.295
 41
97.5
 46
0.0
 71
     7
 72
     1
  1
{\fＭＳ ゴシック|b0|i0|c128|p49;$d}
 73
     1
 44
1.0
  0
MTEXT
  5
BA
330
1F
100
AcDbEntity
  8
F-A_文字
  6
Continuous
 62
     7
370
     0
100
AcDbMText
 10
5388.147447920011
 20
-4314.771967288282
 30
0.0
 40
74.295
 41
195.0
 46
0.0
 71
     7
 72
     1
  1
{\fＭＳ ゴシック|b0|i0|c128|p49;印刷}
 73
     1
 44
1.0
  0
MTEXT
  5
BB
330
1F
100
AcDbEntity
  8
F-A_文字
  6
Continuous
 62
     7
370
     0
100
AcDbMText
 10
4784.033374252999
 20
-4319.023493567732
 30
0.0
 40
68.58
 41
90.0
 46
0.0
 71
     7
 72
     1
  1
{\fＭＳ ゴシック|b0|i0|c128|p49;（}
 73
     1
 44
1.0
  0
MTEXT
  5
BC
330
1F
100
AcDbEntity
  8
F-A_文字
  6
Continuous
 62
     7
370
     0
100
AcDbMText
 10
5031.277143812345
 20
-4319.023493567732
 30
0.0
 40
68.58
 41
45.0
 46
0.0
 71
     7
 72
     1
  1
{\fＭＳ ゴシック|b0|i0|c128|p49;,}
 73
     1
 44
1.0
  0
LINE
  5
BD
330
1F
100
AcDbEntity
  8
0-B_寸法
  6
Continuous
 62
   120
370
     5
100
AcDbLine
 10
-1525.000018557985
 20
-2951.250083820242
 30
0.0
 11
-1525.000018557985
 21
-2751.250083820241
 31
0.0
  0
LWPOLYLINE
  5
BE
330
1F
100
AcDbEntity
  8
0-B_寸法
  6
Continuous
 62
     7
370
     9
100
AcDbPolyline
 90
        4
 70
     1
 43
3.0
 10
-1523.500018557985
 20
-2951.250083820242
 42
0.4142135623731
 10
-1525.000018557985
 20
-2949.750083820242
 42
0.4142135623731
 10
-1526.500018557985
 20
-2951.250083820242
 42
0.4142135623731
 10
-1525.000018557985
 20
-2952.750083820241
 42
0.4142135623731
  0
LINE
  5
BF
330
1F
100
AcDbEntity
  8
0-B_寸法
  6
Continuous
 62
   120
370
     5
100
AcDbLine
 10
-715.0000185579853
 20
-2951.250083820242
 30
0.0
 11
-1525.000018557985
 21
-2951.250083820242
 31
0.0
  0
LINE
  5
C0
330
1F
100
AcDbEntity
  8
0-B_寸法
  6
Continuous
 62
   120
370
     5
100
AcDbLine
 10
-715.0000185579853
 20
-2951.250083820242
 30
0.0
 11
-715.0000185579853
 21
-2751.250083820241
 31
0.0
  0
LWPOLYLINE
  5
C1
330
1F
100
AcDbEntity
  8
0-B_寸法
  6
Continuous
 62
     7
370
     9
100
AcDbPolyline
 90
        4
 70
     1
 43
3.0
 10
-713.5000185579853
 20
-2951.250083820242
 42
0.4142135623731
 10
-715.0000185579853
 20
-2949.750083820242
 42
0.4142135623731
 10
-716.5000185579853
 20
-2951.250083820242
 42
0.4142135623731
 10
-715.0000185579853
 20
-2952.750083820241
 42
0.4142135623731
  0
LINE
  5
C2
330
1F
100
AcDbEntity
  8
0-B_寸法
  6
Continuous
 62
   120
370
     5
100
AcDbLine
 10
1484.999981442018
 20
-2951.250083820242
 30
0.0
 11
1484.999981442018
 21
-2751.250083820241
 31
0.0
  0
LWPOLYLINE
  5
C3
330
1F
100
AcDbEntity
  8
0-B_寸法
  6
Continuous
 62
     7
370
     9
100
AcDbPolyline
 90
        4
 70
     1
 43
3.0
 10
1486.499981442018
 20
-2951.250083820242
 42
0.4142135623731
 10
1484.999981442018
 20
-2949.750083820242
 42
0.4142135623731
 10
1483.499981442018
 20
-2951.250083820242
 42
0.4142135623731
 10
1484.999981442018
 20
-2952.750083820241
 42
0.4142135623731
  0
LINE
  5
C4
330
1F
100
AcDbEntity
  8
0-B_寸法
  6
Continuous
 62
   120
370
     5
100
AcDbLine
 10
771.9999814420163
 20
-2951.250083820242
 30
0.0
 11
771.9999814420163
 21
-2751.250083820241
 31
0.0
  0
LWPOLYLINE
  5
C5
330
1F
100
AcDbEntity
  8
0-B_寸法
  6
Continuous
 62
     7
370
     9
100
AcDbPolyline
 90
        4
 70
     1
 43
3.0
 10
773.4999814420163
 20
-2951.250083820242
 42
0.4142135623731
 10
771.9999814420163
 20
-2949.750083820242
 42
0.4142135623731
 10
770.4999814420163
 20
-2951.250083820242
 42
0.4142135623731
 10
771.9999814420163
 20
-2952.750083820241
 42
0.4142135623731
  0
LINE
  5
C6
330
1F
100
AcDbEntity
  8
0-B_寸法
  6
Continuous
 62
   120
370
     5
100
AcDbLine
 10
1484.999981442018
 20
-2951.250083820242
 30
0.0
 11
771.9999814420163
 21
-2951.250083820242
 31
0.0
  0
LINE
  5
C7
330
1F
100
AcDbEntity
  8
0-4_枠
  6
Continuous
 62
    92
370
    13
100
AcDbLine
 10
-2316.000018557984
 20
-457.250083820241
 30
0.0
 11
-707.0000185579858
 21
-457.250083820241
 31
0.0
  0
LINE
  5
C8
330
1F
100
AcDbEntity
  8
0-4_枠
  6
Continuous
 62
    92
370
    13
100
AcDbLine
 10
77.99998144201652
 20
-457.250083820241
 30
0.0
 11
1492.999981442016
 21
-457.250083820241
 31
0.0
  0
MTEXT
  5
C9
330
1F
100
AcDbEntity
  8
0-B_寸法
  6
Continuous
 62
     7
370
   211
100
AcDbMText
 10
-1288.750018557985
 20
-2945.175083820242
 30
0.0
 40
57.15
 41
337.5
 46
0.0
 71
     7
 72
     1
  1
{\fＭＳ ゴシック|b0|i0|c128|p49;ＤＷ＝810}
 73
     1
 44
1.0
  0
MTEXT
  5
CA
330
1F
100
AcDbEntity
  8
0-B_寸法
  6
Continuous
 62
     7
370
   211
100
AcDbMText
 10
959.7499814420161
 20
-2945.175083820242
 30
0.0
 40
57.15
 41
337.5
 46
0.0
 71
     7
 72
     1
  1
{\fＭＳ ゴシック|b0|i0|c128|p49;ＤＷ＝713}
 73
     1
 44
1.0
  0
LINE
  5
CB
330
1F
100
AcDbEntity
  8
0-0_補助線
  6
JWW_HOJO
 62
   120
370
     5
100
AcDbLine
 10
-5999.99998453501
 20
670.5001831054692
 30
0.0
 11
5699.998762800888
 21
670.5001831054692
 31
0.0
  0
LINE
  5
CC
330
1F
100
AcDbEntity
  8
0-0_補助線
  6
JWW_HOJO
 62
   120
370
     5
100
AcDbLine
 10
-5999.99998453501
 20
430.5001831054688
 30
0.0
 11
5699.998762800888
 21
430.5001831054688
 31
0.0
  0
LINE
  5
CD
330
1F
100
AcDbEntity
  8
0-0_補助線
  6
JWW_HOJO
 62
   120
370
     5
100
AcDbLine
 10
-5999.99998453501
 20
310.5001831054688
 30
0.0
 11
5699.998762800888
 21
310.5001831054688
 31
0.0
  0
LINE
  5
CE
330
1F
100
AcDbEntity
  8
0-0_補助線
  6
JWW_HOJO
 62
   120
370
     5
100
AcDbLine
 10
-5370.000018557986
 20
4174.999769056166
 30
0.0
 11
-5370.000018557986
 21
-3790.000179909371
 31
0.0
  0
LINE
  5
CF
330
1F
100
AcDbEntity
  8
0-0_補助線
  6
JWW_HOJO
 62
   120
370
     5
100
AcDbLine
 10
5699.998762800888
 20
-3670.000017526988
 30
0.0
 11
-5999.99998453501
 21
-3670.000017526988
 31
0.0
  0
LINE
  5
D0
330
1F
100
AcDbEntity
  8
0-0_補助線
  6
JWW_HOJO
 62
   120
370
     5
100
AcDbLine
 10
-2796.000018557986
 20
4174.999769056166
 30
0.0
 11
-2796.000018557986
 21
-3790.000179909371
 31
0.0
  0
LINE
  5
D1
330
1F
100
AcDbEntity
  8
0-0_補助線
  6
JWW_HOJO
 62
   120
370
     5
100
AcDbLine
 10
-402.0000185579818
 20
4174.999769056166
 30
0.0
 11
-402.0000185579818
 21
-3790.000179909371
 31
0.0
  0
LINE
  5
D2
330
1F
100
AcDbEntity
  8
0-0_補助線
  6
JWW_HOJO
 62
   120
370
     5
100
AcDbLine
 10
1797.99998144202
 20
4174.999769056166
 30
0.0
 11
1797.99998144202
 21
-3790.000179909371
 31
0.0
  0
LINE
  5
D3
330
1F
100
AcDbEntity
  8
0-0_補助線
  6
JWW_HOJO
 62
   120
370
     5
100
AcDbLine
 10
3871.999981442023
 20
4174.999769056166
 30
0.0
 11
3871.999981442023
 21
-3790.000179909371
 31
0.0
  0
LINE
  5
D4
330
1F
100
AcDbEntity
  8
0-A_文字
  6
Continuous
 62
     7
370
     9
100
AcDbLine
 10
-2876.000018557985
 20
-55.50015011349217
 30
0.0
 11
-2341.67460317461
 21
-55.50015011349217
 31
0.0
  0
LINE
  5
D5
330
1F
100
AcDbEntity
  8
0-A_文字
  6
Continuous
 62
     7
370
     9
100
AcDbLine
 10
-2341.67460317461
 20
-55.50015011349217
 30
0.0
 11
-2341.67460317461
 21
-205.5001501134922
 31
0.0
  0
LINE
  5
D6
330
1F
100
AcDbEntity
  8
0-A_文字
  6
Continuous
 62
     7
370
     9
100
AcDbLine
 10
-2876.000018557985
 20
-205.5001501134922
 30
0.0
 11
-2341.67460317461
 21
-205.5001501134922
 31
0.0
  0
LINE
  5
D7
330
1F
100
AcDbEntity
  8
0-A_文字
  6
Continuous
 62
     7
370
     9
100
AcDbLine
 10
-2876.000018557985
 20
-55.50015011349217
 30
0.0
 11
-2876.000018557985
 21
-205.5001501134922
 31
0.0
  0
LINE
  5
D8
330
1F
100
AcDbEntity
  8
0-A_文字
  6
Continuous
 62
     7
370
     9
100
AcDbLine
 10
-2866.000018557985
 20
-65.50015011349215
 30
0.0
 11
-2866.000018557985
 21
-195.5001501134922
 31
0.0
  0
LINE
  5
D9
330
1F
100
AcDbEntity
  8
0-A_文字
  6
Continuous
 62
     7
370
     9
100
AcDbLine
 10
-2866.000018557985
 20
-195.5001501134922
 30
0.0
 11
-2351.67460317461
 21
-195.5001501134922
 31
0.0
  0
LINE
  5
DA
330
1F
100
AcDbEntity
  8
0-A_文字
  6
Continuous
 62
     7
370
     9
100
AcDbLine
 10
-2351.67460317461
 20
-65.50015011349215
 30
0.0
 11
-2351.67460317461
 21
-195.5001501134922
 31
0.0
  0
LINE
  5
DB
330
1F
100
AcDbEntity
  8
0-A_文字
  6
Continuous
 62
     7
370
     9
100
AcDbLine
 10
-2866.000018557985
 20
-65.50015011349215
 30
0.0
 11
-2351.67460317461
 21
-65.50015011349215
 31
0.0
  0
MTEXT
  5
DC
330
1F
100
AcDbEntity
  8
0-A_文字
  6
Continuous
 62
     7
370
     9
100
AcDbMText
 10
-2811.337310866298
 20
-181.9239001134922
 30
0.0
 40
77.15249999999999
 41
405.0
 46
0.0
 71
     7
 72
     1
  1
{\fＭＳ ゴシック|b0|i0|c128|p49;ハイドア}
 73
     1
 44
1.0
  0
LINE
  5
DD
330
1F
100
AcDbEntity
  8
0-A_文字
  6
Continuous
 62
     7
370
     9
100
AcDbLine
 10
-482.0000185579815
 20
-55.50015011349217
 30
0.0
 11
52.32539682539425
 21
-55.50015011349217
 31
0.0
  0
LINE
  5
DE
330
1F
100
AcDbEntity
  8
0-A_文字
  6
Continuous
 62
     7
370
     9
100
AcDbLine
 10
52.32539682539425
 20
-55.50015011349217
 30
0.0
 11
52.32539682539425
 21
-205.5001501134922
 31
0.0
  0
LINE
  5
DF
330
1F
100
AcDbEntity
  8
0-A_文字
  6
Continuous
 62
     7
370
     9
100
AcDbLine
 10
-482.0000185579815
 20
-205.5001501134922
 30
0.0
 11
52.32539682539425
 21
-205.5001501134922
 31
0.0
  0
LINE
  5
E0
330
1F
100
AcDbEntity
  8
0-A_文字
  6
Continuous
 62
     7
370
     9
100
AcDbLine
 10
-482.0000185579815
 20
-55.50015011349217
 30
0.0
 11
-482.0000185579815
 21
-205.5001501134922
 31
0.0
  0
LINE
  5
E1
330
1F
100
AcDbEntity
  8
0-A_文字
  6
Continuous
 62
     7
370
     9
100
AcDbLine
 10
-472.0000185579812
 20
-65.50015011349215
 30
0.0
 11
-472.0000185579812
 21
-195.5001501134922
 31
0.0
  0
LINE
  5
E2
330
1F
100
AcDbEntity
  8
0-A_文字
  6
Continuous
 62
     7
370
     9
100
AcDbLine
 10
-472.0000185579812
 20
-195.5001501134922
 30
0.0
 11
42.32539682539386
 21
-195.5001501134922
 31
0.0
  0
LINE
  5
E3
330
1F
100
AcDbEntity
  8
0-A_文字
  6
Continuous
 62
     7
370
     9
100
AcDbLine
 10
42.32539682539386
 20
-65.50015011349215
 30
0.0
 11
42.32539682539386
 21
-195.5001501134922
 31
0.0
  0
LINE
  5
E4
330
1F
100
AcDbEntity
  8
0-A_文字
  6
Continuous
 62
     7
370
     9
100
AcDbLine
 10
-472.0000185579812
 20
-65.50015011349215
 30
0.0
 11
42.32539682539386
 21
-65.50015011349215
 31
0.0
  0
MTEXT
  5
E5
330
1F
100
AcDbEntity
  8
0-A_文字
  6
Continuous
 62
     7
370
     9
100
AcDbMText
 10
-417.337310866294
 20
-181.9239001134922
 30
0.0
 40
77.15249999999999
 41
405.0
 46
0.0
 71
     7
 72
     1
  1
{\fＭＳ ゴシック|b0|i0|c128|p49;ハイドア}
 73
     1
 44
1.0
  0
MTEXT
  5
E6
330
1F
100
AcDbEntity
  8
F-A_文字
  6
Continuous
 62
     7
370
     0
100
AcDbMText
 10
4726.249126529666
 20
-3938.071010139966
 30
0.0
 40
78.86699999999999
 41
517.5
 46
0.0
 71
     7
 72
     1
  1
{\fＭＳ ゴシック|b0|i0|c128|p49;2021.04.01}
 73
     1
 44
1.0
  0
LINE
  5
E7
330
1F
100
AcDbEntity
  8
F-0_補助線
  6
JWW_HOJO
 62
   200
370
    20
100
AcDbLine
 10
-5999.99998453501
 20
4064.999901024072
 30
0.0
 11
5689.998977248734
 21
4064.999901024072
 31
0.0
  0
LINE
  5
E8
330
1F
100
AcDbEntity
  8
0-0_補助線
  6
JWW_HOJO
 62
   120
370
     5
100
AcDbLine
 10
5699.998762800888
 20
-3190.000017526988
 30
0.0
 11
-5999.99998453501
 21
-3190.000017526988
 31
0.0
  0
LINE
  5
E9
330
1F
100
AcDbEntity
  8
0-0_補助線
  6
JWW_HOJO
 62
   120
370
     5
100
AcDbLine
 10
-5999.99998453501
 20
790.5001831054697
 30
0.0
 11
5699.998762800888
 21
790.5001831054697
 31
0.0
  0
MTEXT
  5
EA
330
1F
100
AcDbEntity
  8
0-A_文字
  6
Continuous
 62
     7
370
     9
100
AcDbMText
 10
-5370.000018557986
 20
661.575415080302
 30
0.0
 40
57.15000000000006
 41
1200.000000000002
 46
0.0
 71
     7
 72
     1
  1
{\fＭＳ ゴシック|b0|i0|c128|p49;上レール寸法 1,789mm（DW=900mm）}
 73
     1
 44
1.0
  0
MTEXT
  5
EB
330
1F
100
AcDbEntity
  8
0-A_文字
  6
Continuous
 62
     7
370
     9
100
AcDbMText
 10
-2796.000018557987
 20
661.5754150803022
 30
0.0
 40
57.15000000000022
 41
1200.000000000005
 46
0.0
 71
     7
 72
     1
  1
{\fＭＳ ゴシック|b0|i0|c128|p49;上レール寸法 1,609mm（DW=810mm）}
 73
     1
 44
1.0
  0
MTEXT
  5
EC
330
1F
100
AcDbEntity
  8
0-A_文字
  6
Continuous
 62
     7
370
     9
100
AcDbMText
 10
-402.0000185579818
 20
661.575415080302
 30
0.0
 40
57.15000000000001
 41
1200.000000000001
 46
0.0
 71
     7
 72
     1
  1
{\fＭＳ ゴシック|b0|i0|c128|p49;上レール寸法 1,415mm（DW=713mm）}
 73
     1
 44
1.0
  0
MTEXT
  5
ED
330
1F
100
AcDbEntity
  8
0-A_文字
  6
Continuous
 62
     7
370
     9
100
AcDbMText
 10
-5370.000018557986
 20
-3318.924785552156
 30
0.0
 40
57.15000000000006
 41
1200.000000000002
 46
0.0
 71
     7
 72
     1
  1
{\fＭＳ ゴシック|b0|i0|c128|p49;上レール寸法 1,789mm（DW=900mm）}
 73
     1
 44
1.0
  0
MTEXT
  5
EE
330
1F
100
AcDbEntity
  8
0-A_文字
  6
Continuous
 62
     7
370
     9
100
AcDbMText
 10
-2796.000018557987
 20
-3318.924785552156
 30
0.0
 40
57.15000000000022
 41
1200.000000000005
 46
0.0
 71
     7
 72
     1
  1
{\fＭＳ ゴシック|b0|i0|c128|p49;上レール寸法 1,609mm（DW=810mm）}
 73
     1
 44
1.0
  0
MTEXT
  5
EF
330
1F
100
AcDbEntity
  8
0-A_文字
  6
Continuous
 62
     7
370
     9
100
AcDbMText
 10
-402.0000185579818
 20
-3318.924785552156
 30
0.0
 40
57.15000000000001
 41
1200.000000000001
 46
0.0
 71
     7
 72
     1
  1
{\fＭＳ ゴシック|b0|i0|c128|p49;上レール寸法 1,415mm（DW=713mm）}
 73
     1
 44
1.0
  0
LINE
  5
F0
330
1F
100
AcDbEntity
  8
0-B_寸法
  6
Continuous
 62
   120
370
     5
100
AcDbLine
 10
-3109.000018557984
 20
-2951.250083820242
 30
0.0
 11
-4009.000018557984
 21
-2951.250083820242
 31
0.0
  0
LINE
  5
F1
330
1F
100
AcDbEntity
  8
0-B_寸法
  6
Continuous
 62
   120
370
     5
100
AcDbLine
 10
-3109.000018557984
 20
-2951.250083820242
 30
0.0
 11
-3109.000018557984
 21
-2751.250083820241
 31
0.0
  0
LINE
  5
F2
330
1F
100
AcDbEntity
  8
0-B_寸法
  6
Continuous
 62
   120
370
     5
100
AcDbLine
 10
-4009.000018557984
 20
-2951.250083820242
 30
0.0
 11
-4009.000018557984
 21
-2751.250083820241
 31
0.0
  0
LWPOLYLINE
  5
F3
330
1F
100
AcDbEntity
  8
0-B_寸法
  6
Continuous
 62
     7
370
     9
100
AcDbPolyline
 90
        4
 70
     1
 43
3.0
 10
-3107.500018557984
 20
-2951.250083820242
 42
0.4142135623731
 10
-3109.000018557984
 20
-2949.750083820242
 42
0.4142135623731
 10
-3110.500018557984
 20
-2951.250083820242
 42
0.4142135623731
 10
-3109.000018557984
 20
-2952.750083820241
 42
0.4142135623731
  0
LWPOLYLINE
  5
F4
330
1F
100
AcDbEntity
  8
0-B_寸法
  6
Continuous
 62
     7
370
     9
100
AcDbPolyline
 90
        4
 70
     1
 43
3.0
 10
-4007.500018557984
 20
-2951.250083820242
 42
0.4142135623731
 10
-4009.000018557984
 20
-2949.750083820242
 42
0.4142135623731
 10
-4010.500018557984
 20
-2951.250083820242
 42
0.4142135623731
 10
-4009.000018557984
 20
-2952.750083820241
 42
0.4142135623731
  0
MTEXT
  5
F5
330
1F
100
AcDbEntity
  8
0-B_寸法
  6
Continuous
 62
     7
370
   211
100
AcDbMText
 10
-3727.750018557984
 20
-2945.17508382025
 30
0.0
 40
57.15000000000001
 41
337.5
 46
0.0
 71
     7
 72
     1
  1
{\fＭＳ ゴシック|b0|i0|c128|p49;ＤＷ＝900}
 73
     1
 44
1.0
  0
LINE
  5
F6
330
1F
100
AcDbEntity
  8
0-A_文字
  6
Continuous
 62
     7
370
     9
100
AcDbLine
 10
-5450.000018557986
 20
-55.50015011349217
 30
0.0
 11
-4915.67460317461
 21
-55.50015011349217
 31
0.0
  0
LINE
  5
F7
330
1F
100
AcDbEntity
  8
0-A_文字
  6
Continuous
 62
     7
370
     9
100
AcDbLine
 10
-4915.67460317461
 20
-55.50015011349217
 30
0.0
 11
-4915.67460317461
 21
-205.5001501134922
 31
0.0
  0
LINE
  5
F8
330
1F
100
AcDbEntity
  8
0-A_文字
  6
Continuous
 62
     7
370
     9
100
AcDbLine
 10
-5450.000018557986
 20
-205.5001501134922
 30
0.0
 11
-4915.67460317461
 21
-205.5001501134922
 31
0.0
  0
LINE
  5
F9
330
1F
100
AcDbEntity
  8
0-A_文字
  6
Continuous
 62
     7
370
     9
100
AcDbLine
 10
-5450.000018557986
 20
-55.50015011349217
 30
0.0
 11
-5450.000018557986
 21
-205.5001501134922
 31
0.0
  0
LINE
  5
FA
330
1F
100
AcDbEntity
  8
0-A_文字
  6
Continuous
 62
     7
370
     9
100
AcDbLine
 10
-5440.000018557986
 20
-65.50015011349215
 30
0.0
 11
-5440.000018557986
 21
-195.5001501134922
 31
0.0
  0
LINE
  5
FB
330
1F
100
AcDbEntity
  8
0-A_文字
  6
Continuous
 62
     7
370
     9
100
AcDbLine
 10
-5440.000018557986
 20
-195.5001501134922
 30
0.0
 11
-4925.67460317461
 21
-195.5001501134922
 31
0.0
  0
LINE
  5
FC
330
1F
100
AcDbEntity
  8
0-A_文字
  6
Continuous
 62
     7
370
     9
100
AcDbLine
 10
-4925.67460317461
 20
-65.50015011349215
 30
0.0
 11
-4925.67460317461
 21
-195.5001501134922
 31
0.0
  0
LINE
  5
FD
330
1F
100
AcDbEntity
  8
0-A_文字
  6
Continuous
 62
     7
370
     9
100
AcDbLine
 10
-5440.000018557986
 20
-65.50015011349215
 30
0.0
 11
-4925.67460317461
 21
-65.50015011349215
 31
0.0
  0
MTEXT
  5
FE
330
1F
100
AcDbEntity
  8
0-A_文字
  6
Continuous
 62
     7
370
     9
100
AcDbMText
 10
-5385.337310866298
 20
-181.9239001134918
 30
0.0
 40
77.1525
 41
405.0
 46
0.0
 71
     7
 72
     1
  1
{\fＭＳ ゴシック|b0|i0|c128|p49;ハイドア}
 73
     1
 44
1.0
  0
LWPOLYLINE
  5
FF
330
1F
100
AcDbEntity
  8
0-B_寸法
  6
Continuous
 62
     7
370
     9
100
AcDbPolyline
 90
        4
 70
     1
 43
3.0
 10
-5138.500018557985
 20
-2690.250083820241
 42
0.4142135623731
 10
-5140.000018557986
 20
-2688.750083820242
 42
0.4142135623731
 10
-5141.500018557986
 20
-2690.250083820241
 42
0.4142135623731
 10
-5140.000018557986
 20
-2691.750083820241
 42
0.4142135623731
  0
LINE
  5
100
330
1F
100
AcDbEntity
  8
0-B_寸法
  6
Continuous
 62
   120
370
     5
100
AcDbLine
 10
-5140.000018557986
 20
-2690.250083820241
 30
0.0
 11
-4940.000018557985
 21
-2690.250083820241
 31
0.0
  0
LINE
  5
101
330
1F
100
AcDbEntity
  8
0-4_枠
  6
Continuous
 62
    92
370
    13
100
AcDbLine
 10
-4890.000018557986
 20
-502.2500838202404
 30
0.0
 11
-3101.000018557986
 21
-502.2500838202404
 31
0.0
  0
LINE
  5
102
330
1F
100
AcDbEntity
  8
0-B_寸法
  6
Continuous
 62
   120
370
     5
100
AcDbLine
 10
-5140.000018557986
 20
-507.2500838202409
 30
0.0
 11
-5140.000018557986
 21
-2690.250083820241
 31
0.0
  0
LWPOLYLINE
  5
103
330
1F
100
AcDbEntity
  8
0-B_寸法
  6
Continuous
 62
     7
370
     9
100
AcDbPolyline
 90
        4
 70
     1
 43
3.0
 10
-5138.500018557985
 20
-507.2500838202409
 42
0.4142135623731
 10
-5140.000018557986
 20
-505.7500838202409
 42
0.4142135623731
 10
-5141.500018557986
 20
-507.2500838202409
 42
0.4142135623731
 10
-5140.000018557986
 20
-508.7500838202409
 42
0.4142135623731
  0
LINE
  5
104
330
1F
100
AcDbEntity
  8
0-B_寸法
  6
Continuous
 62
   120
370
     5
100
AcDbLine
 10
-5140.000018557986
 20
-507.2500838202409
 30
0.0
 11
-4940.000018557985
 21
-507.2500838202409
 31
0.0
  0
LINE
  5
105
330
1F
100
AcDbEntity
  8
0-4_枠
  6
Continuous
 62
    92
370
    13
100
AcDbLine
 10
-4890.000018557986
 20
-470.2500838202405
 30
0.0
 11
-3101.000018557986
 21
-470.2500838202405
 31
0.0
  0
LINE
  5
106
330
1F
100
AcDbEntity
  8
0-4_枠
  6
JWW_DASHED1
 62
   120
370
     5
100
AcDbLine
 10
-3982.000018557987
 20
-2690.250083820241
 30
0.0
 11
-3982.000018557987
 21
-507.2500838202409
 31
0.0
  0
LINE
  5
107
330
1F
100
AcDbEntity
  8
0-4_枠
  6
Continuous
 62
    92
370
    13
100
AcDbLine
 10
-3982.000018557987
 20
-507.2500838202409
 30
0.0
 11
-3982.000018557987
 21
-502.2500838202404
 31
0.0
  0
MTEXT
  5
108
330
1F
100
AcDbEntity
  8
0-B_寸法
  6
Continuous
 62
     7
370
    70
100
AcDbMText
 10
-5155.000018557986
 20
-1821.925083820242
 30
0.0
 40
57.1500000000003
 41
412.5000000000022
 46
0.0
 71
     7
 72
     1
  1
{\fＭＳ ゴシック|b0|i0|c128|p49;ＤＨ＝2,183}
 11
6.123031769111886E-17
 21
1.0
 31
0.0
 73
     1
 44
1.0
  0
LINE
  5
109
330
1F
100
AcDbEntity
  8
0-4_枠
  6
Continuous
 62
    92
370
    13
100
AcDbLine
 10
-4890.000018557986
 20
-457.250083820241
 30
0.0
 11
-3101.000018557986
 21
-457.250083820241
 31
0.0
  0
LINE
  5
10A
330
1F
100
AcDbEntity
  8
0-4_枠
  6
Continuous
 62
    92
370
    13
100
AcDbLine
 10
-4890.000018557986
 20
-514.2500838202403
 30
0.0
 11
-4890.000018557986
 21
-457.250083820241
 31
0.0
  0
LINE
  5
10B
330
1F
100
AcDbEntity
  8
0-4_枠
  6
Continuous
 62
    92
370
    13
100
AcDbLine
 10
-4890.000018557986
 20
-514.2500838202403
 30
0.0
 11
-4009.000018557984
 21
-514.2500838202403
 31
0.0
  0
LINE
  5
10C
330
1F
100
AcDbEntity
  8
0-4_枠
  6
Continuous
 62
    92
370
    13
100
AcDbLine
 10
-3109.000018557984
 20
-514.2500838202403
 30
0.0
 11
-3101.000018557986
 21
-514.2500838202403
 31
0.0
  0
LINE
  5
10D
330
1F
100
AcDbEntity
  8
0-4_枠
  6
Continuous
 62
    92
370
    13
100
AcDbLine
 10
-3101.000018557986
 20
-514.2500838202403
 30
0.0
 11
-3101.000018557986
 21
-457.250083820241
 31
0.0
  0
LINE
  5
10E
330
1F
100
AcDbEntity
  8
0-4_枠
  6
Continuous
 62
    92
370
    13
100
AcDbLine
 10
-3982.000018557987
 20
-2690.250083820241
 30
0.0
 11
-3982.000018557987
 21
-2699.250083820241
 31
0.0
  0
LINE
  5
10F
330
1F
100
AcDbEntity
  8
0-4_枠
  6
Continuous
 62
    92
370
    13
100
AcDbLine
 10
-4010.000018557985
 20
-2699.250083820241
 30
0.0
 11
-3982.000018557987
 21
-2699.250083820241
 31
0.0
  0
LINE
  5
110
330
1F
100
AcDbEntity
  8
0-4_枠
  6
Continuous
 62
    92
370
    13
100
AcDbLine
 10
-4010.000018557985
 20
-502.2500838202404
 30
0.0
 11
-4010.000018557985
 21
-2699.250083820241
 31
0.0
  0
LINE
  5
111
330
1F
100
AcDbEntity
  8
0-0_補助線
  6
JWW_HOJO
 62
     7
370
     9
100
AcDbLine
 10
-5490.000018557986
 20
-2699.250083820241
 30
0.0
 11
5699.998762800888
 21
-2699.250083820241
 31
0.0
  0
LWPOLYLINE
  5
112
330
1F
100
AcDbEntity
  8
0-B_寸法
  6
Continuous
 62
     7
370
     9
100
AcDbPolyline
 90
        4
 70
     1
 43
3.0
 10
-2564.500018557985
 20
-2690.250083820241
 42
0.4142135623731
 10
-2566.000018557985
 20
-2688.750083820242
 42
0.4142135623731
 10
-2567.500018557985
 20
-2690.250083820241
 42
0.4142135623731
 10
-2566.000018557985
 20
-2691.750083820241
 42
0.4142135623731
  0
LINE
  5
113
330
1F
100
AcDbEntity
  8
0-B_寸法
  6
Continuous
 62
   120
370
     5
100
AcDbLine
 10
-2566.000018557985
 20
-2690.250083820241
 30
0.0
 11
-2366.000018557984
 21
-2690.250083820241
 31
0.0
  0
LWPOLYLINE
  5
114
330
1F
100
AcDbEntity
  8
0-B_寸法
  6
Continuous
 62
     7
370
     9
100
AcDbPolyline
 90
        4
 70
     1
 43
3.0
 10
-170.5000185579829
 20
-2690.250083820241
 42
0.4142135623731
 10
-172.0000185579829
 20
-2688.750083820242
 42
0.4142135623731
 10
-173.5000185579829
 20
-2690.250083820241
 42
0.4142135623731
 10
-172.0000185579829
 20
-2691.750083820241
 42
0.4142135623731
  0
LINE
  5
115
330
1F
100
AcDbEntity
  8
0-B_寸法
  6
Continuous
 62
   120
370
     5
100
AcDbLine
 10
-172.0000185579829
 20
-2690.250083820241
 30
0.0
 11
27.99998144201936
 21
-2690.250083820241
 31
0.0
  0
LINE
  5
116
330
1F
100
AcDbEntity
  8
0-B_寸法
  6
Continuous
 62
   120
370
     5
100
AcDbLine
 10
-2566.000018557985
 20
-507.2500838202409
 30
0.0
 11
-2566.000018557985
 21
-2690.250083820241
 31
0.0
  0
LWPOLYLINE
  5
117
330
1F
100
AcDbEntity
  8
0-B_寸法
  6
Continuous
 62
     7
370
     9
100
AcDbPolyline
 90
        4
 70
     1
 43
3.0
 10
-2564.500018557985
 20
-507.2500838202409
 42
0.4142135623731
 10
-2566.000018557985
 20
-505.7500838202409
 42
0.4142135623731
 10
-2567.500018557985
 20
-507.2500838202409
 42
0.4142135623731
 10
-2566.000018557985
 20
-508.7500838202409
 42
0.4142135623731
  0
LINE
  5
118
330
1F
100
AcDbEntity
  8
0-B_寸法
  6
Continuous
 62
   120
370
     5
100
AcDbLine
 10
-2566.000018557985
 20
-507.2500838202409
 30
0.0
 11
-2366.000018557984
 21
-507.2500838202409
 31
0.0
  0
LINE
  5
119
330
1F
100
AcDbEntity
  8
0-4_枠
  6
JWW_DASHED1
 62
   120
370
     5
100
AcDbLine
 10
-1498.000018557986
 20
-2690.250083820241
 30
0.0
 11
-1498.000018557986
 21
-507.2500838202409
 31
0.0
  0
LINE
  5
11A
330
1F
100
AcDbEntity
  8
0-4_枠
  6
Continuous
 62
    92
370
    13
100
AcDbLine
 10
-1498.000018557986
 20
-507.2500838202409
 30
0.0
 11
-1498.000018557986
 21
-502.2500838202404
 31
0.0
  0
LINE
  5
11B
330
1F
100
AcDbEntity
  8
0-4_枠
  6
Continuous
 62
    92
370
    13
100
AcDbLine
 10
-2316.000018557984
 20
-502.2500838202404
 30
0.0
 11
-707.0000185579858
 21
-502.2500838202404
 31
0.0
  0
LINE
  5
11C
330
1F
100
AcDbEntity
  8
0-4_枠
  6
Continuous
 62
    92
370
    13
100
AcDbLine
 10
-2316.000018557984
 20
-470.2500838202405
 30
0.0
 11
-707.0000185579858
 21
-470.2500838202405
 31
0.0
  0
LINE
  5
11D
330
1F
100
AcDbEntity
  8
0-B_寸法
  6
Continuous
 62
   120
370
     5
100
AcDbLine
 10
-172.0000185579829
 20
-507.2500838202409
 30
0.0
 11
-172.0000185579829
 21
-2690.250083820241
 31
0.0
  0
LWPOLYLINE
  5
11E
330
1F
100
AcDbEntity
  8
0-B_寸法
  6
Continuous
 62
     7
370
     9
100
AcDbPolyline
 90
        4
 70
     1
 43
3.0
 10
-170.5000185579829
 20
-507.2500838202409
 42
0.4142135623731
 10
-172.0000185579829
 20
-505.7500838202409
 42
0.4142135623731
 10
-173.5000185579829
 20
-507.2500838202409
 42
0.4142135623731
 10
-172.0000185579829
 20
-508.7500838202409
 42
0.4142135623731
  0
LINE
  5
11F
330
1F
100
AcDbEntity
  8
0-B_寸法
  6
Continuous
 62
   120
370
     5
100
AcDbLine
 10
-172.0000185579829
 20
-507.2500838202409
 30
0.0
 11
27.99998144201936
 21
-507.2500838202409
 31
0.0
  0
LINE
  5
120
330
1F
100
AcDbEntity
  8
0-4_枠
  6
Continuous
 62
    92
370
    13
100
AcDbLine
 10
77.99998144201652
 20
-502.2500838202404
 30
0.0
 11
1492.999981442016
 21
-502.2500838202404
 31
0.0
  0
LINE
  5
121
330
1F
100
AcDbEntity
  8
0-4_枠
  6
Continuous
 62
    92
370
    13
100
AcDbLine
 10
77.99998144201652
 20
-470.2500838202405
 30
0.0
 11
1492.999981442016
 21
-470.2500838202405
 31
0.0
  0
LINE
  5
122
330
1F
100
AcDbEntity
  8
0-4_枠
  6
JWW_DASHED1
 62
   120
370
     5
100
AcDbLine
 10
798.9999814420164
 20
-2690.250083820241
 30
0.0
 11
798.9999814420164
 21
-507.2500838202409
 31
0.0
  0
LINE
  5
123
330
1F
100
AcDbEntity
  8
0-4_枠
  6
Continuous
 62
    92
370
    13
100
AcDbLine
 10
798.9999814420164
 20
-507.2500838202409
 30
0.0
 11
798.9999814420164
 21
-502.2500838202404
 31
0.0
  0
MTEXT
  5
124
330
1F
100
AcDbEntity
  8
0-B_寸法
  6
Continuous
 62
     7
370
    70
100
AcDbMText
 10
-2581.000018557985
 20
-1821.925083820241
 30
0.0
 40
57.14999999999999
 41
412.5
 46
0.0
 71
     7
 72
     1
  1
{\fＭＳ ゴシック|b0|i0|c128|p49;ＤＨ＝2,183}
 11
6.123031769111886E-17
 21
1.0
 31
0.0
 73
     1
 44
1.0
  0
MTEXT
  5
125
330
1F
100
AcDbEntity
  8
0-B_寸法
  6
Continuous
 62
     7
370
    70
100
AcDbMText
 10
-187.0000185579829
 20
-1821.925083820241
 30
0.0
 40
57.14999999999999
 41
412.5
 46
0.0
 71
     7
 72
     1
  1
{\fＭＳ ゴシック|b0|i0|c128|p49;ＤＨ＝2,183}
 11
6.123031769111886E-17
 21
1.0
 31
0.0
 73
     1
 44
1.0
  0
LINE
  5
126
330
1F
100
AcDbEntity
  8
0-4_枠
  6
Continuous
 62
    92
370
    13
100
AcDbLine
 10
-2316.000018557984
 20
-514.2500838202403
 30
0.0
 11
-2316.000018557984
 21
-457.250083820241
 31
0.0
  0
LINE
  5
127
330
1F
100
AcDbEntity
  8
0-4_枠
  6
Continuous
 62
    92
370
    13
100
AcDbLine
 10
-2316.000018557984
 20
-514.2500838202403
 30
0.0
 11
-1525.000018557985
 21
-514.2500838202403
 31
0.0
  0
LINE
  5
128
330
1F
100
AcDbEntity
  8
0-4_枠
  6
Continuous
 62
    92
370
    13
100
AcDbLine
 10
-715.0000185579853
 20
-514.2500838202403
 30
0.0
 11
-707.0000185579858
 21
-514.2500838202403
 31
0.0
  0
LINE
  5
129
330
1F
100
AcDbEntity
  8
0-4_枠
  6
Continuous
 62
    92
370
    13
100
AcDbLine
 10
-707.0000185579858
 20
-514.2500838202403
 30
0.0
 11
-707.0000185579858
 21
-457.250083820241
 31
0.0
  0
LINE
  5
12A
330
1F
100
AcDbEntity
  8
0-4_枠
  6
Continuous
 62
    92
370
    13
100
AcDbLine
 10
77.99998144201652
 20
-514.2500838202403
 30
0.0
 11
77.99998144201652
 21
-457.250083820241
 31
0.0
  0
LINE
  5
12B
330
1F
100
AcDbEntity
  8
0-4_枠
  6
Continuous
 62
    92
370
    13
100
AcDbLine
 10
77.99998144201652
 20
-514.2500838202403
 30
0.0
 11
771.9999814420163
 21
-514.2500838202403
 31
0.0
  0
LINE
  5
12C
330
1F
100
AcDbEntity
  8
0-4_枠
  6
Continuous
 62
    92
370
    13
100
AcDbLine
 10
1484.999981442018
 20
-514.2500838202403
 30
0.0
 11
1492.999981442016
 21
-514.2500838202403
 31
0.0
  0
LINE
  5
12D
330
1F
100
AcDbEntity
  8
0-4_枠
  6
Continuous
 62
    92
370
    13
100
AcDbLine
 10
1492.999981442016
 20
-514.2500838202403
 30
0.0
 11
1492.999981442016
 21
-457.250083820241
 31
0.0
  0
LINE
  5
12E
330
1F
100
AcDbEntity
  8
0-4_枠
  6
Continuous
 62
    92
370
    13
100
AcDbLine
 10
-1498.000018557986
 20
-2690.250083820241
 30
0.0
 11
-1498.000018557986
 21
-2699.250083820241
 31
0.0
  0
LINE
  5
12F
330
1F
100
AcDbEntity
  8
0-4_枠
  6
Continuous
 62
    92
370
    13
100
AcDbLine
 10
-1526.000018557986
 20
-2699.250083820241
 30
0.0
 11
-1498.000018557986
 21
-2699.250083820241
 31
0.0
  0
LINE
  5
130
330
1F
100
AcDbEntity
  8
0-4_枠
  6
Continuous
 62
    92
370
    13
100
AcDbLine
 10
798.9999814420164
 20
-2690.250083820241
 30
0.0
 11
798.9999814420164
 21
-2699.250083820241
 31
0.0
  0
LINE
  5
131
330
1F
100
AcDbEntity
  8
0-4_枠
  6
Continuous
 62
    92
370
    13
100
AcDbLine
 10
770.999981442016
 20
-2699.250083820241
 30
0.0
 11
798.9999814420164
 21
-2699.250083820241
 31
0.0
  0
LINE
  5
132
330
1F
100
AcDbEntity
  8
0-4_枠
  6
Continuous
 62
    92
370
    13
100
AcDbLine
 10
-1526.000018557986
 20
-502.2500838202404
 30
0.0
 11
-1526.000018557986
 21
-2699.250083820241
 31
0.0
  0
LINE
  5
133
330
1F
100
AcDbEntity
  8
0-4_枠
  6
Continuous
 62
    92
370
    13
100
AcDbLine
 10
770.999981442016
 20
-502.2500838202404
 30
0.0
 11
770.999981442016
 21
-2699.250083820241
 31
0.0
  0
LINE
  5
134
330
1F
100
AcDbEntity
  8
0-4_枠
  6
Continuous
 62
    92
370
    13
100
AcDbLine
 10
-2316.000018557984
 20
3462.000148463893
 30
0.0
 11
-707.0000185579858
 21
3462.000148463893
 31
0.0
  0
LINE
  5
135
330
1F
100
AcDbEntity
  8
0-4_枠
  6
Continuous
 62
    92
370
    13
100
AcDbLine
 10
-4890.000018557986
 20
3462.000148463893
 30
0.0
 11
-3101.000018557986
 21
3462.000148463893
 31
0.0
  0
LINE
  5
136
330
1F
100
AcDbEntity
  8
0-4_枠
  6
Continuous
 62
    92
370
    13
100
AcDbLine
 10
-4890.000018557986
 20
3417.000148463893
 30
0.0
 11
-3101.000018557986
 21
3417.000148463893
 31
0.0
  0
LWPOLYLINE
  5
137
330
1F
100
AcDbEntity
  8
0-B_寸法
  6
Continuous
 62
     7
370
     9
100
AcDbPolyline
 90
        4
 70
     1
 43
3.0
 10
-5138.500018557985
 20
1429.000148463893
 42
0.4142135623731
 10
-5140.000018557986
 20
1430.500148463893
 42
0.4142135623731
 10
-5141.500018557986
 20
1429.000148463893
 42
0.4142135623731
 10
-5140.000018557986
 20
1427.500148463893
 42
0.4142135623731
  0
LINE
  5
138
330
1F
100
AcDbEntity
  8
0-B_寸法
  6
Continuous
 62
   120
370
     5
100
AcDbLine
 10
-5140.000018557986
 20
3412.000148463892
 30
0.0
 11
-5140.000018557986
 21
1429.000148463893
 31
0.0
  0
LWPOLYLINE
  5
139
330
1F
100
AcDbEntity
  8
0-B_寸法
  6
Continuous
 62
     7
370
     9
100
AcDbPolyline
 90
        4
 70
     1
 43
3.0
 10
-5138.500018557985
 20
3412.000148463892
 42
0.4142135623731
 10
-5140.000018557986
 20
3413.500148463892
 42
0.4142135623731
 10
-5141.500018557986
 20
3412.000148463892
 42
0.4142135623731
 10
-5140.000018557986
 20
3410.500148463892
 42
0.4142135623731
  0
LINE
  5
13A
330
1F
100
AcDbEntity
  8
0-B_寸法
  6
Continuous
 62
   120
370
     5
100
AcDbLine
 10
-5140.000018557986
 20
1429.000148463893
 30
0.0
 11
-4940.000018557985
 21
1429.000148463893
 31
0.0
  0
LINE
  5
13B
330
1F
100
AcDbEntity
  8
0-B_寸法
  6
Continuous
 62
   120
370
     5
100
AcDbLine
 10
-5140.000018557986
 20
3412.000148463892
 30
0.0
 11
-4940.000018557985
 21
3412.000148463892
 31
0.0
  0
LINE
  5
13C
330
1F
100
AcDbEntity
  8
0-4_枠
  6
Continuous
 62
    92
370
    13
100
AcDbLine
 10
-4890.000018557986
 20
3449.000148463893
 30
0.0
 11
-3101.000018557986
 21
3449.000148463893
 31
0.0
  0
LINE
  5
13D
330
1F
100
AcDbEntity
  8
0-4_枠
  6
JWW_DASHED1
 62
   120
370
     5
100
AcDbLine
 10
-3982.000018557987
 20
1429.000148463893
 30
0.0
 11
-3982.000018557987
 21
3412.000148463892
 31
0.0
  0
LINE
  5
13E
330
1F
100
AcDbEntity
  8
0-4_枠
  6
Continuous
 62
    92
370
    13
100
AcDbLine
 10
-3982.000018557987
 20
3412.000148463892
 30
0.0
 11
-3982.000018557987
 21
3417.000148463893
 31
0.0
  0
LWPOLYLINE
  5
13F
330
1F
100
AcDbEntity
  8
0-B_寸法
  6
Continuous
 62
     7
370
     9
100
AcDbPolyline
 90
        4
 70
     1
 43
3.0
 10
-2564.500018557985
 20
1429.000148463893
 42
0.4142135623731
 10
-2566.000018557985
 20
1430.500148463893
 42
0.4142135623731
 10
-2567.500018557985
 20
1429.000148463893
 42
0.4142135623731
 10
-2566.000018557985
 20
1427.500148463893
 42
0.4142135623731
  0
LINE
  5
140
330
1F
100
AcDbEntity
  8
0-B_寸法
  6
Continuous
 62
   120
370
     5
100
AcDbLine
 10
-2566.000018557985
 20
3412.000148463892
 30
0.0
 11
-2566.000018557985
 21
1429.000148463893
 31
0.0
  0
LWPOLYLINE
  5
141
330
1F
100
AcDbEntity
  8
0-B_寸法
  6
Continuous
 62
     7
370
     9
100
AcDbPolyline
 90
        4
 70
     1
 43
3.0
 10
-2564.500018557985
 20
3412.000148463892
 42
0.4142135623731
 10
-2566.000018557985
 20
3413.500148463892
 42
0.4142135623731
 10
-2567.500018557985
 20
3412.000148463892
 42
0.4142135623731
 10
-2566.000018557985
 20
3410.500148463892
 42
0.4142135623731
  0
LINE
  5
142
330
1F
100
AcDbEntity
  8
0-B_寸法
  6
Continuous
 62
   120
370
     5
100
AcDbLine
 10
-2566.000018557985
 20
1429.000148463893
 30
0.0
 11
-2366.000018557984
 21
1429.000148463893
 31
0.0
  0
LINE
  5
143
330
1F
100
AcDbEntity
  8
0-B_寸法
  6
Continuous
 62
   120
370
     5
100
AcDbLine
 10
-2566.000018557985
 20
3412.000148463892
 30
0.0
 11
-2366.000018557984
 21
3412.000148463892
 31
0.0
  0
LINE
  5
144
330
1F
100
AcDbEntity
  8
0-4_枠
  6
JWW_DASHED1
 62
   120
370
     5
100
AcDbLine
 10
-1498.000018557986
 20
1429.000148463893
 30
0.0
 11
-1498.000018557986
 21
3412.000148463892
 31
0.0
  0
LINE
  5
145
330
1F
100
AcDbEntity
  8
0-4_枠
  6
Continuous
 62
    92
370
    13
100
AcDbLine
 10
-1498.000018557986
 20
3412.000148463892
 30
0.0
 11
-1498.000018557986
 21
3417.000148463893
 31
0.0
  0
LINE
  5
146
330
1F
100
AcDbEntity
  8
0-4_枠
  6
Continuous
 62
    92
370
    13
100
AcDbLine
 10
-2316.000018557984
 20
3417.000148463893
 30
0.0
 11
-707.0000185579858
 21
3417.000148463893
 31
0.0
  0
LINE
  5
147
330
1F
100
AcDbEntity
  8
0-4_枠
  6
Continuous
 62
    92
370
    13
100
AcDbLine
 10
-2316.000018557984
 20
3449.000148463893
 30
0.0
 11
-707.0000185579858
 21
3449.000148463893
 31
0.0
  0
LWPOLYLINE
  5
148
330
1F
100
AcDbEntity
  8
0-B_寸法
  6
Continuous
 62
     7
370
     9
100
AcDbPolyline
 90
        4
 70
     1
 43
3.0
 10
-170.5000185579829
 20
1429.000148463893
 42
0.4142135623731
 10
-172.0000185579829
 20
1430.500148463893
 42
0.4142135623731
 10
-173.5000185579829
 20
1429.000148463893
 42
0.4142135623731
 10
-172.0000185579829
 20
1427.500148463893
 42
0.4142135623731
  0
LINE
  5
149
330
1F
100
AcDbEntity
  8
0-B_寸法
  6
Continuous
 62
   120
370
     5
100
AcDbLine
 10
-172.0000185579829
 20
3412.000148463892
 30
0.0
 11
-172.0000185579829
 21
1429.000148463893
 31
0.0
  0
LWPOLYLINE
  5
14A
330
1F
100
AcDbEntity
  8
0-B_寸法
  6
Continuous
 62
     7
370
     9
100
AcDbPolyline
 90
        4
 70
     1
 43
3.0
 10
-170.5000185579829
 20
3412.000148463892
 42
0.4142135623731
 10
-172.0000185579829
 20
3413.500148463892
 42
0.4142135623731
 10
-173.5000185579829
 20
3412.000148463892
 42
0.4142135623731
 10
-172.0000185579829
 20
3410.500148463892
 42
0.4142135623731
  0
LINE
  5
14B
330
1F
100
AcDbEntity
  8
0-B_寸法
  6
Continuous
 62
   120
370
     5
100
AcDbLine
 10
-172.0000185579829
 20
1429.000148463893
 30
0.0
 11
27.99998144201936
 21
1429.000148463893
 31
0.0
  0
LINE
  5
14C
330
1F
100
AcDbEntity
  8
0-B_寸法
  6
Continuous
 62
   120
370
     5
100
AcDbLine
 10
-172.0000185579829
 20
3412.000148463892
 30
0.0
 11
27.99998144201936
 21
3412.000148463892
 31
0.0
  0
LINE
  5
14D
330
1F
100
AcDbEntity
  8
0-4_枠
  6
Continuous
 62
    92
370
    13
100
AcDbLine
 10
77.99998144201652
 20
3417.000148463893
 30
0.0
 11
1492.999981442016
 21
3417.000148463893
 31
0.0
  0
LINE
  5
14E
330
1F
100
AcDbEntity
  8
0-4_枠
  6
Continuous
 62
    92
370
    13
100
AcDbLine
 10
77.99998144201652
 20
3449.000148463893
 30
0.0
 11
1492.999981442016
 21
3449.000148463893
 31
0.0
  0
LINE
  5
14F
330
1F
100
AcDbEntity
  8
0-4_枠
  6
JWW_DASHED1
 62
   120
370
     5
100
AcDbLine
 10
798.9999814420164
 20
1429.000148463893
 30
0.0
 11
798.9999814420164
 21
3412.000148463892
 31
0.0
  0
LINE
  5
150
330
1F
100
AcDbEntity
  8
0-4_枠
  6
Continuous
 62
    92
370
    13
100
AcDbLine
 10
798.9999814420164
 20
3412.000148463892
 30
0.0
 11
798.9999814420164
 21
3417.000148463893
 31
0.0
  0
LINE
  5
151
330
1F
100
AcDbEntity
  8
0-4_枠
  6
Continuous
 62
    92
370
    13
100
AcDbLine
 10
77.99998144201652
 20
3462.000148463893
 30
0.0
 11
1492.999981442016
 21
3462.000148463893
 31
0.0
  0
MTEXT
  5
152
330
1F
100
AcDbEntity
  8
0-B_寸法
  6
Continuous
 62
     7
370
    70
100
AcDbMText
 10
-5155.000018557986
 20
2211.325148463893
 30
0.0
 40
57.14999999999999
 41
412.5
 46
0.0
 71
     7
 72
     1
  1
{\fＭＳ ゴシック|b0|i0|c128|p49;ＤＨ＝1,983}
 11
6.123031769111886E-17
 21
1.0
 31
0.0
 73
     1
 44
1.0
  0
MTEXT
  5
153
330
1F
100
AcDbEntity
  8
0-B_寸法
  6
Continuous
 62
     7
370
    70
100
AcDbMText
 10
-2581.000018557985
 20
2211.325148463893
 30
0.0
 40
57.14999999999999
 41
412.5
 46
0.0
 71
     7
 72
     1
  1
{\fＭＳ ゴシック|b0|i0|c128|p49;ＤＨ＝1,983}
 11
6.123031769111886E-17
 21
1.0
 31
0.0
 73
     1
 44
1.0
  0
MTEXT
  5
154
330
1F
100
AcDbEntity
  8
0-B_寸法
  6
Continuous
 62
     7
370
    70
100
AcDbMText
 10
-187.0000185579829
 20
2211.325148463893
 30
0.0
 40
57.14999999999999
 41
412.5
 46
0.0
 71
     7
 72
     1
  1
{\fＭＳ ゴシック|b0|i0|c128|p49;ＤＨ＝1,983}
 11
6.123031769111886E-17
 21
1.0
 31
0.0
 73
     1
 44
1.0
  0
LINE
  5
155
330
1F
100
AcDbEntity
  8
0-4_枠
  6
Continuous
 62
    92
370
    13
100
AcDbLine
 10
-4890.000018557986
 20
3405.000148463893
 30
0.0
 11
-4890.000018557986
 21
3462.000148463893
 31
0.0
  0
LINE
  5
156
330
1F
100
AcDbEntity
  8
0-4_枠
  6
Continuous
 62
    92
370
    13
100
AcDbLine
 10
-4890.000018557986
 20
3405.000148463893
 30
0.0
 11
-4009.000018557984
 21
3405.000148463893
 31
0.0
  0
LINE
  5
157
330
1F
100
AcDbEntity
  8
0-4_枠
  6
Continuous
 62
    92
370
    13
100
AcDbLine
 10
-3109.000018557984
 20
3405.000148463893
 30
0.0
 11
-3101.000018557986
 21
3405.000148463893
 31
0.0
  0
LINE
  5
158
330
1F
100
AcDbEntity
  8
0-4_枠
  6
Continuous
 62
    92
370
    13
100
AcDbLine
 10
-3101.000018557986
 20
3405.000148463893
 30
0.0
 11
-3101.000018557986
 21
3462.000148463893
 31
0.0
  0
LINE
  5
159
330
1F
100
AcDbEntity
  8
0-4_枠
  6
Continuous
 62
    92
370
    13
100
AcDbLine
 10
-2316.000018557984
 20
3405.000148463893
 30
0.0
 11
-2316.000018557984
 21
3462.000148463893
 31
0.0
  0
LINE
  5
15A
330
1F
100
AcDbEntity
  8
0-4_枠
  6
Continuous
 62
    92
370
    13
100
AcDbLine
 10
-2316.000018557984
 20
3405.000148463893
 30
0.0
 11
-1525.000018557985
 21
3405.000148463893
 31
0.0
  0
LINE
  5
15B
330
1F
100
AcDbEntity
  8
0-4_枠
  6
Continuous
 62
    92
370
    13
100
AcDbLine
 10
-715.0000185579853
 20
3405.000148463893
 30
0.0
 11
-707.0000185579858
 21
3405.000148463893
 31
0.0
  0
LINE
  5
15C
330
1F
100
AcDbEntity
  8
0-4_枠
  6
Continuous
 62
    92
370
    13
100
AcDbLine
 10
-707.0000185579858
 20
3405.000148463893
 30
0.0
 11
-707.0000185579858
 21
3462.000148463893
 31
0.0
  0
LINE
  5
15D
330
1F
100
AcDbEntity
  8
0-4_枠
  6
Continuous
 62
    92
370
    13
100
AcDbLine
 10
77.99998144201652
 20
3405.000148463893
 30
0.0
 11
77.99998144201652
 21
3462.000148463893
 31
0.0
  0
LINE
  5
15E
330
1F
100
AcDbEntity
  8
0-4_枠
  6
Continuous
 62
    92
370
    13
100
AcDbLine
 10
77.99998144201652
 20
3405.000148463893
 30
0.0
 11
771.9999814420163
 21
3405.000148463893
 31
0.0
  0
LINE
  5
15F
330
1F
100
AcDbEntity
  8
0-4_枠
  6
Continuous
 62
    92
370
    13
100
AcDbLine
 10
1484.999981442018
 20
3405.000148463893
 30
0.0
 11
1492.999981442016
 21
3405.000148463893
 31
0.0
  0
LINE
  5
160
330
1F
100
AcDbEntity
  8
0-4_枠
  6
Continuous
 62
    92
370
    13
100
AcDbLine
 10
1492.999981442016
 20
3405.000148463893
 30
0.0
 11
1492.999981442016
 21
3462.000148463893
 31
0.0
  0
LINE
  5
161
330
1F
100
AcDbEntity
  8
0-4_枠
  6
Continuous
 62
    92
370
    13
100
AcDbLine
 10
-3982.000018557987
 20
1429.000148463893
 30
0.0
 11
-3982.000018557987
 21
1420.000148463893
 31
0.0
  0
LINE
  5
162
330
1F
100
AcDbEntity
  8
0-4_枠
  6
Continuous
 62
    92
370
    13
100
AcDbLine
 10
-4010.000018557985
 20
1420.000148463893
 30
0.0
 11
-3982.000018557987
 21
1420.000148463893
 31
0.0
  0
LINE
  5
163
330
1F
100
AcDbEntity
  8
0-4_枠
  6
Continuous
 62
    92
370
    13
100
AcDbLine
 10
-4010.000018557985
 20
3417.000148463893
 30
0.0
 11
-4010.000018557985
 21
1420.000148463893
 31
0.0
  0
LINE
  5
164
330
1F
100
AcDbEntity
  8
0-4_枠
  6
Continuous
 62
    92
370
    13
100
AcDbLine
 10
-1498.000018557986
 20
1429.000148463893
 30
0.0
 11
-1498.000018557986
 21
1420.000148463893
 31
0.0
  0
LINE
  5
165
330
1F
100
AcDbEntity
  8
0-4_枠
  6
Continuous
 62
    92
370
    13
100
AcDbLine
 10
-1526.000018557986
 20
1420.000148463893
 30
0.0
 11
-1498.000018557986
 21
1420.000148463893
 31
0.0
  0
LINE
  5
166
330
1F
100
AcDbEntity
  8
0-4_枠
  6
Continuous
 62
    92
370
    13
100
AcDbLine
 10
-1526.000018557986
 20
3417.000148463893
 30
0.0
 11
-1526.000018557986
 21
1420.000148463893
 31
0.0
  0
LINE
  5
167
330
1F
100
AcDbEntity
  8
0-4_枠
  6
Continuous
 62
    92
370
    13
100
AcDbLine
 10
798.9999814420164
 20
1429.000148463893
 30
0.0
 11
798.9999814420164
 21
1420.000148463893
 31
0.0
  0
LINE
  5
168
330
1F
100
AcDbEntity
  8
0-4_枠
  6
Continuous
 62
    92
370
    13
100
AcDbLine
 10
770.9999814420164
 20
1420.000148463893
 30
0.0
 11
798.9999814420164
 21
1420.000148463893
 31
0.0
  0
LINE
  5
169
330
1F
100
AcDbEntity
  8
0-4_枠
  6
Continuous
 62
    92
370
    13
100
AcDbLine
 10
770.9999814420164
 20
3417.000148463893
 30
0.0
 11
770.9999814420164
 21
1420.000148463893
 31
0.0
  0
LINE
  5
16A
330
1F
100
AcDbEntity
  8
0-0_補助線
  6
JWW_HOJO
 62
     7
370
     9
100
AcDbLine
 10
-5490.000018557986
 20
1420.000148463893
 30
0.0
 11
5689.998977248734
 21
1420.000148463893
 31
0.0
  0
LINE
  5
16B
330
1F
100
AcDbEntity
  8
引手
  6
JWW_CENTER1
 62
     7
370
     9
100
AcDbLine
 10
-3121.925852756659
 20
2386.50003959037
 30
0.0
 11
-3194.435549365819
 21
2386.50003959037
 31
0.0
  0
LINE
  5
16C
330
1F
100
AcDbEntity
  8
引手
  6
JWW_CENTER1
 62
     7
370
     9
100
AcDbLine
 10
-3160.000018557983
 20
2301.269371054846
 30
0.0
 11
-3160.000018557983
 21
2472.119642478982
 31
0.0
  0
LINE
  5
16D
330
1F
100
AcDbEntity
  8
引手
  6
JWW_DASHED1
 62
     7
370
     9
100
AcDbLine
 10
-3176.000018557982
 20
2335.50003959037
 30
0.0
 11
-3176.000018557982
 21
2437.500039590371
 31
0.0
  0
LINE
  5
16E
330
1F
100
AcDbEntity
  8
引手
  6
JWW_DASHED1
 62
     7
370
     9
100
AcDbLine
 10
-3144.000018557984
 20
2335.50003959037
 30
0.0
 11
-3176.000018557982
 21
2335.50003959037
 31
0.0
  0
LINE
  5
16F
330
1F
100
AcDbEntity
  8
引手
  6
JWW_DASHED1
 62
     7
370
     9
100
AcDbLine
 10
-3144.000018557984
 20
2335.50003959037
 30
0.0
 11
-3144.000018557984
 21
2437.500039590371
 31
0.0
  0
LINE
  5
170
330
1F
100
AcDbEntity
  8
引手
  6
JWW_DASHED1
 62
     7
370
     9
100
AcDbLine
 10
-3144.000018557984
 20
2437.500039590371
 30
0.0
 11
-3176.000018557982
 21
2437.500039590371
 31
0.0
  0
LINE
  5
171
330
1F
100
AcDbEntity
  8
引手
  6
Continuous
 62
     7
370
     9
100
AcDbLine
 10
-3141.000018557982
 20
2331.50003959037
 30
0.0
 11
-3179.000018557983
 21
2331.50003959037
 31
0.0
  0
LINE
  5
172
330
1F
100
AcDbEntity
  8
引手
  6
Continuous
 62
     7
370
     9
100
AcDbLine
 10
-3147.500018557983
 20
2347.500039590371
 30
0.0
 11
-3172.500018557982
 21
2347.500039590371
 31
0.0
  0
LINE
  5
173
330
1F
100
AcDbEntity
  8
引手
  6
Continuous
 62
     7
370
     9
100
AcDbLine
 10
-3147.500018557983
 20
2425.50003959037
 30
0.0
 11
-3172.500018557982
 21
2425.50003959037
 31
0.0
  0
LINE
  5
174
330
1F
100
AcDbEntity
  8
引手
  6
Continuous
 62
     7
370
     9
100
AcDbLine
 10
-3141.000018557982
 20
2441.500039590371
 30
0.0
 11
-3179.000018557983
 21
2441.500039590371
 31
0.0
  0
LINE
  5
175
330
1F
100
AcDbEntity
  8
引手
  6
Continuous
 62
     7
370
     9
100
AcDbLine
 10
-3141.000018557982
 20
2331.50003959037
 30
0.0
 11
-3141.000018557982
 21
2441.500039590371
 31
0.0
  0
LINE
  5
176
330
1F
100
AcDbEntity
  8
引手
  6
Continuous
 62
     7
370
     9
100
AcDbLine
 10
-3147.500018557983
 20
2347.500039590371
 30
0.0
 11
-3147.500018557983
 21
2425.50003959037
 31
0.0
  0
LINE
  5
177
330
1F
100
AcDbEntity
  8
引手
  6
Continuous
 62
     7
370
     9
100
AcDbLine
 10
-3172.500018557982
 20
2347.500039590371
 30
0.0
 11
-3172.500018557982
 21
2425.50003959037
 31
0.0
  0
LINE
  5
178
330
1F
100
AcDbEntity
  8
引手
  6
Continuous
 62
     7
370
     9
100
AcDbLine
 10
-3179.000018557983
 20
2331.50003959037
 30
0.0
 11
-3179.000018557983
 21
2441.500039590371
 31
0.0
  0
LINE
  5
179
330
1F
100
AcDbEntity
  8
0-2_扉
  6
Continuous
 62
     7
370
     9
100
AcDbLine
 10
-4009.000018557984
 20
3412.000148463892
 30
0.0
 11
-4009.000018557984
 21
1429.000039590371
 31
0.0
  0
LINE
  5
17A
330
1F
100
AcDbEntity
  8
0-2_扉
  6
Continuous
 62
     7
370
     9
100
AcDbLine
 10
-3905.500068045949
 20
1429.621422844964
 30
0.0
 11
-3905.500068045949
 21
3412.000148463892
 31
0.0
  0
LINE
  5
17B
330
1F
100
AcDbEntity
  8
0-2_扉
  6
Continuous
 62
     7
370
     9
100
AcDbLine
 10
-3212.499969070018
 20
1429.621422844964
 30
0.0
 11
-3212.499969070018
 21
3412.000148463892
 31
0.0
  0
LINE
  5
17C
330
1F
100
AcDbEntity
  8
0-2_扉
  6
Continuous
 62
     7
370
     9
100
AcDbLine
 10
-3890.500018557984
 20
2374.049057419235
 30
0.0
 11
-3890.500018557984
 21
3277.000148463893
 31
0.0
  0
LINE
  5
17D
330
1F
100
AcDbEntity
  8
0-2_扉
  6
Continuous
 62
     7
370
     9
100
AcDbLine
 10
-3890.500018557984
 20
2232.000039590371
 30
0.0
 11
-3890.500018557984
 21
2374.049057419235
 31
0.0
  0
LINE
  5
17E
330
1F
100
AcDbEntity
  8
0-2_扉
  6
Continuous
 62
     7
370
     9
100
AcDbLine
 10
-3850.499886590078
 20
2087.00253873258
 30
0.0
 11
-3868.177729838601
 21
2104.68025826119
 31
0.0
  0
LINE
  5
17F
330
1F
100
AcDbEntity
  8
0-2_扉
  6
Continuous
 62
     7
370
     9
100
AcDbLine
 10
-3890.500018557984
 20
2232.000039590371
 30
0.0
 11
-3656.499889889276
 21
2232.000039590371
 31
0.0
  0
LINE
  5
180
330
1F
100
AcDbEntity
  8
0-2_扉
  6
Continuous
 62
     7
370
     9
100
AcDbLine
 10
-3850.536012804183
 20
1619.000047838365
 30
0.0
 11
-3850.536012804183
 21
1620.431116052576
 31
0.0
  0
LINE
  5
181
330
1F
100
AcDbEntity
  8
0-2_扉
  6
Continuous
 62
     7
370
     9
100
AcDbLine
 10
-3890.31196429278
 20
3093.997614680109
 30
0.0
 11
-3890.500018557984
 21
3093.997614680109
 31
0.0
  0
LINE
  5
182
330
1F
100
AcDbEntity
  8
0-2_扉
  6
Continuous
 62
     7
370
     9
100
AcDbLine
 10
-3850.536012804183
 20
1619.000047838365
 30
0.0
 11
-3868.213608612883
 21
1601.32239016971
 31
0.0
  0
LINE
  5
183
330
1F
100
AcDbEntity
  8
0-2_扉
  6
Continuous
 62
     7
370
     9
100
AcDbLine
 10
-3227.500018557981
 20
1579.000039590371
 30
0.0
 11
-3227.500018557981
 21
2127.00253873258
 31
0.0
  0
LINE
  5
184
330
1F
100
AcDbEntity
  8
0-2_扉
  6
Continuous
 62
     7
370
     9
100
AcDbLine
 10
-3227.500018557981
 20
2232.000039590371
 30
0.0
 11
-3227.500018557981
 21
3277.000148463893
 31
0.0
  0
LINE
  5
185
330
1F
100
AcDbEntity
  8
0-2_扉
  6
Continuous
 62
     7
370
     9
100
AcDbLine
 10
-3267.500026805977
 20
2087.00253873258
 30
0.0
 11
-3249.822307277364
 21
2104.68025826119
 31
0.0
  0
LINE
  5
186
330
1F
100
AcDbEntity
  8
0-2_扉
  6
Continuous
 62
     7
370
     9
100
AcDbLine
 10
-3267.500026805977
 20
1619.000047838365
 30
0.0
 11
-3249.822307277364
 21
1601.32239016971
 31
0.0
  0
LINE
  5
187
330
1F
100
AcDbEntity
  8
0-2_扉
  6
Continuous
 62
     7
370
     9
100
AcDbLine
 10
-3905.499820606126
 20
3291.999950512035
 30
0.0
 11
-3890.500018557984
 21
3277.000148463893
 31
0.0
  0
LINE
  5
188
330
1F
100
AcDbEntity
  8
0-2_扉
  6
Continuous
 62
     7
370
     9
100
AcDbLine
 10
-3905.499820606126
 20
3291.999950512035
 30
0.0
 11
-3212.499969070016
 21
3291.999950512035
 31
0.0
  0
LINE
  5
189
330
1F
100
AcDbEntity
  8
0-2_扉
  6
Continuous
 62
     7
370
     9
100
AcDbLine
 10
-3212.499969070016
 20
3291.999950512035
 30
0.0
 11
-3227.500018557981
 21
3277.000148463893
 31
0.0
  0
LINE
  5
18A
330
1F
100
AcDbEntity
  8
0-2_扉
  6
Continuous
 62
     7
370
     9
100
AcDbLine
 10
-3890.500018557984
 20
3277.000148463893
 30
0.0
 11
-3227.500018557981
 21
3277.000148463893
 31
0.0
  0
LINE
  5
18B
330
1F
100
AcDbEntity
  8
0-2_扉
  6
Continuous
 62
     7
370
     9
100
AcDbLine
 10
-3905.499820606126
 20
2217.000113822317
 30
0.0
 11
-3890.500018557984
 21
2232.000039590371
 31
0.0
  0
LINE
  5
18C
330
1F
100
AcDbEntity
  8
0-2_扉
  6
Continuous
 62
     7
370
     9
100
AcDbLine
 10
-3905.499820606126
 20
2142.002588220544
 30
0.0
 11
-3890.500018557984
 21
2127.00253873258
 31
0.0
  0
LINE
  5
18D
330
1F
100
AcDbEntity
  8
0-2_扉
  6
Continuous
 62
     7
370
     9
100
AcDbLine
 10
-3227.500018557981
 20
2232.000039590371
 30
0.0
 11
-3800.49992453085
 21
2232.000039590371
 31
0.0
  0
LINE
  5
18E
330
1F
100
AcDbEntity
  8
0-2_扉
  6
Continuous
 62
     7
370
     9
100
AcDbLine
 10
-3227.500018557981
 20
2232.000039590371
 30
0.0
 11
-3212.499969070016
 21
2217.000113822317
 31
0.0
  0
LINE
  5
18F
330
1F
100
AcDbEntity
  8
0-2_扉
  6
Continuous
 62
     7
370
     9
100
AcDbLine
 10
-3212.499969070016
 20
2217.000113822317
 30
0.0
 11
-3905.499820606126
 21
2217.000113822317
 31
0.0
  0
LINE
  5
190
330
1F
100
AcDbEntity
  8
0-2_扉
  6
Continuous
 62
     7
370
     9
100
AcDbLine
 10
-3905.499820606126
 20
2142.002588220544
 30
0.0
 11
-3212.499969070016
 21
2142.002588220544
 31
0.0
  0
LINE
  5
191
330
1F
100
AcDbEntity
  8
0-2_扉
  6
Continuous
 62
     7
370
     9
100
AcDbLine
 10
-3227.500018557981
 20
2127.00253873258
 30
0.0
 11
-3212.499969070016
 21
2142.002588220544
 31
0.0
  0
LINE
  5
192
330
1F
100
AcDbEntity
  8
0-2_扉
  6
Continuous
 62
     7
370
     9
100
AcDbLine
 10
-3890.500018557984
 20
2127.00253873258
 30
0.0
 11
-3227.500018557981
 21
2127.00253873258
 31
0.0
  0
LINE
  5
193
330
1F
100
AcDbEntity
  8
0-2_扉
  6
Continuous
 62
     7
370
     9
100
AcDbLine
 10
-3267.500026805977
 20
2087.00253873258
 30
0.0
 11
-3850.536012804183
 21
2087.00253873258
 31
0.0
  0
LINE
  5
194
330
1F
100
AcDbEntity
  8
0-2_扉
  6
Continuous
 62
     7
370
     9
100
AcDbLine
 10
-3267.500026805977
 20
2087.00253873258
 30
0.0
 11
-3267.500026805977
 21
1619.000047838365
 31
0.0
  0
LINE
  5
195
330
1F
100
AcDbEntity
  8
0-2_扉
  6
Continuous
 62
     7
370
     9
100
AcDbLine
 10
-3850.536012804183
 20
1619.000047838365
 30
0.0
 11
-3850.536012804183
 21
2087.00253873258
 31
0.0
  0
LINE
  5
196
330
1F
100
AcDbEntity
  8
0-2_扉
  6
Continuous
 62
     7
370
     9
100
AcDbLine
 10
-3267.500026805977
 20
1619.000047838365
 30
0.0
 11
-3850.536012804183
 21
1619.000047838365
 31
0.0
  0
LINE
  5
197
330
1F
100
AcDbEntity
  8
0-2_扉
  6
Continuous
 62
     7
370
     9
100
AcDbLine
 10
-3890.500018557984
 20
1579.000039590371
 30
0.0
 11
-3890.500018557984
 21
2127.00253873258
 31
0.0
  0
LINE
  5
198
330
1F
100
AcDbEntity
  8
0-2_扉
  6
Continuous
 62
     7
370
     9
100
AcDbLine
 10
-3890.500018557984
 20
1579.000039590371
 30
0.0
 11
-3905.499820606126
 21
1564.000051962362
 31
0.0
  0
LINE
  5
199
330
1F
100
AcDbEntity
  8
0-2_扉
  6
Continuous
 62
     7
370
     9
100
AcDbLine
 10
-3890.500018557984
 20
1579.000039590371
 30
0.0
 11
-3227.500018557981
 21
1579.000039590371
 31
0.0
  0
LINE
  5
19A
330
1F
100
AcDbEntity
  8
0-2_扉
  6
Continuous
 62
     7
370
     9
100
AcDbLine
 10
-3227.500018557981
 20
1579.000039590371
 30
0.0
 11
-3212.499969070016
 21
1564.000051962362
 31
0.0
  0
LINE
  5
19B
330
1F
100
AcDbEntity
  8
0-2_扉
  6
Continuous
 62
     7
370
     9
100
AcDbLine
 10
-3905.499820606126
 20
1564.000051962362
 30
0.0
 11
-3212.499969070016
 21
1564.000051962362
 31
0.0
  0
LINE
  5
19C
330
1F
100
AcDbEntity
  8
引手
  6
JWW_DASHED1
 62
     7
370
     9
100
AcDbLine
 10
-750.0000680459533
 20
2335.500101450326
 30
0.0
 11
-750.0000680459533
 21
2437.500101450326
 31
0.0
  0
LINE
  5
19D
330
1F
100
AcDbEntity
  8
引手
  6
Continuous
 62
     7
370
     9
100
AcDbLine
 10
-747.0000680459518
 20
2331.500101450326
 30
0.0
 11
-747.0000680459518
 21
2441.500101450326
 31
0.0
  0
LINE
  5
19E
330
1F
100
AcDbEntity
  8
引手
  6
Continuous
 62
     7
370
     9
100
AcDbLine
 10
-753.5000680459527
 20
2347.500101450326
 30
0.0
 11
-753.5000680459527
 21
2425.500101450326
 31
0.0
  0
LINE
  5
19F
330
1F
100
AcDbEntity
  8
引手
  6
JWW_CENTER1
 62
     7
370
     9
100
AcDbLine
 10
-727.9259022446283
 20
2386.500101450325
 30
0.0
 11
-800.4355988537893
 21
2386.500101450325
 31
0.0
  0
LINE
  5
1A0
330
1F
100
AcDbEntity
  8
引手
  6
JWW_CENTER1
 62
     7
370
     9
100
AcDbLine
 10
-766.0000680459524
 20
2301.269432914802
 30
0.0
 11
-766.0000680459524
 21
2472.119704338937
 31
0.0
  0
LINE
  5
1A1
330
1F
100
AcDbEntity
  8
引手
  6
JWW_DASHED1
 62
     7
370
     9
100
AcDbLine
 10
-782.0000680459515
 20
2335.500101450326
 30
0.0
 11
-782.0000680459515
 21
2437.500101450326
 31
0.0
  0
LINE
  5
1A2
330
1F
100
AcDbEntity
  8
引手
  6
JWW_DASHED1
 62
     7
370
     9
100
AcDbLine
 10
-750.0000680459533
 20
2335.500101450326
 30
0.0
 11
-782.0000680459515
 21
2335.500101450326
 31
0.0
  0
LINE
  5
1A3
330
1F
100
AcDbEntity
  8
引手
  6
JWW_DASHED1
 62
     7
370
     9
100
AcDbLine
 10
-750.0000680459533
 20
2437.500101450326
 30
0.0
 11
-782.0000680459515
 21
2437.500101450326
 31
0.0
  0
LINE
  5
1A4
330
1F
100
AcDbEntity
  8
引手
  6
Continuous
 62
     7
370
     9
100
AcDbLine
 10
-747.0000680459518
 20
2331.500101450326
 30
0.0
 11
-785.0000680459531
 21
2331.500101450326
 31
0.0
  0
LINE
  5
1A5
330
1F
100
AcDbEntity
  8
引手
  6
Continuous
 62
     7
370
     9
100
AcDbLine
 10
-753.5000680459527
 20
2347.500101450326
 30
0.0
 11
-778.5000680459522
 21
2347.500101450326
 31
0.0
  0
LINE
  5
1A6
330
1F
100
AcDbEntity
  8
引手
  6
Continuous
 62
     7
370
     9
100
AcDbLine
 10
-753.5000680459527
 20
2425.500101450326
 30
0.0
 11
-778.5000680459522
 21
2425.500101450326
 31
0.0
  0
LINE
  5
1A7
330
1F
100
AcDbEntity
  8
引手
  6
Continuous
 62
     7
370
     9
100
AcDbLine
 10
-747.0000680459518
 20
2441.500101450326
 30
0.0
 11
-785.0000680459531
 21
2441.500101450326
 31
0.0
  0
LINE
  5
1A8
330
1F
100
AcDbEntity
  8
引手
  6
Continuous
 62
     7
370
     9
100
AcDbLine
 10
-778.5000680459522
 20
2347.500101450326
 30
0.0
 11
-778.5000680459522
 21
2425.500101450326
 31
0.0
  0
LINE
  5
1A9
330
1F
100
AcDbEntity
  8
引手
  6
Continuous
 62
     7
370
     9
100
AcDbLine
 10
-785.0000680459531
 20
2331.500101450326
 30
0.0
 11
-785.0000680459531
 21
2441.500101450326
 31
0.0
  0
LINE
  5
1AA
330
1F
100
AcDbEntity
  8
0-2_扉
  6
Continuous
 62
     7
370
     9
100
AcDbLine
 10
-1525.000018557985
 20
3412.000148463892
 30
0.0
 11
-1525.000018557985
 21
1429.000101450326
 31
0.0
  0
LINE
  5
1AB
330
1F
100
AcDbEntity
  8
0-2_扉
  6
Continuous
 62
     7
370
     9
100
AcDbLine
 10
-1421.50006804595
 20
1429.000101450326
 30
0.0
 11
-1421.50006804595
 21
3412.000210323848
 31
0.0
  0
LINE
  5
1AC
330
1F
100
AcDbEntity
  8
0-2_扉
  6
Continuous
 62
     7
370
     9
100
AcDbLine
 10
-818.5000185579855
 20
1429.000101450326
 30
0.0
 11
-818.5000185579855
 21
3412.000210323848
 31
0.0
  0
LINE
  5
1AD
330
1F
100
AcDbEntity
  8
0-2_扉
  6
Continuous
 62
     7
370
     9
100
AcDbLine
 10
-1406.311964292783
 20
3093.997614680109
 30
0.0
 11
-1406.500018557985
 21
3093.997614680109
 31
0.0
  0
LINE
  5
1AE
330
1F
100
AcDbEntity
  8
0-2_扉
  6
Continuous
 62
     7
370
     9
100
AcDbLine
 10
-1366.49988659008
 20
1619.000047838364
 30
0.0
 11
-1366.49988659008
 21
1620.431116052575
 31
0.0
  0
LINE
  5
1AF
330
1F
100
AcDbEntity
  8
0-2_扉
  6
Continuous
 62
     7
370
     9
100
AcDbLine
 10
-1366.49988659008
 20
1619.000047838364
 30
0.0
 11
-1384.177482398779
 21
1601.32239016971
 31
0.0
  0
LINE
  5
1B0
330
1F
100
AcDbEntity
  8
0-2_扉
  6
Continuous
 62
     7
370
     9
100
AcDbLine
 10
-1406.500018557985
 20
2232.000101450326
 30
0.0
 11
-1217.50003835317
 21
2232.000101450326
 31
0.0
  0
LINE
  5
1B1
330
1F
100
AcDbEntity
  8
0-2_扉
  6
Continuous
 62
     7
370
     9
100
AcDbLine
 10
-1366.463760375975
 20
2087.002600592535
 30
0.0
 11
-1384.141603624498
 21
2104.680320121146
 31
0.0
  0
LINE
  5
1B2
330
1F
100
AcDbEntity
  8
0-2_扉
  6
Continuous
 62
     7
370
     9
100
AcDbLine
 10
-1406.500018557985
 20
2232.000101450326
 30
0.0
 11
-1406.500018557985
 21
2374.049057419235
 31
0.0
  0
LINE
  5
1B3
330
1F
100
AcDbEntity
  8
0-2_扉
  6
Continuous
 62
     7
370
     9
100
AcDbLine
 10
-1406.500018557985
 20
2363.236123240599
 30
0.0
 11
-1406.500018557985
 21
3277.000148463892
 31
0.0
  0
LINE
  5
1B4
330
1F
100
AcDbEntity
  8
0-2_扉
  6
Continuous
 62
     7
370
     9
100
AcDbLine
 10
-1406.500018557985
 20
1579.000101450326
 30
0.0
 11
-1406.500018557985
 21
2127.002600592535
 31
0.0
  0
LINE
  5
1B5
330
1F
100
AcDbEntity
  8
0-2_扉
  6
Continuous
 62
     7
370
     9
100
AcDbLine
 10
-833.5000680459501
 20
2232.000101450326
 30
0.0
 11
-833.5000680459501
 21
3277.000148463892
 31
0.0
  0
LINE
  5
1B6
330
1F
100
AcDbEntity
  8
0-2_扉
  6
Continuous
 62
     7
370
     9
100
AcDbLine
 10
-833.5000680459501
 20
1579.000101450326
 30
0.0
 11
-833.5000680459501
 21
2127.002600592535
 31
0.0
  0
LINE
  5
1B7
330
1F
100
AcDbEntity
  8
0-2_扉
  6
Continuous
 62
     7
370
     9
100
AcDbLine
 10
-873.4999525740324
 20
2087.002600592535
 30
0.0
 11
-855.8223567653334
 21
2104.680320121146
 31
0.0
  0
LINE
  5
1B8
330
1F
100
AcDbEntity
  8
0-2_扉
  6
Continuous
 62
     7
370
     9
100
AcDbLine
 10
-1421.499820606127
 20
3291.999950512035
 30
0.0
 11
-1406.500018557985
 21
3277.000148463892
 31
0.0
  0
LINE
  5
1B9
330
1F
100
AcDbEntity
  8
0-2_扉
  6
Continuous
 62
     7
370
     9
100
AcDbLine
 10
-1421.499820606127
 20
3291.999950512035
 30
0.0
 11
-818.5000185579855
 21
3291.999950512035
 31
0.0
  0
LINE
  5
1BA
330
1F
100
AcDbEntity
  8
0-2_扉
  6
Continuous
 62
     7
370
     9
100
AcDbLine
 10
-818.5000185579855
 20
3291.999950512035
 30
0.0
 11
-833.5000680459501
 21
3277.000148463892
 31
0.0
  0
LINE
  5
1BB
330
1F
100
AcDbEntity
  8
0-2_扉
  6
Continuous
 62
     7
370
     9
100
AcDbLine
 10
-1406.500018557985
 20
3277.000148463892
 30
0.0
 11
-833.5000680459501
 21
3277.000148463892
 31
0.0
  0
LINE
  5
1BC
330
1F
100
AcDbEntity
  8
0-2_扉
  6
Continuous
 62
     7
370
     9
100
AcDbLine
 10
-1421.499820606127
 20
2217.000175682273
 30
0.0
 11
-1406.500018557985
 21
2232.000101450326
 31
0.0
  0
LINE
  5
1BD
330
1F
100
AcDbEntity
  8
0-2_扉
  6
Continuous
 62
     7
370
     9
100
AcDbLine
 10
-1421.499820606127
 20
2142.002650080499
 30
0.0
 11
-1406.500018557985
 21
2127.002600592535
 31
0.0
  0
LINE
  5
1BE
330
1F
100
AcDbEntity
  8
0-2_扉
  6
Continuous
 62
     7
370
     9
100
AcDbLine
 10
-833.5000680459501
 20
2232.000101450326
 30
0.0
 11
-1361.499949274835
 21
2232.000101450326
 31
0.0
  0
LINE
  5
1BF
330
1F
100
AcDbEntity
  8
0-2_扉
  6
Continuous
 62
     7
370
     9
100
AcDbLine
 10
-833.5000680459501
 20
2232.000101450326
 30
0.0
 11
-818.5000185579855
 21
2217.000175682273
 31
0.0
  0
LINE
  5
1C0
330
1F
100
AcDbEntity
  8
0-2_扉
  6
Continuous
 62
     7
370
     9
100
AcDbLine
 10
-818.5000185579855
 20
2217.000175682273
 30
0.0
 11
-1421.499820606127
 21
2217.000175682273
 31
0.0
  0
LINE
  5
1C1
330
1F
100
AcDbEntity
  8
0-2_扉
  6
Continuous
 62
     7
370
     9
100
AcDbLine
 10
-1406.500018557985
 20
2127.002600592535
 30
0.0
 11
-833.5000680459501
 21
2127.002600592535
 31
0.0
  0
LINE
  5
1C2
330
1F
100
AcDbEntity
  8
0-2_扉
  6
Continuous
 62
     7
370
     9
100
AcDbLine
 10
-833.5000680459501
 20
2127.002600592535
 30
0.0
 11
-818.5000185579855
 21
2142.002650080499
 31
0.0
  0
LINE
  5
1C3
330
1F
100
AcDbEntity
  8
0-2_扉
  6
Continuous
 62
     7
370
     9
100
AcDbLine
 10
-1421.499820606127
 20
2142.002650080499
 30
0.0
 11
-818.5000185579855
 21
2142.002650080499
 31
0.0
  0
LINE
  5
1C4
330
1F
100
AcDbEntity
  8
0-2_扉
  6
Continuous
 62
     7
370
     9
100
AcDbLine
 10
-873.4999525740324
 20
2087.002600592535
 30
0.0
 11
-1366.49988659008
 21
2087.002600592535
 31
0.0
  0
LINE
  5
1C5
330
1F
100
AcDbEntity
  8
0-2_扉
  6
Continuous
 62
     7
370
     9
100
AcDbLine
 10
-873.4999525740324
 20
2087.002600592535
 30
0.0
 11
-873.4999525740324
 21
1619.000047838364
 31
0.0
  0
LINE
  5
1C6
330
1F
100
AcDbEntity
  8
0-2_扉
  6
Continuous
 62
     7
370
     9
100
AcDbLine
 10
-1366.49988659008
 20
1619.000047838364
 30
0.0
 11
-1366.49988659008
 21
2087.002600592535
 31
0.0
  0
LINE
  5
1C7
330
1F
100
AcDbEntity
  8
0-2_扉
  6
Continuous
 62
     7
370
     9
100
AcDbLine
 10
-1406.500018557985
 20
1579.000101450326
 30
0.0
 11
-1421.499820606127
 21
1564.000051962362
 31
0.0
  0
LINE
  5
1C8
330
1F
100
AcDbEntity
  8
0-2_扉
  6
Continuous
 62
     7
370
     9
100
AcDbLine
 10
-873.4999525740324
 20
1619.000047838364
 30
0.0
 11
-1366.49988659008
 21
1619.000047838364
 31
0.0
  0
LINE
  5
1C9
330
1F
100
AcDbEntity
  8
0-2_扉
  6
Continuous
 62
     7
370
     9
100
AcDbLine
 10
-873.4999525740324
 20
1619.000047838364
 30
0.0
 11
-855.8223567653334
 21
1601.32239016971
 31
0.0
  0
LINE
  5
1CA
330
1F
100
AcDbEntity
  8
0-2_扉
  6
Continuous
 62
     7
370
     9
100
AcDbLine
 10
-1406.500018557985
 20
1579.000101450326
 30
0.0
 11
-833.5000680459501
 21
1579.000101450326
 31
0.0
  0
LINE
  5
1CB
330
1F
100
AcDbEntity
  8
0-2_扉
  6
Continuous
 62
     7
370
     9
100
AcDbLine
 10
-833.5000680459501
 20
1579.000101450326
 30
0.0
 11
-818.5000185579855
 21
1564.000051962362
 31
0.0
  0
LINE
  5
1CC
330
1F
100
AcDbEntity
  8
0-2_扉
  6
Continuous
 62
     7
370
     9
100
AcDbLine
 10
-1421.499820606127
 20
1564.000051962362
 30
0.0
 11
-818.5000185579855
 21
1564.000051962362
 31
0.0
  0
LINE
  5
1CD
330
1F
100
AcDbEntity
  8
引手
  6
JWW_CENTER1
 62
     7
370
     9
100
AcDbLine
 10
1472.074147243339
 20
2386.50003959037
 30
0.0
 11
1399.564450634178
 21
2386.50003959037
 31
0.0
  0
LINE
  5
1CE
330
1F
100
AcDbEntity
  8
引手
  6
JWW_CENTER1
 62
     7
370
     9
100
AcDbLine
 10
1433.999981442015
 20
2301.269371054846
 30
0.0
 11
1433.999981442015
 21
2472.119642478982
 31
0.0
  0
LINE
  5
1CF
330
1F
100
AcDbEntity
  8
引手
  6
JWW_DASHED1
 62
     7
370
     9
100
AcDbLine
 10
1417.999981442016
 20
2335.50003959037
 30
0.0
 11
1417.999981442016
 21
2437.500039590371
 31
0.0
  0
LINE
  5
1D0
330
1F
100
AcDbEntity
  8
引手
  6
JWW_DASHED1
 62
     7
370
     9
100
AcDbLine
 10
1449.999981442014
 20
2335.50003959037
 30
0.0
 11
1417.999981442016
 21
2335.50003959037
 31
0.0
  0
LINE
  5
1D1
330
1F
100
AcDbEntity
  8
引手
  6
JWW_DASHED1
 62
     7
370
     9
100
AcDbLine
 10
1449.999981442014
 20
2335.50003959037
 30
0.0
 11
1449.999981442014
 21
2437.500039590371
 31
0.0
  0
LINE
  5
1D2
330
1F
100
AcDbEntity
  8
引手
  6
JWW_DASHED1
 62
     7
370
     9
100
AcDbLine
 10
1449.999981442014
 20
2437.500039590371
 30
0.0
 11
1417.999981442016
 21
2437.500039590371
 31
0.0
  0
LINE
  5
1D3
330
1F
100
AcDbEntity
  8
引手
  6
Continuous
 62
     7
370
     9
100
AcDbLine
 10
1452.999981442016
 20
2331.50003959037
 30
0.0
 11
1414.999981442015
 21
2331.50003959037
 31
0.0
  0
LINE
  5
1D4
330
1F
100
AcDbEntity
  8
引手
  6
Continuous
 62
     7
370
     9
100
AcDbLine
 10
1446.499981442014
 20
2347.500039590371
 30
0.0
 11
1421.499981442016
 21
2347.500039590371
 31
0.0
  0
LINE
  5
1D5
330
1F
100
AcDbEntity
  8
引手
  6
Continuous
 62
     7
370
     9
100
AcDbLine
 10
1446.499981442014
 20
2425.50003959037
 30
0.0
 11
1421.499981442016
 21
2425.50003959037
 31
0.0
  0
LINE
  5
1D6
330
1F
100
AcDbEntity
  8
引手
  6
Continuous
 62
     7
370
     9
100
AcDbLine
 10
1452.999981442016
 20
2441.500039590371
 30
0.0
 11
1414.999981442015
 21
2441.500039590371
 31
0.0
  0
LINE
  5
1D7
330
1F
100
AcDbEntity
  8
引手
  6
Continuous
 62
     7
370
     9
100
AcDbLine
 10
1452.999981442016
 20
2331.50003959037
 30
0.0
 11
1452.999981442016
 21
2441.500039590371
 31
0.0
  0
LINE
  5
1D8
330
1F
100
AcDbEntity
  8
引手
  6
Continuous
 62
     7
370
     9
100
AcDbLine
 10
1446.499981442014
 20
2347.500039590371
 30
0.0
 11
1446.499981442014
 21
2425.50003959037
 31
0.0
  0
LINE
  5
1D9
330
1F
100
AcDbEntity
  8
引手
  6
Continuous
 62
     7
370
     9
100
AcDbLine
 10
1421.499981442016
 20
2347.500039590371
 30
0.0
 11
1421.499981442016
 21
2425.50003959037
 31
0.0
  0
LINE
  5
1DA
330
1F
100
AcDbEntity
  8
引手
  6
Continuous
 62
     7
370
     9
100
AcDbLine
 10
1414.999981442015
 20
2331.50003959037
 30
0.0
 11
1414.999981442015
 21
2441.500039590371
 31
0.0
  0
LINE
  5
1DB
330
1F
100
AcDbEntity
  8
0-2_扉
  6
Continuous
 62
     7
370
     9
100
AcDbLine
 10
871.9999261804562
 20
1429.000039590371
 30
0.0
 11
871.9999261804562
 21
3412.000148463892
 31
0.0
  0
LINE
  5
1DC
330
1F
100
AcDbEntity
  8
0-2_扉
  6
Continuous
 62
     7
370
     9
100
AcDbLine
 10
1385.000022681988
 20
1429.000039590371
 30
0.0
 11
1385.000022681988
 21
3412.000148463892
 31
0.0
  0
LINE
  5
1DD
330
1F
100
AcDbEntity
  8
0-2_扉
  6
Continuous
 62
     7
370
     9
100
AcDbLine
 10
771.9999674204272
 20
3412.000148463892
 30
0.0
 11
771.9999674204272
 21
1429.000039590371
 31
0.0
  0
LINE
  5
1DE
330
1F
100
AcDbEntity
  8
0-2_扉
  6
Continuous
 62
     7
370
     9
100
AcDbLine
 10
871.9999261804562
 20
3291.999950512034
 30
0.0
 11
886.9999756684209
 21
3277.000148463892
 31
0.0
  0
LINE
  5
1DF
330
1F
100
AcDbEntity
  8
0-2_扉
  6
Continuous
 62
     7
370
     9
100
AcDbLine
 10
1384.999960822031
 20
3291.999950512034
 30
0.0
 11
1369.999973194023
 21
3277.000148463892
 31
0.0
  0
LINE
  5
1E0
330
1F
100
AcDbEntity
  8
0-2_扉
  6
Continuous
 62
     7
370
     9
100
AcDbLine
 10
886.9999756684209
 20
1579.000039590371
 30
0.0
 11
871.9999261804562
 21
1563.999990102406
 31
0.0
  0
LINE
  5
1E1
330
1F
100
AcDbEntity
  8
0-2_扉
  6
Continuous
 62
     7
370
     9
100
AcDbLine
 10
1369.999973194023
 20
1579.000039590371
 30
0.0
 11
1384.999960822031
 21
1563.999990102406
 31
0.0
  0
LINE
  5
1E2
330
1F
100
AcDbEntity
  8
0-2_扉
  6
Continuous
 62
     7
370
     9
100
AcDbLine
 10
1168.500013609194
 20
3291.999950512034
 30
0.0
 11
1384.999960822031
 21
3291.999950512034
 31
0.0
  0
LINE
  5
1E3
330
1F
100
AcDbEntity
  8
0-2_扉
  6
Continuous
 62
     7
370
     9
100
AcDbLine
 10
887.187782493801
 20
3093.997614680109
 30
0.0
 11
886.9999756684209
 21
3093.997614680109
 31
0.0
  0
LINE
  5
1E4
330
1F
100
AcDbEntity
  8
0-2_扉
  6
Continuous
 62
     7
370
     9
100
AcDbLine
 10
871.9999261804562
 20
3291.999950512034
 30
0.0
 11
1168.500013609194
 21
3291.999950512034
 31
0.0
  0
LINE
  5
1E5
330
1F
100
AcDbEntity
  8
0-2_扉
  6
Continuous
 62
     7
370
     9
100
AcDbLine
 10
1166.000005361199
 20
1563.999990102406
 30
0.0
 11
1384.999960822031
 21
1563.999990102406
 31
0.0
  0
LINE
  5
1E6
330
1F
100
AcDbEntity
  8
0-2_扉
  6
Continuous
 62
     7
370
     9
100
AcDbLine
 10
871.9999261804562
 20
1563.999990102406
 30
0.0
 11
1166.000005361199
 21
1563.999990102406
 31
0.0
  0
LINE
  5
1E7
330
1F
100
AcDbEntity
  8
0-2_扉
  6
Continuous
 62
     7
370
     9
100
AcDbLine
 10
926.9999839164146
 20
1619.000171558276
 30
0.0
 11
926.9999839164146
 21
1620.431116052575
 31
0.0
  0
LINE
  5
1E8
330
1F
100
AcDbEntity
  8
0-2_扉
  6
Continuous
 62
     7
370
     9
100
AcDbLine
 10
926.9999839164146
 20
1619.000171558276
 30
0.0
 11
909.3222643878041
 21
1601.322328309754
 31
0.0
  0
LINE
  5
1E9
330
1F
100
AcDbEntity
  8
0-2_扉
  6
Continuous
 62
     7
370
     9
100
AcDbLine
 10
1329.999964946029
 20
1619.000171558276
 30
0.0
 11
1347.677622614683
 21
1601.322328309754
 31
0.0
  0
LINE
  5
1EA
330
1F
100
AcDbEntity
  8
0-2_扉
  6
Continuous
 62
     7
370
     9
100
AcDbLine
 10
1166.000005361199
 20
2142.002589870142
 30
0.0
 11
1384.999960822031
 21
2142.002589870142
 31
0.0
  0
LINE
  5
1EB
330
1F
100
AcDbEntity
  8
0-2_扉
  6
Continuous
 62
     7
370
     9
100
AcDbLine
 10
1384.999960822031
 20
2217.000115471916
 30
0.0
 11
1166.000005361199
 21
2217.000115471916
 31
0.0
  0
LINE
  5
1EC
330
1F
100
AcDbEntity
  8
0-2_扉
  6
Continuous
 62
     7
370
     9
100
AcDbLine
 10
1369.999973194023
 20
2127.002787822001
 30
0.0
 11
1384.999960822031
 21
2142.002589870142
 31
0.0
  0
LINE
  5
1ED
330
1F
100
AcDbEntity
  8
0-2_扉
  6
Continuous
 62
     7
370
     9
100
AcDbLine
 10
871.9999261804562
 20
2217.000115471916
 30
0.0
 11
886.9999756684209
 21
2231.999917520058
 31
0.0
  0
LINE
  5
1EE
330
1F
100
AcDbEntity
  8
0-2_扉
  6
Continuous
 62
     7
370
     9
100
AcDbLine
 10
871.9999261804562
 20
2142.002589870142
 30
0.0
 11
886.9999756684209
 21
2127.002787822001
 31
0.0
  0
LINE
  5
1EF
330
1F
100
AcDbEntity
  8
0-2_扉
  6
Continuous
 62
     7
370
     9
100
AcDbLine
 10
1369.999973194023
 20
2231.999917520058
 30
0.0
 11
1384.999960822031
 21
2217.000115471916
 31
0.0
  0
LINE
  5
1F0
330
1F
100
AcDbEntity
  8
0-2_扉
  6
Continuous
 62
     7
370
     9
100
AcDbLine
 10
1075.999955873235
 20
2231.999917520058
 30
0.0
 11
886.9999756684209
 21
2231.999917520058
 31
0.0
  0
LINE
  5
1F1
330
1F
100
AcDbEntity
  8
0-2_扉
  6
Continuous
 62
     7
370
     9
100
AcDbLine
 10
1166.000005361199
 20
2217.000115471916
 30
0.0
 11
871.9999261804562
 21
2217.000115471916
 31
0.0
  0
LINE
  5
1F2
330
1F
100
AcDbEntity
  8
0-2_扉
  6
Continuous
 62
     7
370
     9
100
AcDbLine
 10
871.9999261804562
 20
2142.002589870142
 30
0.0
 11
1166.000005361199
 21
2142.002589870142
 31
0.0
  0
LINE
  5
1F3
330
1F
100
AcDbEntity
  8
0-2_扉
  6
Continuous
 62
     7
370
     9
100
AcDbLine
 10
1180.999931129253
 20
2231.999917520058
 30
0.0
 11
1369.999973194023
 21
2231.999917520058
 31
0.0
  0
LINE
  5
1F4
330
1F
100
AcDbEntity
  8
0-2_扉
  6
Continuous
 62
     7
370
     9
100
AcDbLine
 10
927.0361101305198
 20
2087.002655854095
 30
0.0
 11
909.3583906019094
 21
2104.680251662794
 31
0.0
  0
LINE
  5
1F5
330
1F
100
AcDbEntity
  8
0-2_扉
  6
Continuous
 62
     7
370
     9
100
AcDbLine
 10
1329.999964946029
 20
2087.002655854095
 30
0.0
 11
1347.677622614683
 21
2104.680251662794
 31
0.0
  0
LINE
  5
1F6
330
1F
100
AcDbEntity
  8
0-2_扉
  6
Continuous
 62
     7
370
     9
100
AcDbLine
 10
886.9999756684209
 20
1579.000039590371
 30
0.0
 11
886.9999756684209
 21
2127.002787822001
 31
0.0
  0
LINE
  5
1F7
330
1F
100
AcDbEntity
  8
0-2_扉
  6
Continuous
 62
     7
370
     9
100
AcDbLine
 10
926.9999839164146
 20
1619.000171558276
 30
0.0
 11
926.9999839164146
 21
2087.002655854095
 31
0.0
  0
LINE
  5
1F8
330
1F
100
AcDbEntity
  8
0-2_扉
  6
Continuous
 62
     7
370
     9
100
AcDbLine
 10
886.9999756684209
 20
2231.999917520058
 30
0.0
 11
886.9999756684209
 21
2374.521296320734
 31
0.0
  0
LINE
  5
1F9
330
1F
100
AcDbEntity
  8
0-2_扉
  6
Continuous
 62
     7
370
     9
100
AcDbLine
 10
886.9999756684209
 20
2231.999917520058
 30
0.0
 11
1369.999973194023
 21
2231.999917520058
 31
0.0
  0
LINE
  5
1FA
330
1F
100
AcDbEntity
  8
0-2_扉
  6
Continuous
 62
     7
370
     9
100
AcDbLine
 10
886.9999756684209
 20
2127.002787822001
 30
0.0
 11
1369.999973194023
 21
2127.002787822001
 31
0.0
  0
LINE
  5
1FB
330
1F
100
AcDbEntity
  8
0-2_扉
  6
Continuous
 62
     7
370
     9
100
AcDbLine
 10
1329.999964946029
 20
2087.002655854095
 30
0.0
 11
927.0361101305198
 21
2087.002655854095
 31
0.0
  0
LINE
  5
1FC
330
1F
100
AcDbEntity
  8
0-2_扉
  6
Continuous
 62
     7
370
     9
100
AcDbLine
 10
1329.999964946029
 20
1619.000171558276
 30
0.0
 11
926.9999839164146
 21
1619.000171558276
 31
0.0
  0
LINE
  5
1FD
330
1F
100
AcDbEntity
  8
0-2_扉
  6
Continuous
 62
     7
370
     9
100
AcDbLine
 10
1329.999964946029
 20
2087.002655854095
 30
0.0
 11
1329.999964946029
 21
1619.000171558276
 31
0.0
  0
LINE
  5
1FE
330
1F
100
AcDbEntity
  8
0-2_扉
  6
Continuous
 62
     7
370
     9
100
AcDbLine
 10
1369.999973194023
 20
1579.000039590371
 30
0.0
 11
1369.999973194023
 21
2127.002787822001
 31
0.0
  0
LINE
  5
1FF
330
1F
100
AcDbEntity
  8
0-2_扉
  6
Continuous
 62
     7
370
     9
100
AcDbLine
 10
886.9999756684209
 20
1579.000039590371
 30
0.0
 11
1369.999973194023
 21
1579.000039590371
 31
0.0
  0
LINE
  5
200
330
1F
100
AcDbEntity
  8
0-2_扉
  6
Continuous
 62
     7
370
     9
100
AcDbLine
 10
886.9999756684209
 20
2374.521296320734
 30
0.0
 11
886.9999756684209
 21
3277.000148463892
 31
0.0
  0
LINE
  5
201
330
1F
100
AcDbEntity
  8
0-2_扉
  6
Continuous
 62
     7
370
     9
100
AcDbLine
 10
886.9999756684209
 20
3277.000148463892
 30
0.0
 11
1369.999973194023
 21
3277.000148463892
 31
0.0
  0
LINE
  5
202
330
1F
100
AcDbEntity
  8
0-2_扉
  6
Continuous
 62
     7
370
     9
100
AcDbLine
 10
1369.999973194023
 20
2231.999917520058
 30
0.0
 11
1369.999973194023
 21
3277.000148463892
 31
0.0
  0
LINE
  5
203
330
1F
100
AcDbEntity
  8
引手
  6
JWW_CENTER1
 62
     7
370
     9
100
AcDbLine
 10
-3121.925852756664
 20
-1732.750192693763
 30
0.0
 11
-3194.435549365825
 21
-1732.750192693763
 31
0.0
  0
LINE
  5
204
330
1F
100
AcDbEntity
  8
引手
  6
JWW_CENTER1
 62
     7
370
     9
100
AcDbLine
 10
-3160.000018557988
 20
-1817.980861229287
 30
0.0
 11
-3160.000018557988
 21
-1647.130589805151
 31
0.0
  0
LINE
  5
205
330
1F
100
AcDbEntity
  8
引手
  6
JWW_DASHED1
 62
     7
370
     9
100
AcDbLine
 10
-3176.000018557987
 20
-1783.750192693763
 30
0.0
 11
-3176.000018557987
 21
-1681.750192693762
 31
0.0
  0
LINE
  5
206
330
1F
100
AcDbEntity
  8
引手
  6
JWW_DASHED1
 62
     7
370
     9
100
AcDbLine
 10
-3144.000018557989
 20
-1783.750192693763
 30
0.0
 11
-3176.000018557987
 21
-1783.750192693763
 31
0.0
  0
LINE
  5
207
330
1F
100
AcDbEntity
  8
引手
  6
JWW_DASHED1
 62
     7
370
     9
100
AcDbLine
 10
-3144.000018557989
 20
-1783.750192693763
 30
0.0
 11
-3144.000018557989
 21
-1681.750192693762
 31
0.0
  0
LINE
  5
208
330
1F
100
AcDbEntity
  8
引手
  6
JWW_DASHED1
 62
     7
370
     9
100
AcDbLine
 10
-3144.000018557989
 20
-1681.750192693762
 30
0.0
 11
-3176.000018557987
 21
-1681.750192693762
 31
0.0
  0
LINE
  5
209
330
1F
100
AcDbEntity
  8
引手
  6
Continuous
 62
     7
370
     9
100
AcDbLine
 10
-3141.000018557987
 20
-1787.750192693762
 30
0.0
 11
-3179.000018557988
 21
-1787.750192693762
 31
0.0
  0
LINE
  5
20A
330
1F
100
AcDbEntity
  8
引手
  6
Continuous
 62
     7
370
     9
100
AcDbLine
 10
-3147.500018557988
 20
-1771.750192693762
 30
0.0
 11
-3172.500018557987
 21
-1771.750192693762
 31
0.0
  0
LINE
  5
20B
330
1F
100
AcDbEntity
  8
引手
  6
Continuous
 62
     7
370
     9
100
AcDbLine
 10
-3147.500018557988
 20
-1693.750192693763
 30
0.0
 11
-3172.500018557987
 21
-1693.750192693763
 31
0.0
  0
LINE
  5
20C
330
1F
100
AcDbEntity
  8
引手
  6
Continuous
 62
     7
370
     9
100
AcDbLine
 10
-3141.000018557987
 20
-1677.750192693763
 30
0.0
 11
-3179.000018557988
 21
-1677.750192693763
 31
0.0
  0
LINE
  5
20D
330
1F
100
AcDbEntity
  8
引手
  6
Continuous
 62
     7
370
     9
100
AcDbLine
 10
-3141.000018557987
 20
-1787.750192693762
 30
0.0
 11
-3141.000018557987
 21
-1677.750192693763
 31
0.0
  0
LINE
  5
20E
330
1F
100
AcDbEntity
  8
引手
  6
Continuous
 62
     7
370
     9
100
AcDbLine
 10
-3147.500018557988
 20
-1771.750192693762
 30
0.0
 11
-3147.500018557988
 21
-1693.750192693763
 31
0.0
  0
LINE
  5
20F
330
1F
100
AcDbEntity
  8
引手
  6
Continuous
 62
     7
370
     9
100
AcDbLine
 10
-3172.500018557987
 20
-1771.750192693762
 30
0.0
 11
-3172.500018557987
 21
-1693.750192693763
 31
0.0
  0
LINE
  5
210
330
1F
100
AcDbEntity
  8
引手
  6
Continuous
 62
     7
370
     9
100
AcDbLine
 10
-3179.000018557988
 20
-1787.750192693762
 30
0.0
 11
-3179.000018557988
 21
-1677.750192693763
 31
0.0
  0
LINE
  5
211
330
1F
100
AcDbEntity
  8
0-2_扉
  6
Continuous
 62
     7
370
     9
100
AcDbLine
 10
-3890.311964292785
 20
-825.2526176040238
 30
0.0
 11
-3890.500018557989
 21
-825.2526176040238
 31
0.0
  0
LINE
  5
212
330
1F
100
AcDbEntity
  8
0-2_扉
  6
Continuous
 62
     7
370
     9
100
AcDbLine
 10
-3905.499820606132
 20
-627.2502817720983
 30
0.0
 11
-3890.500018557989
 21
-642.2500838202401
 31
0.0
  0
LINE
  5
213
330
1F
100
AcDbEntity
  8
0-2_扉
  6
Continuous
 62
     7
370
     9
100
AcDbLine
 10
-3905.499820606132
 20
-627.2502817720983
 30
0.0
 11
-3212.499969070021
 21
-627.2502817720983
 31
0.0
  0
LINE
  5
214
330
1F
100
AcDbEntity
  8
0-2_扉
  6
Continuous
 62
     7
370
     9
100
AcDbLine
 10
-3212.499969070021
 20
-627.2502817720983
 30
0.0
 11
-3227.500018557986
 21
-642.2500838202401
 31
0.0
  0
LINE
  5
215
330
1F
100
AcDbEntity
  8
0-2_扉
  6
Continuous
 62
     7
370
     9
100
AcDbLine
 10
-3890.500018557989
 20
-642.2500838202401
 30
0.0
 11
-3227.500018557986
 21
-642.2500838202401
 31
0.0
  0
LINE
  5
216
330
1F
100
AcDbEntity
  8
0-2_扉
  6
Continuous
 62
     7
370
     9
100
AcDbLine
 10
-3850.499886590083
 20
-2032.247693551554
 30
0.0
 11
-3868.177729838607
 21
-2014.569974022943
 31
0.0
  0
LINE
  5
217
330
1F
100
AcDbEntity
  8
0-2_扉
  6
Continuous
 62
     7
370
     9
100
AcDbLine
 10
-3850.536012804188
 20
-2500.250184445768
 30
0.0
 11
-3850.536012804188
 21
-2498.819116231557
 31
0.0
  0
LINE
  5
218
330
1F
100
AcDbEntity
  8
0-2_扉
  6
Continuous
 62
     7
370
     9
100
AcDbLine
 10
-3850.536012804188
 20
-2500.250184445768
 30
0.0
 11
-3868.213608612888
 21
-2517.927842114423
 31
0.0
  0
LINE
  5
219
330
1F
100
AcDbEntity
  8
0-2_扉
  6
Continuous
 62
     7
370
     9
100
AcDbLine
 10
-3227.500018557986
 20
-2540.250192693762
 30
0.0
 11
-3227.500018557986
 21
-1992.247693551553
 31
0.0
  0
LINE
  5
21A
330
1F
100
AcDbEntity
  8
0-2_扉
  6
Continuous
 62
     7
370
     9
100
AcDbLine
 10
-3267.500026805982
 20
-2032.247693551554
 30
0.0
 11
-3249.822307277369
 21
-2014.569974022943
 31
0.0
  0
LINE
  5
21B
330
1F
100
AcDbEntity
  8
0-2_扉
  6
Continuous
 62
     7
370
     9
100
AcDbLine
 10
-3267.500026805982
 20
-2500.250184445768
 30
0.0
 11
-3249.822307277369
 21
-2517.927842114423
 31
0.0
  0
LINE
  5
21C
330
1F
100
AcDbEntity
  8
0-2_扉
  6
Continuous
 62
     7
370
     9
100
AcDbLine
 10
-3905.499820606132
 20
-1902.250118461816
 30
0.0
 11
-3890.500018557989
 21
-1887.250192693763
 31
0.0
  0
LINE
  5
21D
330
1F
100
AcDbEntity
  8
0-2_扉
  6
Continuous
 62
     7
370
     9
100
AcDbLine
 10
-3905.499820606132
 20
-1977.247644063589
 30
0.0
 11
-3890.500018557989
 21
-1992.247693551553
 31
0.0
  0
LINE
  5
21E
330
1F
100
AcDbEntity
  8
0-2_扉
  6
Continuous
 62
     7
370
     9
100
AcDbLine
 10
-3227.500018557986
 20
-1887.250192693763
 30
0.0
 11
-3212.499969070021
 21
-1902.250118461816
 31
0.0
  0
LINE
  5
21F
330
1F
100
AcDbEntity
  8
0-2_扉
  6
Continuous
 62
     7
370
     9
100
AcDbLine
 10
-3212.499969070021
 20
-1902.250118461816
 30
0.0
 11
-3905.499820606132
 21
-1902.250118461816
 31
0.0
  0
LINE
  5
220
330
1F
100
AcDbEntity
  8
0-2_扉
  6
Continuous
 62
     7
370
     9
100
AcDbLine
 10
-3905.499820606132
 20
-1977.247644063589
 30
0.0
 11
-3212.499969070021
 21
-1977.247644063589
 31
0.0
  0
LINE
  5
221
330
1F
100
AcDbEntity
  8
0-2_扉
  6
Continuous
 62
     7
370
     9
100
AcDbLine
 10
-3227.500018557986
 20
-1992.247693551553
 30
0.0
 11
-3212.499969070021
 21
-1977.247644063589
 31
0.0
  0
LINE
  5
222
330
1F
100
AcDbEntity
  8
0-2_扉
  6
Continuous
 62
     7
370
     9
100
AcDbLine
 10
-3890.500018557989
 20
-1992.247693551553
 30
0.0
 11
-3227.500018557986
 21
-1992.247693551553
 31
0.0
  0
LINE
  5
223
330
1F
100
AcDbEntity
  8
0-2_扉
  6
Continuous
 62
     7
370
     9
100
AcDbLine
 10
-3267.500026805982
 20
-2032.247693551554
 30
0.0
 11
-3850.536012804188
 21
-2032.247693551554
 31
0.0
  0
LINE
  5
224
330
1F
100
AcDbEntity
  8
0-2_扉
  6
Continuous
 62
     7
370
     9
100
AcDbLine
 10
-3267.500026805982
 20
-2032.247693551554
 30
0.0
 11
-3267.500026805982
 21
-2500.250184445768
 31
0.0
  0
LINE
  5
225
330
1F
100
AcDbEntity
  8
0-2_扉
  6
Continuous
 62
     7
370
     9
100
AcDbLine
 10
-3850.536012804188
 20
-2500.250184445768
 30
0.0
 11
-3850.536012804188
 21
-2032.247693551554
 31
0.0
  0
LINE
  5
226
330
1F
100
AcDbEntity
  8
0-2_扉
  6
Continuous
 62
     7
370
     9
100
AcDbLine
 10
-3267.500026805982
 20
-2500.250184445768
 30
0.0
 11
-3850.536012804188
 21
-2500.250184445768
 31
0.0
  0
LINE
  5
227
330
1F
100
AcDbEntity
  8
0-2_扉
  6
Continuous
 62
     7
370
     9
100
AcDbLine
 10
-3890.500018557989
 20
-2540.250192693762
 30
0.0
 11
-3890.500018557989
 21
-1992.247693551553
 31
0.0
  0
LINE
  5
228
330
1F
100
AcDbEntity
  8
0-2_扉
  6
Continuous
 62
     7
370
     9
100
AcDbLine
 10
-3890.500018557989
 20
-2540.250192693762
 30
0.0
 11
-3905.499820606132
 21
-2555.250180321772
 31
0.0
  0
LINE
  5
229
330
1F
100
AcDbEntity
  8
0-2_扉
  6
Continuous
 62
     7
370
     9
100
AcDbLine
 10
-3890.500018557989
 20
-2540.250192693762
 30
0.0
 11
-3227.500018557986
 21
-2540.250192693762
 31
0.0
  0
LINE
  5
22A
330
1F
100
AcDbEntity
  8
0-2_扉
  6
Continuous
 62
     7
370
     9
100
AcDbLine
 10
-3227.500018557986
 20
-2540.250192693762
 30
0.0
 11
-3212.499969070021
 21
-2555.250180321772
 31
0.0
  0
LINE
  5
22B
330
1F
100
AcDbEntity
  8
0-2_扉
  6
Continuous
 62
     7
370
     9
100
AcDbLine
 10
-3905.499820606132
 20
-2555.250180321772
 30
0.0
 11
-3212.499969070021
 21
-2555.250180321772
 31
0.0
  0
LINE
  5
22C
330
1F
100
AcDbEntity
  8
0-2_扉
  6
Continuous
 62
     7
370
     9
100
AcDbLine
 10
-3890.500018557989
 20
-1887.250192693763
 30
0.0
 11
-3890.500018557989
 21
-642.2500838202401
 31
0.0
  0
LINE
  5
22D
330
1F
100
AcDbEntity
  8
0-2_扉
  6
Continuous
 62
     7
370
     9
100
AcDbLine
 10
-3227.500018557986
 20
-1887.250192693763
 30
0.0
 11
-3890.500018557989
 21
-1887.250192693763
 31
0.0
  0
LINE
  5
22E
330
1F
100
AcDbEntity
  8
0-2_扉
  6
Continuous
 62
     7
370
     9
100
AcDbLine
 10
-3227.500018557986
 20
-1887.250192693763
 30
0.0
 11
-3227.500018557986
 21
-642.2500838202401
 31
0.0
  0
LINE
  5
22F
330
1F
100
AcDbEntity
  8
0-2_扉
  6
Continuous
 62
     7
370
     9
100
AcDbLine
 10
-4009.000018557989
 20
-507.2500838202409
 30
0.0
 11
-4009.000018557989
 21
-2690.250192693762
 31
0.0
  0
LINE
  5
230
330
1F
100
AcDbEntity
  8
0-2_扉
  6
Continuous
 62
     7
370
     9
100
AcDbLine
 10
-3905.500068045954
 20
-2690.250192693762
 30
0.0
 11
-3905.500068045954
 21
-507.2500838202409
 31
0.0
  0
LINE
  5
231
330
1F
100
AcDbEntity
  8
0-2_扉
  6
Continuous
 62
     7
370
     9
100
AcDbLine
 10
-3212.499969070023
 20
-2690.250192693762
 30
0.0
 11
-3212.499969070023
 21
-507.2500838202409
 31
0.0
  0
LINE
  5
232
330
1F
100
AcDbEntity
  8
引手
  6
JWW_CENTER1
 62
     7
370
     9
100
AcDbLine
 10
-727.9259022446282
 20
-1732.750130833808
 30
0.0
 11
-800.4355988537891
 21
-1732.750130833808
 31
0.0
  0
LINE
  5
233
330
1F
100
AcDbEntity
  8
引手
  6
JWW_CENTER1
 62
     7
370
     9
100
AcDbLine
 10
-766.0000680459522
 20
-1817.980799369332
 30
0.0
 11
-766.0000680459522
 21
-1647.130527945196
 31
0.0
  0
LINE
  5
234
330
1F
100
AcDbEntity
  8
引手
  6
JWW_DASHED1
 62
     7
370
     9
100
AcDbLine
 10
-782.0000680459513
 20
-1783.750130833808
 30
0.0
 11
-782.0000680459513
 21
-1681.750130833807
 31
0.0
  0
LINE
  5
235
330
1F
100
AcDbEntity
  8
引手
  6
JWW_DASHED1
 62
     7
370
     9
100
AcDbLine
 10
-750.0000680459531
 20
-1783.750130833808
 30
0.0
 11
-782.0000680459513
 21
-1783.750130833808
 31
0.0
  0
LINE
  5
236
330
1F
100
AcDbEntity
  8
引手
  6
JWW_DASHED1
 62
     7
370
     9
100
AcDbLine
 10
-750.0000680459531
 20
-1783.750130833808
 30
0.0
 11
-750.0000680459531
 21
-1681.750130833807
 31
0.0
  0
LINE
  5
237
330
1F
100
AcDbEntity
  8
引手
  6
JWW_DASHED1
 62
     7
370
     9
100
AcDbLine
 10
-750.0000680459531
 20
-1681.750130833807
 30
0.0
 11
-782.0000680459513
 21
-1681.750130833807
 31
0.0
  0
LINE
  5
238
330
1F
100
AcDbEntity
  8
引手
  6
Continuous
 62
     7
370
     9
100
AcDbLine
 10
-747.0000680459517
 20
-1787.750130833807
 30
0.0
 11
-785.0000680459528
 21
-1787.750130833807
 31
0.0
  0
LINE
  5
239
330
1F
100
AcDbEntity
  8
引手
  6
Continuous
 62
     7
370
     9
100
AcDbLine
 10
-753.5000680459526
 20
-1771.750130833807
 30
0.0
 11
-778.5000680459519
 21
-1771.750130833807
 31
0.0
  0
LINE
  5
23A
330
1F
100
AcDbEntity
  8
引手
  6
Continuous
 62
     7
370
     9
100
AcDbLine
 10
-753.5000680459526
 20
-1693.750130833808
 30
0.0
 11
-778.5000680459519
 21
-1693.750130833808
 31
0.0
  0
LINE
  5
23B
330
1F
100
AcDbEntity
  8
引手
  6
Continuous
 62
     7
370
     9
100
AcDbLine
 10
-747.0000680459517
 20
-1677.750130833808
 30
0.0
 11
-785.0000680459528
 21
-1677.750130833808
 31
0.0
  0
LINE
  5
23C
330
1F
100
AcDbEntity
  8
引手
  6
Continuous
 62
     7
370
     9
100
AcDbLine
 10
-747.0000680459517
 20
-1787.750130833807
 30
0.0
 11
-747.0000680459517
 21
-1677.750130833808
 31
0.0
  0
LINE
  5
23D
330
1F
100
AcDbEntity
  8
引手
  6
Continuous
 62
     7
370
     9
100
AcDbLine
 10
-753.5000680459526
 20
-1771.750130833807
 30
0.0
 11
-753.5000680459526
 21
-1693.750130833808
 31
0.0
  0
LINE
  5
23E
330
1F
100
AcDbEntity
  8
引手
  6
Continuous
 62
     7
370
     9
100
AcDbLine
 10
-778.5000680459519
 20
-1771.750130833807
 30
0.0
 11
-778.5000680459519
 21
-1693.750130833808
 31
0.0
  0
LINE
  5
23F
330
1F
100
AcDbEntity
  8
引手
  6
Continuous
 62
     7
370
     9
100
AcDbLine
 10
-785.0000680459528
 20
-1787.750130833807
 30
0.0
 11
-785.0000680459528
 21
-1677.750130833808
 31
0.0
  0
LINE
  5
240
330
1F
100
AcDbEntity
  8
0-2_扉
  6
Continuous
 62
     7
370
     9
100
AcDbLine
 10
-1406.311964292783
 20
-825.2526176040247
 30
0.0
 11
-1406.500018557985
 21
-825.2526176040247
 31
0.0
  0
LINE
  5
241
330
1F
100
AcDbEntity
  8
0-2_扉
  6
Continuous
 62
     7
370
     9
100
AcDbLine
 10
-1421.499820606127
 20
-627.2502817720996
 30
0.0
 11
-1406.500018557985
 21
-642.2500838202409
 31
0.0
  0
LINE
  5
242
330
1F
100
AcDbEntity
  8
0-2_扉
  6
Continuous
 62
     7
370
     9
100
AcDbLine
 10
-1421.499820606127
 20
-627.2502817720996
 30
0.0
 11
-818.5000185579855
 21
-627.2502817720996
 31
0.0
  0
LINE
  5
243
330
1F
100
AcDbEntity
  8
0-2_扉
  6
Continuous
 62
     7
370
     9
100
AcDbLine
 10
-818.5000185579855
 20
-627.2502817720996
 30
0.0
 11
-833.5000680459501
 21
-642.2500838202409
 31
0.0
  0
LINE
  5
244
330
1F
100
AcDbEntity
  8
0-2_扉
  6
Continuous
 62
     7
370
     9
100
AcDbLine
 10
-1406.500018557985
 20
-642.2500838202409
 30
0.0
 11
-833.5000680459501
 21
-642.2500838202409
 31
0.0
  0
LINE
  5
245
330
1F
100
AcDbEntity
  8
0-2_扉
  6
Continuous
 62
     7
370
     9
100
AcDbLine
 10
-1366.49988659008
 20
-2500.250184445768
 30
0.0
 11
-1366.49988659008
 21
-2498.819116231558
 31
0.0
  0
LINE
  5
246
330
1F
100
AcDbEntity
  8
0-2_扉
  6
Continuous
 62
     7
370
     9
100
AcDbLine
 10
-1366.49988659008
 20
-2500.250184445768
 30
0.0
 11
-1384.177482398779
 21
-2517.927842114423
 31
0.0
  0
LINE
  5
247
330
1F
100
AcDbEntity
  8
0-2_扉
  6
Continuous
 62
     7
370
     9
100
AcDbLine
 10
-1366.463760375975
 20
-2032.247631691598
 30
0.0
 11
-1384.141603624498
 21
-2014.569912162988
 31
0.0
  0
LINE
  5
248
330
1F
100
AcDbEntity
  8
0-2_扉
  6
Continuous
 62
     7
370
     9
100
AcDbLine
 10
-1406.500018557985
 20
-2540.250130833808
 30
0.0
 11
-1406.500018557985
 21
-1992.247631691599
 31
0.0
  0
LINE
  5
249
330
1F
100
AcDbEntity
  8
0-2_扉
  6
Continuous
 62
     7
370
     9
100
AcDbLine
 10
-833.5000680459501
 20
-2540.250130833808
 30
0.0
 11
-833.5000680459501
 21
-1992.247631691599
 31
0.0
  0
LINE
  5
24A
330
1F
100
AcDbEntity
  8
0-2_扉
  6
Continuous
 62
     7
370
     9
100
AcDbLine
 10
-873.4999525740324
 20
-2032.247631691598
 30
0.0
 11
-855.8223567653334
 21
-2014.569912162988
 31
0.0
  0
LINE
  5
24B
330
1F
100
AcDbEntity
  8
0-2_扉
  6
Continuous
 62
     7
370
     9
100
AcDbLine
 10
-1421.499820606127
 20
-1902.250056601861
 30
0.0
 11
-1406.500018557985
 21
-1887.250130833807
 31
0.0
  0
LINE
  5
24C
330
1F
100
AcDbEntity
  8
0-2_扉
  6
Continuous
 62
     7
370
     9
100
AcDbLine
 10
-1421.499820606127
 20
-1977.247582203635
 30
0.0
 11
-1406.500018557985
 21
-1992.247631691599
 31
0.0
  0
LINE
  5
24D
330
1F
100
AcDbEntity
  8
0-2_扉
  6
Continuous
 62
     7
370
     9
100
AcDbLine
 10
-833.5000680459501
 20
-1887.250130833807
 30
0.0
 11
-818.5000185579855
 21
-1902.250056601861
 31
0.0
  0
LINE
  5
24E
330
1F
100
AcDbEntity
  8
0-2_扉
  6
Continuous
 62
     7
370
     9
100
AcDbLine
 10
-818.5000185579855
 20
-1902.250056601861
 30
0.0
 11
-1421.499820606127
 21
-1902.250056601861
 31
0.0
  0
LINE
  5
24F
330
1F
100
AcDbEntity
  8
0-2_扉
  6
Continuous
 62
     7
370
     9
100
AcDbLine
 10
-1406.500018557985
 20
-1992.247631691599
 30
0.0
 11
-833.5000680459501
 21
-1992.247631691599
 31
0.0
  0
LINE
  5
250
330
1F
100
AcDbEntity
  8
0-2_扉
  6
Continuous
 62
     7
370
     9
100
AcDbLine
 10
-833.5000680459501
 20
-1992.247631691599
 30
0.0
 11
-818.5000185579855
 21
-1977.247582203635
 31
0.0
  0
LINE
  5
251
330
1F
100
AcDbEntity
  8
0-2_扉
  6
Continuous
 62
     7
370
     9
100
AcDbLine
 10
-1421.499820606127
 20
-1977.247582203635
 30
0.0
 11
-818.5000185579855
 21
-1977.247582203635
 31
0.0
  0
LINE
  5
252
330
1F
100
AcDbEntity
  8
0-2_扉
  6
Continuous
 62
     7
370
     9
100
AcDbLine
 10
-873.4999525740324
 20
-2032.247631691598
 30
0.0
 11
-1366.49988659008
 21
-2032.247631691598
 31
0.0
  0
LINE
  5
253
330
1F
100
AcDbEntity
  8
0-2_扉
  6
Continuous
 62
     7
370
     9
100
AcDbLine
 10
-873.4999525740324
 20
-2032.247631691598
 30
0.0
 11
-873.4999525740324
 21
-2500.250184445768
 31
0.0
  0
LINE
  5
254
330
1F
100
AcDbEntity
  8
0-2_扉
  6
Continuous
 62
     7
370
     9
100
AcDbLine
 10
-1366.49988659008
 20
-2500.250184445768
 30
0.0
 11
-1366.49988659008
 21
-2032.247631691598
 31
0.0
  0
LINE
  5
255
330
1F
100
AcDbEntity
  8
0-2_扉
  6
Continuous
 62
     7
370
     9
100
AcDbLine
 10
-1406.500018557985
 20
-2540.250130833808
 30
0.0
 11
-1421.499820606127
 21
-2555.250180321772
 31
0.0
  0
LINE
  5
256
330
1F
100
AcDbEntity
  8
0-2_扉
  6
Continuous
 62
     7
370
     9
100
AcDbLine
 10
-873.4999525740324
 20
-2500.250184445768
 30
0.0
 11
-1366.49988659008
 21
-2500.250184445768
 31
0.0
  0
LINE
  5
257
330
1F
100
AcDbEntity
  8
0-2_扉
  6
Continuous
 62
     7
370
     9
100
AcDbLine
 10
-873.4999525740324
 20
-2500.250184445768
 30
0.0
 11
-855.8223567653334
 21
-2517.927842114423
 31
0.0
  0
LINE
  5
258
330
1F
100
AcDbEntity
  8
0-2_扉
  6
Continuous
 62
     7
370
     9
100
AcDbLine
 10
-1406.500018557985
 20
-2540.250130833808
 30
0.0
 11
-833.5000680459501
 21
-2540.250130833808
 31
0.0
  0
LINE
  5
259
330
1F
100
AcDbEntity
  8
0-2_扉
  6
Continuous
 62
     7
370
     9
100
AcDbLine
 10
-833.5000680459501
 20
-2540.250130833808
 30
0.0
 11
-818.5000185579855
 21
-2555.250180321772
 31
0.0
  0
LINE
  5
25A
330
1F
100
AcDbEntity
  8
0-2_扉
  6
Continuous
 62
     7
370
     9
100
AcDbLine
 10
-1421.499820606127
 20
-2555.250180321772
 30
0.0
 11
-818.5000185579855
 21
-2555.250180321772
 31
0.0
  0
LINE
  5
25B
330
1F
100
AcDbEntity
  8
0-2_扉
  6
Continuous
 62
     7
370
     9
100
AcDbLine
 10
-833.5000680459501
 20
-1887.250130833807
 30
0.0
 11
-833.5000680459501
 21
-642.2500838202409
 31
0.0
  0
LINE
  5
25C
330
1F
100
AcDbEntity
  8
0-2_扉
  6
Continuous
 62
     7
370
     9
100
AcDbLine
 10
-1406.500018557985
 20
-1887.250130833807
 30
0.0
 11
-1406.500018557985
 21
-642.2500838202409
 31
0.0
  0
LINE
  5
25D
330
1F
100
AcDbEntity
  8
0-2_扉
  6
Continuous
 62
     7
370
     9
100
AcDbLine
 10
-833.5000680459501
 20
-1887.250130833807
 30
0.0
 11
-1406.500018557985
 21
-1887.250130833807
 31
0.0
  0
LINE
  5
25E
330
1F
100
AcDbEntity
  8
0-2_扉
  6
Continuous
 62
     7
370
     9
100
AcDbLine
 10
-1525.000018557985
 20
-507.2500838202409
 30
0.0
 11
-1525.000018557985
 21
-2690.250130833808
 31
0.0
  0
LINE
  5
25F
330
1F
100
AcDbEntity
  8
0-2_扉
  6
Continuous
 62
     7
370
     9
100
AcDbLine
 10
-1421.50006804595
 20
-2690.250130833808
 30
0.0
 11
-1421.50006804595
 21
-507.2500219602859
 31
0.0
  0
LINE
  5
260
330
1F
100
AcDbEntity
  8
0-2_扉
  6
Continuous
 62
     7
370
     9
100
AcDbLine
 10
-818.5000185579855
 20
-2690.250130833808
 30
0.0
 11
-818.5000185579855
 21
-507.2500219602859
 31
0.0
  0
LINE
  5
261
330
1F
100
AcDbEntity
  8
引手
  6
JWW_CENTER1
 62
     7
370
     9
100
AcDbLine
 10
1472.074133221749
 20
-1732.750192693763
 30
0.0
 11
1399.564436612588
 21
-1732.750192693763
 31
0.0
  0
LINE
  5
262
330
1F
100
AcDbEntity
  8
引手
  6
JWW_CENTER1
 62
     7
370
     9
100
AcDbLine
 10
1433.999967420424
 20
-1817.980861229287
 30
0.0
 11
1433.999967420424
 21
-1647.130589805151
 31
0.0
  0
LINE
  5
263
330
1F
100
AcDbEntity
  8
引手
  6
JWW_DASHED1
 62
     7
370
     9
100
AcDbLine
 10
1417.999967420425
 20
-1783.750192693763
 30
0.0
 11
1417.999967420425
 21
-1681.750192693762
 31
0.0
  0
LINE
  5
264
330
1F
100
AcDbEntity
  8
引手
  6
JWW_DASHED1
 62
     7
370
     9
100
AcDbLine
 10
1449.999967420423
 20
-1783.750192693763
 30
0.0
 11
1417.999967420425
 21
-1783.750192693763
 31
0.0
  0
LINE
  5
265
330
1F
100
AcDbEntity
  8
引手
  6
JWW_DASHED1
 62
     7
370
     9
100
AcDbLine
 10
1449.999967420423
 20
-1783.750192693763
 30
0.0
 11
1449.999967420423
 21
-1681.750192693762
 31
0.0
  0
LINE
  5
266
330
1F
100
AcDbEntity
  8
引手
  6
JWW_DASHED1
 62
     7
370
     9
100
AcDbLine
 10
1449.999967420423
 20
-1681.750192693762
 30
0.0
 11
1417.999967420425
 21
-1681.750192693762
 31
0.0
  0
LINE
  5
267
330
1F
100
AcDbEntity
  8
引手
  6
Continuous
 62
     7
370
     9
100
AcDbLine
 10
1452.999967420425
 20
-1787.750192693762
 30
0.0
 11
1414.999967420424
 21
-1787.750192693762
 31
0.0
  0
LINE
  5
268
330
1F
100
AcDbEntity
  8
引手
  6
Continuous
 62
     7
370
     9
100
AcDbLine
 10
1446.499967420423
 20
-1771.750192693762
 30
0.0
 11
1421.499967420425
 21
-1771.750192693762
 31
0.0
  0
LINE
  5
269
330
1F
100
AcDbEntity
  8
引手
  6
Continuous
 62
     7
370
     9
100
AcDbLine
 10
1446.499967420423
 20
-1693.750192693763
 30
0.0
 11
1421.499967420425
 21
-1693.750192693763
 31
0.0
  0
LINE
  5
26A
330
1F
100
AcDbEntity
  8
引手
  6
Continuous
 62
     7
370
     9
100
AcDbLine
 10
1452.999967420425
 20
-1677.750192693763
 30
0.0
 11
1414.999967420424
 21
-1677.750192693763
 31
0.0
  0
LINE
  5
26B
330
1F
100
AcDbEntity
  8
引手
  6
Continuous
 62
     7
370
     9
100
AcDbLine
 10
1452.999967420425
 20
-1787.750192693762
 30
0.0
 11
1452.999967420425
 21
-1677.750192693763
 31
0.0
  0
LINE
  5
26C
330
1F
100
AcDbEntity
  8
引手
  6
Continuous
 62
     7
370
     9
100
AcDbLine
 10
1446.499967420423
 20
-1771.750192693762
 30
0.0
 11
1446.499967420423
 21
-1693.750192693763
 31
0.0
  0
LINE
  5
26D
330
1F
100
AcDbEntity
  8
引手
  6
Continuous
 62
     7
370
     9
100
AcDbLine
 10
1421.499967420425
 20
-1771.750192693762
 30
0.0
 11
1421.499967420425
 21
-1693.750192693763
 31
0.0
  0
LINE
  5
26E
330
1F
100
AcDbEntity
  8
引手
  6
Continuous
 62
     7
370
     9
100
AcDbLine
 10
1414.999967420424
 20
-1787.750192693762
 30
0.0
 11
1414.999967420424
 21
-1677.750192693763
 31
0.0
  0
LINE
  5
26F
330
1F
100
AcDbEntity
  8
0-2_扉
  6
Continuous
 62
     7
370
     9
100
AcDbLine
 10
871.999912158865
 20
-627.2502817720991
 30
0.0
 11
886.9999616468297
 21
-642.2500838202409
 31
0.0
  0
LINE
  5
270
330
1F
100
AcDbEntity
  8
0-2_扉
  6
Continuous
 62
     7
370
     9
100
AcDbLine
 10
1384.99994680044
 20
-627.2502817720991
 30
0.0
 11
1369.999959172432
 21
-642.2500838202409
 31
0.0
  0
LINE
  5
271
330
1F
100
AcDbEntity
  8
0-2_扉
  6
Continuous
 62
     7
370
     9
100
AcDbLine
 10
1168.499999587603
 20
-627.2502817720991
 30
0.0
 11
1384.99994680044
 21
-627.2502817720991
 31
0.0
  0
LINE
  5
272
330
1F
100
AcDbEntity
  8
0-2_扉
  6
Continuous
 62
     7
370
     9
100
AcDbLine
 10
887.1877684722099
 20
-825.2526176040238
 30
0.0
 11
886.9999616468297
 21
-825.2526176040238
 31
0.0
  0
LINE
  5
273
330
1F
100
AcDbEntity
  8
0-2_扉
  6
Continuous
 62
     7
370
     9
100
AcDbLine
 10
871.999912158865
 20
-627.2502817720991
 30
0.0
 11
1168.499999587603
 21
-627.2502817720991
 31
0.0
  0
LINE
  5
274
330
1F
100
AcDbEntity
  8
0-2_扉
  6
Continuous
 62
     7
370
     9
100
AcDbLine
 10
886.9999616468297
 20
-642.2500838202409
 30
0.0
 11
1369.999959172432
 21
-642.2500838202409
 31
0.0
  0
LINE
  5
275
330
1F
100
AcDbEntity
  8
0-2_扉
  6
Continuous
 62
     7
370
     9
100
AcDbLine
 10
886.9999616468297
 20
-2540.250192693762
 30
0.0
 11
871.999912158865
 21
-2555.250242181727
 31
0.0
  0
LINE
  5
276
330
1F
100
AcDbEntity
  8
0-2_扉
  6
Continuous
 62
     7
370
     9
100
AcDbLine
 10
1369.999959172432
 20
-2540.250192693762
 30
0.0
 11
1384.99994680044
 21
-2555.250242181727
 31
0.0
  0
LINE
  5
277
330
1F
100
AcDbEntity
  8
0-2_扉
  6
Continuous
 62
     7
370
     9
100
AcDbLine
 10
1165.999991339608
 20
-2555.250242181727
 30
0.0
 11
1384.99994680044
 21
-2555.250242181727
 31
0.0
  0
LINE
  5
278
330
1F
100
AcDbEntity
  8
0-2_扉
  6
Continuous
 62
     7
370
     9
100
AcDbLine
 10
871.999912158865
 20
-2555.250242181727
 30
0.0
 11
1165.999991339608
 21
-2555.250242181727
 31
0.0
  0
LINE
  5
279
330
1F
100
AcDbEntity
  8
0-2_扉
  6
Continuous
 62
     7
370
     9
100
AcDbLine
 10
926.9999698948234
 20
-2500.250060725858
 30
0.0
 11
926.9999698948234
 21
-2498.819116231558
 31
0.0
  0
LINE
  5
27A
330
1F
100
AcDbEntity
  8
0-2_扉
  6
Continuous
 62
     7
370
     9
100
AcDbLine
 10
926.9999698948234
 20
-2500.250060725858
 30
0.0
 11
909.322250366213
 21
-2517.92790397438
 31
0.0
  0
LINE
  5
27B
330
1F
100
AcDbEntity
  8
0-2_扉
  6
Continuous
 62
     7
370
     9
100
AcDbLine
 10
1329.999950924438
 20
-2500.250060725858
 30
0.0
 11
1347.677608593092
 21
-2517.92790397438
 31
0.0
  0
LINE
  5
27C
330
1F
100
AcDbEntity
  8
0-2_扉
  6
Continuous
 62
     7
370
     9
100
AcDbLine
 10
1165.999991339608
 20
-1977.24764241399
 30
0.0
 11
1384.99994680044
 21
-1977.24764241399
 31
0.0
  0
LINE
  5
27D
330
1F
100
AcDbEntity
  8
0-2_扉
  6
Continuous
 62
     7
370
     9
100
AcDbLine
 10
1384.99994680044
 20
-1902.250116812217
 30
0.0
 11
1165.999991339608
 21
-1902.250116812217
 31
0.0
  0
LINE
  5
27E
330
1F
100
AcDbEntity
  8
0-2_扉
  6
Continuous
 62
     7
370
     9
100
AcDbLine
 10
1369.999959172432
 20
-1992.247444462133
 30
0.0
 11
1384.99994680044
 21
-1977.24764241399
 31
0.0
  0
LINE
  5
27F
330
1F
100
AcDbEntity
  8
0-2_扉
  6
Continuous
 62
     7
370
     9
100
AcDbLine
 10
871.999912158865
 20
-1902.250116812217
 30
0.0
 11
886.9999616468297
 21
-1887.250314764075
 31
0.0
  0
LINE
  5
280
330
1F
100
AcDbEntity
  8
0-2_扉
  6
Continuous
 62
     7
370
     9
100
AcDbLine
 10
871.999912158865
 20
-1977.24764241399
 30
0.0
 11
886.9999616468297
 21
-1992.247444462133
 31
0.0
  0
LINE
  5
281
330
1F
100
AcDbEntity
  8
0-2_扉
  6
Continuous
 62
     7
370
     9
100
AcDbLine
 10
1369.999959172432
 20
-1887.250314764075
 30
0.0
 11
1384.99994680044
 21
-1902.250116812217
 31
0.0
  0
LINE
  5
282
330
1F
100
AcDbEntity
  8
0-2_扉
  6
Continuous
 62
     7
370
     9
100
AcDbLine
 10
1165.999991339608
 20
-1902.250116812217
 30
0.0
 11
871.999912158865
 21
-1902.250116812217
 31
0.0
  0
LINE
  5
283
330
1F
100
AcDbEntity
  8
0-2_扉
  6
Continuous
 62
     7
370
     9
100
AcDbLine
 10
871.999912158865
 20
-1977.24764241399
 30
0.0
 11
1165.999991339608
 21
-1977.24764241399
 31
0.0
  0
LINE
  5
284
330
1F
100
AcDbEntity
  8
0-2_扉
  6
Continuous
 62
     7
370
     9
100
AcDbLine
 10
1180.999917107662
 20
-1887.250314764075
 30
0.0
 11
1369.999959172432
 21
-1887.250314764075
 31
0.0
  0
LINE
  5
285
330
1F
100
AcDbEntity
  8
0-2_扉
  6
Continuous
 62
     7
370
     9
100
AcDbLine
 10
927.0360961089286
 20
-2032.247576430038
 30
0.0
 11
909.3583765803181
 21
-2014.569980621339
 31
0.0
  0
LINE
  5
286
330
1F
100
AcDbEntity
  8
0-2_扉
  6
Continuous
 62
     7
370
     9
100
AcDbLine
 10
1329.999950924438
 20
-2032.247576430038
 30
0.0
 11
1347.677608593092
 21
-2014.569980621339
 31
0.0
  0
LINE
  5
287
330
1F
100
AcDbEntity
  8
0-2_扉
  6
Continuous
 62
     7
370
     9
100
AcDbLine
 10
886.9999616468297
 20
-2540.250192693762
 30
0.0
 11
886.9999616468297
 21
-1992.247444462133
 31
0.0
  0
LINE
  5
288
330
1F
100
AcDbEntity
  8
0-2_扉
  6
Continuous
 62
     7
370
     9
100
AcDbLine
 10
926.9999698948234
 20
-2500.250060725858
 30
0.0
 11
926.9999698948234
 21
-2032.247576430038
 31
0.0
  0
LINE
  5
289
330
1F
100
AcDbEntity
  8
0-2_扉
  6
Continuous
 62
     7
370
     9
100
AcDbLine
 10
886.9999616468297
 20
-1887.250314764075
 30
0.0
 11
1369.999959172432
 21
-1887.250314764075
 31
0.0
  0
LINE
  5
28A
330
1F
100
AcDbEntity
  8
0-2_扉
  6
Continuous
 62
     7
370
     9
100
AcDbLine
 10
886.9999616468297
 20
-1992.247444462133
 30
0.0
 11
1369.999959172432
 21
-1992.247444462133
 31
0.0
  0
LINE
  5
28B
330
1F
100
AcDbEntity
  8
0-2_扉
  6
Continuous
 62
     7
370
     9
100
AcDbLine
 10
1329.999950924438
 20
-2032.247576430038
 30
0.0
 11
927.0360961089286
 21
-2032.247576430038
 31
0.0
  0
LINE
  5
28C
330
1F
100
AcDbEntity
  8
0-2_扉
  6
Continuous
 62
     7
370
     9
100
AcDbLine
 10
1329.999950924438
 20
-2500.250060725858
 30
0.0
 11
926.9999698948234
 21
-2500.250060725858
 31
0.0
  0
LINE
  5
28D
330
1F
100
AcDbEntity
  8
0-2_扉
  6
Continuous
 62
     7
370
     9
100
AcDbLine
 10
1329.999950924438
 20
-2032.247576430038
 30
0.0
 11
1329.999950924438
 21
-2500.250060725858
 31
0.0
  0
LINE
  5
28E
330
1F
100
AcDbEntity
  8
0-2_扉
  6
Continuous
 62
     7
370
     9
100
AcDbLine
 10
1369.999959172432
 20
-2540.250192693762
 30
0.0
 11
1369.999959172432
 21
-1992.247444462133
 31
0.0
  0
LINE
  5
28F
330
1F
100
AcDbEntity
  8
0-2_扉
  6
Continuous
 62
     7
370
     9
100
AcDbLine
 10
886.9999616468297
 20
-2540.250192693762
 30
0.0
 11
1369.999959172432
 21
-2540.250192693762
 31
0.0
  0
LINE
  5
290
330
1F
100
AcDbEntity
  8
0-2_扉
  6
Continuous
 62
     7
370
     9
100
AcDbLine
 10
886.9999616468297
 20
-1887.250314764075
 30
0.0
 11
886.9999616468297
 21
-642.2500838202409
 31
0.0
  0
LINE
  5
291
330
1F
100
AcDbEntity
  8
0-2_扉
  6
Continuous
 62
     7
370
     9
100
AcDbLine
 10
1369.999959172432
 20
-1887.250314764075
 30
0.0
 11
1369.999959172432
 21
-642.2500838202409
 31
0.0
  0
LINE
  5
292
330
1F
100
AcDbEntity
  8
0-2_扉
  6
Continuous
 62
     7
370
     9
100
AcDbLine
 10
771.9999533988359
 20
-507.2500838202409
 30
0.0
 11
771.9999533988359
 21
-2690.250192693762
 31
0.0
  0
LINE
  5
293
330
1F
100
AcDbEntity
  8
0-2_扉
  6
Continuous
 62
     7
370
     9
100
AcDbLine
 10
871.999912158865
 20
-2690.250192693762
 30
0.0
 11
871.999912158865
 21
-507.2500838202409
 31
0.0
  0
LINE
  5
294
330
1F
100
AcDbEntity
  8
0-2_扉
  6
Continuous
 62
     7
370
     9
100
AcDbLine
 10
1385.000008660396
 20
-2690.250192693762
 30
0.0
 11
1385.000008660396
 21
-507.2500838202409
 31
0.0
  0
LINE
  5
295
330
1F
100
AcDbEntity
  8
0-2_扉
  6
Continuous
 62
     7
370
     9
100
AcDbLine
 10
-4009.000018557984
 20
3412.000148463892
 30
0.0
 11
-3109.000018557982
 21
3412.000148463892
 31
0.0
  0
LINE
  5
296
330
1F
100
AcDbEntity
  8
0-2_扉
  6
Continuous
 62
     7
370
     9
100
AcDbLine
 10
-3109.000018557982
 20
1429.000039590371
 30
0.0
 11
-3109.000018557982
 21
3412.00003959037
 31
0.0
  0
LINE
  5
297
330
1F
100
AcDbEntity
  8
0-2_扉
  6
Continuous
 62
     7
370
     9
100
AcDbLine
 10
-4009.000018557984
 20
1429.000039590371
 30
0.0
 11
-3109.000018557982
 21
1429.000039590371
 31
0.0
  0
LINE
  5
298
330
1F
100
AcDbEntity
  8
0-2_扉
  6
Continuous
 62
     7
370
     9
100
AcDbLine
 10
-715.000068045951
 20
1429.000101450326
 30
0.0
 11
-715.000068045951
 21
3412.000101450326
 31
0.0
  0
LINE
  5
299
330
1F
100
AcDbEntity
  8
0-2_扉
  6
Continuous
 62
     7
370
     9
100
AcDbLine
 10
-1525.000018557985
 20
1429.000101450326
 30
0.0
 11
-715.000068045951
 21
1429.000101450326
 31
0.0
  0
LINE
  5
29A
330
1F
100
AcDbEntity
  8
0-2_扉
  6
Continuous
 62
     7
370
     9
100
AcDbLine
 10
-1525.000018557985
 20
3412.000148463892
 30
0.0
 11
-715.000068045951
 21
3412.000148463892
 31
0.0
  0
LINE
  5
29B
330
1F
100
AcDbEntity
  8
0-2_扉
  6
Continuous
 62
     7
370
     9
100
AcDbLine
 10
771.9999674204272
 20
3412.000148463892
 30
0.0
 11
1484.999981442017
 21
3412.000148463892
 31
0.0
  0
LINE
  5
29C
330
1F
100
AcDbEntity
  8
0-2_扉
  6
Continuous
 62
     7
370
     9
100
AcDbLine
 10
1484.999981442017
 20
1429.000039590371
 30
0.0
 11
1484.999981442017
 21
3412.00003959037
 31
0.0
  0
LINE
  5
29D
330
1F
100
AcDbEntity
  8
0-2_扉
  6
Continuous
 62
     7
370
     9
100
AcDbLine
 10
771.9999674204272
 20
1429.000039590371
 30
0.0
 11
1484.999981442017
 21
1429.000039590371
 31
0.0
  0
LINE
  5
29E
330
1F
100
AcDbEntity
  8
0-2_扉
  6
Continuous
 62
     7
370
     9
100
AcDbLine
 10
-3109.000018557987
 20
-2690.250192693762
 30
0.0
 11
-3109.000018557987
 21
-507.250192693763
 31
0.0
  0
LINE
  5
29F
330
1F
100
AcDbEntity
  8
0-2_扉
  6
Continuous
 62
     7
370
     9
100
AcDbLine
 10
-4009.000018557989
 20
-507.2500838202409
 30
0.0
 11
-3109.000018557987
 21
-507.2500838202409
 31
0.0
  0
LINE
  5
2A0
330
1F
100
AcDbEntity
  8
0-2_扉
  6
Continuous
 62
     7
370
     9
100
AcDbLine
 10
-4009.000018557989
 20
-2690.250192693762
 30
0.0
 11
-3109.000018557987
 21
-2690.250192693762
 31
0.0
  0
LINE
  5
2A1
330
1F
100
AcDbEntity
  8
0-2_扉
  6
Continuous
 62
     7
370
     9
100
AcDbLine
 10
-715.000068045951
 20
-2690.250130833808
 30
0.0
 11
-715.000068045951
 21
-507.2501308338079
 31
0.0
  0
LINE
  5
2A2
330
1F
100
AcDbEntity
  8
0-2_扉
  6
Continuous
 62
     7
370
     9
100
AcDbLine
 10
-1525.000018557985
 20
-2690.250130833808
 30
0.0
 11
-715.000068045951
 21
-2690.250130833808
 31
0.0
  0
LINE
  5
2A3
330
1F
100
AcDbEntity
  8
0-2_扉
  6
Continuous
 62
     7
370
     9
100
AcDbLine
 10
-1525.000018557985
 20
-507.2500838202409
 30
0.0
 11
-715.000068045951
 21
-507.2500838202409
 31
0.0
  0
LINE
  5
2A4
330
1F
100
AcDbEntity
  8
0-2_扉
  6
Continuous
 62
     7
370
     9
100
AcDbLine
 10
1484.999967420425
 20
-2690.250192693762
 30
0.0
 11
1484.999967420425
 21
-507.250192693763
 31
0.0
  0
LINE
  5
2A5
330
1F
100
AcDbEntity
  8
0-2_扉
  6
Continuous
 62
     7
370
     9
100
AcDbLine
 10
771.9999533988359
 20
-507.2500838202409
 30
0.0
 11
1484.999967420425
 21
-507.2500838202409
 31
0.0
  0
LINE
  5
2A6
330
1F
100
AcDbEntity
  8
0-2_扉
  6
Continuous
 62
     7
370
     9
100
AcDbLine
 10
771.9999533988359
 20
-2690.250192693762
 30
0.0
 11
1484.999967420425
 21
-2690.250192693762
 31
0.0
  0
MTEXT
  5
2A7
330
1F
100
AcDbEntity
  8
F-A_文字
  6
Continuous
 62
     7
370
     0
100
AcDbMText
 10
-5247.547376752838
 20
-4045.214743770698
 30
0.0
 40
79.57038461538461
 41
2715.0
 46
0.0
 71
     7
 72
     1
  1
{\fＭＳ ゴシック|b0|i0|c128|p49;ドレタス　アウトセット引き戸　上吊りタイプ　Ｂ－ＹＹ}
 73
     1
 44
1.0
  0
MTEXT
  5
2A8
330
1F
100
AcDbEntity
  8
0-A_文字
  6
Continuous
 62
     7
370
     9
100
AcDbMText
 10
-4405.500018557987
 20
4013.576151024072
 30
0.0
 40
77.15249999999999
 41
405.0
 46
0.0
 71
     7
 72
     1
  1
{\fＭＳ ゴシック|b0|i0|c128|p49;Ｂ－ＹＹ}
 73
     1
 44
1.0
  0
MTEXT
  5
2A9
330
1F
100
AcDbEntity
  8
0-A_文字
  6
Continuous
 62
     7
370
     9
100
AcDbMText
 10
-1921.500018557985
 20
4013.576151024072
 30
0.0
 40
77.15249999999999
 41
405.0
 46
0.0
 71
     7
 72
     1
  1
{\fＭＳ ゴシック|b0|i0|c128|p49;Ｂ－ＹＹ}
 73
     1
 44
1.0
  0
MTEXT
  5
2AA
330
1F
100
AcDbEntity
  8
0-A_文字
  6
Continuous
 62
     7
370
     9
100
AcDbMText
 10
375.4999814420188
 20
4013.576151024072
 30
0.0
 40
77.15249999999999
 41
405.0
 46
0.0
 71
     7
 72
     1
  1
{\fＭＳ ゴシック|b0|i0|c128|p49;Ｂ－ＹＹ}
 73
     1
 44
1.0
  0
MTEXT
  5
2AB
330
1F
100
AcDbEntity
  8
0-A_文字
  6
Continuous
 62
     7
370
     9
100
AcDbMText
 10
-4405.500018557987
 20
33.07618236644843
 30
0.0
 40
77.15249999999999
 41
405.0
 46
0.0
 71
     7
 72
     1
  1
{\fＭＳ ゴシック|b0|i0|c128|p49;Ｂ－ＹＹ}
 73
     1
 44
1.0
  0
MTEXT
  5
2AC
330
1F
100
AcDbEntity
  8
0-A_文字
  6
Continuous
 62
     7
370
     9
100
AcDbMText
 10
-1921.500018557985
 20
33.07618236644843
 30
0.0
 40
77.15249999999999
 41
405.0
 46
0.0
 71
     7
 72
     1
  1
{\fＭＳ ゴシック|b0|i0|c128|p49;Ｂ－ＹＹ}
 73
     1
 44
1.0
  0
MTEXT
  5
2AD
330
1F
100
AcDbEntity
  8
0-A_文字
  6
Continuous
 62
     7
370
     9
100
AcDbMText
 10
375.4999814420188
 20
33.07618236644843
 30
0.0
 40
77.15249999999999
 41
405.0
 46
0.0
 71
     7
 72
     1
  1
{\fＭＳ ゴシック|b0|i0|c128|p49;Ｂ－ＹＹ}
 73
     1
 44
1.0
  0
MTEXT
  5
2AE
330
1F
100
AcDbEntity
  8
0-A_文字
  6
Continuous
 62
     7
370
     9
100
AcDbMText
 10
-5370.000018557986
 20
541.5751831054688
 30
0.0
 40
57.15000000000001
 41
675.0
 46
0.0
 71
     7
 72
     1
  1
{\fＭＳ ゴシック|b0|i0|c128|p49;カスミ熱処理ガラス}
 73
     1
 44
1.0
  0
MTEXT
  5
2AF
330
1F
100
AcDbEntity
  8
0-A_文字
  6
Continuous
 62
     7
370
     9
100
AcDbMText
 10
-2796.000018557986
 20
541.5751831054688
 30
0.0
 40
57.15000000000001
 41
675.0
 46
0.0
 71
     7
 72
     1
  1
{\fＭＳ ゴシック|b0|i0|c128|p49;カスミ熱処理ガラス}
 73
     1
 44
1.0
  0
MTEXT
  5
2B0
330
1F
100
AcDbEntity
  8
0-A_文字
  6
Continuous
 62
     7
370
     9
100
AcDbMText
 10
-402.0000185579818
 20
541.5751831054688
 30
0.0
 40
57.15000000000001
 41
675.0
 46
0.0
 71
     7
 72
     1
  1
{\fＭＳ ゴシック|b0|i0|c128|p49;カスミ熱処理ガラス}
 73
     1
 44
1.0
  0
MTEXT
  5
2B1
330
1F
100
AcDbEntity
  8
0-A_文字
  6
Continuous
 62
     7
370
     9
100
AcDbMText
 10
-402.0000185579818
 20
-3438.925017526989
 30
0.0
 40
57.15000000000001
 41
675.0
 46
0.0
 71
     7
 72
     1
  1
{\fＭＳ ゴシック|b0|i0|c128|p49;カスミ熱処理ガラス}
 73
     1
 44
1.0
  0
MTEXT
  5
2B2
330
1F
100
AcDbEntity
  8
0-A_文字
  6
Continuous
 62
     7
370
     9
100
AcDbMText
 10
-2796.000018557986
 20
-3438.925017526989
 30
0.0
 40
57.15000000000001
 41
675.0
 46
0.0
 71
     7
 72
     1
  1
{\fＭＳ ゴシック|b0|i0|c128|p49;カスミ熱処理ガラス}
 73
     1
 44
1.0
  0
MTEXT
  5
2B3
330
1F
100
AcDbEntity
  8
0-A_文字
  6
Continuous
 62
     7
370
     9
100
AcDbMText
 10
-5370.000018557986
 20
-3438.925017526989
 30
0.0
 40
57.15000000000001
 41
675.0
 46
0.0
 71
     7
 72
     1
  1
{\fＭＳ ゴシック|b0|i0|c128|p49;カスミ熱処理ガラス}
 73
     1
 44
1.0
  0
LINE
  5
2B4
330
1F
100
AcDbEntity
  8
0-C_ハッチ
  6
Continuous
 62
   120
370
     5
100
AcDbLine
 10
-3822.355566110115
 20
3277.000148463893
 30
0.0
 11
-3890.500026805978
 21
3213.903425597353
 31
0.0
  0
LINE
  5
2B5
330
1F
100
AcDbEntity
  8
0-C_ハッチ
  6
Continuous
 62
   120
370
     5
100
AcDbLine
 10
-3785.558827124168
 20
3277.000148463893
 30
0.0
 11
-3890.500026805978
 21
3179.832370980734
 31
0.0
  0
LINE
  5
2B6
330
1F
100
AcDbEntity
  8
0-C_ハッチ
  6
Continuous
 62
   120
370
     5
100
AcDbLine
 10
-3748.762088138219
 20
3277.000148463893
 30
0.0
 11
-3890.500026805978
 21
3145.761316364114
 31
0.0
  0
LINE
  5
2B7
330
1F
100
AcDbEntity
  8
0-C_ハッチ
  6
Continuous
 62
   120
370
     5
100
AcDbLine
 10
-3711.965349152271
 20
3277.000148463893
 30
0.0
 11
-3890.500026805978
 21
3111.690261747496
 31
0.0
  0
LINE
  5
2B8
330
1F
100
AcDbEntity
  8
0-C_ハッチ
  6
Continuous
 62
   120
370
     5
100
AcDbLine
 10
-3859.152305096063
 20
3277.000148463893
 30
0.0
 11
-3890.500026805978
 21
3247.974480213971
 31
0.0
  0
LINE
  5
2B9
330
1F
100
AcDbEntity
  8
0-C_ハッチ
  6
Continuous
 62
   120
370
     5
100
AcDbLine
 10
-3675.168610166323
 20
3277.000148463893
 30
0.0
 11
-3890.500026805978
 21
3077.619207130877
 31
0.0
  0
LINE
  5
2BA
330
1F
100
AcDbEntity
  8
0-C_ハッチ
  6
Continuous
 62
   120
370
     5
100
AcDbLine
 10
-3638.371871180376
 20
3277.000148463893
 30
0.0
 11
-3890.500026805978
 21
3043.548152514259
 31
0.0
  0
LINE
  5
2BB
330
1F
100
AcDbEntity
  8
0-C_ハッチ
  6
Continuous
 62
   120
370
     5
100
AcDbLine
 10
-3601.575132194428
 20
3277.000148463893
 30
0.0
 11
-3890.500026805978
 21
3009.47709789764
 31
0.0
  0
LINE
  5
2BC
330
1F
100
AcDbEntity
  8
0-C_ハッチ
  6
Continuous
 62
   120
370
     5
100
AcDbLine
 10
-3564.778393208479
 20
3277.000148463893
 30
0.0
 11
-3890.500026805978
 21
2975.406043281021
 31
0.0
  0
LINE
  5
2BD
330
1F
100
AcDbEntity
  8
0-C_ハッチ
  6
Continuous
 62
   120
370
     5
100
AcDbLine
 10
-3527.981654222531
 20
3277.000148463893
 30
0.0
 11
-3890.500026805978
 21
2941.334988664402
 31
0.0
  0
LINE
  5
2BE
330
1F
100
AcDbEntity
  8
0-C_ハッチ
  6
Continuous
 62
   120
370
     5
100
AcDbLine
 10
-3491.184915236584
 20
3277.000148463893
 30
0.0
 11
-3890.500026805978
 21
2907.263934047783
 31
0.0
  0
LINE
  5
2BF
330
1F
100
AcDbEntity
  8
0-C_ハッチ
  6
Continuous
 62
   120
370
     5
100
AcDbLine
 10
-3454.388176250635
 20
3277.000148463893
 30
0.0
 11
-3890.500026805978
 21
2873.192879431165
 31
0.0
  0
LINE
  5
2C0
330
1F
100
AcDbEntity
  8
0-C_ハッチ
  6
Continuous
 62
   120
370
     5
100
AcDbLine
 10
-3417.591437264688
 20
3277.000148463893
 30
0.0
 11
-3890.500026805978
 21
2839.121824814546
 31
0.0
  0
LINE
  5
2C1
330
1F
100
AcDbEntity
  8
0-C_ハッチ
  6
Continuous
 62
   120
370
     5
100
AcDbLine
 10
-3227.500018557981
 20
3248.584393640762
 30
0.0
 11
-3890.500026805978
 21
2634.695497114833
 31
0.0
  0
LINE
  5
2C2
330
1F
100
AcDbEntity
  8
0-C_ハッチ
  6
Continuous
 62
   120
370
     5
100
AcDbLine
 10
-3227.500018557981
 20
3214.513339024144
 30
0.0
 11
-3890.500026805978
 21
2600.624442498214
 31
0.0
  0
LINE
  5
2C3
330
1F
100
AcDbEntity
  8
0-C_ハッチ
  6
Continuous
 62
   120
370
     5
100
AcDbLine
 10
-3227.500018557981
 20
3180.442284407524
 30
0.0
 11
-3890.500026805978
 21
2566.553387881595
 31
0.0
  0
LINE
  5
2C4
330
1F
100
AcDbEntity
  8
0-C_ハッチ
  6
Continuous
 62
   120
370
     5
100
AcDbLine
 10
-3227.500018557981
 20
3146.371229790906
 30
0.0
 11
-3890.500026805978
 21
2532.482333264976
 31
0.0
  0
LINE
  5
2C5
330
1F
100
AcDbEntity
  8
0-C_ハッチ
  6
Continuous
 62
   120
370
     5
100
AcDbLine
 10
-3227.500018557981
 20
3112.300175174286
 30
0.0
 11
-3890.500026805978
 21
2498.411278648357
 31
0.0
  0
LINE
  5
2C6
330
1F
100
AcDbEntity
  8
0-C_ハッチ
  6
Continuous
 62
   120
370
     5
100
AcDbLine
 10
-3227.500018557981
 20
3078.229120557668
 30
0.0
 11
-3890.500026805978
 21
2464.340224031738
 31
0.0
  0
LINE
  5
2C7
330
1F
100
AcDbEntity
  8
0-C_ハッチ
  6
Continuous
 62
   120
370
     5
100
AcDbLine
 10
-3227.500018557981
 20
3044.158065941049
 30
0.0
 11
-3890.500026805978
 21
2430.269169415118
 31
0.0
  0
LINE
  5
2C8
330
1F
100
AcDbEntity
  8
0-C_ハッチ
  6
Continuous
 62
   120
370
     5
100
AcDbLine
 10
-3227.500018557981
 20
3010.08701132443
 30
0.0
 11
-3890.500026805978
 21
2396.1981147985
 31
0.0
  0
LINE
  5
2C9
330
1F
100
AcDbEntity
  8
0-C_ハッチ
  6
Continuous
 62
   120
370
     5
100
AcDbLine
 10
-3227.500018557981
 20
2907.873847474573
 30
0.0
 11
-3890.500026805978
 21
2293.984950948644
 31
0.0
  0
LINE
  5
2CA
330
1F
100
AcDbEntity
  8
0-C_ハッチ
  6
Continuous
 62
   120
370
     5
100
AcDbLine
 10
-3227.500018557981
 20
2873.802792857955
 30
0.0
 11
-3890.500026805978
 21
2259.913896332025
 31
0.0
  0
LINE
  5
2CB
330
1F
100
AcDbEntity
  8
0-C_ハッチ
  6
Continuous
 62
   120
370
     5
100
AcDbLine
 10
-3227.500018557981
 20
2839.731738241336
 30
0.0
 11
-3883.850117701944
 21
2232.000164959882
 31
0.0
  0
LINE
  5
2CC
330
1F
100
AcDbEntity
  8
0-C_ハッチ
  6
Continuous
 62
   120
370
     5
100
AcDbLine
 10
-3227.500018557981
 20
2805.660683624717
 30
0.0
 11
-3847.053378715997
 21
2232.000164959882
 31
0.0
  0
LINE
  5
2CD
330
1F
100
AcDbEntity
  8
0-C_ハッチ
  6
Continuous
 62
   120
370
     5
100
AcDbLine
 10
-3227.500018557981
 20
2771.589629008099
 30
0.0
 11
-3810.256639730048
 21
2232.000164959882
 31
0.0
  0
LINE
  5
2CE
330
1F
100
AcDbEntity
  8
0-C_ハッチ
  6
Continuous
 62
   120
370
     5
100
AcDbLine
 10
-3227.500018557981
 20
2737.51857439148
 30
0.0
 11
-3773.459900744101
 21
2232.000164959882
 31
0.0
  0
LINE
  5
2CF
330
1F
100
AcDbEntity
  8
0-C_ハッチ
  6
Continuous
 62
   120
370
     5
100
AcDbLine
 10
-3227.500018557981
 20
2703.44751977486
 30
0.0
 11
-3736.663161758152
 21
2232.000164959882
 31
0.0
  0
LINE
  5
2D0
330
1F
100
AcDbEntity
  8
0-C_ハッチ
  6
Continuous
 62
   120
370
     5
100
AcDbLine
 10
-3227.500018557981
 20
2669.376465158242
 30
0.0
 11
-3699.866422772206
 21
2232.000164959882
 31
0.0
  0
LINE
  5
2D1
330
1F
100
AcDbEntity
  8
0-C_ハッチ
  6
Continuous
 62
   120
370
     5
100
AcDbLine
 10
-3227.500018557981
 20
2635.305410541623
 30
0.0
 11
-3663.069683786258
 21
2232.000164959882
 31
0.0
  0
LINE
  5
2D2
330
1F
100
AcDbEntity
  8
0-C_ハッチ
  6
Continuous
 62
   120
370
     5
100
AcDbLine
 10
-3227.500018557981
 20
2601.234355925004
 30
0.0
 11
-3626.27294480031
 21
2232.000164959882
 31
0.0
  0
LINE
  5
2D3
330
1F
100
AcDbEntity
  8
0-C_ハッチ
  6
Continuous
 62
   120
370
     5
100
AcDbLine
 10
-3227.500018557981
 20
2567.163301308386
 30
0.0
 11
-3589.476205814362
 21
2232.000164959882
 31
0.0
  0
LINE
  5
2D4
330
1F
100
AcDbEntity
  8
0-C_ハッチ
  6
Continuous
 62
   120
370
     5
100
AcDbLine
 10
-3227.500018557981
 20
2533.092246691767
 30
0.0
 11
-3552.679466828414
 21
2232.000164959882
 31
0.0
  0
LINE
  5
2D5
330
1F
100
AcDbEntity
  8
0-C_ハッチ
  6
Continuous
 62
   120
370
     5
100
AcDbLine
 10
-3227.500018557981
 20
2499.021192075148
 30
0.0
 11
-3515.882727842466
 21
2232.000164959882
 31
0.0
  0
LINE
  5
2D6
330
1F
100
AcDbEntity
  8
0-C_ハッチ
  6
Continuous
 62
   120
370
     5
100
AcDbLine
 10
-3227.500018557981
 20
2464.950137458529
 30
0.0
 11
-3479.085988856517
 21
2232.000164959882
 31
0.0
  0
LINE
  5
2D7
330
1F
100
AcDbEntity
  8
0-C_ハッチ
  6
Continuous
 62
   120
370
     5
100
AcDbLine
 10
-3227.500018557981
 20
2430.87908284191
 30
0.0
 11
-3442.28924987057
 21
2232.000164959882
 31
0.0
  0
LINE
  5
2D8
330
1F
100
AcDbEntity
  8
0-C_ハッチ
  6
Continuous
 62
   120
370
     5
100
AcDbLine
 10
-3227.500018557981
 20
2976.015956707811
 30
0.0
 11
-3890.500018557984
 21
2362.127067818912
 31
0.0
  0
LINE
  5
2D9
330
1F
100
AcDbEntity
  8
0-C_ハッチ
  6
Continuous
 62
   120
370
     5
100
AcDbLine
 10
-3227.500018557981
 20
2941.944902091192
 30
0.0
 11
-3890.500018557984
 21
2328.056013202295
 31
0.0
  0
LINE
  5
2DA
330
1F
100
AcDbEntity
  8
0-C_ハッチ
  6
Continuous
 62
   120
370
     5
100
AcDbLine
 10
-3380.794698278739
 20
3277.000148463893
 30
0.0
 11
-3890.500026805978
 21
2805.050770197926
 31
0.0
  0
LINE
  5
2DB
330
1F
100
AcDbEntity
  8
0-C_ハッチ
  6
Continuous
 62
   120
370
     5
100
AcDbLine
 10
-3233.607742334947
 20
3277.000148463893
 30
0.0
 11
-3890.500026805978
 21
2668.766551731451
 31
0.0
  0
LINE
  5
2DC
330
1F
100
AcDbEntity
  8
0-C_ハッチ
  6
Continuous
 62
   120
370
     5
100
AcDbLine
 10
-3343.997959292791
 20
3277.000148463893
 30
0.0
 11
-3890.500026805978
 21
2770.979715581308
 31
0.0
  0
LINE
  5
2DD
330
1F
100
AcDbEntity
  8
0-C_ハッチ
  6
Continuous
 62
   120
370
     5
100
AcDbLine
 10
-3307.201220306843
 20
3277.000148463893
 30
0.0
 11
-3890.500026805978
 21
2736.908660964689
 31
0.0
  0
LINE
  5
2DE
330
1F
100
AcDbEntity
  8
0-C_ハッチ
  6
Continuous
 62
   120
370
     5
100
AcDbLine
 10
-3270.404481320896
 20
3277.000148463893
 30
0.0
 11
-3890.500026805978
 21
2702.83760634807
 31
0.0
  0
LINE
  5
2DF
330
1F
100
AcDbEntity
  8
0-C_ハッチ
  6
Continuous
 62
   120
370
     5
100
AcDbLine
 10
-3227.500018557981
 20
2396.80802822529
 30
0.0
 11
-3405.492646283693
 21
2232.000039590371
 31
0.0
  0
LINE
  5
2E0
330
1F
100
AcDbEntity
  8
0-C_ハッチ
  6
Continuous
 62
   120
370
     5
100
AcDbLine
 10
-3227.500018557981
 20
2328.665918992053
 30
0.0
 11
-3331.899168311797
 21
2232.000039590371
 31
0.0
  0
LINE
  5
2E1
330
1F
100
AcDbEntity
  8
0-C_ハッチ
  6
Continuous
 62
   120
370
     5
100
AcDbLine
 10
-3227.500018557981
 20
2260.523809758815
 30
0.0
 11
-3258.305690339901
 21
2232.000039590371
 31
0.0
  0
LINE
  5
2E2
330
1F
100
AcDbEntity
  8
0-C_ハッチ
  6
Continuous
 62
   120
370
     5
100
AcDbLine
 10
-3227.500018557981
 20
2294.594864375435
 30
0.0
 11
-3295.102429325849
 21
2232.000039590371
 31
0.0
  0
LINE
  5
2E3
330
1F
100
AcDbEntity
  8
0-C_ハッチ
  6
Continuous
 62
   120
370
     5
100
AcDbLine
 10
-3227.500018557981
 20
2362.736973608672
 30
0.0
 11
-3368.695907297746
 21
2232.000039590371
 31
0.0
  0
LINE
  5
2E4
330
1F
100
AcDbEntity
  8
0-C_ハッチ
  6
Continuous
 62
   120
370
     5
100
AcDbLine
 10
-3822.355566110115
 20
-642.4998201937319
 30
0.0
 11
-3890.500026805978
 21
-705.5965430602726
 31
0.0
  0
LINE
  5
2E5
330
1F
100
AcDbEntity
  8
0-C_ハッチ
  6
Continuous
 62
   120
370
     5
100
AcDbLine
 10
-3785.558827124168
 20
-642.4998201937319
 30
0.0
 11
-3890.500026805978
 21
-739.6675976768918
 31
0.0
  0
LINE
  5
2E6
330
1F
100
AcDbEntity
  8
0-C_ハッチ
  6
Continuous
 62
   120
370
     5
100
AcDbLine
 10
-3748.762088138219
 20
-642.4998201937319
 30
0.0
 11
-3890.500026805978
 21
-773.7386522935103
 31
0.0
  0
LINE
  5
2E7
330
1F
100
AcDbEntity
  8
0-C_ハッチ
  6
Continuous
 62
   120
370
     5
100
AcDbLine
 10
-3711.965349152271
 20
-642.4998201937319
 30
0.0
 11
-3890.500026805978
 21
-807.8097069101286
 31
0.0
  0
LINE
  5
2E8
330
1F
100
AcDbEntity
  8
0-C_ハッチ
  6
Continuous
 62
   120
370
     5
100
AcDbLine
 10
-3859.152305096063
 20
-642.4998201937319
 30
0.0
 11
-3890.500026805978
 21
-671.5254884436541
 31
0.0
  0
LINE
  5
2E9
330
1F
100
AcDbEntity
  8
0-C_ハッチ
  6
Continuous
 62
   120
370
     5
100
AcDbLine
 10
-3675.168610166323
 20
-642.4998201937319
 30
0.0
 11
-3890.500026805978
 21
-841.8807615267488
 31
0.0
  0
LINE
  5
2EA
330
1F
100
AcDbEntity
  8
0-C_ハッチ
  6
Continuous
 62
   120
370
     5
100
AcDbLine
 10
-3638.371871180376
 20
-642.4998201937319
 30
0.0
 11
-3890.500026805978
 21
-875.9518161433673
 31
0.0
  0
LINE
  5
2EB
330
1F
100
AcDbEntity
  8
0-C_ハッチ
  6
Continuous
 62
   120
370
     5
100
AcDbLine
 10
-3601.575132194428
 20
-642.4998201937319
 30
0.0
 11
-3890.500026805978
 21
-910.0228707599856
 31
0.0
  0
LINE
  5
2EC
330
1F
100
AcDbEntity
  8
0-C_ハッチ
  6
Continuous
 62
   120
370
     5
100
AcDbLine
 10
-3564.778393208479
 20
-642.4998201937319
 30
0.0
 11
-3890.500026805978
 21
-944.0939253766032
 31
0.0
  0
LINE
  5
2ED
330
1F
100
AcDbEntity
  8
0-C_ハッチ
  6
Continuous
 62
   120
370
     5
100
AcDbLine
 10
-3527.981654222531
 20
-642.4998201937319
 30
0.0
 11
-3890.500026805978
 21
-978.1649799932225
 31
0.0
  0
LINE
  5
2EE
330
1F
100
AcDbEntity
  8
0-C_ハッチ
  6
Continuous
 62
   120
370
     5
100
AcDbLine
 10
-3491.184915236584
 20
-642.4998201937319
 30
0.0
 11
-3890.500026805978
 21
-1012.236034609843
 31
0.0
  0
LINE
  5
2EF
330
1F
100
AcDbEntity
  8
0-C_ハッチ
  6
Continuous
 62
   120
370
     5
100
AcDbLine
 10
-3454.388176250635
 20
-642.4998201937319
 30
0.0
 11
-3890.500026805978
 21
-1046.307089226461
 31
0.0
  0
LINE
  5
2F0
330
1F
100
AcDbEntity
  8
0-C_ハッチ
  6
Continuous
 62
   120
370
     5
100
AcDbLine
 10
-3417.591437264688
 20
-642.4998201937319
 30
0.0
 11
-3890.500026805978
 21
-1080.378143843079
 31
0.0
  0
LINE
  5
2F1
330
1F
100
AcDbEntity
  8
0-C_ハッチ
  6
Continuous
 62
   120
370
     5
100
AcDbLine
 10
-3227.500018557981
 20
-670.9155750168632
 30
0.0
 11
-3890.500026805978
 21
-1284.804471542792
 31
0.0
  0
LINE
  5
2F2
330
1F
100
AcDbEntity
  8
0-C_ハッチ
  6
Continuous
 62
   120
370
     5
100
AcDbLine
 10
-3227.500018557981
 20
-704.9866296334815
 30
0.0
 11
-3890.500026805978
 21
-1318.875526159411
 31
0.0
  0
LINE
  5
2F3
330
1F
100
AcDbEntity
  8
0-C_ハッチ
  6
Continuous
 62
   120
370
     5
100
AcDbLine
 10
-3227.500018557981
 20
-739.0576842501016
 30
0.0
 11
-3890.500026805978
 21
-1352.94658077603
 31
0.0
  0
LINE
  5
2F4
330
1F
100
AcDbEntity
  8
0-C_ハッチ
  6
Continuous
 62
   120
370
     5
100
AcDbLine
 10
-3227.500018557981
 20
-773.1287388667201
 30
0.0
 11
-3890.500026805978
 21
-1387.017635392649
 31
0.0
  0
LINE
  5
2F5
330
1F
100
AcDbEntity
  8
0-C_ハッチ
  6
Continuous
 62
   120
370
     5
100
AcDbLine
 10
-3227.500018557981
 20
-807.1997934833385
 30
0.0
 11
-3890.500026805978
 21
-1421.088690009269
 31
0.0
  0
LINE
  5
2F6
330
1F
100
AcDbEntity
  8
0-C_ハッチ
  6
Continuous
 62
   120
370
     5
100
AcDbLine
 10
-3227.500018557981
 20
-841.270848099957
 30
0.0
 11
-3890.500026805978
 21
-1455.159744625887
 31
0.0
  0
LINE
  5
2F7
330
1F
100
AcDbEntity
  8
0-C_ハッチ
  6
Continuous
 62
   120
370
     5
100
AcDbLine
 10
-3227.500018557981
 20
-875.3419027165762
 30
0.0
 11
-3890.500026805978
 21
-1489.230799242507
 31
0.0
  0
LINE
  5
2F8
330
1F
100
AcDbEntity
  8
0-C_ハッチ
  6
Continuous
 62
   120
370
     5
100
AcDbLine
 10
-3227.500018557981
 20
-909.4129573331954
 30
0.0
 11
-3890.500026805978
 21
-1523.301853859125
 31
0.0
  0
LINE
  5
2F9
330
1F
100
AcDbEntity
  8
0-C_ハッチ
  6
Continuous
 62
   120
370
     5
100
AcDbLine
 10
-3227.500018557981
 20
-1011.626121183052
 30
0.0
 11
-3890.500026805978
 21
-1625.515017708981
 31
0.0
  0
LINE
  5
2FA
330
1F
100
AcDbEntity
  8
0-C_ハッチ
  6
Continuous
 62
   120
370
     5
100
AcDbLine
 10
-3227.500018557981
 20
-1045.697175799671
 30
0.0
 11
-3890.500026805978
 21
-1659.5860723256
 31
0.0
  0
LINE
  5
2FB
330
1F
100
AcDbEntity
  8
0-C_ハッチ
  6
Continuous
 62
   120
370
     5
100
AcDbLine
 10
-3227.500018557981
 20
-943.484011949814
 30
0.0
 11
-3890.500018557984
 21
-1557.372900838714
 31
0.0
  0
LINE
  5
2FC
330
1F
100
AcDbEntity
  8
0-C_ハッチ
  6
Continuous
 62
   120
370
     5
100
AcDbLine
 10
-3227.500018557981
 20
-977.5550665664323
 30
0.0
 11
-3890.500018557984
 21
-1591.443955455331
 31
0.0
  0
LINE
  5
2FD
330
1F
100
AcDbEntity
  8
0-C_ハッチ
  6
Continuous
 62
   120
370
     5
100
AcDbLine
 10
-3380.794698278739
 20
-642.4998201937319
 30
0.0
 11
-3890.500026805978
 21
-1114.449198459699
 31
0.0
  0
LINE
  5
2FE
330
1F
100
AcDbEntity
  8
0-C_ハッチ
  6
Continuous
 62
   120
370
     5
100
AcDbLine
 10
-3233.607742334947
 20
-642.4998201937319
 30
0.0
 11
-3890.500026805978
 21
-1250.733416926174
 31
0.0
  0
LINE
  5
2FF
330
1F
100
AcDbEntity
  8
0-C_ハッチ
  6
Continuous
 62
   120
370
     5
100
AcDbLine
 10
-3343.997959292791
 20
-642.4998201937319
 30
0.0
 11
-3890.500026805978
 21
-1148.520253076318
 31
0.0
  0
LINE
  5
300
330
1F
100
AcDbEntity
  8
0-C_ハッチ
  6
Continuous
 62
   120
370
     5
100
AcDbLine
 10
-3307.201220306843
 20
-642.4998201937319
 30
0.0
 11
-3890.500026805978
 21
-1182.591307692936
 31
0.0
  0
LINE
  5
301
330
1F
100
AcDbEntity
  8
0-C_ハッチ
  6
Continuous
 62
   120
370
     5
100
AcDbLine
 10
-3270.404481320896
 20
-642.4998201937319
 30
0.0
 11
-3890.500026805978
 21
-1216.662362309556
 31
0.0
  0
LINE
  5
302
330
1F
100
AcDbEntity
  8
0-C_ハッチ
  6
Continuous
 62
   120
370
     5
100
AcDbLine
 10
-3227.500018557981
 20
-1658.976158898809
 30
0.0
 11
-3474.305690339901
 21
-1887.499929067254
 31
0.0
  0
LINE
  5
303
330
1F
100
AcDbEntity
  8
0-C_ハッチ
  6
Continuous
 62
   120
370
     5
100
AcDbLine
 10
-3227.500018557981
 20
-1284.194558116002
 30
0.0
 11
-3879.069819185328
 21
-1887.499929067254
 31
0.0
  0
LINE
  5
304
330
1F
100
AcDbEntity
  8
0-C_ハッチ
  6
Continuous
 62
   120
370
     5
100
AcDbLine
 10
-3227.500018557981
 20
-1318.265612732621
 30
0.0
 11
-3842.27308019938
 21
-1887.499929067254
 31
0.0
  0
LINE
  5
305
330
1F
100
AcDbEntity
  8
0-C_ハッチ
  6
Continuous
 62
   120
370
     5
100
AcDbLine
 10
-3227.500018557981
 20
-1352.33666734924
 30
0.0
 11
-3805.476341213432
 21
-1887.499929067254
 31
0.0
  0
LINE
  5
306
330
1F
100
AcDbEntity
  8
0-C_ハッチ
  6
Continuous
 62
   120
370
     5
100
AcDbLine
 10
-3227.500018557981
 20
-1386.407721965859
 30
0.0
 11
-3768.679602227484
 21
-1887.499929067254
 31
0.0
  0
LINE
  5
307
330
1F
100
AcDbEntity
  8
0-C_ハッチ
  6
Continuous
 62
   120
370
     5
100
AcDbLine
 10
-3227.500018557981
 20
-1420.478776582477
 30
0.0
 11
-3731.882863241536
 21
-1887.499929067254
 31
0.0
  0
LINE
  5
308
330
1F
100
AcDbEntity
  8
0-C_ハッチ
  6
Continuous
 62
   120
370
     5
100
AcDbLine
 10
-3227.500018557981
 20
-1454.549831199095
 30
0.0
 11
-3695.086124255587
 21
-1887.499929067254
 31
0.0
  0
LINE
  5
309
330
1F
100
AcDbEntity
  8
0-C_ハッチ
  6
Continuous
 62
   120
370
     5
100
AcDbLine
 10
-3227.500018557981
 20
-1488.620885815716
 30
0.0
 11
-3658.28938526964
 21
-1887.499929067254
 31
0.0
  0
LINE
  5
30A
330
1F
100
AcDbEntity
  8
0-C_ハッチ
  6
Continuous
 62
   120
370
     5
100
AcDbLine
 10
-3227.500018557981
 20
-1522.691940432335
 30
0.0
 11
-3621.492646283693
 21
-1887.499929067254
 31
0.0
  0
LINE
  5
30B
330
1F
100
AcDbEntity
  8
0-C_ハッチ
  6
Continuous
 62
   120
370
     5
100
AcDbLine
 10
-3227.500018557981
 20
-1590.834049665573
 30
0.0
 11
-3547.899168311796
 21
-1887.499929067254
 31
0.0
  0
LINE
  5
30C
330
1F
100
AcDbEntity
  8
0-C_ハッチ
  6
Continuous
 62
   120
370
     5
100
AcDbLine
 10
-3227.500018557981
 20
-1624.905104282191
 30
0.0
 11
-3511.102429325848
 21
-1887.499929067254
 31
0.0
  0
LINE
  5
30D
330
1F
100
AcDbEntity
  8
0-C_ハッチ
  6
Continuous
 62
   120
370
     5
100
AcDbLine
 10
-3227.500018557981
 20
-1556.762995048954
 30
0.0
 11
-3584.695907297745
 21
-1887.499929067254
 31
0.0
  0
LINE
  5
30E
330
1F
100
AcDbEntity
  8
0-C_ハッチ
  6
Continuous
 62
   120
370
     5
100
AcDbLine
 10
-3227.500018557981
 20
-1079.768230416289
 30
0.0
 11
-3890.500018557984
 21
-1693.657119305188
 31
0.0
  0
LINE
  5
30F
330
1F
100
AcDbEntity
  8
0-C_ハッチ
  6
Continuous
 62
   120
370
     5
100
AcDbLine
 10
-3227.500018557981
 20
-1250.123503499383
 30
0.0
 11
-3890.500018557984
 21
-1864.012392388281
 31
0.0
  0
LINE
  5
310
330
1F
100
AcDbEntity
  8
0-C_ハッチ
  6
Continuous
 62
   120
370
     5
100
AcDbLine
 10
-3227.500018557981
 20
-1113.839285032908
 30
0.0
 11
-3890.500018557984
 21
-1727.728173921806
 31
0.0
  0
LINE
  5
311
330
1F
100
AcDbEntity
  8
0-C_ハッチ
  6
Continuous
 62
   120
370
     5
100
AcDbLine
 10
-3227.500018557981
 20
-1147.910339649526
 30
0.0
 11
-3890.500018557984
 21
-1761.799228538426
 31
0.0
  0
LINE
  5
312
330
1F
100
AcDbEntity
  8
0-C_ハッチ
  6
Continuous
 62
   120
370
     5
100
AcDbLine
 10
-3227.500018557981
 20
-1181.981394266145
 30
0.0
 11
-3890.500018557984
 21
-1795.870283155044
 31
0.0
  0
LINE
  5
313
330
1F
100
AcDbEntity
  8
0-C_ハッチ
  6
Continuous
 62
   120
370
     5
100
AcDbLine
 10
-3227.500018557981
 20
-1216.052448882765
 30
0.0
 11
-3890.500018557984
 21
-1829.941337771663
 31
0.0
  0
LINE
  5
314
330
1F
100
AcDbEntity
  8
0-C_ハッチ
  6
Continuous
 62
   120
370
     5
100
AcDbLine
 10
-3227.500018557981
 20
-1863.402486598523
 30
0.0
 11
-3253.525256424211
 21
-1887.499929067254
 31
0.0
  0
LINE
  5
315
330
1F
100
AcDbEntity
  8
0-C_ハッチ
  6
Continuous
 62
   120
370
     5
100
AcDbLine
 10
-3227.500018557981
 20
-1693.047213515429
 30
0.0
 11
-3437.508951353952
 21
-1887.499929067254
 31
0.0
  0
LINE
  5
316
330
1F
100
AcDbEntity
  8
0-C_ハッチ
  6
Continuous
 62
   120
370
     5
100
AcDbLine
 10
-3227.500018557981
 20
-1727.118268132047
 30
0.0
 11
-3400.712212368004
 21
-1887.499929067254
 31
0.0
  0
LINE
  5
317
330
1F
100
AcDbEntity
  8
0-C_ハッチ
  6
Continuous
 62
   120
370
     5
100
AcDbLine
 10
-3227.500018557981
 20
-1761.189322748666
 30
0.0
 11
-3363.915473382056
 21
-1887.499929067254
 31
0.0
  0
LINE
  5
318
330
1F
100
AcDbEntity
  8
0-C_ハッチ
  6
Continuous
 62
   120
370
     5
100
AcDbLine
 10
-3227.500018557981
 20
-1795.260377365285
 30
0.0
 11
-3327.118734396108
 21
-1887.499929067254
 31
0.0
  0
LINE
  5
319
330
1F
100
AcDbEntity
  8
0-C_ハッチ
  6
Continuous
 62
   120
370
     5
100
AcDbLine
 10
-3227.500018557981
 20
-1829.331431981902
 30
0.0
 11
-3290.32199541016
 21
-1887.499929067254
 31
0.0
  0
LINE
  5
31A
330
1F
100
AcDbEntity
  8
0-C_ハッチ
  6
Continuous
 62
   120
370
     5
100
AcDbLine
 10
-1338.355566110116
 20
3277.000148463892
 30
0.0
 11
-1406.50002680598
 21
3213.903425597352
 31
0.0
  0
LINE
  5
31B
330
1F
100
AcDbEntity
  8
0-C_ハッチ
  6
Continuous
 62
   120
370
     5
100
AcDbLine
 10
-1301.558827124168
 20
3277.000148463892
 30
0.0
 11
-1406.50002680598
 21
3179.832370980733
 31
0.0
  0
LINE
  5
31C
330
1F
100
AcDbEntity
  8
0-C_ハッチ
  6
Continuous
 62
   120
370
     5
100
AcDbLine
 10
-1264.76208813822
 20
3277.000148463892
 30
0.0
 11
-1406.50002680598
 21
3145.761316364114
 31
0.0
  0
LINE
  5
31D
330
1F
100
AcDbEntity
  8
0-C_ハッチ
  6
Continuous
 62
   120
370
     5
100
AcDbLine
 10
-1227.965349152272
 20
3277.000148463892
 30
0.0
 11
-1406.50002680598
 21
3111.690261747495
 31
0.0
  0
LINE
  5
31E
330
1F
100
AcDbEntity
  8
0-C_ハッチ
  6
Continuous
 62
   120
370
     5
100
AcDbLine
 10
-1375.152305096064
 20
3277.000148463892
 30
0.0
 11
-1406.50002680598
 21
3247.97448021397
 31
0.0
  0
LINE
  5
31F
330
1F
100
AcDbEntity
  8
0-C_ハッチ
  6
Continuous
 62
   120
370
     5
100
AcDbLine
 10
-1191.168610166324
 20
3277.000148463892
 30
0.0
 11
-1406.50002680598
 21
3077.619207130876
 31
0.0
  0
LINE
  5
320
330
1F
100
AcDbEntity
  8
0-C_ハッチ
  6
Continuous
 62
   120
370
     5
100
AcDbLine
 10
-1154.371871180377
 20
3277.000148463892
 30
0.0
 11
-1406.50002680598
 21
3043.548152514258
 31
0.0
  0
LINE
  5
321
330
1F
100
AcDbEntity
  8
0-C_ハッチ
  6
Continuous
 62
   120
370
     5
100
AcDbLine
 10
-1117.575132194429
 20
3277.000148463892
 30
0.0
 11
-1406.50002680598
 21
3009.477097897639
 31
0.0
  0
LINE
  5
322
330
1F
100
AcDbEntity
  8
0-C_ハッチ
  6
Continuous
 62
   120
370
     5
100
AcDbLine
 10
-1080.77839320848
 20
3277.000148463892
 30
0.0
 11
-1406.50002680598
 21
2975.40604328102
 31
0.0
  0
LINE
  5
323
330
1F
100
AcDbEntity
  8
0-C_ハッチ
  6
Continuous
 62
   120
370
     5
100
AcDbLine
 10
-1043.981654222532
 20
3277.000148463892
 30
0.0
 11
-1406.50002680598
 21
2941.334988664401
 31
0.0
  0
LINE
  5
324
330
1F
100
AcDbEntity
  8
0-C_ハッチ
  6
Continuous
 62
   120
370
     5
100
AcDbLine
 10
-1007.184915236585
 20
3277.000148463892
 30
0.0
 11
-1406.50002680598
 21
2907.263934047782
 31
0.0
  0
LINE
  5
325
330
1F
100
AcDbEntity
  8
0-C_ハッチ
  6
Continuous
 62
   120
370
     5
100
AcDbLine
 10
-970.3881762506364
 20
3277.000148463892
 30
0.0
 11
-1406.50002680598
 21
2873.192879431164
 31
0.0
  0
LINE
  5
326
330
1F
100
AcDbEntity
  8
0-C_ハッチ
  6
Continuous
 62
   120
370
     5
100
AcDbLine
 10
-933.5914372646882
 20
3277.000148463892
 30
0.0
 11
-1406.50002680598
 21
2839.121824814545
 31
0.0
  0
LINE
  5
327
330
1F
100
AcDbEntity
  8
0-C_ハッチ
  6
Continuous
 62
   120
370
     5
100
AcDbLine
 10
-833.5000680459501
 20
2313.474649069763
 30
0.0
 11
-921.4925108846226
 21
2232.000164959881
 31
0.0
  0
LINE
  5
328
330
1F
100
AcDbEntity
  8
0-C_ハッチ
  6
Continuous
 62
   120
370
     5
100
AcDbLine
 10
-833.5000680459501
 20
3267.464178335091
 30
0.0
 11
-1406.50002680598
 21
2736.908660964688
 31
0.0
  0
LINE
  5
329
330
1F
100
AcDbEntity
  8
0-C_ハッチ
  6
Continuous
 62
   120
370
     5
100
AcDbLine
 10
-833.5000680459501
 20
3233.393123718472
 30
0.0
 11
-1406.50002680598
 21
2702.837606348069
 31
0.0
  0
LINE
  5
32A
330
1F
100
AcDbEntity
  8
0-C_ハッチ
  6
Continuous
 62
   120
370
     5
100
AcDbLine
 10
-833.5000680459501
 20
3199.322069101853
 30
0.0
 11
-1406.50002680598
 21
2668.76655173145
 31
0.0
  0
LINE
  5
32B
330
1F
100
AcDbEntity
  8
0-C_ハッチ
  6
Continuous
 62
   120
370
     5
100
AcDbLine
 10
-833.5000680459501
 20
3165.251014485234
 30
0.0
 11
-1406.50002680598
 21
2634.695497114832
 31
0.0
  0
LINE
  5
32C
330
1F
100
AcDbEntity
  8
0-C_ハッチ
  6
Continuous
 62
   120
370
     5
100
AcDbLine
 10
-833.5000680459501
 20
3131.179959868615
 30
0.0
 11
-1406.50002680598
 21
2600.624442498213
 31
0.0
  0
LINE
  5
32D
330
1F
100
AcDbEntity
  8
0-C_ハッチ
  6
Continuous
 62
   120
370
     5
100
AcDbLine
 10
-833.5000680459501
 20
3097.108905251996
 30
0.0
 11
-1406.50002680598
 21
2566.553387881594
 31
0.0
  0
LINE
  5
32E
330
1F
100
AcDbEntity
  8
0-C_ハッチ
  6
Continuous
 62
   120
370
     5
100
AcDbLine
 10
-833.5000680459501
 20
3063.037850635378
 30
0.0
 11
-1406.50002680598
 21
2532.482333264975
 31
0.0
  0
LINE
  5
32F
330
1F
100
AcDbEntity
  8
0-C_ハッチ
  6
Continuous
 62
   120
370
     5
100
AcDbLine
 10
-833.5000680459501
 20
3028.966796018758
 30
0.0
 11
-1406.50002680598
 21
2498.411278648356
 31
0.0
  0
LINE
  5
330
330
1F
100
AcDbEntity
  8
0-C_ハッチ
  6
Continuous
 62
   120
370
     5
100
AcDbLine
 10
-833.5000680459501
 20
2994.89574140214
 30
0.0
 11
-1406.50002680598
 21
2464.340224031737
 31
0.0
  0
LINE
  5
331
330
1F
100
AcDbEntity
  8
0-C_ハッチ
  6
Continuous
 62
   120
370
     5
100
AcDbLine
 10
-833.5000680459501
 20
2960.82468678552
 30
0.0
 11
-1406.50002680598
 21
2430.269169415117
 31
0.0
  0
LINE
  5
332
330
1F
100
AcDbEntity
  8
0-C_ハッチ
  6
Continuous
 62
   120
370
     5
100
AcDbLine
 10
-833.5000680459501
 20
2926.753632168902
 30
0.0
 11
-1406.50002680598
 21
2396.198114798499
 31
0.0
  0
LINE
  5
333
330
1F
100
AcDbEntity
  8
0-C_ハッチ
  6
Continuous
 62
   120
370
     5
100
AcDbLine
 10
-833.5000680459501
 20
2824.540468319045
 30
0.0
 11
-1406.50002680598
 21
2293.984950948643
 31
0.0
  0
LINE
  5
334
330
1F
100
AcDbEntity
  8
0-C_ハッチ
  6
Continuous
 62
   120
370
     5
100
AcDbLine
 10
-833.5000680459501
 20
2790.469413702427
 30
0.0
 11
-1406.50002680598
 21
2259.913896332024
 31
0.0
  0
LINE
  5
335
330
1F
100
AcDbEntity
  8
0-C_ハッチ
  6
Continuous
 62
   120
370
     5
100
AcDbLine
 10
-833.5000680459501
 20
2756.398359085808
 30
0.0
 11
-1399.850117701945
 21
2232.000164959881
 31
0.0
  0
LINE
  5
336
330
1F
100
AcDbEntity
  8
0-C_ハッチ
  6
Continuous
 62
   120
370
     5
100
AcDbLine
 10
-833.5000680459501
 20
2722.327304469189
 30
0.0
 11
-1363.053378715998
 21
2232.000164959881
 31
0.0
  0
LINE
  5
337
330
1F
100
AcDbEntity
  8
0-C_ハッチ
  6
Continuous
 62
   120
370
     5
100
AcDbLine
 10
-833.5000680459501
 20
2688.25624985257
 30
0.0
 11
-1326.256639730049
 21
2232.000164959881
 31
0.0
  0
LINE
  5
338
330
1F
100
AcDbEntity
  8
0-C_ハッチ
  6
Continuous
 62
   120
370
     5
100
AcDbLine
 10
-833.5000680459501
 20
2654.185195235951
 30
0.0
 11
-1289.459900744102
 21
2232.000164959881
 31
0.0
  0
LINE
  5
339
330
1F
100
AcDbEntity
  8
0-C_ハッチ
  6
Continuous
 62
   120
370
     5
100
AcDbLine
 10
-833.5000680459501
 20
2620.114140619332
 30
0.0
 11
-1252.663161758154
 21
2232.000164959881
 31
0.0
  0
LINE
  5
33A
330
1F
100
AcDbEntity
  8
0-C_ハッチ
  6
Continuous
 62
   120
370
     5
100
AcDbLine
 10
-833.5000680459501
 20
2586.043086002714
 30
0.0
 11
-1215.866422772206
 21
2232.000164959881
 31
0.0
  0
LINE
  5
33B
330
1F
100
AcDbEntity
  8
0-C_ハッチ
  6
Continuous
 62
   120
370
     5
100
AcDbLine
 10
-833.5000680459501
 20
2551.972031386095
 30
0.0
 11
-1179.069683786259
 21
2232.000164959881
 31
0.0
  0
LINE
  5
33C
330
1F
100
AcDbEntity
  8
0-C_ハッチ
  6
Continuous
 62
   120
370
     5
100
AcDbLine
 10
-833.5000680459501
 20
2517.900976769477
 30
0.0
 11
-1142.272944800311
 21
2232.000164959881
 31
0.0
  0
LINE
  5
33D
330
1F
100
AcDbEntity
  8
0-C_ハッチ
  6
Continuous
 62
   120
370
     5
100
AcDbLine
 10
-833.5000680459501
 20
2483.829922152858
 30
0.0
 11
-1105.476205814363
 21
2232.000164959881
 31
0.0
  0
LINE
  5
33E
330
1F
100
AcDbEntity
  8
0-C_ハッチ
  6
Continuous
 62
   120
370
     5
100
AcDbLine
 10
-833.5000680459501
 20
2449.758867536239
 30
0.0
 11
-1068.679466828415
 21
2232.000164959881
 31
0.0
  0
LINE
  5
33F
330
1F
100
AcDbEntity
  8
0-C_ハッチ
  6
Continuous
 62
   120
370
     5
100
AcDbLine
 10
-833.5000680459501
 20
2415.68781291962
 30
0.0
 11
-1031.882727842466
 21
2232.000164959881
 31
0.0
  0
LINE
  5
340
330
1F
100
AcDbEntity
  8
0-C_ハッチ
  6
Continuous
 62
   120
370
     5
100
AcDbLine
 10
-833.5000680459501
 20
2381.616758303001
 30
0.0
 11
-995.0859888565184
 21
2232.000164959881
 31
0.0
  0
LINE
  5
341
330
1F
100
AcDbEntity
  8
0-C_ハッチ
  6
Continuous
 62
   120
370
     5
100
AcDbLine
 10
-833.5000680459501
 20
2347.545703686382
 30
0.0
 11
-958.2892498705706
 21
2232.000164959881
 31
0.0
  0
LINE
  5
342
330
1F
100
AcDbEntity
  8
0-C_ハッチ
  6
Continuous
 62
   120
370
     5
100
AcDbLine
 10
-833.5000680459501
 20
2892.682577552283
 30
0.0
 11
-1406.500018557985
 21
2362.127067818911
 31
0.0
  0
LINE
  5
343
330
1F
100
AcDbEntity
  8
0-C_ハッチ
  6
Continuous
 62
   120
370
     5
100
AcDbLine
 10
-833.5000680459501
 20
2858.611522935665
 30
0.0
 11
-1406.500018557985
 21
2328.056013202294
 31
0.0
  0
LINE
  5
344
330
1F
100
AcDbEntity
  8
0-C_ハッチ
  6
Continuous
 62
   120
370
     5
100
AcDbLine
 10
-896.7946982787404
 20
3277.000148463892
 30
0.0
 11
-1406.50002680598
 21
2805.050770197926
 31
0.0
  0
LINE
  5
345
330
1F
100
AcDbEntity
  8
0-C_ハッチ
  6
Continuous
 62
   120
370
     5
100
AcDbLine
 10
-859.9979592927923
 20
3277.000148463892
 30
0.0
 11
-1406.50002680598
 21
2770.979715581307
 31
0.0
  0
LINE
  5
346
330
1F
100
AcDbEntity
  8
0-C_ハッチ
  6
Continuous
 62
   120
370
     5
100
AcDbLine
 10
-833.5000680459502
 20
2279.403594453144
 30
0.0
 11
-884.6958404889936
 21
2232.000101450326
 31
0.0
  0
LINE
  5
347
330
1F
100
AcDbEntity
  8
0-C_ハッチ
  6
Continuous
 62
   120
370
     5
100
AcDbLine
 10
-833.5000680459502
 20
2245.332539836525
 30
0.0
 11
-847.8991015030452
 21
2232.000101450326
 31
0.0
  0
LINE
  5
348
330
1F
100
AcDbEntity
  8
0-C_ハッチ
  6
Continuous
 62
   120
370
     5
100
AcDbLine
 10
-1338.355566110116
 20
-642.4998201937328
 30
0.0
 11
-1406.50002680598
 21
-705.5965430602735
 31
0.0
  0
LINE
  5
349
330
1F
100
AcDbEntity
  8
0-C_ハッチ
  6
Continuous
 62
   120
370
     5
100
AcDbLine
 10
-1301.558827124168
 20
-642.4998201937328
 30
0.0
 11
-1406.50002680598
 21
-739.6675976768927
 31
0.0
  0
LINE
  5
34A
330
1F
100
AcDbEntity
  8
0-C_ハッチ
  6
Continuous
 62
   120
370
     5
100
AcDbLine
 10
-1264.76208813822
 20
-642.4998201937328
 30
0.0
 11
-1406.50002680598
 21
-773.7386522935111
 31
0.0
  0
LINE
  5
34B
330
1F
100
AcDbEntity
  8
0-C_ハッチ
  6
Continuous
 62
   120
370
     5
100
AcDbLine
 10
-1227.965349152272
 20
-642.4998201937328
 30
0.0
 11
-1406.50002680598
 21
-807.8097069101295
 31
0.0
  0
LINE
  5
34C
330
1F
100
AcDbEntity
  8
0-C_ハッチ
  6
Continuous
 62
   120
370
     5
100
AcDbLine
 10
-1375.152305096064
 20
-642.4998201937328
 30
0.0
 11
-1406.50002680598
 21
-671.5254884436549
 31
0.0
  0
LINE
  5
34D
330
1F
100
AcDbEntity
  8
0-C_ハッチ
  6
Continuous
 62
   120
370
     5
100
AcDbLine
 10
-1191.168610166324
 20
-642.4998201937328
 30
0.0
 11
-1406.50002680598
 21
-841.8807615267497
 31
0.0
  0
LINE
  5
34E
330
1F
100
AcDbEntity
  8
0-C_ハッチ
  6
Continuous
 62
   120
370
     5
100
AcDbLine
 10
-1154.371871180377
 20
-642.4998201937328
 30
0.0
 11
-1406.50002680598
 21
-875.9518161433681
 31
0.0
  0
LINE
  5
34F
330
1F
100
AcDbEntity
  8
0-C_ハッチ
  6
Continuous
 62
   120
370
     5
100
AcDbLine
 10
-1117.575132194429
 20
-642.4998201937328
 30
0.0
 11
-1406.50002680598
 21
-910.0228707599865
 31
0.0
  0
LINE
  5
350
330
1F
100
AcDbEntity
  8
0-C_ハッチ
  6
Continuous
 62
   120
370
     5
100
AcDbLine
 10
-1080.77839320848
 20
-642.4998201937328
 30
0.0
 11
-1406.50002680598
 21
-944.0939253766041
 31
0.0
  0
LINE
  5
351
330
1F
100
AcDbEntity
  8
0-C_ハッチ
  6
Continuous
 62
   120
370
     5
100
AcDbLine
 10
-1043.981654222532
 20
-642.4998201937328
 30
0.0
 11
-1406.50002680598
 21
-978.1649799932234
 31
0.0
  0
LINE
  5
352
330
1F
100
AcDbEntity
  8
0-C_ハッチ
  6
Continuous
 62
   120
370
     5
100
AcDbLine
 10
-1007.184915236585
 20
-642.4998201937328
 30
0.0
 11
-1406.50002680598
 21
-1012.236034609844
 31
0.0
  0
LINE
  5
353
330
1F
100
AcDbEntity
  8
0-C_ハッチ
  6
Continuous
 62
   120
370
     5
100
AcDbLine
 10
-970.3881762506364
 20
-642.4998201937328
 30
0.0
 11
-1406.50002680598
 21
-1046.307089226462
 31
0.0
  0
LINE
  5
354
330
1F
100
AcDbEntity
  8
0-C_ハッチ
  6
Continuous
 62
   120
370
     5
100
AcDbLine
 10
-933.5914372646882
 20
-642.4998201937328
 30
0.0
 11
-1406.50002680598
 21
-1080.37814384308
 31
0.0
  0
LINE
  5
355
330
1F
100
AcDbEntity
  8
0-C_ハッチ
  6
Continuous
 62
   120
370
     5
100
AcDbLine
 10
-833.5000680459501
 20
-652.0357903225346
 30
0.0
 11
-1406.50002680598
 21
-1182.591307692937
 31
0.0
  0
LINE
  5
356
330
1F
100
AcDbEntity
  8
0-C_ハッチ
  6
Continuous
 62
   120
370
     5
100
AcDbLine
 10
-833.5000680459501
 20
-686.106844939153
 30
0.0
 11
-1406.50002680598
 21
-1216.662362309557
 31
0.0
  0
LINE
  5
357
330
1F
100
AcDbEntity
  8
0-C_ハッチ
  6
Continuous
 62
   120
370
     5
100
AcDbLine
 10
-833.5000680459501
 20
-720.1778995557722
 30
0.0
 11
-1406.50002680598
 21
-1250.733416926175
 31
0.0
  0
LINE
  5
358
330
1F
100
AcDbEntity
  8
0-C_ハッチ
  6
Continuous
 62
   120
370
     5
100
AcDbLine
 10
-833.5000680459501
 20
-754.2489541723916
 30
0.0
 11
-1406.50002680598
 21
-1284.804471542793
 31
0.0
  0
LINE
  5
359
330
1F
100
AcDbEntity
  8
0-C_ハッチ
  6
Continuous
 62
   120
370
     5
100
AcDbLine
 10
-833.5000680459501
 20
-788.32000878901
 30
0.0
 11
-1406.50002680598
 21
-1318.875526159412
 31
0.0
  0
LINE
  5
35A
330
1F
100
AcDbEntity
  8
0-C_ハッチ
  6
Continuous
 62
   120
370
     5
100
AcDbLine
 10
-833.5000680459501
 20
-822.3910634056292
 30
0.0
 11
-1406.50002680598
 21
-1352.946580776031
 31
0.0
  0
LINE
  5
35B
330
1F
100
AcDbEntity
  8
0-C_ハッチ
  6
Continuous
 62
   120
370
     5
100
AcDbLine
 10
-833.5000680459501
 20
-856.4621180222478
 30
0.0
 11
-1406.50002680598
 21
-1387.01763539265
 31
0.0
  0
LINE
  5
35C
330
1F
100
AcDbEntity
  8
0-C_ハッチ
  6
Continuous
 62
   120
370
     5
100
AcDbLine
 10
-833.5000680459501
 20
-890.533172638867
 30
0.0
 11
-1406.50002680598
 21
-1421.08869000927
 31
0.0
  0
LINE
  5
35D
330
1F
100
AcDbEntity
  8
0-C_ハッチ
  6
Continuous
 62
   120
370
     5
100
AcDbLine
 10
-833.5000680459501
 20
-924.6042272554854
 30
0.0
 11
-1406.50002680598
 21
-1455.159744625888
 31
0.0
  0
LINE
  5
35E
330
1F
100
AcDbEntity
  8
0-C_ハッチ
  6
Continuous
 62
   120
370
     5
100
AcDbLine
 10
-833.5000680459501
 20
-958.6752818721047
 30
0.0
 11
-1406.50002680598
 21
-1489.230799242508
 31
0.0
  0
LINE
  5
35F
330
1F
100
AcDbEntity
  8
0-C_ハッチ
  6
Continuous
 62
   120
370
     5
100
AcDbLine
 10
-833.5000680459501
 20
-992.746336488723
 30
0.0
 11
-1406.50002680598
 21
-1523.301853859126
 31
0.0
  0
LINE
  5
360
330
1F
100
AcDbEntity
  8
0-C_ハッチ
  6
Continuous
 62
   120
370
     5
100
AcDbLine
 10
-833.5000680459501
 20
-1094.95950033858
 30
0.0
 11
-1406.50002680598
 21
-1625.515017708982
 31
0.0
  0
LINE
  5
361
330
1F
100
AcDbEntity
  8
0-C_ハッチ
  6
Continuous
 62
   120
370
     5
100
AcDbLine
 10
-833.5000680459501
 20
-1129.030554955199
 30
0.0
 11
-1406.50002680598
 21
-1659.586072325601
 31
0.0
  0
LINE
  5
362
330
1F
100
AcDbEntity
  8
0-C_ハッチ
  6
Continuous
 62
   120
370
     5
100
AcDbLine
 10
-833.5000680459501
 20
-1026.817391105342
 30
0.0
 11
-1406.500018557985
 21
-1557.372900838715
 31
0.0
  0
LINE
  5
363
330
1F
100
AcDbEntity
  8
0-C_ハッチ
  6
Continuous
 62
   120
370
     5
100
AcDbLine
 10
-833.5000680459501
 20
-1060.888445721961
 30
0.0
 11
-1406.500018557985
 21
-1591.443955455331
 31
0.0
  0
LINE
  5
364
330
1F
100
AcDbEntity
  8
0-C_ハッチ
  6
Continuous
 62
   120
370
     5
100
AcDbLine
 10
-896.7946982787404
 20
-642.4998201937328
 30
0.0
 11
-1406.50002680598
 21
-1114.4491984597
 31
0.0
  0
LINE
  5
365
330
1F
100
AcDbEntity
  8
0-C_ハッチ
  6
Continuous
 62
   120
370
     5
100
AcDbLine
 10
-859.9979592927923
 20
-642.4998201937328
 30
0.0
 11
-1406.50002680598
 21
-1148.520253076319
 31
0.0
  0
LINE
  5
366
330
1F
100
AcDbEntity
  8
0-C_ハッチ
  6
Continuous
 62
   120
370
     5
100
AcDbLine
 10
-833.5000680459502
 20
-1674.1674288211
 30
0.0
 11
-1063.899101503045
 21
-1887.499867207298
 31
0.0
  0
LINE
  5
367
330
1F
100
AcDbEntity
  8
0-C_ハッチ
  6
Continuous
 62
   120
370
     5
100
AcDbLine
 10
-833.5000680459501
 20
-1606.025319587862
 30
0.0
 11
-1137.492579474941
 21
-1887.499867207298
 31
0.0
  0
LINE
  5
368
330
1F
100
AcDbEntity
  8
0-C_ハッチ
  6
Continuous
 62
   120
370
     5
100
AcDbLine
 10
-833.5000680459501
 20
-1367.52793727153
 30
0.0
 11
-1395.069752376576
 21
-1887.499867207298
 31
0.0
  0
LINE
  5
369
330
1F
100
AcDbEntity
  8
0-C_ハッチ
  6
Continuous
 62
   120
370
     5
100
AcDbLine
 10
-833.5000680459501
 20
-1401.598991888148
 30
0.0
 11
-1358.273013390628
 21
-1887.499867207298
 31
0.0
  0
LINE
  5
36A
330
1F
100
AcDbEntity
  8
0-C_ハッチ
  6
Continuous
 62
   120
370
     5
100
AcDbLine
 10
-833.5000680459501
 20
-1435.670046504768
 30
0.0
 11
-1321.47627440468
 21
-1887.499867207298
 31
0.0
  0
LINE
  5
36B
330
1F
100
AcDbEntity
  8
0-C_ハッチ
  6
Continuous
 62
   120
370
     5
100
AcDbLine
 10
-833.5000680459501
 20
-1469.741101121387
 30
0.0
 11
-1284.679535418732
 21
-1887.499867207298
 31
0.0
  0
LINE
  5
36C
330
1F
100
AcDbEntity
  8
0-C_ハッチ
  6
Continuous
 62
   120
370
     5
100
AcDbLine
 10
-833.5000680459501
 20
-1503.812155738005
 30
0.0
 11
-1247.882796432783
 21
-1887.499867207298
 31
0.0
  0
LINE
  5
36D
330
1F
100
AcDbEntity
  8
0-C_ハッチ
  6
Continuous
 62
   120
370
     5
100
AcDbLine
 10
-833.5000680459501
 20
-1537.883210354624
 30
0.0
 11
-1211.086057446835
 21
-1887.499867207298
 31
0.0
  0
LINE
  5
36E
330
1F
100
AcDbEntity
  8
0-C_ハッチ
  6
Continuous
 62
   120
370
     5
100
AcDbLine
 10
-833.5000680459501
 20
-1571.954264971244
 30
0.0
 11
-1174.289318460889
 21
-1887.499867207298
 31
0.0
  0
LINE
  5
36F
330
1F
100
AcDbEntity
  8
0-C_ハッチ
  6
Continuous
 62
   120
370
     5
100
AcDbLine
 10
-833.5000680459502
 20
-1640.09637420448
 30
0.0
 11
-1100.695840488993
 21
-1887.499867207298
 31
0.0
  0
LINE
  5
370
330
1F
100
AcDbEntity
  8
0-C_ハッチ
  6
Continuous
 62
   120
370
     5
100
AcDbLine
 10
-833.5000680459501
 20
-1163.101609571818
 30
0.0
 11
-1406.500018557985
 21
-1693.657119305188
 31
0.0
  0
LINE
  5
371
330
1F
100
AcDbEntity
  8
0-C_ハッチ
  6
Continuous
 62
   120
370
     5
100
AcDbLine
 10
-833.5000680459501
 20
-1333.456882654912
 30
0.0
 11
-1406.500018557985
 21
-1864.012392388282
 31
0.0
  0
LINE
  5
372
330
1F
100
AcDbEntity
  8
0-C_ハッチ
  6
Continuous
 62
   120
370
     5
100
AcDbLine
 10
-833.5000680459501
 20
-1197.172664188436
 30
0.0
 11
-1406.500018557985
 21
-1727.728173921807
 31
0.0
  0
LINE
  5
373
330
1F
100
AcDbEntity
  8
0-C_ハッチ
  6
Continuous
 62
   120
370
     5
100
AcDbLine
 10
-833.5000680459501
 20
-1231.243718805055
 30
0.0
 11
-1406.500018557985
 21
-1761.799228538427
 31
0.0
  0
LINE
  5
374
330
1F
100
AcDbEntity
  8
0-C_ハッチ
  6
Continuous
 62
   120
370
     5
100
AcDbLine
 10
-833.5000680459501
 20
-1265.314773421673
 30
0.0
 11
-1406.500018557985
 21
-1795.870283155045
 31
0.0
  0
LINE
  5
375
330
1F
100
AcDbEntity
  8
0-C_ハッチ
  6
Continuous
 62
   120
370
     5
100
AcDbLine
 10
-833.5000680459501
 20
-1299.385828038293
 30
0.0
 11
-1406.500018557985
 21
-1829.941337771664
 31
0.0
  0
LINE
  5
376
330
1F
100
AcDbEntity
  8
0-C_ハッチ
  6
Continuous
 62
   120
370
     5
100
AcDbLine
 10
-833.5000680459503
 20
-1878.593756520812
 30
0.0
 11
-843.1186675873555
 21
-1887.499867207298
 31
0.0
  0
LINE
  5
377
330
1F
100
AcDbEntity
  8
0-C_ハッチ
  6
Continuous
 62
   120
370
     5
100
AcDbLine
 10
-833.5000680459503
 20
-1708.238483437719
 30
0.0
 11
-1027.102362517097
 21
-1887.499867207298
 31
0.0
  0
LINE
  5
378
330
1F
100
AcDbEntity
  8
0-C_ハッチ
  6
Continuous
 62
   120
370
     5
100
AcDbLine
 10
-833.5000680459503
 20
-1742.309538054338
 30
0.0
 11
-990.3056235311487
 21
-1887.499867207298
 31
0.0
  0
LINE
  5
379
330
1F
100
AcDbEntity
  8
0-C_ハッチ
  6
Continuous
 62
   120
370
     5
100
AcDbLine
 10
-833.5000680459503
 20
-1776.380592670956
 30
0.0
 11
-953.5088845452005
 21
-1887.499867207298
 31
0.0
  0
LINE
  5
37A
330
1F
100
AcDbEntity
  8
0-C_ハッチ
  6
Continuous
 62
   120
370
     5
100
AcDbLine
 10
-833.5000680459503
 20
-1810.451647287575
 30
0.0
 11
-916.7121455592522
 21
-1887.499867207298
 31
0.0
  0
LINE
  5
37B
330
1F
100
AcDbEntity
  8
0-C_ハッチ
  6
Continuous
 62
   120
370
     5
100
AcDbLine
 10
-833.5000680459503
 20
-1844.522701904194
 30
0.0
 11
-879.915406573304
 21
-1887.499867207298
 31
0.0
  0
LINE
  5
37C
330
1F
100
AcDbEntity
  8
0-C_ハッチ
  6
Continuous
 62
   120
370
     5
100
AcDbLine
 10
955.1444281162906
 20
3277.000148463892
 30
0.0
 11
886.9999674204266
 21
3213.903425597352
 31
0.0
  0
LINE
  5
37D
330
1F
100
AcDbEntity
  8
0-C_ハッチ
  6
Continuous
 62
   120
370
     5
100
AcDbLine
 10
991.9411671022378
 20
3277.000148463892
 30
0.0
 11
886.9999674204266
 21
3179.832370980733
 31
0.0
  0
LINE
  5
37E
330
1F
100
AcDbEntity
  8
0-C_ハッチ
  6
Continuous
 62
   120
370
     5
100
AcDbLine
 10
1028.737906088186
 20
3277.000148463892
 30
0.0
 11
886.9999674204266
 21
3145.761316364114
 31
0.0
  0
LINE
  5
37F
330
1F
100
AcDbEntity
  8
0-C_ハッチ
  6
Continuous
 62
   120
370
     5
100
AcDbLine
 10
1065.534645074134
 20
3277.000148463892
 30
0.0
 11
886.9999674204266
 21
3111.690261747495
 31
0.0
  0
LINE
  5
380
330
1F
100
AcDbEntity
  8
0-C_ハッチ
  6
Continuous
 62
   120
370
     5
100
AcDbLine
 10
918.3476891303422
 20
3277.000148463892
 30
0.0
 11
886.9999674204266
 21
3247.97448021397
 31
0.0
  0
LINE
  5
381
330
1F
100
AcDbEntity
  8
0-C_ハッチ
  6
Continuous
 62
   120
370
     5
100
AcDbLine
 10
1102.331384060082
 20
3277.000148463892
 30
0.0
 11
886.9999674204266
 21
3077.619207130876
 31
0.0
  0
LINE
  5
382
330
1F
100
AcDbEntity
  8
0-C_ハッチ
  6
Continuous
 62
   120
370
     5
100
AcDbLine
 10
1139.128123046029
 20
3277.000148463892
 30
0.0
 11
886.9999674204266
 21
3043.548152514258
 31
0.0
  0
LINE
  5
383
330
1F
100
AcDbEntity
  8
0-C_ハッチ
  6
Continuous
 62
   120
370
     5
100
AcDbLine
 10
1175.924862031978
 20
3277.000148463892
 30
0.0
 11
886.9999674204266
 21
3009.477097897639
 31
0.0
  0
LINE
  5
384
330
1F
100
AcDbEntity
  8
0-C_ハッチ
  6
Continuous
 62
   120
370
     5
100
AcDbLine
 10
1212.721601017926
 20
3277.000148463892
 30
0.0
 11
886.9999674204266
 21
2975.40604328102
 31
0.0
  0
LINE
  5
385
330
1F
100
AcDbEntity
  8
0-C_ハッチ
  6
Continuous
 62
   120
370
     5
100
AcDbLine
 10
1249.518340003874
 20
3277.000148463892
 30
0.0
 11
886.9999674204266
 21
2941.334988664401
 31
0.0
  0
LINE
  5
386
330
1F
100
AcDbEntity
  8
0-C_ハッチ
  6
Continuous
 62
   120
370
     5
100
AcDbLine
 10
1286.315078989821
 20
3277.000148463892
 30
0.0
 11
886.9999674204266
 21
2907.263934047782
 31
0.0
  0
LINE
  5
387
330
1F
100
AcDbEntity
  8
0-C_ハッチ
  6
Continuous
 62
   120
370
     5
100
AcDbLine
 10
1323.11181797577
 20
3277.000148463892
 30
0.0
 11
886.9999674204266
 21
2873.192879431164
 31
0.0
  0
LINE
  5
388
330
1F
100
AcDbEntity
  8
0-C_ハッチ
  6
Continuous
 62
   120
370
     5
100
AcDbLine
 10
1359.908556961718
 20
3277.000148463892
 30
0.0
 11
886.9999674204266
 21
2839.121824814545
 31
0.0
  0
LINE
  5
389
330
1F
100
AcDbEntity
  8
0-C_ハッチ
  6
Continuous
 62
   120
370
     5
100
AcDbLine
 10
1369.999973194023
 20
2264.212413884129
 30
0.0
 11
1335.210744355835
 21
2232.000164959881
 31
0.0
  0
LINE
  5
38A
330
1F
100
AcDbEntity
  8
0-C_ハッチ
  6
Continuous
 62
   120
370
     5
100
AcDbLine
 10
1369.999973194023
 20
3252.272997766075
 30
0.0
 11
886.9999674204266
 21
2805.050770197926
 31
0.0
  0
LINE
  5
38B
330
1F
100
AcDbEntity
  8
0-C_ハッチ
  6
Continuous
 62
   120
370
     5
100
AcDbLine
 10
1369.999973194023
 20
3218.201943149456
 30
0.0
 11
886.9999674204266
 21
2770.979715581307
 31
0.0
  0
LINE
  5
38C
330
1F
100
AcDbEntity
  8
0-C_ハッチ
  6
Continuous
 62
   120
370
     5
100
AcDbLine
 10
1369.999973194023
 20
3184.130888532837
 30
0.0
 11
886.9999674204266
 21
2736.908660964688
 31
0.0
  0
LINE
  5
38D
330
1F
100
AcDbEntity
  8
0-C_ハッチ
  6
Continuous
 62
   120
370
     5
100
AcDbLine
 10
1369.999973194023
 20
3150.059833916218
 30
0.0
 11
886.9999674204266
 21
2702.837606348069
 31
0.0
  0
LINE
  5
38E
330
1F
100
AcDbEntity
  8
0-C_ハッチ
  6
Continuous
 62
   120
370
     5
100
AcDbLine
 10
1369.999973194023
 20
3115.9887792996
 30
0.0
 11
886.9999674204266
 21
2668.76655173145
 31
0.0
  0
LINE
  5
38F
330
1F
100
AcDbEntity
  8
0-C_ハッチ
  6
Continuous
 62
   120
370
     5
100
AcDbLine
 10
1369.999973194023
 20
3081.91772468298
 30
0.0
 11
886.9999674204266
 21
2634.695497114832
 31
0.0
  0
LINE
  5
390
330
1F
100
AcDbEntity
  8
0-C_ハッチ
  6
Continuous
 62
   120
370
     5
100
AcDbLine
 10
1369.999973194023
 20
3047.846670066362
 30
0.0
 11
886.9999674204266
 21
2600.624442498213
 31
0.0
  0
LINE
  5
391
330
1F
100
AcDbEntity
  8
0-C_ハッチ
  6
Continuous
 62
   120
370
     5
100
AcDbLine
 10
1369.999973194023
 20
3013.775615449742
 30
0.0
 11
886.9999674204266
 21
2566.553387881594
 31
0.0
  0
LINE
  5
392
330
1F
100
AcDbEntity
  8
0-C_ハッチ
  6
Continuous
 62
   120
370
     5
100
AcDbLine
 10
1369.999973194023
 20
2979.704560833124
 30
0.0
 11
886.9999674204266
 21
2532.482333264975
 31
0.0
  0
LINE
  5
393
330
1F
100
AcDbEntity
  8
0-C_ハッチ
  6
Continuous
 62
   120
370
     5
100
AcDbLine
 10
1369.999973194023
 20
2945.633506216505
 30
0.0
 11
886.9999674204266
 21
2498.411278648356
 31
0.0
  0
LINE
  5
394
330
1F
100
AcDbEntity
  8
0-C_ハッチ
  6
Continuous
 62
   120
370
     5
100
AcDbLine
 10
1369.999973194023
 20
2911.562451599886
 30
0.0
 11
886.9999674204266
 21
2464.340224031737
 31
0.0
  0
LINE
  5
395
330
1F
100
AcDbEntity
  8
0-C_ハッチ
  6
Continuous
 62
   120
370
     5
100
AcDbLine
 10
1369.999973194023
 20
2877.491396983267
 30
0.0
 11
886.9999674204266
 21
2430.269169415117
 31
0.0
  0
LINE
  5
396
330
1F
100
AcDbEntity
  8
0-C_ハッチ
  6
Continuous
 62
   120
370
     5
100
AcDbLine
 10
1369.999973194023
 20
2843.420342366649
 30
0.0
 11
886.9999674204266
 21
2396.198114798499
 31
0.0
  0
LINE
  5
397
330
1F
100
AcDbEntity
  8
0-C_ハッチ
  6
Continuous
 62
   120
370
     5
100
AcDbLine
 10
1369.999973194023
 20
2741.207178516792
 30
0.0
 11
886.9999674204266
 21
2293.984950948643
 31
0.0
  0
LINE
  5
398
330
1F
100
AcDbEntity
  8
0-C_ハッチ
  6
Continuous
 62
   120
370
     5
100
AcDbLine
 10
1369.999973194023
 20
2707.136123900173
 30
0.0
 11
886.9999674204266
 21
2259.913896332024
 31
0.0
  0
LINE
  5
399
330
1F
100
AcDbEntity
  8
0-C_ハッチ
  6
Continuous
 62
   120
370
     5
100
AcDbLine
 10
1369.999973194023
 20
2673.065069283554
 30
0.0
 11
893.6498765244608
 21
2232.000164959881
 31
0.0
  0
LINE
  5
39A
330
1F
100
AcDbEntity
  8
0-C_ハッチ
  6
Continuous
 62
   120
370
     5
100
AcDbLine
 10
1369.999973194023
 20
2638.994014666936
 30
0.0
 11
930.446615510408
 21
2232.000164959881
 31
0.0
  0
LINE
  5
39B
330
1F
100
AcDbEntity
  8
0-C_ハッチ
  6
Continuous
 62
   120
370
     5
100
AcDbLine
 10
1369.999973194023
 20
2604.922960050317
 30
0.0
 11
967.2433544963571
 21
2232.000164959881
 31
0.0
  0
LINE
  5
39C
330
1F
100
AcDbEntity
  8
0-C_ハッチ
  6
Continuous
 62
   120
370
     5
100
AcDbLine
 10
1369.999973194023
 20
2570.851905433698
 30
0.0
 11
1004.040093482304
 21
2232.000164959881
 31
0.0
  0
LINE
  5
39D
330
1F
100
AcDbEntity
  8
0-C_ハッチ
  6
Continuous
 62
   120
370
     5
100
AcDbLine
 10
1369.999973194023
 20
2536.780850817078
 30
0.0
 11
1040.836832468253
 21
2232.000164959881
 31
0.0
  0
LINE
  5
39E
330
1F
100
AcDbEntity
  8
0-C_ハッチ
  6
Continuous
 62
   120
370
     5
100
AcDbLine
 10
1369.999973194023
 20
2502.70979620046
 30
0.0
 11
1077.6335714542
 21
2232.000164959881
 31
0.0
  0
LINE
  5
39F
330
1F
100
AcDbEntity
  8
0-C_ハッチ
  6
Continuous
 62
   120
370
     5
100
AcDbLine
 10
1369.999973194023
 20
2468.638741583842
 30
0.0
 11
1114.430310440147
 21
2232.000164959881
 31
0.0
  0
LINE
  5
3A0
330
1F
100
AcDbEntity
  8
0-C_ハッチ
  6
Continuous
 62
   120
370
     5
100
AcDbLine
 10
1369.999973194023
 20
2434.567686967223
 30
0.0
 11
1151.227049426095
 21
2232.000164959881
 31
0.0
  0
LINE
  5
3A1
330
1F
100
AcDbEntity
  8
0-C_ハッチ
  6
Continuous
 62
   120
370
     5
100
AcDbLine
 10
1369.999973194023
 20
2400.496632350604
 30
0.0
 11
1188.023788412043
 21
2232.000164959881
 31
0.0
  0
LINE
  5
3A2
330
1F
100
AcDbEntity
  8
0-C_ハッチ
  6
Continuous
 62
   120
370
     5
100
AcDbLine
 10
1369.999973194023
 20
2366.425577733985
 30
0.0
 11
1224.820527397992
 21
2232.000164959881
 31
0.0
  0
LINE
  5
3A3
330
1F
100
AcDbEntity
  8
0-C_ハッチ
  6
Continuous
 62
   120
370
     5
100
AcDbLine
 10
1369.999973194023
 20
2332.354523117366
 30
0.0
 11
1261.61726638394
 21
2232.000164959881
 31
0.0
  0
LINE
  5
3A4
330
1F
100
AcDbEntity
  8
0-C_ハッチ
  6
Continuous
 62
   120
370
     5
100
AcDbLine
 10
1369.999973194023
 20
2298.283468500747
 30
0.0
 11
1298.414005369888
 21
2232.000164959881
 31
0.0
  0
LINE
  5
3A5
330
1F
100
AcDbEntity
  8
0-C_ハッチ
  6
Continuous
 62
   120
370
     5
100
AcDbLine
 10
1369.999973194023
 20
2809.349287750029
 30
0.0
 11
886.9999756684209
 21
2362.127067818911
 31
0.0
  0
LINE
  5
3A6
330
1F
100
AcDbEntity
  8
0-C_ハッチ
  6
Continuous
 62
   120
370
     5
100
AcDbLine
 10
1369.999973194023
 20
2775.278233133411
 30
0.0
 11
886.9999756684209
 21
2328.056013202293
 31
0.0
  0
LINE
  5
3A7
330
1F
100
AcDbEntity
  8
0-C_ハッチ
  6
Continuous
 62
   120
370
     5
100
AcDbLine
 10
955.1444281162906
 20
-642.4998201937328
 30
0.0
 11
886.9999674204266
 21
-705.5965430602735
 31
0.0
  0
LINE
  5
3A8
330
1F
100
AcDbEntity
  8
0-C_ハッチ
  6
Continuous
 62
   120
370
     5
100
AcDbLine
 10
991.9411671022378
 20
-642.4998201937328
 30
0.0
 11
886.9999674204266
 21
-739.6675976768927
 31
0.0
  0
LINE
  5
3A9
330
1F
100
AcDbEntity
  8
0-C_ハッチ
  6
Continuous
 62
   120
370
     5
100
AcDbLine
 10
1028.737906088186
 20
-642.4998201937328
 30
0.0
 11
886.9999674204266
 21
-773.7386522935111
 31
0.0
  0
LINE
  5
3AA
330
1F
100
AcDbEntity
  8
0-C_ハッチ
  6
Continuous
 62
   120
370
     5
100
AcDbLine
 10
1065.534645074134
 20
-642.4998201937328
 30
0.0
 11
886.9999674204266
 21
-807.8097069101295
 31
0.0
  0
LINE
  5
3AB
330
1F
100
AcDbEntity
  8
0-C_ハッチ
  6
Continuous
 62
   120
370
     5
100
AcDbLine
 10
918.3476891303422
 20
-642.4998201937328
 30
0.0
 11
886.9999674204266
 21
-671.5254884436549
 31
0.0
  0
LINE
  5
3AC
330
1F
100
AcDbEntity
  8
0-C_ハッチ
  6
Continuous
 62
   120
370
     5
100
AcDbLine
 10
1102.331384060082
 20
-642.4998201937328
 30
0.0
 11
886.9999674204266
 21
-841.8807615267497
 31
0.0
  0
LINE
  5
3AD
330
1F
100
AcDbEntity
  8
0-C_ハッチ
  6
Continuous
 62
   120
370
     5
100
AcDbLine
 10
1139.128123046029
 20
-642.4998201937328
 30
0.0
 11
886.9999674204266
 21
-875.9518161433681
 31
0.0
  0
LINE
  5
3AE
330
1F
100
AcDbEntity
  8
0-C_ハッチ
  6
Continuous
 62
   120
370
     5
100
AcDbLine
 10
1175.924862031978
 20
-642.4998201937328
 30
0.0
 11
886.9999674204266
 21
-910.0228707599865
 31
0.0
  0
LINE
  5
3AF
330
1F
100
AcDbEntity
  8
0-C_ハッチ
  6
Continuous
 62
   120
370
     5
100
AcDbLine
 10
1212.721601017926
 20
-642.4998201937328
 30
0.0
 11
886.9999674204266
 21
-944.0939253766041
 31
0.0
  0
LINE
  5
3B0
330
1F
100
AcDbEntity
  8
0-C_ハッチ
  6
Continuous
 62
   120
370
     5
100
AcDbLine
 10
1249.518340003874
 20
-642.4998201937328
 30
0.0
 11
886.9999674204266
 21
-978.1649799932234
 31
0.0
  0
LINE
  5
3B1
330
1F
100
AcDbEntity
  8
0-C_ハッチ
  6
Continuous
 62
   120
370
     5
100
AcDbLine
 10
1286.315078989821
 20
-642.4998201937328
 30
0.0
 11
886.9999674204266
 21
-1012.236034609844
 31
0.0
  0
LINE
  5
3B2
330
1F
100
AcDbEntity
  8
0-C_ハッチ
  6
Continuous
 62
   120
370
     5
100
AcDbLine
 10
1323.11181797577
 20
-642.4998201937328
 30
0.0
 11
886.9999674204266
 21
-1046.307089226462
 31
0.0
  0
LINE
  5
3B3
330
1F
100
AcDbEntity
  8
0-C_ハッチ
  6
Continuous
 62
   120
370
     5
100
AcDbLine
 10
1359.908556961718
 20
-642.4998201937328
 30
0.0
 11
886.9999674204266
 21
-1080.37814384308
 31
0.0
  0
LINE
  5
3B4
330
1F
100
AcDbEntity
  8
0-C_ハッチ
  6
Continuous
 62
   120
370
     5
100
AcDbLine
 10
1369.999973194023
 20
-667.2269708915505
 30
0.0
 11
886.9999674204266
 21
-1114.4491984597
 31
0.0
  0
LINE
  5
3B5
330
1F
100
AcDbEntity
  8
0-C_ハッチ
  6
Continuous
 62
   120
370
     5
100
AcDbLine
 10
1369.999973194023
 20
-701.2980255081698
 30
0.0
 11
886.9999674204266
 21
-1148.520253076319
 31
0.0
  0
LINE
  5
3B6
330
1F
100
AcDbEntity
  8
0-C_ハッチ
  6
Continuous
 62
   120
370
     5
100
AcDbLine
 10
1369.999973194023
 20
-735.3690801247882
 30
0.0
 11
886.9999674204266
 21
-1182.591307692937
 31
0.0
  0
LINE
  5
3B7
330
1F
100
AcDbEntity
  8
0-C_ハッチ
  6
Continuous
 62
   120
370
     5
100
AcDbLine
 10
1369.999973194023
 20
-769.4401347414066
 30
0.0
 11
886.9999674204266
 21
-1216.662362309557
 31
0.0
  0
LINE
  5
3B8
330
1F
100
AcDbEntity
  8
0-C_ハッチ
  6
Continuous
 62
   120
370
     5
100
AcDbLine
 10
1369.999973194023
 20
-803.5111893580258
 30
0.0
 11
886.9999674204266
 21
-1250.733416926175
 31
0.0
  0
LINE
  5
3B9
330
1F
100
AcDbEntity
  8
0-C_ハッチ
  6
Continuous
 62
   120
370
     5
100
AcDbLine
 10
1369.999973194023
 20
-837.5822439746452
 30
0.0
 11
886.9999674204266
 21
-1284.804471542793
 31
0.0
  0
LINE
  5
3BA
330
1F
100
AcDbEntity
  8
0-C_ハッチ
  6
Continuous
 62
   120
370
     5
100
AcDbLine
 10
1369.999973194023
 20
-871.6532985912636
 30
0.0
 11
886.9999674204266
 21
-1318.875526159412
 31
0.0
  0
LINE
  5
3BB
330
1F
100
AcDbEntity
  8
0-C_ハッチ
  6
Continuous
 62
   120
370
     5
100
AcDbLine
 10
1369.999973194023
 20
-905.7243532078828
 30
0.0
 11
886.9999674204266
 21
-1352.946580776031
 31
0.0
  0
LINE
  5
3BC
330
1F
100
AcDbEntity
  8
0-C_ハッチ
  6
Continuous
 62
   120
370
     5
100
AcDbLine
 10
1369.999973194023
 20
-939.7954078245014
 30
0.0
 11
886.9999674204266
 21
-1387.01763539265
 31
0.0
  0
LINE
  5
3BD
330
1F
100
AcDbEntity
  8
0-C_ハッチ
  6
Continuous
 62
   120
370
     5
100
AcDbLine
 10
1369.999973194023
 20
-973.8664624411206
 30
0.0
 11
886.9999674204266
 21
-1421.08869000927
 31
0.0
  0
LINE
  5
3BE
330
1F
100
AcDbEntity
  8
0-C_ハッチ
  6
Continuous
 62
   120
370
     5
100
AcDbLine
 10
1369.999973194023
 20
-1007.937517057738
 30
0.0
 11
886.9999674204266
 21
-1455.159744625888
 31
0.0
  0
LINE
  5
3BF
330
1F
100
AcDbEntity
  8
0-C_ハッチ
  6
Continuous
 62
   120
370
     5
100
AcDbLine
 10
1369.999973194023
 20
-1042.008571674358
 30
0.0
 11
886.9999674204266
 21
-1489.230799242508
 31
0.0
  0
LINE
  5
3C0
330
1F
100
AcDbEntity
  8
0-C_ハッチ
  6
Continuous
 62
   120
370
     5
100
AcDbLine
 10
1369.999973194023
 20
-1076.079626290977
 30
0.0
 11
886.9999674204266
 21
-1523.301853859126
 31
0.0
  0
LINE
  5
3C1
330
1F
100
AcDbEntity
  8
0-C_ハッチ
  6
Continuous
 62
   120
370
     5
100
AcDbLine
 10
1369.999973194023
 20
-1178.292790140834
 30
0.0
 11
886.9999674204266
 21
-1625.515017708982
 31
0.0
  0
LINE
  5
3C2
330
1F
100
AcDbEntity
  8
0-C_ハッチ
  6
Continuous
 62
   120
370
     5
100
AcDbLine
 10
1369.999973194023
 20
-1212.363844757452
 30
0.0
 11
886.9999674204266
 21
-1659.586072325601
 31
0.0
  0
LINE
  5
3C3
330
1F
100
AcDbEntity
  8
0-C_ハッチ
  6
Continuous
 62
   120
370
     5
100
AcDbLine
 10
1369.999973194023
 20
-1110.150680907596
 30
0.0
 11
886.9999756684209
 21
-1557.372900838715
 31
0.0
  0
LINE
  5
3C4
330
1F
100
AcDbEntity
  8
0-C_ハッチ
  6
Continuous
 62
   120
370
     5
100
AcDbLine
 10
1369.999973194023
 20
-1144.221735524214
 30
0.0
 11
886.9999756684209
 21
-1591.443955455331
 31
0.0
  0
LINE
  5
3C5
330
1F
100
AcDbEntity
  8
0-C_ハッチ
  6
Continuous
 62
   120
370
     5
100
AcDbLine
 10
1369.999973194023
 20
-1655.287554773497
 30
0.0
 11
1119.210477120827
 21
-1887.500051137567
 31
0.0
  0
LINE
  5
3C6
330
1F
100
AcDbEntity
  8
0-C_ハッチ
  6
Continuous
 62
   120
370
     5
100
AcDbLine
 10
1369.999973194023
 20
-1450.861227073784
 30
0.0
 11
898.4300432051406
 21
-1887.500051137567
 31
0.0
  0
LINE
  5
3C7
330
1F
100
AcDbEntity
  8
0-C_ハッチ
  6
Continuous
 62
   120
370
     5
100
AcDbLine
 10
1369.999973194023
 20
-1484.932281690402
 30
0.0
 11
935.2267821910889
 21
-1887.500051137567
 31
0.0
  0
LINE
  5
3C8
330
1F
100
AcDbEntity
  8
0-C_ハッチ
  6
Continuous
 62
   120
370
     5
100
AcDbLine
 10
1369.999973194023
 20
-1519.003336307021
 30
0.0
 11
972.023521177037
 21
-1887.500051137567
 31
0.0
  0
LINE
  5
3C9
330
1F
100
AcDbEntity
  8
0-C_ハッチ
  6
Continuous
 62
   120
370
     5
100
AcDbLine
 10
1369.999973194023
 20
-1553.074390923641
 30
0.0
 11
1008.820260162985
 21
-1887.500051137567
 31
0.0
  0
LINE
  5
3CA
330
1F
100
AcDbEntity
  8
0-C_ハッチ
  6
Continuous
 62
   120
370
     5
100
AcDbLine
 10
1369.999973194023
 20
-1587.145445540259
 30
0.0
 11
1045.616999148934
 21
-1887.500051137567
 31
0.0
  0
LINE
  5
3CB
330
1F
100
AcDbEntity
  8
0-C_ハッチ
  6
Continuous
 62
   120
370
     5
100
AcDbLine
 10
1369.999973194023
 20
-1621.216500156877
 30
0.0
 11
1082.413738134882
 21
-1887.500051137567
 31
0.0
  0
LINE
  5
3CC
330
1F
100
AcDbEntity
  8
0-C_ハッチ
  6
Continuous
 62
   120
370
     5
100
AcDbLine
 10
1369.999973194023
 20
-1246.434899374071
 30
0.0
 11
886.9999756684205
 21
-1693.657119305189
 31
0.0
  0
LINE
  5
3CD
330
1F
100
AcDbEntity
  8
0-C_ハッチ
  6
Continuous
 62
   120
370
     5
100
AcDbLine
 10
1369.999973194023
 20
-1416.790172457165
 30
0.0
 11
886.9999756684205
 21
-1864.012392388282
 31
0.0
  0
LINE
  5
3CE
330
1F
100
AcDbEntity
  8
0-C_ハッチ
  6
Continuous
 62
   120
370
     5
100
AcDbLine
 10
1369.999973194023
 20
-1280.50595399069
 30
0.0
 11
886.9999756684205
 21
-1727.728173921808
 31
0.0
  0
LINE
  5
3CF
330
1F
100
AcDbEntity
  8
0-C_ハッチ
  6
Continuous
 62
   120
370
     5
100
AcDbLine
 10
1369.999973194023
 20
-1314.577008607308
 30
0.0
 11
886.9999756684205
 21
-1761.799228538427
 31
0.0
  0
LINE
  5
3D0
330
1F
100
AcDbEntity
  8
0-C_ハッチ
  6
Continuous
 62
   120
370
     5
100
AcDbLine
 10
1369.999973194023
 20
-1348.648063223927
 30
0.0
 11
886.9999756684205
 21
-1795.870283155045
 31
0.0
  0
LINE
  5
3D1
330
1F
100
AcDbEntity
  8
0-C_ハッチ
  6
Continuous
 62
   120
370
     5
100
AcDbLine
 10
1369.999973194023
 20
-1382.719117840546
 30
0.0
 11
886.9999756684205
 21
-1829.941337771665
 31
0.0
  0
LINE
  5
3D2
330
1F
100
AcDbEntity
  8
0-C_ハッチ
  6
Continuous
 62
   120
370
     5
100
AcDbLine
 10
1369.999973194022
 20
-1689.358609390116
 30
0.0
 11
1156.007216106775
 21
-1887.500051137567
 31
0.0
  0
LINE
  5
3D3
330
1F
100
AcDbEntity
  8
0-C_ハッチ
  6
Continuous
 62
   120
370
     5
100
AcDbLine
 10
1369.999973194022
 20
-1859.713882473209
 30
0.0
 11
1339.990911036516
 21
-1887.500051137567
 31
0.0
  0
LINE
  5
3D4
330
1F
100
AcDbEntity
  8
0-C_ハッチ
  6
Continuous
 62
   120
370
     5
100
AcDbLine
 10
1369.999973194022
 20
-1723.429664006735
 30
0.0
 11
1192.803955092723
 21
-1887.500051137567
 31
0.0
  0
LINE
  5
3D5
330
1F
100
AcDbEntity
  8
0-C_ハッチ
  6
Continuous
 62
   120
370
     5
100
AcDbLine
 10
1369.999973194022
 20
-1757.500718623353
 30
0.0
 11
1229.600694078671
 21
-1887.500051137567
 31
0.0
  0
LINE
  5
3D6
330
1F
100
AcDbEntity
  8
0-C_ハッチ
  6
Continuous
 62
   120
370
     5
100
AcDbLine
 10
1369.999973194022
 20
-1791.571773239972
 30
0.0
 11
1266.39743306462
 21
-1887.500051137567
 31
0.0
  0
LINE
  5
3D7
330
1F
100
AcDbEntity
  8
0-C_ハッチ
  6
Continuous
 62
   120
370
     5
100
AcDbLine
 10
1369.999973194022
 20
-1825.642827856591
 30
0.0
 11
1303.194172050568
 21
-1887.500051137567
 31
0.0
  0
ENDSEC
  0
SECTION
  2
OBJECTS
  0
DICTIONARY
  5
C
330
0
100
AcDbDictionary
281
     1
  3
ACAD_GROUP
350
D
  3
ACAD_LAYOUT
350
1A
  3
ACAD_MATERIAL
350
3B
  3
ACAD_MLEADERSTYLE
350
3D9
  3
ACAD_MLINESTYLE
350
17
  3
ACAD_PLOTSETTINGS
350
19
  3
ACAD_PLOTSTYLENAME
350
E
  3
ACAD_TABLESTYLE
350
3D8
  3
ACAD_VISUALSTYLE
350
2A
  0
DICTIONARY
  5
D
102
{ACAD_REACTORS
330
C
102
}
330
C
100
AcDbDictionary
281
     1
  0
DICTIONARY
  5
1A
102
{ACAD_REACTORS
330
C
102
}
330
C
100
AcDbDictionary
281
     1
  3
Layout1
350
1E
  3
Layout2
350
26
  3
Model
350
22
  0
DICTIONARY
  5
3B
102
{ACAD_REACTORS
330
C
102
}
330
C
100
AcDbDictionary
281
     1
  3
ByBlock
350
3D
  3
ByLayer
350
3C
  3
Global
350
3E
  0
DICTIONARY
  5
3D9
102
{ACAD_REACTORS
330
C
102
}
330
C
100
AcDbDictionary
281
     1
  0
DICTIONARY
  5
17
102
{ACAD_REACTORS
330
C
102
}
330
C
100
AcDbDictionary
281
     1
  3
Standard
350
18
  0
DICTIONARY
  5
19
102
{ACAD_REACTORS
330
C
102
}
330
C
100
AcDbDictionary
281
     1
  0
ACDBDICTIONARYWDFLT
  5
E
102
{ACAD_REACTORS
330
C
102
}
330
C
100
AcDbDictionary
281
     1
  3
Normal
350
F
100
AcDbDictionaryWithDefault
340
F
  0
DICTIONARY
  5
3D8
102
{ACAD_REACTORS
330
C
102
}
330
C
100
AcDbDictionary
281
     1
  0
DICTIONARY
  5
2A
102
{ACAD_REACTORS
330
C
102
}
330
C
100
AcDbDictionary
281
     1
  3
2dWireframe
350
2F
  3
3D Hidden
350
31
  3
3dWireframe
350
30
  3
Basic
350
32
  3
Brighten
350
36
  3
ColorChange
350
3A
  3
Conceptual
350
34
  3
Dim
350
35
  3
Facepattern
350
39
  3
Flat
350
2B
  3
FlatWithEdges
350
2C
  3
Gouraud
350
2D
  3
GouraudWithEdges
350
2E
  3
Linepattern
350
38
  3
Realistic
350
33
  3
Thicken
350
37
  0
LAYOUT
  5
1E
102
{ACAD_REACTORS
330
1A
102
}
330
1A
100
AcDbPlotSettings
  1

  2
none_device
  4

  6

 40
0.0
 41
0.0
 42
0.0
 43
0.0
 44
0.0
 45
0.0
 46
0.0
 47
0.0
 48
0.0
 49
0.0
140
0.0
141
0.0
142
1.0
143
1.0
 70
   688
 72
     0
 73
     0
 74
     5
  7

 75
    16
 76
     0
 77
     5
 78
   300
147
1.0
148
0.0
149
0.0
100
AcDbLayout
  1
Layout1
 70
     1
 71
     1
 10
0.0
 20
0.0
 11
420.0
 21
297.0
 12
0.0
 22
0.0
 32
0.0
 14
1.000000000000000E+20
 24
1.000000000000000E+20
 34
1.000000000000000E+20
 15
-1.000000000000000E+20
 25
-1.000000000000000E+20
 35
-1.000000000000000E+20
146
0.0
 13
0.0
 23
0.0
 33
0.0
 16
1.0
 26
0.0
 36
0.0
 17
0.0
 27
1.0
 37
0.0
 76
     0
330
1B
  0
LAYOUT
  5
26
102
{ACAD_REACTORS
330
1A
102
}
330
1A
100
AcDbPlotSettings
  1

  2
none_device
  4

  6

 40
0.0
 41
0.0
 42
0.0
 43
0.0
 44
0.0
 45
0.0
 46
0.0
 47
0.0
 48
0.0
 49
0.0
140
0.0
141
0.0
142
1.0
143
1.0
 70
   688
 72
     0
 73
     0
 74
     5
  7

 75
    16
 76
     0
 77
     5
 78
   300
147
1.0
148
0.0
149
0.0
100
AcDbLayout
  1
Layout2
 70
     1
 71
     2
 10
0.0
 20
0.0
 11
0.0
 21
0.0
 12
0.0
 22
0.0
 32
0.0
 14
0.0
 24
0.0
 34
0.0
 15
0.0
 25
0.0
 35
0.0
146
0.0
 13
0.0
 23
0.0
 33
0.0
 16
1.0
 26
0.0
 36
0.0
 17
0.0
 27
1.0
 37
0.0
 76
     0
330
23
  0
LAYOUT
  5
22
102
{ACAD_REACTORS
330
1A
102
}
330
1A
100
AcDbPlotSettings
  1

  2
none_device
  4

  6

 40
0.0
 41
0.0
 42
0.0
 43
0.0
 44
0.0
 45
0.0
 46
0.0
 47
0.0
 48
0.0
 49
0.0
140
0.0
141
0.0
142
1.0
143
1.0
 70
  1712
 72
     0
 73
     0
 74
     0
  7

 75
     0
 76
     0
 77
     5
 78
   300
147
1.0
148
0.0
149
0.0
100
AcDbLayout
  1
Model
 70
     1
 71
     0
 10
-6300.0
 20
-4455.0
 11
6300.0
 21
4455.0
 12
0.0
 22
0.0
 32
0.0
 14
-6300.0
 24
-4455.0
 34
0.0
 15
6300.0
 25
4455.0
 35
0.0
146
0.0
 13
0.0
 23
0.0
 33
0.0
 16
1.0
 26
0.0
 36
0.0
 17
0.0
 27
1.0
 37
0.0
 76
     0
330
1F
331
29
  0
MATERIAL
  5
3D
102
{ACAD_REACTORS
330
3B
102
}
330
3B
100
AcDbMaterial
  1
ByBlock
 72
     1
 94
      127
  0
MATERIAL
  5
3C
102
{ACAD_REACTORS
330
3B
102
}
330
3B
100
AcDbMaterial
  1
ByLayer
 72
     1
 94
      127
  0
MATERIAL
  5
3E
102
{ACAD_REACTORS
330
3B
102
}
330
3B
100
AcDbMaterial
  1
Global
 72
     1
 94
      127
  0
MLINESTYLE
  5
18
102
{ACAD_REACTORS
330
17
102
}
330
17
100
AcDbMlineStyle
  2
Standard
 70
     0
  3

 62
   256
 51
90.0
 52
90.0
 71
     2
 49
0.5
 62
   256
  6
BYLAYER
 49
-0.5
 62
   256
  6
BYLAYER
  0
ACDBPLACEHOLDER
  5
F
102
{ACAD_REACTORS
330
E
102
}
330
E
  0
VISUALSTYLE
  5
2F
102
{ACAD_REACTORS
330
2A
102
}
330
2A
100
AcDbVisualStyle
  2
2dWireframe
 70
     4
177
     2
291
     0
 71
     0
176
     1
 72
     2
176
     1
 73
     0
176
     1
 90
        0
176
     1
 40
-0.6
176
     1
 41
-30.0
176
     1
 62
     5
 63
     7
421
 16777215
176
     1
 74
     1
176
     1
 91
        4
176
     1
 64
     7
176
     1
 65
   257
176
     1
 75
     1
176
     1
175
     1
176
     1
 42
1.0
176
     1
 92
        0
176
     1
 66
   257
176
     1
 43
1.0
176
     1
 76
     1
176
     1
 77
     6
176
     1
 78
     2
176
     1
 67
     7
176
     1
 79
     5
176
     1
170
     0
176
     1
171
     0
176
     1
290
     0
176
     1
 93
        1
176
     1
 44
0.0
176
     1
173
     0
176
     1
  0
VISUALSTYLE
  5
31
102
{ACAD_REACTORS
330
2A
102
}
330
2A
100
AcDbVisualStyle
  2
3D Hidden
 70
     6
177
     2
291
     0
 71
     1
176
     1
 72
     2
176
     1
 73
     2
176
     1
 90
        0
176
     1
 40
-0.6
176
     1
 41
-30.0
176
     1
 62
     5
 63
     7
421
 16777215
176
     1
 74
     2
176
     1
 91
        2
176
     1
 64
     7
176
     1
 65
   257
176
     1
 75
     2
176
     1
175
     1
176
     1
 42
40.0
176
     1
 92
        0
176
     1
 66
   257
176
     1
 43
1.0
176
     1
 76
     1
176
     1
 77
     6
176
     1
 78
     2
176
     1
 67
     7
176
     1
 79
     3
176
     1
170
     0
176
     1
171
     0
176
     1
290
     0
176
     1
 93
        1
176
     1
 44
0.0
176
     1
173
     0
176
     1
  0
VISUALSTYLE
  5
30
102
{ACAD_REACTORS
330
2A
102
}
330
2A
100
AcDbVisualStyle
  2
3dWireframe
 70
     5
177
     2
291
     0
 71
     0
176
     1
 72
     2
176
     1
 73
     0
176
     1
 90
        0
176
     1
 40
-0.6
176
     1
 41
-30.0
176
     1
 62
     5
 63
     7
421
 16777215
176
     1
 74
     1
176
     1
 91
        4
176
     1
 64
     7
176
     1
 65
   257
176
     1
 75
     1
176
     1
175
     1
176
     1
 42
1.0
176
     1
 92
        0
176
     1
 66
   257
176
     1
 43
1.0
176
     1
 76
     1
176
     1
 77
     6
176
     1
 78
     2
176
     1
 67
     7
176
     1
 79
     5
176
     1
170
     0
176
     1
171
     0
176
     1
290
     0
176
     1
 93
        1
176
     1
 44
0.0
176
     1
173
     0
176
     1
  0
VISUALSTYLE
  5
32
102
{ACAD_REACTORS
330
2A
102
}
330
2A
100
AcDbVisualStyle
  2
Basic
 70
     7
177
     2
291
     1
 71
     1
176
     1
 72
     0
176
     1
 73
     1
176
     1
 90
        0
176
     1
 40
-0.6
176
     1
 41
-30.0
176
     1
 62
     5
 63
     7
421
 16777215
176
     1
 74
     0
176
     1
 91
        4
176
     1
 64
     7
176
     1
 65
   257
176
     1
 75
     1
176
     1
175
     1
176
     1
 42
1.0
176
     1
 92
        8
176
     1
 66
     7
176
     1
 43
1.0
176
     1
 76
     1
176
     1
 77
     6
176
     1
 78
     2
176
     1
 67
     7
176
     1
 79
     5
176
     1
170
     0
176
     1
171
     0
176
     1
290
     0
176
     1
 93
        1
176
     1
 44
0.0
176
     1
173
     0
176
     1
  0
VISUALSTYLE
  5
36
102
{ACAD_REACTORS
330
2A
102
}
330
2A
100
AcDbVisualStyle
  2
Brighten
 70
    12
177
     2
291
     1
 71
     2
176
     1
 72
     2
176
     1
 73
     0
176
     1
 90
        0
176
     1
 40
-0.6
176
     1
 41
-30.0
176
     1
 62
     5
 63
     7
421
 16777215
176
     1
 74
     1
176
     1
 91
        4
176
     1
 64
     7
176
     1
 65
   257
176
     1
 75
     1
176
     1
175
     1
176
     1
 42
1.0
176
     1
 92
        8
176
     1
 66
     7
176
     1
 43
1.0
176
     1
 76
     1
176
     1
 77
     6
176
     1
 78
     2
176
     1
 67
     7
176
     1
 79
     5
176
     1
170
     0
176
     1
171
     0
176
     1
290
     0
176
     1
 93
        1
176
     1
 44
50.0
176
     1
173
     0
176
     1
  0
VISUALSTYLE
  5
3A
102
{ACAD_REACTORS
330
2A
102
}
330
2A
100
AcDbVisualStyle
  2
ColorChange
 70
    16
177
     2
291
     1
 71
     2
176
     1
 72
     2
176
     1
 73
     3
176
     1
 90
        0
176
     1
 40
-0.6
176
     1
 41
-30.0
176
     1
 62
     5
 63
     8
421
  8421504
176
     1
 74
     1
176
     1
 91
        4
176
     1
 64
     7
176
     1
 65
   257
176
     1
 75
     1
176
     1
175
     1
176
     1
 42
1.0
176
     1
 92
        8
176
     1
 66
     8
424
  8421504
176
     1
 43
1.0
176
     1
 76
     1
176
     1
 77
     6
176
     1
 78
     2
176
     1
 67
     7
176
     1
 79
     5
176
     1
170
     0
176
     1
171
     0
176
     1
290
     0
176
     1
 93
        1
176
     1
 44
0.0
176
     1
173
     0
176
     1
  0
VISUALSTYLE
  5
34
102
{ACAD_REACTORS
330
2A
102
}
330
2A
100
AcDbVisualStyle
  2
Conceptual
 70
     9
177
     2
291
     0
 71
     3
176
     1
 72
     2
176
     1
 73
     0
176
     1
 90
        0
176
     1
 40
-0.6
176
     1
 41
-30.0
176
     1
 62
     5
 63
     7
421
 16777215
176
     1
 74
     2
176
     1
 91
        2
176
     1
 64
     7
176
     1
 65
   257
176
     1
 75
     1
176
     1
175
     1
176
     1
 42
40.0
176
     1
 92
        8
176
     1
 66
     7
176
     1
 43
1.0
176
     1
 76
     1
176
     1
 77
     6
176
     1
 78
     2
176
     1
 67
     7
176
     1
 79
     3
176
     1
170
     0
176
     1
171
     0
176
     1
290
     0
176
     1
 93
        1
176
     1
 44
0.0
176
     1
173
     0
176
     1
  0
VISUALSTYLE
  5
35
102
{ACAD_REACTORS
330
2A
102
}
330
2A
100
AcDbVisualStyle
  2
Dim
 70
    11
177
     2
291
     1
 71
     2
176
     1
 72
     2
176
     1
 73
     0
176
     1
 90
        0
176
     1
 40
-0.6
176
     1
 41
-30.0
176
     1
 62
     5
 63
     7
421
 16777215
176
     1
 74
     1
176
     1
 91
        4
176
     1
 64
     7
176
     1
 65
   257
176
     1
 75
     1
176
     1
175
     1
176
     1
 42
1.0
176
     1
 92
        8
176
     1
 66
     7
176
     1
 43
1.0
176
     1
 76
     1
176
     1
 77
     6
176
     1
 78
     2
176
     1
 67
     7
176
     1
 79
     5
176
     1
170
     0
176
     1
171
     0
176
     1
290
     0
176
     1
 93
        1
176
     1
 44
-50.0
176
     1
173
     0
176
     1
  0
VISUALSTYLE
  5
39
102
{ACAD_REACTORS
330
2A
102
}
330
2A
100
AcDbVisualStyle
  2
Facepattern
 70
    15
177
     2
291
     1
 71
     2
176
     1
 72
     2
176
     1
 73
     0
176
     1
 90
        0
176
     1
 40
-0.6
176
     1
 41
-30.0
176
     1
 62
     5
 63
     7
421
 16777215
176
     1
 74
     1
176
     1
 91
        4
176
     1
 64
     7
176
     1
 65
   257
176
     1
 75
     1
176
     1
175
     1
176
     1
 42
1.0
176
     1
 92
        8
176
     1
 66
     7
176
     1
 43
1.0
176
     1
 76
     1
176
     1
 77
     6
176
     1
 78
     2
176
     1
 67
     7
176
     1
 79
     5
176
     1
170
     0
176
     1
171
     0
176
     1
290
     0
176
     1
 93
        1
176
     1
 44
0.0
176
     1
173
     0
176
     1
  0
VISUALSTYLE
  5
2B
102
{ACAD_REACTORS
330
2A
102
}
330
2A
100
AcDbVisualStyle
  2
Flat
 70
     0
177
     2
291
     1
 71
     2
176
     1
 72
     1
176
     1
 73
     1
176
     1
 90
        2
176
     1
 40
-0.6
176
     1
 41
30.0
176
     1
 62
     5
 63
     7
421
 16777215
176
     1
 74
     0
176
     1
 91
        4
176
     1
 64
     7
176
     1
 65
   257
176
     1
 75
     1
176
     1
175
     1
176
     1
 42
1.0
176
     1
 92
        8
176
     1
 66
     7
176
     1
 43
1.0
176
     1
 76
     1
176
     1
 77
     6
176
     1
 78
     2
176
     1
 67
     7
176
     1
 79
     5
176
     1
170
     0
176
     1
171
     0
176
     1
290
     0
176
     1
 93
       13
176
     1
 44
0.0
176
     1
173
     0
176
     1
  0
VISUALSTYLE
  5
2C
102
{ACAD_REACTORS
330
2A
102
}
330
2A
100
AcDbVisualStyle
  2
FlatWithEdges
 70
     1
177
     2
291
     1
 71
     2
176
     1
 72
     1
176
     1
 73
     1
176
     1
 90
        2
176
     1
 40
-0.6
176
     1
 41
30.0
176
     1
 62
     5
 63
     7
421
 16777215
176
     1
 74
     1
176
     1
 91
        4
176
     1
 64
     7
176
     1
 65
   257
176
     1
 75
     1
176
     1
175
     1
176
     1
 42
1.0
176
     1
 92
        0
176
     1
 66
   257
176
     1
 43
1.0
176
     1
 76
     1
176
     1
 77
     6
176
     1
 78
     2
176
     1
 67
     7
176
     1
 79
     5
176
     1
170
     0
176
     1
171
     0
176
     1
290
     0
176
     1
 93
       13
176
     1
 44
0.0
176
     1
173
     0
176
     1
  0
VISUALSTYLE
  5
2D
102
{ACAD_REACTORS
330
2A
102
}
330
2A
100
AcDbVisualStyle
  2
Gouraud
 70
     2
177
     2
291
     1
 71
     2
176
     1
 72
     2
176
     1
 73
     1
176
     1
 90
        2
176
     1
 40
-0.6
176
     1
 41
30.0
176
     1
 62
     5
 63
     7
421
 16777215
176
     1
 74
     0
176
     1
 91
        4
176
     1
 64
     7
176
     1
 65
   257
176
     1
 75
     1
176
     1
175
     1
176
     1
 42
1.0
176
     1
 92
        0
176
     1
 66
     7
176
     1
 43
1.0
176
     1
 76
     1
176
     1
 77
     6
176
     1
 78
     2
176
     1
 67
     7
176
     1
 79
     5
176
     1
170
     0
176
     1
171
     0
176
     1
290
     0
176
     1
 93
       13
176
     1
 44
0.0
176
     1
173
     0
176
     1
  0
VISUALSTYLE
  5
2E
102
{ACAD_REACTORS
330
2A
102
}
330
2A
100
AcDbVisualStyle
  2
GouraudWithEdges
 70
     3
177
     2
291
     1
 71
     2
176
     1
 72
     2
176
     1
 73
     1
176
     1
 90
        2
176
     1
 40
-0.6
176
     1
 41
30.0
176
     1
 62
     5
 63
     7
421
 16777215
176
     1
 74
     1
176
     1
 91
        4
176
     1
 64
     7
176
     1
 65
   257
176
     1
 75
     1
176
     1
175
     1
176
     1
 42
1.0
176
     1
 92
        0
176
     1
 66
   257
176
     1
 43
1.0
176
     1
 76
     1
176
     1
 77
     6
176
     1
 78
     2
176
     1
 67
     7
176
     1
 79
     5
176
     1
170
     0
176
     1
171
     0
176
     1
290
     0
176
     1
 93
       13
176
     1
 44
0.0
176
     1
173
     0
176
     1
  0
VISUALSTYLE
  5
38
102
{ACAD_REACTORS
330
2A
102
}
330
2A
100
AcDbVisualStyle
  2
Linepattern
 70
    14
177
     2
291
     1
 71
     2
176
     1
 72
     2
176
     1
 73
     0
176
     1
 90
        0
176
     1
 40
-0.6
176
     1
 41
-30.0
176
     1
 62
     5
 63
     7
421
 16777215
176
     1
 74
     1
176
     1
 91
        4
176
     1
 64
     7
176
     1
 65
   257
176
     1
 75
     7
176
     1
175
     7
176
     1
 42
1.0
176
     1
 92
        8
176
     1
 66
     7
176
     1
 43
1.0
176
     1
 76
     1
176
     1
 77
     6
176
     1
 78
     2
176
     1
 67
     7
176
     1
 79
     5
176
     1
170
     0
176
     1
171
     0
176
     1
290
     0
176
     1
 93
        1
176
     1
 44
0.0
176
     1
173
     0
176
     1
  0
VISUALSTYLE
  5
33
102
{ACAD_REACTORS
330
2A
102
}
330
2A
100
AcDbVisualStyle
  2
Realistic
 70
     8
177
     2
291
     0
 71
     2
176
     1
 72
     2
176
     1
 73
     0
176
     1
 90
        0
176
     1
 40
-0.6
176
     1
 41
-30.0
176
     1
 62
     5
 63
     7
421
 16777215
176
     1
 74
     1
176
     1
 91
        0
176
     1
 64
     7
176
     1
 65
   257
176
     1
 75
     1
176
     1
175
     1
176
     1
 42
1.0
176
     1
 92
        8
176
     1
 66
     8
424
  7895160
176
     1
 43
1.0
176
     1
 76
     1
176
     1
 77
     6
176
     1
 78
     2
176
     1
 67
     7
176
     1
 79
     5
176
     1
170
     0
176
     1
171
     0
176
     1
290
     0
176
     1
 93
       13
176
     1
 44
0.0
176
     1
173
     0
176
     1
  0
VISUALSTYLE
  5
37
102
{ACAD_REACTORS
330
2A
102
}
330
2A
100
AcDbVisualStyle
  2
Thicken
 70
    13
177
     2
291
     1
 71
     2
176
     1
 72
     2
176
     1
 73
     0
176
     1
 90
        0
176
     1
 40
-0.6
176
     1
 41
-30.0
176
     1
 62
     5
 63
     7
421
 16777215
176
     1
 74
     1
176
     1
 91
        4
176
     1
 64
     7
176
     1
 65
   257
176
     1
 75
     1
176
     1
175
     1
176
     1
 42
1.0
176
     1
 92
       12
176
     1
 66
     7
176
     1
 43
1.0
176
     1
 76
     1
176
     1
 77
     6
176
     1
 78
     2
176
     1
 67
     7
176
     1
 79
     5
176
     1
170
     0
176
     1
171
     0
176
     1
290
     0
176
     1
 93
        1
176
     1
 44
0.0
176
     1
173
     0
176
     1
  0
ENDSEC
  0
EOF
