  0
SECTION
  2
HEADER
  9
$ACADVER
  1
AC1024
  9
$ACADMAINTVER
 70
     6
  9
$DWGCODEPAGE
  3
ANSI_932
  9
$INSBASE
 10
0.0
 20
0.0
 30
0.0
  9
$EXTMIN
 10
-8910.0
 20
-6300.0
 30
0.0
  9
$EXTMAX
 10
8910.0
 20
6300.0
 30
0.0
  9
$LIMMIN
 10
-8910.0
 20
-6300.0
  9
$LIMMAX
 10
8910.0
 20
6300.0
  9
$ORTHOMODE
 70
     0
  9
$REGENMODE
 70
     1
  9
$FILLMODE
 70
     1
  9
$QTEXTMODE
 70
     0
  9
$MIRRTEXT
 70
     1
  9
$LTSCALE
 40
30.0
  9
$ATTMODE
 70
     1
  9
$TEXTSIZE
 40
2.5
  9
$TRACEWID
 40
1.0
  9
$TEXTSTYLE
  7
Standard
  9
$CLAYER
  8
0
  9
$CELTYPE
  6
ByLayer
  9
$CECOLOR
 62
   256
  9
$CELTSCALE
 40
1.0
  9
$DISPSILH
 70
     0
  9
$DIMSCALE
 40
1.0
  9
$DIMASZ
 40
2.5
  9
$DIMEXO
 40
0.625
  9
$DIMDLI
 40
3.75
  9
$DIMRND
 40
0.0
  9
$DIMDLE
 40
0.0
  9
$DIMEXE
 40
1.25
  9
$DIMTP
 40
0.0
  9
$DIMTM
 40
0.0
  9
$DIMTXT
 40
2.5
  9
$DIMCEN
 40
2.5
  9
$DIMTSZ
 40
0.0
  9
$DIMTOL
 70
     0
  9
$DIMLIM
 70
     0
  9
$DIMTIH
 70
     0
  9
$DIMTOH
 70
     0
  9
$DIMSE1
 70
     0
  9
$DIMSE2
 70
     0
  9
$DIMTAD
 70
     1
  9
$DIMZIN
 70
     8
  9
$DIMBLK
  1

  9
$DIMASO
 70
     1
  9
$DIMSHO
 70
     1
  9
$DIMPOST
  1

  9
$DIMAPOST
  1

  9
$DIMALT
 70
     0
  9
$DIMALTD
 70
     3
  9
$DIMALTF
 40
0.03937007874016
  9
$DIMLFAC
 40
1.0
  9
$DIMTOFL
 70
     1
  9
$DIMTVP
 40
0.0
  9
$DIMTIX
 70
     0
  9
$DIMSOXD
 70
     0
  9
$DIMSAH
 70
     0
  9
$DIMBLK1
  1

  9
$DIMBLK2
  1

  9
$DIMSTYLE
  2
ISO-25
  9
$DIMCLRD
 70
     0
  9
$DIMCLRE
 70
     0
  9
$DIMCLRT
 70
     0
  9
$DIMTFAC
 40
1.0
  9
$DIMGAP
 40
0.625
  9
$DIMJUST
 70
     0
  9
$DIMSD1
 70
     0
  9
$DIMSD2
 70
     0
  9
$DIMTOLJ
 70
     0
  9
$DIMTZIN
 70
     8
  9
$DIMALTZ
 70
     0
  9
$DIMALTTZ
 70
     0
  9
$DIMUPT
 70
     0
  9
$DIMDEC
 70
     2
  9
$DIMTDEC
 70
     2
  9
$DIMALTU
 70
     2
  9
$DIMALTTD
 70
     3
  9
$DIMTXSTY
  7
Standard
  9
$DIMAUNIT
 70
     0
  9
$DIMADEC
 70
     0
  9
$DIMALTRND
 40
0.0
  9
$DIMAZIN
 70
     0
  9
$DIMDSEP
 70
    44
  9
$DIMATFIT
 70
     3
  9
$DIMFRAC
 70
     0
  9
$DIMLDRBLK
  1

  9
$DIMLUNIT
 70
     2
  9
$DIMLWD
 70
    -2
  9
$DIMLWE
 70
    -2
  9
$DIMTMOVE
 70
     0
  9
$DIMFXL
 40
1.0
  9
$DIMFXLON
 70
     0
  9
$DIMJOGANG
 40
0.7853981633974483
  9
$DIMTFILL
 70
     0
  9
$DIMTFILLCLR
 70
     0
  9
$DIMARCSYM
 70
     0
  9
$DIMLTYPE
  6

  9
$DIMLTEX1
  6

  9
$DIMLTEX2
  6

  9
$DIMTXTDIRECTION
 70
     0
  9
$LUNITS
 70
     2
  9
$LUPREC
 70
     4
  9
$SKETCHINC
 40
1.0
  9
$FILLETRAD
 40
10.0
  9
$AUNITS
 70
     0
  9
$AUPREC
 70
     0
  9
$MENU
  1
.
  9
$ELEVATION
 40
0.0
  9
$PELEVATION
 40
0.0
  9
$THICKNESS
 40
0.0
  9
$LIMCHECK
 70
     0
  9
$CHAMFERA
 40
10.0
  9
$CHAMFERB
 40
10.0
  9
$CHAMFERC
 40
20.0
  9
$CHAMFERD
 40
0.0
  9
$SKPOLY
 70
     0
  9
$TDCREATE
 40
2460066.447517489
  9
$TDUCREATE
 40
2460066.072517489
  9
$TDUPDATE
 40
2460066.4475175
  9
$TDUUPDATE
 40
2460066.0725175
  9
$TDINDWG
 40
0.0000000116
  9
$TDUSRTIMER
 40
0.0000000116
  9
$USRTIMER
 70
     1
  9
$ANGBASE
 50
0.0
  9
$ANGDIR
 70
     0
  9
$PDMODE
 70
     0
  9
$PDSIZE
 40
0.0
  9
$PLINEWID
 40
0.0
  9
$SPLFRAME
 70
     0
  9
$SPLINETYPE
 70
     6
  9
$SPLINESEGS
 70
     8
  9
$HANDSEED
  5
341
  9
$SURFTAB1
 70
     6
  9
$SURFTAB2
 70
     6
  9
$SURFTYPE
 70
     6
  9
$SURFU
 70
     6
  9
$SURFV
 70
     6
  9
$UCSBASE
  2

  9
$UCSNAME
  2

  9
$UCSORG
 10
0.0
 20
0.0
 30
0.0
  9
$UCSXDIR
 10
1.0
 20
0.0
 30
0.0
  9
$UCSYDIR
 10
0.0
 20
1.0
 30
0.0
  9
$UCSORTHOREF
  2

  9
$UCSORTHOVIEW
 70
     0
  9
$UCSORGTOP
 10
0.0
 20
0.0
 30
0.0
  9
$UCSORGBOTTOM
 10
0.0
 20
0.0
 30
0.0
  9
$UCSORGLEFT
 10
0.0
 20
0.0
 30
0.0
  9
$UCSORGRIGHT
 10
0.0
 20
0.0
 30
0.0
  9
$UCSORGFRONT
 10
0.0
 20
0.0
 30
0.0
  9
$UCSORGBACK
 10
0.0
 20
0.0
 30
0.0
  9
$PUCSBASE
  2

  9
$PUCSNAME
  2

  9
$PUCSORG
 10
0.0
 20
0.0
 30
0.0
  9
$PUCSXDIR
 10
1.0
 20
0.0
 30
0.0
  9
$PUCSYDIR
 10
0.0
 20
1.0
 30
0.0
  9
$PUCSORTHOREF
  2

  9
$PUCSORTHOVIEW
 70
     0
  9
$PUCSORGTOP
 10
0.0
 20
0.0
 30
0.0
  9
$PUCSORGBOTTOM
 10
0.0
 20
0.0
 30
0.0
  9
$PUCSORGLEFT
 10
0.0
 20
0.0
 30
0.0
  9
$PUCSORGRIGHT
 10
0.0
 20
0.0
 30
0.0
  9
$PUCSORGFRONT
 10
0.0
 20
0.0
 30
0.0
  9
$PUCSORGBACK
 10
0.0
 20
0.0
 30
0.0
  9
$USERI1
 70
     0
  9
$USERI2
 70
     0
  9
$USERI3
 70
     0
  9
$USERI4
 70
     0
  9
$USERI5
 70
     0
  9
$USERR1
 40
0.0
  9
$USERR2
 40
0.0
  9
$USERR3
 40
0.0
  9
$USERR4
 40
0.0
  9
$USERR5
 40
0.0
  9
$WORLDVIEW
 70
     1
  9
$SHADEDGE
 70
     3
  9
$SHADEDIF
 70
    70
  9
$TILEMODE
 70
     1
  9
$MAXACTVP
 70
    64
  9
$PINSBASE
 10
0.0
 20
0.0
 30
0.0
  9
$PLIMCHECK
 70
     0
  9
$PEXTMIN
 10
1.000000000000000E+20
 20
1.000000000000000E+20
 30
1.000000000000000E+20
  9
$PEXTMAX
 10
-1.000000000000000E+20
 20
-1.000000000000000E+20
 30
-1.000000000000000E+20
  9
$PLIMMIN
 10
0.0
 20
0.0
  9
$PLIMMAX
 10
420.0
 20
297.0
  9
$UNITMODE
 70
     0
  9
$VISRETAIN
 70
     1
  9
$PLINEGEN
 70
     0
  9
$PSLTSCALE
 70
     1
  9
$TREEDEPTH
 70
  3020
  9
$CMLSTYLE
  2
Standard
  9
$CMLJUST
 70
     0
  9
$CMLSCALE
 40
20.0
  9
$PROXYGRAPHICS
 70
     1
  9
$MEASUREMENT
 70
     1
  9
$CELWEIGHT
370
    -1
  9
$ENDCAPS
280
     0
  9
$JOINSTYLE
280
     0
  9
$LWDISPLAY
290
     0
  9
$INSUNITS
 70
     4
  9
$HYPERLINKBASE
  1

  9
$STYLESHEET
  1

  9
$XEDIT
290
     1
  9
$CEPSNTYPE
380
     0
  9
$PSTYLEMODE
290
     1
  9
$FINGERPRINTGUID
  2
{B50E00E9-44CE-4022-BF84-8A0A0098D8DA}
  9
$VERSIONGUID
  2
{FAEB1C32-E019-11D5-929B-00C0DF256EC4}
  9
$EXTNAMES
290
     1
  9
$PSVPSCALE
 40
0.0
  9
$OLESTARTUP
290
     0
  9
$SORTENTS
280
   127
  9
$INDEXCTL
280
     0
  9
$HIDETEXT
280
     1
  9
$XCLIPFRAME
280
     2
  9
$HALOGAP
280
     0
  9
$OBSCOLOR
 70
   257
  9
$OBSLTYPE
280
     0
  9
$INTERSECTIONDISPLAY
280
     0
  9
$INTERSECTIONCOLOR
 70
   257
  9
$DIMASSOC
280
     2
  9
$PROJECTNAME
  1

  9
$CAMERADISPLAY
290
     0
  9
$LENSLENGTH
 40
50.0
  9
$CAMERAHEIGHT
 40
0.0
  9
$STEPSPERSEC
 40
2.0
  9
$STEPSIZE
 40
6.0
  9
$3DDWFPREC
 40
2.0
  9
$PSOLWIDTH
 40
5.0
  9
$PSOLHEIGHT
 40
80.0
  9
$LOFTANG1
 40
1.570796326794897
  9
$LOFTANG2
 40
1.570796326794897
  9
$LOFTMAG1
 40
0.0
  9
$LOFTMAG2
 40
0.0
  9
$LOFTPARAM
 70
     7
  9
$LOFTNORMALS
280
     1
  9
$LATITUDE
 40
37.795
  9
$LONGITUDE
 40
-122.394
  9
$NORTHDIRECTION
 40
0.0
  9
$TIMEZONE
 70
 -8000
  9
$LIGHTGLYPHDISPLAY
280
     1
  9
$TILEMODELIGHTSYNCH
280
     1
  9
$SOLIDHIST
280
     1
  9
$SHOWHIST
280
     1
  9
$DWFFRAME
280
     2
  9
$DGNFRAME
280
     2
  9
$REALWORLDSCALE
290
     1
  9
$INTERFERECOLOR
 62
   256
  9
$CSHADOW
280
     0
  9
$SHADOWPLANELOCATION
 40
0.0
  0
ENDSEC
  0
SECTION
  2
CLASSES
  0
CLASS
  1
ACDBDICTIONARYWDFLT
  2
AcDbDictionaryWithDefault
  3
ObjectDBX Classes
 90
        0
 91
        4
280
     0
281
     0
  0
CLASS
  1
VISUALSTYLE
  2
AcDbVisualStyle
  3
ObjectDBX Classes
 90
     4095
 91
        4
280
     0
281
     0
  0
CLASS
  1
MATERIAL
  2
AcDbMaterial
  3
ObjectDBX Classes
 90
     1153
 91
        4
280
     0
281
     0
  0
ENDSEC
  0
SECTION
  2
TABLES
  0
TABLE
  2
VPORT
  5
8
330
0
100
AcDbSymbolTable
 70
     1
  0
VPORT
  5
29
330
8
100
AcDbSymbolTableRecord
100
AcDbViewportTableRecord
  2
*Active
 70
     0
 10
0.0
 20
0.0
 11
1.0
 21
1.0
 12
0.0
 22
0.0
 13
0.0
 23
0.0
 14
10.0
 24
10.0
 15
10.0
 25
10.0
 16
0.0
 26
0.0
 36
1.0
 17
0.0
 27
0.0
 37
0.0
 40
13860.0
 41
1.414285714285714
 42
50.0
 43
0.0
 44
0.0
 50
0.0
 51
0.0
 71
     0
 72
 10000
 73
     1
 74
     3
 75
     0
 76
     0
 77
     0
 78
     0
281
     0
 65
     1
110
0.0
120
0.0
130
0.0
111
1.0
121
0.0
131
0.0
112
0.0
122
1.0
132
0.0
 79
     0
146
0.0
 60
     3
 61
     5
292
     1
282
     1
141
0.0
142
0.0
 63
   250
  0
ENDTAB
  0
TABLE
  2
LTYPE
  5
5
330
0
100
AcDbSymbolTable
 70
     4
  0
LTYPE
  5
14
330
5
100
AcDbSymbolTableRecord
100
AcDbLinetypeTableRecord
  2
ByBlock
 70
     0
  3

 72
    65
 73
     0
 40
0.0
  0
LTYPE
  5
15
330
5
100
AcDbSymbolTableRecord
100
AcDbLinetypeTableRecord
  2
ByLayer
 70
     0
  3

 72
    65
 73
     0
 40
0.0
  0
LTYPE
  5
16
330
5
100
AcDbSymbolTableRecord
100
AcDbLinetypeTableRecord
  2
Continuous
 70
     0
  3
Solid line
 72
    65
 73
     0
 40
0.0
  0
LTYPE
  5
3F
330
5
100
AcDbSymbolTableRecord
100
AcDbLinetypeTableRecord
  2
JWW_HOJO
 70
     0
  3
  -   -   -   -   -   -   -   - 
 72
    65
 73
     2
 40
1.693333333333333
 49
-1.27
 74
     0
 49
0.4233333333333333
 74
     0
  0
LTYPE
  5
40
330
5
100
AcDbSymbolTableRecord
100
AcDbLinetypeTableRecord
  2
JWW_CENTER1
 70
     0
  3
-----  --  ----------  --  -----
 72
    65
 73
     4
 40
3.386666666666667
 49
2.116666666666667
 74
     0
 49
-0.4233333333333333
 74
     0
 49
0.4233333333333333
 74
     0
 49
-0.4233333333333333
 74
     0
  0
LTYPE
  5
41
330
5
100
AcDbSymbolTableRecord
100
AcDbLinetypeTableRecord
  2
JWW_DASHED1
 70
     0
  3
-  --  --  --  --  --  --  --  -
 72
    65
 73
     2
 40
0.3386666666666667
 49
0.1693333333333333
 74
     0
 49
-0.1693333333333333
 74
     0
  0
ENDTAB
  0
TABLE
  2
LAYER
  5
2
330
0
100
AcDbSymbolTable
 70
    14
  0
LAYER
  5
10
330
2
100
AcDbSymbolTableRecord
100
AcDbLayerTableRecord
  2
0
 70
     0
 62
     7
  6
Continuous
370
    -3
390
F
347
3E
  0
LAYER
  5
42
330
2
100
AcDbSymbolTableRecord
100
AcDbLayerTableRecord
  2
0-0_補助線
 70
     0
 62
     7
  6
Continuous
370
    -3
390
F
347
3E
  0
LAYER
  5
43
330
2
100
AcDbSymbolTableRecord
100
AcDbLayerTableRecord
  2
F-1_枠
 70
     0
 62
     7
  6
Continuous
370
    -3
390
F
347
3E
  0
LAYER
  5
44
330
2
100
AcDbSymbolTableRecord
100
AcDbLayerTableRecord
  2
F-0_補助線
 70
     0
 62
     7
  6
Continuous
370
    -3
390
F
347
3E
  0
LAYER
  5
45
330
2
100
AcDbSymbolTableRecord
100
AcDbLayerTableRecord
  2
F-A_文字
 70
     0
 62
     7
  6
Continuous
370
    -3
390
F
347
3E
  0
LAYER
  5
46
330
2
100
AcDbSymbolTableRecord
100
AcDbLayerTableRecord
  2
0-B_寸法
 70
     0
 62
     7
  6
Continuous
370
    -3
390
F
347
3E
  0
LAYER
  5
47
330
2
100
AcDbSymbolTableRecord
100
AcDbLayerTableRecord
  2
0-4_枠
 70
     0
 62
     7
  6
Continuous
370
    -3
390
F
347
3E
  0
LAYER
  5
48
330
2
100
AcDbSymbolTableRecord
100
AcDbLayerTableRecord
  2
0-7
 70
     0
 62
     7
  6
Continuous
370
    -3
390
F
347
3E
  0
LAYER
  5
49
330
2
100
AcDbSymbolTableRecord
100
AcDbLayerTableRecord
  2
0-1_通り芯
 70
     0
 62
     7
  6
Continuous
370
    -3
390
F
347
3E
  0
LAYER
  5
4A
330
2
100
AcDbSymbolTableRecord
100
AcDbLayerTableRecord
  2
0-8
 70
     0
 62
     7
  6
Continuous
370
    -3
390
F
347
3E
  0
LAYER
  5
4B
330
2
100
AcDbSymbolTableRecord
100
AcDbLayerTableRecord
  2
0-2_扉
 70
     0
 62
     7
  6
Continuous
370
    -3
390
F
347
3E
  0
LAYER
  5
4C
330
2
100
AcDbSymbolTableRecord
100
AcDbLayerTableRecord
  2
0-3_仕上げ
 70
     0
 62
     7
  6
Continuous
370
    -3
390
F
347
3E
  0
LAYER
  5
4D
330
2
100
AcDbSymbolTableRecord
100
AcDbLayerTableRecord
  2
0-F
 70
     0
 62
     7
  6
Continuous
370
    -3
390
F
347
3E
  0
LAYER
  5
4E
330
2
100
AcDbSymbolTableRecord
100
AcDbLayerTableRecord
  2
0-A_文字
 70
     0
 62
     7
  6
Continuous
370
    -3
390
F
347
3E
  0
ENDTAB
  0
TABLE
  2
STYLE
  5
3
330
0
100
AcDbSymbolTable
 70
     1
  0
STYLE
  5
11
330
3
100
AcDbSymbolTableRecord
100
AcDbTextStyleTableRecord
  2
Standard
 70
     0
 40
0.0
 41
1.0
 50
0.0
 71
     0
 42
2.5
  3
txt
  4

  0
ENDTAB
  0
TABLE
  2
VIEW
  5
6
330
0
100
AcDbSymbolTable
 70
     0
  0
ENDTAB
  0
TABLE
  2
UCS
  5
7
330
0
100
AcDbSymbolTable
 70
     0
  0
ENDTAB
  0
TABLE
  2
APPID
  5
9
330
0
100
AcDbSymbolTable
 70
     1
  0
APPID
  5
12
330
9
100
AcDbSymbolTableRecord
100
AcDbRegAppTableRecord
  2
ACAD
 70
     0
  0
ENDTAB
  0
TABLE
  2
DIMSTYLE
  5
A
330
0
100
AcDbSymbolTable
 70
     1
100
AcDbDimStyleTable
  0
DIMSTYLE
105
27
330
A
100
AcDbSymbolTableRecord
100
AcDbDimStyleTableRecord
  2
ISO-25
 70
     0
 41
2.5
 42
0.625
 43
3.75
 44
1.25
 73
     0
 74
     0
 77
     1
 78
     8
140
2.5
141
2.5
143
0.03937007874016
147
0.625
171
     3
172
     1
178
     0
271
     2
272
     2
274
     3
278
    44
283
     0
284
     8
340
11
  0
ENDTAB
  0
TABLE
  2
BLOCK_RECORD
  5
1
330
0
100
AcDbSymbolTable
 70
     1
  0
BLOCK_RECORD
  5
1F
330
1
100
AcDbSymbolTableRecord
100
AcDbBlockTableRecord
  2
*Model_Space
340
22
 70
     0
280
     1
281
     0
  0
BLOCK_RECORD
  5
1B
330
1
100
AcDbSymbolTableRecord
100
AcDbBlockTableRecord
  2
*Paper_Space
340
1E
 70
     0
280
     1
281
     0
  0
BLOCK_RECORD
  5
23
330
1
100
AcDbSymbolTableRecord
100
AcDbBlockTableRecord
  2
*Paper_Space0
340
26
 70
     0
280
     1
281
     0
  0
ENDTAB
  0
ENDSEC
  0
SECTION
  2
BLOCKS
  0
BLOCK
  5
20
330
1F
100
AcDbEntity
  8
0
100
AcDbBlockBegin
  2
*Model_Space
 70
     0
 10
0.0
 20
0.0
 30
0.0
  3
*Model_Space
  1

  0
ENDBLK
  5
21
330
1F
100
AcDbEntity
  8
0
100
AcDbBlockEnd
  0
BLOCK
  5
1C
330
1B
100
AcDbEntity
 67
     1
  8
0
100
AcDbBlockBegin
  2
*Paper_Space
 70
     0
 10
0.0
 20
0.0
 30
0.0
  3
*Paper_Space
  1

  0
ENDBLK
  5
1D
330
1B
100
AcDbEntity
 67
     1
  8
0
100
AcDbBlockEnd
  0
BLOCK
  5
24
330
23
100
AcDbEntity
  8
0
100
AcDbBlockBegin
  2
*Paper_Space0
 70
     0
 10
0.0
 20
0.0
 30
0.0
  3
*Paper_Space0
  1

  0
ENDBLK
  5
25
330
23
100
AcDbEntity
  8
0
100
AcDbBlockEnd
  0
ENDSEC
  0
SECTION
  2
ENTITIES
  0
LINE
  5
4F
330
1F
100
AcDbEntity
  8
0-0_補助線
  6
JWW_HOJO
 62
   120
370
     5
100
AcDbLine
 10
-5999.99998453501
 20
550.5001831054688
 30
0.0
 11
5699.998762800888
 21
550.5001831054688
 31
0.0
  0
LINE
  5
50
330
1F
100
AcDbEntity
  8
0-0_補助線
  6
JWW_HOJO
 62
     7
370
     9
100
AcDbLine
 10
-5490.000018557987
 20
-2590.000179909371
 30
0.0
 11
5699.998762800888
 21
-2590.000179909371
 31
0.0
  0
LINE
  5
51
330
1F
100
AcDbEntity
  8
0-0_補助線
  6
JWW_HOJO
 62
   120
370
     5
100
AcDbLine
 10
-5490.000018557987
 20
-2640.000179909371
 30
0.0
 11
5699.998762800888
 21
-2640.000179909371
 31
0.0
  0
LINE
  5
52
330
1F
100
AcDbEntity
  8
0-0_補助線
  6
JWW_HOJO
 62
     7
370
     9
100
AcDbLine
 10
-5490.000018557987
 20
1390.500183105469
 30
0.0
 11
5699.998762800887
 21
1390.500183105469
 31
0.0
  0
LINE
  5
53
330
1F
100
AcDbEntity
  8
0-0_補助線
  6
JWW_HOJO
 62
   120
370
     5
100
AcDbLine
 10
-5490.000018557987
 20
1340.500183105469
 30
0.0
 11
5699.998762800887
 21
1340.500183105469
 31
0.0
  0
LINE
  5
54
330
1F
100
AcDbEntity
  8
F-1_枠
  6
Continuous
 62
   200
370
    20
100
AcDbLine
 10
-5999.999752560178
 20
4174.999769056166
 30
0.0
 11
5699.998762800888
 21
4174.999769056166
 31
0.0
  0
LINE
  5
55
330
1F
100
AcDbEntity
  8
F-0_補助線
  6
JWW_HOJO
 62
   120
370
     5
100
AcDbLine
 10
-6300.0
 20
-4455.0
 30
0.0
 11
-6300.0
 21
4424.999604096284
 31
0.0
  0
LINE
  5
56
330
1F
100
AcDbEntity
  8
F-0_補助線
  6
JWW_HOJO
 62
   120
370
     5
100
AcDbLine
 10
5999.999010240709
 20
4424.999604096284
 30
0.0
 11
5999.999010240709
 21
-4455.0
 31
0.0
  0
LINE
  5
57
330
1F
100
AcDbEntity
  8
F-0_補助線
  6
JWW_HOJO
 62
   120
370
     5
100
AcDbLine
 10
5999.999010240709
 20
-4455.0
 30
0.0
 11
-6300.0
 21
-4455.0
 31
0.0
  0
LINE
  5
58
330
1F
100
AcDbEntity
  8
F-1_枠
  6
Continuous
 62
   200
370
    20
100
AcDbLine
 10
-5999.999752560178
 20
4164.999983504013
 30
0.0
 11
5699.998762800888
 21
4164.999983504013
 31
0.0
  0
LINE
  5
59
330
1F
100
AcDbEntity
  8
F-1_枠
  6
Continuous
 62
   200
370
    20
100
AcDbLine
 10
-5999.999752560178
 20
4169.999505120355
 30
0.0
 11
5699.998762800888
 21
4169.999505120355
 31
0.0
  0
LINE
  5
5A
330
1F
100
AcDbEntity
  8
F-1_枠
  6
Continuous
 62
   200
370
    20
100
AcDbLine
 10
5689.998977248734
 20
4174.999769056166
 30
0.0
 11
5689.998977248734
 21
-4205.000164959882
 31
0.0
  0
LINE
  5
5B
330
1F
100
AcDbEntity
  8
F-1_枠
  6
Continuous
 62
   200
370
    20
100
AcDbLine
 10
5694.998498865077
 20
4174.999769056166
 30
0.0
 11
5694.998498865077
 21
-4205.000164959882
 31
0.0
  0
LINE
  5
5C
330
1F
100
AcDbEntity
  8
F-1_枠
  6
Continuous
 62
   200
370
    20
100
AcDbLine
 10
5699.998762800888
 20
4174.999769056166
 30
0.0
 11
5699.998762800888
 21
-4205.000164959882
 31
0.0
  0
LINE
  5
5D
330
1F
100
AcDbEntity
  8
F-1_枠
  6
Continuous
 62
   200
370
    20
100
AcDbLine
 10
-5989.999990205507
 20
4174.999769056166
 30
0.0
 11
-5989.999990205507
 21
-4205.000164959882
 31
0.0
  0
LINE
  5
5E
330
1F
100
AcDbEntity
  8
F-1_枠
  6
Continuous
 62
   200
370
    20
100
AcDbLine
 10
-5994.999975771518
 20
4174.999769056166
 30
0.0
 11
-5994.999975771518
 21
-4205.000164959882
 31
0.0
  0
LINE
  5
5F
330
1F
100
AcDbEntity
  8
F-1_枠
  6
Continuous
 62
   200
370
    20
100
AcDbLine
 10
-5999.99998453501
 20
4174.999769056166
 30
0.0
 11
-5999.99998453501
 21
-4205.000164959882
 31
0.0
  0
LINE
  5
60
330
1F
100
AcDbEntity
  8
F-1_枠
  6
Continuous
 62
   200
370
    20
100
AcDbLine
 10
-5490.000018557986
 20
4174.999769056166
 30
0.0
 11
-5490.000018557986
 21
-3790.000179909372
 31
0.0
  0
LINE
  5
61
330
1F
100
AcDbEntity
  8
F-0_補助線
  6
JWW_HOJO
 62
   120
370
     5
100
AcDbLine
 10
-6300.0
 20
4424.999604096284
 30
0.0
 11
5999.999010240709
 21
4424.999604096284
 31
0.0
  0
LINE
  5
62
330
1F
100
AcDbEntity
  8
F-0_補助線
  6
JWW_HOJO
 62
     7
370
     9
100
AcDbLine
 10
849.9995876002961
 20
-3795.000003092998
 30
0.0
 11
849.9995876002961
 21
-4195.000008247994
 31
0.0
  0
LINE
  5
63
330
1F
100
AcDbEntity
  8
F-0_補助線
  6
JWW_HOJO
 62
     7
370
     9
100
AcDbLine
 10
349.9999175200594
 20
-3795.000003092998
 30
0.0
 11
349.9999175200594
 21
-4195.000008247994
 31
0.0
  0
LINE
  5
64
330
1F
100
AcDbEntity
  8
F-1_枠
  6
Continuous
 62
   200
370
    20
100
AcDbLine
 10
5699.998762800888
 20
-4205.000002577498
 30
0.0
 11
-5999.999752560178
 21
-4205.000002577498
 31
0.0
  0
LINE
  5
65
330
1F
100
AcDbEntity
  8
F-1_枠
  6
Continuous
 62
   200
370
    20
100
AcDbLine
 10
5699.998762800888
 20
-4199.999993814004
 30
0.0
 11
-5999.999752560178
 21
-4199.999993814004
 31
0.0
  0
LINE
  5
66
330
1F
100
AcDbEntity
  8
F-1_枠
  6
Continuous
 62
   200
370
    20
100
AcDbLine
 10
5699.998762800888
 20
-4195.000008247994
 30
0.0
 11
-5999.999752560178
 21
-4195.000008247994
 31
0.0
  0
LINE
  5
67
330
1F
100
AcDbEntity
  8
F-1_枠
  6
Continuous
 62
   200
370
    20
100
AcDbLine
 10
4189.999224688556
 20
-3795.000003092998
 30
0.0
 11
4189.999224688556
 21
-4195.000008247994
 31
0.0
  0
LINE
  5
68
330
1F
100
AcDbEntity
  8
F-1_枠
  6
Continuous
 62
   200
370
    20
100
AcDbLine
 10
2689.998729808911
 20
-3795.000003092998
 30
0.0
 11
2689.998729808911
 21
-4195.000008247994
 31
0.0
  0
LINE
  5
69
330
1F
100
AcDbEntity
  8
F-1_枠
  6
Continuous
 62
   200
370
    20
100
AcDbLine
 10
-150.0001237199109
 20
-3795.000003092998
 30
0.0
 11
-150.0001237199109
 21
-4195.000008247994
 31
0.0
  0
LINE
  5
6A
330
1F
100
AcDbEntity
  8
F-1_枠
  6
Continuous
 62
   200
370
    20
100
AcDbLine
 10
-150.0001237199109
 20
-3994.999936078046
 30
0.0
 11
5689.998977248734
 21
-3995.005364289155
 31
0.0
  0
LINE
  5
6B
330
1F
100
AcDbEntity
  8
F-0_補助線
  6
JWW_HOJO
 62
     7
370
     9
100
AcDbLine
 10
-5989.999990205507
 20
-3994.99993607839
 30
0.0
 11
-150.0001237199109
 21
-3994.99993607839
 31
0.0
  0
LINE
  5
6C
330
1F
100
AcDbEntity
  8
F-0_補助線
  6
JWW_HOJO
 62
     7
370
     9
100
AcDbLine
 10
-5989.999990205507
 20
-3904.99993607839
 30
0.0
 11
-150.0001237199109
 21
-3904.99993607839
 31
0.0
  0
LINE
  5
6D
330
1F
100
AcDbEntity
  8
F-0_補助線
  6
JWW_HOJO
 62
     7
370
     9
100
AcDbLine
 10
-5989.999990205507
 20
-4084.99993607839
 30
0.0
 11
-150.0001237199109
 21
-4084.99993607839
 31
0.0
  0
LINE
  5
6E
330
1F
100
AcDbEntity
  8
F-0_補助線
  6
JWW_HOJO
 62
     7
370
     9
100
AcDbLine
 10
-150.0002584955388
 20
-4139.999739777983
 30
0.0
 11
5689.998842473105
 21
-4140.005167989091
 31
0.0
  0
LINE
  5
6F
330
1F
100
AcDbEntity
  8
F-0_補助線
  6
JWW_HOJO
 62
     7
370
     9
100
AcDbLine
 10
-150.0001748415872
 20
-4049.999739778022
 30
0.0
 11
5689.998926127057
 21
-4050.005167989131
 31
0.0
  0
LINE
  5
70
330
1F
100
AcDbEntity
  8
F-0_補助線
  6
JWW_HOJO
 62
     7
370
     9
100
AcDbLine
 10
-150.0000725978671
 20
-3939.99973721807
 30
0.0
 11
5689.999028370777
 21
-3940.005165429179
 31
0.0
  0
LINE
  5
71
330
1F
100
AcDbEntity
  8
F-0_補助線
  6
JWW_HOJO
 62
     7
370
     9
100
AcDbLine
 10
-149.9999889439155
 20
-3849.999737218109
 30
0.0
 11
5689.999112024728
 21
-3850.005165429218
 31
0.0
  0
LINE
  5
72
330
1F
100
AcDbEntity
  8
F-0_補助線
  6
JWW_HOJO
 62
     7
370
     9
100
AcDbLine
 10
2779.998729808911
 20
-3795.000003092998
 30
0.0
 11
2779.998729808911
 21
-4195.000008247994
 31
0.0
  0
LINE
  5
73
330
1F
100
AcDbEntity
  8
F-0_補助線
  6
JWW_HOJO
 62
     7
370
     9
100
AcDbLine
 10
-60.0001237199109
 20
-3795.000003092998
 30
0.0
 11
-60.0001237199109
 21
-4195.000008247994
 31
0.0
  0
LINE
  5
74
330
1F
100
AcDbEntity
  8
F-0_補助線
  6
JWW_HOJO
 62
     7
370
     9
100
AcDbLine
 10
4279.999224688556
 20
-3795.000003092998
 30
0.0
 11
4279.999224688556
 21
-4195.000008247994
 31
0.0
  0
LINE
  5
75
330
1F
100
AcDbEntity
  8
F-0_補助線
  6
JWW_HOJO
 62
     7
370
     9
100
AcDbLine
 10
-5247.547376752838
 20
-3795.000003092999
 30
0.0
 11
-5247.547376752838
 21
-4205.000164959882
 31
0.0
  0
LINE
  5
76
330
1F
100
AcDbEntity
  8
F-0_補助線
  6
JWW_HOJO
 62
     7
370
     9
100
AcDbLine
 10
-210.0001237199109
 20
-3795.000003092998
 30
0.0
 11
-210.0001237199109
 21
-4195.000008247994
 31
0.0
  0
LINE
  5
77
330
1F
100
AcDbEntity
  8
F-1_枠
  6
Continuous
 62
   200
370
    20
100
AcDbLine
 10
5699.998762800888
 20
-3795.000003092998
 30
0.0
 11
-5999.99998453501
 21
-3795.000003092998
 31
0.0
  0
LINE
  5
78
330
1F
100
AcDbEntity
  8
F-1_枠
  6
Continuous
 62
   200
370
    20
100
AcDbLine
 10
-5999.99998453501
 20
3964.999818544131
 30
0.0
 11
5699.998762800888
 21
3964.999818544131
 31
0.0
  0
LINE
  5
79
330
1F
100
AcDbEntity
  8
F-1_枠
  6
Continuous
 62
   200
370
    20
100
AcDbLine
 10
5699.998762800888
 20
-3790.000017526987
 30
0.0
 11
-5999.99998453501
 21
-3790.000017526987
 31
0.0
  0
LINE
  5
7A
330
1F
100
AcDbEntity
  8
F-1_枠
  6
Continuous
 62
   200
370
    20
100
AcDbLine
 10
-5999.99998453501
 20
190.5001831054688
 30
0.0
 11
5699.998762800888
 21
190.5001831054688
 31
0.0
  0
LINE
  5
7B
330
1F
100
AcDbEntity
  8
F-1_枠
  6
Continuous
 62
   200
370
    20
100
AcDbLine
 10
-5999.99998453501
 20
-15.50015011349217
 30
0.0
 11
5699.998762800888
 21
-15.50015011349217
 31
0.0
  0
LINE
  5
7C
330
1F
100
AcDbEntity
  8
F-1_枠
  6
Continuous
 62
   200
370
    20
100
AcDbLine
 10
-5999.99998453501
 20
184.5000148463899
 30
0.0
 11
5699.998762800888
 21
184.5000148463899
 31
0.0
  0
LINE
  5
7D
330
1F
100
AcDbEntity
  8
F-1_枠
  6
Continuous
 62
   200
370
    20
100
AcDbLine
 10
-5999.99998453501
 20
187.5000989759289
 30
0.0
 11
5699.998762800888
 21
187.5000989759289
 31
0.0
  0
LINE
  5
7E
330
1F
100
AcDbEntity
  8
F-1_枠
  6
Continuous
 62
   200
370
    20
100
AcDbLine
 10
-1763.333686622412
 20
190.5001831054688
 30
0.0
 11
-1763.333686622412
 21
4174.999769056166
 31
0.0
  0
LINE
  5
7F
330
1F
100
AcDbEntity
  8
F-1_枠
  6
Continuous
 62
   200
370
    20
100
AcDbLine
 10
99.99947934537431
 20
-3790.000179909372
 30
0.0
 11
99.99947934537431
 21
184.5000148463899
 31
0.0
  0
LINE
  5
80
330
1F
100
AcDbEntity
  8
F-1_枠
  6
Continuous
 62
   200
370
    20
100
AcDbLine
 10
1963.33264531316
 20
190.5001831054688
 30
0.0
 11
1963.33264531316
 21
4174.999769056166
 31
0.0
  0
MTEXT
  5
81
330
1F
100
AcDbEntity
  8
F-A_文字
  6
Continuous
 62
     7
370
     9
100
AcDbMText
 10
-5890.000004381747
 20
4018.575148463894
 30
0.0
 40
57.15
 41
300.0
 46
0.0
 71
     7
 72
     1
  1
{\fＭＳ ゴシック|b0|i0|c128|p49;デザイン}
 73
     1
 44
1.0
  0
MTEXT
  5
82
330
1F
100
AcDbEntity
  8
F-A_文字
  6
Continuous
 62
     7
370
     9
100
AcDbMText
 10
-5852.500004381747
 20
2031.325062684755
 30
0.0
 40
57.15
 41
225.0
 46
0.0
 71
     7
 72
     1
  1
{\fＭＳ ゴシック|b0|i0|c128|p49;姿　図}
 73
     1
 44
1.0
  0
MTEXT
  5
83
330
1F
100
AcDbEntity
  8
F-A_文字
  6
Continuous
 62
     7
370
     9
100
AcDbMText
 10
-5890.000004381747
 20
38.07493236644844
 30
0.0
 40
57.15
 41
300.0
 46
0.0
 71
     7
 72
     1
  1
{\fＭＳ ゴシック|b0|i0|c128|p49;デザイン}
 73
     1
 44
1.0
  0
MTEXT
  5
84
330
1F
100
AcDbEntity
  8
F-A_文字
  6
Continuous
 62
     7
370
     9
100
AcDbMText
 10
-5852.500004381747
 20
-1949.175091552734
 30
0.0
 40
57.15
 41
225.0
 46
0.0
 71
     7
 72
     1
  1
{\fＭＳ ゴシック|b0|i0|c128|p49;姿　図}
 73
     1
 44
1.0
  0
MTEXT
  5
85
330
1F
100
AcDbEntity
  8
F-A_文字
  6
Continuous
 62
     7
370
     0
100
AcDbMText
 10
-60.0001237199109
 20
-3887.139820871936
 30
0.0
 40
45.72
 41
180.0
 46
0.0
 71
     7
 72
     1
  1
{\fＭＳ ゴシック|b0|i0|c128|p49;図面名}
 73
     1
 44
1.0
  0
MTEXT
  5
86
330
1F
100
AcDbEntity
  8
F-A_文字
  6
Continuous
 62
     7
370
     0
100
AcDbMText
 10
2779.998729808911
 20
-3887.142460617774
 30
0.0
 40
45.72
 41
300.0
 46
0.0
 71
     7
 72
     1
  1
{\fＭＳ ゴシック|b0|i0|c128|p49;ＳＣＡＬＥ}
 73
     1
 44
1.0
  0
MTEXT
  5
87
330
1F
100
AcDbEntity
  8
F-A_文字
  6
Continuous
 62
     7
370
     0
100
AcDbMText
 10
4279.999224688556
 20
-3887.143854850754
 30
0.0
 40
45.72
 41
240.0
 46
0.0
 71
     7
 72
     1
  1
{\fＭＳ ゴシック|b0|i0|c128|p49;ＤＡＴＥ}
 73
     1
 44
1.0
  0
MTEXT
  5
88
330
1F
100
AcDbEntity
  8
F-A_文字
  6
Continuous
 62
     7
370
     0
100
AcDbMText
 10
1180.417701903719
 20
-3946.423911599839
 30
0.0
 40
77.15249999999999
 41
405.0
 46
0.0
 71
     7
 72
     1
  1
{\fＭＳ ゴシック|b0|i0|c128|p49;建具姿図}
 73
     1
 44
1.0
  0
MTEXT
  5
89
330
1F
100
AcDbEntity
  8
F-A_文字
  6
Continuous
 62
     7
370
     0
100
AcDbMText
 10
3383.748977248734
 20
-3946.426865907308
 30
0.0
 40
77.15249999999999
 41
202.5
 46
0.0
 71
     7
 72
     1
  1
{\fＭＳ ゴシック|b0|i0|c128|p49;1/30}
 73
     1
 44
1.0
  0
MTEXT
  5
8A
330
1F
100
AcDbEntity
  8
F-A_文字
  6
Continuous
 62
     7
370
     0
100
AcDbMText
 10
349.9999175200594
 20
-3946.496666872502
 30
0.0
 40
78.58125
 41
412.5
 46
0.0
 71
     7
 72
     1
  1
{\fＭＳ ゴシック|b0|i0|c128|p49;DOORETUS}
 73
     1
 44
1.0
  0
MTEXT
  5
8B
330
1F
100
AcDbEntity
  8
F-A_文字
  6
Continuous
 62
     7
370
     0
100
AcDbMText
 10
2779.998729808911
 20
-4087.14246317786
 30
0.0
 40
45.72
 41
240.0
 46
0.0
 71
     7
 72
     1
  1
{\fＭＳ ゴシック|b0|i0|c128|p49;ＦＩＬＥ}
 73
     1
 44
1.0
  0
MTEXT
  5
8C
330
1F
100
AcDbEntity
  8
F-A_文字
  6
Continuous
 62
     7
370
     0
100
AcDbMText
 10
4279.999224688556
 20
-4087.143857410839
 30
0.0
 40
45.72
 41
180.0
 46
0.0
 71
     7
 72
     1
  1
{\fＭＳ ゴシック|b0|i0|c128|p49;ＮＯ．}
 73
     1
 44
1.0
  0
MTEXT
  5
8D
330
1F
100
AcDbEntity
  8
F-A_文字
  6
Continuous
 62
     7
370
     0
100
AcDbMText
 10
1234.998729808911
 20
-4096.140669266149
 30
0.0
 40
45.72
 41
120.0
 46
0.0
 71
     7
 72
     1
  1
{\fＭＳ ゴシック|b0|i0|c128|p49;株式}
 73
     1
 44
1.0
  0
MTEXT
  5
8E
330
1F
100
AcDbEntity
  8
F-A_文字
  6
Continuous
 62
     7
370
     9
100
AcDbMText
 10
4936.249033580831
 20
-4147.857012699985
 30
0.0
 40
74.295
 41
97.5
 46
0.0
 71
     7
 72
     1
  1
{\fＭＳ ゴシック|b0|i0|c128|p49;01}
 73
     1
 44
1.0
  0
MTEXT
  5
8F
330
1F
100
AcDbEntity
  8
F-A_文字
  6
Continuous
 62
     7
370
     0
100
AcDbMText
 10
1444.998729808911
 20
-4164.281754523929
 30
0.0
 40
101.44125
 41
1065.0
 46
0.0
 71
     7
 72
     1
  1
{\fＭＳ ゴシック|b0|i0|c128|p49;ウッドワン・・・}
 73
     1
 44
1.0
  0
MTEXT
  5
90
330
1F
100
AcDbEntity
  8
F-A_文字
  6
Continuous
 62
     7
370
     0
100
AcDbMText
 10
1234.998729808911
 20
-4168.140669266187
 30
0.0
 40
45.72
 41
120.0
 46
0.0
 71
     7
 72
     1
  1
{\fＭＳ ゴシック|b0|i0|c128|p49;会社}
 73
     1
 44
1.0
  0
MTEXT
  5
91
330
1F
100
AcDbEntity
  8
F-A_文字
  6
Continuous
 62
     7
370
     0
100
AcDbMText
 10
5608.403311109712
 20
-4314.841419020919
 30
0.0
 40
68.58
 41
90.0
 46
0.0
 71
     7
 72
     1
  1
{\fＭＳ ゴシック|b0|i0|c128|p49;）}
 73
     1
 44
1.0
  0
MTEXT
  5
92
330
1F
100
AcDbEntity
  8
F-A_文字
  6
Continuous
 62
     7
370
     0
100
AcDbMText
 10
5190.195950842071
 20
-4316.235443869856
 30
0.0
 40
68.58
 41
45.0
 46
0.0
 71
     7
 72
     1
  1
{\fＭＳ ゴシック|b0|i0|c128|p49;,}
 73
     1
 44
1.0
  0
MTEXT
  5
93
330
1F
100
AcDbEntity
  8
F-A_文字
  6
Continuous
 62
     7
370
     0
100
AcDbMText
 10
4923.937261915373
 20
-4314.771967288282
 30
0.0
 40
74.295
 41
97.5
 46
0.0
 71
     7
 72
     1
  1
{\fＭＳ ゴシック|b0|i0|c128|p49;$y}
 73
     1
 44
1.0
  0
MTEXT
  5
94
330
1F
100
AcDbEntity
  8
F-A_文字
  6
Continuous
 62
     7
370
     0
100
AcDbMText
 10
5078.673982954195
 20
-4314.771967288282
 30
0.0
 40
74.295
 41
97.5
 46
0.0
 71
     7
 72
     1
  1
{\fＭＳ ゴシック|b0|i0|c128|p49;$m}
 73
     1
 44
1.0
  0
MTEXT
  5
95
330
1F
100
AcDbEntity
  8
F-A_文字
  6
Continuous
 62
     7
370
     0
100
AcDbMText
 10
5233.410715437103
 20
-4314.771967288282
 30
0.0
 40
74.295
 41
97.5
 46
0.0
 71
     7
 72
     1
  1
{\fＭＳ ゴシック|b0|i0|c128|p49;$d}
 73
     1
 44
1.0
  0
MTEXT
  5
96
330
1F
100
AcDbEntity
  8
F-A_文字
  6
Continuous
 62
     7
370
     0
100
AcDbMText
 10
5388.147447920011
 20
-4314.771967288282
 30
0.0
 40
74.295
 41
195.0
 46
0.0
 71
     7
 72
     1
  1
{\fＭＳ ゴシック|b0|i0|c128|p49;印刷}
 73
     1
 44
1.0
  0
MTEXT
  5
97
330
1F
100
AcDbEntity
  8
F-A_文字
  6
Continuous
 62
     7
370
     0
100
AcDbMText
 10
4784.033374252999
 20
-4319.023493567732
 30
0.0
 40
68.58
 41
90.0
 46
0.0
 71
     7
 72
     1
  1
{\fＭＳ ゴシック|b0|i0|c128|p49;（}
 73
     1
 44
1.0
  0
MTEXT
  5
98
330
1F
100
AcDbEntity
  8
F-A_文字
  6
Continuous
 62
     7
370
     0
100
AcDbMText
 10
5031.277143812345
 20
-4319.023493567732
 30
0.0
 40
68.58
 41
45.0
 46
0.0
 71
     7
 72
     1
  1
{\fＭＳ ゴシック|b0|i0|c128|p49;,}
 73
     1
 44
1.0
  0
LINE
  5
99
330
1F
100
AcDbEntity
  8
0-0_補助線
  6
JWW_HOJO
 62
     7
370
     9
100
AcDbLine
 10
-3988.666852590201
 20
190.5001831054688
 30
0.0
 11
-3988.666852590201
 21
3964.999818544131
 31
0.0
  0
LINE
  5
9A
330
1F
100
AcDbEntity
  8
0-0_補助線
  6
JWW_HOJO
 62
     7
370
     9
100
AcDbLine
 10
-3744.000144082147
 20
-3790.000179909371
 30
0.0
 11
-3744.000144082147
 21
-15.50054447070806
 31
0.0
  0
LINE
  5
9B
330
1F
100
AcDbEntity
  8
0-0_補助線
  6
JWW_HOJO
 62
     7
370
     9
100
AcDbLine
 10
1448.499228297053
 20
-3790.000179909371
 30
0.0
 11
1448.499228297053
 21
-15.50054447070806
 31
0.0
  0
LINE
  5
9C
330
1F
100
AcDbEntity
  8
0-0_補助線
  6
JWW_HOJO
 62
     7
370
     9
100
AcDbLine
 10
-520.5005206546266
 20
190.5001831054688
 30
0.0
 11
-520.5005206546266
 21
3964.999818544131
 31
0.0
  0
LINE
  5
9D
330
1F
100
AcDbEntity
  8
0-0_補助線
  6
JWW_HOJO
 62
     7
370
     9
100
AcDbLine
 10
3259.165811280948
 20
190.5001831054685
 30
0.0
 11
3259.165811280948
 21
3964.999818544131
 31
0.0
  0
LINE
  5
9E
330
1F
100
AcDbEntity
  8
0-B_寸法
  6
Continuous
 62
   120
370
     5
100
AcDbLine
 10
-4288.666852590201
 20
1402.000183105469
 30
0.0
 11
-4038.666852590203
 21
1402.000183105469
 31
0.0
  0
LWPOLYLINE
  5
9F
330
1F
100
AcDbEntity
  8
0-B_寸法
  6
Continuous
 62
     7
370
     9
100
AcDbPolyline
 90
        4
 70
     1
 43
3.0
 10
-4287.166852590201
 20
1402.000183105469
 42
0.4142135623731
 10
-4288.666852590201
 20
1403.500183105469
 42
0.4142135623731
 10
-4290.166852590201
 20
1402.000183105469
 42
0.4142135623731
 10
-4288.666852590201
 20
1400.500183105469
 42
0.4142135623731
  0
LINE
  5
A0
330
1F
100
AcDbEntity
  8
0-4_枠
  6
Continuous
 62
    92
370
    13
100
AcDbLine
 10
-3988.666852590201
 20
1390.500183105469
 30
0.0
 11
-3282.6668525902
 21
1390.500183105469
 31
0.0
  0
LINE
  5
A1
330
1F
100
AcDbEntity
  8
0-B_寸法
  6
Continuous
 62
   120
370
     5
100
AcDbLine
 10
-3301.166852590197
 20
890.5001831054684
 30
0.0
 11
-3301.166852590197
 21
1340.500183105468
 31
0.0
  0
LWPOLYLINE
  5
A2
330
1F
100
AcDbEntity
  8
0-B_寸法
  6
Continuous
 62
     7
370
     9
100
AcDbPolyline
 90
        4
 70
     1
 43
3.0
 10
-3299.666852590197
 20
890.5001831054684
 42
0.4142135623731
 10
-3301.166852590197
 20
892.0001831054684
 42
0.4142135623731
 10
-3302.666852590197
 20
890.5001831054684
 42
0.4142135623731
 10
-3301.166852590197
 20
889.0001831054684
 42
0.4142135623731
  0
LWPOLYLINE
  5
A3
330
1F
100
AcDbEntity
  8
0-B_寸法
  6
Continuous
 62
     7
370
     9
100
AcDbPolyline
 90
        4
 70
     1
 43
3.0
 10
-3299.666852590197
 20
1090.500183105469
 42
0.4142135623731
 10
-3301.166852590197
 20
1092.000183105469
 42
0.4142135623731
 10
-3302.666852590197
 20
1090.500183105469
 42
0.4142135623731
 10
-3301.166852590197
 20
1089.000183105469
 42
0.4142135623731
  0
LINE
  5
A4
330
1F
100
AcDbEntity
  8
0-B_寸法
  6
Continuous
 62
   120
370
     5
100
AcDbLine
 10
-3636.166852590201
 20
1090.500183105469
 30
0.0
 11
-3636.166852590201
 21
1340.500183105468
 31
0.0
  0
LINE
  5
A5
330
1F
100
AcDbEntity
  8
0-B_寸法
  6
Continuous
 62
   120
370
     5
100
AcDbLine
 10
-3636.166852590201
 20
1090.500183105469
 30
0.0
 11
-3635.166852590198
 21
1090.500183105469
 31
0.0
  0
LINE
  5
A6
330
1F
100
AcDbEntity
  8
0-B_寸法
  6
Continuous
 62
   120
370
     5
100
AcDbLine
 10
-3635.166852590198
 20
1090.500183105469
 30
0.0
 11
-3635.166852590198
 21
1340.500183105468
 31
0.0
  0
LINE
  5
A7
330
1F
100
AcDbEntity
  8
0-B_寸法
  6
Continuous
 62
   120
370
     5
100
AcDbLine
 10
-3635.666852590198
 20
1090.500183105469
 30
0.0
 11
-3600.717986025965
 21
1220.931128790135
 31
0.0
  0
LINE
  5
A8
330
1F
100
AcDbEntity
  8
0-B_寸法
  6
Continuous
 62
   120
370
     5
100
AcDbLine
 10
-3600.717986025965
 20
1220.931128790135
 30
0.0
 11
-3549.934917952517
 21
1220.931128790135
 31
0.0
  0
LWPOLYLINE
  5
A9
330
1F
100
AcDbEntity
  8
0-B_寸法
  6
Continuous
 62
     7
370
     9
100
AcDbPolyline
 90
        4
 70
     1
 43
3.0
 10
-3634.666852590201
 20
1090.500183105469
 42
0.4142135623731
 10
-3636.166852590201
 20
1092.000183105469
 42
0.4142135623731
 10
-3637.666852590201
 20
1090.500183105469
 42
0.4142135623731
 10
-3636.166852590201
 20
1089.000183105469
 42
0.4142135623731
  0
LWPOLYLINE
  5
AA
330
1F
100
AcDbEntity
  8
0-B_寸法
  6
Continuous
 62
     7
370
     9
100
AcDbPolyline
 90
        4
 70
     1
 43
3.0
 10
-3633.666852590198
 20
1090.500183105469
 42
0.4142135623731
 10
-3635.166852590198
 20
1092.000183105469
 42
0.4142135623731
 10
-3636.666852590198
 20
1090.500183105469
 42
0.4142135623731
 10
-3635.166852590198
 20
1089.000183105469
 42
0.4142135623731
  0
LINE
  5
AB
330
1F
100
AcDbEntity
  8
0-B_寸法
  6
Continuous
 62
   120
370
     5
100
AcDbLine
 10
-3635.166852590198
 20
1090.500183105469
 30
0.0
 11
-3301.166852590197
 21
1090.500183105469
 31
0.0
  0
LINE
  5
AC
330
1F
100
AcDbEntity
  8
0-B_寸法
  6
Continuous
 62
   120
370
     5
100
AcDbLine
 10
-3970.166852590201
 20
890.5001831054684
 30
0.0
 11
-3970.166852590201
 21
1340.500183105468
 31
0.0
  0
LWPOLYLINE
  5
AD
330
1F
100
AcDbEntity
  8
0-B_寸法
  6
Continuous
 62
     7
370
     9
100
AcDbPolyline
 90
        4
 70
     1
 43
3.0
 10
-3968.6668525902
 20
890.5001831054684
 42
0.4142135623731
 10
-3970.166852590201
 20
892.0001831054684
 42
0.4142135623731
 10
-3971.666852590201
 20
890.5001831054684
 42
0.4142135623731
 10
-3970.166852590201
 20
889.0001831054684
 42
0.4142135623731
  0
LWPOLYLINE
  5
AE
330
1F
100
AcDbEntity
  8
0-B_寸法
  6
Continuous
 62
     7
370
     9
100
AcDbPolyline
 90
        4
 70
     1
 43
3.0
 10
-3968.6668525902
 20
1090.500183105469
 42
0.4142135623731
 10
-3970.166852590201
 20
1092.000183105469
 42
0.4142135623731
 10
-3971.666852590201
 20
1090.500183105469
 42
0.4142135623731
 10
-3970.166852590201
 20
1089.000183105469
 42
0.4142135623731
  0
LINE
  5
AF
330
1F
100
AcDbEntity
  8
0-B_寸法
  6
Continuous
 62
   120
370
     5
100
AcDbLine
 10
-3970.166852590201
 20
890.5001831054684
 30
0.0
 11
-3301.166852590197
 21
890.5001831054684
 31
0.0
  0
LINE
  5
B0
330
1F
100
AcDbEntity
  8
0-B_寸法
  6
Continuous
 62
   120
370
     5
100
AcDbLine
 10
-3970.166852590201
 20
1090.500183105469
 30
0.0
 11
-3636.166852590201
 21
1090.500183105469
 31
0.0
  0
ARC
  5
B1
330
1F
100
AcDbEntity
  8
0-7
  6
Continuous
 62
    92
370
    13
100
AcDbCircle
 10
-3604.166852590196
 20
2418.000183105469
 30
0.0
 40
1.0
100
AcDbArc
 50
90.0
 51
180.0
  0
LINE
  5
B2
330
1F
100
AcDbEntity
  8
0-7
  6
Continuous
 62
    92
370
    13
100
AcDbLine
 10
-3596.1668525902
 20
2419.000183105468
 30
0.0
 11
-3604.166852590196
 21
2419.000183105468
 31
0.0
  0
ARC
  5
B3
330
1F
100
AcDbEntity
  8
0-7
  6
Continuous
 62
    92
370
    13
100
AcDbCircle
 10
-3596.1668525902
 20
2418.000183105469
 30
0.0
 40
1.0
100
AcDbArc
 50
0.0
 51
90.00000000000001
  0
LINE
  5
B4
330
1F
100
AcDbEntity
  8
0-7
  6
Continuous
 62
    92
370
    13
100
AcDbLine
 10
-3595.166852590197
 20
2286.000183105468
 30
0.0
 11
-3595.166852590197
 21
2418.000183105469
 31
0.0
  0
ARC
  5
B5
330
1F
100
AcDbEntity
  8
0-7
  6
Continuous
 62
    92
370
    13
100
AcDbCircle
 10
-3596.1668525902
 20
2286.000183105468
 30
0.0
 40
1.0
100
AcDbArc
 50
270.0
 51
0.0
  0
LINE
  5
B6
330
1F
100
AcDbEntity
  8
0-7
  6
Continuous
 62
    92
370
    13
100
AcDbLine
 10
-3604.166852590196
 20
2285.000183105469
 30
0.0
 11
-3596.1668525902
 21
2285.000183105469
 31
0.0
  0
LINE
  5
B7
330
1F
100
AcDbEntity
  8
0-7
  6
Continuous
 62
    92
370
    13
100
AcDbLine
 10
-3605.166852590198
 20
2286.000183105468
 30
0.0
 11
-3605.166852590198
 21
2418.000183105469
 31
0.0
  0
ARC
  5
B8
330
1F
100
AcDbEntity
  8
0-7
  6
Continuous
 62
    92
370
    13
100
AcDbCircle
 10
-3604.166852590196
 20
2286.000183105468
 30
0.0
 40
1.0
100
AcDbArc
 50
180.0
 51
270.0
  0
LINE
  5
B9
330
1F
100
AcDbEntity
  8
0-1_通り芯
  6
JWW_CENTER1
 62
   120
370
     5
100
AcDbLine
 10
-3600.166852590198
 20
2429.000183105468
 30
0.0
 11
-3600.166852590198
 21
2275.000183105467
 31
0.0
  0
LINE
  5
BA
330
1F
100
AcDbEntity
  8
0-1_通り芯
  6
JWW_CENTER1
 62
   120
370
     5
100
AcDbLine
 10
-3585.1668525902
 20
2352.000183105468
 30
0.0
 11
-3615.166852590196
 21
2352.000183105468
 31
0.0
  0
ARC
  5
BB
330
1F
100
AcDbEntity
  8
0-7
  6
Continuous
 62
     7
370
     9
100
AcDbCircle
 10
-3605.166852590198
 20
2416.000183105468
 30
0.0
 40
1.0
100
AcDbArc
 50
90.0
 51
180.0
  0
ARC
  5
BC
330
1F
100
AcDbEntity
  8
0-7
  6
Continuous
 62
     7
370
     9
100
AcDbCircle
 10
-3595.166852590197
 20
2416.000183105468
 30
0.0
 40
1.0
100
AcDbArc
 50
0.0
 51
90.00000000000001
  0
LINE
  5
BD
330
1F
100
AcDbEntity
  8
0-7
  6
Continuous
 62
     7
370
     9
100
AcDbLine
 10
-3594.166852590198
 20
2398.000183105468
 30
0.0
 11
-3594.166852590198
 21
2416.000183105468
 31
0.0
  0
ARC
  5
BE
330
1F
100
AcDbEntity
  8
0-7
  6
Continuous
 62
     7
370
     9
100
AcDbCircle
 10
-3595.166852590197
 20
2398.000183105468
 30
0.0
 40
1.0
100
AcDbArc
 50
270.0
 51
0.0
  0
LINE
  5
BF
330
1F
100
AcDbEntity
  8
0-7
  6
Continuous
 62
     7
370
     9
100
AcDbLine
 10
-3606.166852590197
 20
2398.000183105468
 30
0.0
 11
-3606.166852590197
 21
2416.000183105468
 31
0.0
  0
ARC
  5
C0
330
1F
100
AcDbEntity
  8
0-7
  6
Continuous
 62
     7
370
     9
100
AcDbCircle
 10
-3605.166852590198
 20
2398.000183105468
 30
0.0
 40
1.0
100
AcDbArc
 50
180.0
 51
270.0
  0
ARC
  5
C1
330
1F
100
AcDbEntity
  8
0-7
  6
Continuous
 62
     7
370
     9
100
AcDbCircle
 10
-3605.166852590198
 20
2306.000183105467
 30
0.0
 40
1.0
100
AcDbArc
 50
90.0
 51
180.0
  0
ARC
  5
C2
330
1F
100
AcDbEntity
  8
0-7
  6
Continuous
 62
     7
370
     9
100
AcDbCircle
 10
-3595.166852590197
 20
2306.000183105467
 30
0.0
 40
1.0
100
AcDbArc
 50
0.0
 51
90.00000000000001
  0
LINE
  5
C3
330
1F
100
AcDbEntity
  8
0-7
  6
Continuous
 62
     7
370
     9
100
AcDbLine
 10
-3594.166852590198
 20
2288.000183105468
 30
0.0
 11
-3594.166852590198
 21
2306.000183105467
 31
0.0
  0
ARC
  5
C4
330
1F
100
AcDbEntity
  8
0-7
  6
Continuous
 62
     7
370
     9
100
AcDbCircle
 10
-3595.166852590197
 20
2288.000183105468
 30
0.0
 40
1.0
100
AcDbArc
 50
270.0
 51
0.0
  0
LINE
  5
C5
330
1F
100
AcDbEntity
  8
0-7
  6
Continuous
 62
     7
370
     9
100
AcDbLine
 10
-3606.166852590197
 20
2288.000183105468
 30
0.0
 11
-3606.166852590197
 21
2306.000183105467
 31
0.0
  0
ARC
  5
C6
330
1F
100
AcDbEntity
  8
0-7
  6
Continuous
 62
     7
370
     9
100
AcDbCircle
 10
-3605.166852590198
 20
2288.000183105468
 30
0.0
 40
1.0
100
AcDbArc
 50
180.0
 51
270.0
  0
LINE
  5
C7
330
1F
100
AcDbEntity
  8
0-8
  6
Continuous
 62
    92
370
    13
100
AcDbLine
 10
-3595.166852590197
 20
2419.000183105468
 30
0.0
 11
-3605.166852590198
 21
2419.000183105468
 31
0.0
  0
LINE
  5
C8
330
1F
100
AcDbEntity
  8
0-8
  6
Continuous
 62
    92
370
    13
100
AcDbLine
 10
-3605.166852590198
 20
2285.000183105468
 30
0.0
 11
-3595.166852590197
 21
2285.000183105468
 31
0.0
  0
LINE
  5
C9
330
1F
100
AcDbEntity
  8
0-8
  6
Continuous
 62
    92
370
    13
100
AcDbLine
 10
-3605.166852590198
 20
2419.000183105468
 30
0.0
 11
-3605.166852590198
 21
2285.000183105468
 31
0.0
  0
LINE
  5
CA
330
1F
100
AcDbEntity
  8
0-8
  6
Continuous
 62
    92
370
    13
100
AcDbLine
 10
-3595.166852590197
 20
2419.000183105468
 30
0.0
 11
-3595.166852590197
 21
2285.000183105468
 31
0.0
  0
ELLIPSE
  5
CB
330
1F
100
AcDbEntity
  8
0-8
  6
Continuous
 62
     7
370
     9
100
AcDbEllipse
 10
-3600.166852590198
 20
2419.000183105468
 30
0.0
 11
1.071530559594571E-15
 21
17.49999999999986
 31
0.0
210
0.0
220
0.0
230
1.0
 40
0.2857142857142857
 41
3.141592653589793
 42
4.71238898038469
  0
ELLIPSE
  5
CC
330
1F
100
AcDbEntity
  8
0-8
  6
Continuous
 62
     7
370
     9
100
AcDbEllipse
 10
-3600.166852590198
 20
2285.000183105468
 30
0.0
 11
1.071530559594571E-15
 21
17.49999999999986
 31
0.0
210
0.0
220
0.0
230
1.0
 40
0.2857142857142857
 41
0.0
 42
1.570796326794897
  0
ELLIPSE
  5
CD
330
1F
100
AcDbEntity
  8
0-8
  6
Continuous
 62
     7
370
     9
100
AcDbEllipse
 10
-3600.166852590198
 20
2285.000183105468
 30
0.0
 11
1.071530559594571E-15
 21
-17.49999999999986
 31
0.0
210
0.0
220
0.0
230
1.0
 40
0.2857142857142857
 41
1.570796326794897
 42
3.141592653589793
  0
ARC
  5
CE
330
1F
100
AcDbEntity
  8
0-8
  6
Continuous
 62
     7
370
     9
100
AcDbCircle
 10
-3605.166852590198
 20
2418.000183105468
 30
0.0
 40
1.0
100
AcDbArc
 50
90.0
 51
180.0
  0
LINE
  5
CF
330
1F
100
AcDbEntity
  8
0-8
  6
Continuous
 62
     7
370
     9
100
AcDbLine
 10
-3606.166852590197
 20
2402.500183105467
 30
0.0
 11
-3606.166852590197
 21
2418.000183105468
 31
0.0
  0
ARC
  5
D0
330
1F
100
AcDbEntity
  8
0-8
  6
Continuous
 62
     7
370
     9
100
AcDbCircle
 10
-3605.166852590198
 20
2402.500183105467
 30
0.0
 40
1.0
100
AcDbArc
 50
180.0
 51
270.0
  0
ARC
  5
D1
330
1F
100
AcDbEntity
  8
0-8
  6
Continuous
 62
     7
370
     9
100
AcDbCircle
 10
-3595.166852590197
 20
2402.500183105467
 30
0.0
 40
1.0
100
AcDbArc
 50
270.0
 51
0.0
  0
LINE
  5
D2
330
1F
100
AcDbEntity
  8
0-8
  6
Continuous
 62
     7
370
     9
100
AcDbLine
 10
-3594.166852590198
 20
2402.500183105467
 30
0.0
 11
-3594.166852590198
 21
2418.000183105468
 31
0.0
  0
ARC
  5
D3
330
1F
100
AcDbEntity
  8
0-8
  6
Continuous
 62
     7
370
     9
100
AcDbCircle
 10
-3595.166852590197
 20
2418.000183105468
 30
0.0
 40
1.0
100
AcDbArc
 50
0.0
 51
90.00000000000001
  0
ARC
  5
D4
330
1F
100
AcDbEntity
  8
0-8
  6
Continuous
 62
     7
370
     9
100
AcDbCircle
 10
-3605.166852590198
 20
2301.500183105468
 30
0.0
 40
1.0
100
AcDbArc
 50
90.0
 51
180.0
  0
LINE
  5
D5
330
1F
100
AcDbEntity
  8
0-8
  6
Continuous
 62
     7
370
     9
100
AcDbLine
 10
-3606.166852590197
 20
2286.000183105468
 30
0.0
 11
-3606.166852590197
 21
2301.500183105468
 31
0.0
  0
ARC
  5
D6
330
1F
100
AcDbEntity
  8
0-8
  6
Continuous
 62
     7
370
     9
100
AcDbCircle
 10
-3595.166852590197
 20
2301.500183105468
 30
0.0
 40
1.0
100
AcDbArc
 50
0.0
 51
90.00000000000001
  0
LINE
  5
D7
330
1F
100
AcDbEntity
  8
0-8
  6
Continuous
 62
     7
370
     9
100
AcDbLine
 10
-3594.166852590198
 20
2286.000183105468
 30
0.0
 11
-3594.166852590198
 21
2301.500183105468
 31
0.0
  0
ARC
  5
D8
330
1F
100
AcDbEntity
  8
0-8
  6
Continuous
 62
     7
370
     9
100
AcDbCircle
 10
-3595.166852590197
 20
2286.000183105468
 30
0.0
 40
1.0
100
AcDbArc
 50
270.0
 51
0.0
  0
ARC
  5
D9
330
1F
100
AcDbEntity
  8
0-8
  6
Continuous
 62
     7
370
     9
100
AcDbCircle
 10
-3605.166852590198
 20
2286.000183105468
 30
0.0
 40
1.0
100
AcDbArc
 50
180.0
 51
270.0
  0
ELLIPSE
  5
DA
330
1F
100
AcDbEntity
  8
0-8
  6
Continuous
 62
     7
370
     9
100
AcDbEllipse
 10
-3600.166852590198
 20
2419.000183105468
 30
0.0
 11
1.071530559594571E-15
 21
17.49999999999986
 31
0.0
210
0.0
220
0.0
230
1.0
 40
0.2857142857142857
 41
1.570796326794897
 42
3.141592653589793
  0
LINE
  5
DB
330
1F
100
AcDbEntity
  8
0-2_扉
  6
Continuous
 62
    92
370
    13
100
AcDbLine
 10
-3964.666852590199
 20
1402.000183105469
 30
0.0
 11
-3636.166852590201
 21
1402.000183105469
 31
0.0
  0
LINE
  5
DC
330
1F
100
AcDbEntity
  8
0-2_扉
  6
JWW_DASHED1
 62
   120
370
     5
100
AcDbLine
 10
-3964.666852590199
 20
1402.000183105469
 30
0.0
 11
-3970.166852590201
 21
1402.000183105469
 31
0.0
  0
LINE
  5
DD
330
1F
100
AcDbEntity
  8
0-2_扉
  6
Continuous
 62
    92
370
    13
100
AcDbLine
 10
-3635.166852590198
 20
1402.000183105469
 30
0.0
 11
-3312.6668525902
 21
1402.000183105469
 31
0.0
  0
LINE
  5
DE
330
1F
100
AcDbEntity
  8
0-2_扉
  6
JWW_DASHED1
 62
   120
370
     5
100
AcDbLine
 10
-3312.6668525902
 20
1402.000183105469
 30
0.0
 11
-3301.166852590197
 21
1402.000183105469
 31
0.0
  0
LWPOLYLINE
  5
DF
330
1F
100
AcDbEntity
  8
0-B_寸法
  6
Continuous
 62
     7
370
     9
100
AcDbPolyline
 90
        4
 70
     1
 43
3.0
 10
-4287.166852590201
 20
3747.000183105469
 42
0.4142135623731
 10
-4288.666852590201
 20
3748.500183105469
 42
0.4142135623731
 10
-4290.166852590201
 20
3747.000183105469
 42
0.4142135623731
 10
-4288.666852590201
 20
3745.500183105469
 42
0.4142135623731
  0
LINE
  5
E0
330
1F
100
AcDbEntity
  8
0-B_寸法
  6
Continuous
 62
   120
370
     5
100
AcDbLine
 10
-4288.666852590201
 20
3747.000183105469
 30
0.0
 11
-4038.666852590203
 21
3747.000183105469
 31
0.0
  0
LINE
  5
E1
330
1F
100
AcDbEntity
  8
0-B_寸法
  6
Continuous
 62
   120
370
     5
100
AcDbLine
 10
-4288.666852590201
 20
3747.000183105469
 30
0.0
 11
-4288.666852590201
 21
1402.000183105469
 31
0.0
  0
LINE
  5
E2
330
1F
100
AcDbEntity
  8
0-4_枠
  6
Continuous
 62
    92
370
    13
100
AcDbLine
 10
-3988.666852590201
 20
1390.500183105469
 30
0.0
 11
-3988.666852590201
 21
3790.500183105469
 31
0.0
  0
LINE
  5
E3
330
1F
100
AcDbEntity
  8
0-4_枠
  6
Continuous
 62
    92
370
    13
100
AcDbLine
 10
-3964.666852590199
 20
1390.500183105469
 30
0.0
 11
-3964.666852590199
 21
3754.500183105469
 31
0.0
  0
LINE
  5
E4
330
1F
100
AcDbEntity
  8
0-4_枠
  6
Continuous
 62
    92
370
    13
100
AcDbLine
 10
-3988.666852590201
 20
3790.500183105469
 30
0.0
 11
-3282.6668525902
 21
3790.500183105469
 31
0.0
  0
LINE
  5
E5
330
1F
100
AcDbEntity
  8
0-4_枠
  6
Continuous
 62
    92
370
    13
100
AcDbLine
 10
-3964.666852590199
 20
3754.500183105469
 30
0.0
 11
-3312.6668525902
 21
3754.500183105469
 31
0.0
  0
LINE
  5
E6
330
1F
100
AcDbEntity
  8
0-4_枠
  6
Continuous
 62
    92
370
    13
100
AcDbLine
 10
-3312.6668525902
 20
1390.500183105469
 30
0.0
 11
-3312.6668525902
 21
3754.500183105469
 31
0.0
  0
LINE
  5
E7
330
1F
100
AcDbEntity
  8
0-4_枠
  6
Continuous
 62
    92
370
    13
100
AcDbLine
 10
-3282.6668525902
 20
1390.500183105469
 30
0.0
 11
-3282.6668525902
 21
3790.500183105469
 31
0.0
  0
LINE
  5
E8
330
1F
100
AcDbEntity
  8
0-2_扉
  6
JWW_DASHED1
 62
   120
370
     5
100
AcDbLine
 10
-3970.166852590201
 20
1402.000183105469
 30
0.0
 11
-3970.166852590201
 21
3747.000183105469
 31
0.0
  0
LINE
  5
E9
330
1F
100
AcDbEntity
  8
0-2_扉
  6
Continuous
 62
    92
370
    13
100
AcDbLine
 10
-3636.166852590201
 20
1402.000183105469
 30
0.0
 11
-3636.166852590201
 21
3747.000183105469
 31
0.0
  0
LINE
  5
EA
330
1F
100
AcDbEntity
  8
0-2_扉
  6
Continuous
 62
    92
370
    13
100
AcDbLine
 10
-3635.166852590198
 20
1402.000183105469
 30
0.0
 11
-3635.166852590198
 21
3747.000183105469
 31
0.0
  0
LINE
  5
EB
330
1F
100
AcDbEntity
  8
0-2_扉
  6
JWW_DASHED1
 62
   120
370
     5
100
AcDbLine
 10
-3301.166852590197
 20
1402.000183105469
 30
0.0
 11
-3301.166852590197
 21
3747.000183105469
 31
0.0
  0
LINE
  5
EC
330
1F
100
AcDbEntity
  8
0-3_仕上げ
  6
Continuous
 62
     7
370
     9
100
AcDbLine
 10
-3949.166852590199
 20
1402.000183105469
 30
0.0
 11
-3949.166852590199
 21
3747.000183105469
 31
0.0
  0
LINE
  5
ED
330
1F
100
AcDbEntity
  8
0-3_仕上げ
  6
Continuous
 62
     7
370
     9
100
AcDbLine
 10
-3322.166852590196
 20
1402.000183105469
 30
0.0
 11
-3322.166852590196
 21
3747.000183105469
 31
0.0
  0
LINE
  5
EE
330
1F
100
AcDbEntity
  8
0-3_仕上げ
  6
Continuous
 62
     7
370
     9
100
AcDbLine
 10
-3657.166852590199
 20
1402.000183105469
 30
0.0
 11
-3657.166852590199
 21
3747.000183105469
 31
0.0
  0
LINE
  5
EF
330
1F
100
AcDbEntity
  8
0-3_仕上げ
  6
Continuous
 62
     7
370
     9
100
AcDbLine
 10
-3614.166852590197
 20
1402.000183105469
 30
0.0
 11
-3614.166852590197
 21
3747.000183105469
 31
0.0
  0
LINE
  5
F0
330
1F
100
AcDbEntity
  8
0-2_扉
  6
JWW_DASHED1
 62
   120
370
     5
100
AcDbLine
 10
-3964.666852590199
 20
3747.000183105469
 30
0.0
 11
-3970.166852590201
 21
3747.000183105469
 31
0.0
  0
LINE
  5
F1
330
1F
100
AcDbEntity
  8
0-2_扉
  6
Continuous
 62
    92
370
    13
100
AcDbLine
 10
-3964.666852590199
 20
3747.000183105469
 30
0.0
 11
-3636.166852590201
 21
3747.000183105469
 31
0.0
  0
LINE
  5
F2
330
1F
100
AcDbEntity
  8
0-2_扉
  6
JWW_DASHED1
 62
   120
370
     5
100
AcDbLine
 10
-3312.6668525902
 20
3747.000183105469
 30
0.0
 11
-3301.166852590197
 21
3747.000183105469
 31
0.0
  0
LINE
  5
F3
330
1F
100
AcDbEntity
  8
0-2_扉
  6
Continuous
 62
    92
370
    13
100
AcDbLine
 10
-3635.166852590198
 20
3747.000183105469
 30
0.0
 11
-3312.6668525902
 21
3747.000183105469
 31
0.0
  0
MTEXT
  5
F4
330
1F
100
AcDbEntity
  8
0-B_寸法
  6
Continuous
 62
     7
370
   211
100
AcDbMText
 10
-4303.666852590201
 20
2299.985637650923
 30
0.0
 40
78.97090909090909
 41
570.0
 46
0.0
 71
     7
 72
     1
  1
{\fＭＳ ゴシック|b0|i0|c128|p49;ＤＨ＝2,345}
 11
6.123031769111886E-17
 21
1.0
 31
0.0
 73
     1
 44
1.0
  0
MTEXT
  5
F5
330
1F
100
AcDbEntity
  8
0-B_寸法
  6
Continuous
 62
     7
370
   211
100
AcDbMText
 10
-3604.467986025965
 20
1210.221128790135
 30
0.0
 40
68.58
 41
45.0
 46
0.0
 71
     7
 72
     1
  1
{\fＭＳ ゴシック|b0|i0|c128|p49;1}
 73
     1
 44
1.0
  0
MTEXT
  5
F6
330
1F
100
AcDbEntity
  8
0-B_寸法
  6
Continuous
 62
     7
370
   211
100
AcDbMText
 10
-3878.166852590199
 20
1098.600183105469
 30
0.0
 40
76.19999999999999
 41
150.0
 46
0.0
 71
     7
 72
     1
  1
{\fＭＳ ゴシック|b0|i0|c128|p49;334}
 73
     1
 44
1.0
  0
MTEXT
  5
F7
330
1F
100
AcDbEntity
  8
0-B_寸法
  6
Continuous
 62
     7
370
   211
100
AcDbMText
 10
-3543.166852590197
 20
1098.600183105469
 30
0.0
 40
76.19999999999999
 41
150.0
 46
0.0
 71
     7
 72
     1
  1
{\fＭＳ ゴシック|b0|i0|c128|p49;334}
 73
     1
 44
1.0
  0
MTEXT
  5
F8
330
1F
100
AcDbEntity
  8
0-B_寸法
  6
Continuous
 62
     7
370
   211
100
AcDbMText
 10
-3886.166852590199
 20
899.8701831054684
 30
0.0
 40
78.74000000000001
 41
465.0
 46
0.0
 71
     7
 72
     1
  1
{\fＭＳ ゴシック|b0|i0|c128|p49;ＤＷ＝669}
 73
     1
 44
1.0
  0
LINE
  5
F9
330
1F
100
AcDbEntity
  8
0-2_扉
  6
Continuous
 62
    92
370
    13
100
AcDbLine
 10
-218.5005206546234
 20
1402.000183105469
 30
0.0
 11
63.99947934537551
 21
1402.000183105469
 31
0.0
  0
LINE
  5
FA
330
1F
100
AcDbEntity
  8
0-B_寸法
  6
Continuous
 62
   120
370
     5
100
AcDbLine
 10
-820.5005206546284
 20
1402.000183105469
 30
0.0
 11
-570.5005206546307
 21
1402.000183105469
 31
0.0
  0
LWPOLYLINE
  5
FB
330
1F
100
AcDbEntity
  8
0-B_寸法
  6
Continuous
 62
     7
370
     9
100
AcDbPolyline
 90
        4
 70
     1
 43
3.0
 10
-819.0005206546283
 20
1402.000183105469
 42
0.4142135623731
 10
-820.5005206546284
 20
1403.500183105469
 42
0.4142135623731
 10
-822.0005206546284
 20
1402.000183105469
 42
0.4142135623731
 10
-820.5005206546284
 20
1400.500183105469
 42
0.4142135623731
  0
LINE
  5
FC
330
1F
100
AcDbEntity
  8
0-2_扉
  6
JWW_DASHED1
 62
   120
370
     5
100
AcDbLine
 10
-496.5005206546263
 20
1402.000183105469
 30
0.0
 11
-502.0005206546264
 21
1402.000183105469
 31
0.0
  0
LINE
  5
FD
330
1F
100
AcDbEntity
  8
0-B_寸法
  6
Continuous
 62
   120
370
     5
100
AcDbLine
 10
-502.0005206546264
 20
890.5001831054684
 30
0.0
 11
-502.0005206546264
 21
1340.500183105468
 31
0.0
  0
LWPOLYLINE
  5
FE
330
1F
100
AcDbEntity
  8
0-B_寸法
  6
Continuous
 62
     7
370
     9
100
AcDbPolyline
 90
        4
 70
     1
 43
3.0
 10
-500.5005206546264
 20
890.5001831054684
 42
0.4142135623731
 10
-502.0005206546264
 20
892.0001831054684
 42
0.4142135623731
 10
-503.5005206546264
 20
890.5001831054684
 42
0.4142135623731
 10
-502.0005206546264
 20
889.0001831054684
 42
0.4142135623731
  0
LWPOLYLINE
  5
FF
330
1F
100
AcDbEntity
  8
0-B_寸法
  6
Continuous
 62
     7
370
     9
100
AcDbPolyline
 90
        4
 70
     1
 43
3.0
 10
-500.5005206546264
 20
1090.500183105469
 42
0.4142135623731
 10
-502.0005206546264
 20
1092.000183105469
 42
0.4142135623731
 10
-503.5005206546264
 20
1090.500183105469
 42
0.4142135623731
 10
-502.0005206546264
 20
1089.000183105469
 42
0.4142135623731
  0
LINE
  5
100
330
1F
100
AcDbEntity
  8
0-B_寸法
  6
Continuous
 62
   120
370
     5
100
AcDbLine
 10
631.9994793453748
 20
890.5001831054684
 30
0.0
 11
631.9994793453748
 21
1340.500183105468
 31
0.0
  0
LWPOLYLINE
  5
101
330
1F
100
AcDbEntity
  8
0-B_寸法
  6
Continuous
 62
     7
370
     9
100
AcDbPolyline
 90
        4
 70
     1
 43
3.0
 10
633.4994793453748
 20
890.5001831054684
 42
0.4142135623731
 10
631.9994793453748
 20
892.0001831054684
 42
0.4142135623731
 10
630.4994793453748
 20
890.5001831054684
 42
0.4142135623731
 10
631.9994793453748
 20
889.0001831054684
 42
0.4142135623731
  0
LWPOLYLINE
  5
102
330
1F
100
AcDbEntity
  8
0-B_寸法
  6
Continuous
 62
     7
370
     9
100
AcDbPolyline
 90
        4
 70
     1
 43
3.0
 10
633.4994793453748
 20
1090.500183105469
 42
0.4142135623731
 10
631.9994793453748
 20
1092.000183105469
 42
0.4142135623731
 10
630.4994793453748
 20
1090.500183105469
 42
0.4142135623731
 10
631.9994793453748
 20
1089.000183105469
 42
0.4142135623731
  0
LINE
  5
103
330
1F
100
AcDbEntity
  8
0-B_寸法
  6
Continuous
 62
   120
370
     5
100
AcDbLine
 10
-219.5005206546259
 20
1090.500183105469
 30
0.0
 11
-219.5005206546259
 21
1340.500183105468
 31
0.0
  0
LINE
  5
104
330
1F
100
AcDbEntity
  8
0-B_寸法
  6
Continuous
 62
   120
370
     5
100
AcDbLine
 10
-219.5005206546259
 20
1090.500183105469
 30
0.0
 11
-218.5005206546268
 21
1090.500183105469
 31
0.0
  0
LINE
  5
105
330
1F
100
AcDbEntity
  8
0-B_寸法
  6
Continuous
 62
   120
370
     5
100
AcDbLine
 10
-218.5005206546268
 20
1090.500183105469
 30
0.0
 11
-218.5005206546268
 21
1340.500183105468
 31
0.0
  0
LINE
  5
106
330
1F
100
AcDbEntity
  8
0-B_寸法
  6
Continuous
 62
   120
370
     5
100
AcDbLine
 10
-219.0005206546263
 20
1090.500183105469
 30
0.0
 11
-184.0516540903914
 21
1220.931128790135
 31
0.0
  0
LINE
  5
107
330
1F
100
AcDbEntity
  8
0-B_寸法
  6
Continuous
 62
   120
370
     5
100
AcDbLine
 10
-184.0516540903914
 20
1220.931128790135
 30
0.0
 11
-133.2685860169417
 21
1220.931128790135
 31
0.0
  0
LWPOLYLINE
  5
108
330
1F
100
AcDbEntity
  8
0-B_寸法
  6
Continuous
 62
     7
370
     9
100
AcDbPolyline
 90
        4
 70
     1
 43
3.0
 10
-218.0005206546259
 20
1090.500183105469
 42
0.4142135623731
 10
-219.5005206546259
 20
1092.000183105469
 42
0.4142135623731
 10
-221.0005206546259
 20
1090.500183105469
 42
0.4142135623731
 10
-219.5005206546259
 20
1089.000183105469
 42
0.4142135623731
  0
LWPOLYLINE
  5
109
330
1F
100
AcDbEntity
  8
0-B_寸法
  6
Continuous
 62
     7
370
     9
100
AcDbPolyline
 90
        4
 70
     1
 43
3.0
 10
-217.0005206546268
 20
1090.500183105469
 42
0.4142135623731
 10
-218.5005206546268
 20
1092.000183105469
 42
0.4142135623731
 10
-220.0005206546268
 20
1090.500183105469
 42
0.4142135623731
 10
-218.5005206546268
 20
1089.000183105469
 42
0.4142135623731
  0
LINE
  5
10A
330
1F
100
AcDbEntity
  8
0-B_寸法
  6
Continuous
 62
   120
370
     5
100
AcDbLine
 10
-502.0005206546264
 20
1090.500183105469
 30
0.0
 11
-219.5005206546259
 21
1090.500183105469
 31
0.0
  0
LINE
  5
10B
330
1F
100
AcDbEntity
  8
0-B_寸法
  6
Continuous
 62
   120
370
     5
100
AcDbLine
 10
63.99947934537551
 20
890.5001831054684
 30
0.0
 11
63.99947934537551
 21
1340.500183105468
 31
0.0
  0
LWPOLYLINE
  5
10C
330
1F
100
AcDbEntity
  8
0-B_寸法
  6
Continuous
 62
     7
370
     9
100
AcDbPolyline
 90
        4
 70
     1
 43
3.0
 10
65.4994793453755
 20
890.5001831054684
 42
0.4142135623731
 10
63.99947934537551
 20
892.0001831054684
 42
0.4142135623731
 10
62.49947934537551
 20
890.5001831054684
 42
0.4142135623731
 10
63.99947934537551
 20
889.0001831054684
 42
0.4142135623731
  0
LWPOLYLINE
  5
10D
330
1F
100
AcDbEntity
  8
0-B_寸法
  6
Continuous
 62
     7
370
     9
100
AcDbPolyline
 90
        4
 70
     1
 43
3.0
 10
65.4994793453755
 20
1090.500183105469
 42
0.4142135623731
 10
63.99947934537551
 20
1092.000183105469
 42
0.4142135623731
 10
62.49947934537551
 20
1090.500183105469
 42
0.4142135623731
 10
63.99947934537551
 20
1089.000183105469
 42
0.4142135623731
  0
LINE
  5
10E
330
1F
100
AcDbEntity
  8
0-B_寸法
  6
Continuous
 62
   120
370
     5
100
AcDbLine
 10
-502.0005206546264
 20
890.5001831054684
 30
0.0
 11
63.99947934537551
 21
890.5001831054684
 31
0.0
  0
LINE
  5
10F
330
1F
100
AcDbEntity
  8
0-B_寸法
  6
Continuous
 62
   120
370
     5
100
AcDbLine
 10
65.99947934537369
 20
890.5001831054684
 30
0.0
 11
65.99947934537369
 21
1340.500183105468
 31
0.0
  0
LWPOLYLINE
  5
110
330
1F
100
AcDbEntity
  8
0-B_寸法
  6
Continuous
 62
     7
370
     9
100
AcDbPolyline
 90
        4
 70
     1
 43
3.0
 10
67.49947934537369
 20
890.5001831054684
 42
0.4142135623731
 10
65.99947934537369
 20
892.0001831054684
 42
0.4142135623731
 10
64.49947934537369
 20
890.5001831054684
 42
0.4142135623731
 10
65.99947934537369
 20
889.0001831054684
 42
0.4142135623731
  0
LWPOLYLINE
  5
111
330
1F
100
AcDbEntity
  8
0-B_寸法
  6
Continuous
 62
     7
370
     9
100
AcDbPolyline
 90
        4
 70
     1
 43
3.0
 10
67.49947934537369
 20
1090.500183105469
 42
0.4142135623731
 10
65.99947934537369
 20
1092.000183105469
 42
0.4142135623731
 10
64.49947934537369
 20
1090.500183105469
 42
0.4142135623731
 10
65.99947934537369
 20
1089.000183105469
 42
0.4142135623731
  0
LINE
  5
112
330
1F
100
AcDbEntity
  8
0-B_寸法
  6
Continuous
 62
   120
370
     5
100
AcDbLine
 10
99.95098121239977
 20
1220.931128790135
 30
0.0
 11
150.7340492858512
 21
1220.931128790135
 31
0.0
  0
LINE
  5
113
330
1F
100
AcDbEntity
  8
0-B_寸法
  6
Continuous
 62
   120
370
     5
100
AcDbLine
 10
65.00211464816658
 20
1090.500183105469
 30
0.0
 11
99.95098121239977
 21
1220.931128790135
 31
0.0
  0
LINE
  5
114
330
1F
100
AcDbEntity
  8
0-B_寸法
  6
Continuous
 62
   120
370
     5
100
AcDbLine
 10
63.99947934537551
 20
1090.500183105469
 30
0.0
 11
65.99947934537369
 21
1090.500183105469
 31
0.0
  0
LINE
  5
115
330
1F
100
AcDbEntity
  8
0-B_寸法
  6
Continuous
 62
   120
370
     5
100
AcDbLine
 10
65.99947934537369
 20
890.5001831054684
 30
0.0
 11
631.9994793453748
 21
890.5001831054684
 31
0.0
  0
LINE
  5
116
330
1F
100
AcDbEntity
  8
0-B_寸法
  6
Continuous
 62
   120
370
     5
100
AcDbLine
 10
-218.5005206546268
 20
1090.500183105469
 30
0.0
 11
63.99947934537551
 21
1090.500183105469
 31
0.0
  0
LINE
  5
117
330
1F
100
AcDbEntity
  8
0-B_寸法
  6
Continuous
 62
   120
370
     5
100
AcDbLine
 10
348.4994793453725
 20
1090.500183105469
 30
0.0
 11
348.4994793453725
 21
1340.500183105468
 31
0.0
  0
LINE
  5
118
330
1F
100
AcDbEntity
  8
0-B_寸法
  6
Continuous
 62
   120
370
     5
100
AcDbLine
 10
348.4994793453725
 20
1090.500183105469
 30
0.0
 11
349.4994793453751
 21
1090.500183105469
 31
0.0
  0
LINE
  5
119
330
1F
100
AcDbEntity
  8
0-B_寸法
  6
Continuous
 62
   120
370
     5
100
AcDbLine
 10
349.4994793453751
 20
1090.500183105469
 30
0.0
 11
349.4994793453751
 21
1340.500183105468
 31
0.0
  0
LINE
  5
11A
330
1F
100
AcDbEntity
  8
0-B_寸法
  6
Continuous
 62
   120
370
     5
100
AcDbLine
 10
348.9994793453755
 20
1090.500183105469
 30
0.0
 11
383.9483459096094
 21
1220.931128790135
 31
0.0
  0
LINE
  5
11B
330
1F
100
AcDbEntity
  8
0-B_寸法
  6
Continuous
 62
   120
370
     5
100
AcDbLine
 10
383.9483459096094
 20
1220.931128790135
 30
0.0
 11
434.7314139830567
 21
1220.931128790135
 31
0.0
  0
LWPOLYLINE
  5
11C
330
1F
100
AcDbEntity
  8
0-B_寸法
  6
Continuous
 62
     7
370
     9
100
AcDbPolyline
 90
        4
 70
     1
 43
3.0
 10
349.9994793453725
 20
1090.500183105469
 42
0.4142135623731
 10
348.4994793453725
 20
1092.000183105469
 42
0.4142135623731
 10
346.9994793453725
 20
1090.500183105469
 42
0.4142135623731
 10
348.4994793453725
 20
1089.000183105469
 42
0.4142135623731
  0
LWPOLYLINE
  5
11D
330
1F
100
AcDbEntity
  8
0-B_寸法
  6
Continuous
 62
     7
370
     9
100
AcDbPolyline
 90
        4
 70
     1
 43
3.0
 10
350.9994793453751
 20
1090.500183105469
 42
0.4142135623731
 10
349.4994793453751
 20
1092.000183105469
 42
0.4142135623731
 10
347.9994793453751
 20
1090.500183105469
 42
0.4142135623731
 10
349.4994793453751
 20
1089.000183105469
 42
0.4142135623731
  0
LINE
  5
11E
330
1F
100
AcDbEntity
  8
0-B_寸法
  6
Continuous
 62
   120
370
     5
100
AcDbLine
 10
349.4994793453751
 20
1090.500183105469
 30
0.0
 11
631.9994793453748
 21
1090.500183105469
 31
0.0
  0
LINE
  5
11F
330
1F
100
AcDbEntity
  8
0-B_寸法
  6
Continuous
 62
   120
370
     5
100
AcDbLine
 10
65.99947934537369
 20
1090.500183105469
 30
0.0
 11
348.4994793453725
 21
1090.500183105469
 31
0.0
  0
ARC
  5
120
330
1F
100
AcDbEntity
  8
0-7
  6
Continuous
 62
    92
370
    13
100
AcDbCircle
 10
-187.5005206546226
 20
2418.000183105469
 30
0.0
 40
1.0
100
AcDbArc
 50
90.0
 51
180.0
  0
LINE
  5
121
330
1F
100
AcDbEntity
  8
0-7
  6
Continuous
 62
    92
370
    13
100
AcDbLine
 10
-179.5005206546247
 20
2419.000183105468
 30
0.0
 11
-187.5005206546226
 21
2419.000183105468
 31
0.0
  0
ARC
  5
122
330
1F
100
AcDbEntity
  8
0-7
  6
Continuous
 62
    92
370
    13
100
AcDbCircle
 10
-179.5005206546247
 20
2418.000183105469
 30
0.0
 40
1.0
100
AcDbArc
 50
0.0
 51
90.00000000000001
  0
LINE
  5
123
330
1F
100
AcDbEntity
  8
0-7
  6
Continuous
 62
    92
370
    13
100
AcDbLine
 10
-178.5005206546239
 20
2286.000183105468
 30
0.0
 11
-178.5005206546239
 21
2418.000183105469
 31
0.0
  0
ARC
  5
124
330
1F
100
AcDbEntity
  8
0-7
  6
Continuous
 62
    92
370
    13
100
AcDbCircle
 10
-179.5005206546247
 20
2286.000183105468
 30
0.0
 40
1.0
100
AcDbArc
 50
270.0
 51
0.0
  0
LINE
  5
125
330
1F
100
AcDbEntity
  8
0-7
  6
Continuous
 62
    92
370
    13
100
AcDbLine
 10
-187.5005206546226
 20
2285.000183105469
 30
0.0
 11
-179.5005206546247
 21
2285.000183105469
 31
0.0
  0
LINE
  5
126
330
1F
100
AcDbEntity
  8
0-7
  6
Continuous
 62
    92
370
    13
100
AcDbLine
 10
-188.5005206546234
 20
2286.000183105468
 30
0.0
 11
-188.5005206546234
 21
2418.000183105469
 31
0.0
  0
ARC
  5
127
330
1F
100
AcDbEntity
  8
0-7
  6
Continuous
 62
    92
370
    13
100
AcDbCircle
 10
-187.5005206546226
 20
2286.000183105468
 30
0.0
 40
1.0
100
AcDbArc
 50
180.0
 51
270.0
  0
LINE
  5
128
330
1F
100
AcDbEntity
  8
0-1_通り芯
  6
JWW_CENTER1
 62
   120
370
     5
100
AcDbLine
 10
-183.5005206546245
 20
2429.000183105468
 30
0.0
 11
-183.5005206546245
 21
2275.000183105467
 31
0.0
  0
LINE
  5
129
330
1F
100
AcDbEntity
  8
0-1_通り芯
  6
JWW_CENTER1
 62
   120
370
     5
100
AcDbLine
 10
-168.5005206546245
 20
2352.000183105468
 30
0.0
 11
-198.5005206546228
 21
2352.000183105468
 31
0.0
  0
ARC
  5
12A
330
1F
100
AcDbEntity
  8
0-7
  6
Continuous
 62
     7
370
     9
100
AcDbCircle
 10
-188.5005206546234
 20
2416.000183105468
 30
0.0
 40
1.0
100
AcDbArc
 50
90.0
 51
180.0
  0
ARC
  5
12B
330
1F
100
AcDbEntity
  8
0-7
  6
Continuous
 62
     7
370
     9
100
AcDbCircle
 10
-178.5005206546239
 20
2416.000183105468
 30
0.0
 40
1.0
100
AcDbArc
 50
0.0
 51
90.00000000000001
  0
LINE
  5
12C
330
1F
100
AcDbEntity
  8
0-7
  6
Continuous
 62
     7
370
     9
100
AcDbLine
 10
-177.5005206546231
 20
2398.000183105468
 30
0.0
 11
-177.5005206546231
 21
2416.000183105468
 31
0.0
  0
ARC
  5
12D
330
1F
100
AcDbEntity
  8
0-7
  6
Continuous
 62
     7
370
     9
100
AcDbCircle
 10
-178.5005206546239
 20
2398.000183105468
 30
0.0
 40
1.0
100
AcDbArc
 50
270.0
 51
0.0
  0
LINE
  5
12E
330
1F
100
AcDbEntity
  8
0-7
  6
Continuous
 62
     7
370
     9
100
AcDbLine
 10
-189.5005206546242
 20
2398.000183105468
 30
0.0
 11
-189.5005206546242
 21
2416.000183105468
 31
0.0
  0
ARC
  5
12F
330
1F
100
AcDbEntity
  8
0-7
  6
Continuous
 62
     7
370
     9
100
AcDbCircle
 10
-188.5005206546234
 20
2398.000183105468
 30
0.0
 40
1.0
100
AcDbArc
 50
180.0
 51
270.0
  0
ARC
  5
130
330
1F
100
AcDbEntity
  8
0-7
  6
Continuous
 62
     7
370
     9
100
AcDbCircle
 10
-188.5005206546234
 20
2306.000183105467
 30
0.0
 40
1.0
100
AcDbArc
 50
90.0
 51
180.0
  0
ARC
  5
131
330
1F
100
AcDbEntity
  8
0-7
  6
Continuous
 62
     7
370
     9
100
AcDbCircle
 10
-178.5005206546239
 20
2306.000183105467
 30
0.0
 40
1.0
100
AcDbArc
 50
0.0
 51
90.00000000000001
  0
LINE
  5
132
330
1F
100
AcDbEntity
  8
0-7
  6
Continuous
 62
     7
370
     9
100
AcDbLine
 10
-177.5005206546231
 20
2288.000183105468
 30
0.0
 11
-177.5005206546231
 21
2306.000183105467
 31
0.0
  0
ARC
  5
133
330
1F
100
AcDbEntity
  8
0-7
  6
Continuous
 62
     7
370
     9
100
AcDbCircle
 10
-178.5005206546239
 20
2288.000183105468
 30
0.0
 40
1.0
100
AcDbArc
 50
270.0
 51
0.0
  0
LINE
  5
134
330
1F
100
AcDbEntity
  8
0-7
  6
Continuous
 62
     7
370
     9
100
AcDbLine
 10
-189.5005206546242
 20
2288.000183105468
 30
0.0
 11
-189.5005206546242
 21
2306.000183105467
 31
0.0
  0
ARC
  5
135
330
1F
100
AcDbEntity
  8
0-7
  6
Continuous
 62
     7
370
     9
100
AcDbCircle
 10
-188.5005206546234
 20
2288.000183105468
 30
0.0
 40
1.0
100
AcDbArc
 50
180.0
 51
270.0
  0
LINE
  5
136
330
1F
100
AcDbEntity
  8
0-8
  6
Continuous
 62
    92
370
    13
100
AcDbLine
 10
-178.5005206546239
 20
2419.000183105468
 30
0.0
 11
-188.5005206546234
 21
2419.000183105468
 31
0.0
  0
LINE
  5
137
330
1F
100
AcDbEntity
  8
0-8
  6
Continuous
 62
    92
370
    13
100
AcDbLine
 10
-188.5005206546234
 20
2285.000183105468
 30
0.0
 11
-178.5005206546239
 21
2285.000183105468
 31
0.0
  0
LINE
  5
138
330
1F
100
AcDbEntity
  8
0-8
  6
Continuous
 62
    92
370
    13
100
AcDbLine
 10
-188.5005206546234
 20
2419.000183105468
 30
0.0
 11
-188.5005206546234
 21
2285.000183105468
 31
0.0
  0
LINE
  5
139
330
1F
100
AcDbEntity
  8
0-8
  6
Continuous
 62
    92
370
    13
100
AcDbLine
 10
-178.5005206546239
 20
2419.000183105468
 30
0.0
 11
-178.5005206546239
 21
2285.000183105468
 31
0.0
  0
ELLIPSE
  5
13A
330
1F
100
AcDbEntity
  8
0-8
  6
Continuous
 62
     7
370
     9
100
AcDbEllipse
 10
-183.5005206546245
 20
2419.000183105468
 30
0.0
 11
1.071530559594571E-15
 21
17.49999999999986
 31
0.0
210
0.0
220
0.0
230
1.0
 40
0.2857142857142857
 41
3.141592653589793
 42
4.71238898038469
  0
ELLIPSE
  5
13B
330
1F
100
AcDbEntity
  8
0-8
  6
Continuous
 62
     7
370
     9
100
AcDbEllipse
 10
-183.5005206546245
 20
2285.000183105468
 30
0.0
 11
1.071530559594571E-15
 21
17.49999999999986
 31
0.0
210
0.0
220
0.0
230
1.0
 40
0.2857142857142857
 41
0.0
 42
1.570796326794897
  0
ELLIPSE
  5
13C
330
1F
100
AcDbEntity
  8
0-8
  6
Continuous
 62
     7
370
     9
100
AcDbEllipse
 10
-183.5005206546245
 20
2285.000183105468
 30
0.0
 11
1.071530559594571E-15
 21
-17.49999999999986
 31
0.0
210
0.0
220
0.0
230
1.0
 40
0.2857142857142857
 41
1.570796326794897
 42
3.141592653589793
  0
ARC
  5
13D
330
1F
100
AcDbEntity
  8
0-8
  6
Continuous
 62
     7
370
     9
100
AcDbCircle
 10
-188.5005206546234
 20
2418.000183105468
 30
0.0
 40
1.0
100
AcDbArc
 50
90.0
 51
180.0
  0
LINE
  5
13E
330
1F
100
AcDbEntity
  8
0-8
  6
Continuous
 62
     7
370
     9
100
AcDbLine
 10
-189.5005206546224
 20
2402.500183105467
 30
0.0
 11
-189.5005206546224
 21
2418.000183105468
 31
0.0
  0
ARC
  5
13F
330
1F
100
AcDbEntity
  8
0-8
  6
Continuous
 62
     7
370
     9
100
AcDbCircle
 10
-188.5005206546234
 20
2402.500183105467
 30
0.0
 40
1.0
100
AcDbArc
 50
180.0
 51
270.0
  0
ARC
  5
140
330
1F
100
AcDbEntity
  8
0-8
  6
Continuous
 62
     7
370
     9
100
AcDbCircle
 10
-178.5005206546239
 20
2402.500183105467
 30
0.0
 40
1.0
100
AcDbArc
 50
270.0
 51
0.0
  0
LINE
  5
141
330
1F
100
AcDbEntity
  8
0-8
  6
Continuous
 62
     7
370
     9
100
AcDbLine
 10
-177.5005206546231
 20
2402.500183105467
 30
0.0
 11
-177.5005206546231
 21
2418.000183105468
 31
0.0
  0
ARC
  5
142
330
1F
100
AcDbEntity
  8
0-8
  6
Continuous
 62
     7
370
     9
100
AcDbCircle
 10
-178.5005206546239
 20
2418.000183105468
 30
0.0
 40
1.0
100
AcDbArc
 50
0.0
 51
90.00000000000001
  0
ARC
  5
143
330
1F
100
AcDbEntity
  8
0-8
  6
Continuous
 62
     7
370
     9
100
AcDbCircle
 10
-188.5005206546234
 20
2301.500183105468
 30
0.0
 40
1.0
100
AcDbArc
 50
90.0
 51
180.0
  0
LINE
  5
144
330
1F
100
AcDbEntity
  8
0-8
  6
Continuous
 62
     7
370
     9
100
AcDbLine
 10
-189.5005206546224
 20
2286.000183105468
 30
0.0
 11
-189.5005206546224
 21
2301.500183105468
 31
0.0
  0
ARC
  5
145
330
1F
100
AcDbEntity
  8
0-8
  6
Continuous
 62
     7
370
     9
100
AcDbCircle
 10
-178.5005206546239
 20
2301.500183105468
 30
0.0
 40
1.0
100
AcDbArc
 50
0.0
 51
90.00000000000001
  0
LINE
  5
146
330
1F
100
AcDbEntity
  8
0-8
  6
Continuous
 62
     7
370
     9
100
AcDbLine
 10
-177.5005206546231
 20
2286.000183105468
 30
0.0
 11
-177.5005206546231
 21
2301.500183105468
 31
0.0
  0
ARC
  5
147
330
1F
100
AcDbEntity
  8
0-8
  6
Continuous
 62
     7
370
     9
100
AcDbCircle
 10
-178.5005206546239
 20
2286.000183105468
 30
0.0
 40
1.0
100
AcDbArc
 50
270.0
 51
0.0
  0
ARC
  5
148
330
1F
100
AcDbEntity
  8
0-8
  6
Continuous
 62
     7
370
     9
100
AcDbCircle
 10
-188.5005206546234
 20
2286.000183105468
 30
0.0
 40
1.0
100
AcDbArc
 50
180.0
 51
270.0
  0
ELLIPSE
  5
149
330
1F
100
AcDbEntity
  8
0-8
  6
Continuous
 62
     7
370
     9
100
AcDbEllipse
 10
-183.5005206546245
 20
2419.000183105468
 30
0.0
 11
1.071530559594571E-15
 21
17.49999999999986
 31
0.0
210
0.0
220
0.0
230
1.0
 40
0.2857142857142857
 41
1.570796326794897
 42
3.141592653589793
  0
LINE
  5
14A
330
1F
100
AcDbEntity
  8
0-2_扉
  6
Continuous
 62
    92
370
    13
100
AcDbLine
 10
-496.5005206546263
 20
1402.000183105469
 30
0.0
 11
-219.5005206546259
 21
1402.000183105469
 31
0.0
  0
LINE
  5
14B
330
1F
100
AcDbEntity
  8
0-2_扉
  6
Continuous
 62
    92
370
    13
100
AcDbLine
 10
348.4994793453725
 20
1402.000183105469
 30
0.0
 11
65.99947934537198
 21
1402.000183105469
 31
0.0
  0
ARC
  5
14C
330
1F
100
AcDbEntity
  8
0-7
  6
Continuous
 62
    92
370
    13
100
AcDbCircle
 10
380.4994793453767
 20
2418.000183105469
 30
0.0
 40
1.0
100
AcDbArc
 50
90.0
 51
180.0
  0
LINE
  5
14D
330
1F
100
AcDbEntity
  8
0-7
  6
Continuous
 62
    92
370
    13
100
AcDbLine
 10
388.4994793453737
 20
2419.000183105468
 30
0.0
 11
380.4994793453767
 21
2419.000183105468
 31
0.0
  0
ARC
  5
14E
330
1F
100
AcDbEntity
  8
0-7
  6
Continuous
 62
    92
370
    13
100
AcDbCircle
 10
388.4994793453737
 20
2418.000183105469
 30
0.0
 40
1.0
100
AcDbArc
 50
0.0
 51
90.00000000000001
  0
LINE
  5
14F
330
1F
100
AcDbEntity
  8
0-7
  6
Continuous
 62
    92
370
    13
100
AcDbLine
 10
389.4994793453745
 20
2286.000183105468
 30
0.0
 11
389.4994793453745
 21
2418.000183105469
 31
0.0
  0
ARC
  5
150
330
1F
100
AcDbEntity
  8
0-7
  6
Continuous
 62
    92
370
    13
100
AcDbCircle
 10
388.4994793453737
 20
2286.000183105468
 30
0.0
 40
1.0
100
AcDbArc
 50
270.0
 51
0.0
  0
LINE
  5
151
330
1F
100
AcDbEntity
  8
0-7
  6
Continuous
 62
    92
370
    13
100
AcDbLine
 10
380.4994793453767
 20
2285.000183105469
 30
0.0
 11
388.4994793453737
 21
2285.000183105469
 31
0.0
  0
LINE
  5
152
330
1F
100
AcDbEntity
  8
0-7
  6
Continuous
 62
    92
370
    13
100
AcDbLine
 10
379.4994793453751
 20
2286.000183105468
 30
0.0
 11
379.4994793453751
 21
2418.000183105469
 31
0.0
  0
ARC
  5
153
330
1F
100
AcDbEntity
  8
0-7
  6
Continuous
 62
    92
370
    13
100
AcDbCircle
 10
380.4994793453767
 20
2286.000183105468
 30
0.0
 40
1.0
100
AcDbArc
 50
180.0
 51
270.0
  0
LINE
  5
154
330
1F
100
AcDbEntity
  8
0-1_通り芯
  6
JWW_CENTER1
 62
   120
370
     5
100
AcDbLine
 10
384.4994793453747
 20
2429.000183105468
 30
0.0
 11
384.4994793453747
 21
2275.000183105467
 31
0.0
  0
LINE
  5
155
330
1F
100
AcDbEntity
  8
0-1_通り芯
  6
JWW_CENTER1
 62
   120
370
     5
100
AcDbLine
 10
399.4994793453747
 20
2352.000183105468
 30
0.0
 11
369.4994793453756
 21
2352.000183105468
 31
0.0
  0
ARC
  5
156
330
1F
100
AcDbEntity
  8
0-7
  6
Continuous
 62
     7
370
     9
100
AcDbCircle
 10
379.4994793453751
 20
2416.000183105468
 30
0.0
 40
1.0
100
AcDbArc
 50
90.0
 51
180.0
  0
ARC
  5
157
330
1F
100
AcDbEntity
  8
0-7
  6
Continuous
 62
     7
370
     9
100
AcDbCircle
 10
389.4994793453745
 20
2416.000183105468
 30
0.0
 40
1.0
100
AcDbArc
 50
0.0
 51
90.00000000000001
  0
LINE
  5
158
330
1F
100
AcDbEntity
  8
0-7
  6
Continuous
 62
     7
370
     9
100
AcDbLine
 10
390.4994793453753
 20
2398.000183105468
 30
0.0
 11
390.4994793453753
 21
2416.000183105468
 31
0.0
  0
ARC
  5
159
330
1F
100
AcDbEntity
  8
0-7
  6
Continuous
 62
     7
370
     9
100
AcDbCircle
 10
389.4994793453745
 20
2398.000183105468
 30
0.0
 40
1.0
100
AcDbArc
 50
270.0
 51
0.0
  0
LINE
  5
15A
330
1F
100
AcDbEntity
  8
0-7
  6
Continuous
 62
     7
370
     9
100
AcDbLine
 10
378.4994793453743
 20
2398.000183105468
 30
0.0
 11
378.4994793453743
 21
2416.000183105468
 31
0.0
  0
ARC
  5
15B
330
1F
100
AcDbEntity
  8
0-7
  6
Continuous
 62
     7
370
     9
100
AcDbCircle
 10
379.4994793453751
 20
2398.000183105468
 30
0.0
 40
1.0
100
AcDbArc
 50
180.0
 51
270.0
  0
ARC
  5
15C
330
1F
100
AcDbEntity
  8
0-7
  6
Continuous
 62
     7
370
     9
100
AcDbCircle
 10
379.4994793453751
 20
2306.000183105467
 30
0.0
 40
1.0
100
AcDbArc
 50
90.0
 51
180.0
  0
ARC
  5
15D
330
1F
100
AcDbEntity
  8
0-7
  6
Continuous
 62
     7
370
     9
100
AcDbCircle
 10
389.4994793453745
 20
2306.000183105467
 30
0.0
 40
1.0
100
AcDbArc
 50
0.0
 51
90.00000000000001
  0
LINE
  5
15E
330
1F
100
AcDbEntity
  8
0-7
  6
Continuous
 62
     7
370
     9
100
AcDbLine
 10
390.4994793453753
 20
2288.000183105468
 30
0.0
 11
390.4994793453753
 21
2306.000183105467
 31
0.0
  0
ARC
  5
15F
330
1F
100
AcDbEntity
  8
0-7
  6
Continuous
 62
     7
370
     9
100
AcDbCircle
 10
389.4994793453745
 20
2288.000183105468
 30
0.0
 40
1.0
100
AcDbArc
 50
270.0
 51
0.0
  0
LINE
  5
160
330
1F
100
AcDbEntity
  8
0-7
  6
Continuous
 62
     7
370
     9
100
AcDbLine
 10
378.4994793453743
 20
2288.000183105468
 30
0.0
 11
378.4994793453743
 21
2306.000183105467
 31
0.0
  0
ARC
  5
161
330
1F
100
AcDbEntity
  8
0-7
  6
Continuous
 62
     7
370
     9
100
AcDbCircle
 10
379.4994793453751
 20
2288.000183105468
 30
0.0
 40
1.0
100
AcDbArc
 50
180.0
 51
270.0
  0
LINE
  5
162
330
1F
100
AcDbEntity
  8
0-8
  6
Continuous
 62
    92
370
    13
100
AcDbLine
 10
389.4994793453745
 20
2419.000183105468
 30
0.0
 11
379.4994793453751
 21
2419.000183105468
 31
0.0
  0
LINE
  5
163
330
1F
100
AcDbEntity
  8
0-8
  6
Continuous
 62
    92
370
    13
100
AcDbLine
 10
379.4994793453751
 20
2285.000183105468
 30
0.0
 11
389.4994793453745
 21
2285.000183105468
 31
0.0
  0
LINE
  5
164
330
1F
100
AcDbEntity
  8
0-8
  6
Continuous
 62
    92
370
    13
100
AcDbLine
 10
379.4994793453751
 20
2419.000183105468
 30
0.0
 11
379.4994793453751
 21
2285.000183105468
 31
0.0
  0
LINE
  5
165
330
1F
100
AcDbEntity
  8
0-8
  6
Continuous
 62
    92
370
    13
100
AcDbLine
 10
389.4994793453745
 20
2419.000183105468
 30
0.0
 11
389.4994793453745
 21
2285.000183105468
 31
0.0
  0
ELLIPSE
  5
166
330
1F
100
AcDbEntity
  8
0-8
  6
Continuous
 62
     7
370
     9
100
AcDbEllipse
 10
384.4994793453747
 20
2419.000183105468
 30
0.0
 11
1.071530559594571E-15
 21
17.49999999999986
 31
0.0
210
0.0
220
0.0
230
1.0
 40
0.2857142857142857
 41
3.141592653589793
 42
4.71238898038469
  0
ELLIPSE
  5
167
330
1F
100
AcDbEntity
  8
0-8
  6
Continuous
 62
     7
370
     9
100
AcDbEllipse
 10
384.4994793453747
 20
2285.000183105468
 30
0.0
 11
1.071530559594571E-15
 21
17.49999999999986
 31
0.0
210
0.0
220
0.0
230
1.0
 40
0.2857142857142857
 41
0.0
 42
1.570796326794897
  0
ELLIPSE
  5
168
330
1F
100
AcDbEntity
  8
0-8
  6
Continuous
 62
     7
370
     9
100
AcDbEllipse
 10
384.4994793453747
 20
2285.000183105468
 30
0.0
 11
1.071530559594571E-15
 21
-17.49999999999986
 31
0.0
210
0.0
220
0.0
230
1.0
 40
0.2857142857142857
 41
1.570796326794897
 42
3.141592653589793
  0
ARC
  5
169
330
1F
100
AcDbEntity
  8
0-8
  6
Continuous
 62
     7
370
     9
100
AcDbCircle
 10
379.4994793453751
 20
2418.000183105468
 30
0.0
 40
1.0
100
AcDbArc
 50
90.0
 51
180.0
  0
LINE
  5
16A
330
1F
100
AcDbEntity
  8
0-8
  6
Continuous
 62
     7
370
     9
100
AcDbLine
 10
378.4994793453751
 20
2402.500183105467
 30
0.0
 11
378.4994793453751
 21
2418.000183105468
 31
0.0
  0
ARC
  5
16B
330
1F
100
AcDbEntity
  8
0-8
  6
Continuous
 62
     7
370
     9
100
AcDbCircle
 10
379.4994793453751
 20
2402.500183105467
 30
0.0
 40
1.0
100
AcDbArc
 50
180.0
 51
270.0
  0
ARC
  5
16C
330
1F
100
AcDbEntity
  8
0-8
  6
Continuous
 62
     7
370
     9
100
AcDbCircle
 10
389.4994793453745
 20
2402.500183105467
 30
0.0
 40
1.0
100
AcDbArc
 50
270.0
 51
0.0
  0
LINE
  5
16D
330
1F
100
AcDbEntity
  8
0-8
  6
Continuous
 62
     7
370
     9
100
AcDbLine
 10
390.4994793453744
 20
2402.500183105467
 30
0.0
 11
390.4994793453744
 21
2418.000183105468
 31
0.0
  0
ARC
  5
16E
330
1F
100
AcDbEntity
  8
0-8
  6
Continuous
 62
     7
370
     9
100
AcDbCircle
 10
389.4994793453745
 20
2418.000183105468
 30
0.0
 40
1.0
100
AcDbArc
 50
0.0
 51
90.00000000000001
  0
ARC
  5
16F
330
1F
100
AcDbEntity
  8
0-8
  6
Continuous
 62
     7
370
     9
100
AcDbCircle
 10
379.4994793453751
 20
2301.500183105468
 30
0.0
 40
1.0
100
AcDbArc
 50
90.0
 51
180.0
  0
LINE
  5
170
330
1F
100
AcDbEntity
  8
0-8
  6
Continuous
 62
     7
370
     9
100
AcDbLine
 10
378.4994793453751
 20
2286.000183105468
 30
0.0
 11
378.4994793453751
 21
2301.500183105468
 31
0.0
  0
ARC
  5
171
330
1F
100
AcDbEntity
  8
0-8
  6
Continuous
 62
     7
370
     9
100
AcDbCircle
 10
389.4994793453745
 20
2301.500183105468
 30
0.0
 40
1.0
100
AcDbArc
 50
0.0
 51
90.00000000000001
  0
LINE
  5
172
330
1F
100
AcDbEntity
  8
0-8
  6
Continuous
 62
     7
370
     9
100
AcDbLine
 10
390.4994793453744
 20
2286.000183105468
 30
0.0
 11
390.4994793453744
 21
2301.500183105468
 31
0.0
  0
ARC
  5
173
330
1F
100
AcDbEntity
  8
0-8
  6
Continuous
 62
     7
370
     9
100
AcDbCircle
 10
389.4994793453745
 20
2286.000183105468
 30
0.0
 40
1.0
100
AcDbArc
 50
270.0
 51
0.0
  0
ARC
  5
174
330
1F
100
AcDbEntity
  8
0-8
  6
Continuous
 62
     7
370
     9
100
AcDbCircle
 10
379.4994793453751
 20
2286.000183105468
 30
0.0
 40
1.0
100
AcDbArc
 50
180.0
 51
270.0
  0
ELLIPSE
  5
175
330
1F
100
AcDbEntity
  8
0-8
  6
Continuous
 62
     7
370
     9
100
AcDbEllipse
 10
384.4994793453747
 20
2419.000183105468
 30
0.0
 11
1.071530559594571E-15
 21
17.49999999999986
 31
0.0
210
0.0
220
0.0
230
1.0
 40
0.2857142857142857
 41
1.570796326794897
 42
3.141592653589793
  0
LINE
  5
176
330
1F
100
AcDbEntity
  8
0-2_扉
  6
JWW_DASHED1
 62
   120
370
     5
100
AcDbLine
 10
620.4994793453716
 20
1402.000183105469
 30
0.0
 11
631.9994793453748
 21
1402.000183105469
 31
0.0
  0
LINE
  5
177
330
1F
100
AcDbEntity
  8
0-2_扉
  6
Continuous
 62
    92
370
    13
100
AcDbLine
 10
349.4994793453751
 20
1402.000183105469
 30
0.0
 11
620.4994793453716
 21
1402.000183105469
 31
0.0
  0
LINE
  5
178
330
1F
100
AcDbEntity
  8
0-4_枠
  6
Continuous
 62
    92
370
    13
100
AcDbLine
 10
-520.5005206546266
 20
1390.500183105469
 30
0.0
 11
650.4994793453733
 21
1390.500183105469
 31
0.0
  0
LINE
  5
179
330
1F
100
AcDbEntity
  8
0-2_扉
  6
Continuous
 62
    92
370
    13
100
AcDbLine
 10
-218.5005206546234
 20
3747.000183105469
 30
0.0
 11
63.99947934537551
 21
3747.000183105469
 31
0.0
  0
LINE
  5
17A
330
1F
100
AcDbEntity
  8
0-2_扉
  6
Continuous
 62
    92
370
    13
100
AcDbLine
 10
63.99947934537551
 20
1402.000183105469
 30
0.0
 11
63.99947934537551
 21
3747.000183105469
 31
0.0
  0
LINE
  5
17B
330
1F
100
AcDbEntity
  8
0-B_寸法
  6
Continuous
 62
   120
370
     5
100
AcDbLine
 10
-820.5005206546284
 20
3747.000183105469
 30
0.0
 11
-820.5005206546284
 21
1402.000183105469
 31
0.0
  0
LINE
  5
17C
330
1F
100
AcDbEntity
  8
0-B_寸法
  6
Continuous
 62
   120
370
     5
100
AcDbLine
 10
-820.5005206546284
 20
3747.000183105469
 30
0.0
 11
-570.5005206546307
 21
3747.000183105469
 31
0.0
  0
LWPOLYLINE
  5
17D
330
1F
100
AcDbEntity
  8
0-B_寸法
  6
Continuous
 62
     7
370
     9
100
AcDbPolyline
 90
        4
 70
     1
 43
3.0
 10
-819.0005206546283
 20
3747.000183105469
 42
0.4142135623731
 10
-820.5005206546284
 20
3748.500183105469
 42
0.4142135623731
 10
-822.0005206546284
 20
3747.000183105469
 42
0.4142135623731
 10
-820.5005206546284
 20
3745.500183105469
 42
0.4142135623731
  0
LINE
  5
17E
330
1F
100
AcDbEntity
  8
0-4_枠
  6
Continuous
 62
    92
370
    13
100
AcDbLine
 10
-520.5005206546266
 20
1390.500183105469
 30
0.0
 11
-520.5005206546266
 21
3790.500183105469
 31
0.0
  0
LINE
  5
17F
330
1F
100
AcDbEntity
  8
0-4_枠
  6
Continuous
 62
    92
370
    13
100
AcDbLine
 10
-496.5005206546263
 20
1390.500183105469
 30
0.0
 11
-496.5005206546263
 21
3754.500183105469
 31
0.0
  0
LINE
  5
180
330
1F
100
AcDbEntity
  8
0-2_扉
  6
JWW_DASHED1
 62
   120
370
     5
100
AcDbLine
 10
-502.0005206546264
 20
1402.000183105469
 30
0.0
 11
-502.0005206546264
 21
3747.000183105469
 31
0.0
  0
LINE
  5
181
330
1F
100
AcDbEntity
  8
0-3_仕上げ
  6
Continuous
 62
     7
370
     9
100
AcDbLine
 10
-481.0005206546268
 20
1402.000183105469
 30
0.0
 11
-481.0005206546268
 21
3747.000183105469
 31
0.0
  0
LINE
  5
182
330
1F
100
AcDbEntity
  8
0-2_扉
  6
JWW_DASHED1
 62
   120
370
     5
100
AcDbLine
 10
-496.5005206546263
 20
3747.000183105469
 30
0.0
 11
-502.0005206546264
 21
3747.000183105469
 31
0.0
  0
LINE
  5
183
330
1F
100
AcDbEntity
  8
0-2_扉
  6
Continuous
 62
    92
370
    13
100
AcDbLine
 10
-219.5005206546259
 20
1402.000183105469
 30
0.0
 11
-219.5005206546259
 21
3747.000183105469
 31
0.0
  0
LINE
  5
184
330
1F
100
AcDbEntity
  8
0-2_扉
  6
Continuous
 62
    92
370
    13
100
AcDbLine
 10
-218.5005206546234
 20
1402.000183105469
 30
0.0
 11
-218.5005206546234
 21
3747.000183105469
 31
0.0
  0
LINE
  5
185
330
1F
100
AcDbEntity
  8
0-3_仕上げ
  6
Continuous
 62
     7
370
     9
100
AcDbLine
 10
-240.5005206546238
 20
1402.000183105469
 30
0.0
 11
-240.5005206546238
 21
3747.000183105469
 31
0.0
  0
LINE
  5
186
330
1F
100
AcDbEntity
  8
0-3_仕上げ
  6
Continuous
 62
     7
370
     9
100
AcDbLine
 10
-197.5005206546237
 20
1402.000183105469
 30
0.0
 11
-197.5005206546237
 21
3747.000183105469
 31
0.0
  0
LINE
  5
187
330
1F
100
AcDbEntity
  8
0-2_扉
  6
Continuous
 62
    92
370
    13
100
AcDbLine
 10
-496.5005206546263
 20
3747.000183105469
 30
0.0
 11
-219.5005206546259
 21
3747.000183105469
 31
0.0
  0
LINE
  5
188
330
1F
100
AcDbEntity
  8
0-3_仕上げ
  6
Continuous
 62
     7
370
     9
100
AcDbLine
 10
42.99947934537755
 20
1402.000183105469
 30
0.0
 11
42.99947934537755
 21
3747.000183105469
 31
0.0
  0
LINE
  5
189
330
1F
100
AcDbEntity
  8
0-2_扉
  6
Continuous
 62
    92
370
    13
100
AcDbLine
 10
348.4994793453725
 20
3747.000183105469
 30
0.0
 11
65.99947934537198
 21
3747.000183105469
 31
0.0
  0
LINE
  5
18A
330
1F
100
AcDbEntity
  8
0-2_扉
  6
Continuous
 62
    92
370
    13
100
AcDbLine
 10
65.99947934537198
 20
1402.000183105469
 30
0.0
 11
65.99947934537198
 21
3747.000183105469
 31
0.0
  0
LINE
  5
18B
330
1F
100
AcDbEntity
  8
0-3_仕上げ
  6
Continuous
 62
     7
370
     9
100
AcDbLine
 10
86.99947934537164
 20
1402.000183105469
 30
0.0
 11
86.99947934537164
 21
3747.000183105469
 31
0.0
  0
LINE
  5
18C
330
1F
100
AcDbEntity
  8
0-2_扉
  6
Continuous
 62
    92
370
    13
100
AcDbLine
 10
348.4994793453725
 20
1402.000183105469
 30
0.0
 11
348.4994793453725
 21
3747.000183105469
 31
0.0
  0
LINE
  5
18D
330
1F
100
AcDbEntity
  8
0-2_扉
  6
Continuous
 62
    92
370
    13
100
AcDbLine
 10
349.4994793453751
 20
1402.000183105469
 30
0.0
 11
349.4994793453751
 21
3747.000183105469
 31
0.0
  0
LINE
  5
18E
330
1F
100
AcDbEntity
  8
0-3_仕上げ
  6
Continuous
 62
     7
370
     9
100
AcDbLine
 10
327.4994793453737
 20
1402.000183105469
 30
0.0
 11
327.4994793453737
 21
3747.000183105469
 31
0.0
  0
LINE
  5
18F
330
1F
100
AcDbEntity
  8
0-3_仕上げ
  6
Continuous
 62
     7
370
     9
100
AcDbLine
 10
370.4994793453747
 20
1402.000183105469
 30
0.0
 11
370.4994793453747
 21
3747.000183105469
 31
0.0
  0
LINE
  5
190
330
1F
100
AcDbEntity
  8
0-2_扉
  6
JWW_DASHED1
 62
   120
370
     5
100
AcDbLine
 10
631.9994793453748
 20
1402.000183105469
 30
0.0
 11
631.9994793453748
 21
3747.000183105469
 31
0.0
  0
LINE
  5
191
330
1F
100
AcDbEntity
  8
0-3_仕上げ
  6
Continuous
 62
     7
370
     9
100
AcDbLine
 10
610.9994793453751
 20
1402.000183105469
 30
0.0
 11
610.9994793453751
 21
3747.000183105469
 31
0.0
  0
LINE
  5
192
330
1F
100
AcDbEntity
  8
0-2_扉
  6
JWW_DASHED1
 62
   120
370
     5
100
AcDbLine
 10
620.4994793453716
 20
3747.000183105469
 30
0.0
 11
631.9994793453748
 21
3747.000183105469
 31
0.0
  0
LINE
  5
193
330
1F
100
AcDbEntity
  8
0-2_扉
  6
Continuous
 62
    92
370
    13
100
AcDbLine
 10
349.4994793453751
 20
3747.000183105469
 30
0.0
 11
620.4994793453716
 21
3747.000183105469
 31
0.0
  0
LINE
  5
194
330
1F
100
AcDbEntity
  8
0-4_枠
  6
Continuous
 62
    92
370
    13
100
AcDbLine
 10
-520.5005206546266
 20
3790.500183105469
 30
0.0
 11
650.4994793453733
 21
3790.500183105469
 31
0.0
  0
LINE
  5
195
330
1F
100
AcDbEntity
  8
0-4_枠
  6
Continuous
 62
    92
370
    13
100
AcDbLine
 10
-496.5005206546263
 20
3754.500183105469
 30
0.0
 11
620.4994793453733
 21
3754.500183105469
 31
0.0
  0
LINE
  5
196
330
1F
100
AcDbEntity
  8
0-4_枠
  6
Continuous
 62
    92
370
    13
100
AcDbLine
 10
620.4994793453733
 20
1390.500183105469
 30
0.0
 11
620.4994793453733
 21
3754.500183105469
 31
0.0
  0
LINE
  5
197
330
1F
100
AcDbEntity
  8
0-4_枠
  6
Continuous
 62
    92
370
    13
100
AcDbLine
 10
650.4994793453733
 20
1390.500183105469
 30
0.0
 11
650.4994793453733
 21
3790.500183105469
 31
0.0
  0
MTEXT
  5
198
330
1F
100
AcDbEntity
  8
0-B_寸法
  6
Continuous
 62
     7
370
   211
100
AcDbMText
 10
-187.8016540903931
 20
1210.221128790135
 30
0.0
 40
68.58
 41
45.0
 46
0.0
 71
     7
 72
     1
  1
{\fＭＳ ゴシック|b0|i0|c128|p49;1}
 73
     1
 44
1.0
  0
MTEXT
  5
199
330
1F
100
AcDbEntity
  8
0-B_寸法
  6
Continuous
 62
     7
370
   211
100
AcDbMText
 10
96.20098121239977
 20
1210.221128790135
 30
0.0
 40
68.58
 41
45.0
 46
0.0
 71
     7
 72
     1
  1
{\fＭＳ ゴシック|b0|i0|c128|p49;2}
 73
     1
 44
1.0
  0
MTEXT
  5
19A
330
1F
100
AcDbEntity
  8
0-B_寸法
  6
Continuous
 62
     7
370
   211
100
AcDbMText
 10
380.1983459096087
 20
1210.221128790135
 30
0.0
 40
68.58
 41
45.0
 46
0.0
 71
     7
 72
     1
  1
{\fＭＳ ゴシック|b0|i0|c128|p49;1}
 73
     1
 44
1.0
  0
MTEXT
  5
19B
330
1F
100
AcDbEntity
  8
0-B_寸法
  6
Continuous
 62
     7
370
   211
100
AcDbMText
 10
-488.250520654627
 20
1099.362183105469
 30
0.0
 40
77.724
 41
255.0
 46
0.0
 71
     7
 72
     1
  1
{\fＭＳ ゴシック|b0|i0|c128|p49;282.5}
 73
     1
 44
1.0
  0
MTEXT
  5
19C
330
1F
100
AcDbEntity
  8
0-B_寸法
  6
Continuous
 62
     7
370
   211
100
AcDbMText
 10
-204.7505206546273
 20
1099.362183105469
 30
0.0
 40
77.724
 41
255.0
 46
0.0
 71
     7
 72
     1
  1
{\fＭＳ ゴシック|b0|i0|c128|p49;282.5}
 73
     1
 44
1.0
  0
MTEXT
  5
19D
330
1F
100
AcDbEntity
  8
0-B_寸法
  6
Continuous
 62
     7
370
   211
100
AcDbMText
 10
79.74947934537312
 20
1099.362183105469
 30
0.0
 40
77.724
 41
255.0
 46
0.0
 71
     7
 72
     1
  1
{\fＭＳ ゴシック|b0|i0|c128|p49;282.5}
 73
     1
 44
1.0
  0
MTEXT
  5
19E
330
1F
100
AcDbEntity
  8
0-B_寸法
  6
Continuous
 62
     7
370
   211
100
AcDbMText
 10
363.2494793453711
 20
1099.362183105469
 30
0.0
 40
77.724
 41
255.0
 46
0.0
 71
     7
 72
     1
  1
{\fＭＳ ゴシック|b0|i0|c128|p49;282.5}
 73
     1
 44
1.0
  0
MTEXT
  5
19F
330
1F
100
AcDbEntity
  8
0-B_寸法
  6
Continuous
 62
     7
370
   211
100
AcDbMText
 10
-451.500520654628
 20
899.8701831054684
 30
0.0
 40
78.74000000000001
 41
465.0
 46
0.0
 71
     7
 72
     1
  1
{\fＭＳ ゴシック|b0|i0|c128|p49;ＤＷ＝566}
 73
     1
 44
1.0
  0
MTEXT
  5
1A0
330
1F
100
AcDbEntity
  8
0-B_寸法
  6
Continuous
 62
     7
370
   211
100
AcDbMText
 10
116.4994793453738
 20
899.8701831054684
 30
0.0
 40
78.74000000000001
 41
465.0
 46
0.0
 71
     7
 72
     1
  1
{\fＭＳ ゴシック|b0|i0|c128|p49;ＤＷ＝566}
 73
     1
 44
1.0
  0
LWPOLYLINE
  5
1A1
330
1F
100
AcDbEntity
  8
0-B_寸法
  6
Continuous
 62
     7
370
     9
100
AcDbPolyline
 90
        4
 70
     1
 43
3.0
 10
2960.665811280948
 20
1402.000183105469
 42
0.4142135623731
 10
2959.165811280948
 20
1403.500183105469
 42
0.4142135623731
 10
2957.665811280948
 20
1402.000183105469
 42
0.4142135623731
 10
2959.165811280948
 20
1400.500183105469
 42
0.4142135623731
  0
LINE
  5
1A2
330
1F
100
AcDbEntity
  8
0-B_寸法
  6
Continuous
 62
   120
370
     5
100
AcDbLine
 10
2959.165811280948
 20
1402.000183105469
 30
0.0
 11
3209.165811280947
 21
1402.000183105469
 31
0.0
  0
LINE
  5
1A3
330
1F
100
AcDbEntity
  8
0-4_枠
  6
Continuous
 62
    92
370
    13
100
AcDbLine
 10
3259.165811280948
 20
1390.500183105469
 30
0.0
 11
4876.165811280948
 21
1390.500183105469
 31
0.0
  0
LINE
  5
1A4
330
1F
100
AcDbEntity
  8
0-2_扉
  6
JWW_DASHED1
 62
   120
370
     5
100
AcDbLine
 10
3283.165811280948
 20
1402.000183105469
 30
0.0
 11
3277.665811280948
 21
1402.000183105469
 31
0.0
  0
LWPOLYLINE
  5
1A5
330
1F
100
AcDbEntity
  8
0-B_寸法
  6
Continuous
 62
     7
370
     9
100
AcDbPolyline
 90
        4
 70
     1
 43
3.0
 10
4068.16581128095
 20
1090.500183105469
 42
0.4142135623731
 10
4066.66581128095
 20
1092.000183105469
 42
0.4142135623731
 10
4065.165811280949
 20
1090.500183105469
 42
0.4142135623731
 10
4066.66581128095
 20
1089.000183105469
 42
0.4142135623731
  0
LWPOLYLINE
  5
1A6
330
1F
100
AcDbEntity
  8
0-B_寸法
  6
Continuous
 62
     7
370
     9
100
AcDbPolyline
 90
        4
 70
     1
 43
3.0
 10
3279.165811280948
 20
1090.500183105469
 42
0.4142135623731
 10
3277.665811280948
 20
1092.000183105469
 42
0.4142135623731
 10
3276.165811280948
 20
1090.500183105469
 42
0.4142135623731
 10
3277.665811280948
 20
1089.000183105469
 42
0.4142135623731
  0
LWPOLYLINE
  5
1A7
330
1F
100
AcDbEntity
  8
0-B_寸法
  6
Continuous
 62
     7
370
     9
100
AcDbPolyline
 90
        4
 70
     1
 43
3.0
 10
4070.165811280949
 20
890.5001831054684
 42
0.4142135623731
 10
4068.665811280949
 20
892.0001831054684
 42
0.4142135623731
 10
4067.165811280948
 20
890.5001831054684
 42
0.4142135623731
 10
4068.665811280949
 20
889.0001831054684
 42
0.4142135623731
  0
LWPOLYLINE
  5
1A8
330
1F
100
AcDbEntity
  8
0-B_寸法
  6
Continuous
 62
     7
370
     9
100
AcDbPolyline
 90
        4
 70
     1
 43
3.0
 10
4068.16581128095
 20
890.5001831054684
 42
0.4142135623731
 10
4066.66581128095
 20
892.0001831054684
 42
0.4142135623731
 10
4065.165811280949
 20
890.5001831054684
 42
0.4142135623731
 10
4066.66581128095
 20
889.0001831054684
 42
0.4142135623731
  0
LWPOLYLINE
  5
1A9
330
1F
100
AcDbEntity
  8
0-B_寸法
  6
Continuous
 62
     7
370
     9
100
AcDbPolyline
 90
        4
 70
     1
 43
3.0
 10
3279.165811280948
 20
890.5001831054684
 42
0.4142135623731
 10
3277.665811280948
 20
892.0001831054684
 42
0.4142135623731
 10
3276.165811280948
 20
890.5001831054684
 42
0.4142135623731
 10
3277.665811280948
 20
889.0001831054684
 42
0.4142135623731
  0
LINE
  5
1AA
330
1F
100
AcDbEntity
  8
0-B_寸法
  6
Continuous
 62
   120
370
     5
100
AcDbLine
 10
4102.614677845183
 20
1020.931128790137
 30
0.0
 11
4153.397745918633
 21
1020.931128790137
 31
0.0
  0
LINE
  5
1AB
330
1F
100
AcDbEntity
  8
0-B_寸法
  6
Continuous
 62
   120
370
     5
100
AcDbLine
 10
4067.66581128095
 20
890.5001831054684
 30
0.0
 11
4102.614677845183
 21
1020.931128790137
 31
0.0
  0
LINE
  5
1AC
330
1F
100
AcDbEntity
  8
0-B_寸法
  6
Continuous
 62
   120
370
     5
100
AcDbLine
 10
4068.665811280949
 20
890.5001831054684
 30
0.0
 11
4068.665811280949
 21
1340.500183105468
 31
0.0
  0
LINE
  5
1AD
330
1F
100
AcDbEntity
  8
0-B_寸法
  6
Continuous
 62
   120
370
     5
100
AcDbLine
 10
4066.66581128095
 20
890.5001831054684
 30
0.0
 11
4068.665811280949
 21
890.5001831054684
 31
0.0
  0
LINE
  5
1AE
330
1F
100
AcDbEntity
  8
0-B_寸法
  6
Continuous
 62
   120
370
     5
100
AcDbLine
 10
4066.66581128095
 20
890.5001831054684
 30
0.0
 11
4066.66581128095
 21
1340.500183105468
 31
0.0
  0
LINE
  5
1AF
330
1F
100
AcDbEntity
  8
0-B_寸法
  6
Continuous
 62
   120
370
     5
100
AcDbLine
 10
3277.665811280948
 20
890.5001831054684
 30
0.0
 11
3277.665811280948
 21
1340.500183105468
 31
0.0
  0
LINE
  5
1B0
330
1F
100
AcDbEntity
  8
0-B_寸法
  6
Continuous
 62
   120
370
     5
100
AcDbLine
 10
3277.665811280948
 20
890.5001831054684
 30
0.0
 11
4066.66581128095
 21
890.5001831054684
 31
0.0
  0
LWPOLYLINE
  5
1B1
330
1F
100
AcDbEntity
  8
0-B_寸法
  6
Continuous
 62
     7
370
     9
100
AcDbPolyline
 90
        4
 70
     1
 43
3.0
 10
4859.165811280948
 20
890.5001831054684
 42
0.4142135623731
 10
4857.665811280948
 20
892.0001831054684
 42
0.4142135623731
 10
4856.165811280947
 20
890.5001831054684
 42
0.4142135623731
 10
4857.665811280948
 20
889.0001831054684
 42
0.4142135623731
  0
LINE
  5
1B2
330
1F
100
AcDbEntity
  8
0-B_寸法
  6
Continuous
 62
   120
370
     5
100
AcDbLine
 10
4857.665811280948
 20
890.5001831054684
 30
0.0
 11
4857.665811280948
 21
1340.500183105468
 31
0.0
  0
LINE
  5
1B3
330
1F
100
AcDbEntity
  8
0-B_寸法
  6
Continuous
 62
   120
370
     5
100
AcDbLine
 10
4068.665811280949
 20
890.5001831054684
 30
0.0
 11
4857.665811280948
 21
890.5001831054684
 31
0.0
  0
LWPOLYLINE
  5
1B4
330
1F
100
AcDbEntity
  8
0-B_寸法
  6
Continuous
 62
     7
370
     9
100
AcDbPolyline
 90
        4
 70
     1
 43
3.0
 10
3674.165811280949
 20
1090.500183105469
 42
0.4142135623731
 10
3672.665811280949
 20
1092.000183105469
 42
0.4142135623731
 10
3671.165811280949
 20
1090.500183105469
 42
0.4142135623731
 10
3672.665811280949
 20
1089.000183105469
 42
0.4142135623731
  0
LWPOLYLINE
  5
1B5
330
1F
100
AcDbEntity
  8
0-B_寸法
  6
Continuous
 62
     7
370
     9
100
AcDbPolyline
 90
        4
 70
     1
 43
3.0
 10
3673.165811280948
 20
1090.500183105469
 42
0.4142135623731
 10
3671.665811280948
 20
1092.000183105469
 42
0.4142135623731
 10
3670.165811280948
 20
1090.500183105469
 42
0.4142135623731
 10
3671.665811280948
 20
1089.000183105469
 42
0.4142135623731
  0
LINE
  5
1B6
330
1F
100
AcDbEntity
  8
0-B_寸法
  6
Continuous
 62
   120
370
     5
100
AcDbLine
 10
3707.114677845183
 20
1220.931128790137
 30
0.0
 11
3757.897745918632
 21
1220.931128790137
 31
0.0
  0
LINE
  5
1B7
330
1F
100
AcDbEntity
  8
0-B_寸法
  6
Continuous
 62
   120
370
     5
100
AcDbLine
 10
3672.165811280948
 20
1090.500183105469
 30
0.0
 11
3707.114677845183
 21
1220.931128790137
 31
0.0
  0
LINE
  5
1B8
330
1F
100
AcDbEntity
  8
0-B_寸法
  6
Continuous
 62
   120
370
     5
100
AcDbLine
 10
3672.665811280949
 20
1090.500183105469
 30
0.0
 11
4066.66581128095
 21
1090.500183105469
 31
0.0
  0
LINE
  5
1B9
330
1F
100
AcDbEntity
  8
0-B_寸法
  6
Continuous
 62
   120
370
     5
100
AcDbLine
 10
3672.665811280949
 20
1090.500183105469
 30
0.0
 11
3672.665811280949
 21
1340.500183105468
 31
0.0
  0
LINE
  5
1BA
330
1F
100
AcDbEntity
  8
0-B_寸法
  6
Continuous
 62
   120
370
     5
100
AcDbLine
 10
3671.665811280948
 20
1090.500183105469
 30
0.0
 11
3672.665811280949
 21
1090.500183105469
 31
0.0
  0
LINE
  5
1BB
330
1F
100
AcDbEntity
  8
0-B_寸法
  6
Continuous
 62
   120
370
     5
100
AcDbLine
 10
3671.665811280948
 20
1090.500183105469
 30
0.0
 11
3671.665811280948
 21
1340.500183105468
 31
0.0
  0
LINE
  5
1BC
330
1F
100
AcDbEntity
  8
0-B_寸法
  6
Continuous
 62
   120
370
     5
100
AcDbLine
 10
3277.665811280948
 20
1090.500183105469
 30
0.0
 11
3671.665811280948
 21
1090.500183105469
 31
0.0
  0
ARC
  5
1BD
330
1F
100
AcDbEntity
  8
0-7
  6
Continuous
 62
    92
370
    13
100
AcDbCircle
 10
3703.665811280952
 20
2418.000183105469
 30
0.0
 40
1.0
100
AcDbArc
 50
90.0
 51
180.0
  0
LINE
  5
1BE
330
1F
100
AcDbEntity
  8
0-7
  6
Continuous
 62
    92
370
    13
100
AcDbLine
 10
3711.665811280949
 20
2419.000183105468
 30
0.0
 11
3703.665811280952
 21
2419.000183105468
 31
0.0
  0
ARC
  5
1BF
330
1F
100
AcDbEntity
  8
0-7
  6
Continuous
 62
    92
370
    13
100
AcDbCircle
 10
3711.665811280949
 20
2418.000183105469
 30
0.0
 40
1.0
100
AcDbArc
 50
0.0
 51
90.00000000000001
  0
LINE
  5
1C0
330
1F
100
AcDbEntity
  8
0-7
  6
Continuous
 62
    92
370
    13
100
AcDbLine
 10
3712.66581128095
 20
2286.000183105468
 30
0.0
 11
3712.66581128095
 21
2418.000183105469
 31
0.0
  0
ARC
  5
1C1
330
1F
100
AcDbEntity
  8
0-7
  6
Continuous
 62
    92
370
    13
100
AcDbCircle
 10
3711.665811280949
 20
2286.000183105468
 30
0.0
 40
1.0
100
AcDbArc
 50
270.0
 51
0.0
  0
LINE
  5
1C2
330
1F
100
AcDbEntity
  8
0-7
  6
Continuous
 62
    92
370
    13
100
AcDbLine
 10
3703.665811280952
 20
2285.000183105469
 30
0.0
 11
3711.665811280949
 21
2285.000183105469
 31
0.0
  0
LINE
  5
1C3
330
1F
100
AcDbEntity
  8
0-7
  6
Continuous
 62
    92
370
    13
100
AcDbLine
 10
3702.66581128095
 20
2286.000183105468
 30
0.0
 11
3702.66581128095
 21
2418.000183105469
 31
0.0
  0
ARC
  5
1C4
330
1F
100
AcDbEntity
  8
0-7
  6
Continuous
 62
    92
370
    13
100
AcDbCircle
 10
3703.665811280952
 20
2286.000183105468
 30
0.0
 40
1.0
100
AcDbArc
 50
180.0
 51
270.0
  0
LINE
  5
1C5
330
1F
100
AcDbEntity
  8
0-1_通り芯
  6
JWW_CENTER1
 62
   120
370
     5
100
AcDbLine
 10
3707.66581128095
 20
2429.000183105468
 30
0.0
 11
3707.66581128095
 21
2275.000183105467
 31
0.0
  0
LINE
  5
1C6
330
1F
100
AcDbEntity
  8
0-1_通り芯
  6
JWW_CENTER1
 62
   120
370
     5
100
AcDbLine
 10
3722.66581128095
 20
2352.000183105468
 30
0.0
 11
3692.665811280951
 21
2352.000183105468
 31
0.0
  0
ARC
  5
1C7
330
1F
100
AcDbEntity
  8
0-7
  6
Continuous
 62
     7
370
     9
100
AcDbCircle
 10
3702.66581128095
 20
2416.000183105468
 30
0.0
 40
1.0
100
AcDbArc
 50
90.0
 51
180.0
  0
ARC
  5
1C8
330
1F
100
AcDbEntity
  8
0-7
  6
Continuous
 62
     7
370
     9
100
AcDbCircle
 10
3712.66581128095
 20
2416.000183105468
 30
0.0
 40
1.0
100
AcDbArc
 50
0.0
 51
90.00000000000001
  0
LINE
  5
1C9
330
1F
100
AcDbEntity
  8
0-7
  6
Continuous
 62
     7
370
     9
100
AcDbLine
 10
3713.665811280951
 20
2398.000183105468
 30
0.0
 11
3713.665811280951
 21
2416.000183105468
 31
0.0
  0
ARC
  5
1CA
330
1F
100
AcDbEntity
  8
0-7
  6
Continuous
 62
     7
370
     9
100
AcDbCircle
 10
3712.66581128095
 20
2398.000183105468
 30
0.0
 40
1.0
100
AcDbArc
 50
270.0
 51
0.0
  0
LINE
  5
1CB
330
1F
100
AcDbEntity
  8
0-7
  6
Continuous
 62
     7
370
     9
100
AcDbLine
 10
3701.66581128095
 20
2398.000183105468
 30
0.0
 11
3701.66581128095
 21
2416.000183105468
 31
0.0
  0
ARC
  5
1CC
330
1F
100
AcDbEntity
  8
0-7
  6
Continuous
 62
     7
370
     9
100
AcDbCircle
 10
3702.66581128095
 20
2398.000183105468
 30
0.0
 40
1.0
100
AcDbArc
 50
180.0
 51
270.0
  0
ARC
  5
1CD
330
1F
100
AcDbEntity
  8
0-7
  6
Continuous
 62
     7
370
     9
100
AcDbCircle
 10
3702.66581128095
 20
2306.000183105467
 30
0.0
 40
1.0
100
AcDbArc
 50
90.0
 51
180.0
  0
ARC
  5
1CE
330
1F
100
AcDbEntity
  8
0-7
  6
Continuous
 62
     7
370
     9
100
AcDbCircle
 10
3712.66581128095
 20
2306.000183105467
 30
0.0
 40
1.0
100
AcDbArc
 50
0.0
 51
90.00000000000001
  0
LINE
  5
1CF
330
1F
100
AcDbEntity
  8
0-7
  6
Continuous
 62
     7
370
     9
100
AcDbLine
 10
3713.665811280951
 20
2288.000183105468
 30
0.0
 11
3713.665811280951
 21
2306.000183105467
 31
0.0
  0
ARC
  5
1D0
330
1F
100
AcDbEntity
  8
0-7
  6
Continuous
 62
     7
370
     9
100
AcDbCircle
 10
3712.66581128095
 20
2288.000183105468
 30
0.0
 40
1.0
100
AcDbArc
 50
270.0
 51
0.0
  0
LINE
  5
1D1
330
1F
100
AcDbEntity
  8
0-7
  6
Continuous
 62
     7
370
     9
100
AcDbLine
 10
3701.66581128095
 20
2288.000183105468
 30
0.0
 11
3701.66581128095
 21
2306.000183105467
 31
0.0
  0
ARC
  5
1D2
330
1F
100
AcDbEntity
  8
0-7
  6
Continuous
 62
     7
370
     9
100
AcDbCircle
 10
3702.66581128095
 20
2288.000183105468
 30
0.0
 40
1.0
100
AcDbArc
 50
180.0
 51
270.0
  0
LINE
  5
1D3
330
1F
100
AcDbEntity
  8
0-8
  6
Continuous
 62
    92
370
    13
100
AcDbLine
 10
3712.66581128095
 20
2419.000183105468
 30
0.0
 11
3702.66581128095
 21
2419.000183105468
 31
0.0
  0
LINE
  5
1D4
330
1F
100
AcDbEntity
  8
0-8
  6
Continuous
 62
    92
370
    13
100
AcDbLine
 10
3702.66581128095
 20
2285.000183105468
 30
0.0
 11
3712.66581128095
 21
2285.000183105468
 31
0.0
  0
LINE
  5
1D5
330
1F
100
AcDbEntity
  8
0-8
  6
Continuous
 62
    92
370
    13
100
AcDbLine
 10
3702.66581128095
 20
2419.000183105468
 30
0.0
 11
3702.66581128095
 21
2285.000183105468
 31
0.0
  0
LINE
  5
1D6
330
1F
100
AcDbEntity
  8
0-8
  6
Continuous
 62
    92
370
    13
100
AcDbLine
 10
3712.66581128095
 20
2419.000183105468
 30
0.0
 11
3712.66581128095
 21
2285.000183105468
 31
0.0
  0
ELLIPSE
  5
1D7
330
1F
100
AcDbEntity
  8
0-8
  6
Continuous
 62
     7
370
     9
100
AcDbEllipse
 10
3707.66581128095
 20
2419.000183105468
 30
0.0
 11
1.071530559594571E-15
 21
17.49999999999986
 31
0.0
210
0.0
220
0.0
230
1.0
 40
0.2857142857142857
 41
3.141592653589793
 42
4.71238898038469
  0
ELLIPSE
  5
1D8
330
1F
100
AcDbEntity
  8
0-8
  6
Continuous
 62
     7
370
     9
100
AcDbEllipse
 10
3707.66581128095
 20
2285.000183105468
 30
0.0
 11
1.071530559594571E-15
 21
17.49999999999986
 31
0.0
210
0.0
220
0.0
230
1.0
 40
0.2857142857142857
 41
0.0
 42
1.570796326794897
  0
ELLIPSE
  5
1D9
330
1F
100
AcDbEntity
  8
0-8
  6
Continuous
 62
     7
370
     9
100
AcDbEllipse
 10
3707.66581128095
 20
2285.000183105468
 30
0.0
 11
1.071530559594571E-15
 21
-17.49999999999986
 31
0.0
210
0.0
220
0.0
230
1.0
 40
0.2857142857142857
 41
1.570796326794897
 42
3.141592653589793
  0
ARC
  5
1DA
330
1F
100
AcDbEntity
  8
0-8
  6
Continuous
 62
     7
370
     9
100
AcDbCircle
 10
3702.66581128095
 20
2418.000183105468
 30
0.0
 40
1.0
100
AcDbArc
 50
90.0
 51
180.0
  0
LINE
  5
1DB
330
1F
100
AcDbEntity
  8
0-8
  6
Continuous
 62
     7
370
     9
100
AcDbLine
 10
3701.66581128095
 20
2402.500183105467
 30
0.0
 11
3701.66581128095
 21
2418.000183105468
 31
0.0
  0
ARC
  5
1DC
330
1F
100
AcDbEntity
  8
0-8
  6
Continuous
 62
     7
370
     9
100
AcDbCircle
 10
3702.66581128095
 20
2402.500183105467
 30
0.0
 40
1.0
100
AcDbArc
 50
180.0
 51
270.0
  0
ARC
  5
1DD
330
1F
100
AcDbEntity
  8
0-8
  6
Continuous
 62
     7
370
     9
100
AcDbCircle
 10
3712.66581128095
 20
2402.500183105467
 30
0.0
 40
1.0
100
AcDbArc
 50
270.0
 51
0.0
  0
LINE
  5
1DE
330
1F
100
AcDbEntity
  8
0-8
  6
Continuous
 62
     7
370
     9
100
AcDbLine
 10
3713.66581128095
 20
2402.500183105467
 30
0.0
 11
3713.66581128095
 21
2418.000183105468
 31
0.0
  0
ARC
  5
1DF
330
1F
100
AcDbEntity
  8
0-8
  6
Continuous
 62
     7
370
     9
100
AcDbCircle
 10
3712.66581128095
 20
2418.000183105468
 30
0.0
 40
1.0
100
AcDbArc
 50
0.0
 51
90.00000000000001
  0
ARC
  5
1E0
330
1F
100
AcDbEntity
  8
0-8
  6
Continuous
 62
     7
370
     9
100
AcDbCircle
 10
3702.66581128095
 20
2301.500183105468
 30
0.0
 40
1.0
100
AcDbArc
 50
90.0
 51
180.0
  0
LINE
  5
1E1
330
1F
100
AcDbEntity
  8
0-8
  6
Continuous
 62
     7
370
     9
100
AcDbLine
 10
3701.66581128095
 20
2286.000183105468
 30
0.0
 11
3701.66581128095
 21
2301.500183105468
 31
0.0
  0
ARC
  5
1E2
330
1F
100
AcDbEntity
  8
0-8
  6
Continuous
 62
     7
370
     9
100
AcDbCircle
 10
3712.66581128095
 20
2301.500183105468
 30
0.0
 40
1.0
100
AcDbArc
 50
0.0
 51
90.00000000000001
  0
LINE
  5
1E3
330
1F
100
AcDbEntity
  8
0-8
  6
Continuous
 62
     7
370
     9
100
AcDbLine
 10
3713.66581128095
 20
2286.000183105468
 30
0.0
 11
3713.66581128095
 21
2301.500183105468
 31
0.0
  0
ARC
  5
1E4
330
1F
100
AcDbEntity
  8
0-8
  6
Continuous
 62
     7
370
     9
100
AcDbCircle
 10
3712.66581128095
 20
2286.000183105468
 30
0.0
 40
1.0
100
AcDbArc
 50
270.0
 51
0.0
  0
ARC
  5
1E5
330
1F
100
AcDbEntity
  8
0-8
  6
Continuous
 62
     7
370
     9
100
AcDbCircle
 10
3702.66581128095
 20
2286.000183105468
 30
0.0
 40
1.0
100
AcDbArc
 50
180.0
 51
270.0
  0
ELLIPSE
  5
1E6
330
1F
100
AcDbEntity
  8
0-8
  6
Continuous
 62
     7
370
     9
100
AcDbEllipse
 10
3707.66581128095
 20
2419.000183105468
 30
0.0
 11
1.071530559594571E-15
 21
17.49999999999986
 31
0.0
210
0.0
220
0.0
230
1.0
 40
0.2857142857142857
 41
1.570796326794897
 42
3.141592653589793
  0
LINE
  5
1E7
330
1F
100
AcDbEntity
  8
0-2_扉
  6
Continuous
 62
    92
370
    13
100
AcDbLine
 10
3283.165811280948
 20
1402.000183105469
 30
0.0
 11
3671.665811280948
 21
1402.000183105469
 31
0.0
  0
LINE
  5
1E8
330
1F
100
AcDbEntity
  8
0-2_扉
  6
Continuous
 62
    92
370
    13
100
AcDbLine
 10
3672.66581128095
 20
1402.000183105469
 30
0.0
 11
4066.665811280951
 21
1402.000183105469
 31
0.0
  0
LINE
  5
1E9
330
1F
100
AcDbEntity
  8
0-2_扉
  6
Continuous
 62
    92
370
    13
100
AcDbLine
 10
4462.665811280947
 20
1402.000183105469
 30
0.0
 11
4068.665811280948
 21
1402.000183105469
 31
0.0
  0
ARC
  5
1EA
330
1F
100
AcDbEntity
  8
0-7
  6
Continuous
 62
    92
370
    13
100
AcDbCircle
 10
4494.665811280951
 20
2418.000183105469
 30
0.0
 40
1.0
100
AcDbArc
 50
90.0
 51
180.0
  0
LINE
  5
1EB
330
1F
100
AcDbEntity
  8
0-7
  6
Continuous
 62
    92
370
    13
100
AcDbLine
 10
4502.665811280949
 20
2419.000183105468
 30
0.0
 11
4494.665811280951
 21
2419.000183105468
 31
0.0
  0
ARC
  5
1EC
330
1F
100
AcDbEntity
  8
0-7
  6
Continuous
 62
    92
370
    13
100
AcDbCircle
 10
4502.665811280949
 20
2418.000183105469
 30
0.0
 40
1.0
100
AcDbArc
 50
0.0
 51
90.00000000000001
  0
LINE
  5
1ED
330
1F
100
AcDbEntity
  8
0-7
  6
Continuous
 62
    92
370
    13
100
AcDbLine
 10
4503.665811280949
 20
2286.000183105468
 30
0.0
 11
4503.665811280949
 21
2418.000183105469
 31
0.0
  0
ARC
  5
1EE
330
1F
100
AcDbEntity
  8
0-7
  6
Continuous
 62
    92
370
    13
100
AcDbCircle
 10
4502.665811280949
 20
2286.000183105468
 30
0.0
 40
1.0
100
AcDbArc
 50
270.0
 51
0.0
  0
LINE
  5
1EF
330
1F
100
AcDbEntity
  8
0-7
  6
Continuous
 62
    92
370
    13
100
AcDbLine
 10
4494.665811280951
 20
2285.000183105469
 30
0.0
 11
4502.665811280949
 21
2285.000183105469
 31
0.0
  0
LINE
  5
1F0
330
1F
100
AcDbEntity
  8
0-7
  6
Continuous
 62
    92
370
    13
100
AcDbLine
 10
4493.66581128095
 20
2286.000183105468
 30
0.0
 11
4493.66581128095
 21
2418.000183105469
 31
0.0
  0
ARC
  5
1F1
330
1F
100
AcDbEntity
  8
0-7
  6
Continuous
 62
    92
370
    13
100
AcDbCircle
 10
4494.665811280951
 20
2286.000183105468
 30
0.0
 40
1.0
100
AcDbArc
 50
180.0
 51
270.0
  0
LINE
  5
1F2
330
1F
100
AcDbEntity
  8
0-1_通り芯
  6
JWW_CENTER1
 62
   120
370
     5
100
AcDbLine
 10
4498.66581128095
 20
2429.000183105468
 30
0.0
 11
4498.66581128095
 21
2275.000183105467
 31
0.0
  0
LINE
  5
1F3
330
1F
100
AcDbEntity
  8
0-1_通り芯
  6
JWW_CENTER1
 62
   120
370
     5
100
AcDbLine
 10
4513.665811280949
 20
2352.000183105468
 30
0.0
 11
4483.665811280951
 21
2352.000183105468
 31
0.0
  0
ARC
  5
1F4
330
1F
100
AcDbEntity
  8
0-7
  6
Continuous
 62
     7
370
     9
100
AcDbCircle
 10
4493.66581128095
 20
2416.000183105468
 30
0.0
 40
1.0
100
AcDbArc
 50
90.0
 51
180.0
  0
ARC
  5
1F5
330
1F
100
AcDbEntity
  8
0-7
  6
Continuous
 62
     7
370
     9
100
AcDbCircle
 10
4503.665811280949
 20
2416.000183105468
 30
0.0
 40
1.0
100
AcDbArc
 50
0.0
 51
90.00000000000001
  0
LINE
  5
1F6
330
1F
100
AcDbEntity
  8
0-7
  6
Continuous
 62
     7
370
     9
100
AcDbLine
 10
4504.66581128095
 20
2398.000183105468
 30
0.0
 11
4504.66581128095
 21
2416.000183105468
 31
0.0
  0
ARC
  5
1F7
330
1F
100
AcDbEntity
  8
0-7
  6
Continuous
 62
     7
370
     9
100
AcDbCircle
 10
4503.665811280949
 20
2398.000183105468
 30
0.0
 40
1.0
100
AcDbArc
 50
270.0
 51
0.0
  0
LINE
  5
1F8
330
1F
100
AcDbEntity
  8
0-7
  6
Continuous
 62
     7
370
     9
100
AcDbLine
 10
4492.665811280949
 20
2398.000183105468
 30
0.0
 11
4492.665811280949
 21
2416.000183105468
 31
0.0
  0
ARC
  5
1F9
330
1F
100
AcDbEntity
  8
0-7
  6
Continuous
 62
     7
370
     9
100
AcDbCircle
 10
4493.66581128095
 20
2398.000183105468
 30
0.0
 40
1.0
100
AcDbArc
 50
180.0
 51
270.0
  0
ARC
  5
1FA
330
1F
100
AcDbEntity
  8
0-7
  6
Continuous
 62
     7
370
     9
100
AcDbCircle
 10
4493.66581128095
 20
2306.000183105467
 30
0.0
 40
1.0
100
AcDbArc
 50
90.0
 51
180.0
  0
ARC
  5
1FB
330
1F
100
AcDbEntity
  8
0-7
  6
Continuous
 62
     7
370
     9
100
AcDbCircle
 10
4503.665811280949
 20
2306.000183105467
 30
0.0
 40
1.0
100
AcDbArc
 50
0.0
 51
90.00000000000001
  0
LINE
  5
1FC
330
1F
100
AcDbEntity
  8
0-7
  6
Continuous
 62
     7
370
     9
100
AcDbLine
 10
4504.66581128095
 20
2288.000183105468
 30
0.0
 11
4504.66581128095
 21
2306.000183105467
 31
0.0
  0
ARC
  5
1FD
330
1F
100
AcDbEntity
  8
0-7
  6
Continuous
 62
     7
370
     9
100
AcDbCircle
 10
4503.665811280949
 20
2288.000183105468
 30
0.0
 40
1.0
100
AcDbArc
 50
270.0
 51
0.0
  0
LINE
  5
1FE
330
1F
100
AcDbEntity
  8
0-7
  6
Continuous
 62
     7
370
     9
100
AcDbLine
 10
4492.665811280949
 20
2288.000183105468
 30
0.0
 11
4492.665811280949
 21
2306.000183105467
 31
0.0
  0
ARC
  5
1FF
330
1F
100
AcDbEntity
  8
0-7
  6
Continuous
 62
     7
370
     9
100
AcDbCircle
 10
4493.66581128095
 20
2288.000183105468
 30
0.0
 40
1.0
100
AcDbArc
 50
180.0
 51
270.0
  0
LINE
  5
200
330
1F
100
AcDbEntity
  8
0-8
  6
Continuous
 62
    92
370
    13
100
AcDbLine
 10
4503.665811280949
 20
2419.000183105468
 30
0.0
 11
4493.66581128095
 21
2419.000183105468
 31
0.0
  0
LINE
  5
201
330
1F
100
AcDbEntity
  8
0-8
  6
Continuous
 62
    92
370
    13
100
AcDbLine
 10
4493.66581128095
 20
2285.000183105468
 30
0.0
 11
4503.665811280949
 21
2285.000183105468
 31
0.0
  0
LINE
  5
202
330
1F
100
AcDbEntity
  8
0-8
  6
Continuous
 62
    92
370
    13
100
AcDbLine
 10
4493.66581128095
 20
2419.000183105468
 30
0.0
 11
4493.66581128095
 21
2285.000183105468
 31
0.0
  0
LINE
  5
203
330
1F
100
AcDbEntity
  8
0-8
  6
Continuous
 62
    92
370
    13
100
AcDbLine
 10
4503.665811280949
 20
2419.000183105468
 30
0.0
 11
4503.665811280949
 21
2285.000183105468
 31
0.0
  0
ELLIPSE
  5
204
330
1F
100
AcDbEntity
  8
0-8
  6
Continuous
 62
     7
370
     9
100
AcDbEllipse
 10
4498.66581128095
 20
2419.000183105468
 30
0.0
 11
1.071530559594571E-15
 21
17.49999999999986
 31
0.0
210
0.0
220
0.0
230
1.0
 40
0.2857142857142857
 41
3.141592653589793
 42
4.71238898038469
  0
ELLIPSE
  5
205
330
1F
100
AcDbEntity
  8
0-8
  6
Continuous
 62
     7
370
     9
100
AcDbEllipse
 10
4498.66581128095
 20
2285.000183105468
 30
0.0
 11
1.071530559594571E-15
 21
17.49999999999986
 31
0.0
210
0.0
220
0.0
230
1.0
 40
0.2857142857142857
 41
0.0
 42
1.570796326794897
  0
ELLIPSE
  5
206
330
1F
100
AcDbEntity
  8
0-8
  6
Continuous
 62
     7
370
     9
100
AcDbEllipse
 10
4498.66581128095
 20
2285.000183105468
 30
0.0
 11
1.071530559594571E-15
 21
-17.49999999999986
 31
0.0
210
0.0
220
0.0
230
1.0
 40
0.2857142857142857
 41
1.570796326794897
 42
3.141592653589793
  0
ARC
  5
207
330
1F
100
AcDbEntity
  8
0-8
  6
Continuous
 62
     7
370
     9
100
AcDbCircle
 10
4493.66581128095
 20
2418.000183105468
 30
0.0
 40
1.0
100
AcDbArc
 50
90.0
 51
180.0
  0
LINE
  5
208
330
1F
100
AcDbEntity
  8
0-8
  6
Continuous
 62
     7
370
     9
100
AcDbLine
 10
4492.66581128095
 20
2402.500183105467
 30
0.0
 11
4492.66581128095
 21
2418.000183105468
 31
0.0
  0
ARC
  5
209
330
1F
100
AcDbEntity
  8
0-8
  6
Continuous
 62
     7
370
     9
100
AcDbCircle
 10
4493.66581128095
 20
2402.500183105467
 30
0.0
 40
1.0
100
AcDbArc
 50
180.0
 51
270.0
  0
ARC
  5
20A
330
1F
100
AcDbEntity
  8
0-8
  6
Continuous
 62
     7
370
     9
100
AcDbCircle
 10
4503.665811280949
 20
2402.500183105467
 30
0.0
 40
1.0
100
AcDbArc
 50
270.0
 51
0.0
  0
LINE
  5
20B
330
1F
100
AcDbEntity
  8
0-8
  6
Continuous
 62
     7
370
     9
100
AcDbLine
 10
4504.665811280949
 20
2402.500183105467
 30
0.0
 11
4504.665811280949
 21
2418.000183105468
 31
0.0
  0
ARC
  5
20C
330
1F
100
AcDbEntity
  8
0-8
  6
Continuous
 62
     7
370
     9
100
AcDbCircle
 10
4503.665811280949
 20
2418.000183105468
 30
0.0
 40
1.0
100
AcDbArc
 50
0.0
 51
90.00000000000001
  0
ARC
  5
20D
330
1F
100
AcDbEntity
  8
0-8
  6
Continuous
 62
     7
370
     9
100
AcDbCircle
 10
4493.66581128095
 20
2301.500183105468
 30
0.0
 40
1.0
100
AcDbArc
 50
90.0
 51
180.0
  0
LINE
  5
20E
330
1F
100
AcDbEntity
  8
0-8
  6
Continuous
 62
     7
370
     9
100
AcDbLine
 10
4492.66581128095
 20
2286.000183105468
 30
0.0
 11
4492.66581128095
 21
2301.500183105468
 31
0.0
  0
ARC
  5
20F
330
1F
100
AcDbEntity
  8
0-8
  6
Continuous
 62
     7
370
     9
100
AcDbCircle
 10
4503.665811280949
 20
2301.500183105468
 30
0.0
 40
1.0
100
AcDbArc
 50
0.0
 51
90.00000000000001
  0
LINE
  5
210
330
1F
100
AcDbEntity
  8
0-8
  6
Continuous
 62
     7
370
     9
100
AcDbLine
 10
4504.665811280949
 20
2286.000183105468
 30
0.0
 11
4504.665811280949
 21
2301.500183105468
 31
0.0
  0
ARC
  5
211
330
1F
100
AcDbEntity
  8
0-8
  6
Continuous
 62
     7
370
     9
100
AcDbCircle
 10
4503.665811280949
 20
2286.000183105468
 30
0.0
 40
1.0
100
AcDbArc
 50
270.0
 51
0.0
  0
ARC
  5
212
330
1F
100
AcDbEntity
  8
0-8
  6
Continuous
 62
     7
370
     9
100
AcDbCircle
 10
4493.66581128095
 20
2286.000183105468
 30
0.0
 40
1.0
100
AcDbArc
 50
180.0
 51
270.0
  0
ELLIPSE
  5
213
330
1F
100
AcDbEntity
  8
0-8
  6
Continuous
 62
     7
370
     9
100
AcDbEllipse
 10
4498.66581128095
 20
2419.000183105468
 30
0.0
 11
1.071530559594571E-15
 21
17.49999999999986
 31
0.0
210
0.0
220
0.0
230
1.0
 40
0.2857142857142857
 41
1.570796326794897
 42
3.141592653589793
  0
LINE
  5
214
330
1F
100
AcDbEntity
  8
0-2_扉
  6
JWW_DASHED1
 62
   120
370
     5
100
AcDbLine
 10
4846.165811280948
 20
1402.000183105469
 30
0.0
 11
4857.665811280951
 21
1402.000183105469
 31
0.0
  0
LINE
  5
215
330
1F
100
AcDbEntity
  8
0-2_扉
  6
Continuous
 62
    92
370
    13
100
AcDbLine
 10
4463.66581128095
 20
1402.000183105469
 30
0.0
 11
4846.165811280948
 21
1402.000183105469
 31
0.0
  0
LWPOLYLINE
  5
216
330
1F
100
AcDbEntity
  8
0-B_寸法
  6
Continuous
 62
     7
370
     9
100
AcDbPolyline
 90
        4
 70
     1
 43
3.0
 10
2960.665811280948
 20
3747.000183105469
 42
0.4142135623731
 10
2959.165811280948
 20
3748.500183105469
 42
0.4142135623731
 10
2957.665811280948
 20
3747.000183105469
 42
0.4142135623731
 10
2959.165811280948
 20
3745.500183105469
 42
0.4142135623731
  0
LINE
  5
217
330
1F
100
AcDbEntity
  8
0-B_寸法
  6
Continuous
 62
   120
370
     5
100
AcDbLine
 10
2959.165811280948
 20
3747.000183105469
 30
0.0
 11
3209.165811280947
 21
3747.000183105469
 31
0.0
  0
LINE
  5
218
330
1F
100
AcDbEntity
  8
0-B_寸法
  6
Continuous
 62
   120
370
     5
100
AcDbLine
 10
2959.165811280948
 20
3747.000183105469
 30
0.0
 11
2959.165811280948
 21
1402.000183105469
 31
0.0
  0
LINE
  5
219
330
1F
100
AcDbEntity
  8
0-4_枠
  6
Continuous
 62
    92
370
    13
100
AcDbLine
 10
3259.165811280948
 20
1390.500183105469
 30
0.0
 11
3259.165811280948
 21
3790.500183105469
 31
0.0
  0
LINE
  5
21A
330
1F
100
AcDbEntity
  8
0-4_枠
  6
Continuous
 62
    92
370
    13
100
AcDbLine
 10
3283.165811280948
 20
1390.500183105469
 30
0.0
 11
3283.165811280948
 21
3754.500183105469
 31
0.0
  0
LINE
  5
21B
330
1F
100
AcDbEntity
  8
0-4_枠
  6
Continuous
 62
    92
370
    13
100
AcDbLine
 10
3259.165811280948
 20
3790.500183105469
 30
0.0
 11
4876.165811280948
 21
3790.500183105469
 31
0.0
  0
LINE
  5
21C
330
1F
100
AcDbEntity
  8
0-4_枠
  6
Continuous
 62
    92
370
    13
100
AcDbLine
 10
3283.165811280948
 20
3754.500183105469
 30
0.0
 11
4846.165811280948
 21
3754.500183105469
 31
0.0
  0
LINE
  5
21D
330
1F
100
AcDbEntity
  8
0-4_枠
  6
Continuous
 62
    92
370
    13
100
AcDbLine
 10
4846.165811280948
 20
1390.500183105469
 30
0.0
 11
4846.165811280948
 21
3754.500183105469
 31
0.0
  0
LINE
  5
21E
330
1F
100
AcDbEntity
  8
0-4_枠
  6
Continuous
 62
    92
370
    13
100
AcDbLine
 10
4876.165811280948
 20
1390.500183105469
 30
0.0
 11
4876.165811280948
 21
3790.500183105469
 31
0.0
  0
LINE
  5
21F
330
1F
100
AcDbEntity
  8
0-2_扉
  6
JWW_DASHED1
 62
   120
370
     5
100
AcDbLine
 10
3277.665811280948
 20
1402.000183105469
 30
0.0
 11
3277.665811280948
 21
3747.000183105469
 31
0.0
  0
LINE
  5
220
330
1F
100
AcDbEntity
  8
0-3_仕上げ
  6
Continuous
 62
     7
370
     9
100
AcDbLine
 10
3298.665811280948
 20
1402.000183105469
 30
0.0
 11
3298.665811280948
 21
3747.000183105469
 31
0.0
  0
LINE
  5
221
330
1F
100
AcDbEntity
  8
0-2_扉
  6
JWW_DASHED1
 62
   120
370
     5
100
AcDbLine
 10
3283.165811280948
 20
3747.000183105469
 30
0.0
 11
3277.665811280948
 21
3747.000183105469
 31
0.0
  0
LINE
  5
222
330
1F
100
AcDbEntity
  8
0-2_扉
  6
Continuous
 62
    92
370
    13
100
AcDbLine
 10
3671.665811280948
 20
1402.000183105469
 30
0.0
 11
3671.665811280948
 21
3747.000183105469
 31
0.0
  0
LINE
  5
223
330
1F
100
AcDbEntity
  8
0-2_扉
  6
Continuous
 62
    92
370
    13
100
AcDbLine
 10
3672.66581128095
 20
1402.000183105469
 30
0.0
 11
3672.66581128095
 21
3747.000183105469
 31
0.0
  0
LINE
  5
224
330
1F
100
AcDbEntity
  8
0-3_仕上げ
  6
Continuous
 62
     7
370
     9
100
AcDbLine
 10
3650.665811280949
 20
1402.000183105469
 30
0.0
 11
3650.665811280949
 21
3747.000183105469
 31
0.0
  0
LINE
  5
225
330
1F
100
AcDbEntity
  8
0-3_仕上げ
  6
Continuous
 62
     7
370
     9
100
AcDbLine
 10
3693.66581128095
 20
1402.000183105469
 30
0.0
 11
3693.66581128095
 21
3747.000183105469
 31
0.0
  0
LINE
  5
226
330
1F
100
AcDbEntity
  8
0-2_扉
  6
Continuous
 62
    92
370
    13
100
AcDbLine
 10
3283.165811280948
 20
3747.000183105469
 30
0.0
 11
3671.665811280948
 21
3747.000183105469
 31
0.0
  0
LINE
  5
227
330
1F
100
AcDbEntity
  8
0-2_扉
  6
Continuous
 62
    92
370
    13
100
AcDbLine
 10
3672.66581128095
 20
3747.000183105469
 30
0.0
 11
4066.665811280951
 21
3747.000183105469
 31
0.0
  0
LINE
  5
228
330
1F
100
AcDbEntity
  8
0-2_扉
  6
Continuous
 62
    92
370
    13
100
AcDbLine
 10
4066.665811280951
 20
1402.000183105469
 30
0.0
 11
4066.665811280951
 21
3747.000183105469
 31
0.0
  0
LINE
  5
229
330
1F
100
AcDbEntity
  8
0-3_仕上げ
  6
Continuous
 62
     7
370
     9
100
AcDbLine
 10
4045.665811280951
 20
1402.000183105469
 30
0.0
 11
4045.665811280951
 21
3747.000183105469
 31
0.0
  0
LINE
  5
22A
330
1F
100
AcDbEntity
  8
0-2_扉
  6
Continuous
 62
    92
370
    13
100
AcDbLine
 10
4068.665811280948
 20
1402.000183105469
 30
0.0
 11
4068.665811280948
 21
3747.000183105469
 31
0.0
  0
LINE
  5
22B
330
1F
100
AcDbEntity
  8
0-3_仕上げ
  6
Continuous
 62
     7
370
     9
100
AcDbLine
 10
4089.665811280947
 20
1402.000183105469
 30
0.0
 11
4089.665811280947
 21
3747.000183105469
 31
0.0
  0
LINE
  5
22C
330
1F
100
AcDbEntity
  8
0-2_扉
  6
Continuous
 62
    92
370
    13
100
AcDbLine
 10
4462.665811280947
 20
3747.000183105469
 30
0.0
 11
4068.665811280948
 21
3747.000183105469
 31
0.0
  0
LINE
  5
22D
330
1F
100
AcDbEntity
  8
0-2_扉
  6
Continuous
 62
    92
370
    13
100
AcDbLine
 10
4462.665811280947
 20
1402.000183105469
 30
0.0
 11
4462.665811280947
 21
3747.000183105469
 31
0.0
  0
LINE
  5
22E
330
1F
100
AcDbEntity
  8
0-2_扉
  6
Continuous
 62
    92
370
    13
100
AcDbLine
 10
4463.66581128095
 20
1402.000183105469
 30
0.0
 11
4463.66581128095
 21
3747.000183105469
 31
0.0
  0
LINE
  5
22F
330
1F
100
AcDbEntity
  8
0-3_仕上げ
  6
Continuous
 62
     7
370
     9
100
AcDbLine
 10
4441.665811280949
 20
1402.000183105469
 30
0.0
 11
4441.665811280949
 21
3747.000183105469
 31
0.0
  0
LINE
  5
230
330
1F
100
AcDbEntity
  8
0-3_仕上げ
  6
Continuous
 62
     7
370
     9
100
AcDbLine
 10
4484.665811280949
 20
1402.000183105469
 30
0.0
 11
4484.665811280949
 21
3747.000183105469
 31
0.0
  0
LINE
  5
231
330
1F
100
AcDbEntity
  8
0-2_扉
  6
JWW_DASHED1
 62
   120
370
     5
100
AcDbLine
 10
4857.665811280951
 20
1402.000183105469
 30
0.0
 11
4857.665811280951
 21
3747.000183105469
 31
0.0
  0
LINE
  5
232
330
1F
100
AcDbEntity
  8
0-3_仕上げ
  6
Continuous
 62
     7
370
     9
100
AcDbLine
 10
4836.665811280952
 20
1402.000183105469
 30
0.0
 11
4836.665811280952
 21
3747.000183105469
 31
0.0
  0
LINE
  5
233
330
1F
100
AcDbEntity
  8
0-2_扉
  6
JWW_DASHED1
 62
   120
370
     5
100
AcDbLine
 10
4846.165811280948
 20
3747.000183105469
 30
0.0
 11
4857.665811280951
 21
3747.000183105469
 31
0.0
  0
LINE
  5
234
330
1F
100
AcDbEntity
  8
0-2_扉
  6
Continuous
 62
    92
370
    13
100
AcDbLine
 10
4463.66581128095
 20
3747.000183105469
 30
0.0
 11
4846.165811280948
 21
3747.000183105469
 31
0.0
  0
MTEXT
  5
235
330
1F
100
AcDbEntity
  8
0-B_寸法
  6
Continuous
 62
     7
370
   211
100
AcDbMText
 10
2944.165811280948
 20
2273.735637650924
 30
0.0
 40
78.97090909090909
 41
570.0
 46
0.0
 71
     7
 72
     1
  1
{\fＭＳ ゴシック|b0|i0|c128|p49;ＤＨ＝2,345}
 11
6.123031769111886E-17
 21
1.0
 31
0.0
 73
     1
 44
1.0
  0
MTEXT
  5
236
330
1F
100
AcDbEntity
  8
0-B_寸法
  6
Continuous
 62
     7
370
   211
100
AcDbMText
 10
3703.364677845183
 20
1210.221128790137
 30
0.0
 40
68.58
 41
45.0
 46
0.0
 71
     7
 72
     1
  1
{\fＭＳ ゴシック|b0|i0|c128|p49;1}
 73
     1
 44
1.0
  0
MTEXT
  5
237
330
1F
100
AcDbEntity
  8
0-B_寸法
  6
Continuous
 62
     7
370
   211
100
AcDbMText
 10
3399.665811280948
 20
1098.600183105469
 30
0.0
 40
76.19999999999999
 41
150.0
 46
0.0
 71
     7
 72
     1
  1
{\fＭＳ ゴシック|b0|i0|c128|p49;394}
 73
     1
 44
1.0
  0
MTEXT
  5
238
330
1F
100
AcDbEntity
  8
0-B_寸法
  6
Continuous
 62
     7
370
   211
100
AcDbMText
 10
3794.66581128095
 20
1098.600183105469
 30
0.0
 40
76.19999999999999
 41
150.0
 46
0.0
 71
     7
 72
     1
  1
{\fＭＳ ゴシック|b0|i0|c128|p49;394}
 73
     1
 44
1.0
  0
MTEXT
  5
239
330
1F
100
AcDbEntity
  8
0-B_寸法
  6
Continuous
 62
     7
370
   211
100
AcDbMText
 10
4098.864677845184
 20
1010.221128790137
 30
0.0
 40
68.58
 41
45.0
 46
0.0
 71
     7
 72
     1
  1
{\fＭＳ ゴシック|b0|i0|c128|p49;2}
 73
     1
 44
1.0
  0
MTEXT
  5
23A
330
1F
100
AcDbEntity
  8
0-B_寸法
  6
Continuous
 62
     7
370
   211
100
AcDbMText
 10
3439.665811280948
 20
899.8701831054684
 30
0.0
 40
78.74000000000001
 41
465.0
 46
0.0
 71
     7
 72
     1
  1
{\fＭＳ ゴシック|b0|i0|c128|p49;ＤＷ＝789}
 73
     1
 44
1.0
  0
MTEXT
  5
23B
330
1F
100
AcDbEntity
  8
0-B_寸法
  6
Continuous
 62
     7
370
   211
100
AcDbMText
 10
4230.665811280949
 20
899.8701831054684
 30
0.0
 40
78.74000000000001
 41
465.0
 46
0.0
 71
     7
 72
     1
  1
{\fＭＳ ゴシック|b0|i0|c128|p49;ＤＷ＝789}
 73
     1
 44
1.0
  0
LWPOLYLINE
  5
23C
330
1F
100
AcDbEntity
  8
0-B_寸法
  6
Continuous
 62
     7
370
     9
100
AcDbPolyline
 90
        4
 70
     1
 43
3.0
 10
-4042.500144082146
 20
-2578.500179909371
 42
0.4142135623731
 10
-4044.000144082147
 20
-2577.000179909371
 42
0.4142135623731
 10
-4045.500144082147
 20
-2578.500179909371
 42
0.4142135623731
 10
-4044.000144082147
 20
-2580.000179909371
 42
0.4142135623731
  0
LINE
  5
23D
330
1F
100
AcDbEntity
  8
0-B_寸法
  6
Continuous
 62
   120
370
     5
100
AcDbLine
 10
-4044.000144082147
 20
-2578.500179909371
 30
0.0
 11
-3794.000144082147
 21
-2578.500179909371
 31
0.0
  0
LINE
  5
23E
330
1F
100
AcDbEntity
  8
0-2_扉
  6
JWW_DASHED1
 62
   120
370
     5
100
AcDbLine
 10
-3720.000144082146
 20
-2578.500179909371
 30
0.0
 11
-3725.500144082146
 21
-2578.500179909371
 31
0.0
  0
LWPOLYLINE
  5
23F
330
1F
100
AcDbEntity
  8
0-B_寸法
  6
Continuous
 62
     7
370
     9
100
AcDbPolyline
 90
        4
 70
     1
 43
3.0
 10
-3724.000144082146
 20
-2890.000179909371
 42
0.4142135623731
 10
-3725.500144082146
 20
-2888.500179909371
 42
0.4142135623731
 10
-3727.000144082146
 20
-2890.000179909371
 42
0.4142135623731
 10
-3725.500144082146
 20
-2891.500179909371
 42
0.4142135623731
  0
LWPOLYLINE
  5
240
330
1F
100
AcDbEntity
  8
0-B_寸法
  6
Continuous
 62
     7
370
     9
100
AcDbPolyline
 90
        4
 70
     1
 43
3.0
 10
-3724.000144082146
 20
-3090.000179909371
 42
0.4142135623731
 10
-3725.500144082146
 20
-3088.500179909371
 42
0.4142135623731
 10
-3727.000144082146
 20
-3090.000179909371
 42
0.4142135623731
 10
-3725.500144082146
 20
-3091.500179909371
 42
0.4142135623731
  0
LINE
  5
241
330
1F
100
AcDbEntity
  8
0-B_寸法
  6
Continuous
 62
   120
370
     5
100
AcDbLine
 10
-3725.500144082146
 20
-3090.000179909371
 30
0.0
 11
-3725.500144082146
 21
-2640.000179909371
 31
0.0
  0
LWPOLYLINE
  5
242
330
1F
100
AcDbEntity
  8
0-B_寸法
  6
Continuous
 62
     7
370
     9
100
AcDbPolyline
 90
        4
 70
     1
 43
3.0
 10
-4042.500144082146
 20
-233.5001799093708
 42
0.4142135623731
 10
-4044.000144082147
 20
-232.0001799093708
 42
0.4142135623731
 10
-4045.500144082147
 20
-233.5001799093708
 42
0.4142135623731
 10
-4044.000144082147
 20
-235.0001799093708
 42
0.4142135623731
  0
LINE
  5
243
330
1F
100
AcDbEntity
  8
0-B_寸法
  6
Continuous
 62
   120
370
     5
100
AcDbLine
 10
-4044.000144082147
 20
-233.5001799093708
 30
0.0
 11
-3794.000144082147
 21
-233.5001799093708
 31
0.0
  0
LINE
  5
244
330
1F
100
AcDbEntity
  8
0-B_寸法
  6
Continuous
 62
   120
370
     5
100
AcDbLine
 10
-4044.000144082147
 20
-233.5001799093708
 30
0.0
 11
-4044.000144082147
 21
-2578.500179909371
 31
0.0
  0
LINE
  5
245
330
1F
100
AcDbEntity
  8
0-4_枠
  6
Continuous
 62
    92
370
    13
100
AcDbLine
 10
-3744.000144082147
 20
-2590.000179909371
 30
0.0
 11
-3744.000144082147
 21
-190.0001799093711
 31
0.0
  0
LINE
  5
246
330
1F
100
AcDbEntity
  8
0-4_枠
  6
Continuous
 62
    92
370
    13
100
AcDbLine
 10
-3720.000144082146
 20
-2590.000179909371
 30
0.0
 11
-3720.000144082146
 21
-226.0001799093708
 31
0.0
  0
LINE
  5
247
330
1F
100
AcDbEntity
  8
0-2_扉
  6
JWW_DASHED1
 62
   120
370
     5
100
AcDbLine
 10
-3725.500144082146
 20
-2578.500179909371
 30
0.0
 11
-3725.500144082146
 21
-233.5001799093708
 31
0.0
  0
LINE
  5
248
330
1F
100
AcDbEntity
  8
0-3_仕上げ
  6
Continuous
 62
     7
370
     9
100
AcDbLine
 10
-3704.500144082147
 20
-2578.500179909371
 30
0.0
 11
-3704.500144082147
 21
-233.5001799093708
 31
0.0
  0
LINE
  5
249
330
1F
100
AcDbEntity
  8
0-2_扉
  6
JWW_DASHED1
 62
   120
370
     5
100
AcDbLine
 10
-3720.000144082146
 20
-233.5001799093708
 30
0.0
 11
-3725.500144082146
 21
-233.5001799093708
 31
0.0
  0
LINE
  5
24A
330
1F
100
AcDbEntity
  8
0-4_枠
  6
Continuous
 62
    92
370
    13
100
AcDbLine
 10
-3744.000144082147
 20
-2590.000179909371
 30
0.0
 11
-1204.000144082146
 21
-2590.000179909371
 31
0.0
  0
LINE
  5
24B
330
1F
100
AcDbEntity
  8
0-2_扉
  6
JWW_DASHED1
 62
   120
370
     5
100
AcDbLine
 10
-1234.000144082146
 20
-2578.500179909371
 30
0.0
 11
-1222.500144082144
 21
-2578.500179909371
 31
0.0
  0
LINE
  5
24C
330
1F
100
AcDbEntity
  8
0-4_枠
  6
Continuous
 62
    92
370
    13
100
AcDbLine
 10
-3744.000144082147
 20
-190.0001799093711
 30
0.0
 11
-1204.000144082146
 21
-190.0001799093711
 31
0.0
  0
LINE
  5
24D
330
1F
100
AcDbEntity
  8
0-4_枠
  6
Continuous
 62
    92
370
    13
100
AcDbLine
 10
-3720.000144082146
 20
-226.0001799093708
 30
0.0
 11
-1234.000144082146
 21
-226.0001799093708
 31
0.0
  0
LINE
  5
24E
330
1F
100
AcDbEntity
  8
0-4_枠
  6
Continuous
 62
    92
370
    13
100
AcDbLine
 10
-1234.000144082146
 20
-2590.000179909371
 30
0.0
 11
-1234.000144082146
 21
-226.0001799093708
 31
0.0
  0
LINE
  5
24F
330
1F
100
AcDbEntity
  8
0-4_枠
  6
Continuous
 62
    92
370
    13
100
AcDbLine
 10
-1204.000144082146
 20
-2590.000179909371
 30
0.0
 11
-1204.000144082146
 21
-190.0001799093711
 31
0.0
  0
LINE
  5
250
330
1F
100
AcDbEntity
  8
0-2_扉
  6
JWW_DASHED1
 62
   120
370
     5
100
AcDbLine
 10
-1222.500144082144
 20
-2578.500179909371
 30
0.0
 11
-1222.500144082144
 21
-233.5001799093708
 31
0.0
  0
LINE
  5
251
330
1F
100
AcDbEntity
  8
0-3_仕上げ
  6
Continuous
 62
     7
370
     9
100
AcDbLine
 10
-1243.500144082143
 20
-2578.500179909371
 30
0.0
 11
-1243.500144082143
 21
-233.5001799093708
 31
0.0
  0
LINE
  5
252
330
1F
100
AcDbEntity
  8
0-2_扉
  6
JWW_DASHED1
 62
   120
370
     5
100
AcDbLine
 10
-1234.000144082146
 20
-233.5001799093708
 30
0.0
 11
-1222.500144082144
 21
-233.5001799093708
 31
0.0
  0
LWPOLYLINE
  5
253
330
1F
100
AcDbEntity
  8
0-B_寸法
  6
Continuous
 62
     7
370
     9
100
AcDbPolyline
 90
        4
 70
     1
 43
3.0
 10
-3307.000144082145
 20
-2890.000179909371
 42
0.4142135623731
 10
-3308.500144082145
 20
-2888.500179909371
 42
0.4142135623731
 10
-3310.000144082145
 20
-2890.000179909371
 42
0.4142135623731
 10
-3308.500144082145
 20
-2891.500179909371
 42
0.4142135623731
  0
LWPOLYLINE
  5
254
330
1F
100
AcDbEntity
  8
0-B_寸法
  6
Continuous
 62
     7
370
     9
100
AcDbPolyline
 90
        4
 70
     1
 43
3.0
 10
-3308.000144082146
 20
-2890.000179909371
 42
0.4142135623731
 10
-3309.500144082146
 20
-2888.500179909371
 42
0.4142135623731
 10
-3311.000144082146
 20
-2890.000179909371
 42
0.4142135623731
 10
-3309.500144082146
 20
-2891.500179909371
 42
0.4142135623731
  0
LINE
  5
255
330
1F
100
AcDbEntity
  8
0-B_寸法
  6
Continuous
 62
   120
370
     5
100
AcDbLine
 10
-3274.051277517911
 20
-2759.569234224703
 30
0.0
 11
-3223.268209444462
 21
-2759.569234224703
 31
0.0
  0
LINE
  5
256
330
1F
100
AcDbEntity
  8
0-B_寸法
  6
Continuous
 62
   120
370
     5
100
AcDbLine
 10
-3309.000144082146
 20
-2890.000179909371
 30
0.0
 11
-3274.051277517911
 21
-2759.569234224703
 31
0.0
  0
LINE
  5
257
330
1F
100
AcDbEntity
  8
0-B_寸法
  6
Continuous
 62
   120
370
     5
100
AcDbLine
 10
-3308.500144082145
 20
-2890.000179909371
 30
0.0
 11
-3308.500144082145
 21
-2640.000179909371
 31
0.0
  0
LINE
  5
258
330
1F
100
AcDbEntity
  8
0-B_寸法
  6
Continuous
 62
   120
370
     5
100
AcDbLine
 10
-3309.500144082146
 20
-2890.000179909371
 30
0.0
 11
-3308.500144082145
 21
-2890.000179909371
 31
0.0
  0
LINE
  5
259
330
1F
100
AcDbEntity
  8
0-B_寸法
  6
Continuous
 62
   120
370
     5
100
AcDbLine
 10
-3309.500144082146
 20
-2890.000179909371
 30
0.0
 11
-3309.500144082146
 21
-2640.000179909371
 31
0.0
  0
LINE
  5
25A
330
1F
100
AcDbEntity
  8
0-B_寸法
  6
Continuous
 62
   120
370
     5
100
AcDbLine
 10
-3725.500144082146
 20
-2890.000179909371
 30
0.0
 11
-3309.500144082146
 21
-2890.000179909371
 31
0.0
  0
ARC
  5
25B
330
1F
100
AcDbEntity
  8
0-7
  6
Continuous
 62
    92
370
    13
100
AcDbCircle
 10
-3277.500144082142
 20
-1562.500179909371
 30
0.0
 40
1.0
100
AcDbArc
 50
90.0
 51
180.0
  0
LINE
  5
25C
330
1F
100
AcDbEntity
  8
0-7
  6
Continuous
 62
    92
370
    13
100
AcDbLine
 10
-3269.500144082145
 20
-1561.500179909372
 30
0.0
 11
-3277.500144082142
 21
-1561.500179909372
 31
0.0
  0
ARC
  5
25D
330
1F
100
AcDbEntity
  8
0-7
  6
Continuous
 62
    92
370
    13
100
AcDbCircle
 10
-3269.500144082145
 20
-1562.500179909371
 30
0.0
 40
1.0
100
AcDbArc
 50
0.0
 51
90.00000000000001
  0
LINE
  5
25E
330
1F
100
AcDbEntity
  8
0-7
  6
Continuous
 62
    92
370
    13
100
AcDbLine
 10
-3268.500144082144
 20
-1694.500179909372
 30
0.0
 11
-3268.500144082144
 21
-1562.500179909371
 31
0.0
  0
ARC
  5
25F
330
1F
100
AcDbEntity
  8
0-7
  6
Continuous
 62
    92
370
    13
100
AcDbCircle
 10
-3269.500144082145
 20
-1694.500179909372
 30
0.0
 40
1.0
100
AcDbArc
 50
270.0
 51
0.0
  0
LINE
  5
260
330
1F
100
AcDbEntity
  8
0-7
  6
Continuous
 62
    92
370
    13
100
AcDbLine
 10
-3277.500144082142
 20
-1695.500179909371
 30
0.0
 11
-3269.500144082145
 21
-1695.500179909371
 31
0.0
  0
LINE
  5
261
330
1F
100
AcDbEntity
  8
0-7
  6
Continuous
 62
    92
370
    13
100
AcDbLine
 10
-3278.500144082143
 20
-1694.500179909372
 30
0.0
 11
-3278.500144082143
 21
-1562.500179909371
 31
0.0
  0
ARC
  5
262
330
1F
100
AcDbEntity
  8
0-7
  6
Continuous
 62
    92
370
    13
100
AcDbCircle
 10
-3277.500144082142
 20
-1694.500179909372
 30
0.0
 40
1.0
100
AcDbArc
 50
180.0
 51
270.0
  0
LINE
  5
263
330
1F
100
AcDbEntity
  8
0-1_通り芯
  6
JWW_CENTER1
 62
   120
370
     5
100
AcDbLine
 10
-3273.500144082144
 20
-1551.500179909371
 30
0.0
 11
-3273.500144082144
 21
-1705.500179909372
 31
0.0
  0
LINE
  5
264
330
1F
100
AcDbEntity
  8
0-1_通り芯
  6
JWW_CENTER1
 62
   120
370
     5
100
AcDbLine
 10
-3258.500144082145
 20
-1628.500179909371
 30
0.0
 11
-3288.500144082143
 21
-1628.500179909371
 31
0.0
  0
ARC
  5
265
330
1F
100
AcDbEntity
  8
0-7
  6
Continuous
 62
     7
370
     9
100
AcDbCircle
 10
-3278.500144082143
 20
-1564.500179909371
 30
0.0
 40
1.0
100
AcDbArc
 50
90.0
 51
180.0
  0
ARC
  5
266
330
1F
100
AcDbEntity
  8
0-7
  6
Continuous
 62
     7
370
     9
100
AcDbCircle
 10
-3268.500144082144
 20
-1564.500179909371
 30
0.0
 40
1.0
100
AcDbArc
 50
0.0
 51
90.00000000000001
  0
LINE
  5
267
330
1F
100
AcDbEntity
  8
0-7
  6
Continuous
 62
     7
370
     9
100
AcDbLine
 10
-3267.500144082143
 20
-1582.500179909371
 30
0.0
 11
-3267.500144082143
 21
-1564.500179909371
 31
0.0
  0
ARC
  5
268
330
1F
100
AcDbEntity
  8
0-7
  6
Continuous
 62
     7
370
     9
100
AcDbCircle
 10
-3268.500144082144
 20
-1582.500179909371
 30
0.0
 40
1.0
100
AcDbArc
 50
270.0
 51
0.0
  0
LINE
  5
269
330
1F
100
AcDbEntity
  8
0-7
  6
Continuous
 62
     7
370
     9
100
AcDbLine
 10
-3279.500144082144
 20
-1582.500179909371
 30
0.0
 11
-3279.500144082144
 21
-1564.500179909371
 31
0.0
  0
ARC
  5
26A
330
1F
100
AcDbEntity
  8
0-7
  6
Continuous
 62
     7
370
     9
100
AcDbCircle
 10
-3278.500144082143
 20
-1582.500179909371
 30
0.0
 40
1.0
100
AcDbArc
 50
180.0
 51
270.0
  0
ARC
  5
26B
330
1F
100
AcDbEntity
  8
0-7
  6
Continuous
 62
     7
370
     9
100
AcDbCircle
 10
-3278.500144082143
 20
-1674.500179909372
 30
0.0
 40
1.0
100
AcDbArc
 50
90.0
 51
180.0
  0
ARC
  5
26C
330
1F
100
AcDbEntity
  8
0-7
  6
Continuous
 62
     7
370
     9
100
AcDbCircle
 10
-3268.500144082144
 20
-1674.500179909372
 30
0.0
 40
1.0
100
AcDbArc
 50
0.0
 51
90.00000000000001
  0
LINE
  5
26D
330
1F
100
AcDbEntity
  8
0-7
  6
Continuous
 62
     7
370
     9
100
AcDbLine
 10
-3267.500144082143
 20
-1692.500179909371
 30
0.0
 11
-3267.500144082143
 21
-1674.500179909372
 31
0.0
  0
ARC
  5
26E
330
1F
100
AcDbEntity
  8
0-7
  6
Continuous
 62
     7
370
     9
100
AcDbCircle
 10
-3268.500144082144
 20
-1692.500179909371
 30
0.0
 40
1.0
100
AcDbArc
 50
270.0
 51
0.0
  0
LINE
  5
26F
330
1F
100
AcDbEntity
  8
0-7
  6
Continuous
 62
     7
370
     9
100
AcDbLine
 10
-3279.500144082144
 20
-1692.500179909371
 30
0.0
 11
-3279.500144082144
 21
-1674.500179909372
 31
0.0
  0
ARC
  5
270
330
1F
100
AcDbEntity
  8
0-7
  6
Continuous
 62
     7
370
     9
100
AcDbCircle
 10
-3278.500144082143
 20
-1692.500179909371
 30
0.0
 40
1.0
100
AcDbArc
 50
180.0
 51
270.0
  0
LINE
  5
271
330
1F
100
AcDbEntity
  8
0-8
  6
Continuous
 62
    92
370
    13
100
AcDbLine
 10
-3268.500144082144
 20
-1561.500179909372
 30
0.0
 11
-3278.500144082143
 21
-1561.500179909372
 31
0.0
  0
LINE
  5
272
330
1F
100
AcDbEntity
  8
0-8
  6
Continuous
 62
    92
370
    13
100
AcDbLine
 10
-3278.500144082143
 20
-1695.500179909372
 30
0.0
 11
-3268.500144082144
 21
-1695.500179909372
 31
0.0
  0
LINE
  5
273
330
1F
100
AcDbEntity
  8
0-8
  6
Continuous
 62
    92
370
    13
100
AcDbLine
 10
-3278.500144082143
 20
-1561.500179909372
 30
0.0
 11
-3278.500144082143
 21
-1695.500179909372
 31
0.0
  0
LINE
  5
274
330
1F
100
AcDbEntity
  8
0-8
  6
Continuous
 62
    92
370
    13
100
AcDbLine
 10
-3268.500144082144
 20
-1561.500179909372
 30
0.0
 11
-3268.500144082144
 21
-1695.500179909372
 31
0.0
  0
ELLIPSE
  5
275
330
1F
100
AcDbEntity
  8
0-8
  6
Continuous
 62
     7
370
     9
100
AcDbEllipse
 10
-3273.500144082144
 20
-1561.500179909372
 30
0.0
 11
1.071530559594571E-15
 21
17.49999999999986
 31
0.0
210
0.0
220
0.0
230
1.0
 40
0.2857142857142857
 41
3.141592653589793
 42
4.71238898038469
  0
ELLIPSE
  5
276
330
1F
100
AcDbEntity
  8
0-8
  6
Continuous
 62
     7
370
     9
100
AcDbEllipse
 10
-3273.500144082144
 20
-1695.500179909372
 30
0.0
 11
1.071530559594571E-15
 21
17.49999999999986
 31
0.0
210
0.0
220
0.0
230
1.0
 40
0.2857142857142857
 41
0.0
 42
1.570796326794897
  0
ELLIPSE
  5
277
330
1F
100
AcDbEntity
  8
0-8
  6
Continuous
 62
     7
370
     9
100
AcDbEllipse
 10
-3273.500144082144
 20
-1695.500179909372
 30
0.0
 11
1.071530559594571E-15
 21
-17.49999999999986
 31
0.0
210
0.0
220
0.0
230
1.0
 40
0.2857142857142857
 41
1.570796326794897
 42
3.141592653589793
  0
ARC
  5
278
330
1F
100
AcDbEntity
  8
0-8
  6
Continuous
 62
     7
370
     9
100
AcDbCircle
 10
-3278.500144082143
 20
-1562.500179909372
 30
0.0
 40
1.0
100
AcDbArc
 50
90.0
 51
180.0
  0
LINE
  5
279
330
1F
100
AcDbEntity
  8
0-8
  6
Continuous
 62
     7
370
     9
100
AcDbLine
 10
-3279.500144082143
 20
-1578.000179909372
 30
0.0
 11
-3279.500144082143
 21
-1562.500179909372
 31
0.0
  0
ARC
  5
27A
330
1F
100
AcDbEntity
  8
0-8
  6
Continuous
 62
     7
370
     9
100
AcDbCircle
 10
-3278.500144082143
 20
-1578.000179909372
 30
0.0
 40
1.0
100
AcDbArc
 50
180.0
 51
270.0
  0
ARC
  5
27B
330
1F
100
AcDbEntity
  8
0-8
  6
Continuous
 62
     7
370
     9
100
AcDbCircle
 10
-3268.500144082144
 20
-1578.000179909372
 30
0.0
 40
1.0
100
AcDbArc
 50
270.0
 51
0.0
  0
LINE
  5
27C
330
1F
100
AcDbEntity
  8
0-8
  6
Continuous
 62
     7
370
     9
100
AcDbLine
 10
-3267.500144082144
 20
-1578.000179909372
 30
0.0
 11
-3267.500144082144
 21
-1562.500179909372
 31
0.0
  0
ARC
  5
27D
330
1F
100
AcDbEntity
  8
0-8
  6
Continuous
 62
     7
370
     9
100
AcDbCircle
 10
-3268.500144082144
 20
-1562.500179909372
 30
0.0
 40
1.0
100
AcDbArc
 50
0.0
 51
90.00000000000001
  0
ARC
  5
27E
330
1F
100
AcDbEntity
  8
0-8
  6
Continuous
 62
     7
370
     9
100
AcDbCircle
 10
-3278.500144082143
 20
-1679.000179909371
 30
0.0
 40
1.0
100
AcDbArc
 50
90.0
 51
180.0
  0
LINE
  5
27F
330
1F
100
AcDbEntity
  8
0-8
  6
Continuous
 62
     7
370
     9
100
AcDbLine
 10
-3279.500144082143
 20
-1694.500179909372
 30
0.0
 11
-3279.500144082143
 21
-1679.000179909371
 31
0.0
  0
ARC
  5
280
330
1F
100
AcDbEntity
  8
0-8
  6
Continuous
 62
     7
370
     9
100
AcDbCircle
 10
-3268.500144082144
 20
-1679.000179909371
 30
0.0
 40
1.0
100
AcDbArc
 50
0.0
 51
90.00000000000001
  0
LINE
  5
281
330
1F
100
AcDbEntity
  8
0-8
  6
Continuous
 62
     7
370
     9
100
AcDbLine
 10
-3267.500144082144
 20
-1694.500179909372
 30
0.0
 11
-3267.500144082144
 21
-1679.000179909371
 31
0.0
  0
ARC
  5
282
330
1F
100
AcDbEntity
  8
0-8
  6
Continuous
 62
     7
370
     9
100
AcDbCircle
 10
-3268.500144082144
 20
-1694.500179909372
 30
0.0
 40
1.0
100
AcDbArc
 50
270.0
 51
0.0
  0
ARC
  5
283
330
1F
100
AcDbEntity
  8
0-8
  6
Continuous
 62
     7
370
     9
100
AcDbCircle
 10
-3278.500144082143
 20
-1694.500179909372
 30
0.0
 40
1.0
100
AcDbArc
 50
180.0
 51
270.0
  0
ELLIPSE
  5
284
330
1F
100
AcDbEntity
  8
0-8
  6
Continuous
 62
     7
370
     9
100
AcDbEllipse
 10
-3273.500144082144
 20
-1561.500179909372
 30
0.0
 11
1.071530559594571E-15
 21
17.49999999999986
 31
0.0
210
0.0
220
0.0
230
1.0
 40
0.2857142857142857
 41
1.570796326794897
 42
3.141592653589793
  0
LINE
  5
285
330
1F
100
AcDbEntity
  8
0-2_扉
  6
Continuous
 62
    92
370
    13
100
AcDbLine
 10
-3720.000144082146
 20
-2578.500179909371
 30
0.0
 11
-3309.500144082146
 21
-2578.500179909371
 31
0.0
  0
LINE
  5
286
330
1F
100
AcDbEntity
  8
0-2_扉
  6
Continuous
 62
    92
370
    13
100
AcDbLine
 10
-3309.500144082146
 20
-2578.500179909371
 30
0.0
 11
-3309.500144082146
 21
-233.5001799093708
 31
0.0
  0
LINE
  5
287
330
1F
100
AcDbEntity
  8
0-2_扉
  6
Continuous
 62
    92
370
    13
100
AcDbLine
 10
-3308.500144082143
 20
-2578.500179909371
 30
0.0
 11
-3308.500144082143
 21
-233.5001799093708
 31
0.0
  0
LINE
  5
288
330
1F
100
AcDbEntity
  8
0-3_仕上げ
  6
Continuous
 62
     7
370
     9
100
AcDbLine
 10
-3330.500144082145
 20
-2578.500179909371
 30
0.0
 11
-3330.500144082145
 21
-233.5001799093708
 31
0.0
  0
LINE
  5
289
330
1F
100
AcDbEntity
  8
0-3_仕上げ
  6
Continuous
 62
     7
370
     9
100
AcDbLine
 10
-3287.500144082144
 20
-2578.500179909371
 30
0.0
 11
-3287.500144082144
 21
-233.5001799093708
 31
0.0
  0
LINE
  5
28A
330
1F
100
AcDbEntity
  8
0-2_扉
  6
Continuous
 62
    92
370
    13
100
AcDbLine
 10
-3720.000144082146
 20
-233.5001799093708
 30
0.0
 11
-3309.500144082146
 21
-233.5001799093708
 31
0.0
  0
LWPOLYLINE
  5
28B
330
1F
100
AcDbEntity
  8
0-B_寸法
  6
Continuous
 62
     7
370
     9
100
AcDbPolyline
 90
        4
 70
     1
 43
3.0
 10
-2891.000144082146
 20
-2890.000179909371
 42
0.4142135623731
 10
-2892.500144082145
 20
-2888.500179909371
 42
0.4142135623731
 10
-2894.000144082145
 20
-2890.000179909371
 42
0.4142135623731
 10
-2892.500144082145
 20
-2891.500179909371
 42
0.4142135623731
  0
LWPOLYLINE
  5
28C
330
1F
100
AcDbEntity
  8
0-B_寸法
  6
Continuous
 62
     7
370
     9
100
AcDbPolyline
 90
        4
 70
     1
 43
3.0
 10
-2889.000144082147
 20
-3090.000179909371
 42
0.4142135623731
 10
-2890.500144082147
 20
-3088.500179909371
 42
0.4142135623731
 10
-2892.000144082146
 20
-3090.000179909371
 42
0.4142135623731
 10
-2890.500144082147
 20
-3091.500179909371
 42
0.4142135623731
  0
LWPOLYLINE
  5
28D
330
1F
100
AcDbEntity
  8
0-B_寸法
  6
Continuous
 62
     7
370
     9
100
AcDbPolyline
 90
        4
 70
     1
 43
3.0
 10
-2891.000144082146
 20
-3090.000179909371
 42
0.4142135623731
 10
-2892.500144082145
 20
-3088.500179909371
 42
0.4142135623731
 10
-2894.000144082145
 20
-3090.000179909371
 42
0.4142135623731
 10
-2892.500144082145
 20
-3091.500179909371
 42
0.4142135623731
  0
LINE
  5
28E
330
1F
100
AcDbEntity
  8
0-B_寸法
  6
Continuous
 62
   120
370
     5
100
AcDbLine
 10
-2856.551277517912
 20
-2959.569234224703
 30
0.0
 11
-2805.768209444463
 21
-2959.569234224703
 31
0.0
  0
LINE
  5
28F
330
1F
100
AcDbEntity
  8
0-B_寸法
  6
Continuous
 62
   120
370
     5
100
AcDbLine
 10
-2891.500144082146
 20
-3090.000179909371
 30
0.0
 11
-2856.551277517912
 21
-2959.569234224703
 31
0.0
  0
LINE
  5
290
330
1F
100
AcDbEntity
  8
0-B_寸法
  6
Continuous
 62
   120
370
     5
100
AcDbLine
 10
-2890.500144082147
 20
-3090.000179909371
 30
0.0
 11
-2890.500144082147
 21
-2640.000179909371
 31
0.0
  0
LINE
  5
291
330
1F
100
AcDbEntity
  8
0-B_寸法
  6
Continuous
 62
   120
370
     5
100
AcDbLine
 10
-2892.500144082145
 20
-3090.000179909371
 30
0.0
 11
-2890.500144082147
 21
-3090.000179909371
 31
0.0
  0
LINE
  5
292
330
1F
100
AcDbEntity
  8
0-B_寸法
  6
Continuous
 62
   120
370
     5
100
AcDbLine
 10
-2892.500144082145
 20
-3090.000179909371
 30
0.0
 11
-2892.500144082145
 21
-2640.000179909371
 31
0.0
  0
LINE
  5
293
330
1F
100
AcDbEntity
  8
0-B_寸法
  6
Continuous
 62
   120
370
     5
100
AcDbLine
 10
-3725.500144082146
 20
-3090.000179909371
 30
0.0
 11
-2892.500144082145
 21
-3090.000179909371
 31
0.0
  0
LINE
  5
294
330
1F
100
AcDbEntity
  8
0-B_寸法
  6
Continuous
 62
   120
370
     5
100
AcDbLine
 10
-3308.500144082145
 20
-2890.000179909371
 30
0.0
 11
-2892.500144082145
 21
-2890.000179909371
 31
0.0
  0
LINE
  5
295
330
1F
100
AcDbEntity
  8
0-2_扉
  6
Continuous
 62
    92
370
    13
100
AcDbLine
 10
-3308.500144082143
 20
-2578.500179909371
 30
0.0
 11
-2892.500144082144
 21
-2578.500179909371
 31
0.0
  0
LINE
  5
296
330
1F
100
AcDbEntity
  8
0-2_扉
  6
Continuous
 62
    92
370
    13
100
AcDbLine
 10
-3308.500144082143
 20
-233.5001799093708
 30
0.0
 11
-2892.500144082144
 21
-233.5001799093708
 31
0.0
  0
LINE
  5
297
330
1F
100
AcDbEntity
  8
0-2_扉
  6
Continuous
 62
    92
370
    13
100
AcDbLine
 10
-2892.500144082144
 20
-2578.500179909371
 30
0.0
 11
-2892.500144082144
 21
-233.5001799093708
 31
0.0
  0
LINE
  5
298
330
1F
100
AcDbEntity
  8
0-3_仕上げ
  6
Continuous
 62
     7
370
     9
100
AcDbLine
 10
-2913.500144082143
 20
-2578.500179909371
 30
0.0
 11
-2913.500144082143
 21
-233.5001799093708
 31
0.0
  0
ARC
  5
299
330
1F
100
AcDbEntity
  8
0-7
  6
Continuous
 62
    92
370
    13
100
AcDbCircle
 10
-1607.500144082143
 20
-1562.500179909371
 30
0.0
 40
1.0
100
AcDbArc
 50
90.0
 51
180.0
  0
LINE
  5
29A
330
1F
100
AcDbEntity
  8
0-7
  6
Continuous
 62
    92
370
    13
100
AcDbLine
 10
-1599.500144082144
 20
-1561.500179909372
 30
0.0
 11
-1607.500144082143
 21
-1561.500179909372
 31
0.0
  0
ARC
  5
29B
330
1F
100
AcDbEntity
  8
0-7
  6
Continuous
 62
    92
370
    13
100
AcDbCircle
 10
-1599.500144082144
 20
-1562.500179909371
 30
0.0
 40
1.0
100
AcDbArc
 50
0.0
 51
90.00000000000001
  0
LINE
  5
29C
330
1F
100
AcDbEntity
  8
0-7
  6
Continuous
 62
    92
370
    13
100
AcDbLine
 10
-1598.500144082144
 20
-1694.500179909372
 30
0.0
 11
-1598.500144082144
 21
-1562.500179909371
 31
0.0
  0
ARC
  5
29D
330
1F
100
AcDbEntity
  8
0-7
  6
Continuous
 62
    92
370
    13
100
AcDbCircle
 10
-1599.500144082144
 20
-1694.500179909372
 30
0.0
 40
1.0
100
AcDbArc
 50
270.0
 51
0.0
  0
LINE
  5
29E
330
1F
100
AcDbEntity
  8
0-7
  6
Continuous
 62
    92
370
    13
100
AcDbLine
 10
-1607.500144082143
 20
-1695.500179909371
 30
0.0
 11
-1599.500144082144
 21
-1695.500179909371
 31
0.0
  0
LINE
  5
29F
330
1F
100
AcDbEntity
  8
0-7
  6
Continuous
 62
    92
370
    13
100
AcDbLine
 10
-1608.500144082144
 20
-1694.500179909372
 30
0.0
 11
-1608.500144082144
 21
-1562.500179909371
 31
0.0
  0
ARC
  5
2A0
330
1F
100
AcDbEntity
  8
0-7
  6
Continuous
 62
    92
370
    13
100
AcDbCircle
 10
-1607.500144082143
 20
-1694.500179909372
 30
0.0
 40
1.0
100
AcDbArc
 50
180.0
 51
270.0
  0
LINE
  5
2A1
330
1F
100
AcDbEntity
  8
0-1_通り芯
  6
JWW_CENTER1
 62
   120
370
     5
100
AcDbLine
 10
-1603.500144082144
 20
-1551.500179909371
 30
0.0
 11
-1603.500144082144
 21
-1705.500179909372
 31
0.0
  0
LINE
  5
2A2
330
1F
100
AcDbEntity
  8
0-1_通り芯
  6
JWW_CENTER1
 62
   120
370
     5
100
AcDbLine
 10
-1588.500144082145
 20
-1628.500179909371
 30
0.0
 11
-1618.500144082143
 21
-1628.500179909371
 31
0.0
  0
ARC
  5
2A3
330
1F
100
AcDbEntity
  8
0-7
  6
Continuous
 62
     7
370
     9
100
AcDbCircle
 10
-1608.500144082144
 20
-1564.500179909371
 30
0.0
 40
1.0
100
AcDbArc
 50
90.0
 51
180.0
  0
ARC
  5
2A4
330
1F
100
AcDbEntity
  8
0-7
  6
Continuous
 62
     7
370
     9
100
AcDbCircle
 10
-1598.500144082144
 20
-1564.500179909371
 30
0.0
 40
1.0
100
AcDbArc
 50
0.0
 51
90.00000000000001
  0
LINE
  5
2A5
330
1F
100
AcDbEntity
  8
0-7
  6
Continuous
 62
     7
370
     9
100
AcDbLine
 10
-1597.500144082144
 20
-1582.500179909371
 30
0.0
 11
-1597.500144082144
 21
-1564.500179909371
 31
0.0
  0
ARC
  5
2A6
330
1F
100
AcDbEntity
  8
0-7
  6
Continuous
 62
     7
370
     9
100
AcDbCircle
 10
-1598.500144082144
 20
-1582.500179909371
 30
0.0
 40
1.0
100
AcDbArc
 50
270.0
 51
0.0
  0
LINE
  5
2A7
330
1F
100
AcDbEntity
  8
0-7
  6
Continuous
 62
     7
370
     9
100
AcDbLine
 10
-1609.500144082145
 20
-1582.500179909371
 30
0.0
 11
-1609.500144082145
 21
-1564.500179909371
 31
0.0
  0
ARC
  5
2A8
330
1F
100
AcDbEntity
  8
0-7
  6
Continuous
 62
     7
370
     9
100
AcDbCircle
 10
-1608.500144082144
 20
-1582.500179909371
 30
0.0
 40
1.0
100
AcDbArc
 50
180.0
 51
270.0
  0
ARC
  5
2A9
330
1F
100
AcDbEntity
  8
0-7
  6
Continuous
 62
     7
370
     9
100
AcDbCircle
 10
-1608.500144082144
 20
-1674.500179909372
 30
0.0
 40
1.0
100
AcDbArc
 50
90.0
 51
180.0
  0
ARC
  5
2AA
330
1F
100
AcDbEntity
  8
0-7
  6
Continuous
 62
     7
370
     9
100
AcDbCircle
 10
-1598.500144082144
 20
-1674.500179909372
 30
0.0
 40
1.0
100
AcDbArc
 50
0.0
 51
90.00000000000001
  0
LINE
  5
2AB
330
1F
100
AcDbEntity
  8
0-7
  6
Continuous
 62
     7
370
     9
100
AcDbLine
 10
-1597.500144082144
 20
-1692.500179909371
 30
0.0
 11
-1597.500144082144
 21
-1674.500179909372
 31
0.0
  0
ARC
  5
2AC
330
1F
100
AcDbEntity
  8
0-7
  6
Continuous
 62
     7
370
     9
100
AcDbCircle
 10
-1598.500144082144
 20
-1692.500179909371
 30
0.0
 40
1.0
100
AcDbArc
 50
270.0
 51
0.0
  0
LINE
  5
2AD
330
1F
100
AcDbEntity
  8
0-7
  6
Continuous
 62
     7
370
     9
100
AcDbLine
 10
-1609.500144082145
 20
-1692.500179909371
 30
0.0
 11
-1609.500144082145
 21
-1674.500179909372
 31
0.0
  0
ARC
  5
2AE
330
1F
100
AcDbEntity
  8
0-7
  6
Continuous
 62
     7
370
     9
100
AcDbCircle
 10
-1608.500144082144
 20
-1692.500179909371
 30
0.0
 40
1.0
100
AcDbArc
 50
180.0
 51
270.0
  0
LINE
  5
2AF
330
1F
100
AcDbEntity
  8
0-8
  6
Continuous
 62
    92
370
    13
100
AcDbLine
 10
-1598.500144082144
 20
-1561.500179909372
 30
0.0
 11
-1608.500144082144
 21
-1561.500179909372
 31
0.0
  0
LINE
  5
2B0
330
1F
100
AcDbEntity
  8
0-8
  6
Continuous
 62
    92
370
    13
100
AcDbLine
 10
-1608.500144082144
 20
-1695.500179909372
 30
0.0
 11
-1598.500144082144
 21
-1695.500179909372
 31
0.0
  0
LINE
  5
2B1
330
1F
100
AcDbEntity
  8
0-8
  6
Continuous
 62
    92
370
    13
100
AcDbLine
 10
-1608.500144082144
 20
-1561.500179909372
 30
0.0
 11
-1608.500144082144
 21
-1695.500179909372
 31
0.0
  0
LINE
  5
2B2
330
1F
100
AcDbEntity
  8
0-8
  6
Continuous
 62
    92
370
    13
100
AcDbLine
 10
-1598.500144082144
 20
-1561.500179909372
 30
0.0
 11
-1598.500144082144
 21
-1695.500179909372
 31
0.0
  0
ELLIPSE
  5
2B3
330
1F
100
AcDbEntity
  8
0-8
  6
Continuous
 62
     7
370
     9
100
AcDbEllipse
 10
-1603.500144082144
 20
-1561.500179909372
 30
0.0
 11
1.071530559594571E-15
 21
17.49999999999986
 31
0.0
210
0.0
220
0.0
230
1.0
 40
0.2857142857142857
 41
3.141592653589793
 42
4.71238898038469
  0
ELLIPSE
  5
2B4
330
1F
100
AcDbEntity
  8
0-8
  6
Continuous
 62
     7
370
     9
100
AcDbEllipse
 10
-1603.500144082144
 20
-1695.500179909372
 30
0.0
 11
1.071530559594571E-15
 21
17.49999999999986
 31
0.0
210
0.0
220
0.0
230
1.0
 40
0.2857142857142857
 41
0.0
 42
1.570796326794897
  0
ELLIPSE
  5
2B5
330
1F
100
AcDbEntity
  8
0-8
  6
Continuous
 62
     7
370
     9
100
AcDbEllipse
 10
-1603.500144082144
 20
-1695.500179909372
 30
0.0
 11
1.071530559594571E-15
 21
-17.49999999999986
 31
0.0
210
0.0
220
0.0
230
1.0
 40
0.2857142857142857
 41
1.570796326794897
 42
3.141592653589793
  0
ARC
  5
2B6
330
1F
100
AcDbEntity
  8
0-8
  6
Continuous
 62
     7
370
     9
100
AcDbCircle
 10
-1608.500144082144
 20
-1562.500179909372
 30
0.0
 40
1.0
100
AcDbArc
 50
90.0
 51
180.0
  0
LINE
  5
2B7
330
1F
100
AcDbEntity
  8
0-8
  6
Continuous
 62
     7
370
     9
100
AcDbLine
 10
-1609.500144082144
 20
-1578.000179909372
 30
0.0
 11
-1609.500144082144
 21
-1562.500179909372
 31
0.0
  0
ARC
  5
2B8
330
1F
100
AcDbEntity
  8
0-8
  6
Continuous
 62
     7
370
     9
100
AcDbCircle
 10
-1608.500144082144
 20
-1578.000179909372
 30
0.0
 40
1.0
100
AcDbArc
 50
180.0
 51
270.0
  0
ARC
  5
2B9
330
1F
100
AcDbEntity
  8
0-8
  6
Continuous
 62
     7
370
     9
100
AcDbCircle
 10
-1598.500144082144
 20
-1578.000179909372
 30
0.0
 40
1.0
100
AcDbArc
 50
270.0
 51
0.0
  0
LINE
  5
2BA
330
1F
100
AcDbEntity
  8
0-8
  6
Continuous
 62
     7
370
     9
100
AcDbLine
 10
-1597.500144082145
 20
-1578.000179909372
 30
0.0
 11
-1597.500144082145
 21
-1562.500179909372
 31
0.0
  0
ARC
  5
2BB
330
1F
100
AcDbEntity
  8
0-8
  6
Continuous
 62
     7
370
     9
100
AcDbCircle
 10
-1598.500144082144
 20
-1562.500179909372
 30
0.0
 40
1.0
100
AcDbArc
 50
0.0
 51
90.00000000000001
  0
ARC
  5
2BC
330
1F
100
AcDbEntity
  8
0-8
  6
Continuous
 62
     7
370
     9
100
AcDbCircle
 10
-1608.500144082144
 20
-1679.000179909371
 30
0.0
 40
1.0
100
AcDbArc
 50
90.0
 51
180.0
  0
LINE
  5
2BD
330
1F
100
AcDbEntity
  8
0-8
  6
Continuous
 62
     7
370
     9
100
AcDbLine
 10
-1609.500144082144
 20
-1694.500179909372
 30
0.0
 11
-1609.500144082144
 21
-1679.000179909371
 31
0.0
  0
ARC
  5
2BE
330
1F
100
AcDbEntity
  8
0-8
  6
Continuous
 62
     7
370
     9
100
AcDbCircle
 10
-1598.500144082144
 20
-1679.000179909371
 30
0.0
 40
1.0
100
AcDbArc
 50
0.0
 51
90.00000000000001
  0
LINE
  5
2BF
330
1F
100
AcDbEntity
  8
0-8
  6
Continuous
 62
     7
370
     9
100
AcDbLine
 10
-1597.500144082145
 20
-1694.500179909372
 30
0.0
 11
-1597.500144082145
 21
-1679.000179909371
 31
0.0
  0
ARC
  5
2C0
330
1F
100
AcDbEntity
  8
0-8
  6
Continuous
 62
     7
370
     9
100
AcDbCircle
 10
-1598.500144082144
 20
-1694.500179909372
 30
0.0
 40
1.0
100
AcDbArc
 50
270.0
 51
0.0
  0
ARC
  5
2C1
330
1F
100
AcDbEntity
  8
0-8
  6
Continuous
 62
     7
370
     9
100
AcDbCircle
 10
-1608.500144082144
 20
-1694.500179909372
 30
0.0
 40
1.0
100
AcDbArc
 50
180.0
 51
270.0
  0
ELLIPSE
  5
2C2
330
1F
100
AcDbEntity
  8
0-8
  6
Continuous
 62
     7
370
     9
100
AcDbEllipse
 10
-1603.500144082144
 20
-1561.500179909372
 30
0.0
 11
1.071530559594571E-15
 21
17.49999999999986
 31
0.0
210
0.0
220
0.0
230
1.0
 40
0.2857142857142857
 41
1.570796326794897
 42
3.141592653589793
  0
LINE
  5
2C3
330
1F
100
AcDbEntity
  8
0-2_扉
  6
Continuous
 62
    92
370
    13
100
AcDbLine
 10
-1638.500144082144
 20
-2578.500179909371
 30
0.0
 11
-1234.000144082146
 21
-2578.500179909371
 31
0.0
  0
LINE
  5
2C4
330
1F
100
AcDbEntity
  8
0-2_扉
  6
Continuous
 62
    92
370
    13
100
AcDbLine
 10
-1639.500144082146
 20
-2578.500179909371
 30
0.0
 11
-1639.500144082146
 21
-233.5001799093708
 31
0.0
  0
LINE
  5
2C5
330
1F
100
AcDbEntity
  8
0-2_扉
  6
Continuous
 62
    92
370
    13
100
AcDbLine
 10
-1638.500144082144
 20
-2578.500179909371
 30
0.0
 11
-1638.500144082144
 21
-233.5001799093708
 31
0.0
  0
LINE
  5
2C6
330
1F
100
AcDbEntity
  8
0-3_仕上げ
  6
Continuous
 62
     7
370
     9
100
AcDbLine
 10
-1660.500144082144
 20
-2578.500179909371
 30
0.0
 11
-1660.500144082144
 21
-233.5001799093708
 31
0.0
  0
LINE
  5
2C7
330
1F
100
AcDbEntity
  8
0-3_仕上げ
  6
Continuous
 62
     7
370
     9
100
AcDbLine
 10
-1617.500144082144
 20
-2578.500179909371
 30
0.0
 11
-1617.500144082144
 21
-233.5001799093708
 31
0.0
  0
LINE
  5
2C8
330
1F
100
AcDbEntity
  8
0-2_扉
  6
Continuous
 62
    92
370
    13
100
AcDbLine
 10
-1638.500144082144
 20
-233.5001799093708
 30
0.0
 11
-1234.000144082146
 21
-233.5001799093708
 31
0.0
  0
LINE
  5
2C9
330
1F
100
AcDbEntity
  8
0-2_扉
  6
Continuous
 62
    92
370
    13
100
AcDbLine
 10
-1639.500144082146
 20
-2578.500179909371
 30
0.0
 11
-2055.500144082147
 21
-2578.500179909371
 31
0.0
  0
LINE
  5
2CA
330
1F
100
AcDbEntity
  8
0-2_扉
  6
Continuous
 62
    92
370
    13
100
AcDbLine
 10
-2055.500144082147
 20
-2578.500179909371
 30
0.0
 11
-2055.500144082147
 21
-233.5001799093708
 31
0.0
  0
LINE
  5
2CB
330
1F
100
AcDbEntity
  8
0-3_仕上げ
  6
Continuous
 62
     7
370
     9
100
AcDbLine
 10
-2034.500144082147
 20
-2578.500179909371
 30
0.0
 11
-2034.500144082147
 21
-233.5001799093708
 31
0.0
  0
LINE
  5
2CC
330
1F
100
AcDbEntity
  8
0-2_扉
  6
Continuous
 62
    92
370
    13
100
AcDbLine
 10
-1639.500144082146
 20
-233.5001799093708
 30
0.0
 11
-2055.500144082147
 21
-233.5001799093708
 31
0.0
  0
LINE
  5
2CD
330
1F
100
AcDbEntity
  8
0-3_仕上げ
  6
Continuous
 62
     7
370
     9
100
AcDbLine
 10
-2078.500144082145
 20
-2578.500179909371
 30
0.0
 11
-2078.500144082145
 21
-233.5001799093708
 31
0.0
  0
ARC
  5
2CE
330
1F
100
AcDbEntity
  8
0-7
  6
Continuous
 62
    92
370
    13
100
AcDbCircle
 10
-2442.500144082145
 20
-1562.500179909371
 30
0.0
 40
1.0
100
AcDbArc
 50
90.0
 51
180.0
  0
LINE
  5
2CF
330
1F
100
AcDbEntity
  8
0-7
  6
Continuous
 62
    92
370
    13
100
AcDbLine
 10
-2434.500144082147
 20
-1561.500179909372
 30
0.0
 11
-2442.500144082145
 21
-1561.500179909372
 31
0.0
  0
ARC
  5
2D0
330
1F
100
AcDbEntity
  8
0-7
  6
Continuous
 62
    92
370
    13
100
AcDbCircle
 10
-2434.500144082147
 20
-1562.500179909371
 30
0.0
 40
1.0
100
AcDbArc
 50
0.0
 51
90.00000000000001
  0
LINE
  5
2D1
330
1F
100
AcDbEntity
  8
0-7
  6
Continuous
 62
    92
370
    13
100
AcDbLine
 10
-2433.500144082147
 20
-1694.500179909372
 30
0.0
 11
-2433.500144082147
 21
-1562.500179909371
 31
0.0
  0
ARC
  5
2D2
330
1F
100
AcDbEntity
  8
0-7
  6
Continuous
 62
    92
370
    13
100
AcDbCircle
 10
-2434.500144082147
 20
-1694.500179909372
 30
0.0
 40
1.0
100
AcDbArc
 50
270.0
 51
0.0
  0
LINE
  5
2D3
330
1F
100
AcDbEntity
  8
0-7
  6
Continuous
 62
    92
370
    13
100
AcDbLine
 10
-2442.500144082145
 20
-1695.500179909371
 30
0.0
 11
-2434.500144082147
 21
-1695.500179909371
 31
0.0
  0
LINE
  5
2D4
330
1F
100
AcDbEntity
  8
0-7
  6
Continuous
 62
    92
370
    13
100
AcDbLine
 10
-2443.500144082146
 20
-1694.500179909372
 30
0.0
 11
-2443.500144082146
 21
-1562.500179909371
 31
0.0
  0
ARC
  5
2D5
330
1F
100
AcDbEntity
  8
0-7
  6
Continuous
 62
    92
370
    13
100
AcDbCircle
 10
-2442.500144082145
 20
-1694.500179909372
 30
0.0
 40
1.0
100
AcDbArc
 50
180.0
 51
270.0
  0
LINE
  5
2D6
330
1F
100
AcDbEntity
  8
0-1_通り芯
  6
JWW_CENTER1
 62
   120
370
     5
100
AcDbLine
 10
-2438.500144082147
 20
-1551.500179909371
 30
0.0
 11
-2438.500144082147
 21
-1705.500179909372
 31
0.0
  0
LINE
  5
2D7
330
1F
100
AcDbEntity
  8
0-1_通り芯
  6
JWW_CENTER1
 62
   120
370
     5
100
AcDbLine
 10
-2423.500144082147
 20
-1628.500179909371
 30
0.0
 11
-2453.500144082146
 21
-1628.500179909371
 31
0.0
  0
ARC
  5
2D8
330
1F
100
AcDbEntity
  8
0-7
  6
Continuous
 62
     7
370
     9
100
AcDbCircle
 10
-2443.500144082146
 20
-1564.500179909371
 30
0.0
 40
1.0
100
AcDbArc
 50
90.0
 51
180.0
  0
ARC
  5
2D9
330
1F
100
AcDbEntity
  8
0-7
  6
Continuous
 62
     7
370
     9
100
AcDbCircle
 10
-2433.500144082147
 20
-1564.500179909371
 30
0.0
 40
1.0
100
AcDbArc
 50
0.0
 51
90.00000000000001
  0
LINE
  5
2DA
330
1F
100
AcDbEntity
  8
0-7
  6
Continuous
 62
     7
370
     9
100
AcDbLine
 10
-2432.500144082146
 20
-1582.500179909371
 30
0.0
 11
-2432.500144082146
 21
-1564.500179909371
 31
0.0
  0
ARC
  5
2DB
330
1F
100
AcDbEntity
  8
0-7
  6
Continuous
 62
     7
370
     9
100
AcDbCircle
 10
-2433.500144082147
 20
-1582.500179909371
 30
0.0
 40
1.0
100
AcDbArc
 50
270.0
 51
0.0
  0
LINE
  5
2DC
330
1F
100
AcDbEntity
  8
0-7
  6
Continuous
 62
     7
370
     9
100
AcDbLine
 10
-2444.500144082147
 20
-1582.500179909371
 30
0.0
 11
-2444.500144082147
 21
-1564.500179909371
 31
0.0
  0
ARC
  5
2DD
330
1F
100
AcDbEntity
  8
0-7
  6
Continuous
 62
     7
370
     9
100
AcDbCircle
 10
-2443.500144082146
 20
-1582.500179909371
 30
0.0
 40
1.0
100
AcDbArc
 50
180.0
 51
270.0
  0
ARC
  5
2DE
330
1F
100
AcDbEntity
  8
0-7
  6
Continuous
 62
     7
370
     9
100
AcDbCircle
 10
-2443.500144082146
 20
-1674.500179909372
 30
0.0
 40
1.0
100
AcDbArc
 50
90.0
 51
180.0
  0
ARC
  5
2DF
330
1F
100
AcDbEntity
  8
0-7
  6
Continuous
 62
     7
370
     9
100
AcDbCircle
 10
-2433.500144082147
 20
-1674.500179909372
 30
0.0
 40
1.0
100
AcDbArc
 50
0.0
 51
90.00000000000001
  0
LINE
  5
2E0
330
1F
100
AcDbEntity
  8
0-7
  6
Continuous
 62
     7
370
     9
100
AcDbLine
 10
-2432.500144082146
 20
-1692.500179909371
 30
0.0
 11
-2432.500144082146
 21
-1674.500179909372
 31
0.0
  0
ARC
  5
2E1
330
1F
100
AcDbEntity
  8
0-7
  6
Continuous
 62
     7
370
     9
100
AcDbCircle
 10
-2433.500144082147
 20
-1692.500179909371
 30
0.0
 40
1.0
100
AcDbArc
 50
270.0
 51
0.0
  0
LINE
  5
2E2
330
1F
100
AcDbEntity
  8
0-7
  6
Continuous
 62
     7
370
     9
100
AcDbLine
 10
-2444.500144082147
 20
-1692.500179909371
 30
0.0
 11
-2444.500144082147
 21
-1674.500179909372
 31
0.0
  0
ARC
  5
2E3
330
1F
100
AcDbEntity
  8
0-7
  6
Continuous
 62
     7
370
     9
100
AcDbCircle
 10
-2443.500144082146
 20
-1692.500179909371
 30
0.0
 40
1.0
100
AcDbArc
 50
180.0
 51
270.0
  0
LINE
  5
2E4
330
1F
100
AcDbEntity
  8
0-8
  6
Continuous
 62
    92
370
    13
100
AcDbLine
 10
-2433.500144082147
 20
-1561.500179909372
 30
0.0
 11
-2443.500144082146
 21
-1561.500179909372
 31
0.0
  0
LINE
  5
2E5
330
1F
100
AcDbEntity
  8
0-8
  6
Continuous
 62
    92
370
    13
100
AcDbLine
 10
-2443.500144082146
 20
-1695.500179909372
 30
0.0
 11
-2433.500144082147
 21
-1695.500179909372
 31
0.0
  0
LINE
  5
2E6
330
1F
100
AcDbEntity
  8
0-8
  6
Continuous
 62
    92
370
    13
100
AcDbLine
 10
-2443.500144082146
 20
-1561.500179909372
 30
0.0
 11
-2443.500144082146
 21
-1695.500179909372
 31
0.0
  0
LINE
  5
2E7
330
1F
100
AcDbEntity
  8
0-8
  6
Continuous
 62
    92
370
    13
100
AcDbLine
 10
-2433.500144082147
 20
-1561.500179909372
 30
0.0
 11
-2433.500144082147
 21
-1695.500179909372
 31
0.0
  0
ELLIPSE
  5
2E8
330
1F
100
AcDbEntity
  8
0-8
  6
Continuous
 62
     7
370
     9
100
AcDbEllipse
 10
-2438.500144082147
 20
-1561.500179909372
 30
0.0
 11
1.071530559594571E-15
 21
17.49999999999986
 31
0.0
210
0.0
220
0.0
230
1.0
 40
0.2857142857142857
 41
3.141592653589793
 42
4.71238898038469
  0
ELLIPSE
  5
2E9
330
1F
100
AcDbEntity
  8
0-8
  6
Continuous
 62
     7
370
     9
100
AcDbEllipse
 10
-2438.500144082147
 20
-1695.500179909372
 30
0.0
 11
1.071530559594571E-15
 21
17.49999999999986
 31
0.0
210
0.0
220
0.0
230
1.0
 40
0.2857142857142857
 41
0.0
 42
1.570796326794897
  0
ELLIPSE
  5
2EA
330
1F
100
AcDbEntity
  8
0-8
  6
Continuous
 62
     7
370
     9
100
AcDbEllipse
 10
-2438.500144082147
 20
-1695.500179909372
 30
0.0
 11
1.071530559594571E-15
 21
-17.49999999999986
 31
0.0
210
0.0
220
0.0
230
1.0
 40
0.2857142857142857
 41
1.570796326794897
 42
3.141592653589793
  0
ARC
  5
2EB
330
1F
100
AcDbEntity
  8
0-8
  6
Continuous
 62
     7
370
     9
100
AcDbCircle
 10
-2443.500144082146
 20
-1562.500179909372
 30
0.0
 40
1.0
100
AcDbArc
 50
90.0
 51
180.0
  0
LINE
  5
2EC
330
1F
100
AcDbEntity
  8
0-8
  6
Continuous
 62
     7
370
     9
100
AcDbLine
 10
-2444.500144082146
 20
-1578.000179909372
 30
0.0
 11
-2444.500144082146
 21
-1562.500179909372
 31
0.0
  0
ARC
  5
2ED
330
1F
100
AcDbEntity
  8
0-8
  6
Continuous
 62
     7
370
     9
100
AcDbCircle
 10
-2443.500144082146
 20
-1578.000179909372
 30
0.0
 40
1.0
100
AcDbArc
 50
180.0
 51
270.0
  0
ARC
  5
2EE
330
1F
100
AcDbEntity
  8
0-8
  6
Continuous
 62
     7
370
     9
100
AcDbCircle
 10
-2433.500144082147
 20
-1578.000179909372
 30
0.0
 40
1.0
100
AcDbArc
 50
270.0
 51
0.0
  0
LINE
  5
2EF
330
1F
100
AcDbEntity
  8
0-8
  6
Continuous
 62
     7
370
     9
100
AcDbLine
 10
-2432.500144082147
 20
-1578.000179909372
 30
0.0
 11
-2432.500144082147
 21
-1562.500179909372
 31
0.0
  0
ARC
  5
2F0
330
1F
100
AcDbEntity
  8
0-8
  6
Continuous
 62
     7
370
     9
100
AcDbCircle
 10
-2433.500144082147
 20
-1562.500179909372
 30
0.0
 40
1.0
100
AcDbArc
 50
0.0
 51
90.00000000000001
  0
ARC
  5
2F1
330
1F
100
AcDbEntity
  8
0-8
  6
Continuous
 62
     7
370
     9
100
AcDbCircle
 10
-2443.500144082146
 20
-1679.000179909371
 30
0.0
 40
1.0
100
AcDbArc
 50
90.0
 51
180.0
  0
LINE
  5
2F2
330
1F
100
AcDbEntity
  8
0-8
  6
Continuous
 62
     7
370
     9
100
AcDbLine
 10
-2444.500144082146
 20
-1694.500179909372
 30
0.0
 11
-2444.500144082146
 21
-1679.000179909371
 31
0.0
  0
ARC
  5
2F3
330
1F
100
AcDbEntity
  8
0-8
  6
Continuous
 62
     7
370
     9
100
AcDbCircle
 10
-2433.500144082147
 20
-1679.000179909371
 30
0.0
 40
1.0
100
AcDbArc
 50
0.0
 51
90.00000000000001
  0
LINE
  5
2F4
330
1F
100
AcDbEntity
  8
0-8
  6
Continuous
 62
     7
370
     9
100
AcDbLine
 10
-2432.500144082147
 20
-1694.500179909372
 30
0.0
 11
-2432.500144082147
 21
-1679.000179909371
 31
0.0
  0
ARC
  5
2F5
330
1F
100
AcDbEntity
  8
0-8
  6
Continuous
 62
     7
370
     9
100
AcDbCircle
 10
-2433.500144082147
 20
-1694.500179909372
 30
0.0
 40
1.0
100
AcDbArc
 50
270.0
 51
0.0
  0
ARC
  5
2F6
330
1F
100
AcDbEntity
  8
0-8
  6
Continuous
 62
     7
370
     9
100
AcDbCircle
 10
-2443.500144082146
 20
-1694.500179909372
 30
0.0
 40
1.0
100
AcDbArc
 50
180.0
 51
270.0
  0
ELLIPSE
  5
2F7
330
1F
100
AcDbEntity
  8
0-8
  6
Continuous
 62
     7
370
     9
100
AcDbEllipse
 10
-2438.500144082147
 20
-1561.500179909372
 30
0.0
 11
1.071530559594571E-15
 21
17.49999999999986
 31
0.0
210
0.0
220
0.0
230
1.0
 40
0.2857142857142857
 41
1.570796326794897
 42
3.141592653589793
  0
LINE
  5
2F8
330
1F
100
AcDbEntity
  8
0-2_扉
  6
Continuous
 62
    92
370
    13
100
AcDbLine
 10
-2474.500144082149
 20
-2578.500179909371
 30
0.0
 11
-2474.500144082149
 21
-233.5001799093708
 31
0.0
  0
LINE
  5
2F9
330
1F
100
AcDbEntity
  8
0-2_扉
  6
Continuous
 62
    92
370
    13
100
AcDbLine
 10
-2473.500144082146
 20
-2578.500179909371
 30
0.0
 11
-2473.500144082146
 21
-233.5001799093708
 31
0.0
  0
LINE
  5
2FA
330
1F
100
AcDbEntity
  8
0-3_仕上げ
  6
Continuous
 62
     7
370
     9
100
AcDbLine
 10
-2495.500144082147
 20
-2578.500179909371
 30
0.0
 11
-2495.500144082147
 21
-233.5001799093708
 31
0.0
  0
LINE
  5
2FB
330
1F
100
AcDbEntity
  8
0-3_仕上げ
  6
Continuous
 62
     7
370
     9
100
AcDbLine
 10
-2452.500144082147
 20
-2578.500179909371
 30
0.0
 11
-2452.500144082147
 21
-233.5001799093708
 31
0.0
  0
LINE
  5
2FC
330
1F
100
AcDbEntity
  8
0-2_扉
  6
Continuous
 62
    92
370
    13
100
AcDbLine
 10
-2474.500144082149
 20
-2578.500179909371
 30
0.0
 11
-2890.500144082149
 21
-2578.500179909371
 31
0.0
  0
LINE
  5
2FD
330
1F
100
AcDbEntity
  8
0-2_扉
  6
Continuous
 62
    92
370
    13
100
AcDbLine
 10
-2890.500144082149
 20
-2578.500179909371
 30
0.0
 11
-2890.500144082149
 21
-233.5001799093708
 31
0.0
  0
LINE
  5
2FE
330
1F
100
AcDbEntity
  8
0-3_仕上げ
  6
Continuous
 62
     7
370
     9
100
AcDbLine
 10
-2869.500144082149
 20
-2578.500179909371
 30
0.0
 11
-2869.500144082149
 21
-233.5001799093708
 31
0.0
  0
LINE
  5
2FF
330
1F
100
AcDbEntity
  8
0-2_扉
  6
Continuous
 62
    92
370
    13
100
AcDbLine
 10
-2474.500144082149
 20
-233.5001799093708
 30
0.0
 11
-2890.500144082149
 21
-233.5001799093708
 31
0.0
  0
LINE
  5
300
330
1F
100
AcDbEntity
  8
0-2_扉
  6
Continuous
 62
    92
370
    13
100
AcDbLine
 10
-2473.500144082146
 20
-2578.500179909371
 30
0.0
 11
-2057.500144082147
 21
-2578.500179909371
 31
0.0
  0
LINE
  5
301
330
1F
100
AcDbEntity
  8
0-2_扉
  6
Continuous
 62
    92
370
    13
100
AcDbLine
 10
-2473.500144082146
 20
-233.5001799093708
 30
0.0
 11
-2057.500144082147
 21
-233.5001799093708
 31
0.0
  0
LINE
  5
302
330
1F
100
AcDbEntity
  8
0-2_扉
  6
Continuous
 62
    92
370
    13
100
AcDbLine
 10
-2057.500144082147
 20
-2578.500179909371
 30
0.0
 11
-2057.500144082147
 21
-233.5001799093708
 31
0.0
  0
LWPOLYLINE
  5
303
330
1F
100
AcDbEntity
  8
0-B_寸法
  6
Continuous
 62
     7
370
     9
100
AcDbPolyline
 90
        4
 70
     1
 43
3.0
 10
-2056.000144082147
 20
-3090.000179909371
 42
0.4142135623731
 10
-2057.500144082147
 20
-3088.500179909371
 42
0.4142135623731
 10
-2059.000144082146
 20
-3090.000179909371
 42
0.4142135623731
 10
-2057.500144082147
 20
-3091.500179909371
 42
0.4142135623731
  0
LINE
  5
304
330
1F
100
AcDbEntity
  8
0-B_寸法
  6
Continuous
 62
   120
370
     5
100
AcDbLine
 10
-2057.500144082147
 20
-3090.000179909371
 30
0.0
 11
-2057.500144082147
 21
-2640.000179909371
 31
0.0
  0
LINE
  5
305
330
1F
100
AcDbEntity
  8
0-B_寸法
  6
Continuous
 62
   120
370
     5
100
AcDbLine
 10
-2890.500144082147
 20
-3090.000179909371
 30
0.0
 11
-2057.500144082147
 21
-3090.000179909371
 31
0.0
  0
MTEXT
  5
306
330
1F
100
AcDbEntity
  8
0-B_寸法
  6
Continuous
 62
     7
370
   211
100
AcDbMText
 10
-4059.000144082147
 20
-1706.764725363916
 30
0.0
 40
78.97090909090909
 41
570.0
 46
0.0
 71
     7
 72
     1
  1
{\fＭＳ ゴシック|b0|i0|c128|p49;ＤＨ＝2,345}
 11
6.123031769111886E-17
 21
1.0
 31
0.0
 73
     1
 44
1.0
  0
MTEXT
  5
307
330
1F
100
AcDbEntity
  8
0-B_寸法
  6
Continuous
 62
     7
370
   211
100
AcDbMText
 10
-3277.801277517911
 20
-2770.279234224702
 30
0.0
 40
68.58000000000065
 41
45.00000000000043
 46
0.0
 71
     7
 72
     1
  1
{\fＭＳ ゴシック|b0|i0|c128|p49;1}
 73
     1
 44
1.0
  0
MTEXT
  5
308
330
1F
100
AcDbEntity
  8
0-B_寸法
  6
Continuous
 62
     7
370
   211
100
AcDbMText
 10
-3581.500144082146
 20
-2881.900179909371
 30
0.0
 40
76.20000000000022
 41
150.0000000000004
 46
0.0
 71
     7
 72
     1
  1
{\fＭＳ ゴシック|b0|i0|c128|p49;416}
 73
     1
 44
1.0
  0
MTEXT
  5
309
330
1F
100
AcDbEntity
  8
0-B_寸法
  6
Continuous
 62
     7
370
   211
100
AcDbMText
 10
-3186.500144082144
 20
-2881.900179909371
 30
0.0
 40
76.19999999999999
 41
150.0
 46
0.0
 71
     7
 72
     1
  1
{\fＭＳ ゴシック|b0|i0|c128|p49;416}
 73
     1
 44
1.0
  0
MTEXT
  5
30A
330
1F
100
AcDbEntity
  8
0-B_寸法
  6
Continuous
 62
     7
370
   211
100
AcDbMText
 10
-2860.301277517911
 20
-2970.279234224703
 30
0.0
 40
68.58
 41
45.0
 46
0.0
 71
     7
 72
     1
  1
{\fＭＳ ゴシック|b0|i0|c128|p49;2}
 73
     1
 44
1.0
  0
MTEXT
  5
30B
330
1F
100
AcDbEntity
  8
0-B_寸法
  6
Continuous
 62
     7
370
   211
100
AcDbMText
 10
-3541.500144082146
 20
-3080.630179909371
 30
0.0
 40
78.74000000000001
 41
465.0
 46
0.0
 71
     7
 72
     1
  1
{\fＭＳ ゴシック|b0|i0|c128|p49;ＤＷ＝833}
 73
     1
 44
1.0
  0
MTEXT
  5
30C
330
1F
100
AcDbEntity
  8
0-B_寸法
  6
Continuous
 62
     7
370
   211
100
AcDbMText
 10
-2728.500144082146
 20
-3080.630179909371
 30
0.0
 40
78.74000000000001
 41
465.0
 46
0.0
 71
     7
 72
     1
  1
{\fＭＳ ゴシック|b0|i0|c128|p49;ＤＷ＝833}
 73
     1
 44
1.0
  0
LINE
  5
30D
330
1F
100
AcDbEntity
  8
0-0_補助線
  6
JWW_HOJO
 62
   120
370
     5
100
AcDbLine
 10
-5999.99998453501
 20
430.5001831054688
 30
0.0
 11
5699.998762800888
 21
430.5001831054688
 31
0.0
  0
LINE
  5
30E
330
1F
100
AcDbEntity
  8
0-0_補助線
  6
JWW_HOJO
 62
   120
370
     5
100
AcDbLine
 10
-5999.99998453501
 20
310.5001831054688
 30
0.0
 11
5699.998762800888
 21
310.5001831054688
 31
0.0
  0
LINE
  5
30F
330
1F
100
AcDbEntity
  8
0-0_補助線
  6
JWW_HOJO
 62
   120
370
     5
100
AcDbLine
 10
5699.998762800888
 20
-3430.000017526988
 30
0.0
 11
-5999.99998453501
 21
-3430.000017526988
 31
0.0
  0
LINE
  5
310
330
1F
100
AcDbEntity
  8
0-0_補助線
  6
JWW_HOJO
 62
   120
370
     5
100
AcDbLine
 10
5699.998762800888
 20
-3550.000017526988
 30
0.0
 11
-5999.99998453501
 21
-3550.000017526988
 31
0.0
  0
LINE
  5
311
330
1F
100
AcDbEntity
  8
0-0_補助線
  6
JWW_HOJO
 62
   120
370
     5
100
AcDbLine
 10
5699.998762800888
 20
-3670.000017526988
 30
0.0
 11
-5999.99998453501
 21
-3670.000017526988
 31
0.0
  0
LINE
  5
312
330
1F
100
AcDbEntity
  8
0-0_補助線
  6
JWW_HOJO
 62
   120
370
     5
100
AcDbLine
 10
-5370.000018557986
 20
4174.999769056166
 30
0.0
 11
-5370.000018557986
 21
-3790.000179909371
 31
0.0
  0
LINE
  5
313
330
1F
100
AcDbEntity
  8
F-0_補助線
  6
JWW_HOJO
 62
   200
370
    20
100
AcDbLine
 10
-5999.99998453501
 20
4064.999901024072
 30
0.0
 11
5689.998977248734
 21
4064.999901024072
 31
0.0
  0
LINE
  5
314
330
1F
100
AcDbEntity
  8
F-0_補助線
  6
JWW_HOJO
 62
   200
370
    20
100
AcDbLine
 10
-5999.99998453501
 20
84.49993236644843
 30
0.0
 11
5689.998977248734
 21
84.49993236644843
 31
0.0
  0
LINE
  5
315
330
1F
100
AcDbEntity
  8
0-F
  6
Continuous
 62
     7
370
     9
100
AcDbLine
 10
5689.998977248734
 20
184.5000148463899
 30
0.0
 11
99.99947934537431
 21
-3790.000017526987
 31
0.0
  0
LINE
  5
316
330
1F
100
AcDbEntity
  8
0-0_補助線
  6
JWW_HOJO
 62
   120
370
     5
100
AcDbLine
 10
5699.998762800888
 20
-3190.000017526988
 30
0.0
 11
-5999.99998453501
 21
-3190.000017526988
 31
0.0
  0
LINE
  5
317
330
1F
100
AcDbEntity
  8
0-0_補助線
  6
JWW_HOJO
 62
   120
370
     5
100
AcDbLine
 10
5699.998762800888
 20
-3310.000017526988
 30
0.0
 11
-5999.99998453501
 21
-3310.000017526988
 31
0.0
  0
LINE
  5
318
330
1F
100
AcDbEntity
  8
0-0_補助線
  6
JWW_HOJO
 62
   120
370
     5
100
AcDbLine
 10
-5999.99998453501
 20
790.5001831054688
 30
0.0
 11
5699.998762800888
 21
790.5001831054688
 31
0.0
  0
LINE
  5
319
330
1F
100
AcDbEntity
  8
0-0_補助線
  6
JWW_HOJO
 62
   120
370
     5
100
AcDbLine
 10
-5999.99998453501
 20
670.5001831054688
 30
0.0
 11
5699.998762800888
 21
670.5001831054688
 31
0.0
  0
LINE
  5
31A
330
1F
100
AcDbEntity
  8
0-0_補助線
  6
JWW_HOJO
 62
     7
370
     9
100
AcDbLine
 10
-5490.000018557987
 20
-190.0001799093711
 30
0.0
 11
5699.998762800888
 21
-190.0001799093711
 31
0.0
  0
LINE
  5
31B
330
1F
100
AcDbEntity
  8
0-0_補助線
  6
JWW_HOJO
 62
     7
370
     9
100
AcDbLine
 10
-5490.000018557987
 20
3790.500183105469
 30
0.0
 11
5699.998762800888
 21
3790.500183105469
 31
0.0
  0
MTEXT
  5
31C
330
1F
100
AcDbEntity
  8
0-A_文字
  6
Continuous
 62
     7
370
     9
100
AcDbMText
 10
-5370.000018557986
 20
661.5754150803014
 30
0.0
 40
57.15000000000021
 41
450.0000000000017
 46
0.0
 71
     7
 72
     1
  1
{\fＭＳ ゴシック|b0|i0|c128|p49;枠外幅 706mm}
 73
     1
 44
1.0
  0
LINE
  5
31D
330
1F
100
AcDbEntity
  8
0-0_補助線
  6
JWW_HOJO
 62
   120
370
     5
100
AcDbLine
 10
-1643.333686622412
 20
190.5001831054688
 30
0.0
 11
-1643.333686622412
 21
4174.999769056166
 31
0.0
  0
LINE
  5
31E
330
1F
100
AcDbEntity
  8
0-0_補助線
  6
JWW_HOJO
 62
   120
370
     5
100
AcDbLine
 10
2083.33264531316
 20
190.5001831054688
 30
0.0
 11
2083.33264531316
 21
4174.999769056166
 31
0.0
  0
MTEXT
  5
31F
330
1F
100
AcDbEntity
  8
0-A_文字
  6
Continuous
 62
     7
370
     9
100
AcDbMText
 10
-1643.333686622412
 20
661.5754150803014
 30
0.0
 40
57.1500000000002
 41
525.0000000000019
 46
0.0
 71
     7
 72
     1
  1
{\fＭＳ ゴシック|b0|i0|c128|p49;枠外幅 1,171mm}
 73
     1
 44
1.0
  0
MTEXT
  5
320
330
1F
100
AcDbEntity
  8
0-A_文字
  6
Continuous
 62
     7
370
     9
100
AcDbMText
 10
2083.33264531316
 20
661.5754150803014
 30
0.0
 40
57.15000000000017
 41
525.0000000000017
 46
0.0
 71
     7
 72
     1
  1
{\fＭＳ ゴシック|b0|i0|c128|p49;枠外幅 1,617mm}
 73
     1
 44
1.0
  0
MTEXT
  5
321
330
1F
100
AcDbEntity
  8
0-A_文字
  6
Continuous
 62
     7
370
     9
100
AcDbMText
 10
-5370.000018557986
 20
-3318.924785552156
 30
0.0
 40
57.15000000000017
 41
525.0000000000017
 46
0.0
 71
     7
 72
     1
  1
{\fＭＳ ゴシック|b0|i0|c128|p49;枠外幅 2,540mm}
 73
     1
 44
1.0
  0
LWPOLYLINE
  5
322
330
1F
100
AcDbEntity
  8
0-B_寸法
  6
Continuous
 62
     7
370
     9
100
AcDbPolyline
 90
        4
 70
     1
 43
3.0
 10
-2054.000144082147
 20
-3090.000179909371
 42
0.4142135623731
 10
-2055.500144082147
 20
-3088.500179909371
 42
0.4142135623731
 10
-2057.000144082147
 20
-3090.000179909371
 42
0.4142135623731
 10
-2055.500144082147
 20
-3091.500179909371
 42
0.4142135623731
  0
LINE
  5
323
330
1F
100
AcDbEntity
  8
0-B_寸法
  6
Continuous
 62
   120
370
     5
100
AcDbLine
 10
-2021.551277517913
 20
-2959.569234224703
 30
0.0
 11
-1970.768209444464
 21
-2959.569234224703
 31
0.0
  0
LINE
  5
324
330
1F
100
AcDbEntity
  8
0-B_寸法
  6
Continuous
 62
   120
370
     5
100
AcDbLine
 10
-2056.500144082147
 20
-3090.000179909371
 30
0.0
 11
-2021.551277517913
 21
-2959.569234224703
 31
0.0
  0
LINE
  5
325
330
1F
100
AcDbEntity
  8
0-B_寸法
  6
Continuous
 62
   120
370
     5
100
AcDbLine
 10
-2055.500144082147
 20
-3090.000179909371
 30
0.0
 11
-2055.500144082147
 21
-2640.000179909371
 31
0.0
  0
LWPOLYLINE
  5
326
330
1F
100
AcDbEntity
  8
0-B_寸法
  6
Continuous
 62
     7
370
     9
100
AcDbPolyline
 90
        4
 70
     1
 43
3.0
 10
-1221.000144082147
 20
-3090.000179909371
 42
0.4142135623731
 10
-1222.500144082147
 20
-3088.500179909371
 42
0.4142135623731
 10
-1224.000144082147
 20
-3090.000179909371
 42
0.4142135623731
 10
-1222.500144082147
 20
-3091.500179909371
 42
0.4142135623731
  0
LINE
  5
327
330
1F
100
AcDbEntity
  8
0-B_寸法
  6
Continuous
 62
   120
370
     5
100
AcDbLine
 10
-1222.500144082147
 20
-3090.000179909371
 30
0.0
 11
-1222.500144082147
 21
-2640.000179909371
 31
0.0
  0
LINE
  5
328
330
1F
100
AcDbEntity
  8
0-B_寸法
  6
Continuous
 62
   120
370
     5
100
AcDbLine
 10
-2055.500144082147
 20
-3090.000179909371
 30
0.0
 11
-1222.500144082147
 21
-3090.000179909371
 31
0.0
  0
MTEXT
  5
329
330
1F
100
AcDbEntity
  8
0-B_寸法
  6
Continuous
 62
     7
370
   211
100
AcDbMText
 10
-2025.301277517912
 20
-2970.279234224703
 30
0.0
 40
68.58
 41
45.0
 46
0.0
 71
     7
 72
     1
  1
{\fＭＳ ゴシック|b0|i0|c128|p49;2}
 73
     1
 44
1.0
  0
MTEXT
  5
32A
330
1F
100
AcDbEntity
  8
0-B_寸法
  6
Continuous
 62
     7
370
   211
100
AcDbMText
 10
-1893.500144082147
 20
-3080.630179909371
 30
0.0
 40
78.74000000000001
 41
465.0
 46
0.0
 71
     7
 72
     1
  1
{\fＭＳ ゴシック|b0|i0|c128|p49;ＤＷ＝833}
 73
     1
 44
1.0
  0
LINE
  5
32B
330
1F
100
AcDbEntity
  8
0-B_寸法
  6
Continuous
 62
   120
370
     5
100
AcDbLine
 10
-2057.500144082147
 20
-3090.000179909371
 30
0.0
 11
-2055.500144082147
 21
-3090.000179909371
 31
0.0
  0
MTEXT
  5
32C
330
1F
100
AcDbEntity
  8
0-B_寸法
  6
Continuous
 62
     7
370
   211
100
AcDbMText
 10
-835.5005206546284
 20
2325.985637650923
 30
0.0
 40
78.97090909090909
 41
570.0
 46
0.0
 71
     7
 72
     1
  1
{\fＭＳ ゴシック|b0|i0|c128|p49;ＤＨ＝2,345}
 11
6.123031769111886E-17
 21
1.0
 31
0.0
 73
     1
 44
1.0
  0
MTEXT
  5
32D
330
1F
100
AcDbEntity
  8
F-A_文字
  6
Continuous
 62
     7
370
     0
100
AcDbMText
 10
4752.499126529666
 20
-3938.071010139966
 30
0.0
 40
78.86699999999999
 41
517.5
 46
0.0
 71
     7
 72
     1
  1
{\fＭＳ ゴシック|b0|i0|c128|p49;2023.05.01}
 73
     1
 44
1.0
  0
MTEXT
  5
32E
330
1F
100
AcDbEntity
  8
F-A_文字
  6
Continuous
 62
     7
370
     0
100
AcDbMText
 10
-5258.214285714285
 20
-4046.382221476983
 30
0.0
 40
79.75022727272723
 41
4605.0
 46
0.0
 71
     7
 72
     1
  1
{\fＭＳ ゴシック|b0|i0|c128|p49;ドレタス　天井ジャストシリーズ　クローゼットドア　スマートタイプ　Ｂ－ＦＴ（扉縦木目柄）}
 73
     1
 44
1.0
  0
MTEXT
  5
32F
330
1F
100
AcDbEntity
  8
0-A_文字
  6
Continuous
 62
     7
370
     9
100
AcDbMText
 10
-4091.666852590201
 20
4014.369901024072
 30
0.0
 40
78.74000000000001
 41
930.0
 46
0.0
 71
     7
 72
     1
  1
{\fＭＳ ゴシック|b0|i0|c128|p49;Ｂ－ＦＴ　間口３尺}
 73
     1
 44
1.0
  0
MTEXT
  5
330
330
1F
100
AcDbEntity
  8
0-A_文字
  6
Continuous
 62
     7
370
     9
100
AcDbMText
 10
-391.2505206546265
 20
4014.485355569526
 30
0.0
 40
78.97090909090909
 41
1140.0
 46
0.0
 71
     7
 72
     1
  1
{\fＭＳ ゴシック|b0|i0|c128|p49;Ｂ－ＦＴ　間口４．５尺}
 73
     1
 44
1.0
  0
MTEXT
  5
331
330
1F
100
AcDbEntity
  8
0-A_文字
  6
Continuous
 62
     7
370
     9
100
AcDbMText
 10
3361.665811280948
 20
4014.369901024072
 30
0.0
 40
78.74000000000001
 41
930.0
 46
0.0
 71
     7
 72
     1
  1
{\fＭＳ ゴシック|b0|i0|c128|p49;Ｂ－ＦＴ　間口６尺}
 73
     1
 44
1.0
  0
MTEXT
  5
332
330
1F
100
AcDbEntity
  8
0-A_文字
  6
Continuous
 62
     7
370
     9
100
AcDbMText
 10
-3160.000269606306
 20
33.86993236644844
 30
0.0
 40
78.74000000000001
 41
930.0
 46
0.0
 71
     7
 72
     1
  1
{\fＭＳ ゴシック|b0|i0|c128|p49;Ｂ－ＦＴ　間口９尺}
 73
     1
 44
1.0
  0
MTEXT
  5
333
330
1F
100
AcDbEntity
  8
0-A_文字
  6
Continuous
 62
     7
370
     9
100
AcDbMText
 10
-5370.000018557983
 20
541.5751831054665
 30
0.0
 40
57.14999999999991
 41
1349.999999999997
 46
0.0
 71
     7
 72
     1
  1
{\fＭＳ ゴシック|b0|i0|c128|p49;キホンのライン ＋ ストレートのライン}
 73
     1
 44
1.0
  0
MTEXT
  5
334
330
1F
100
AcDbEntity
  8
0-A_文字
  6
Continuous
 62
     7
370
     9
100
AcDbMText
 10
-5370.000018557989
 20
301.5754150803037
 30
0.0
 40
57.15000000000019
 41
1012.500000000003
 46
0.0
 71
     7
 72
     1
  1
{\fＭＳ ゴシック|b0|i0|c128|p49;ＰＷ に木目柄はありません。}
 73
     1
 44
1.0
  0
MTEXT
  5
335
330
1F
100
AcDbEntity
  8
0-A_文字
  6
Continuous
 62
     7
370
     9
100
AcDbMText
 10
-5370.000018557986
 20
421.574951130635
 30
0.0
 40
57.14999999999998
 41
1200.0
 46
0.0
 71
     7
 72
     1
  1
{\fＭＳ ゴシック|b0|i0|c128|p49;ミラー付の扉は対応していません。}
 73
     1
 44
1.0
  0
MTEXT
  5
336
330
1F
100
AcDbEntity
  8
0-A_文字
  6
Continuous
 62
     7
370
     9
100
AcDbMText
 10
-1643.33368662241
 20
541.5751831054665
 30
0.0
 40
57.14999999999991
 41
1349.999999999997
 46
0.0
 71
     7
 72
     1
  1
{\fＭＳ ゴシック|b0|i0|c128|p49;キホンのライン ＋ ストレートのライン}
 73
     1
 44
1.0
  0
MTEXT
  5
337
330
1F
100
AcDbEntity
  8
0-A_文字
  6
Continuous
 62
     7
370
     9
100
AcDbMText
 10
-1643.333686622416
 20
301.5754150803037
 30
0.0
 40
57.15000000000019
 41
1012.500000000003
 46
0.0
 71
     7
 72
     1
  1
{\fＭＳ ゴシック|b0|i0|c128|p49;ＰＷ に木目柄はありません。}
 73
     1
 44
1.0
  0
MTEXT
  5
338
330
1F
100
AcDbEntity
  8
0-A_文字
  6
Continuous
 62
     7
370
     9
100
AcDbMText
 10
-1643.333686622412
 20
421.574951130635
 30
0.0
 40
57.14999999999998
 41
1200.0
 46
0.0
 71
     7
 72
     1
  1
{\fＭＳ ゴシック|b0|i0|c128|p49;ミラー付の扉は対応していません。}
 73
     1
 44
1.0
  0
MTEXT
  5
339
330
1F
100
AcDbEntity
  8
0-A_文字
  6
Continuous
 62
     7
370
     9
100
AcDbMText
 10
2083.332645313163
 20
541.5751831054665
 30
0.0
 40
57.14999999999991
 41
1349.999999999997
 46
0.0
 71
     7
 72
     1
  1
{\fＭＳ ゴシック|b0|i0|c128|p49;キホンのライン ＋ ストレートのライン}
 73
     1
 44
1.0
  0
MTEXT
  5
33A
330
1F
100
AcDbEntity
  8
0-A_文字
  6
Continuous
 62
     7
370
     9
100
AcDbMText
 10
2083.332645313157
 20
301.5754150803037
 30
0.0
 40
57.15000000000019
 41
1012.500000000003
 46
0.0
 71
     7
 72
     1
  1
{\fＭＳ ゴシック|b0|i0|c128|p49;ＰＷ に木目柄はありません。}
 73
     1
 44
1.0
  0
MTEXT
  5
33B
330
1F
100
AcDbEntity
  8
0-A_文字
  6
Continuous
 62
     7
370
     9
100
AcDbMText
 10
2083.33264531316
 20
421.574951130635
 30
0.0
 40
57.14999999999998
 41
1200.0
 46
0.0
 71
     7
 72
     1
  1
{\fＭＳ ゴシック|b0|i0|c128|p49;ミラー付の扉は対応していません。}
 73
     1
 44
1.0
  0
MTEXT
  5
33C
330
1F
100
AcDbEntity
  8
0-A_文字
  6
Continuous
 62
     7
370
     9
100
AcDbMText
 10
-5370.000018557983
 20
-3438.925017526991
 30
0.0
 40
57.14999999999991
 41
1349.999999999997
 46
0.0
 71
     7
 72
     1
  1
{\fＭＳ ゴシック|b0|i0|c128|p49;キホンのライン ＋ ストレートのライン}
 73
     1
 44
1.0
  0
MTEXT
  5
33D
330
1F
100
AcDbEntity
  8
0-A_文字
  6
Continuous
 62
     7
370
     9
100
AcDbMText
 10
-5370.000018557989
 20
-3678.924785552153
 30
0.0
 40
57.15000000000019
 41
1012.500000000003
 46
0.0
 71
     7
 72
     1
  1
{\fＭＳ ゴシック|b0|i0|c128|p49;ＰＷ に木目柄はありません。}
 73
     1
 44
1.0
  0
MTEXT
  5
33E
330
1F
100
AcDbEntity
  8
0-A_文字
  6
Continuous
 62
     7
370
     9
100
AcDbMText
 10
-5370.000018557986
 20
-3558.925249501822
 30
0.0
 40
57.14999999999998
 41
1200.0
 46
0.0
 71
     7
 72
     1
  1
{\fＭＳ ゴシック|b0|i0|c128|p49;ミラー付の扉は対応していません。}
 73
     1
 44
1.0
  0
ENDSEC
  0
SECTION
  2
OBJECTS
  0
DICTIONARY
  5
C
330
0
100
AcDbDictionary
281
     1
  3
ACAD_GROUP
350
D
  3
ACAD_LAYOUT
350
1A
  3
ACAD_MATERIAL
350
3B
  3
ACAD_MLEADERSTYLE
350
340
  3
ACAD_MLINESTYLE
350
17
  3
ACAD_PLOTSETTINGS
350
19
  3
ACAD_PLOTSTYLENAME
350
E
  3
ACAD_TABLESTYLE
350
33F
  3
ACAD_VISUALSTYLE
350
2A
  0
DICTIONARY
  5
D
102
{ACAD_REACTORS
330
C
102
}
330
C
100
AcDbDictionary
281
     1
  0
DICTIONARY
  5
1A
102
{ACAD_REACTORS
330
C
102
}
330
C
100
AcDbDictionary
281
     1
  3
Layout1
350
1E
  3
Layout2
350
26
  3
Model
350
22
  0
DICTIONARY
  5
3B
102
{ACAD_REACTORS
330
C
102
}
330
C
100
AcDbDictionary
281
     1
  3
ByBlock
350
3D
  3
ByLayer
350
3C
  3
Global
350
3E
  0
DICTIONARY
  5
340
102
{ACAD_REACTORS
330
C
102
}
330
C
100
AcDbDictionary
281
     1
  0
DICTIONARY
  5
17
102
{ACAD_REACTORS
330
C
102
}
330
C
100
AcDbDictionary
281
     1
  3
Standard
350
18
  0
DICTIONARY
  5
19
102
{ACAD_REACTORS
330
C
102
}
330
C
100
AcDbDictionary
281
     1
  0
ACDBDICTIONARYWDFLT
  5
E
102
{ACAD_REACTORS
330
C
102
}
330
C
100
AcDbDictionary
281
     1
  3
Normal
350
F
100
AcDbDictionaryWithDefault
340
F
  0
DICTIONARY
  5
33F
102
{ACAD_REACTORS
330
C
102
}
330
C
100
AcDbDictionary
281
     1
  0
DICTIONARY
  5
2A
102
{ACAD_REACTORS
330
C
102
}
330
C
100
AcDbDictionary
281
     1
  3
2dWireframe
350
2F
  3
3D Hidden
350
31
  3
3dWireframe
350
30
  3
Basic
350
32
  3
Brighten
350
36
  3
ColorChange
350
3A
  3
Conceptual
350
34
  3
Dim
350
35
  3
Facepattern
350
39
  3
Flat
350
2B
  3
FlatWithEdges
350
2C
  3
Gouraud
350
2D
  3
GouraudWithEdges
350
2E
  3
Linepattern
350
38
  3
Realistic
350
33
  3
Thicken
350
37
  0
LAYOUT
  5
1E
102
{ACAD_REACTORS
330
1A
102
}
330
1A
100
AcDbPlotSettings
  1

  2
none_device
  4

  6

 40
0.0
 41
0.0
 42
0.0
 43
0.0
 44
0.0
 45
0.0
 46
0.0
 47
0.0
 48
0.0
 49
0.0
140
0.0
141
0.0
142
1.0
143
1.0
 70
   688
 72
     0
 73
     0
 74
     5
  7

 75
    16
 76
     0
 77
     5
 78
   300
147
1.0
148
0.0
149
0.0
100
AcDbLayout
  1
Layout1
 70
     1
 71
     1
 10
0.0
 20
0.0
 11
420.0
 21
297.0
 12
0.0
 22
0.0
 32
0.0
 14
1.000000000000000E+20
 24
1.000000000000000E+20
 34
1.000000000000000E+20
 15
-1.000000000000000E+20
 25
-1.000000000000000E+20
 35
-1.000000000000000E+20
146
0.0
 13
0.0
 23
0.0
 33
0.0
 16
1.0
 26
0.0
 36
0.0
 17
0.0
 27
1.0
 37
0.0
 76
     0
330
1B
  0
LAYOUT
  5
26
102
{ACAD_REACTORS
330
1A
102
}
330
1A
100
AcDbPlotSettings
  1

  2
none_device
  4

  6

 40
0.0
 41
0.0
 42
0.0
 43
0.0
 44
0.0
 45
0.0
 46
0.0
 47
0.0
 48
0.0
 49
0.0
140
0.0
141
0.0
142
1.0
143
1.0
 70
   688
 72
     0
 73
     0
 74
     5
  7

 75
    16
 76
     0
 77
     5
 78
   300
147
1.0
148
0.0
149
0.0
100
AcDbLayout
  1
Layout2
 70
     1
 71
     2
 10
0.0
 20
0.0
 11
0.0
 21
0.0
 12
0.0
 22
0.0
 32
0.0
 14
0.0
 24
0.0
 34
0.0
 15
0.0
 25
0.0
 35
0.0
146
0.0
 13
0.0
 23
0.0
 33
0.0
 16
1.0
 26
0.0
 36
0.0
 17
0.0
 27
1.0
 37
0.0
 76
     0
330
23
  0
LAYOUT
  5
22
102
{ACAD_REACTORS
330
1A
102
}
330
1A
100
AcDbPlotSettings
  1

  2
none_device
  4

  6

 40
0.0
 41
0.0
 42
0.0
 43
0.0
 44
0.0
 45
0.0
 46
0.0
 47
0.0
 48
0.0
 49
0.0
140
0.0
141
0.0
142
1.0
143
1.0
 70
  1712
 72
     0
 73
     0
 74
     0
  7

 75
     0
 76
     0
 77
     5
 78
   300
147
1.0
148
0.0
149
0.0
100
AcDbLayout
  1
Model
 70
     1
 71
     0
 10
-8910.0
 20
-6300.0
 11
8910.0
 21
6300.0
 12
0.0
 22
0.0
 32
0.0
 14
-8910.0
 24
-6300.0
 34
0.0
 15
8910.0
 25
6300.0
 35
0.0
146
0.0
 13
0.0
 23
0.0
 33
0.0
 16
1.0
 26
0.0
 36
0.0
 17
0.0
 27
1.0
 37
0.0
 76
     0
330
1F
331
29
  0
MATERIAL
  5
3D
102
{ACAD_REACTORS
330
3B
102
}
330
3B
100
AcDbMaterial
  1
ByBlock
 72
     1
 94
      127
  0
MATERIAL
  5
3C
102
{ACAD_REACTORS
330
3B
102
}
330
3B
100
AcDbMaterial
  1
ByLayer
 72
     1
 94
      127
  0
MATERIAL
  5
3E
102
{ACAD_REACTORS
330
3B
102
}
330
3B
100
AcDbMaterial
  1
Global
 72
     1
 94
      127
  0
MLINESTYLE
  5
18
102
{ACAD_REACTORS
330
17
102
}
330
17
100
AcDbMlineStyle
  2
Standard
 70
     0
  3

 62
   256
 51
90.0
 52
90.0
 71
     2
 49
0.5
 62
   256
  6
BYLAYER
 49
-0.5
 62
   256
  6
BYLAYER
  0
ACDBPLACEHOLDER
  5
F
102
{ACAD_REACTORS
330
E
102
}
330
E
  0
VISUALSTYLE
  5
2F
102
{ACAD_REACTORS
330
2A
102
}
330
2A
100
AcDbVisualStyle
  2
2dWireframe
 70
     4
177
     2
291
     0
 71
     0
176
     1
 72
     2
176
     1
 73
     0
176
     1
 90
        0
176
     1
 40
-0.6
176
     1
 41
-30.0
176
     1
 62
     5
 63
     7
421
 16777215
176
     1
 74
     1
176
     1
 91
        4
176
     1
 64
     7
176
     1
 65
   257
176
     1
 75
     1
176
     1
175
     1
176
     1
 42
1.0
176
     1
 92
        0
176
     1
 66
   257
176
     1
 43
1.0
176
     1
 76
     1
176
     1
 77
     6
176
     1
 78
     2
176
     1
 67
     7
176
     1
 79
     5
176
     1
170
     0
176
     1
171
     0
176
     1
290
     0
176
     1
 93
        1
176
     1
 44
0.0
176
     1
173
     0
176
     1
  0
VISUALSTYLE
  5
31
102
{ACAD_REACTORS
330
2A
102
}
330
2A
100
AcDbVisualStyle
  2
3D Hidden
 70
     6
177
     2
291
     0
 71
     1
176
     1
 72
     2
176
     1
 73
     2
176
     1
 90
        0
176
     1
 40
-0.6
176
     1
 41
-30.0
176
     1
 62
     5
 63
     7
421
 16777215
176
     1
 74
     2
176
     1
 91
        2
176
     1
 64
     7
176
     1
 65
   257
176
     1
 75
     2
176
     1
175
     1
176
     1
 42
40.0
176
     1
 92
        0
176
     1
 66
   257
176
     1
 43
1.0
176
     1
 76
     1
176
     1
 77
     6
176
     1
 78
     2
176
     1
 67
     7
176
     1
 79
     3
176
     1
170
     0
176
     1
171
     0
176
     1
290
     0
176
     1
 93
        1
176
     1
 44
0.0
176
     1
173
     0
176
     1
  0
VISUALSTYLE
  5
30
102
{ACAD_REACTORS
330
2A
102
}
330
2A
100
AcDbVisualStyle
  2
3dWireframe
 70
     5
177
     2
291
     0
 71
     0
176
     1
 72
     2
176
     1
 73
     0
176
     1
 90
        0
176
     1
 40
-0.6
176
     1
 41
-30.0
176
     1
 62
     5
 63
     7
421
 16777215
176
     1
 74
     1
176
     1
 91
        4
176
     1
 64
     7
176
     1
 65
   257
176
     1
 75
     1
176
     1
175
     1
176
     1
 42
1.0
176
     1
 92
        0
176
     1
 66
   257
176
     1
 43
1.0
176
     1
 76
     1
176
     1
 77
     6
176
     1
 78
     2
176
     1
 67
     7
176
     1
 79
     5
176
     1
170
     0
176
     1
171
     0
176
     1
290
     0
176
     1
 93
        1
176
     1
 44
0.0
176
     1
173
     0
176
     1
  0
VISUALSTYLE
  5
32
102
{ACAD_REACTORS
330
2A
102
}
330
2A
100
AcDbVisualStyle
  2
Basic
 70
     7
177
     2
291
     1
 71
     1
176
     1
 72
     0
176
     1
 73
     1
176
     1
 90
        0
176
     1
 40
-0.6
176
     1
 41
-30.0
176
     1
 62
     5
 63
     7
421
 16777215
176
     1
 74
     0
176
     1
 91
        4
176
     1
 64
     7
176
     1
 65
   257
176
     1
 75
     1
176
     1
175
     1
176
     1
 42
1.0
176
     1
 92
        8
176
     1
 66
     7
176
     1
 43
1.0
176
     1
 76
     1
176
     1
 77
     6
176
     1
 78
     2
176
     1
 67
     7
176
     1
 79
     5
176
     1
170
     0
176
     1
171
     0
176
     1
290
     0
176
     1
 93
        1
176
     1
 44
0.0
176
     1
173
     0
176
     1
  0
VISUALSTYLE
  5
36
102
{ACAD_REACTORS
330
2A
102
}
330
2A
100
AcDbVisualStyle
  2
Brighten
 70
    12
177
     2
291
     1
 71
     2
176
     1
 72
     2
176
     1
 73
     0
176
     1
 90
        0
176
     1
 40
-0.6
176
     1
 41
-30.0
176
     1
 62
     5
 63
     7
421
 16777215
176
     1
 74
     1
176
     1
 91
        4
176
     1
 64
     7
176
     1
 65
   257
176
     1
 75
     1
176
     1
175
     1
176
     1
 42
1.0
176
     1
 92
        8
176
     1
 66
     7
176
     1
 43
1.0
176
     1
 76
     1
176
     1
 77
     6
176
     1
 78
     2
176
     1
 67
     7
176
     1
 79
     5
176
     1
170
     0
176
     1
171
     0
176
     1
290
     0
176
     1
 93
        1
176
     1
 44
50.0
176
     1
173
     0
176
     1
  0
VISUALSTYLE
  5
3A
102
{ACAD_REACTORS
330
2A
102
}
330
2A
100
AcDbVisualStyle
  2
ColorChange
 70
    16
177
     2
291
     1
 71
     2
176
     1
 72
     2
176
     1
 73
     3
176
     1
 90
        0
176
     1
 40
-0.6
176
     1
 41
-30.0
176
     1
 62
     5
 63
     8
421
  8421504
176
     1
 74
     1
176
     1
 91
        4
176
     1
 64
     7
176
     1
 65
   257
176
     1
 75
     1
176
     1
175
     1
176
     1
 42
1.0
176
     1
 92
        8
176
     1
 66
     8
424
  8421504
176
     1
 43
1.0
176
     1
 76
     1
176
     1
 77
     6
176
     1
 78
     2
176
     1
 67
     7
176
     1
 79
     5
176
     1
170
     0
176
     1
171
     0
176
     1
290
     0
176
     1
 93
        1
176
     1
 44
0.0
176
     1
173
     0
176
     1
  0
VISUALSTYLE
  5
34
102
{ACAD_REACTORS
330
2A
102
}
330
2A
100
AcDbVisualStyle
  2
Conceptual
 70
     9
177
     2
291
     0
 71
     3
176
     1
 72
     2
176
     1
 73
     0
176
     1
 90
        0
176
     1
 40
-0.6
176
     1
 41
-30.0
176
     1
 62
     5
 63
     7
421
 16777215
176
     1
 74
     2
176
     1
 91
        2
176
     1
 64
     7
176
     1
 65
   257
176
     1
 75
     1
176
     1
175
     1
176
     1
 42
40.0
176
     1
 92
        8
176
     1
 66
     7
176
     1
 43
1.0
176
     1
 76
     1
176
     1
 77
     6
176
     1
 78
     2
176
     1
 67
     7
176
     1
 79
     3
176
     1
170
     0
176
     1
171
     0
176
     1
290
     0
176
     1
 93
        1
176
     1
 44
0.0
176
     1
173
     0
176
     1
  0
VISUALSTYLE
  5
35
102
{ACAD_REACTORS
330
2A
102
}
330
2A
100
AcDbVisualStyle
  2
Dim
 70
    11
177
     2
291
     1
 71
     2
176
     1
 72
     2
176
     1
 73
     0
176
     1
 90
        0
176
     1
 40
-0.6
176
     1
 41
-30.0
176
     1
 62
     5
 63
     7
421
 16777215
176
     1
 74
     1
176
     1
 91
        4
176
     1
 64
     7
176
     1
 65
   257
176
     1
 75
     1
176
     1
175
     1
176
     1
 42
1.0
176
     1
 92
        8
176
     1
 66
     7
176
     1
 43
1.0
176
     1
 76
     1
176
     1
 77
     6
176
     1
 78
     2
176
     1
 67
     7
176
     1
 79
     5
176
     1
170
     0
176
     1
171
     0
176
     1
290
     0
176
     1
 93
        1
176
     1
 44
-50.0
176
     1
173
     0
176
     1
  0
VISUALSTYLE
  5
39
102
{ACAD_REACTORS
330
2A
102
}
330
2A
100
AcDbVisualStyle
  2
Facepattern
 70
    15
177
     2
291
     1
 71
     2
176
     1
 72
     2
176
     1
 73
     0
176
     1
 90
        0
176
     1
 40
-0.6
176
     1
 41
-30.0
176
     1
 62
     5
 63
     7
421
 16777215
176
     1
 74
     1
176
     1
 91
        4
176
     1
 64
     7
176
     1
 65
   257
176
     1
 75
     1
176
     1
175
     1
176
     1
 42
1.0
176
     1
 92
        8
176
     1
 66
     7
176
     1
 43
1.0
176
     1
 76
     1
176
     1
 77
     6
176
     1
 78
     2
176
     1
 67
     7
176
     1
 79
     5
176
     1
170
     0
176
     1
171
     0
176
     1
290
     0
176
     1
 93
        1
176
     1
 44
0.0
176
     1
173
     0
176
     1
  0
VISUALSTYLE
  5
2B
102
{ACAD_REACTORS
330
2A
102
}
330
2A
100
AcDbVisualStyle
  2
Flat
 70
     0
177
     2
291
     1
 71
     2
176
     1
 72
     1
176
     1
 73
     1
176
     1
 90
        2
176
     1
 40
-0.6
176
     1
 41
30.0
176
     1
 62
     5
 63
     7
421
 16777215
176
     1
 74
     0
176
     1
 91
        4
176
     1
 64
     7
176
     1
 65
   257
176
     1
 75
     1
176
     1
175
     1
176
     1
 42
1.0
176
     1
 92
        8
176
     1
 66
     7
176
     1
 43
1.0
176
     1
 76
     1
176
     1
 77
     6
176
     1
 78
     2
176
     1
 67
     7
176
     1
 79
     5
176
     1
170
     0
176
     1
171
     0
176
     1
290
     0
176
     1
 93
       13
176
     1
 44
0.0
176
     1
173
     0
176
     1
  0
VISUALSTYLE
  5
2C
102
{ACAD_REACTORS
330
2A
102
}
330
2A
100
AcDbVisualStyle
  2
FlatWithEdges
 70
     1
177
     2
291
     1
 71
     2
176
     1
 72
     1
176
     1
 73
     1
176
     1
 90
        2
176
     1
 40
-0.6
176
     1
 41
30.0
176
     1
 62
     5
 63
     7
421
 16777215
176
     1
 74
     1
176
     1
 91
        4
176
     1
 64
     7
176
     1
 65
   257
176
     1
 75
     1
176
     1
175
     1
176
     1
 42
1.0
176
     1
 92
        0
176
     1
 66
   257
176
     1
 43
1.0
176
     1
 76
     1
176
     1
 77
     6
176
     1
 78
     2
176
     1
 67
     7
176
     1
 79
     5
176
     1
170
     0
176
     1
171
     0
176
     1
290
     0
176
     1
 93
       13
176
     1
 44
0.0
176
     1
173
     0
176
     1
  0
VISUALSTYLE
  5
2D
102
{ACAD_REACTORS
330
2A
102
}
330
2A
100
AcDbVisualStyle
  2
Gouraud
 70
     2
177
     2
291
     1
 71
     2
176
     1
 72
     2
176
     1
 73
     1
176
     1
 90
        2
176
     1
 40
-0.6
176
     1
 41
30.0
176
     1
 62
     5
 63
     7
421
 16777215
176
     1
 74
     0
176
     1
 91
        4
176
     1
 64
     7
176
     1
 65
   257
176
     1
 75
     1
176
     1
175
     1
176
     1
 42
1.0
176
     1
 92
        0
176
     1
 66
     7
176
     1
 43
1.0
176
     1
 76
     1
176
     1
 77
     6
176
     1
 78
     2
176
     1
 67
     7
176
     1
 79
     5
176
     1
170
     0
176
     1
171
     0
176
     1
290
     0
176
     1
 93
       13
176
     1
 44
0.0
176
     1
173
     0
176
     1
  0
VISUALSTYLE
  5
2E
102
{ACAD_REACTORS
330
2A
102
}
330
2A
100
AcDbVisualStyle
  2
GouraudWithEdges
 70
     3
177
     2
291
     1
 71
     2
176
     1
 72
     2
176
     1
 73
     1
176
     1
 90
        2
176
     1
 40
-0.6
176
     1
 41
30.0
176
     1
 62
     5
 63
     7
421
 16777215
176
     1
 74
     1
176
     1
 91
        4
176
     1
 64
     7
176
     1
 65
   257
176
     1
 75
     1
176
     1
175
     1
176
     1
 42
1.0
176
     1
 92
        0
176
     1
 66
   257
176
     1
 43
1.0
176
     1
 76
     1
176
     1
 77
     6
176
     1
 78
     2
176
     1
 67
     7
176
     1
 79
     5
176
     1
170
     0
176
     1
171
     0
176
     1
290
     0
176
     1
 93
       13
176
     1
 44
0.0
176
     1
173
     0
176
     1
  0
VISUALSTYLE
  5
38
102
{ACAD_REACTORS
330
2A
102
}
330
2A
100
AcDbVisualStyle
  2
Linepattern
 70
    14
177
     2
291
     1
 71
     2
176
     1
 72
     2
176
     1
 73
     0
176
     1
 90
        0
176
     1
 40
-0.6
176
     1
 41
-30.0
176
     1
 62
     5
 63
     7
421
 16777215
176
     1
 74
     1
176
     1
 91
        4
176
     1
 64
     7
176
     1
 65
   257
176
     1
 75
     7
176
     1
175
     7
176
     1
 42
1.0
176
     1
 92
        8
176
     1
 66
     7
176
     1
 43
1.0
176
     1
 76
     1
176
     1
 77
     6
176
     1
 78
     2
176
     1
 67
     7
176
     1
 79
     5
176
     1
170
     0
176
     1
171
     0
176
     1
290
     0
176
     1
 93
        1
176
     1
 44
0.0
176
     1
173
     0
176
     1
  0
VISUALSTYLE
  5
33
102
{ACAD_REACTORS
330
2A
102
}
330
2A
100
AcDbVisualStyle
  2
Realistic
 70
     8
177
     2
291
     0
 71
     2
176
     1
 72
     2
176
     1
 73
     0
176
     1
 90
        0
176
     1
 40
-0.6
176
     1
 41
-30.0
176
     1
 62
     5
 63
     7
421
 16777215
176
     1
 74
     1
176
     1
 91
        0
176
     1
 64
     7
176
     1
 65
   257
176
     1
 75
     1
176
     1
175
     1
176
     1
 42
1.0
176
     1
 92
        8
176
     1
 66
     8
424
  7895160
176
     1
 43
1.0
176
     1
 76
     1
176
     1
 77
     6
176
     1
 78
     2
176
     1
 67
     7
176
     1
 79
     5
176
     1
170
     0
176
     1
171
     0
176
     1
290
     0
176
     1
 93
       13
176
     1
 44
0.0
176
     1
173
     0
176
     1
  0
VISUALSTYLE
  5
37
102
{ACAD_REACTORS
330
2A
102
}
330
2A
100
AcDbVisualStyle
  2
Thicken
 70
    13
177
     2
291
     1
 71
     2
176
     1
 72
     2
176
     1
 73
     0
176
     1
 90
        0
176
     1
 40
-0.6
176
     1
 41
-30.0
176
     1
 62
     5
 63
     7
421
 16777215
176
     1
 74
     1
176
     1
 91
        4
176
     1
 64
     7
176
     1
 65
   257
176
     1
 75
     1
176
     1
175
     1
176
     1
 42
1.0
176
     1
 92
       12
176
     1
 66
     7
176
     1
 43
1.0
176
     1
 76
     1
176
     1
 77
     6
176
     1
 78
     2
176
     1
 67
     7
176
     1
 79
     5
176
     1
170
     0
176
     1
171
     0
176
     1
290
     0
176
     1
 93
        1
176
     1
 44
0.0
176
     1
173
     0
176
     1
  0
ENDSEC
  0
EOF
