  0
SECTION
  2
HEADER
  9
$ACADVER
  1
AC1024
  9
$ACADMAINTVER
 70
     6
  9
$DWGCODEPAGE
  3
ANSI_932
  9
$INSBASE
 10
0.0
 20
0.0
 30
0.0
  9
$EXTMIN
 10
-8910.0
 20
-6300.0
 30
0.0
  9
$EXTMAX
 10
8910.0
 20
6300.0
 30
0.0
  9
$LIMMIN
 10
-8910.0
 20
-6300.0
  9
$LIMMAX
 10
8910.0
 20
6300.0
  9
$ORTHOMODE
 70
     0
  9
$REGENMODE
 70
     1
  9
$FILLMODE
 70
     1
  9
$QTEXTMODE
 70
     0
  9
$MIRRTEXT
 70
     1
  9
$LTSCALE
 40
30.0
  9
$ATTMODE
 70
     1
  9
$TEXTSIZE
 40
2.5
  9
$TRACEWID
 40
1.0
  9
$TEXTSTYLE
  7
Standard
  9
$CLAYER
  8
0
  9
$CELTYPE
  6
ByLayer
  9
$CECOLOR
 62
   256
  9
$CELTSCALE
 40
1.0
  9
$DISPSILH
 70
     0
  9
$DIMSCALE
 40
1.0
  9
$DIMASZ
 40
2.5
  9
$DIMEXO
 40
0.625
  9
$DIMDLI
 40
3.75
  9
$DIMRND
 40
0.0
  9
$DIMDLE
 40
0.0
  9
$DIMEXE
 40
1.25
  9
$DIMTP
 40
0.0
  9
$DIMTM
 40
0.0
  9
$DIMTXT
 40
2.5
  9
$DIMCEN
 40
2.5
  9
$DIMTSZ
 40
0.0
  9
$DIMTOL
 70
     0
  9
$DIMLIM
 70
     0
  9
$DIMTIH
 70
     0
  9
$DIMTOH
 70
     0
  9
$DIMSE1
 70
     0
  9
$DIMSE2
 70
     0
  9
$DIMTAD
 70
     1
  9
$DIMZIN
 70
     8
  9
$DIMBLK
  1

  9
$DIMASO
 70
     1
  9
$DIMSHO
 70
     1
  9
$DIMPOST
  1

  9
$DIMAPOST
  1

  9
$DIMALT
 70
     0
  9
$DIMALTD
 70
     3
  9
$DIMALTF
 40
0.03937007874016
  9
$DIMLFAC
 40
1.0
  9
$DIMTOFL
 70
     1
  9
$DIMTVP
 40
0.0
  9
$DIMTIX
 70
     0
  9
$DIMSOXD
 70
     0
  9
$DIMSAH
 70
     0
  9
$DIMBLK1
  1

  9
$DIMBLK2
  1

  9
$DIMSTYLE
  2
ISO-25
  9
$DIMCLRD
 70
     0
  9
$DIMCLRE
 70
     0
  9
$DIMCLRT
 70
     0
  9
$DIMTFAC
 40
1.0
  9
$DIMGAP
 40
0.625
  9
$DIMJUST
 70
     0
  9
$DIMSD1
 70
     0
  9
$DIMSD2
 70
     0
  9
$DIMTOLJ
 70
     0
  9
$DIMTZIN
 70
     8
  9
$DIMALTZ
 70
     0
  9
$DIMALTTZ
 70
     0
  9
$DIMUPT
 70
     0
  9
$DIMDEC
 70
     2
  9
$DIMTDEC
 70
     2
  9
$DIMALTU
 70
     2
  9
$DIMALTTD
 70
     3
  9
$DIMTXSTY
  7
Standard
  9
$DIMAUNIT
 70
     0
  9
$DIMADEC
 70
     0
  9
$DIMALTRND
 40
0.0
  9
$DIMAZIN
 70
     0
  9
$DIMDSEP
 70
    44
  9
$DIMATFIT
 70
     3
  9
$DIMFRAC
 70
     0
  9
$DIMLDRBLK
  1

  9
$DIMLUNIT
 70
     2
  9
$DIMLWD
 70
    -2
  9
$DIMLWE
 70
    -2
  9
$DIMTMOVE
 70
     0
  9
$DIMFXL
 40
1.0
  9
$DIMFXLON
 70
     0
  9
$DIMJOGANG
 40
0.7853981633974483
  9
$DIMTFILL
 70
     0
  9
$DIMTFILLCLR
 70
     0
  9
$DIMARCSYM
 70
     0
  9
$DIMLTYPE
  6

  9
$DIMLTEX1
  6

  9
$DIMLTEX2
  6

  9
$DIMTXTDIRECTION
 70
     0
  9
$LUNITS
 70
     2
  9
$LUPREC
 70
     4
  9
$SKETCHINC
 40
1.0
  9
$FILLETRAD
 40
10.0
  9
$AUNITS
 70
     0
  9
$AUPREC
 70
     0
  9
$MENU
  1
.
  9
$ELEVATION
 40
0.0
  9
$PELEVATION
 40
0.0
  9
$THICKNESS
 40
0.0
  9
$LIMCHECK
 70
     0
  9
$CHAMFERA
 40
10.0
  9
$CHAMFERB
 40
10.0
  9
$CHAMFERC
 40
20.0
  9
$CHAMFERD
 40
0.0
  9
$SKPOLY
 70
     0
  9
$TDCREATE
 40
2460066.451299456
  9
$TDUCREATE
 40
2460066.076299456
  9
$TDUPDATE
 40
2460066.451299468
  9
$TDUUPDATE
 40
2460066.076299468
  9
$TDINDWG
 40
0.0000000116
  9
$TDUSRTIMER
 40
0.0000000116
  9
$USRTIMER
 70
     1
  9
$ANGBASE
 50
0.0
  9
$ANGDIR
 70
     0
  9
$PDMODE
 70
     0
  9
$PDSIZE
 40
0.0
  9
$PLINEWID
 40
0.0
  9
$SPLFRAME
 70
     0
  9
$SPLINETYPE
 70
     6
  9
$SPLINESEGS
 70
     8
  9
$HANDSEED
  5
51F
  9
$SURFTAB1
 70
     6
  9
$SURFTAB2
 70
     6
  9
$SURFTYPE
 70
     6
  9
$SURFU
 70
     6
  9
$SURFV
 70
     6
  9
$UCSBASE
  2

  9
$UCSNAME
  2

  9
$UCSORG
 10
0.0
 20
0.0
 30
0.0
  9
$UCSXDIR
 10
1.0
 20
0.0
 30
0.0
  9
$UCSYDIR
 10
0.0
 20
1.0
 30
0.0
  9
$UCSORTHOREF
  2

  9
$UCSORTHOVIEW
 70
     0
  9
$UCSORGTOP
 10
0.0
 20
0.0
 30
0.0
  9
$UCSORGBOTTOM
 10
0.0
 20
0.0
 30
0.0
  9
$UCSORGLEFT
 10
0.0
 20
0.0
 30
0.0
  9
$UCSORGRIGHT
 10
0.0
 20
0.0
 30
0.0
  9
$UCSORGFRONT
 10
0.0
 20
0.0
 30
0.0
  9
$UCSORGBACK
 10
0.0
 20
0.0
 30
0.0
  9
$PUCSBASE
  2

  9
$PUCSNAME
  2

  9
$PUCSORG
 10
0.0
 20
0.0
 30
0.0
  9
$PUCSXDIR
 10
1.0
 20
0.0
 30
0.0
  9
$PUCSYDIR
 10
0.0
 20
1.0
 30
0.0
  9
$PUCSORTHOREF
  2

  9
$PUCSORTHOVIEW
 70
     0
  9
$PUCSORGTOP
 10
0.0
 20
0.0
 30
0.0
  9
$PUCSORGBOTTOM
 10
0.0
 20
0.0
 30
0.0
  9
$PUCSORGLEFT
 10
0.0
 20
0.0
 30
0.0
  9
$PUCSORGRIGHT
 10
0.0
 20
0.0
 30
0.0
  9
$PUCSORGFRONT
 10
0.0
 20
0.0
 30
0.0
  9
$PUCSORGBACK
 10
0.0
 20
0.0
 30
0.0
  9
$USERI1
 70
     0
  9
$USERI2
 70
     0
  9
$USERI3
 70
     0
  9
$USERI4
 70
     0
  9
$USERI5
 70
     0
  9
$USERR1
 40
0.0
  9
$USERR2
 40
0.0
  9
$USERR3
 40
0.0
  9
$USERR4
 40
0.0
  9
$USERR5
 40
0.0
  9
$WORLDVIEW
 70
     1
  9
$SHADEDGE
 70
     3
  9
$SHADEDIF
 70
    70
  9
$TILEMODE
 70
     1
  9
$MAXACTVP
 70
    64
  9
$PINSBASE
 10
0.0
 20
0.0
 30
0.0
  9
$PLIMCHECK
 70
     0
  9
$PEXTMIN
 10
1.000000000000000E+20
 20
1.000000000000000E+20
 30
1.000000000000000E+20
  9
$PEXTMAX
 10
-1.000000000000000E+20
 20
-1.000000000000000E+20
 30
-1.000000000000000E+20
  9
$PLIMMIN
 10
0.0
 20
0.0
  9
$PLIMMAX
 10
420.0
 20
297.0
  9
$UNITMODE
 70
     0
  9
$VISRETAIN
 70
     1
  9
$PLINEGEN
 70
     0
  9
$PSLTSCALE
 70
     1
  9
$TREEDEPTH
 70
  3020
  9
$CMLSTYLE
  2
Standard
  9
$CMLJUST
 70
     0
  9
$CMLSCALE
 40
20.0
  9
$PROXYGRAPHICS
 70
     1
  9
$MEASUREMENT
 70
     1
  9
$CELWEIGHT
370
    -1
  9
$ENDCAPS
280
     0
  9
$JOINSTYLE
280
     0
  9
$LWDISPLAY
290
     0
  9
$INSUNITS
 70
     4
  9
$HYPERLINKBASE
  1

  9
$STYLESHEET
  1

  9
$XEDIT
290
     1
  9
$CEPSNTYPE
380
     0
  9
$PSTYLEMODE
290
     1
  9
$FINGERPRINTGUID
  2
{1C9747EC-C052-4785-9269-6259AE37CD91}
  9
$VERSIONGUID
  2
{FAEB1C32-E019-11D5-929B-00C0DF256EC4}
  9
$EXTNAMES
290
     1
  9
$PSVPSCALE
 40
0.0
  9
$OLESTARTUP
290
     0
  9
$SORTENTS
280
   127
  9
$INDEXCTL
280
     0
  9
$HIDETEXT
280
     1
  9
$XCLIPFRAME
280
     2
  9
$HALOGAP
280
     0
  9
$OBSCOLOR
 70
   257
  9
$OBSLTYPE
280
     0
  9
$INTERSECTIONDISPLAY
280
     0
  9
$INTERSECTIONCOLOR
 70
   257
  9
$DIMASSOC
280
     2
  9
$PROJECTNAME
  1

  9
$CAMERADISPLAY
290
     0
  9
$LENSLENGTH
 40
50.0
  9
$CAMERAHEIGHT
 40
0.0
  9
$STEPSPERSEC
 40
2.0
  9
$STEPSIZE
 40
6.0
  9
$3DDWFPREC
 40
2.0
  9
$PSOLWIDTH
 40
5.0
  9
$PSOLHEIGHT
 40
80.0
  9
$LOFTANG1
 40
1.570796326794897
  9
$LOFTANG2
 40
1.570796326794897
  9
$LOFTMAG1
 40
0.0
  9
$LOFTMAG2
 40
0.0
  9
$LOFTPARAM
 70
     7
  9
$LOFTNORMALS
280
     1
  9
$LATITUDE
 40
37.795
  9
$LONGITUDE
 40
-122.394
  9
$NORTHDIRECTION
 40
0.0
  9
$TIMEZONE
 70
 -8000
  9
$LIGHTGLYPHDISPLAY
280
     1
  9
$TILEMODELIGHTSYNCH
280
     1
  9
$SOLIDHIST
280
     1
  9
$SHOWHIST
280
     1
  9
$DWFFRAME
280
     2
  9
$DGNFRAME
280
     2
  9
$REALWORLDSCALE
290
     1
  9
$INTERFERECOLOR
 62
   256
  9
$CSHADOW
280
     0
  9
$SHADOWPLANELOCATION
 40
0.0
  0
ENDSEC
  0
SECTION
  2
CLASSES
  0
CLASS
  1
ACDBDICTIONARYWDFLT
  2
AcDbDictionaryWithDefault
  3
ObjectDBX Classes
 90
        0
 91
        4
280
     0
281
     0
  0
CLASS
  1
VISUALSTYLE
  2
AcDbVisualStyle
  3
ObjectDBX Classes
 90
     4095
 91
        4
280
     0
281
     0
  0
CLASS
  1
MATERIAL
  2
AcDbMaterial
  3
ObjectDBX Classes
 90
     1153
 91
        4
280
     0
281
     0
  0
ENDSEC
  0
SECTION
  2
TABLES
  0
TABLE
  2
VPORT
  5
8
330
0
100
AcDbSymbolTable
 70
     1
  0
VPORT
  5
29
330
8
100
AcDbSymbolTableRecord
100
AcDbViewportTableRecord
  2
*Active
 70
     0
 10
0.0
 20
0.0
 11
1.0
 21
1.0
 12
0.0
 22
0.0
 13
0.0
 23
0.0
 14
10.0
 24
10.0
 15
10.0
 25
10.0
 16
0.0
 26
0.0
 36
1.0
 17
0.0
 27
0.0
 37
0.0
 40
13860.0
 41
1.414285714285714
 42
50.0
 43
0.0
 44
0.0
 50
0.0
 51
0.0
 71
     0
 72
 10000
 73
     1
 74
     3
 75
     0
 76
     0
 77
     0
 78
     0
281
     0
 65
     1
110
0.0
120
0.0
130
0.0
111
1.0
121
0.0
131
0.0
112
0.0
122
1.0
132
0.0
 79
     0
146
0.0
 60
     3
 61
     5
292
     1
282
     1
141
0.0
142
0.0
 63
   250
  0
ENDTAB
  0
TABLE
  2
LTYPE
  5
5
330
0
100
AcDbSymbolTable
 70
     4
  0
LTYPE
  5
14
330
5
100
AcDbSymbolTableRecord
100
AcDbLinetypeTableRecord
  2
ByBlock
 70
     0
  3

 72
    65
 73
     0
 40
0.0
  0
LTYPE
  5
15
330
5
100
AcDbSymbolTableRecord
100
AcDbLinetypeTableRecord
  2
ByLayer
 70
     0
  3

 72
    65
 73
     0
 40
0.0
  0
LTYPE
  5
16
330
5
100
AcDbSymbolTableRecord
100
AcDbLinetypeTableRecord
  2
Continuous
 70
     0
  3
Solid line
 72
    65
 73
     0
 40
0.0
  0
LTYPE
  5
3F
330
5
100
AcDbSymbolTableRecord
100
AcDbLinetypeTableRecord
  2
JWW_HOJO
 70
     0
  3
  -   -   -   -   -   -   -   - 
 72
    65
 73
     2
 40
1.693333333333333
 49
-1.27
 74
     0
 49
0.4233333333333333
 74
     0
  0
LTYPE
  5
40
330
5
100
AcDbSymbolTableRecord
100
AcDbLinetypeTableRecord
  2
JWW_DASHED1
 70
     0
  3
-  --  --  --  --  --  --  --  -
 72
    65
 73
     2
 40
0.3386666666666667
 49
0.1693333333333333
 74
     0
 49
-0.1693333333333333
 74
     0
  0
LTYPE
  5
41
330
5
100
AcDbSymbolTableRecord
100
AcDbLinetypeTableRecord
  2
JWW_CENTER1
 70
     0
  3
-----  --  ----------  --  -----
 72
    65
 73
     4
 40
3.386666666666667
 49
2.116666666666667
 74
     0
 49
-0.4233333333333333
 74
     0
 49
0.4233333333333333
 74
     0
 49
-0.4233333333333333
 74
     0
  0
ENDTAB
  0
TABLE
  2
LAYER
  5
2
330
0
100
AcDbSymbolTable
 70
    12
  0
LAYER
  5
10
330
2
100
AcDbSymbolTableRecord
100
AcDbLayerTableRecord
  2
0
 70
     0
 62
     7
  6
Continuous
370
    -3
390
F
347
3E
  0
LAYER
  5
42
330
2
100
AcDbSymbolTableRecord
100
AcDbLayerTableRecord
  2
F-1_枠
 70
     0
 62
     7
  6
Continuous
370
    -3
390
F
347
3E
  0
LAYER
  5
43
330
2
100
AcDbSymbolTableRecord
100
AcDbLayerTableRecord
  2
F-0_補助線
 70
     0
 62
     7
  6
Continuous
370
    -3
390
F
347
3E
  0
LAYER
  5
44
330
2
100
AcDbSymbolTableRecord
100
AcDbLayerTableRecord
  2
F-A_文字
 70
     0
 62
     7
  6
Continuous
370
    -3
390
F
347
3E
  0
LAYER
  5
45
330
2
100
AcDbSymbolTableRecord
100
AcDbLayerTableRecord
  2
0-0_補助線
 70
     0
 62
     7
  6
Continuous
370
    -3
390
F
347
3E
  0
LAYER
  5
46
330
2
100
AcDbSymbolTableRecord
100
AcDbLayerTableRecord
  2
0-A_文字
 70
     0
 62
     7
  6
Continuous
370
    -3
390
F
347
3E
  0
LAYER
  5
47
330
2
100
AcDbSymbolTableRecord
100
AcDbLayerTableRecord
  2
0-B_寸法
 70
     0
 62
     7
  6
Continuous
370
    -3
390
F
347
3E
  0
LAYER
  5
48
330
2
100
AcDbSymbolTableRecord
100
AcDbLayerTableRecord
  2
0-4_枠
 70
     0
 62
     7
  6
Continuous
370
    -3
390
F
347
3E
  0
LAYER
  5
49
330
2
100
AcDbSymbolTableRecord
100
AcDbLayerTableRecord
  2
0-2_扉
 70
     0
 62
     7
  6
Continuous
370
    -3
390
F
347
3E
  0
LAYER
  5
4A
330
2
100
AcDbSymbolTableRecord
100
AcDbLayerTableRecord
  2
取手
 70
     0
 62
     7
  6
Continuous
370
    -3
390
F
347
3E
  0
LAYER
  5
4B
330
2
100
AcDbSymbolTableRecord
100
AcDbLayerTableRecord
  2
0-3_仕上げ
 70
     0
 62
     7
  6
Continuous
370
    -3
390
F
347
3E
  0
LAYER
  5
4C
330
2
100
AcDbSymbolTableRecord
100
AcDbLayerTableRecord
  2
0-1_通り芯
 70
     0
 62
     7
  6
Continuous
370
    -3
390
F
347
3E
  0
ENDTAB
  0
TABLE
  2
STYLE
  5
3
330
0
100
AcDbSymbolTable
 70
     1
  0
STYLE
  5
11
330
3
100
AcDbSymbolTableRecord
100
AcDbTextStyleTableRecord
  2
Standard
 70
     0
 40
0.0
 41
1.0
 50
0.0
 71
     0
 42
2.5
  3
txt
  4

  0
ENDTAB
  0
TABLE
  2
VIEW
  5
6
330
0
100
AcDbSymbolTable
 70
     0
  0
ENDTAB
  0
TABLE
  2
UCS
  5
7
330
0
100
AcDbSymbolTable
 70
     0
  0
ENDTAB
  0
TABLE
  2
APPID
  5
9
330
0
100
AcDbSymbolTable
 70
     1
  0
APPID
  5
12
330
9
100
AcDbSymbolTableRecord
100
AcDbRegAppTableRecord
  2
ACAD
 70
     0
  0
ENDTAB
  0
TABLE
  2
DIMSTYLE
  5
A
330
0
100
AcDbSymbolTable
 70
     1
100
AcDbDimStyleTable
  0
DIMSTYLE
105
27
330
A
100
AcDbSymbolTableRecord
100
AcDbDimStyleTableRecord
  2
ISO-25
 70
     0
 41
2.5
 42
0.625
 43
3.75
 44
1.25
 73
     0
 74
     0
 77
     1
 78
     8
140
2.5
141
2.5
143
0.03937007874016
147
0.625
171
     3
172
     1
178
     0
271
     2
272
     2
274
     3
278
    44
283
     0
284
     8
340
11
  0
ENDTAB
  0
TABLE
  2
BLOCK_RECORD
  5
1
330
0
100
AcDbSymbolTable
 70
     1
  0
BLOCK_RECORD
  5
1F
330
1
100
AcDbSymbolTableRecord
100
AcDbBlockTableRecord
  2
*Model_Space
340
22
 70
     0
280
     1
281
     0
  0
BLOCK_RECORD
  5
1B
330
1
100
AcDbSymbolTableRecord
100
AcDbBlockTableRecord
  2
*Paper_Space
340
1E
 70
     0
280
     1
281
     0
  0
BLOCK_RECORD
  5
23
330
1
100
AcDbSymbolTableRecord
100
AcDbBlockTableRecord
  2
*Paper_Space0
340
26
 70
     0
280
     1
281
     0
  0
ENDTAB
  0
ENDSEC
  0
SECTION
  2
BLOCKS
  0
BLOCK
  5
20
330
1F
100
AcDbEntity
  8
0
100
AcDbBlockBegin
  2
*Model_Space
 70
     0
 10
0.0
 20
0.0
 30
0.0
  3
*Model_Space
  1

  0
ENDBLK
  5
21
330
1F
100
AcDbEntity
  8
0
100
AcDbBlockEnd
  0
BLOCK
  5
1C
330
1B
100
AcDbEntity
 67
     1
  8
0
100
AcDbBlockBegin
  2
*Paper_Space
 70
     0
 10
0.0
 20
0.0
 30
0.0
  3
*Paper_Space
  1

  0
ENDBLK
  5
1D
330
1B
100
AcDbEntity
 67
     1
  8
0
100
AcDbBlockEnd
  0
BLOCK
  5
24
330
23
100
AcDbEntity
  8
0
100
AcDbBlockBegin
  2
*Paper_Space0
 70
     0
 10
0.0
 20
0.0
 30
0.0
  3
*Paper_Space0
  1

  0
ENDBLK
  5
25
330
23
100
AcDbEntity
  8
0
100
AcDbBlockEnd
  0
ENDSEC
  0
SECTION
  2
ENTITIES
  0
LINE
  5
4D
330
1F
100
AcDbEntity
  8
F-1_枠
  6
Continuous
 62
   200
370
    20
100
AcDbLine
 10
-5999.99998453501
 20
190.5001831054688
 30
0.0
 11
5699.998762800888
 21
190.5001831054688
 31
0.0
  0
LINE
  5
4E
330
1F
100
AcDbEntity
  8
F-1_枠
  6
Continuous
 62
   200
370
    20
100
AcDbLine
 10
-5999.999752560178
 20
4174.999769056166
 30
0.0
 11
5699.998762800888
 21
4174.999769056166
 31
0.0
  0
LINE
  5
4F
330
1F
100
AcDbEntity
  8
F-0_補助線
  6
JWW_HOJO
 62
   120
370
     5
100
AcDbLine
 10
-6300.0
 20
-4455.0
 30
0.0
 11
-6300.0
 21
4424.999604096284
 31
0.0
  0
LINE
  5
50
330
1F
100
AcDbEntity
  8
F-0_補助線
  6
JWW_HOJO
 62
   120
370
     5
100
AcDbLine
 10
5999.999010240709
 20
4424.999604096284
 30
0.0
 11
5999.999010240709
 21
-4455.0
 31
0.0
  0
LINE
  5
51
330
1F
100
AcDbEntity
  8
F-0_補助線
  6
JWW_HOJO
 62
   120
370
     5
100
AcDbLine
 10
5999.999010240709
 20
-4455.0
 30
0.0
 11
-6300.0
 21
-4455.0
 31
0.0
  0
LINE
  5
52
330
1F
100
AcDbEntity
  8
F-1_枠
  6
Continuous
 62
   200
370
    20
100
AcDbLine
 10
-5999.999752560178
 20
4164.999983504013
 30
0.0
 11
5699.998762800888
 21
4164.999983504013
 31
0.0
  0
LINE
  5
53
330
1F
100
AcDbEntity
  8
F-1_枠
  6
Continuous
 62
   200
370
    20
100
AcDbLine
 10
-5999.999752560178
 20
4169.999505120355
 30
0.0
 11
5699.998762800888
 21
4169.999505120355
 31
0.0
  0
LINE
  5
54
330
1F
100
AcDbEntity
  8
F-1_枠
  6
Continuous
 62
   200
370
    20
100
AcDbLine
 10
5689.998977248734
 20
4174.999769056166
 30
0.0
 11
5689.998977248734
 21
-4205.000164959882
 31
0.0
  0
LINE
  5
55
330
1F
100
AcDbEntity
  8
F-1_枠
  6
Continuous
 62
   200
370
    20
100
AcDbLine
 10
5694.998498865077
 20
4174.999769056166
 30
0.0
 11
5694.998498865077
 21
-4205.000164959882
 31
0.0
  0
LINE
  5
56
330
1F
100
AcDbEntity
  8
F-1_枠
  6
Continuous
 62
   200
370
    20
100
AcDbLine
 10
5699.998762800888
 20
4174.999769056166
 30
0.0
 11
5699.998762800888
 21
-4205.000164959882
 31
0.0
  0
LINE
  5
57
330
1F
100
AcDbEntity
  8
F-1_枠
  6
Continuous
 62
   200
370
    20
100
AcDbLine
 10
-5989.999990205507
 20
4174.999769056166
 30
0.0
 11
-5989.999990205507
 21
-4205.000164959882
 31
0.0
  0
LINE
  5
58
330
1F
100
AcDbEntity
  8
F-1_枠
  6
Continuous
 62
   200
370
    20
100
AcDbLine
 10
-5994.999975771518
 20
4174.999769056166
 30
0.0
 11
-5994.999975771518
 21
-4205.000164959882
 31
0.0
  0
LINE
  5
59
330
1F
100
AcDbEntity
  8
F-1_枠
  6
Continuous
 62
   200
370
    20
100
AcDbLine
 10
-5999.99998453501
 20
4174.999769056166
 30
0.0
 11
-5999.99998453501
 21
-4205.000164959882
 31
0.0
  0
LINE
  5
5A
330
1F
100
AcDbEntity
  8
F-1_枠
  6
Continuous
 62
   200
370
    20
100
AcDbLine
 10
-5490.000018557986
 20
4174.999769056166
 30
0.0
 11
-5490.000018557986
 21
-3790.000179909372
 31
0.0
  0
LINE
  5
5B
330
1F
100
AcDbEntity
  8
F-0_補助線
  6
JWW_HOJO
 62
   120
370
     5
100
AcDbLine
 10
-6300.0
 20
4424.999604096284
 30
0.0
 11
5999.999010240709
 21
4424.999604096284
 31
0.0
  0
LINE
  5
5C
330
1F
100
AcDbEntity
  8
F-0_補助線
  6
JWW_HOJO
 62
     7
370
     9
100
AcDbLine
 10
849.9995876002961
 20
-3795.000003092998
 30
0.0
 11
849.9995876002961
 21
-4195.000008247994
 31
0.0
  0
LINE
  5
5D
330
1F
100
AcDbEntity
  8
F-0_補助線
  6
JWW_HOJO
 62
     7
370
     9
100
AcDbLine
 10
349.9999175200594
 20
-3795.000003092998
 30
0.0
 11
349.9999175200594
 21
-4195.000008247994
 31
0.0
  0
LINE
  5
5E
330
1F
100
AcDbEntity
  8
F-1_枠
  6
Continuous
 62
   200
370
    20
100
AcDbLine
 10
5699.998762800888
 20
-4205.000002577498
 30
0.0
 11
-5999.999752560178
 21
-4205.000002577498
 31
0.0
  0
LINE
  5
5F
330
1F
100
AcDbEntity
  8
F-1_枠
  6
Continuous
 62
   200
370
    20
100
AcDbLine
 10
5699.998762800888
 20
-4199.999993814004
 30
0.0
 11
-5999.999752560178
 21
-4199.999993814004
 31
0.0
  0
LINE
  5
60
330
1F
100
AcDbEntity
  8
F-1_枠
  6
Continuous
 62
   200
370
    20
100
AcDbLine
 10
5699.998762800888
 20
-4195.000008247994
 30
0.0
 11
-5999.999752560178
 21
-4195.000008247994
 31
0.0
  0
LINE
  5
61
330
1F
100
AcDbEntity
  8
F-1_枠
  6
Continuous
 62
   200
370
    20
100
AcDbLine
 10
4189.999224688556
 20
-3795.000003092998
 30
0.0
 11
4189.999224688556
 21
-4195.000008247994
 31
0.0
  0
LINE
  5
62
330
1F
100
AcDbEntity
  8
F-1_枠
  6
Continuous
 62
   200
370
    20
100
AcDbLine
 10
2689.998729808911
 20
-3795.000003092998
 30
0.0
 11
2689.998729808911
 21
-4195.000008247994
 31
0.0
  0
LINE
  5
63
330
1F
100
AcDbEntity
  8
F-1_枠
  6
Continuous
 62
   200
370
    20
100
AcDbLine
 10
-150.0001237199109
 20
-3795.000003092998
 30
0.0
 11
-150.0001237199109
 21
-4195.000008247994
 31
0.0
  0
LINE
  5
64
330
1F
100
AcDbEntity
  8
F-1_枠
  6
Continuous
 62
   200
370
    20
100
AcDbLine
 10
-150.0001237199109
 20
-3994.999936078046
 30
0.0
 11
5689.998977248734
 21
-3995.005364289155
 31
0.0
  0
LINE
  5
65
330
1F
100
AcDbEntity
  8
F-0_補助線
  6
JWW_HOJO
 62
     7
370
     9
100
AcDbLine
 10
-5989.999990205507
 20
-3994.99993607839
 30
0.0
 11
-150.0001237199109
 21
-3994.99993607839
 31
0.0
  0
LINE
  5
66
330
1F
100
AcDbEntity
  8
F-0_補助線
  6
JWW_HOJO
 62
     7
370
     9
100
AcDbLine
 10
-5989.999990205507
 20
-3904.99993607839
 30
0.0
 11
-150.0001237199109
 21
-3904.99993607839
 31
0.0
  0
LINE
  5
67
330
1F
100
AcDbEntity
  8
F-0_補助線
  6
JWW_HOJO
 62
     7
370
     9
100
AcDbLine
 10
-5989.999990205507
 20
-4084.99993607839
 30
0.0
 11
-150.0001237199109
 21
-4084.99993607839
 31
0.0
  0
LINE
  5
68
330
1F
100
AcDbEntity
  8
F-0_補助線
  6
JWW_HOJO
 62
     7
370
     9
100
AcDbLine
 10
-150.0002584955388
 20
-4139.999739777983
 30
0.0
 11
5689.998842473105
 21
-4140.005167989091
 31
0.0
  0
LINE
  5
69
330
1F
100
AcDbEntity
  8
F-0_補助線
  6
JWW_HOJO
 62
     7
370
     9
100
AcDbLine
 10
-150.0001748415872
 20
-4049.999739778022
 30
0.0
 11
5689.998926127057
 21
-4050.005167989131
 31
0.0
  0
LINE
  5
6A
330
1F
100
AcDbEntity
  8
F-0_補助線
  6
JWW_HOJO
 62
     7
370
     9
100
AcDbLine
 10
-150.0000725978671
 20
-3939.99973721807
 30
0.0
 11
5689.999028370777
 21
-3940.005165429179
 31
0.0
  0
LINE
  5
6B
330
1F
100
AcDbEntity
  8
F-0_補助線
  6
JWW_HOJO
 62
     7
370
     9
100
AcDbLine
 10
-149.9999889439155
 20
-3849.999737218109
 30
0.0
 11
5689.999112024728
 21
-3850.005165429218
 31
0.0
  0
LINE
  5
6C
330
1F
100
AcDbEntity
  8
F-0_補助線
  6
JWW_HOJO
 62
     7
370
     9
100
AcDbLine
 10
2779.998729808911
 20
-3795.000003092998
 30
0.0
 11
2779.998729808911
 21
-4195.000008247994
 31
0.0
  0
LINE
  5
6D
330
1F
100
AcDbEntity
  8
F-0_補助線
  6
JWW_HOJO
 62
     7
370
     9
100
AcDbLine
 10
-60.0001237199109
 20
-3795.000003092998
 30
0.0
 11
-60.0001237199109
 21
-4195.000008247994
 31
0.0
  0
LINE
  5
6E
330
1F
100
AcDbEntity
  8
F-0_補助線
  6
JWW_HOJO
 62
     7
370
     9
100
AcDbLine
 10
4279.999224688556
 20
-3795.000003092998
 30
0.0
 11
4279.999224688556
 21
-4195.000008247994
 31
0.0
  0
LINE
  5
6F
330
1F
100
AcDbEntity
  8
F-0_補助線
  6
JWW_HOJO
 62
     7
370
     9
100
AcDbLine
 10
-5247.547376752838
 20
-3795.000003092999
 30
0.0
 11
-5247.547376752838
 21
-4205.000164959882
 31
0.0
  0
LINE
  5
70
330
1F
100
AcDbEntity
  8
F-0_補助線
  6
JWW_HOJO
 62
     7
370
     9
100
AcDbLine
 10
-210.0001237199109
 20
-3795.000003092998
 30
0.0
 11
-210.0001237199109
 21
-4195.000008247994
 31
0.0
  0
LINE
  5
71
330
1F
100
AcDbEntity
  8
F-1_枠
  6
Continuous
 62
   200
370
    20
100
AcDbLine
 10
5699.998762800888
 20
-3795.000003092998
 30
0.0
 11
-5999.99998453501
 21
-3795.000003092998
 31
0.0
  0
LINE
  5
72
330
1F
100
AcDbEntity
  8
F-1_枠
  6
Continuous
 62
   200
370
    20
100
AcDbLine
 10
-5999.99998453501
 20
3964.999818544131
 30
0.0
 11
5699.998762800888
 21
3964.999818544131
 31
0.0
  0
LINE
  5
73
330
1F
100
AcDbEntity
  8
F-1_枠
  6
Continuous
 62
   200
370
    20
100
AcDbLine
 10
5699.998762800888
 20
-3790.000017526987
 30
0.0
 11
-5999.99998453501
 21
-3790.000017526987
 31
0.0
  0
LINE
  5
74
330
1F
100
AcDbEntity
  8
F-1_枠
  6
Continuous
 62
   200
370
    20
100
AcDbLine
 10
-5999.99998453501
 20
-15.50015011349217
 30
0.0
 11
5699.998762800888
 21
-15.50015011349217
 31
0.0
  0
LINE
  5
75
330
1F
100
AcDbEntity
  8
F-1_枠
  6
Continuous
 62
   200
370
    20
100
AcDbLine
 10
-5999.99998453501
 20
184.5000148463899
 30
0.0
 11
5699.998762800888
 21
184.5000148463899
 31
0.0
  0
LINE
  5
76
330
1F
100
AcDbEntity
  8
F-1_枠
  6
Continuous
 62
   200
370
    20
100
AcDbLine
 10
-5999.99998453501
 20
187.5000989759289
 30
0.0
 11
5699.998762800888
 21
187.5000989759289
 31
0.0
  0
LINE
  5
77
330
1F
100
AcDbEntity
  8
F-1_枠
  6
Continuous
 62
   200
370
    20
100
AcDbLine
 10
-1763.333686622412
 20
190.5001831054688
 30
0.0
 11
-1763.333686622412
 21
4174.999769056166
 31
0.0
  0
LINE
  5
78
330
1F
100
AcDbEntity
  8
F-1_枠
  6
Continuous
 62
   200
370
    20
100
AcDbLine
 10
99.99947934537431
 20
-3790.000179909372
 30
0.0
 11
99.99947934537431
 21
184.5000148463899
 31
0.0
  0
LINE
  5
79
330
1F
100
AcDbEntity
  8
F-1_枠
  6
Continuous
 62
   200
370
    20
100
AcDbLine
 10
1963.33264531316
 20
190.5001831054688
 30
0.0
 11
1963.33264531316
 21
4174.999769056166
 31
0.0
  0
MTEXT
  5
7A
330
1F
100
AcDbEntity
  8
F-A_文字
  6
Continuous
 62
     7
370
     9
100
AcDbMText
 10
-5890.000004381747
 20
4018.575148463894
 30
0.0
 40
57.15
 41
300.0
 46
0.0
 71
     7
 72
     1
  1
{\fＭＳ ゴシック|b0|i0|c128|p49;デザイン}
 73
     1
 44
1.0
  0
MTEXT
  5
7B
330
1F
100
AcDbEntity
  8
F-A_文字
  6
Continuous
 62
     7
370
     9
100
AcDbMText
 10
-5852.500004381747
 20
2031.325062684755
 30
0.0
 40
57.15
 41
225.0
 46
0.0
 71
     7
 72
     1
  1
{\fＭＳ ゴシック|b0|i0|c128|p49;姿　図}
 73
     1
 44
1.0
  0
MTEXT
  5
7C
330
1F
100
AcDbEntity
  8
F-A_文字
  6
Continuous
 62
     7
370
     9
100
AcDbMText
 10
-5890.000004381747
 20
38.07493236644844
 30
0.0
 40
57.15
 41
300.0
 46
0.0
 71
     7
 72
     1
  1
{\fＭＳ ゴシック|b0|i0|c128|p49;デザイン}
 73
     1
 44
1.0
  0
MTEXT
  5
7D
330
1F
100
AcDbEntity
  8
F-A_文字
  6
Continuous
 62
     7
370
     9
100
AcDbMText
 10
-5852.500004381747
 20
-1949.175091552734
 30
0.0
 40
57.15
 41
225.0
 46
0.0
 71
     7
 72
     1
  1
{\fＭＳ ゴシック|b0|i0|c128|p49;姿　図}
 73
     1
 44
1.0
  0
MTEXT
  5
7E
330
1F
100
AcDbEntity
  8
F-A_文字
  6
Continuous
 62
     7
370
     0
100
AcDbMText
 10
-60.0001237199109
 20
-3887.139820871936
 30
0.0
 40
45.72
 41
180.0
 46
0.0
 71
     7
 72
     1
  1
{\fＭＳ ゴシック|b0|i0|c128|p49;図面名}
 73
     1
 44
1.0
  0
MTEXT
  5
7F
330
1F
100
AcDbEntity
  8
F-A_文字
  6
Continuous
 62
     7
370
     0
100
AcDbMText
 10
2779.998729808911
 20
-3887.142460617774
 30
0.0
 40
45.72
 41
300.0
 46
0.0
 71
     7
 72
     1
  1
{\fＭＳ ゴシック|b0|i0|c128|p49;ＳＣＡＬＥ}
 73
     1
 44
1.0
  0
MTEXT
  5
80
330
1F
100
AcDbEntity
  8
F-A_文字
  6
Continuous
 62
     7
370
     0
100
AcDbMText
 10
4279.999224688556
 20
-3887.143854850754
 30
0.0
 40
45.72
 41
240.0
 46
0.0
 71
     7
 72
     1
  1
{\fＭＳ ゴシック|b0|i0|c128|p49;ＤＡＴＥ}
 73
     1
 44
1.0
  0
MTEXT
  5
81
330
1F
100
AcDbEntity
  8
F-A_文字
  6
Continuous
 62
     7
370
     0
100
AcDbMText
 10
1180.417701903719
 20
-3946.423911599839
 30
0.0
 40
77.15249999999999
 41
405.0
 46
0.0
 71
     7
 72
     1
  1
{\fＭＳ ゴシック|b0|i0|c128|p49;建具姿図}
 73
     1
 44
1.0
  0
MTEXT
  5
82
330
1F
100
AcDbEntity
  8
F-A_文字
  6
Continuous
 62
     7
370
     0
100
AcDbMText
 10
3383.748977248734
 20
-3946.426865907308
 30
0.0
 40
77.15249999999999
 41
202.5
 46
0.0
 71
     7
 72
     1
  1
{\fＭＳ ゴシック|b0|i0|c128|p49;1/30}
 73
     1
 44
1.0
  0
MTEXT
  5
83
330
1F
100
AcDbEntity
  8
F-A_文字
  6
Continuous
 62
     7
370
     0
100
AcDbMText
 10
349.9999175200594
 20
-3946.496666872502
 30
0.0
 40
78.58125
 41
412.5
 46
0.0
 71
     7
 72
     1
  1
{\fＭＳ ゴシック|b0|i0|c128|p49;DOORETUS}
 73
     1
 44
1.0
  0
MTEXT
  5
84
330
1F
100
AcDbEntity
  8
F-A_文字
  6
Continuous
 62
     7
370
     0
100
AcDbMText
 10
2779.998729808911
 20
-4087.14246317786
 30
0.0
 40
45.72
 41
240.0
 46
0.0
 71
     7
 72
     1
  1
{\fＭＳ ゴシック|b0|i0|c128|p49;ＦＩＬＥ}
 73
     1
 44
1.0
  0
MTEXT
  5
85
330
1F
100
AcDbEntity
  8
F-A_文字
  6
Continuous
 62
     7
370
     0
100
AcDbMText
 10
4279.999224688556
 20
-4087.143857410839
 30
0.0
 40
45.72
 41
180.0
 46
0.0
 71
     7
 72
     1
  1
{\fＭＳ ゴシック|b0|i0|c128|p49;ＮＯ．}
 73
     1
 44
1.0
  0
MTEXT
  5
86
330
1F
100
AcDbEntity
  8
F-A_文字
  6
Continuous
 62
     7
370
     0
100
AcDbMText
 10
1234.998729808911
 20
-4096.140669266149
 30
0.0
 40
45.72
 41
120.0
 46
0.0
 71
     7
 72
     1
  1
{\fＭＳ ゴシック|b0|i0|c128|p49;株式}
 73
     1
 44
1.0
  0
MTEXT
  5
87
330
1F
100
AcDbEntity
  8
F-A_文字
  6
Continuous
 62
     7
370
     9
100
AcDbMText
 10
4936.249033580831
 20
-4147.857012699985
 30
0.0
 40
74.295
 41
97.5
 46
0.0
 71
     7
 72
     1
  1
{\fＭＳ ゴシック|b0|i0|c128|p49;01}
 73
     1
 44
1.0
  0
MTEXT
  5
88
330
1F
100
AcDbEntity
  8
F-A_文字
  6
Continuous
 62
     7
370
     0
100
AcDbMText
 10
1444.998729808911
 20
-4164.281754523929
 30
0.0
 40
101.44125
 41
1065.0
 46
0.0
 71
     7
 72
     1
  1
{\fＭＳ ゴシック|b0|i0|c128|p49;ウッドワン・・・}
 73
     1
 44
1.0
  0
MTEXT
  5
89
330
1F
100
AcDbEntity
  8
F-A_文字
  6
Continuous
 62
     7
370
     0
100
AcDbMText
 10
1234.998729808911
 20
-4168.140669266187
 30
0.0
 40
45.72
 41
120.0
 46
0.0
 71
     7
 72
     1
  1
{\fＭＳ ゴシック|b0|i0|c128|p49;会社}
 73
     1
 44
1.0
  0
MTEXT
  5
8A
330
1F
100
AcDbEntity
  8
F-A_文字
  6
Continuous
 62
     7
370
     0
100
AcDbMText
 10
5608.403311109712
 20
-4314.841419020919
 30
0.0
 40
68.58
 41
90.0
 46
0.0
 71
     7
 72
     1
  1
{\fＭＳ ゴシック|b0|i0|c128|p49;）}
 73
     1
 44
1.0
  0
MTEXT
  5
8B
330
1F
100
AcDbEntity
  8
F-A_文字
  6
Continuous
 62
     7
370
     0
100
AcDbMText
 10
5190.195950842071
 20
-4316.235443869856
 30
0.0
 40
68.58
 41
45.0
 46
0.0
 71
     7
 72
     1
  1
{\fＭＳ ゴシック|b0|i0|c128|p49;,}
 73
     1
 44
1.0
  0
MTEXT
  5
8C
330
1F
100
AcDbEntity
  8
F-A_文字
  6
Continuous
 62
     7
370
     0
100
AcDbMText
 10
4923.937261915373
 20
-4314.771967288282
 30
0.0
 40
74.295
 41
97.5
 46
0.0
 71
     7
 72
     1
  1
{\fＭＳ ゴシック|b0|i0|c128|p49;$y}
 73
     1
 44
1.0
  0
MTEXT
  5
8D
330
1F
100
AcDbEntity
  8
F-A_文字
  6
Continuous
 62
     7
370
     0
100
AcDbMText
 10
5078.673982954195
 20
-4314.771967288282
 30
0.0
 40
74.295
 41
97.5
 46
0.0
 71
     7
 72
     1
  1
{\fＭＳ ゴシック|b0|i0|c128|p49;$m}
 73
     1
 44
1.0
  0
MTEXT
  5
8E
330
1F
100
AcDbEntity
  8
F-A_文字
  6
Continuous
 62
     7
370
     0
100
AcDbMText
 10
5233.410715437103
 20
-4314.771967288282
 30
0.0
 40
74.295
 41
97.5
 46
0.0
 71
     7
 72
     1
  1
{\fＭＳ ゴシック|b0|i0|c128|p49;$d}
 73
     1
 44
1.0
  0
MTEXT
  5
8F
330
1F
100
AcDbEntity
  8
F-A_文字
  6
Continuous
 62
     7
370
     0
100
AcDbMText
 10
5388.147447920011
 20
-4314.771967288282
 30
0.0
 40
74.295
 41
195.0
 46
0.0
 71
     7
 72
     1
  1
{\fＭＳ ゴシック|b0|i0|c128|p49;印刷}
 73
     1
 44
1.0
  0
MTEXT
  5
90
330
1F
100
AcDbEntity
  8
F-A_文字
  6
Continuous
 62
     7
370
     0
100
AcDbMText
 10
4784.033374252999
 20
-4319.023493567732
 30
0.0
 40
68.58
 41
90.0
 46
0.0
 71
     7
 72
     1
  1
{\fＭＳ ゴシック|b0|i0|c128|p49;（}
 73
     1
 44
1.0
  0
MTEXT
  5
91
330
1F
100
AcDbEntity
  8
F-A_文字
  6
Continuous
 62
     7
370
     0
100
AcDbMText
 10
5031.277143812345
 20
-4319.023493567732
 30
0.0
 40
68.58
 41
45.0
 46
0.0
 71
     7
 72
     1
  1
{\fＭＳ ゴシック|b0|i0|c128|p49;,}
 73
     1
 44
1.0
  0
LINE
  5
92
330
1F
100
AcDbEntity
  8
0-0_補助線
  6
JWW_HOJO
 62
   120
370
     5
100
AcDbLine
 10
-5999.99998453501
 20
550.5001831054688
 30
0.0
 11
5699.998762800888
 21
550.5001831054688
 31
0.0
  0
LINE
  5
93
330
1F
100
AcDbEntity
  8
0-0_補助線
  6
JWW_HOJO
 62
   120
370
     5
100
AcDbLine
 10
-5999.99998453501
 20
430.5001831054688
 30
0.0
 11
5699.998762800888
 21
430.5001831054688
 31
0.0
  0
LINE
  5
94
330
1F
100
AcDbEntity
  8
0-0_補助線
  6
JWW_HOJO
 62
   120
370
     5
100
AcDbLine
 10
-5999.99998453501
 20
310.5001831054688
 30
0.0
 11
5699.998762800888
 21
310.5001831054688
 31
0.0
  0
LINE
  5
95
330
1F
100
AcDbEntity
  8
0-0_補助線
  6
JWW_HOJO
 62
   120
370
     5
100
AcDbLine
 10
5699.998762800888
 20
-3430.000017526988
 30
0.0
 11
-5999.99998453501
 21
-3430.000017526988
 31
0.0
  0
LINE
  5
96
330
1F
100
AcDbEntity
  8
0-0_補助線
  6
JWW_HOJO
 62
   120
370
     5
100
AcDbLine
 10
5699.998762800888
 20
-3550.000017526988
 30
0.0
 11
-5999.99998453501
 21
-3550.000017526988
 31
0.0
  0
LINE
  5
97
330
1F
100
AcDbEntity
  8
0-0_補助線
  6
JWW_HOJO
 62
   120
370
     5
100
AcDbLine
 10
5699.998762800888
 20
-3670.000017526988
 30
0.0
 11
-5999.99998453501
 21
-3670.000017526988
 31
0.0
  0
LINE
  5
98
330
1F
100
AcDbEntity
  8
0-0_補助線
  6
JWW_HOJO
 62
   120
370
     5
100
AcDbLine
 10
-5370.000018557986
 20
4174.999769056166
 30
0.0
 11
-5370.000018557986
 21
-3790.000179909371
 31
0.0
  0
LINE
  5
99
330
1F
100
AcDbEntity
  8
0-0_補助線
  6
JWW_HOJO
 62
   120
370
     5
100
AcDbLine
 10
-5999.99998453501
 20
790.5001831054688
 30
0.0
 11
5699.998762800888
 21
790.5001831054688
 31
0.0
  0
LINE
  5
9A
330
1F
100
AcDbEntity
  8
0-0_補助線
  6
JWW_HOJO
 62
   120
370
     5
100
AcDbLine
 10
-5999.99998453501
 20
670.5001831054688
 30
0.0
 11
5699.998762800888
 21
670.5001831054688
 31
0.0
  0
LINE
  5
9B
330
1F
100
AcDbEntity
  8
0-0_補助線
  6
JWW_HOJO
 62
   120
370
     5
100
AcDbLine
 10
5699.998762800888
 20
-3190.000017526988
 30
0.0
 11
-5999.99998453501
 21
-3190.000017526988
 31
0.0
  0
LINE
  5
9C
330
1F
100
AcDbEntity
  8
0-0_補助線
  6
JWW_HOJO
 62
   120
370
     5
100
AcDbLine
 10
5699.998762800888
 20
-3310.000017526988
 30
0.0
 11
-5999.99998453501
 21
-3310.000017526988
 31
0.0
  0
MTEXT
  5
9D
330
1F
100
AcDbEntity
  8
0-A_文字
  6
Continuous
 62
     7
370
     9
100
AcDbMText
 10
-4091.666852590199
 20
4014.369901024072
 30
0.0
 40
78.74000000000001
 41
930.0
 46
0.0
 71
     7
 72
     1
  1
{\fＭＳ ゴシック|b0|i0|c128|p49;Ｂ－ＹＡ　間口３尺}
 73
     1
 44
1.0
  0
MTEXT
  5
9E
330
1F
100
AcDbEntity
  8
0-A_文字
  6
Continuous
 62
     7
370
     9
100
AcDbMText
 10
-470.0005206546261
 20
4014.485355569526
 30
0.0
 40
78.97090909090909
 41
1140.0
 46
0.0
 71
     7
 72
     1
  1
{\fＭＳ ゴシック|b0|i0|c128|p49;Ｂ－ＹＡ　間口４．５尺}
 73
     1
 44
1.0
  0
MTEXT
  5
9F
330
1F
100
AcDbEntity
  8
0-A_文字
  6
Continuous
 62
     7
370
     9
100
AcDbMText
 10
3361.665811280947
 20
4014.369901024072
 30
0.0
 40
78.74000000000004
 41
930.0000000000005
 46
0.0
 71
     7
 72
     1
  1
{\fＭＳ ゴシック|b0|i0|c128|p49;Ｂ－ＹＡ　間口６尺}
 73
     1
 44
1.0
  0
MTEXT
  5
A0
330
1F
100
AcDbEntity
  8
0-A_文字
  6
Continuous
 62
     7
370
     9
100
AcDbMText
 10
-3160.000269606306
 20
33.86993236644844
 30
0.0
 40
78.74000000000001
 41
930.0
 46
0.0
 71
     7
 72
     1
  1
{\fＭＳ ゴシック|b0|i0|c128|p49;Ｂ－ＹＡ　間口９尺}
 73
     1
 44
1.0
  0
MTEXT
  5
A1
330
1F
100
AcDbEntity
  8
0-A_文字
  6
Continuous
 62
     7
370
     9
100
AcDbMText
 10
2377.499228297054
 20
33.93343236644843
 30
0.0
 40
78.86699999999999
 41
1035.0
 46
0.0
 71
     7
 72
     1
  1
{\fＭＳ ゴシック|b0|i0|c128|p49;Ｂ－ＹＡ　間口１２尺}
 73
     1
 44
1.0
  0
LINE
  5
A2
330
1F
100
AcDbEntity
  8
0-0_補助線
  6
JWW_HOJO
 62
   120
370
     5
100
AcDbLine
 10
-1643.333686622412
 20
190.5001831054688
 30
0.0
 11
-1643.333686622412
 21
4174.999769056166
 31
0.0
  0
LINE
  5
A3
330
1F
100
AcDbEntity
  8
0-0_補助線
  6
JWW_HOJO
 62
   120
370
     5
100
AcDbLine
 10
2083.33264531316
 20
190.5001831054688
 30
0.0
 11
2083.33264531316
 21
4174.999769056166
 31
0.0
  0
LINE
  5
A4
330
1F
100
AcDbEntity
  8
0-0_補助線
  6
JWW_HOJO
 62
   120
370
     5
100
AcDbLine
 10
219.9994793453743
 20
-3790.000179909372
 30
0.0
 11
219.9994793453743
 21
184.5000148463899
 31
0.0
  0
LWPOLYLINE
  5
A5
330
1F
100
AcDbEntity
  8
0-B_寸法
  6
Continuous
 62
     7
370
     9
100
AcDbPolyline
 90
        4
 70
     1
 43
3.0
 10
-4287.166852590201
 20
1367.49981854413
 42
0.4142135623731
 10
-4288.666852590201
 20
1368.99981854413
 42
0.4142135623731
 10
-4290.166852590201
 20
1367.49981854413
 42
0.4142135623731
 10
-4288.666852590201
 20
1365.99981854413
 42
0.4142135623731
  0
LINE
  5
A6
330
1F
100
AcDbEntity
  8
0-0_補助線
  6
JWW_HOJO
 62
     7
370
     9
100
AcDbLine
 10
-5490.000018557986
 20
1346.99981854413
 30
0.0
 11
5699.998762800887
 21
1346.99981854413
 31
0.0
  0
LINE
  5
A7
330
1F
100
AcDbEntity
  8
0-0_補助線
  6
JWW_HOJO
 62
   120
370
     5
100
AcDbLine
 10
-5490.000018557986
 20
1296.99981854413
 30
0.0
 11
5699.998762800887
 21
1296.99981854413
 31
0.0
  0
LINE
  5
A8
330
1F
100
AcDbEntity
  8
0-4_枠
  6
Continuous
 62
    92
370
    13
100
AcDbLine
 10
-520.5005206546266
 20
1346.99981854413
 30
0.0
 11
668.4994793453732
 21
1346.99981854413
 31
0.0
  0
LINE
  5
A9
330
1F
100
AcDbEntity
  8
0-4_枠
  6
Continuous
 62
    92
370
    13
100
AcDbLine
 10
-490.5005206546267
 20
1358.999818544131
 30
0.0
 11
638.4994793453732
 21
1358.999818544131
 31
0.0
  0
LINE
  5
AA
330
1F
100
AcDbEntity
  8
0-2_扉
  6
JWW_DASHED1
 62
   120
370
     5
100
AcDbLine
 10
-490.5005206546267
 20
1367.499818544131
 30
0.0
 11
-493.0005206546252
 21
1367.499818544131
 31
0.0
  0
LINE
  5
AB
330
1F
100
AcDbEntity
  8
0-2_扉
  6
Continuous
 62
    92
370
    13
100
AcDbLine
 10
-490.5005206546267
 20
1367.499818544131
 30
0.0
 11
-210.5005206546255
 21
1367.499818544131
 31
0.0
  0
ARC
  5
AC
330
1F
100
AcDbEntity
  8
取手
  6
Continuous
 62
     7
370
     9
100
AcDbCircle
 10
-179.5005206546264
 20
2253.49981854413
 30
0.0
 40
1.0
100
AcDbArc
 50
180.0
 51
270.0
  0
LINE
  5
AD
330
1F
100
AcDbEntity
  8
取手
  6
Continuous
 62
     7
370
     9
100
AcDbLine
 10
-180.5005206546255
 20
2253.49981854413
 30
0.0
 11
-180.5005206546255
 21
2271.49981854413
 31
0.0
  0
ARC
  5
AE
330
1F
100
AcDbEntity
  8
取手
  6
Continuous
 62
     7
370
     9
100
AcDbCircle
 10
-169.5005206546261
 20
2253.49981854413
 30
0.0
 40
1.0
100
AcDbArc
 50
270.0
 51
0.0
  0
LINE
  5
AF
330
1F
100
AcDbEntity
  8
取手
  6
Continuous
 62
     7
370
     9
100
AcDbLine
 10
-168.5005206546262
 20
2253.49981854413
 30
0.0
 11
-168.5005206546262
 21
2271.49981854413
 31
0.0
  0
ARC
  5
B0
330
1F
100
AcDbEntity
  8
取手
  6
Continuous
 62
     7
370
     9
100
AcDbCircle
 10
-169.5005206546261
 20
2271.49981854413
 30
0.0
 40
1.0
100
AcDbArc
 50
0.0
 51
90.00000000000001
  0
ARC
  5
B1
330
1F
100
AcDbEntity
  8
取手
  6
Continuous
 62
     7
370
     9
100
AcDbCircle
 10
-179.5005206546264
 20
2271.49981854413
 30
0.0
 40
1.0
100
AcDbArc
 50
90.0
 51
180.0
  0
ARC
  5
B2
330
1F
100
AcDbEntity
  8
取手
  6
Continuous
 62
     7
370
     9
100
AcDbCircle
 10
-179.5005206546264
 20
2363.49981854413
 30
0.0
 40
1.0
100
AcDbArc
 50
180.0
 51
270.0
  0
LINE
  5
B3
330
1F
100
AcDbEntity
  8
取手
  6
Continuous
 62
     7
370
     9
100
AcDbLine
 10
-180.5005206546255
 20
2363.49981854413
 30
0.0
 11
-180.5005206546255
 21
2381.499818544129
 31
0.0
  0
ARC
  5
B4
330
1F
100
AcDbEntity
  8
取手
  6
Continuous
 62
     7
370
     9
100
AcDbCircle
 10
-169.5005206546261
 20
2363.49981854413
 30
0.0
 40
1.0
100
AcDbArc
 50
270.0
 51
0.0
  0
LINE
  5
B5
330
1F
100
AcDbEntity
  8
取手
  6
Continuous
 62
     7
370
     9
100
AcDbLine
 10
-168.5005206546262
 20
2363.49981854413
 30
0.0
 11
-168.5005206546262
 21
2381.499818544129
 31
0.0
  0
ARC
  5
B6
330
1F
100
AcDbEntity
  8
取手
  6
Continuous
 62
     7
370
     9
100
AcDbCircle
 10
-169.5005206546261
 20
2381.499818544129
 30
0.0
 40
1.0
100
AcDbArc
 50
0.0
 51
90.00000000000001
  0
ARC
  5
B7
330
1F
100
AcDbEntity
  8
取手
  6
Continuous
 62
     7
370
     9
100
AcDbCircle
 10
-179.5005206546264
 20
2381.499818544129
 30
0.0
 40
1.0
100
AcDbArc
 50
90.0
 51
180.0
  0
ARC
  5
B8
330
1F
100
AcDbEntity
  8
取手
  6
Continuous
 62
    92
370
    13
100
AcDbCircle
 10
-178.5005206546256
 20
2251.49981854413
 30
0.0
 40
1.0
100
AcDbArc
 50
180.0
 51
270.0
  0
LINE
  5
B9
330
1F
100
AcDbEntity
  8
取手
  6
Continuous
 62
    92
370
    13
100
AcDbLine
 10
-179.5005206546264
 20
2251.49981854413
 30
0.0
 11
-179.5005206546264
 21
2383.499818544131
 31
0.0
  0
LINE
  5
BA
330
1F
100
AcDbEntity
  8
取手
  6
Continuous
 62
    92
370
    13
100
AcDbLine
 10
-178.5005206546256
 20
2250.499818544129
 30
0.0
 11
-170.5005206546278
 21
2250.499818544129
 31
0.0
  0
ARC
  5
BB
330
1F
100
AcDbEntity
  8
取手
  6
Continuous
 62
    92
370
    13
100
AcDbCircle
 10
-170.5005206546278
 20
2251.49981854413
 30
0.0
 40
1.0
100
AcDbArc
 50
270.0
 51
0.0
  0
LINE
  5
BC
330
1F
100
AcDbEntity
  8
取手
  6
Continuous
 62
    92
370
    13
100
AcDbLine
 10
-169.5005206546261
 20
2251.49981854413
 30
0.0
 11
-169.5005206546261
 21
2383.499818544131
 31
0.0
  0
ARC
  5
BD
330
1F
100
AcDbEntity
  8
取手
  6
Continuous
 62
    92
370
    13
100
AcDbCircle
 10
-170.5005206546278
 20
2383.499818544131
 30
0.0
 40
1.0
100
AcDbArc
 50
0.0
 51
90.00000000000001
  0
LINE
  5
BE
330
1F
100
AcDbEntity
  8
取手
  6
Continuous
 62
    92
370
    13
100
AcDbLine
 10
-170.5005206546278
 20
2384.49981854413
 30
0.0
 11
-178.5005206546256
 21
2384.49981854413
 31
0.0
  0
ARC
  5
BF
330
1F
100
AcDbEntity
  8
取手
  6
Continuous
 62
    92
370
    13
100
AcDbCircle
 10
-178.5005206546256
 20
2383.499818544131
 30
0.0
 40
1.0
100
AcDbArc
 50
90.0
 51
180.0
  0
LINE
  5
C0
330
1F
100
AcDbEntity
  8
0-2_扉
  6
Continuous
 62
    92
370
    13
100
AcDbLine
 10
-209.5005206546264
 20
1367.499818544131
 30
0.0
 11
72.99947934537585
 21
1367.499818544131
 31
0.0
  0
LINE
  5
C1
330
1F
100
AcDbEntity
  8
0-2_扉
  6
Continuous
 62
    92
370
    13
100
AcDbLine
 10
358.4994793453754
 20
1367.499818544131
 30
0.0
 11
638.4994793453732
 21
1367.499818544131
 31
0.0
  0
LINE
  5
C2
330
1F
100
AcDbEntity
  8
0-2_扉
  6
JWW_DASHED1
 62
   120
370
     5
100
AcDbLine
 10
638.4994793453732
 20
1367.499818544131
 30
0.0
 11
640.9994793453743
 21
1367.499818544131
 31
0.0
  0
ARC
  5
C3
330
1F
100
AcDbEntity
  8
取手
  6
Continuous
 62
     7
370
     9
100
AcDbCircle
 10
317.4994793453752
 20
2253.49981854413
 30
0.0
 40
1.0
100
AcDbArc
 50
180.0
 51
270.0
  0
LINE
  5
C4
330
1F
100
AcDbEntity
  8
取手
  6
Continuous
 62
     7
370
     9
100
AcDbLine
 10
316.4994793453727
 20
2253.49981854413
 30
0.0
 11
316.4994793453727
 21
2271.49981854413
 31
0.0
  0
ARC
  5
C5
330
1F
100
AcDbEntity
  8
取手
  6
Continuous
 62
     7
370
     9
100
AcDbCircle
 10
327.4994793453729
 20
2253.49981854413
 30
0.0
 40
1.0
100
AcDbArc
 50
270.0
 51
0.0
  0
LINE
  5
C6
330
1F
100
AcDbEntity
  8
取手
  6
Continuous
 62
     7
370
     9
100
AcDbLine
 10
328.4994793453754
 20
2253.49981854413
 30
0.0
 11
328.4994793453754
 21
2271.49981854413
 31
0.0
  0
ARC
  5
C7
330
1F
100
AcDbEntity
  8
取手
  6
Continuous
 62
     7
370
     9
100
AcDbCircle
 10
327.4994793453729
 20
2271.49981854413
 30
0.0
 40
1.0
100
AcDbArc
 50
0.0
 51
90.00000000000001
  0
ARC
  5
C8
330
1F
100
AcDbEntity
  8
取手
  6
Continuous
 62
     7
370
     9
100
AcDbCircle
 10
317.4994793453752
 20
2271.49981854413
 30
0.0
 40
1.0
100
AcDbArc
 50
90.0
 51
180.0
  0
ARC
  5
C9
330
1F
100
AcDbEntity
  8
取手
  6
Continuous
 62
     7
370
     9
100
AcDbCircle
 10
317.4994793453752
 20
2363.49981854413
 30
0.0
 40
1.0
100
AcDbArc
 50
180.0
 51
270.0
  0
LINE
  5
CA
330
1F
100
AcDbEntity
  8
取手
  6
Continuous
 62
     7
370
     9
100
AcDbLine
 10
316.4994793453727
 20
2363.49981854413
 30
0.0
 11
316.4994793453727
 21
2381.499818544129
 31
0.0
  0
ARC
  5
CB
330
1F
100
AcDbEntity
  8
取手
  6
Continuous
 62
     7
370
     9
100
AcDbCircle
 10
327.4994793453729
 20
2363.49981854413
 30
0.0
 40
1.0
100
AcDbArc
 50
270.0
 51
0.0
  0
LINE
  5
CC
330
1F
100
AcDbEntity
  8
取手
  6
Continuous
 62
     7
370
     9
100
AcDbLine
 10
328.4994793453754
 20
2363.49981854413
 30
0.0
 11
328.4994793453754
 21
2381.499818544129
 31
0.0
  0
ARC
  5
CD
330
1F
100
AcDbEntity
  8
取手
  6
Continuous
 62
     7
370
     9
100
AcDbCircle
 10
327.4994793453729
 20
2381.499818544129
 30
0.0
 40
1.0
100
AcDbArc
 50
0.0
 51
90.00000000000001
  0
ARC
  5
CE
330
1F
100
AcDbEntity
  8
取手
  6
Continuous
 62
     7
370
     9
100
AcDbCircle
 10
317.4994793453752
 20
2381.499818544129
 30
0.0
 40
1.0
100
AcDbArc
 50
90.0
 51
180.0
  0
ARC
  5
CF
330
1F
100
AcDbEntity
  8
取手
  6
Continuous
 62
    92
370
    13
100
AcDbCircle
 10
318.4994793453743
 20
2251.49981854413
 30
0.0
 40
1.0
100
AcDbArc
 50
180.0
 51
270.0
  0
LINE
  5
D0
330
1F
100
AcDbEntity
  8
取手
  6
Continuous
 62
    92
370
    13
100
AcDbLine
 10
317.4994793453752
 20
2251.49981854413
 30
0.0
 11
317.4994793453752
 21
2383.499818544131
 31
0.0
  0
LINE
  5
D1
330
1F
100
AcDbEntity
  8
取手
  6
Continuous
 62
    92
370
    13
100
AcDbLine
 10
318.4994793453743
 20
2250.499818544129
 30
0.0
 11
326.4994793453738
 21
2250.499818544129
 31
0.0
  0
ARC
  5
D2
330
1F
100
AcDbEntity
  8
取手
  6
Continuous
 62
    92
370
    13
100
AcDbCircle
 10
326.4994793453738
 20
2251.49981854413
 30
0.0
 40
1.0
100
AcDbArc
 50
270.0
 51
0.0
  0
LINE
  5
D3
330
1F
100
AcDbEntity
  8
取手
  6
Continuous
 62
    92
370
    13
100
AcDbLine
 10
327.4994793453729
 20
2251.49981854413
 30
0.0
 11
327.4994793453729
 21
2383.499818544131
 31
0.0
  0
ARC
  5
D4
330
1F
100
AcDbEntity
  8
取手
  6
Continuous
 62
    92
370
    13
100
AcDbCircle
 10
326.4994793453738
 20
2383.499818544131
 30
0.0
 40
1.0
100
AcDbArc
 50
0.0
 51
90.00000000000001
  0
LINE
  5
D5
330
1F
100
AcDbEntity
  8
取手
  6
Continuous
 62
    92
370
    13
100
AcDbLine
 10
326.4994793453738
 20
2384.49981854413
 30
0.0
 11
318.4994793453743
 21
2384.49981854413
 31
0.0
  0
ARC
  5
D6
330
1F
100
AcDbEntity
  8
取手
  6
Continuous
 62
    92
370
    13
100
AcDbCircle
 10
318.4994793453743
 20
2383.499818544131
 30
0.0
 40
1.0
100
AcDbArc
 50
90.0
 51
180.0
  0
LINE
  5
D7
330
1F
100
AcDbEntity
  8
0-2_扉
  6
Continuous
 62
    92
370
    13
100
AcDbLine
 10
74.99947934537403
 20
1367.499818544131
 30
0.0
 11
357.4994793453729
 21
1367.499818544131
 31
0.0
  0
LINE
  5
D8
330
1F
100
AcDbEntity
  8
0-B_寸法
  6
Continuous
 62
   120
370
     5
100
AcDbLine
 10
-493.0005206546244
 20
846.99981854413
 30
0.0
 11
-493.0005206546244
 21
1296.99981854413
 31
0.0
  0
LWPOLYLINE
  5
D9
330
1F
100
AcDbEntity
  8
0-B_寸法
  6
Continuous
 62
     7
370
     9
100
AcDbPolyline
 90
        4
 70
     1
 43
3.0
 10
-491.5005206546244
 20
846.99981854413
 42
0.4142135623731
 10
-493.0005206546244
 20
848.49981854413
 42
0.4142135623731
 10
-494.5005206546244
 20
846.99981854413
 42
0.4142135623731
 10
-493.0005206546244
 20
845.49981854413
 42
0.4142135623731
  0
LWPOLYLINE
  5
DA
330
1F
100
AcDbEntity
  8
0-B_寸法
  6
Continuous
 62
     7
370
     9
100
AcDbPolyline
 90
        4
 70
     1
 43
3.0
 10
-491.5005206546244
 20
1046.99981854413
 42
0.4142135623731
 10
-493.0005206546244
 20
1048.49981854413
 42
0.4142135623731
 10
-494.5005206546244
 20
1046.99981854413
 42
0.4142135623731
 10
-493.0005206546244
 20
1045.49981854413
 42
0.4142135623731
  0
LINE
  5
DB
330
1F
100
AcDbEntity
  8
0-B_寸法
  6
Continuous
 62
   120
370
     5
100
AcDbLine
 10
-210.5005206546255
 20
1046.99981854413
 30
0.0
 11
-210.5005206546255
 21
1296.99981854413
 31
0.0
  0
LINE
  5
DC
330
1F
100
AcDbEntity
  8
0-B_寸法
  6
Continuous
 62
   120
370
     5
100
AcDbLine
 10
-210.5005206546255
 20
1046.99981854413
 30
0.0
 11
-209.5005206546264
 21
1046.99981854413
 31
0.0
  0
LINE
  5
DD
330
1F
100
AcDbEntity
  8
0-B_寸法
  6
Continuous
 62
   120
370
     5
100
AcDbLine
 10
-209.5005206546264
 20
1046.99981854413
 30
0.0
 11
-209.5005206546264
 21
1296.99981854413
 31
0.0
  0
LINE
  5
DE
330
1F
100
AcDbEntity
  8
0-B_寸法
  6
Continuous
 62
   120
370
     5
100
AcDbLine
 10
-210.000520654626
 20
1046.99981854413
 30
0.0
 11
-175.0516540903911
 21
1177.430764228797
 31
0.0
  0
LINE
  5
DF
330
1F
100
AcDbEntity
  8
0-B_寸法
  6
Continuous
 62
   120
370
     5
100
AcDbLine
 10
-175.0516540903911
 20
1177.430764228797
 30
0.0
 11
-124.2685860169414
 21
1177.430764228797
 31
0.0
  0
LWPOLYLINE
  5
E0
330
1F
100
AcDbEntity
  8
0-B_寸法
  6
Continuous
 62
     7
370
     9
100
AcDbPolyline
 90
        4
 70
     1
 43
3.0
 10
-209.0005206546255
 20
1046.99981854413
 42
0.4142135623731
 10
-210.5005206546255
 20
1048.49981854413
 42
0.4142135623731
 10
-212.0005206546255
 20
1046.99981854413
 42
0.4142135623731
 10
-210.5005206546255
 20
1045.49981854413
 42
0.4142135623731
  0
LWPOLYLINE
  5
E1
330
1F
100
AcDbEntity
  8
0-B_寸法
  6
Continuous
 62
     7
370
     9
100
AcDbPolyline
 90
        4
 70
     1
 43
3.0
 10
-208.0005206546264
 20
1046.99981854413
 42
0.4142135623731
 10
-209.5005206546264
 20
1048.49981854413
 42
0.4142135623731
 10
-211.0005206546264
 20
1046.99981854413
 42
0.4142135623731
 10
-209.5005206546264
 20
1045.49981854413
 42
0.4142135623731
  0
LINE
  5
E2
330
1F
100
AcDbEntity
  8
0-B_寸法
  6
Continuous
 62
   120
370
     5
100
AcDbLine
 10
-493.0005206546244
 20
1046.99981854413
 30
0.0
 11
-210.5005206546255
 21
1046.99981854413
 31
0.0
  0
LINE
  5
E3
330
1F
100
AcDbEntity
  8
0-B_寸法
  6
Continuous
 62
   120
370
     5
100
AcDbLine
 10
72.99947934537585
 20
846.99981854413
 30
0.0
 11
72.99947934537585
 21
1296.99981854413
 31
0.0
  0
LWPOLYLINE
  5
E4
330
1F
100
AcDbEntity
  8
0-B_寸法
  6
Continuous
 62
     7
370
     9
100
AcDbPolyline
 90
        4
 70
     1
 43
3.0
 10
74.49947934537585
 20
846.99981854413
 42
0.4142135623731
 10
72.99947934537585
 20
848.49981854413
 42
0.4142135623731
 10
71.49947934537585
 20
846.99981854413
 42
0.4142135623731
 10
72.99947934537585
 20
845.49981854413
 42
0.4142135623731
  0
LWPOLYLINE
  5
E5
330
1F
100
AcDbEntity
  8
0-B_寸法
  6
Continuous
 62
     7
370
     9
100
AcDbPolyline
 90
        4
 70
     1
 43
3.0
 10
74.49947934537585
 20
1046.99981854413
 42
0.4142135623731
 10
72.99947934537585
 20
1048.49981854413
 42
0.4142135623731
 10
71.49947934537585
 20
1046.99981854413
 42
0.4142135623731
 10
72.99947934537585
 20
1045.49981854413
 42
0.4142135623731
  0
LINE
  5
E6
330
1F
100
AcDbEntity
  8
0-B_寸法
  6
Continuous
 62
   120
370
     5
100
AcDbLine
 10
-209.5005206546264
 20
1046.99981854413
 30
0.0
 11
72.99947934537585
 21
1046.99981854413
 31
0.0
  0
LINE
  5
E7
330
1F
100
AcDbEntity
  8
0-B_寸法
  6
Continuous
 62
   120
370
     5
100
AcDbLine
 10
-493.0005206546244
 20
846.99981854413
 30
0.0
 11
72.99947934537585
 21
846.99981854413
 31
0.0
  0
LINE
  5
E8
330
1F
100
AcDbEntity
  8
0-B_寸法
  6
Continuous
 62
   120
370
     5
100
AcDbLine
 10
74.99947934537403
 20
846.99981854413
 30
0.0
 11
74.99947934537403
 21
1296.99981854413
 31
0.0
  0
LWPOLYLINE
  5
E9
330
1F
100
AcDbEntity
  8
0-B_寸法
  6
Continuous
 62
     7
370
     9
100
AcDbPolyline
 90
        4
 70
     1
 43
3.0
 10
76.49947934537403
 20
846.99981854413
 42
0.4142135623731
 10
74.99947934537403
 20
848.49981854413
 42
0.4142135623731
 10
73.49947934537403
 20
846.99981854413
 42
0.4142135623731
 10
74.99947934537403
 20
845.49981854413
 42
0.4142135623731
  0
LWPOLYLINE
  5
EA
330
1F
100
AcDbEntity
  8
0-B_寸法
  6
Continuous
 62
     7
370
     9
100
AcDbPolyline
 90
        4
 70
     1
 43
3.0
 10
76.49947934537403
 20
1046.99981854413
 42
0.4142135623731
 10
74.99947934537403
 20
1048.49981854413
 42
0.4142135623731
 10
73.49947934537403
 20
1046.99981854413
 42
0.4142135623731
 10
74.99947934537403
 20
1045.49981854413
 42
0.4142135623731
  0
LINE
  5
EB
330
1F
100
AcDbEntity
  8
0-B_寸法
  6
Continuous
 62
   120
370
     5
100
AcDbLine
 10
357.4994793453729
 20
1046.99981854413
 30
0.0
 11
357.4994793453729
 21
1296.99981854413
 31
0.0
  0
LINE
  5
EC
330
1F
100
AcDbEntity
  8
0-B_寸法
  6
Continuous
 62
   120
370
     5
100
AcDbLine
 10
357.4994793453729
 20
1046.99981854413
 30
0.0
 11
358.4994793453754
 21
1046.99981854413
 31
0.0
  0
LINE
  5
ED
330
1F
100
AcDbEntity
  8
0-B_寸法
  6
Continuous
 62
   120
370
     5
100
AcDbLine
 10
358.4994793453754
 20
1046.99981854413
 30
0.0
 11
358.4994793453754
 21
1296.99981854413
 31
0.0
  0
LINE
  5
EE
330
1F
100
AcDbEntity
  8
0-B_寸法
  6
Continuous
 62
   120
370
     5
100
AcDbLine
 10
357.9994793453758
 20
1046.99981854413
 30
0.0
 11
392.948345909609
 21
1177.430764228797
 31
0.0
  0
LINE
  5
EF
330
1F
100
AcDbEntity
  8
0-B_寸法
  6
Continuous
 62
   120
370
     5
100
AcDbLine
 10
392.948345909609
 20
1177.430764228797
 30
0.0
 11
443.7314139830571
 21
1177.430764228797
 31
0.0
  0
LWPOLYLINE
  5
F0
330
1F
100
AcDbEntity
  8
0-B_寸法
  6
Continuous
 62
     7
370
     9
100
AcDbPolyline
 90
        4
 70
     1
 43
3.0
 10
358.9994793453729
 20
1046.99981854413
 42
0.4142135623731
 10
357.4994793453729
 20
1048.49981854413
 42
0.4142135623731
 10
355.9994793453729
 20
1046.99981854413
 42
0.4142135623731
 10
357.4994793453729
 20
1045.49981854413
 42
0.4142135623731
  0
LWPOLYLINE
  5
F1
330
1F
100
AcDbEntity
  8
0-B_寸法
  6
Continuous
 62
     7
370
     9
100
AcDbPolyline
 90
        4
 70
     1
 43
3.0
 10
359.9994793453754
 20
1046.99981854413
 42
0.4142135623731
 10
358.4994793453754
 20
1048.49981854413
 42
0.4142135623731
 10
356.9994793453754
 20
1046.99981854413
 42
0.4142135623731
 10
358.4994793453754
 20
1045.49981854413
 42
0.4142135623731
  0
LINE
  5
F2
330
1F
100
AcDbEntity
  8
0-B_寸法
  6
Continuous
 62
   120
370
     5
100
AcDbLine
 10
74.99947934537403
 20
1046.99981854413
 30
0.0
 11
357.4994793453729
 21
1046.99981854413
 31
0.0
  0
LINE
  5
F3
330
1F
100
AcDbEntity
  8
0-B_寸法
  6
Continuous
 62
   120
370
     5
100
AcDbLine
 10
640.9994793453743
 20
846.99981854413
 30
0.0
 11
640.9994793453743
 21
1296.99981854413
 31
0.0
  0
LWPOLYLINE
  5
F4
330
1F
100
AcDbEntity
  8
0-B_寸法
  6
Continuous
 62
     7
370
     9
100
AcDbPolyline
 90
        4
 70
     1
 43
3.0
 10
642.4994793453743
 20
846.99981854413
 42
0.4142135623731
 10
640.9994793453743
 20
848.49981854413
 42
0.4142135623731
 10
639.4994793453742
 20
846.99981854413
 42
0.4142135623731
 10
640.9994793453743
 20
845.49981854413
 42
0.4142135623731
  0
LWPOLYLINE
  5
F5
330
1F
100
AcDbEntity
  8
0-B_寸法
  6
Continuous
 62
     7
370
     9
100
AcDbPolyline
 90
        4
 70
     1
 43
3.0
 10
642.4994793453743
 20
1046.99981854413
 42
0.4142135623731
 10
640.9994793453743
 20
1048.49981854413
 42
0.4142135623731
 10
639.4994793453742
 20
1046.99981854413
 42
0.4142135623731
 10
640.9994793453743
 20
1045.49981854413
 42
0.4142135623731
  0
LINE
  5
F6
330
1F
100
AcDbEntity
  8
0-B_寸法
  6
Continuous
 62
   120
370
     5
100
AcDbLine
 10
358.4994793453754
 20
1046.99981854413
 30
0.0
 11
640.9994793453743
 21
1046.99981854413
 31
0.0
  0
LINE
  5
F7
330
1F
100
AcDbEntity
  8
0-B_寸法
  6
Continuous
 62
   120
370
     5
100
AcDbLine
 10
74.99947934537403
 20
846.99981854413
 30
0.0
 11
640.9994793453743
 21
846.99981854413
 31
0.0
  0
LINE
  5
F8
330
1F
100
AcDbEntity
  8
0-B_寸法
  6
Continuous
 62
   120
370
     5
100
AcDbLine
 10
108.9509812124001
 20
1177.430764228797
 30
0.0
 11
159.7340492858515
 21
1177.430764228797
 31
0.0
  0
LINE
  5
F9
330
1F
100
AcDbEntity
  8
0-B_寸法
  6
Continuous
 62
   120
370
     5
100
AcDbLine
 10
74.00211464816692
 20
1046.99981854413
 30
0.0
 11
108.9509812124001
 21
1177.430764228797
 31
0.0
  0
LINE
  5
FA
330
1F
100
AcDbEntity
  8
0-B_寸法
  6
Continuous
 62
   120
370
     5
100
AcDbLine
 10
72.99947934537585
 20
1046.99981854413
 30
0.0
 11
74.99947934537403
 21
1046.99981854413
 31
0.0
  0
LINE
  5
FB
330
1F
100
AcDbEntity
  8
0-B_寸法
  6
Continuous
 62
   120
370
     5
100
AcDbLine
 10
-820.500520654625
 20
1367.49981854413
 30
0.0
 11
-570.5005206546255
 21
1367.49981854413
 31
0.0
  0
LWPOLYLINE
  5
FC
330
1F
100
AcDbEntity
  8
0-B_寸法
  6
Continuous
 62
     7
370
     9
100
AcDbPolyline
 90
        4
 70
     1
 43
3.0
 10
-819.0005206546249
 20
1367.49981854413
 42
0.4142135623731
 10
-820.500520654625
 20
1368.99981854413
 42
0.4142135623731
 10
-822.000520654625
 20
1367.49981854413
 42
0.4142135623731
 10
-820.500520654625
 20
1365.99981854413
 42
0.4142135623731
  0
LINE
  5
FD
330
1F
100
AcDbEntity
  8
0-4_枠
  6
Continuous
 62
    92
370
    13
100
AcDbLine
 10
3259.165811280948
 20
1346.99981854413
 30
0.0
 11
4894.165811280947
 21
1346.99981854413
 31
0.0
  0
LINE
  5
FE
330
1F
100
AcDbEntity
  8
0-4_枠
  6
Continuous
 62
    92
370
    13
100
AcDbLine
 10
3289.165811280948
 20
1358.99981854413
 30
0.0
 11
4864.165811280947
 21
1358.99981854413
 31
0.0
  0
LINE
  5
FF
330
1F
100
AcDbEntity
  8
0-B_寸法
  6
Continuous
 62
   120
370
     5
100
AcDbLine
 10
3286.665811280948
 20
846.99981854413
 30
0.0
 11
4075.665811280948
 21
846.99981854413
 31
0.0
  0
LINE
  5
100
330
1F
100
AcDbEntity
  8
0-B_寸法
  6
Continuous
 62
   120
370
     5
100
AcDbLine
 10
3286.665811280948
 20
846.99981854413
 30
0.0
 11
3286.665811280948
 21
1296.99981854413
 31
0.0
  0
LINE
  5
101
330
1F
100
AcDbEntity
  8
0-B_寸法
  6
Continuous
 62
   120
370
     5
100
AcDbLine
 10
4075.665811280948
 20
846.99981854413
 30
0.0
 11
4075.665811280948
 21
1296.99981854413
 31
0.0
  0
LINE
  5
102
330
1F
100
AcDbEntity
  8
0-B_寸法
  6
Continuous
 62
   120
370
     5
100
AcDbLine
 10
4075.665811280948
 20
846.99981854413
 30
0.0
 11
4077.665811280948
 21
846.99981854413
 31
0.0
  0
LINE
  5
103
330
1F
100
AcDbEntity
  8
0-B_寸法
  6
Continuous
 62
   120
370
     5
100
AcDbLine
 10
4077.665811280948
 20
846.99981854413
 30
0.0
 11
4077.665811280948
 21
1296.99981854413
 31
0.0
  0
LINE
  5
104
330
1F
100
AcDbEntity
  8
0-B_寸法
  6
Continuous
 62
   120
370
     5
100
AcDbLine
 10
4077.665811280948
 20
846.99981854413
 30
0.0
 11
4866.665811280948
 21
846.99981854413
 31
0.0
  0
LINE
  5
105
330
1F
100
AcDbEntity
  8
0-B_寸法
  6
Continuous
 62
   120
370
     5
100
AcDbLine
 10
4866.665811280948
 20
846.99981854413
 30
0.0
 11
4866.665811280948
 21
1296.99981854413
 31
0.0
  0
LINE
  5
106
330
1F
100
AcDbEntity
  8
0-B_寸法
  6
Continuous
 62
   120
370
     5
100
AcDbLine
 10
4076.665811280949
 20
846.99981854413
 30
0.0
 11
4111.614677845182
 21
977.4307642287972
 31
0.0
  0
LINE
  5
107
330
1F
100
AcDbEntity
  8
0-B_寸法
  6
Continuous
 62
   120
370
     5
100
AcDbLine
 10
4111.614677845182
 20
977.4307642287972
 30
0.0
 11
4162.397745918632
 21
977.4307642287972
 31
0.0
  0
LINE
  5
108
330
1F
100
AcDbEntity
  8
0-B_寸法
  6
Continuous
 62
   120
370
     5
100
AcDbLine
 10
3286.665811280948
 20
1046.99981854413
 30
0.0
 11
3680.665811280947
 21
1046.99981854413
 31
0.0
  0
LINE
  5
109
330
1F
100
AcDbEntity
  8
0-B_寸法
  6
Continuous
 62
   120
370
     5
100
AcDbLine
 10
3680.665811280947
 20
1046.99981854413
 30
0.0
 11
3680.665811280947
 21
1296.99981854413
 31
0.0
  0
LINE
  5
10A
330
1F
100
AcDbEntity
  8
0-B_寸法
  6
Continuous
 62
   120
370
     5
100
AcDbLine
 10
3680.665811280947
 20
1046.99981854413
 30
0.0
 11
3681.665811280948
 21
1046.99981854413
 31
0.0
  0
LINE
  5
10B
330
1F
100
AcDbEntity
  8
0-B_寸法
  6
Continuous
 62
   120
370
     5
100
AcDbLine
 10
3681.665811280948
 20
1046.99981854413
 30
0.0
 11
3681.665811280948
 21
1296.99981854413
 31
0.0
  0
LINE
  5
10C
330
1F
100
AcDbEntity
  8
0-B_寸法
  6
Continuous
 62
   120
370
     5
100
AcDbLine
 10
3681.665811280948
 20
1046.99981854413
 30
0.0
 11
4075.665811280948
 21
1046.99981854413
 31
0.0
  0
LINE
  5
10D
330
1F
100
AcDbEntity
  8
0-B_寸法
  6
Continuous
 62
   120
370
     5
100
AcDbLine
 10
3681.165811280948
 20
1046.99981854413
 30
0.0
 11
3716.114677845182
 21
1177.430764228797
 31
0.0
  0
LINE
  5
10E
330
1F
100
AcDbEntity
  8
0-B_寸法
  6
Continuous
 62
   120
370
     5
100
AcDbLine
 10
3716.114677845182
 20
1177.430764228797
 30
0.0
 11
3766.897745918632
 21
1177.430764228797
 31
0.0
  0
LWPOLYLINE
  5
10F
330
1F
100
AcDbEntity
  8
0-B_寸法
  6
Continuous
 62
     7
370
     9
100
AcDbPolyline
 90
        4
 70
     1
 43
3.0
 10
3288.165811280948
 20
846.99981854413
 42
0.4142135623731
 10
3286.665811280948
 20
848.49981854413
 42
0.4142135623731
 10
3285.165811280948
 20
846.99981854413
 42
0.4142135623731
 10
3286.665811280948
 20
845.49981854413
 42
0.4142135623731
  0
LWPOLYLINE
  5
110
330
1F
100
AcDbEntity
  8
0-B_寸法
  6
Continuous
 62
     7
370
     9
100
AcDbPolyline
 90
        4
 70
     1
 43
3.0
 10
4077.165811280948
 20
846.99981854413
 42
0.4142135623731
 10
4075.665811280948
 20
848.49981854413
 42
0.4142135623731
 10
4074.165811280948
 20
846.99981854413
 42
0.4142135623731
 10
4075.665811280948
 20
845.49981854413
 42
0.4142135623731
  0
LWPOLYLINE
  5
111
330
1F
100
AcDbEntity
  8
0-B_寸法
  6
Continuous
 62
     7
370
     9
100
AcDbPolyline
 90
        4
 70
     1
 43
3.0
 10
4079.165811280948
 20
846.99981854413
 42
0.4142135623731
 10
4077.665811280948
 20
848.49981854413
 42
0.4142135623731
 10
4076.165811280948
 20
846.99981854413
 42
0.4142135623731
 10
4077.665811280948
 20
845.49981854413
 42
0.4142135623731
  0
LWPOLYLINE
  5
112
330
1F
100
AcDbEntity
  8
0-B_寸法
  6
Continuous
 62
     7
370
     9
100
AcDbPolyline
 90
        4
 70
     1
 43
3.0
 10
4868.165811280949
 20
846.99981854413
 42
0.4142135623731
 10
4866.665811280948
 20
848.49981854413
 42
0.4142135623731
 10
4865.165811280948
 20
846.99981854413
 42
0.4142135623731
 10
4866.665811280948
 20
845.49981854413
 42
0.4142135623731
  0
LWPOLYLINE
  5
113
330
1F
100
AcDbEntity
  8
0-B_寸法
  6
Continuous
 62
     7
370
     9
100
AcDbPolyline
 90
        4
 70
     1
 43
3.0
 10
3288.165811280948
 20
1046.99981854413
 42
0.4142135623731
 10
3286.665811280948
 20
1048.49981854413
 42
0.4142135623731
 10
3285.165811280948
 20
1046.99981854413
 42
0.4142135623731
 10
3286.665811280948
 20
1045.49981854413
 42
0.4142135623731
  0
LWPOLYLINE
  5
114
330
1F
100
AcDbEntity
  8
0-B_寸法
  6
Continuous
 62
     7
370
     9
100
AcDbPolyline
 90
        4
 70
     1
 43
3.0
 10
3682.165811280947
 20
1046.99981854413
 42
0.4142135623731
 10
3680.665811280947
 20
1048.49981854413
 42
0.4142135623731
 10
3679.165811280948
 20
1046.99981854413
 42
0.4142135623731
 10
3680.665811280947
 20
1045.49981854413
 42
0.4142135623731
  0
LWPOLYLINE
  5
115
330
1F
100
AcDbEntity
  8
0-B_寸法
  6
Continuous
 62
     7
370
     9
100
AcDbPolyline
 90
        4
 70
     1
 43
3.0
 10
3683.165811280948
 20
1046.99981854413
 42
0.4142135623731
 10
3681.665811280948
 20
1048.49981854413
 42
0.4142135623731
 10
3680.165811280948
 20
1046.99981854413
 42
0.4142135623731
 10
3681.665811280948
 20
1045.49981854413
 42
0.4142135623731
  0
LWPOLYLINE
  5
116
330
1F
100
AcDbEntity
  8
0-B_寸法
  6
Continuous
 62
     7
370
     9
100
AcDbPolyline
 90
        4
 70
     1
 43
3.0
 10
4077.165811280948
 20
1046.99981854413
 42
0.4142135623731
 10
4075.665811280948
 20
1048.49981854413
 42
0.4142135623731
 10
4074.165811280948
 20
1046.99981854413
 42
0.4142135623731
 10
4075.665811280948
 20
1045.49981854413
 42
0.4142135623731
  0
LINE
  5
117
330
1F
100
AcDbEntity
  8
0-2_扉
  6
Continuous
 62
    92
370
    13
100
AcDbLine
 10
3681.665811280948
 20
1367.49981854413
 30
0.0
 11
4075.665811280948
 21
1367.49981854413
 31
0.0
  0
LINE
  5
118
330
1F
100
AcDbEntity
  8
0-2_扉
  6
Continuous
 62
    92
370
    13
100
AcDbLine
 10
4077.665811280948
 20
1367.49981854413
 30
0.0
 11
4471.665811280947
 21
1367.49981854413
 31
0.0
  0
LINE
  5
119
330
1F
100
AcDbEntity
  8
0-2_扉
  6
JWW_DASHED1
 62
   120
370
     5
100
AcDbLine
 10
3289.165811280948
 20
1367.49981854413
 30
0.0
 11
3286.665811280948
 21
1367.49981854413
 31
0.0
  0
LINE
  5
11A
330
1F
100
AcDbEntity
  8
0-2_扉
  6
Continuous
 62
    92
370
    13
100
AcDbLine
 10
3289.165811280948
 20
1367.49981854413
 30
0.0
 11
3680.665811280947
 21
1367.49981854413
 31
0.0
  0
LINE
  5
11B
330
1F
100
AcDbEntity
  8
0-2_扉
  6
JWW_DASHED1
 62
   120
370
     5
100
AcDbLine
 10
4864.165811280947
 20
1367.49981854413
 30
0.0
 11
4866.665811280948
 21
1367.49981854413
 31
0.0
  0
LINE
  5
11C
330
1F
100
AcDbEntity
  8
0-2_扉
  6
Continuous
 62
    92
370
    13
100
AcDbLine
 10
4472.665811280948
 20
1367.49981854413
 30
0.0
 11
4864.165811280947
 21
1367.49981854413
 31
0.0
  0
ARC
  5
11D
330
1F
100
AcDbEntity
  8
取手
  6
Continuous
 62
    92
370
    13
100
AcDbCircle
 10
3712.665811280948
 20
2383.499818544129
 30
0.0
 40
1.0
100
AcDbArc
 50
90.0
 51
180.0
  0
LINE
  5
11E
330
1F
100
AcDbEntity
  8
取手
  6
Continuous
 62
    92
370
    13
100
AcDbLine
 10
3720.665811280946
 20
2384.49981854413
 30
0.0
 11
3712.665811280948
 21
2384.49981854413
 31
0.0
  0
ARC
  5
11F
330
1F
100
AcDbEntity
  8
取手
  6
Continuous
 62
    92
370
    13
100
AcDbCircle
 10
3720.665811280946
 20
2383.499818544129
 30
0.0
 40
1.0
100
AcDbArc
 50
0.0
 51
90.00000000000001
  0
LINE
  5
120
330
1F
100
AcDbEntity
  8
取手
  6
Continuous
 62
    92
370
    13
100
AcDbLine
 10
3721.665811280947
 20
2251.49981854413
 30
0.0
 11
3721.665811280947
 21
2383.499818544129
 31
0.0
  0
ARC
  5
121
330
1F
100
AcDbEntity
  8
取手
  6
Continuous
 62
    92
370
    13
100
AcDbCircle
 10
3720.665811280946
 20
2251.49981854413
 30
0.0
 40
1.0
100
AcDbArc
 50
270.0
 51
0.0
  0
LINE
  5
122
330
1F
100
AcDbEntity
  8
取手
  6
Continuous
 62
    92
370
    13
100
AcDbLine
 10
3712.665811280948
 20
2250.49981854413
 30
0.0
 11
3720.665811280946
 21
2250.49981854413
 31
0.0
  0
LINE
  5
123
330
1F
100
AcDbEntity
  8
取手
  6
Continuous
 62
    92
370
    13
100
AcDbLine
 10
3711.665811280947
 20
2251.49981854413
 30
0.0
 11
3711.665811280947
 21
2383.499818544129
 31
0.0
  0
ARC
  5
124
330
1F
100
AcDbEntity
  8
取手
  6
Continuous
 62
    92
370
    13
100
AcDbCircle
 10
3712.665811280948
 20
2251.49981854413
 30
0.0
 40
1.0
100
AcDbArc
 50
180.0
 51
270.0
  0
ARC
  5
125
330
1F
100
AcDbEntity
  8
取手
  6
Continuous
 62
     7
370
     9
100
AcDbCircle
 10
3711.665811280947
 20
2381.499818544129
 30
0.0
 40
1.0
100
AcDbArc
 50
90.0
 51
180.0
  0
ARC
  5
126
330
1F
100
AcDbEntity
  8
取手
  6
Continuous
 62
     7
370
     9
100
AcDbCircle
 10
3721.665811280947
 20
2381.499818544129
 30
0.0
 40
1.0
100
AcDbArc
 50
0.0
 51
90.00000000000001
  0
LINE
  5
127
330
1F
100
AcDbEntity
  8
取手
  6
Continuous
 62
     7
370
     9
100
AcDbLine
 10
3722.665811280948
 20
2363.49981854413
 30
0.0
 11
3722.665811280948
 21
2381.499818544129
 31
0.0
  0
ARC
  5
128
330
1F
100
AcDbEntity
  8
取手
  6
Continuous
 62
     7
370
     9
100
AcDbCircle
 10
3721.665811280947
 20
2363.49981854413
 30
0.0
 40
1.0
100
AcDbArc
 50
270.0
 51
0.0
  0
LINE
  5
129
330
1F
100
AcDbEntity
  8
取手
  6
Continuous
 62
     7
370
     9
100
AcDbLine
 10
3710.665811280947
 20
2363.49981854413
 30
0.0
 11
3710.665811280947
 21
2381.499818544129
 31
0.0
  0
ARC
  5
12A
330
1F
100
AcDbEntity
  8
取手
  6
Continuous
 62
     7
370
     9
100
AcDbCircle
 10
3711.665811280947
 20
2363.49981854413
 30
0.0
 40
1.0
100
AcDbArc
 50
180.0
 51
270.0
  0
ARC
  5
12B
330
1F
100
AcDbEntity
  8
取手
  6
Continuous
 62
     7
370
     9
100
AcDbCircle
 10
3711.665811280947
 20
2271.49981854413
 30
0.0
 40
1.0
100
AcDbArc
 50
90.0
 51
180.0
  0
ARC
  5
12C
330
1F
100
AcDbEntity
  8
取手
  6
Continuous
 62
     7
370
     9
100
AcDbCircle
 10
3721.665811280947
 20
2271.49981854413
 30
0.0
 40
1.0
100
AcDbArc
 50
0.0
 51
90.00000000000001
  0
LINE
  5
12D
330
1F
100
AcDbEntity
  8
取手
  6
Continuous
 62
     7
370
     9
100
AcDbLine
 10
3722.665811280948
 20
2253.49981854413
 30
0.0
 11
3722.665811280948
 21
2271.49981854413
 31
0.0
  0
ARC
  5
12E
330
1F
100
AcDbEntity
  8
取手
  6
Continuous
 62
     7
370
     9
100
AcDbCircle
 10
3721.665811280947
 20
2253.49981854413
 30
0.0
 40
1.0
100
AcDbArc
 50
270.0
 51
0.0
  0
LINE
  5
12F
330
1F
100
AcDbEntity
  8
取手
  6
Continuous
 62
     7
370
     9
100
AcDbLine
 10
3710.665811280947
 20
2253.49981854413
 30
0.0
 11
3710.665811280947
 21
2271.49981854413
 31
0.0
  0
ARC
  5
130
330
1F
100
AcDbEntity
  8
取手
  6
Continuous
 62
     7
370
     9
100
AcDbCircle
 10
3711.665811280947
 20
2253.49981854413
 30
0.0
 40
1.0
100
AcDbArc
 50
180.0
 51
270.0
  0
ARC
  5
131
330
1F
100
AcDbEntity
  8
取手
  6
Continuous
 62
    92
370
    13
100
AcDbCircle
 10
4432.665811280949
 20
2383.499818544129
 30
0.0
 40
1.0
100
AcDbArc
 50
90.0
 51
180.0
  0
LINE
  5
132
330
1F
100
AcDbEntity
  8
取手
  6
Continuous
 62
    92
370
    13
100
AcDbLine
 10
4440.665811280947
 20
2384.49981854413
 30
0.0
 11
4432.665811280949
 21
2384.49981854413
 31
0.0
  0
ARC
  5
133
330
1F
100
AcDbEntity
  8
取手
  6
Continuous
 62
    92
370
    13
100
AcDbCircle
 10
4440.665811280947
 20
2383.499818544129
 30
0.0
 40
1.0
100
AcDbArc
 50
0.0
 51
90.00000000000001
  0
LINE
  5
134
330
1F
100
AcDbEntity
  8
取手
  6
Continuous
 62
    92
370
    13
100
AcDbLine
 10
4441.665811280947
 20
2251.49981854413
 30
0.0
 11
4441.665811280947
 21
2383.499818544129
 31
0.0
  0
ARC
  5
135
330
1F
100
AcDbEntity
  8
取手
  6
Continuous
 62
    92
370
    13
100
AcDbCircle
 10
4440.665811280947
 20
2251.49981854413
 30
0.0
 40
1.0
100
AcDbArc
 50
270.0
 51
0.0
  0
LINE
  5
136
330
1F
100
AcDbEntity
  8
取手
  6
Continuous
 62
    92
370
    13
100
AcDbLine
 10
4432.665811280949
 20
2250.49981854413
 30
0.0
 11
4440.665811280947
 21
2250.49981854413
 31
0.0
  0
LINE
  5
137
330
1F
100
AcDbEntity
  8
取手
  6
Continuous
 62
    92
370
    13
100
AcDbLine
 10
4431.665811280948
 20
2251.49981854413
 30
0.0
 11
4431.665811280948
 21
2383.499818544129
 31
0.0
  0
ARC
  5
138
330
1F
100
AcDbEntity
  8
取手
  6
Continuous
 62
    92
370
    13
100
AcDbCircle
 10
4432.665811280949
 20
2251.49981854413
 30
0.0
 40
1.0
100
AcDbArc
 50
180.0
 51
270.0
  0
ARC
  5
139
330
1F
100
AcDbEntity
  8
取手
  6
Continuous
 62
     7
370
     9
100
AcDbCircle
 10
4431.665811280948
 20
2381.499818544129
 30
0.0
 40
1.0
100
AcDbArc
 50
90.0
 51
180.0
  0
ARC
  5
13A
330
1F
100
AcDbEntity
  8
取手
  6
Continuous
 62
     7
370
     9
100
AcDbCircle
 10
4441.665811280947
 20
2381.499818544129
 30
0.0
 40
1.0
100
AcDbArc
 50
0.0
 51
90.00000000000001
  0
LINE
  5
13B
330
1F
100
AcDbEntity
  8
取手
  6
Continuous
 62
     7
370
     9
100
AcDbLine
 10
4442.665811280948
 20
2363.49981854413
 30
0.0
 11
4442.665811280948
 21
2381.499818544129
 31
0.0
  0
ARC
  5
13C
330
1F
100
AcDbEntity
  8
取手
  6
Continuous
 62
     7
370
     9
100
AcDbCircle
 10
4441.665811280947
 20
2363.49981854413
 30
0.0
 40
1.0
100
AcDbArc
 50
270.0
 51
0.0
  0
LINE
  5
13D
330
1F
100
AcDbEntity
  8
取手
  6
Continuous
 62
     7
370
     9
100
AcDbLine
 10
4430.665811280947
 20
2363.49981854413
 30
0.0
 11
4430.665811280947
 21
2381.499818544129
 31
0.0
  0
ARC
  5
13E
330
1F
100
AcDbEntity
  8
取手
  6
Continuous
 62
     7
370
     9
100
AcDbCircle
 10
4431.665811280948
 20
2363.49981854413
 30
0.0
 40
1.0
100
AcDbArc
 50
180.0
 51
270.0
  0
ARC
  5
13F
330
1F
100
AcDbEntity
  8
取手
  6
Continuous
 62
     7
370
     9
100
AcDbCircle
 10
4431.665811280948
 20
2271.49981854413
 30
0.0
 40
1.0
100
AcDbArc
 50
90.0
 51
180.0
  0
ARC
  5
140
330
1F
100
AcDbEntity
  8
取手
  6
Continuous
 62
     7
370
     9
100
AcDbCircle
 10
4441.665811280947
 20
2271.49981854413
 30
0.0
 40
1.0
100
AcDbArc
 50
0.0
 51
90.00000000000001
  0
LINE
  5
141
330
1F
100
AcDbEntity
  8
取手
  6
Continuous
 62
     7
370
     9
100
AcDbLine
 10
4442.665811280948
 20
2253.49981854413
 30
0.0
 11
4442.665811280948
 21
2271.49981854413
 31
0.0
  0
ARC
  5
142
330
1F
100
AcDbEntity
  8
取手
  6
Continuous
 62
     7
370
     9
100
AcDbCircle
 10
4441.665811280947
 20
2253.49981854413
 30
0.0
 40
1.0
100
AcDbArc
 50
270.0
 51
0.0
  0
LINE
  5
143
330
1F
100
AcDbEntity
  8
取手
  6
Continuous
 62
     7
370
     9
100
AcDbLine
 10
4430.665811280947
 20
2253.49981854413
 30
0.0
 11
4430.665811280947
 21
2271.49981854413
 31
0.0
  0
ARC
  5
144
330
1F
100
AcDbEntity
  8
取手
  6
Continuous
 62
     7
370
     9
100
AcDbCircle
 10
4431.665811280948
 20
2253.49981854413
 30
0.0
 40
1.0
100
AcDbArc
 50
180.0
 51
270.0
  0
LINE
  5
145
330
1F
100
AcDbEntity
  8
0-B_寸法
  6
Continuous
 62
   120
370
     5
100
AcDbLine
 10
2959.165811280949
 20
1367.49981854413
 30
0.0
 11
3209.165811280947
 21
1367.49981854413
 31
0.0
  0
LWPOLYLINE
  5
146
330
1F
100
AcDbEntity
  8
0-B_寸法
  6
Continuous
 62
     7
370
     9
100
AcDbPolyline
 90
        4
 70
     1
 43
3.0
 10
2960.665811280948
 20
1367.49981854413
 42
0.4142135623731
 10
2959.165811280949
 20
1368.99981854413
 42
0.4142135623731
 10
2957.665811280949
 20
1367.49981854413
 42
0.4142135623731
 10
2959.165811280949
 20
1365.99981854413
 42
0.4142135623731
  0
LINE
  5
147
330
1F
100
AcDbEntity
  8
0-4_枠
  6
Continuous
 62
    92
370
    13
100
AcDbLine
 10
-3988.666852590201
 20
1346.99981854413
 30
0.0
 11
-3264.666852590201
 21
1346.99981854413
 31
0.0
  0
LINE
  5
148
330
1F
100
AcDbEntity
  8
0-4_枠
  6
Continuous
 62
    92
370
    13
100
AcDbLine
 10
-3958.666852590201
 20
1358.99981854413
 30
0.0
 11
-3294.666852590201
 21
1358.99981854413
 31
0.0
  0
LINE
  5
149
330
1F
100
AcDbEntity
  8
0-B_寸法
  6
Continuous
 62
   120
370
     5
100
AcDbLine
 10
-3961.166852590202
 20
846.99981854413
 30
0.0
 11
-3292.1668525902
 21
846.99981854413
 31
0.0
  0
LINE
  5
14A
330
1F
100
AcDbEntity
  8
0-B_寸法
  6
Continuous
 62
   120
370
     5
100
AcDbLine
 10
-3961.166852590202
 20
846.99981854413
 30
0.0
 11
-3961.166852590202
 21
1296.99981854413
 31
0.0
  0
LINE
  5
14B
330
1F
100
AcDbEntity
  8
0-B_寸法
  6
Continuous
 62
   120
370
     5
100
AcDbLine
 10
-3292.1668525902
 20
846.99981854413
 30
0.0
 11
-3292.1668525902
 21
1296.99981854413
 31
0.0
  0
LINE
  5
14C
330
1F
100
AcDbEntity
  8
0-B_寸法
  6
Continuous
 62
   120
370
     5
100
AcDbLine
 10
-3961.166852590202
 20
1046.99981854413
 30
0.0
 11
-3627.166852590201
 21
1046.99981854413
 31
0.0
  0
LINE
  5
14D
330
1F
100
AcDbEntity
  8
0-B_寸法
  6
Continuous
 62
   120
370
     5
100
AcDbLine
 10
-3627.166852590201
 20
1046.99981854413
 30
0.0
 11
-3627.166852590201
 21
1296.99981854413
 31
0.0
  0
LINE
  5
14E
330
1F
100
AcDbEntity
  8
0-B_寸法
  6
Continuous
 62
   120
370
     5
100
AcDbLine
 10
-3627.166852590201
 20
1046.99981854413
 30
0.0
 11
-3626.166852590198
 21
1046.99981854413
 31
0.0
  0
LINE
  5
14F
330
1F
100
AcDbEntity
  8
0-B_寸法
  6
Continuous
 62
   120
370
     5
100
AcDbLine
 10
-3626.166852590198
 20
1046.99981854413
 30
0.0
 11
-3626.166852590198
 21
1296.99981854413
 31
0.0
  0
LINE
  5
150
330
1F
100
AcDbEntity
  8
0-B_寸法
  6
Continuous
 62
   120
370
     5
100
AcDbLine
 10
-3626.166852590198
 20
1046.99981854413
 30
0.0
 11
-3292.1668525902
 21
1046.99981854413
 31
0.0
  0
LINE
  5
151
330
1F
100
AcDbEntity
  8
0-B_寸法
  6
Continuous
 62
   120
370
     5
100
AcDbLine
 10
-3626.666852590199
 20
1046.99981854413
 30
0.0
 11
-3591.717986025966
 21
1177.430764228797
 31
0.0
  0
LINE
  5
152
330
1F
100
AcDbEntity
  8
0-B_寸法
  6
Continuous
 62
   120
370
     5
100
AcDbLine
 10
-3591.717986025966
 20
1177.430764228797
 30
0.0
 11
-3540.934917952516
 21
1177.430764228797
 31
0.0
  0
LINE
  5
153
330
1F
100
AcDbEntity
  8
0-B_寸法
  6
Continuous
 62
   120
370
     5
100
AcDbLine
 10
-4288.666852590201
 20
1367.49981854413
 30
0.0
 11
-4038.6668525902
 21
1367.49981854413
 31
0.0
  0
LWPOLYLINE
  5
154
330
1F
100
AcDbEntity
  8
0-B_寸法
  6
Continuous
 62
     7
370
     9
100
AcDbPolyline
 90
        4
 70
     1
 43
3.0
 10
-3959.666852590201
 20
846.99981854413
 42
0.4142135623731
 10
-3961.166852590202
 20
848.49981854413
 42
0.4142135623731
 10
-3962.666852590202
 20
846.99981854413
 42
0.4142135623731
 10
-3961.166852590202
 20
845.49981854413
 42
0.4142135623731
  0
LWPOLYLINE
  5
155
330
1F
100
AcDbEntity
  8
0-B_寸法
  6
Continuous
 62
     7
370
     9
100
AcDbPolyline
 90
        4
 70
     1
 43
3.0
 10
-3290.6668525902
 20
846.99981854413
 42
0.4142135623731
 10
-3292.1668525902
 20
848.49981854413
 42
0.4142135623731
 10
-3293.6668525902
 20
846.99981854413
 42
0.4142135623731
 10
-3292.1668525902
 20
845.49981854413
 42
0.4142135623731
  0
LWPOLYLINE
  5
156
330
1F
100
AcDbEntity
  8
0-B_寸法
  6
Continuous
 62
     7
370
     9
100
AcDbPolyline
 90
        4
 70
     1
 43
3.0
 10
-3959.666852590201
 20
1046.99981854413
 42
0.4142135623731
 10
-3961.166852590202
 20
1048.49981854413
 42
0.4142135623731
 10
-3962.666852590202
 20
1046.99981854413
 42
0.4142135623731
 10
-3961.166852590202
 20
1045.49981854413
 42
0.4142135623731
  0
LWPOLYLINE
  5
157
330
1F
100
AcDbEntity
  8
0-B_寸法
  6
Continuous
 62
     7
370
     9
100
AcDbPolyline
 90
        4
 70
     1
 43
3.0
 10
-3625.666852590201
 20
1046.99981854413
 42
0.4142135623731
 10
-3627.166852590201
 20
1048.49981854413
 42
0.4142135623731
 10
-3628.666852590201
 20
1046.99981854413
 42
0.4142135623731
 10
-3627.166852590201
 20
1045.49981854413
 42
0.4142135623731
  0
LWPOLYLINE
  5
158
330
1F
100
AcDbEntity
  8
0-B_寸法
  6
Continuous
 62
     7
370
     9
100
AcDbPolyline
 90
        4
 70
     1
 43
3.0
 10
-3624.666852590198
 20
1046.99981854413
 42
0.4142135623731
 10
-3626.166852590198
 20
1048.49981854413
 42
0.4142135623731
 10
-3627.666852590198
 20
1046.99981854413
 42
0.4142135623731
 10
-3626.166852590198
 20
1045.49981854413
 42
0.4142135623731
  0
LWPOLYLINE
  5
159
330
1F
100
AcDbEntity
  8
0-B_寸法
  6
Continuous
 62
     7
370
     9
100
AcDbPolyline
 90
        4
 70
     1
 43
3.0
 10
-3290.6668525902
 20
1046.99981854413
 42
0.4142135623731
 10
-3292.1668525902
 20
1048.49981854413
 42
0.4142135623731
 10
-3293.6668525902
 20
1046.99981854413
 42
0.4142135623731
 10
-3292.1668525902
 20
1045.49981854413
 42
0.4142135623731
  0
LINE
  5
15A
330
1F
100
AcDbEntity
  8
0-2_扉
  6
JWW_DASHED1
 62
   120
370
     5
100
AcDbLine
 10
-3958.666852590201
 20
1367.49981854413
 30
0.0
 11
-3961.166852590202
 21
1367.49981854413
 31
0.0
  0
LINE
  5
15B
330
1F
100
AcDbEntity
  8
0-2_扉
  6
Continuous
 62
    92
370
    13
100
AcDbLine
 10
-3958.666852590201
 20
1367.49981854413
 30
0.0
 11
-3627.166852590201
 21
1367.49981854413
 31
0.0
  0
LINE
  5
15C
330
1F
100
AcDbEntity
  8
0-2_扉
  6
JWW_DASHED1
 62
   120
370
     5
100
AcDbLine
 10
-3294.666852590201
 20
1367.49981854413
 30
0.0
 11
-3292.1668525902
 21
1367.49981854413
 31
0.0
  0
LINE
  5
15D
330
1F
100
AcDbEntity
  8
0-2_扉
  6
Continuous
 62
    92
370
    13
100
AcDbLine
 10
-3626.166852590198
 20
1367.49981854413
 30
0.0
 11
-3294.666852590201
 21
1367.49981854413
 31
0.0
  0
ARC
  5
15E
330
1F
100
AcDbEntity
  8
取手
  6
Continuous
 62
    92
370
    13
100
AcDbCircle
 10
-3595.166852590199
 20
2383.499818544129
 30
0.0
 40
1.0
100
AcDbArc
 50
90.0
 51
180.0
  0
LINE
  5
15F
330
1F
100
AcDbEntity
  8
取手
  6
Continuous
 62
    92
370
    13
100
AcDbLine
 10
-3587.166852590201
 20
2384.49981854413
 30
0.0
 11
-3595.166852590199
 21
2384.49981854413
 31
0.0
  0
ARC
  5
160
330
1F
100
AcDbEntity
  8
取手
  6
Continuous
 62
    92
370
    13
100
AcDbCircle
 10
-3587.166852590201
 20
2383.499818544129
 30
0.0
 40
1.0
100
AcDbArc
 50
0.0
 51
90.00000000000001
  0
LINE
  5
161
330
1F
100
AcDbEntity
  8
取手
  6
Continuous
 62
    92
370
    13
100
AcDbLine
 10
-3586.1668525902
 20
2251.49981854413
 30
0.0
 11
-3586.1668525902
 21
2383.499818544129
 31
0.0
  0
ARC
  5
162
330
1F
100
AcDbEntity
  8
取手
  6
Continuous
 62
    92
370
    13
100
AcDbCircle
 10
-3587.166852590201
 20
2251.49981854413
 30
0.0
 40
1.0
100
AcDbArc
 50
270.0
 51
0.0
  0
LINE
  5
163
330
1F
100
AcDbEntity
  8
取手
  6
Continuous
 62
    92
370
    13
100
AcDbLine
 10
-3595.166852590199
 20
2250.49981854413
 30
0.0
 11
-3587.166852590201
 21
2250.49981854413
 31
0.0
  0
LINE
  5
164
330
1F
100
AcDbEntity
  8
取手
  6
Continuous
 62
    92
370
    13
100
AcDbLine
 10
-3596.166852590198
 20
2251.49981854413
 30
0.0
 11
-3596.166852590198
 21
2383.499818544129
 31
0.0
  0
ARC
  5
165
330
1F
100
AcDbEntity
  8
取手
  6
Continuous
 62
    92
370
    13
100
AcDbCircle
 10
-3595.166852590199
 20
2251.49981854413
 30
0.0
 40
1.0
100
AcDbArc
 50
180.0
 51
270.0
  0
ARC
  5
166
330
1F
100
AcDbEntity
  8
取手
  6
Continuous
 62
     7
370
     9
100
AcDbCircle
 10
-3596.166852590198
 20
2381.499818544129
 30
0.0
 40
1.0
100
AcDbArc
 50
90.0
 51
180.0
  0
ARC
  5
167
330
1F
100
AcDbEntity
  8
取手
  6
Continuous
 62
     7
370
     9
100
AcDbCircle
 10
-3586.1668525902
 20
2381.499818544129
 30
0.0
 40
1.0
100
AcDbArc
 50
0.0
 51
90.00000000000001
  0
LINE
  5
168
330
1F
100
AcDbEntity
  8
取手
  6
Continuous
 62
     7
370
     9
100
AcDbLine
 10
-3585.1668525902
 20
2363.49981854413
 30
0.0
 11
-3585.1668525902
 21
2381.499818544129
 31
0.0
  0
ARC
  5
169
330
1F
100
AcDbEntity
  8
取手
  6
Continuous
 62
     7
370
     9
100
AcDbCircle
 10
-3586.1668525902
 20
2363.49981854413
 30
0.0
 40
1.0
100
AcDbArc
 50
270.0
 51
0.0
  0
LINE
  5
16A
330
1F
100
AcDbEntity
  8
取手
  6
Continuous
 62
     7
370
     9
100
AcDbLine
 10
-3597.166852590201
 20
2363.49981854413
 30
0.0
 11
-3597.166852590201
 21
2381.499818544129
 31
0.0
  0
ARC
  5
16B
330
1F
100
AcDbEntity
  8
取手
  6
Continuous
 62
     7
370
     9
100
AcDbCircle
 10
-3596.166852590198
 20
2363.49981854413
 30
0.0
 40
1.0
100
AcDbArc
 50
180.0
 51
270.0
  0
ARC
  5
16C
330
1F
100
AcDbEntity
  8
取手
  6
Continuous
 62
     7
370
     9
100
AcDbCircle
 10
-3596.166852590198
 20
2271.49981854413
 30
0.0
 40
1.0
100
AcDbArc
 50
90.0
 51
180.0
  0
ARC
  5
16D
330
1F
100
AcDbEntity
  8
取手
  6
Continuous
 62
     7
370
     9
100
AcDbCircle
 10
-3586.1668525902
 20
2271.49981854413
 30
0.0
 40
1.0
100
AcDbArc
 50
0.0
 51
90.00000000000001
  0
LINE
  5
16E
330
1F
100
AcDbEntity
  8
取手
  6
Continuous
 62
     7
370
     9
100
AcDbLine
 10
-3585.1668525902
 20
2253.49981854413
 30
0.0
 11
-3585.1668525902
 21
2271.49981854413
 31
0.0
  0
ARC
  5
16F
330
1F
100
AcDbEntity
  8
取手
  6
Continuous
 62
     7
370
     9
100
AcDbCircle
 10
-3586.1668525902
 20
2253.49981854413
 30
0.0
 40
1.0
100
AcDbArc
 50
270.0
 51
0.0
  0
LINE
  5
170
330
1F
100
AcDbEntity
  8
取手
  6
Continuous
 62
     7
370
     9
100
AcDbLine
 10
-3597.166852590201
 20
2253.49981854413
 30
0.0
 11
-3597.166852590201
 21
2271.49981854413
 31
0.0
  0
ARC
  5
171
330
1F
100
AcDbEntity
  8
取手
  6
Continuous
 62
     7
370
     9
100
AcDbCircle
 10
-3596.166852590198
 20
2253.49981854413
 30
0.0
 40
1.0
100
AcDbArc
 50
180.0
 51
270.0
  0
LINE
  5
172
330
1F
100
AcDbEntity
  8
0-0_補助線
  6
JWW_HOJO
 62
     7
370
     9
100
AcDbLine
 10
-5490.000018557986
 20
3694.999818544131
 30
0.0
 11
5699.998762800887
 21
3694.999818544131
 31
0.0
  0
LINE
  5
173
330
1F
100
AcDbEntity
  8
0-4_枠
  6
Continuous
 62
    92
370
    13
100
AcDbLine
 10
-520.5005206546266
 20
3694.999818544131
 30
0.0
 11
668.4994793453732
 21
3694.999818544131
 31
0.0
  0
LINE
  5
174
330
1F
100
AcDbEntity
  8
0-4_枠
  6
Continuous
 62
    92
370
    13
100
AcDbLine
 10
-490.5005206546267
 20
3658.99981854413
 30
0.0
 11
638.4994793453732
 21
3658.99981854413
 31
0.0
  0
LINE
  5
175
330
1F
100
AcDbEntity
  8
0-4_枠
  6
Continuous
 62
    92
370
    13
100
AcDbLine
 10
-520.5005206546266
 20
1346.99981854413
 30
0.0
 11
-520.5005206546266
 21
3694.999818544131
 31
0.0
  0
LINE
  5
176
330
1F
100
AcDbEntity
  8
0-4_枠
  6
Continuous
 62
    92
370
    13
100
AcDbLine
 10
-490.5005206546267
 20
1346.99981854413
 30
0.0
 11
-490.5005206546267
 21
3658.99981854413
 31
0.0
  0
LINE
  5
177
330
1F
100
AcDbEntity
  8
0-2_扉
  6
JWW_DASHED1
 62
   120
370
     5
100
AcDbLine
 10
-493.0005206546252
 20
1367.499818544131
 30
0.0
 11
-493.0005206546252
 21
3651.49981854413
 31
0.0
  0
LINE
  5
178
330
1F
100
AcDbEntity
  8
0-2_扉
  6
JWW_DASHED1
 62
   120
370
     5
100
AcDbLine
 10
-490.5005206546267
 20
3651.49981854413
 30
0.0
 11
-493.0005206546252
 21
3651.49981854413
 31
0.0
  0
LINE
  5
179
330
1F
100
AcDbEntity
  8
0-2_扉
  6
Continuous
 62
    92
370
    13
100
AcDbLine
 10
-490.5005206546267
 20
3651.49981854413
 30
0.0
 11
-210.5005206546255
 21
3651.49981854413
 31
0.0
  0
LINE
  5
17A
330
1F
100
AcDbEntity
  8
0-2_扉
  6
Continuous
 62
    92
370
    13
100
AcDbLine
 10
-210.5005206546255
 20
1367.499818544131
 30
0.0
 11
-210.5005206546255
 21
3651.49981854413
 31
0.0
  0
LINE
  5
17B
330
1F
100
AcDbEntity
  8
0-2_扉
  6
Continuous
 62
    92
370
    13
100
AcDbLine
 10
-209.5005206546264
 20
1367.499818544131
 30
0.0
 11
-209.5005206546264
 21
3651.49981854413
 31
0.0
  0
LINE
  5
17C
330
1F
100
AcDbEntity
  8
0-2_扉
  6
Continuous
 62
    92
370
    13
100
AcDbLine
 10
-209.5005206546264
 20
3651.49981854413
 30
0.0
 11
72.99947934537585
 21
3651.49981854413
 31
0.0
  0
LINE
  5
17D
330
1F
100
AcDbEntity
  8
0-2_扉
  6
Continuous
 62
    92
370
    13
100
AcDbLine
 10
358.4994793453754
 20
3651.49981854413
 30
0.0
 11
638.4994793453732
 21
3651.49981854413
 31
0.0
  0
LINE
  5
17E
330
1F
100
AcDbEntity
  8
0-2_扉
  6
JWW_DASHED1
 62
   120
370
     5
100
AcDbLine
 10
638.4994793453732
 20
3651.49981854413
 30
0.0
 11
640.9994793453743
 21
3651.49981854413
 31
0.0
  0
LINE
  5
17F
330
1F
100
AcDbEntity
  8
0-2_扉
  6
JWW_DASHED1
 62
   120
370
     5
100
AcDbLine
 10
640.9994793453743
 20
1367.499818544131
 30
0.0
 11
640.9994793453743
 21
3651.49981854413
 31
0.0
  0
LINE
  5
180
330
1F
100
AcDbEntity
  8
0-4_枠
  6
Continuous
 62
    92
370
    13
100
AcDbLine
 10
638.4994793453732
 20
1346.99981854413
 30
0.0
 11
638.4994793453732
 21
3658.99981854413
 31
0.0
  0
LINE
  5
181
330
1F
100
AcDbEntity
  8
0-4_枠
  6
Continuous
 62
    92
370
    13
100
AcDbLine
 10
668.4994793453732
 20
1346.99981854413
 30
0.0
 11
668.4994793453732
 21
3694.999818544131
 31
0.0
  0
LINE
  5
182
330
1F
100
AcDbEntity
  8
0-2_扉
  6
Continuous
 62
    92
370
    13
100
AcDbLine
 10
358.4994793453754
 20
3651.49981854413
 30
0.0
 11
358.4994793453754
 21
1367.499818544131
 31
0.0
  0
LINE
  5
183
330
1F
100
AcDbEntity
  8
0-2_扉
  6
Continuous
 62
    92
370
    13
100
AcDbLine
 10
357.4994793453729
 20
3651.49981854413
 30
0.0
 11
357.4994793453729
 21
1367.499818544131
 31
0.0
  0
LINE
  5
184
330
1F
100
AcDbEntity
  8
0-2_扉
  6
Continuous
 62
    92
370
    13
100
AcDbLine
 10
74.99947934537403
 20
3651.49981854413
 30
0.0
 11
357.4994793453729
 21
3651.49981854413
 31
0.0
  0
LINE
  5
185
330
1F
100
AcDbEntity
  8
0-2_扉
  6
Continuous
 62
    92
370
    13
100
AcDbLine
 10
74.99947934537403
 20
3651.49981854413
 30
0.0
 11
74.99947934537403
 21
1367.499818544131
 31
0.0
  0
LINE
  5
186
330
1F
100
AcDbEntity
  8
0-2_扉
  6
Continuous
 62
    92
370
    13
100
AcDbLine
 10
72.99947934537585
 20
3651.49981854413
 30
0.0
 11
72.99947934537585
 21
1367.499818544131
 31
0.0
  0
LINE
  5
187
330
1F
100
AcDbEntity
  8
0-B_寸法
  6
Continuous
 62
   120
370
     5
100
AcDbLine
 10
-820.500520654625
 20
3651.49981854413
 30
0.0
 11
-820.500520654625
 21
1367.49981854413
 31
0.0
  0
LINE
  5
188
330
1F
100
AcDbEntity
  8
0-B_寸法
  6
Continuous
 62
   120
370
     5
100
AcDbLine
 10
-820.500520654625
 20
3651.49981854413
 30
0.0
 11
-570.5005206546255
 21
3651.49981854413
 31
0.0
  0
LWPOLYLINE
  5
189
330
1F
100
AcDbEntity
  8
0-B_寸法
  6
Continuous
 62
     7
370
     9
100
AcDbPolyline
 90
        4
 70
     1
 43
3.0
 10
-819.0005206546249
 20
3651.49981854413
 42
0.4142135623731
 10
-820.500520654625
 20
3652.99981854413
 42
0.4142135623731
 10
-822.000520654625
 20
3651.49981854413
 42
0.4142135623731
 10
-820.500520654625
 20
3649.99981854413
 42
0.4142135623731
  0
LINE
  5
18A
330
1F
100
AcDbEntity
  8
0-4_枠
  6
Continuous
 62
    92
370
    13
100
AcDbLine
 10
3259.165811280948
 20
1346.99981854413
 30
0.0
 11
3259.165811280948
 21
3694.999818544131
 31
0.0
  0
LINE
  5
18B
330
1F
100
AcDbEntity
  8
0-4_枠
  6
Continuous
 62
    92
370
    13
100
AcDbLine
 10
3289.165811280948
 20
1346.99981854413
 30
0.0
 11
3289.165811280948
 21
3658.99981854413
 31
0.0
  0
LINE
  5
18C
330
1F
100
AcDbEntity
  8
0-4_枠
  6
Continuous
 62
    92
370
    13
100
AcDbLine
 10
4894.165811280947
 20
1346.99981854413
 30
0.0
 11
4894.165811280947
 21
3694.999818544131
 31
0.0
  0
LINE
  5
18D
330
1F
100
AcDbEntity
  8
0-4_枠
  6
Continuous
 62
    92
370
    13
100
AcDbLine
 10
4864.165811280947
 20
1346.99981854413
 30
0.0
 11
4864.165811280947
 21
3658.999818544132
 31
0.0
  0
LINE
  5
18E
330
1F
100
AcDbEntity
  8
0-4_枠
  6
Continuous
 62
    92
370
    13
100
AcDbLine
 10
3259.165811280948
 20
3694.999818544131
 30
0.0
 11
4894.165811280947
 21
3694.999818544131
 31
0.0
  0
LINE
  5
18F
330
1F
100
AcDbEntity
  8
0-4_枠
  6
Continuous
 62
    92
370
    13
100
AcDbLine
 10
3289.165811280948
 20
3658.99981854413
 30
0.0
 11
4864.165811280947
 21
3658.99981854413
 31
0.0
  0
LINE
  5
190
330
1F
100
AcDbEntity
  8
0-2_扉
  6
Continuous
 62
    92
370
    13
100
AcDbLine
 10
3681.665811280948
 20
3651.49981854413
 30
0.0
 11
4075.665811280948
 21
3651.49981854413
 31
0.0
  0
LINE
  5
191
330
1F
100
AcDbEntity
  8
0-2_扉
  6
Continuous
 62
    92
370
    13
100
AcDbLine
 10
4077.665811280948
 20
3651.49981854413
 30
0.0
 11
4471.665811280947
 21
3651.49981854413
 31
0.0
  0
LINE
  5
192
330
1F
100
AcDbEntity
  8
0-2_扉
  6
JWW_DASHED1
 62
   120
370
     5
100
AcDbLine
 10
3286.665811280948
 20
1367.49981854413
 30
0.0
 11
3286.665811280948
 21
3651.49981854413
 31
0.0
  0
LINE
  5
193
330
1F
100
AcDbEntity
  8
0-2_扉
  6
JWW_DASHED1
 62
   120
370
     5
100
AcDbLine
 10
4866.665811280948
 20
1367.49981854413
 30
0.0
 11
4866.665811280948
 21
3651.49981854413
 31
0.0
  0
LINE
  5
194
330
1F
100
AcDbEntity
  8
0-2_扉
  6
JWW_DASHED1
 62
   120
370
     5
100
AcDbLine
 10
3289.165811280948
 20
3651.49981854413
 30
0.0
 11
3286.665811280948
 21
3651.49981854413
 31
0.0
  0
LINE
  5
195
330
1F
100
AcDbEntity
  8
0-2_扉
  6
Continuous
 62
    92
370
    13
100
AcDbLine
 10
3289.165811280948
 20
3651.49981854413
 30
0.0
 11
3680.665811280947
 21
3651.49981854413
 31
0.0
  0
LINE
  5
196
330
1F
100
AcDbEntity
  8
0-2_扉
  6
JWW_DASHED1
 62
   120
370
     5
100
AcDbLine
 10
4864.165811280947
 20
3651.49981854413
 30
0.0
 11
4866.665811280948
 21
3651.49981854413
 31
0.0
  0
LINE
  5
197
330
1F
100
AcDbEntity
  8
0-2_扉
  6
Continuous
 62
    92
370
    13
100
AcDbLine
 10
4472.665811280948
 20
3651.49981854413
 30
0.0
 11
4864.165811280947
 21
3651.49981854413
 31
0.0
  0
LINE
  5
198
330
1F
100
AcDbEntity
  8
0-2_扉
  6
Continuous
 62
    92
370
    13
100
AcDbLine
 10
3681.665811280948
 20
1367.49981854413
 30
0.0
 11
3681.665811280948
 21
3651.49981854413
 31
0.0
  0
LINE
  5
199
330
1F
100
AcDbEntity
  8
0-2_扉
  6
Continuous
 62
    92
370
    13
100
AcDbLine
 10
3680.665811280947
 20
1367.49981854413
 30
0.0
 11
3680.665811280947
 21
3651.49981854413
 31
0.0
  0
LINE
  5
19A
330
1F
100
AcDbEntity
  8
0-2_扉
  6
Continuous
 62
    92
370
    13
100
AcDbLine
 10
4075.665811280948
 20
3651.49981854413
 30
0.0
 11
4075.665811280948
 21
1367.49981854413
 31
0.0
  0
LINE
  5
19B
330
1F
100
AcDbEntity
  8
0-2_扉
  6
Continuous
 62
    92
370
    13
100
AcDbLine
 10
4077.665811280948
 20
3651.49981854413
 30
0.0
 11
4077.665811280948
 21
1367.49981854413
 31
0.0
  0
LINE
  5
19C
330
1F
100
AcDbEntity
  8
0-2_扉
  6
Continuous
 62
    92
370
    13
100
AcDbLine
 10
4471.665811280947
 20
3651.49981854413
 30
0.0
 11
4471.665811280947
 21
1367.49981854413
 31
0.0
  0
LINE
  5
19D
330
1F
100
AcDbEntity
  8
0-2_扉
  6
Continuous
 62
    92
370
    13
100
AcDbLine
 10
4472.665811280948
 20
3651.49981854413
 30
0.0
 11
4472.665811280948
 21
1367.49981854413
 31
0.0
  0
LINE
  5
19E
330
1F
100
AcDbEntity
  8
0-B_寸法
  6
Continuous
 62
   120
370
     5
100
AcDbLine
 10
2959.165811280949
 20
3651.49981854413
 30
0.0
 11
2959.165811280949
 21
1367.49981854413
 31
0.0
  0
LINE
  5
19F
330
1F
100
AcDbEntity
  8
0-B_寸法
  6
Continuous
 62
   120
370
     5
100
AcDbLine
 10
2959.165811280949
 20
3651.49981854413
 30
0.0
 11
3209.165811280947
 21
3651.49981854413
 31
0.0
  0
LWPOLYLINE
  5
1A0
330
1F
100
AcDbEntity
  8
0-B_寸法
  6
Continuous
 62
     7
370
     9
100
AcDbPolyline
 90
        4
 70
     1
 43
3.0
 10
2960.665811280948
 20
3651.49981854413
 42
0.4142135623731
 10
2959.165811280949
 20
3652.99981854413
 42
0.4142135623731
 10
2957.665811280949
 20
3651.49981854413
 42
0.4142135623731
 10
2959.165811280949
 20
3649.99981854413
 42
0.4142135623731
  0
LINE
  5
1A1
330
1F
100
AcDbEntity
  8
0-4_枠
  6
Continuous
 62
    92
370
    13
100
AcDbLine
 10
-3988.666852590201
 20
1346.99981854413
 30
0.0
 11
-3988.666852590201
 21
3694.999818544131
 31
0.0
  0
LINE
  5
1A2
330
1F
100
AcDbEntity
  8
0-4_枠
  6
Continuous
 62
    92
370
    13
100
AcDbLine
 10
-3958.666852590201
 20
1346.99981854413
 30
0.0
 11
-3958.666852590201
 21
3658.99981854413
 31
0.0
  0
LINE
  5
1A3
330
1F
100
AcDbEntity
  8
0-4_枠
  6
Continuous
 62
    92
370
    13
100
AcDbLine
 10
-3264.666852590201
 20
1346.99981854413
 30
0.0
 11
-3264.666852590201
 21
3694.999818544131
 31
0.0
  0
LINE
  5
1A4
330
1F
100
AcDbEntity
  8
0-4_枠
  6
Continuous
 62
    92
370
    13
100
AcDbLine
 10
-3294.666852590201
 20
1346.99981854413
 30
0.0
 11
-3294.666852590201
 21
3658.999818544132
 31
0.0
  0
LINE
  5
1A5
330
1F
100
AcDbEntity
  8
0-4_枠
  6
Continuous
 62
    92
370
    13
100
AcDbLine
 10
-3988.666852590201
 20
3694.999818544131
 30
0.0
 11
-3264.666852590201
 21
3694.999818544131
 31
0.0
  0
LINE
  5
1A6
330
1F
100
AcDbEntity
  8
0-4_枠
  6
Continuous
 62
    92
370
    13
100
AcDbLine
 10
-3958.666852590201
 20
3658.99981854413
 30
0.0
 11
-3294.666852590201
 21
3658.99981854413
 31
0.0
  0
LINE
  5
1A7
330
1F
100
AcDbEntity
  8
0-B_寸法
  6
Continuous
 62
   120
370
     5
100
AcDbLine
 10
-4288.666852590201
 20
3651.49981854413
 30
0.0
 11
-4288.666852590201
 21
1367.49981854413
 31
0.0
  0
LINE
  5
1A8
330
1F
100
AcDbEntity
  8
0-B_寸法
  6
Continuous
 62
   120
370
     5
100
AcDbLine
 10
-4288.666852590201
 20
3651.49981854413
 30
0.0
 11
-4038.6668525902
 21
3651.49981854413
 31
0.0
  0
LWPOLYLINE
  5
1A9
330
1F
100
AcDbEntity
  8
0-B_寸法
  6
Continuous
 62
     7
370
     9
100
AcDbPolyline
 90
        4
 70
     1
 43
3.0
 10
-4287.166852590201
 20
3651.49981854413
 42
0.4142135623731
 10
-4288.666852590201
 20
3652.99981854413
 42
0.4142135623731
 10
-4290.166852590201
 20
3651.49981854413
 42
0.4142135623731
 10
-4288.666852590201
 20
3649.99981854413
 42
0.4142135623731
  0
LINE
  5
1AA
330
1F
100
AcDbEntity
  8
0-2_扉
  6
JWW_DASHED1
 62
   120
370
     5
100
AcDbLine
 10
-3961.166852590202
 20
1367.49981854413
 30
0.0
 11
-3961.166852590202
 21
3651.49981854413
 31
0.0
  0
LINE
  5
1AB
330
1F
100
AcDbEntity
  8
0-2_扉
  6
JWW_DASHED1
 62
   120
370
     5
100
AcDbLine
 10
-3292.1668525902
 20
1367.49981854413
 30
0.0
 11
-3292.1668525902
 21
3651.49981854413
 31
0.0
  0
LINE
  5
1AC
330
1F
100
AcDbEntity
  8
0-2_扉
  6
JWW_DASHED1
 62
   120
370
     5
100
AcDbLine
 10
-3958.666852590201
 20
3651.49981854413
 30
0.0
 11
-3961.166852590202
 21
3651.49981854413
 31
0.0
  0
LINE
  5
1AD
330
1F
100
AcDbEntity
  8
0-2_扉
  6
Continuous
 62
    92
370
    13
100
AcDbLine
 10
-3958.666852590201
 20
3651.49981854413
 30
0.0
 11
-3627.166852590201
 21
3651.49981854413
 31
0.0
  0
LINE
  5
1AE
330
1F
100
AcDbEntity
  8
0-2_扉
  6
JWW_DASHED1
 62
   120
370
     5
100
AcDbLine
 10
-3294.666852590201
 20
3651.49981854413
 30
0.0
 11
-3292.1668525902
 21
3651.49981854413
 31
0.0
  0
LINE
  5
1AF
330
1F
100
AcDbEntity
  8
0-2_扉
  6
Continuous
 62
    92
370
    13
100
AcDbLine
 10
-3626.166852590198
 20
3651.49981854413
 30
0.0
 11
-3294.666852590201
 21
3651.49981854413
 31
0.0
  0
LINE
  5
1B0
330
1F
100
AcDbEntity
  8
0-2_扉
  6
Continuous
 62
    92
370
    13
100
AcDbLine
 10
-3626.166852590198
 20
1367.49981854413
 30
0.0
 11
-3626.166852590198
 21
3651.49981854413
 31
0.0
  0
LINE
  5
1B1
330
1F
100
AcDbEntity
  8
0-2_扉
  6
Continuous
 62
    92
370
    13
100
AcDbLine
 10
-3627.166852590201
 20
1367.49981854413
 30
0.0
 11
-3627.166852590201
 21
3651.49981854413
 31
0.0
  0
LINE
  5
1B2
330
1F
100
AcDbEntity
  8
0-3_仕上げ
  6
Continuous
 62
     7
370
     9
100
AcDbLine
 10
-424.0005206546249
 20
1463.49981854413
 30
0.0
 11
-436.0005206546255
 21
1451.49981854413
 31
0.0
  0
LINE
  5
1B3
330
1F
100
AcDbEntity
  8
0-3_仕上げ
  6
Continuous
 62
     7
370
     9
100
AcDbLine
 10
-279.5005206546255
 20
1463.49981854413
 30
0.0
 11
-267.5005206546257
 21
1451.49981854413
 31
0.0
  0
LINE
  5
1B4
330
1F
100
AcDbEntity
  8
0-3_仕上げ
  6
Continuous
 62
     7
370
     9
100
AcDbLine
 10
-424.0005206546249
 20
1463.49981854413
 30
0.0
 11
-279.5005206546255
 21
1463.49981854413
 31
0.0
  0
LINE
  5
1B5
330
1F
100
AcDbEntity
  8
0-3_仕上げ
  6
Continuous
 62
     7
370
     9
100
AcDbLine
 10
-436.0005206546255
 20
1451.49981854413
 30
0.0
 11
-267.500520654624
 21
1451.49981854413
 31
0.0
  0
LINE
  5
1B6
330
1F
100
AcDbEntity
  8
0-3_仕上げ
  6
Continuous
 62
     7
370
     9
100
AcDbLine
 10
-408.0005206546249
 20
1479.49981854413
 30
0.0
 11
-418.4655206546253
 21
1469.03481854413
 31
0.0
  0
LINE
  5
1B7
330
1F
100
AcDbEntity
  8
0-3_仕上げ
  6
Continuous
 62
     7
370
     9
100
AcDbLine
 10
-408.0005206546249
 20
1479.49981854413
 30
0.0
 11
-295.5005206546249
 21
1479.49981854413
 31
0.0
  0
LINE
  5
1B8
330
1F
100
AcDbEntity
  8
0-3_仕上げ
  6
Continuous
 62
     7
370
     9
100
AcDbLine
 10
-295.5005206546249
 20
1479.49981854413
 30
0.0
 11
-285.2005206546249
 21
1469.19981854413
 31
0.0
  0
LINE
  5
1B9
330
1F
100
AcDbEntity
  8
0-3_仕上げ
  6
Continuous
 62
     7
370
     9
100
AcDbLine
 10
-140.5005206546261
 20
1463.49981854413
 30
0.0
 11
-152.5005206546263
 21
1451.49981854413
 31
0.0
  0
LINE
  5
1BA
330
1F
100
AcDbEntity
  8
0-3_仕上げ
  6
Continuous
 62
     7
370
     9
100
AcDbLine
 10
3.9994793453738
 20
1463.49981854413
 30
0.0
 11
15.99947934537312
 21
1451.49981854413
 31
0.0
  0
LINE
  5
1BB
330
1F
100
AcDbEntity
  8
0-3_仕上げ
  6
Continuous
 62
     7
370
     9
100
AcDbLine
 10
-140.5005206546261
 20
1463.49981854413
 30
0.0
 11
3.9994793453738
 21
1463.49981854413
 31
0.0
  0
LINE
  5
1BC
330
1F
100
AcDbEntity
  8
0-3_仕上げ
  6
Continuous
 62
     7
370
     9
100
AcDbLine
 10
-152.5005206546263
 20
1451.49981854413
 30
0.0
 11
15.99947934537482
 21
1451.49981854413
 31
0.0
  0
LINE
  5
1BD
330
1F
100
AcDbEntity
  8
0-3_仕上げ
  6
Continuous
 62
     7
370
     9
100
AcDbLine
 10
-124.5005206546261
 20
1479.49981854413
 30
0.0
 11
-134.9655206546265
 21
1469.03481854413
 31
0.0
  0
LINE
  5
1BE
330
1F
100
AcDbEntity
  8
0-3_仕上げ
  6
Continuous
 62
     7
370
     9
100
AcDbLine
 10
-124.5005206546261
 20
1479.49981854413
 30
0.0
 11
-12.00052065462614
 21
1479.49981854413
 31
0.0
  0
LINE
  5
1BF
330
1F
100
AcDbEntity
  8
0-3_仕上げ
  6
Continuous
 62
     7
370
     9
100
AcDbLine
 10
-12.00052065462614
 20
1479.49981854413
 30
0.0
 11
-1.700520654626132
 21
1469.19981854413
 31
0.0
  0
LINE
  5
1C0
330
1F
100
AcDbEntity
  8
0-3_仕上げ
  6
Continuous
 62
     7
370
     9
100
AcDbLine
 10
143.9994793453744
 20
1463.49981854413
 30
0.0
 11
131.9994793453742
 21
1451.49981854413
 31
0.0
  0
LINE
  5
1C1
330
1F
100
AcDbEntity
  8
0-3_仕上げ
  6
Continuous
 62
     7
370
     9
100
AcDbLine
 10
288.4994793453734
 20
1463.49981854413
 30
0.0
 11
300.4994793453736
 21
1451.49981854413
 31
0.0
  0
LINE
  5
1C2
330
1F
100
AcDbEntity
  8
0-3_仕上げ
  6
Continuous
 62
     7
370
     9
100
AcDbLine
 10
143.9994793453744
 20
1463.49981854413
 30
0.0
 11
288.4994793453734
 21
1463.49981854413
 31
0.0
  0
LINE
  5
1C3
330
1F
100
AcDbEntity
  8
0-3_仕上げ
  6
Continuous
 62
     7
370
     9
100
AcDbLine
 10
131.9994793453742
 20
1451.49981854413
 30
0.0
 11
300.4994793453753
 21
1451.49981854413
 31
0.0
  0
LINE
  5
1C4
330
1F
100
AcDbEntity
  8
0-3_仕上げ
  6
Continuous
 62
     7
370
     9
100
AcDbLine
 10
159.9994793453735
 20
1479.49981854413
 30
0.0
 11
149.5344793453739
 21
1469.03481854413
 31
0.0
  0
LINE
  5
1C5
330
1F
100
AcDbEntity
  8
0-3_仕上げ
  6
Continuous
 62
     7
370
     9
100
AcDbLine
 10
159.9994793453735
 20
1479.49981854413
 30
0.0
 11
272.4994793453735
 21
1479.49981854413
 31
0.0
  0
LINE
  5
1C6
330
1F
100
AcDbEntity
  8
0-3_仕上げ
  6
Continuous
 62
     7
370
     9
100
AcDbLine
 10
272.4994793453735
 20
1479.49981854413
 30
0.0
 11
282.7994793453743
 21
1469.19981854413
 31
0.0
  0
LINE
  5
1C7
330
1F
100
AcDbEntity
  8
0-3_仕上げ
  6
Continuous
 62
     7
370
     9
100
AcDbLine
 10
427.4994793453732
 20
1463.49981854413
 30
0.0
 11
415.499479345373
 21
1451.49981854413
 31
0.0
  0
LINE
  5
1C8
330
1F
100
AcDbEntity
  8
0-3_仕上げ
  6
Continuous
 62
     7
370
     9
100
AcDbLine
 10
571.9994793453731
 20
1463.49981854413
 30
0.0
 11
583.9994793453724
 21
1451.49981854413
 31
0.0
  0
LINE
  5
1C9
330
1F
100
AcDbEntity
  8
0-3_仕上げ
  6
Continuous
 62
     7
370
     9
100
AcDbLine
 10
427.4994793453732
 20
1463.49981854413
 30
0.0
 11
571.9994793453731
 21
1463.49981854413
 31
0.0
  0
LINE
  5
1CA
330
1F
100
AcDbEntity
  8
0-3_仕上げ
  6
Continuous
 62
     7
370
     9
100
AcDbLine
 10
415.499479345373
 20
1451.49981854413
 30
0.0
 11
583.9994793453741
 21
1451.49981854413
 31
0.0
  0
LINE
  5
1CB
330
1F
100
AcDbEntity
  8
0-3_仕上げ
  6
Continuous
 62
     7
370
     9
100
AcDbLine
 10
443.4994793453731
 20
1479.49981854413
 30
0.0
 11
433.0344793453727
 21
1469.03481854413
 31
0.0
  0
LINE
  5
1CC
330
1F
100
AcDbEntity
  8
0-3_仕上げ
  6
Continuous
 62
     7
370
     9
100
AcDbLine
 10
443.4994793453731
 20
1479.49981854413
 30
0.0
 11
555.9994793453732
 21
1479.49981854413
 31
0.0
  0
LINE
  5
1CD
330
1F
100
AcDbEntity
  8
0-3_仕上げ
  6
Continuous
 62
     7
370
     9
100
AcDbLine
 10
555.9994793453732
 20
1479.49981854413
 30
0.0
 11
566.2994793453731
 21
1469.19981854413
 31
0.0
  0
LINE
  5
1CE
330
1F
100
AcDbEntity
  8
0-3_仕上げ
  6
Continuous
 62
     7
370
     9
100
AcDbLine
 10
-3892.166852590201
 20
1463.49981854413
 30
0.0
 11
-3904.166852590202
 21
1451.49981854413
 31
0.0
  0
LINE
  5
1CF
330
1F
100
AcDbEntity
  8
0-3_仕上げ
  6
Continuous
 62
     7
370
     9
100
AcDbLine
 10
-3696.166852590202
 20
1463.49981854413
 30
0.0
 11
-3684.166852590202
 21
1451.49981854413
 31
0.0
  0
LINE
  5
1D0
330
1F
100
AcDbEntity
  8
0-3_仕上げ
  6
Continuous
 62
     7
370
     9
100
AcDbLine
 10
-3892.166852590201
 20
1463.49981854413
 30
0.0
 11
-3696.166852590202
 21
1463.49981854413
 31
0.0
  0
LINE
  5
1D1
330
1F
100
AcDbEntity
  8
0-3_仕上げ
  6
Continuous
 62
     7
370
     9
100
AcDbLine
 10
-3904.166852590202
 20
1451.49981854413
 30
0.0
 11
-3684.166852590201
 21
1451.49981854413
 31
0.0
  0
LINE
  5
1D2
330
1F
100
AcDbEntity
  8
0-3_仕上げ
  6
Continuous
 62
     7
370
     9
100
AcDbLine
 10
-3876.166852590201
 20
1479.49981854413
 30
0.0
 11
-3886.631852590202
 21
1469.03481854413
 31
0.0
  0
LINE
  5
1D3
330
1F
100
AcDbEntity
  8
0-3_仕上げ
  6
Continuous
 62
     7
370
     9
100
AcDbLine
 10
-3876.166852590201
 20
1479.49981854413
 30
0.0
 11
-3712.166852590202
 21
1479.49981854413
 31
0.0
  0
LINE
  5
1D4
330
1F
100
AcDbEntity
  8
0-3_仕上げ
  6
Continuous
 62
     7
370
     9
100
AcDbLine
 10
-3712.166852590202
 20
1479.49981854413
 30
0.0
 11
-3701.866852590202
 21
1469.19981854413
 31
0.0
  0
LINE
  5
1D5
330
1F
100
AcDbEntity
  8
0-3_仕上げ
  6
Continuous
 62
     7
370
     9
100
AcDbLine
 10
-3557.166852590198
 20
1463.49981854413
 30
0.0
 11
-3569.166852590198
 21
1451.49981854413
 31
0.0
  0
LINE
  5
1D6
330
1F
100
AcDbEntity
  8
0-3_仕上げ
  6
Continuous
 62
     7
370
     9
100
AcDbLine
 10
-3361.166852590199
 20
1463.49981854413
 30
0.0
 11
-3349.166852590198
 21
1451.49981854413
 31
0.0
  0
LINE
  5
1D7
330
1F
100
AcDbEntity
  8
0-3_仕上げ
  6
Continuous
 62
     7
370
     9
100
AcDbLine
 10
-3557.166852590198
 20
1463.49981854413
 30
0.0
 11
-3361.166852590198
 21
1463.49981854413
 31
0.0
  0
LINE
  5
1D8
330
1F
100
AcDbEntity
  8
0-3_仕上げ
  6
Continuous
 62
     7
370
     9
100
AcDbLine
 10
-3569.166852590198
 20
1451.49981854413
 30
0.0
 11
-3349.166852590197
 21
1451.49981854413
 31
0.0
  0
LINE
  5
1D9
330
1F
100
AcDbEntity
  8
0-3_仕上げ
  6
Continuous
 62
     7
370
     9
100
AcDbLine
 10
-3541.166852590198
 20
1479.49981854413
 30
0.0
 11
-3551.631852590198
 21
1469.03481854413
 31
0.0
  0
LINE
  5
1DA
330
1F
100
AcDbEntity
  8
0-3_仕上げ
  6
Continuous
 62
     7
370
     9
100
AcDbLine
 10
-3541.166852590198
 20
1479.49981854413
 30
0.0
 11
-3377.166852590198
 21
1479.49981854413
 31
0.0
  0
LINE
  5
1DB
330
1F
100
AcDbEntity
  8
0-3_仕上げ
  6
Continuous
 62
     7
370
     9
100
AcDbLine
 10
-3377.166852590198
 20
1479.49981854413
 30
0.0
 11
-3366.866852590199
 21
1469.19981854413
 31
0.0
  0
LINE
  5
1DC
330
1F
100
AcDbEntity
  8
0-3_仕上げ
  6
Continuous
 62
     7
370
     9
100
AcDbLine
 10
3611.665811280946
 20
1463.499818544129
 30
0.0
 11
3623.665811280947
 21
1451.499818544129
 31
0.0
  0
LINE
  5
1DD
330
1F
100
AcDbEntity
  8
0-3_仕上げ
  6
Continuous
 62
     7
370
     9
100
AcDbLine
 10
3355.665811280947
 20
1463.499818544129
 30
0.0
 11
3343.665811280948
 21
1451.499818544129
 31
0.0
  0
LINE
  5
1DE
330
1F
100
AcDbEntity
  8
0-3_仕上げ
  6
Continuous
 62
     7
370
     9
100
AcDbLine
 10
3343.665811280947
 20
1451.499818544129
 30
0.0
 11
3623.665811280947
 21
1451.499818544129
 31
0.0
  0
LINE
  5
1DF
330
1F
100
AcDbEntity
  8
0-3_仕上げ
  6
Continuous
 62
     7
370
     9
100
AcDbLine
 10
3355.665811280947
 20
1463.49981854413
 30
0.0
 11
3611.665811280946
 21
1463.49981854413
 31
0.0
  0
LINE
  5
1E0
330
1F
100
AcDbEntity
  8
0-3_仕上げ
  6
Continuous
 62
     7
370
     9
100
AcDbLine
 10
3371.665811280948
 20
1479.499818544129
 30
0.0
 11
3361.200811280949
 21
1469.034818544129
 31
0.0
  0
LINE
  5
1E1
330
1F
100
AcDbEntity
  8
0-3_仕上げ
  6
Continuous
 62
     7
370
     9
100
AcDbLine
 10
3371.665811280948
 20
1479.499818544129
 30
0.0
 11
3595.665811280947
 21
1479.499818544129
 31
0.0
  0
LINE
  5
1E2
330
1F
100
AcDbEntity
  8
0-3_仕上げ
  6
Continuous
 62
     7
370
     9
100
AcDbLine
 10
3595.665811280947
 20
1479.499818544129
 30
0.0
 11
3605.965811280947
 21
1469.199818544129
 31
0.0
  0
LINE
  5
1E3
330
1F
100
AcDbEntity
  8
0-3_仕上げ
  6
Continuous
 62
     7
370
     9
100
AcDbLine
 10
4006.665811280948
 20
1463.499818544129
 30
0.0
 11
4018.665811280947
 21
1451.499818544129
 31
0.0
  0
LINE
  5
1E4
330
1F
100
AcDbEntity
  8
0-3_仕上げ
  6
Continuous
 62
     7
370
     9
100
AcDbLine
 10
3750.665811280949
 20
1463.499818544129
 30
0.0
 11
3738.665811280949
 21
1451.499818544129
 31
0.0
  0
LINE
  5
1E5
330
1F
100
AcDbEntity
  8
0-3_仕上げ
  6
Continuous
 62
     7
370
     9
100
AcDbLine
 10
3738.665811280948
 20
1451.499818544129
 30
0.0
 11
4018.665811280949
 21
1451.499818544129
 31
0.0
  0
LINE
  5
1E6
330
1F
100
AcDbEntity
  8
0-3_仕上げ
  6
Continuous
 62
     7
370
     9
100
AcDbLine
 10
3750.665811280949
 20
1463.49981854413
 30
0.0
 11
4006.665811280948
 21
1463.49981854413
 31
0.0
  0
LINE
  5
1E7
330
1F
100
AcDbEntity
  8
0-3_仕上げ
  6
Continuous
 62
     7
370
     9
100
AcDbLine
 10
3766.665811280948
 20
1479.499818544129
 30
0.0
 11
3756.200811280949
 21
1469.034818544129
 31
0.0
  0
LINE
  5
1E8
330
1F
100
AcDbEntity
  8
0-3_仕上げ
  6
Continuous
 62
     7
370
     9
100
AcDbLine
 10
3766.665811280948
 20
1479.499818544129
 30
0.0
 11
3990.665811280949
 21
1479.499818544129
 31
0.0
  0
LINE
  5
1E9
330
1F
100
AcDbEntity
  8
0-3_仕上げ
  6
Continuous
 62
     7
370
     9
100
AcDbLine
 10
3990.665811280949
 20
1479.499818544129
 30
0.0
 11
4000.965811280949
 21
1469.199818544129
 31
0.0
  0
LINE
  5
1EA
330
1F
100
AcDbEntity
  8
0-3_仕上げ
  6
Continuous
 62
     7
370
     9
100
AcDbLine
 10
4402.665811280947
 20
1463.499818544129
 30
0.0
 11
4414.665811280948
 21
1451.499818544129
 31
0.0
  0
LINE
  5
1EB
330
1F
100
AcDbEntity
  8
0-3_仕上げ
  6
Continuous
 62
     7
370
     9
100
AcDbLine
 10
4146.665811280946
 20
1463.499818544129
 30
0.0
 11
4134.665811280947
 21
1451.499818544129
 31
0.0
  0
LINE
  5
1EC
330
1F
100
AcDbEntity
  8
0-3_仕上げ
  6
Continuous
 62
     7
370
     9
100
AcDbLine
 10
4134.665811280947
 20
1451.499818544129
 30
0.0
 11
4414.665811280948
 21
1451.499818544129
 31
0.0
  0
LINE
  5
1ED
330
1F
100
AcDbEntity
  8
0-3_仕上げ
  6
Continuous
 62
     7
370
     9
100
AcDbLine
 10
4146.665811280946
 20
1463.49981854413
 30
0.0
 11
4402.665811280947
 21
1463.49981854413
 31
0.0
  0
LINE
  5
1EE
330
1F
100
AcDbEntity
  8
0-3_仕上げ
  6
Continuous
 62
     7
370
     9
100
AcDbLine
 10
4162.665811280947
 20
1479.499818544129
 30
0.0
 11
4152.200811280949
 21
1469.034818544129
 31
0.0
  0
LINE
  5
1EF
330
1F
100
AcDbEntity
  8
0-3_仕上げ
  6
Continuous
 62
     7
370
     9
100
AcDbLine
 10
4162.665811280947
 20
1479.499818544129
 30
0.0
 11
4386.665811280946
 21
1479.499818544129
 31
0.0
  0
LINE
  5
1F0
330
1F
100
AcDbEntity
  8
0-3_仕上げ
  6
Continuous
 62
     7
370
     9
100
AcDbLine
 10
4386.665811280946
 20
1479.499818544129
 30
0.0
 11
4396.965811280947
 21
1469.199818544129
 31
0.0
  0
LINE
  5
1F1
330
1F
100
AcDbEntity
  8
0-3_仕上げ
  6
Continuous
 62
     7
370
     9
100
AcDbLine
 10
4797.665811280948
 20
1463.499818544129
 30
0.0
 11
4809.665811280947
 21
1451.499818544129
 31
0.0
  0
LINE
  5
1F2
330
1F
100
AcDbEntity
  8
0-3_仕上げ
  6
Continuous
 62
     7
370
     9
100
AcDbLine
 10
4541.665811280949
 20
1463.499818544129
 30
0.0
 11
4529.665811280948
 21
1451.499818544129
 31
0.0
  0
LINE
  5
1F3
330
1F
100
AcDbEntity
  8
0-3_仕上げ
  6
Continuous
 62
     7
370
     9
100
AcDbLine
 10
4529.665811280948
 20
1451.499818544129
 30
0.0
 11
4809.665811280947
 21
1451.499818544129
 31
0.0
  0
LINE
  5
1F4
330
1F
100
AcDbEntity
  8
0-3_仕上げ
  6
Continuous
 62
     7
370
     9
100
AcDbLine
 10
4541.665811280949
 20
1463.49981854413
 30
0.0
 11
4797.665811280948
 21
1463.49981854413
 31
0.0
  0
LINE
  5
1F5
330
1F
100
AcDbEntity
  8
0-3_仕上げ
  6
Continuous
 62
     7
370
     9
100
AcDbLine
 10
4557.665811280948
 20
1479.499818544129
 30
0.0
 11
4547.200811280947
 21
1469.034818544129
 31
0.0
  0
LINE
  5
1F6
330
1F
100
AcDbEntity
  8
0-3_仕上げ
  6
Continuous
 62
     7
370
     9
100
AcDbLine
 10
4557.665811280948
 20
1479.499818544129
 30
0.0
 11
4781.665811280949
 21
1479.499818544129
 31
0.0
  0
LINE
  5
1F7
330
1F
100
AcDbEntity
  8
0-3_仕上げ
  6
Continuous
 62
     7
370
     9
100
AcDbLine
 10
4781.665811280949
 20
1479.499818544129
 30
0.0
 11
4791.965811280948
 21
1469.199818544129
 31
0.0
  0
LINE
  5
1F8
330
1F
100
AcDbEntity
  8
0-3_仕上げ
  6
Continuous
 62
     7
370
     9
100
AcDbLine
 10
-424.0005206546249
 20
3555.499818544132
 30
0.0
 11
-436.0005206546255
 21
3567.499818544132
 31
0.0
  0
LINE
  5
1F9
330
1F
100
AcDbEntity
  8
0-3_仕上げ
  6
Continuous
 62
     7
370
     9
100
AcDbLine
 10
-267.5005206546257
 20
3567.499818544132
 30
0.0
 11
-279.5005206546255
 21
3555.499818544132
 31
0.0
  0
LINE
  5
1FA
330
1F
100
AcDbEntity
  8
0-3_仕上げ
  6
Continuous
 62
     7
370
     9
100
AcDbLine
 10
-436.0005206546255
 20
3567.499818544132
 30
0.0
 11
-267.5005206546257
 21
3567.499818544132
 31
0.0
  0
LINE
  5
1FB
330
1F
100
AcDbEntity
  8
0-3_仕上げ
  6
Continuous
 62
     7
370
     9
100
AcDbLine
 10
-424.0005206546249
 20
3555.499818544132
 30
0.0
 11
-279.5005206546255
 21
3555.499818544132
 31
0.0
  0
LINE
  5
1FC
330
1F
100
AcDbEntity
  8
0-3_仕上げ
  6
Continuous
 62
     7
370
     9
100
AcDbLine
 10
-436.0005206546255
 20
1367.499818544131
 30
0.0
 11
-436.0005206546255
 21
3651.499818544132
 31
0.0
  0
LINE
  5
1FD
330
1F
100
AcDbEntity
  8
0-3_仕上げ
  6
Continuous
 62
     7
370
     9
100
AcDbLine
 10
-267.5005206546248
 20
1367.499818544131
 30
0.0
 11
-267.5005206546248
 21
3651.499818544132
 31
0.0
  0
LINE
  5
1FE
330
1F
100
AcDbEntity
  8
0-3_仕上げ
  6
Continuous
 62
     7
370
     9
100
AcDbLine
 10
-424.0005206546249
 20
1463.49981854413
 30
0.0
 11
-424.0005206546249
 21
3555.499818544132
 31
0.0
  0
LINE
  5
1FF
330
1F
100
AcDbEntity
  8
0-3_仕上げ
  6
Continuous
 62
     7
370
     9
100
AcDbLine
 10
-279.5005206546255
 20
1463.49981854413
 30
0.0
 11
-279.5005206546255
 21
3555.499818544132
 31
0.0
  0
LINE
  5
200
330
1F
100
AcDbEntity
  8
0-3_仕上げ
  6
Continuous
 62
     7
370
     9
100
AcDbLine
 10
-408.0005206546249
 20
3539.499818544132
 30
0.0
 11
-418.4655206546245
 21
3549.964818544132
 31
0.0
  0
LINE
  5
201
330
1F
100
AcDbEntity
  8
0-3_仕上げ
  6
Continuous
 62
     7
370
     9
100
AcDbLine
 10
-408.0005206546249
 20
3539.499818544132
 30
0.0
 11
-295.5005206546249
 21
3539.499818544132
 31
0.0
  0
LINE
  5
202
330
1F
100
AcDbEntity
  8
0-3_仕上げ
  6
Continuous
 62
     7
370
     9
100
AcDbLine
 10
-295.5005206546249
 20
3539.499818544132
 30
0.0
 11
-285.2005206546249
 21
3549.799818544132
 31
0.0
  0
LINE
  5
203
330
1F
100
AcDbEntity
  8
0-3_仕上げ
  6
Continuous
 62
     7
370
     9
100
AcDbLine
 10
-408.0005206546249
 20
1479.49981854413
 30
0.0
 11
-408.0005206546249
 21
3539.499818544132
 31
0.0
  0
LINE
  5
204
330
1F
100
AcDbEntity
  8
0-3_仕上げ
  6
Continuous
 62
     7
370
     9
100
AcDbLine
 10
-295.5005206546249
 20
1479.49981854413
 30
0.0
 11
-295.5005206546249
 21
3539.499818544132
 31
0.0
  0
LINE
  5
205
330
1F
100
AcDbEntity
  8
0-3_仕上げ
  6
Continuous
 62
     7
370
     9
100
AcDbLine
 10
-140.5005206546261
 20
3555.499818544132
 30
0.0
 11
-152.5005206546263
 21
3567.499818544132
 31
0.0
  0
LINE
  5
206
330
1F
100
AcDbEntity
  8
0-3_仕上げ
  6
Continuous
 62
     7
370
     9
100
AcDbLine
 10
15.99947934537312
 20
3567.499818544132
 30
0.0
 11
3.9994793453738
 21
3555.499818544132
 31
0.0
  0
LINE
  5
207
330
1F
100
AcDbEntity
  8
0-3_仕上げ
  6
Continuous
 62
     7
370
     9
100
AcDbLine
 10
-152.5005206546263
 20
3567.499818544132
 30
0.0
 11
15.99947934537312
 21
3567.499818544132
 31
0.0
  0
LINE
  5
208
330
1F
100
AcDbEntity
  8
0-3_仕上げ
  6
Continuous
 62
     7
370
     9
100
AcDbLine
 10
-140.5005206546261
 20
3555.499818544132
 30
0.0
 11
3.9994793453738
 21
3555.499818544132
 31
0.0
  0
LINE
  5
209
330
1F
100
AcDbEntity
  8
0-3_仕上げ
  6
Continuous
 62
     7
370
     9
100
AcDbLine
 10
-152.5005206546263
 20
1367.499818544131
 30
0.0
 11
-152.5005206546263
 21
3651.499818544132
 31
0.0
  0
LINE
  5
20A
330
1F
100
AcDbEntity
  8
0-3_仕上げ
  6
Continuous
 62
     7
370
     9
100
AcDbLine
 10
15.99947934537397
 20
1367.499818544131
 30
0.0
 11
15.99947934537397
 21
3651.499818544132
 31
0.0
  0
LINE
  5
20B
330
1F
100
AcDbEntity
  8
0-3_仕上げ
  6
Continuous
 62
     7
370
     9
100
AcDbLine
 10
-140.5005206546261
 20
1463.49981854413
 30
0.0
 11
-140.5005206546261
 21
3555.499818544132
 31
0.0
  0
LINE
  5
20C
330
1F
100
AcDbEntity
  8
0-3_仕上げ
  6
Continuous
 62
     7
370
     9
100
AcDbLine
 10
3.9994793453738
 20
1463.49981854413
 30
0.0
 11
3.9994793453738
 21
3555.499818544132
 31
0.0
  0
LINE
  5
20D
330
1F
100
AcDbEntity
  8
0-3_仕上げ
  6
Continuous
 62
     7
370
     9
100
AcDbLine
 10
-124.5005206546261
 20
3539.499818544132
 30
0.0
 11
-134.9655206546261
 21
3549.964818544132
 31
0.0
  0
LINE
  5
20E
330
1F
100
AcDbEntity
  8
0-3_仕上げ
  6
Continuous
 62
     7
370
     9
100
AcDbLine
 10
-124.5005206546261
 20
3539.499818544132
 30
0.0
 11
-12.00052065462614
 21
3539.499818544132
 31
0.0
  0
LINE
  5
20F
330
1F
100
AcDbEntity
  8
0-3_仕上げ
  6
Continuous
 62
     7
370
     9
100
AcDbLine
 10
-12.00052065462614
 20
3539.499818544132
 30
0.0
 11
-1.700520654626132
 21
3549.799818544132
 31
0.0
  0
LINE
  5
210
330
1F
100
AcDbEntity
  8
0-3_仕上げ
  6
Continuous
 62
     7
370
     9
100
AcDbLine
 10
-124.5005206546261
 20
1479.49981854413
 30
0.0
 11
-124.5005206546261
 21
3539.499818544132
 31
0.0
  0
LINE
  5
211
330
1F
100
AcDbEntity
  8
0-3_仕上げ
  6
Continuous
 62
     7
370
     9
100
AcDbLine
 10
-12.00052065462614
 20
1479.49981854413
 30
0.0
 11
-12.00052065462614
 21
3539.499818544132
 31
0.0
  0
LINE
  5
212
330
1F
100
AcDbEntity
  8
0-3_仕上げ
  6
Continuous
 62
     7
370
     9
100
AcDbLine
 10
143.9994793453744
 20
3555.499818544132
 30
0.0
 11
131.9994793453742
 21
3567.499818544132
 31
0.0
  0
LINE
  5
213
330
1F
100
AcDbEntity
  8
0-3_仕上げ
  6
Continuous
 62
     7
370
     9
100
AcDbLine
 10
300.4994793453736
 20
3567.499818544132
 30
0.0
 11
288.4994793453734
 21
3555.499818544132
 31
0.0
  0
LINE
  5
214
330
1F
100
AcDbEntity
  8
0-3_仕上げ
  6
Continuous
 62
     7
370
     9
100
AcDbLine
 10
131.9994793453742
 20
3567.499818544132
 30
0.0
 11
300.4994793453736
 21
3567.499818544132
 31
0.0
  0
LINE
  5
215
330
1F
100
AcDbEntity
  8
0-3_仕上げ
  6
Continuous
 62
     7
370
     9
100
AcDbLine
 10
143.9994793453744
 20
3555.499818544132
 30
0.0
 11
288.4994793453734
 21
3555.499818544132
 31
0.0
  0
LINE
  5
216
330
1F
100
AcDbEntity
  8
0-3_仕上げ
  6
Continuous
 62
     7
370
     9
100
AcDbLine
 10
131.9994793453742
 20
1367.499818544131
 30
0.0
 11
131.9994793453742
 21
3651.499818544132
 31
0.0
  0
LINE
  5
217
330
1F
100
AcDbEntity
  8
0-3_仕上げ
  6
Continuous
 62
     7
370
     9
100
AcDbLine
 10
300.4994793453744
 20
1367.499818544131
 30
0.0
 11
300.4994793453744
 21
3651.499818544132
 31
0.0
  0
LINE
  5
218
330
1F
100
AcDbEntity
  8
0-3_仕上げ
  6
Continuous
 62
     7
370
     9
100
AcDbLine
 10
143.9994793453744
 20
1463.49981854413
 30
0.0
 11
143.9994793453744
 21
3555.499818544132
 31
0.0
  0
LINE
  5
219
330
1F
100
AcDbEntity
  8
0-3_仕上げ
  6
Continuous
 62
     7
370
     9
100
AcDbLine
 10
288.4994793453734
 20
1463.49981854413
 30
0.0
 11
288.4994793453734
 21
3555.499818544132
 31
0.0
  0
LINE
  5
21A
330
1F
100
AcDbEntity
  8
0-3_仕上げ
  6
Continuous
 62
     7
370
     9
100
AcDbLine
 10
159.9994793453735
 20
3539.499818544132
 30
0.0
 11
149.5344793453748
 21
3549.964818544132
 31
0.0
  0
LINE
  5
21B
330
1F
100
AcDbEntity
  8
0-3_仕上げ
  6
Continuous
 62
     7
370
     9
100
AcDbLine
 10
159.9994793453735
 20
3539.499818544132
 30
0.0
 11
272.4994793453735
 21
3539.499818544132
 31
0.0
  0
LINE
  5
21C
330
1F
100
AcDbEntity
  8
0-3_仕上げ
  6
Continuous
 62
     7
370
     9
100
AcDbLine
 10
272.4994793453735
 20
3539.499818544132
 30
0.0
 11
282.7994793453743
 21
3549.799818544132
 31
0.0
  0
LINE
  5
21D
330
1F
100
AcDbEntity
  8
0-3_仕上げ
  6
Continuous
 62
     7
370
     9
100
AcDbLine
 10
159.9994793453735
 20
1479.49981854413
 30
0.0
 11
159.9994793453735
 21
3539.499818544132
 31
0.0
  0
LINE
  5
21E
330
1F
100
AcDbEntity
  8
0-3_仕上げ
  6
Continuous
 62
     7
370
     9
100
AcDbLine
 10
272.4994793453735
 20
1479.49981854413
 30
0.0
 11
272.4994793453735
 21
3539.499818544132
 31
0.0
  0
LINE
  5
21F
330
1F
100
AcDbEntity
  8
0-3_仕上げ
  6
Continuous
 62
     7
370
     9
100
AcDbLine
 10
427.4994793453732
 20
3555.499818544132
 30
0.0
 11
415.499479345373
 21
3567.499818544132
 31
0.0
  0
LINE
  5
220
330
1F
100
AcDbEntity
  8
0-3_仕上げ
  6
Continuous
 62
     7
370
     9
100
AcDbLine
 10
583.9994793453724
 20
3567.499818544132
 30
0.0
 11
571.9994793453731
 21
3555.499818544132
 31
0.0
  0
LINE
  5
221
330
1F
100
AcDbEntity
  8
0-3_仕上げ
  6
Continuous
 62
     7
370
     9
100
AcDbLine
 10
415.499479345373
 20
3567.499818544132
 30
0.0
 11
583.9994793453724
 21
3567.499818544132
 31
0.0
  0
LINE
  5
222
330
1F
100
AcDbEntity
  8
0-3_仕上げ
  6
Continuous
 62
     7
370
     9
100
AcDbLine
 10
427.4994793453732
 20
3555.499818544132
 30
0.0
 11
571.9994793453731
 21
3555.499818544132
 31
0.0
  0
LINE
  5
223
330
1F
100
AcDbEntity
  8
0-3_仕上げ
  6
Continuous
 62
     7
370
     9
100
AcDbLine
 10
415.499479345373
 20
1367.499818544131
 30
0.0
 11
415.499479345373
 21
3651.499818544132
 31
0.0
  0
LINE
  5
224
330
1F
100
AcDbEntity
  8
0-3_仕上げ
  6
Continuous
 62
     7
370
     9
100
AcDbLine
 10
583.9994793453732
 20
1367.499818544131
 30
0.0
 11
583.9994793453732
 21
3651.499818544132
 31
0.0
  0
LINE
  5
225
330
1F
100
AcDbEntity
  8
0-3_仕上げ
  6
Continuous
 62
     7
370
     9
100
AcDbLine
 10
427.4994793453732
 20
1463.49981854413
 30
0.0
 11
427.4994793453732
 21
3555.499818544132
 31
0.0
  0
LINE
  5
226
330
1F
100
AcDbEntity
  8
0-3_仕上げ
  6
Continuous
 62
     7
370
     9
100
AcDbLine
 10
571.9994793453731
 20
1463.49981854413
 30
0.0
 11
571.9994793453731
 21
3555.499818544132
 31
0.0
  0
LINE
  5
227
330
1F
100
AcDbEntity
  8
0-3_仕上げ
  6
Continuous
 62
     7
370
     9
100
AcDbLine
 10
443.4994793453731
 20
3539.499818544132
 30
0.0
 11
433.0344793453736
 21
3549.964818544132
 31
0.0
  0
LINE
  5
228
330
1F
100
AcDbEntity
  8
0-3_仕上げ
  6
Continuous
 62
     7
370
     9
100
AcDbLine
 10
443.4994793453731
 20
3539.499818544132
 30
0.0
 11
555.9994793453732
 21
3539.499818544132
 31
0.0
  0
LINE
  5
229
330
1F
100
AcDbEntity
  8
0-3_仕上げ
  6
Continuous
 62
     7
370
     9
100
AcDbLine
 10
555.9994793453732
 20
3539.499818544132
 30
0.0
 11
566.2994793453731
 21
3549.799818544132
 31
0.0
  0
LINE
  5
22A
330
1F
100
AcDbEntity
  8
0-3_仕上げ
  6
Continuous
 62
     7
370
     9
100
AcDbLine
 10
443.4994793453731
 20
1479.49981854413
 30
0.0
 11
443.4994793453731
 21
3539.499818544132
 31
0.0
  0
LINE
  5
22B
330
1F
100
AcDbEntity
  8
0-3_仕上げ
  6
Continuous
 62
     7
370
     9
100
AcDbLine
 10
555.9994793453732
 20
1479.49981854413
 30
0.0
 11
555.9994793453732
 21
3539.499818544132
 31
0.0
  0
LINE
  5
22C
330
1F
100
AcDbEntity
  8
0-3_仕上げ
  6
Continuous
 62
     7
370
     9
100
AcDbLine
 10
-3892.166852590201
 20
3555.499818544132
 30
0.0
 11
-3904.166852590202
 21
3567.499818544132
 31
0.0
  0
LINE
  5
22D
330
1F
100
AcDbEntity
  8
0-3_仕上げ
  6
Continuous
 62
     7
370
     9
100
AcDbLine
 10
-3684.166852590202
 20
3567.499818544132
 30
0.0
 11
-3696.166852590202
 21
3555.499818544132
 31
0.0
  0
LINE
  5
22E
330
1F
100
AcDbEntity
  8
0-3_仕上げ
  6
Continuous
 62
     7
370
     9
100
AcDbLine
 10
-3892.166852590201
 20
3555.499818544132
 30
0.0
 11
-3696.166852590202
 21
3555.499818544132
 31
0.0
  0
LINE
  5
22F
330
1F
100
AcDbEntity
  8
0-3_仕上げ
  6
Continuous
 62
     7
370
     9
100
AcDbLine
 10
-3904.166852590202
 20
3567.499818544132
 30
0.0
 11
-3684.166852590202
 21
3567.499818544132
 31
0.0
  0
LINE
  5
230
330
1F
100
AcDbEntity
  8
0-3_仕上げ
  6
Continuous
 62
     7
370
     9
100
AcDbLine
 10
-3904.166852590202
 20
1367.49981854413
 30
0.0
 11
-3904.166852590202
 21
3651.499818544133
 31
0.0
  0
LINE
  5
231
330
1F
100
AcDbEntity
  8
0-3_仕上げ
  6
Continuous
 62
     7
370
     9
100
AcDbLine
 10
-3684.166852590202
 20
1367.49981854413
 30
0.0
 11
-3684.166852590202
 21
3651.499818544133
 31
0.0
  0
LINE
  5
232
330
1F
100
AcDbEntity
  8
0-3_仕上げ
  6
Continuous
 62
     7
370
     9
100
AcDbLine
 10
-3892.166852590201
 20
1463.49981854413
 30
0.0
 11
-3892.166852590201
 21
3555.499818544132
 31
0.0
  0
LINE
  5
233
330
1F
100
AcDbEntity
  8
0-3_仕上げ
  6
Continuous
 62
     7
370
     9
100
AcDbLine
 10
-3696.166852590202
 20
1463.49981854413
 30
0.0
 11
-3696.166852590202
 21
3555.499818544132
 31
0.0
  0
LINE
  5
234
330
1F
100
AcDbEntity
  8
0-3_仕上げ
  6
Continuous
 62
     7
370
     9
100
AcDbLine
 10
-3876.166852590201
 20
1479.49981854413
 30
0.0
 11
-3876.166852590201
 21
3539.499818544132
 31
0.0
  0
LINE
  5
235
330
1F
100
AcDbEntity
  8
0-3_仕上げ
  6
Continuous
 62
     7
370
     9
100
AcDbLine
 10
-3876.166852590201
 20
3539.499818544132
 30
0.0
 11
-3886.631852590201
 21
3549.964818544132
 31
0.0
  0
LINE
  5
236
330
1F
100
AcDbEntity
  8
0-3_仕上げ
  6
Continuous
 62
     7
370
     9
100
AcDbLine
 10
-3876.166852590201
 20
3539.499818544132
 30
0.0
 11
-3712.166852590202
 21
3539.499818544132
 31
0.0
  0
LINE
  5
237
330
1F
100
AcDbEntity
  8
0-3_仕上げ
  6
Continuous
 62
     7
370
     9
100
AcDbLine
 10
-3712.166852590202
 20
1479.49981854413
 30
0.0
 11
-3712.166852590202
 21
3539.499818544132
 31
0.0
  0
LINE
  5
238
330
1F
100
AcDbEntity
  8
0-3_仕上げ
  6
Continuous
 62
     7
370
     9
100
AcDbLine
 10
-3712.166852590202
 20
3539.499818544132
 30
0.0
 11
-3701.866852590202
 21
3549.799818544132
 31
0.0
  0
LINE
  5
239
330
1F
100
AcDbEntity
  8
0-3_仕上げ
  6
Continuous
 62
     7
370
     9
100
AcDbLine
 10
-3557.166852590198
 20
3555.499818544132
 30
0.0
 11
-3569.166852590198
 21
3567.499818544132
 31
0.0
  0
LINE
  5
23A
330
1F
100
AcDbEntity
  8
0-3_仕上げ
  6
Continuous
 62
     7
370
     9
100
AcDbLine
 10
-3349.166852590198
 20
3567.499818544132
 30
0.0
 11
-3361.166852590199
 21
3555.499818544132
 31
0.0
  0
LINE
  5
23B
330
1F
100
AcDbEntity
  8
0-3_仕上げ
  6
Continuous
 62
     7
370
     9
100
AcDbLine
 10
-3557.166852590198
 20
3555.499818544132
 30
0.0
 11
-3361.166852590199
 21
3555.499818544132
 31
0.0
  0
LINE
  5
23C
330
1F
100
AcDbEntity
  8
0-3_仕上げ
  6
Continuous
 62
     7
370
     9
100
AcDbLine
 10
-3569.166852590198
 20
3567.499818544132
 30
0.0
 11
-3349.166852590198
 21
3567.499818544132
 31
0.0
  0
LINE
  5
23D
330
1F
100
AcDbEntity
  8
0-3_仕上げ
  6
Continuous
 62
     7
370
     9
100
AcDbLine
 10
-3569.166852590198
 20
1367.49981854413
 30
0.0
 11
-3569.166852590198
 21
3651.499818544133
 31
0.0
  0
LINE
  5
23E
330
1F
100
AcDbEntity
  8
0-3_仕上げ
  6
Continuous
 62
     7
370
     9
100
AcDbLine
 10
-3349.166852590198
 20
1367.49981854413
 30
0.0
 11
-3349.166852590198
 21
3651.499818544133
 31
0.0
  0
LINE
  5
23F
330
1F
100
AcDbEntity
  8
0-3_仕上げ
  6
Continuous
 62
     7
370
     9
100
AcDbLine
 10
-3557.166852590198
 20
1463.49981854413
 30
0.0
 11
-3557.166852590198
 21
3555.499818544132
 31
0.0
  0
LINE
  5
240
330
1F
100
AcDbEntity
  8
0-3_仕上げ
  6
Continuous
 62
     7
370
     9
100
AcDbLine
 10
-3361.166852590199
 20
1463.49981854413
 30
0.0
 11
-3361.166852590199
 21
3555.499818544132
 31
0.0
  0
LINE
  5
241
330
1F
100
AcDbEntity
  8
0-3_仕上げ
  6
Continuous
 62
     7
370
     9
100
AcDbLine
 10
-3541.166852590198
 20
1479.49981854413
 30
0.0
 11
-3541.166852590198
 21
3539.499818544132
 31
0.0
  0
LINE
  5
242
330
1F
100
AcDbEntity
  8
0-3_仕上げ
  6
Continuous
 62
     7
370
     9
100
AcDbLine
 10
-3541.166852590198
 20
3539.499818544132
 30
0.0
 11
-3551.631852590197
 21
3549.964818544132
 31
0.0
  0
LINE
  5
243
330
1F
100
AcDbEntity
  8
0-3_仕上げ
  6
Continuous
 62
     7
370
     9
100
AcDbLine
 10
-3541.166852590198
 20
3539.499818544132
 30
0.0
 11
-3377.166852590198
 21
3539.499818544132
 31
0.0
  0
LINE
  5
244
330
1F
100
AcDbEntity
  8
0-3_仕上げ
  6
Continuous
 62
     7
370
     9
100
AcDbLine
 10
-3377.166852590198
 20
1479.49981854413
 30
0.0
 11
-3377.166852590198
 21
3539.499818544132
 31
0.0
  0
LINE
  5
245
330
1F
100
AcDbEntity
  8
0-3_仕上げ
  6
Continuous
 62
     7
370
     9
100
AcDbLine
 10
-3377.166852590198
 20
3539.499818544132
 30
0.0
 11
-3366.866852590199
 21
3549.799818544132
 31
0.0
  0
LINE
  5
246
330
1F
100
AcDbEntity
  8
0-3_仕上げ
  6
Continuous
 62
     7
370
     9
100
AcDbLine
 10
3623.665811280947
 20
3567.499818544131
 30
0.0
 11
3611.665811280946
 21
3555.499818544131
 31
0.0
  0
LINE
  5
247
330
1F
100
AcDbEntity
  8
0-3_仕上げ
  6
Continuous
 62
     7
370
     9
100
AcDbLine
 10
3355.665811280947
 20
3555.499818544131
 30
0.0
 11
3343.665811280949
 21
3567.499818544131
 31
0.0
  0
LINE
  5
248
330
1F
100
AcDbEntity
  8
0-3_仕上げ
  6
Continuous
 62
     7
370
     9
100
AcDbLine
 10
3343.665811280949
 20
3567.499818544131
 30
0.0
 11
3623.665811280947
 21
3567.499818544131
 31
0.0
  0
LINE
  5
249
330
1F
100
AcDbEntity
  8
0-3_仕上げ
  6
Continuous
 62
     7
370
     9
100
AcDbLine
 10
3355.665811280947
 20
3555.499818544131
 30
0.0
 11
3611.665811280946
 21
3555.499818544131
 31
0.0
  0
LINE
  5
24A
330
1F
100
AcDbEntity
  8
0-3_仕上げ
  6
Continuous
 62
     7
370
     9
100
AcDbLine
 10
3343.665811280948
 20
1367.49981854413
 30
0.0
 11
3343.665811280948
 21
3651.499818544131
 31
0.0
  0
LINE
  5
24B
330
1F
100
AcDbEntity
  8
0-3_仕上げ
  6
Continuous
 62
     7
370
     9
100
AcDbLine
 10
3623.665811280947
 20
1367.49981854413
 30
0.0
 11
3623.665811280947
 21
3651.499818544131
 31
0.0
  0
LINE
  5
24C
330
1F
100
AcDbEntity
  8
0-3_仕上げ
  6
Continuous
 62
     7
370
     9
100
AcDbLine
 10
3355.665811280947
 20
1463.49981854413
 30
0.0
 11
3355.665811280947
 21
3555.499818544131
 31
0.0
  0
LINE
  5
24D
330
1F
100
AcDbEntity
  8
0-3_仕上げ
  6
Continuous
 62
     7
370
     9
100
AcDbLine
 10
3611.665811280946
 20
1463.49981854413
 30
0.0
 11
3611.665811280946
 21
3555.499818544131
 31
0.0
  0
LINE
  5
24E
330
1F
100
AcDbEntity
  8
0-3_仕上げ
  6
Continuous
 62
     7
370
     9
100
AcDbLine
 10
3371.665811280949
 20
3539.499818544131
 30
0.0
 11
3361.200811280949
 21
3549.964818544132
 31
0.0
  0
LINE
  5
24F
330
1F
100
AcDbEntity
  8
0-3_仕上げ
  6
Continuous
 62
     7
370
     9
100
AcDbLine
 10
3371.665811280949
 20
3539.499818544131
 30
0.0
 11
3595.665811280947
 21
3539.499818544131
 31
0.0
  0
LINE
  5
250
330
1F
100
AcDbEntity
  8
0-3_仕上げ
  6
Continuous
 62
     7
370
     9
100
AcDbLine
 10
3595.665811280947
 20
3539.499818544131
 30
0.0
 11
3605.965811280947
 21
3549.799818544131
 31
0.0
  0
LINE
  5
251
330
1F
100
AcDbEntity
  8
0-3_仕上げ
  6
Continuous
 62
     7
370
     9
100
AcDbLine
 10
3371.665811280948
 20
1479.499818544129
 30
0.0
 11
3371.665811280948
 21
3539.499818544131
 31
0.0
  0
LINE
  5
252
330
1F
100
AcDbEntity
  8
0-3_仕上げ
  6
Continuous
 62
     7
370
     9
100
AcDbLine
 10
3595.665811280947
 20
1479.499818544129
 30
0.0
 11
3595.665811280947
 21
3539.499818544131
 31
0.0
  0
LINE
  5
253
330
1F
100
AcDbEntity
  8
0-3_仕上げ
  6
Continuous
 62
     7
370
     9
100
AcDbLine
 10
4018.665811280947
 20
3567.499818544131
 30
0.0
 11
4006.665811280948
 21
3555.499818544131
 31
0.0
  0
LINE
  5
254
330
1F
100
AcDbEntity
  8
0-3_仕上げ
  6
Continuous
 62
     7
370
     9
100
AcDbLine
 10
3750.665811280949
 20
3555.499818544131
 30
0.0
 11
3738.665811280949
 21
3567.499818544131
 31
0.0
  0
LINE
  5
255
330
1F
100
AcDbEntity
  8
0-3_仕上げ
  6
Continuous
 62
     7
370
     9
100
AcDbLine
 10
3738.665811280949
 20
3567.499818544131
 30
0.0
 11
4018.665811280949
 21
3567.499818544131
 31
0.0
  0
LINE
  5
256
330
1F
100
AcDbEntity
  8
0-3_仕上げ
  6
Continuous
 62
     7
370
     9
100
AcDbLine
 10
3750.665811280949
 20
3555.499818544131
 30
0.0
 11
4006.665811280948
 21
3555.499818544131
 31
0.0
  0
LINE
  5
257
330
1F
100
AcDbEntity
  8
0-3_仕上げ
  6
Continuous
 62
     7
370
     9
100
AcDbLine
 10
3738.665811280949
 20
1367.49981854413
 30
0.0
 11
3738.665811280949
 21
3651.499818544131
 31
0.0
  0
LINE
  5
258
330
1F
100
AcDbEntity
  8
0-3_仕上げ
  6
Continuous
 62
     7
370
     9
100
AcDbLine
 10
4018.665811280949
 20
1367.49981854413
 30
0.0
 11
4018.665811280949
 21
3651.499818544131
 31
0.0
  0
LINE
  5
259
330
1F
100
AcDbEntity
  8
0-3_仕上げ
  6
Continuous
 62
     7
370
     9
100
AcDbLine
 10
3750.665811280949
 20
1463.49981854413
 30
0.0
 11
3750.665811280949
 21
3555.499818544131
 31
0.0
  0
LINE
  5
25A
330
1F
100
AcDbEntity
  8
0-3_仕上げ
  6
Continuous
 62
     7
370
     9
100
AcDbLine
 10
4006.665811280948
 20
1463.49981854413
 30
0.0
 11
4006.665811280948
 21
3555.499818544131
 31
0.0
  0
LINE
  5
25B
330
1F
100
AcDbEntity
  8
0-3_仕上げ
  6
Continuous
 62
     7
370
     9
100
AcDbLine
 10
3766.66581128095
 20
3539.499818544131
 30
0.0
 11
3756.200811280949
 21
3549.964818544132
 31
0.0
  0
LINE
  5
25C
330
1F
100
AcDbEntity
  8
0-3_仕上げ
  6
Continuous
 62
     7
370
     9
100
AcDbLine
 10
3766.66581128095
 20
3539.499818544131
 30
0.0
 11
3990.665811280949
 21
3539.499818544131
 31
0.0
  0
LINE
  5
25D
330
1F
100
AcDbEntity
  8
0-3_仕上げ
  6
Continuous
 62
     7
370
     9
100
AcDbLine
 10
3990.665811280949
 20
3539.499818544131
 30
0.0
 11
4000.965811280949
 21
3549.799818544131
 31
0.0
  0
LINE
  5
25E
330
1F
100
AcDbEntity
  8
0-3_仕上げ
  6
Continuous
 62
     7
370
     9
100
AcDbLine
 10
3766.665811280948
 20
1479.499818544129
 30
0.0
 11
3766.665811280948
 21
3539.499818544131
 31
0.0
  0
LINE
  5
25F
330
1F
100
AcDbEntity
  8
0-3_仕上げ
  6
Continuous
 62
     7
370
     9
100
AcDbLine
 10
3990.665811280949
 20
1479.499818544129
 30
0.0
 11
3990.665811280949
 21
3539.499818544131
 31
0.0
  0
LINE
  5
260
330
1F
100
AcDbEntity
  8
0-3_仕上げ
  6
Continuous
 62
     7
370
     9
100
AcDbLine
 10
4414.665811280948
 20
3567.499818544131
 30
0.0
 11
4402.665811280947
 21
3555.499818544131
 31
0.0
  0
LINE
  5
261
330
1F
100
AcDbEntity
  8
0-3_仕上げ
  6
Continuous
 62
     7
370
     9
100
AcDbLine
 10
4146.665811280948
 20
3555.499818544131
 30
0.0
 11
4134.665811280947
 21
3567.499818544131
 31
0.0
  0
LINE
  5
262
330
1F
100
AcDbEntity
  8
0-3_仕上げ
  6
Continuous
 62
     7
370
     9
100
AcDbLine
 10
4134.665811280947
 20
3567.499818544131
 30
0.0
 11
4414.665811280948
 21
3567.499818544131
 31
0.0
  0
LINE
  5
263
330
1F
100
AcDbEntity
  8
0-3_仕上げ
  6
Continuous
 62
     7
370
     9
100
AcDbLine
 10
4146.665811280948
 20
3555.499818544131
 30
0.0
 11
4402.665811280947
 21
3555.499818544131
 31
0.0
  0
LINE
  5
264
330
1F
100
AcDbEntity
  8
0-3_仕上げ
  6
Continuous
 62
     7
370
     9
100
AcDbLine
 10
4134.665811280947
 20
1367.49981854413
 30
0.0
 11
4134.665811280947
 21
3651.499818544131
 31
0.0
  0
LINE
  5
265
330
1F
100
AcDbEntity
  8
0-3_仕上げ
  6
Continuous
 62
     7
370
     9
100
AcDbLine
 10
4414.665811280948
 20
1367.49981854413
 30
0.0
 11
4414.665811280948
 21
3651.499818544131
 31
0.0
  0
LINE
  5
266
330
1F
100
AcDbEntity
  8
0-3_仕上げ
  6
Continuous
 62
     7
370
     9
100
AcDbLine
 10
4146.665811280948
 20
1463.49981854413
 30
0.0
 11
4146.665811280948
 21
3555.499818544131
 31
0.0
  0
LINE
  5
267
330
1F
100
AcDbEntity
  8
0-3_仕上げ
  6
Continuous
 62
     7
370
     9
100
AcDbLine
 10
4402.665811280947
 20
1463.49981854413
 30
0.0
 11
4402.665811280947
 21
3555.499818544131
 31
0.0
  0
LINE
  5
268
330
1F
100
AcDbEntity
  8
0-3_仕上げ
  6
Continuous
 62
     7
370
     9
100
AcDbLine
 10
4162.665811280949
 20
3539.499818544131
 30
0.0
 11
4152.200811280949
 21
3549.964818544132
 31
0.0
  0
LINE
  5
269
330
1F
100
AcDbEntity
  8
0-3_仕上げ
  6
Continuous
 62
     7
370
     9
100
AcDbLine
 10
4162.665811280949
 20
3539.499818544131
 30
0.0
 11
4386.665811280946
 21
3539.499818544131
 31
0.0
  0
LINE
  5
26A
330
1F
100
AcDbEntity
  8
0-3_仕上げ
  6
Continuous
 62
     7
370
     9
100
AcDbLine
 10
4386.665811280946
 20
3539.499818544131
 30
0.0
 11
4396.965811280947
 21
3549.799818544131
 31
0.0
  0
LINE
  5
26B
330
1F
100
AcDbEntity
  8
0-3_仕上げ
  6
Continuous
 62
     7
370
     9
100
AcDbLine
 10
4162.665811280947
 20
1479.499818544129
 30
0.0
 11
4162.665811280947
 21
3539.499818544131
 31
0.0
  0
LINE
  5
26C
330
1F
100
AcDbEntity
  8
0-3_仕上げ
  6
Continuous
 62
     7
370
     9
100
AcDbLine
 10
4386.665811280946
 20
1479.499818544129
 30
0.0
 11
4386.665811280946
 21
3539.499818544131
 31
0.0
  0
LINE
  5
26D
330
1F
100
AcDbEntity
  8
0-3_仕上げ
  6
Continuous
 62
     7
370
     9
100
AcDbLine
 10
4809.665811280947
 20
3567.499818544131
 30
0.0
 11
4797.665811280948
 21
3555.499818544131
 31
0.0
  0
LINE
  5
26E
330
1F
100
AcDbEntity
  8
0-3_仕上げ
  6
Continuous
 62
     7
370
     9
100
AcDbLine
 10
4541.665811280949
 20
3555.499818544131
 30
0.0
 11
4529.665811280949
 21
3567.499818544131
 31
0.0
  0
LINE
  5
26F
330
1F
100
AcDbEntity
  8
0-3_仕上げ
  6
Continuous
 62
     7
370
     9
100
AcDbLine
 10
4529.665811280949
 20
3567.499818544131
 30
0.0
 11
4809.665811280947
 21
3567.499818544131
 31
0.0
  0
LINE
  5
270
330
1F
100
AcDbEntity
  8
0-3_仕上げ
  6
Continuous
 62
     7
370
     9
100
AcDbLine
 10
4541.665811280949
 20
3555.499818544131
 30
0.0
 11
4797.665811280948
 21
3555.499818544131
 31
0.0
  0
LINE
  5
271
330
1F
100
AcDbEntity
  8
0-3_仕上げ
  6
Continuous
 62
     7
370
     9
100
AcDbLine
 10
4529.665811280948
 20
1367.49981854413
 30
0.0
 11
4529.665811280948
 21
3651.499818544131
 31
0.0
  0
LINE
  5
272
330
1F
100
AcDbEntity
  8
0-3_仕上げ
  6
Continuous
 62
     7
370
     9
100
AcDbLine
 10
4809.665811280947
 20
1367.49981854413
 30
0.0
 11
4809.665811280947
 21
3651.499818544131
 31
0.0
  0
LINE
  5
273
330
1F
100
AcDbEntity
  8
0-3_仕上げ
  6
Continuous
 62
     7
370
     9
100
AcDbLine
 10
4541.665811280949
 20
1463.49981854413
 30
0.0
 11
4541.665811280949
 21
3555.499818544131
 31
0.0
  0
LINE
  5
274
330
1F
100
AcDbEntity
  8
0-3_仕上げ
  6
Continuous
 62
     7
370
     9
100
AcDbLine
 10
4797.665811280948
 20
1463.49981854413
 30
0.0
 11
4797.665811280948
 21
3555.499818544131
 31
0.0
  0
LINE
  5
275
330
1F
100
AcDbEntity
  8
0-3_仕上げ
  6
Continuous
 62
     7
370
     9
100
AcDbLine
 10
4557.665811280948
 20
3539.499818544131
 30
0.0
 11
4547.200811280947
 21
3549.964818544132
 31
0.0
  0
LINE
  5
276
330
1F
100
AcDbEntity
  8
0-3_仕上げ
  6
Continuous
 62
     7
370
     9
100
AcDbLine
 10
4557.665811280948
 20
3539.499818544131
 30
0.0
 11
4781.665811280949
 21
3539.499818544131
 31
0.0
  0
LINE
  5
277
330
1F
100
AcDbEntity
  8
0-3_仕上げ
  6
Continuous
 62
     7
370
     9
100
AcDbLine
 10
4781.665811280949
 20
3539.499818544131
 30
0.0
 11
4791.965811280948
 21
3549.799818544131
 31
0.0
  0
LINE
  5
278
330
1F
100
AcDbEntity
  8
0-3_仕上げ
  6
Continuous
 62
     7
370
     9
100
AcDbLine
 10
4557.665811280948
 20
1479.499818544129
 30
0.0
 11
4557.665811280948
 21
3539.499818544131
 31
0.0
  0
LINE
  5
279
330
1F
100
AcDbEntity
  8
0-3_仕上げ
  6
Continuous
 62
     7
370
     9
100
AcDbLine
 10
4781.665811280949
 20
1479.499818544129
 30
0.0
 11
4781.665811280949
 21
3539.499818544131
 31
0.0
  0
MTEXT
  5
27A
330
1F
100
AcDbEntity
  8
0-B_寸法
  6
Continuous
 62
     7
370
   211
100
AcDbMText
 10
-835.5005206546232
 20
2326.324818544142
 30
0.0
 40
57.14999999999971
 41
412.4999999999978
 46
0.0
 71
     7
 72
     1
  1
{\fＭＳ ゴシック|b0|i0|c128|p49;ＤＨ＝2,284}
 11
6.123031769111886E-17
 21
1.0
 31
0.0
 73
     1
 44
1.0
  0
MTEXT
  5
27B
330
1F
100
AcDbEntity
  8
0-B_寸法
  6
Continuous
 62
     7
370
   211
100
AcDbMText
 10
-4303.666852590201
 20
2294.324818544129
 30
0.0
 40
57.14999999999999
 41
412.5
 46
0.0
 71
     7
 72
     1
  1
{\fＭＳ ゴシック|b0|i0|c128|p49;ＤＨ＝2,284}
 11
6.123031769111886E-17
 21
1.0
 31
0.0
 73
     1
 44
1.0
  0
MTEXT
  5
27C
330
1F
100
AcDbEntity
  8
0-B_寸法
  6
Continuous
 62
     7
370
   211
100
AcDbMText
 10
2944.165811280949
 20
2294.324818544129
 30
0.0
 40
57.14999999999999
 41
412.5
 46
0.0
 71
     7
 72
     1
  1
{\fＭＳ ゴシック|b0|i0|c128|p49;ＤＨ＝2,284}
 11
6.123031769111886E-17
 21
1.0
 31
0.0
 73
     1
 44
1.0
  0
MTEXT
  5
27D
330
1F
100
AcDbEntity
  8
0-B_寸法
  6
Continuous
 62
     7
370
   211
100
AcDbMText
 10
-3591.717986025966
 20
1168.505764228797
 30
0.0
 40
57.15
 41
37.5
 46
0.0
 71
     7
 72
     1
  1
{\fＭＳ ゴシック|b0|i0|c128|p49;1}
 73
     1
 44
1.0
  0
MTEXT
  5
27E
330
1F
100
AcDbEntity
  8
0-B_寸法
  6
Continuous
 62
     7
370
   211
100
AcDbMText
 10
-175.0516540903766
 20
1168.505764228798
 30
0.0
 40
57.14999999999837
 41
37.49999999999893
 46
0.0
 71
     7
 72
     1
  1
{\fＭＳ ゴシック|b0|i0|c128|p49;1}
 73
     1
 44
1.0
  0
MTEXT
  5
27F
330
1F
100
AcDbEntity
  8
0-B_寸法
  6
Continuous
 62
     7
370
   211
100
AcDbMText
 10
108.9509812123993
 20
1168.505764228798
 30
0.0
 40
57.14999999999837
 41
37.49999999999893
 46
0.0
 71
     7
 72
     1
  1
{\fＭＳ ゴシック|b0|i0|c128|p49;2}
 73
     1
 44
1.0
  0
MTEXT
  5
280
330
1F
100
AcDbEntity
  8
0-B_寸法
  6
Continuous
 62
     7
370
   211
100
AcDbMText
 10
392.9483459095945
 20
1168.5057642288
 30
0.0
 40
57.15000000000325
 41
37.50000000000213
 46
0.0
 71
     7
 72
     1
  1
{\fＭＳ ゴシック|b0|i0|c128|p49;1}
 73
     1
 44
1.0
  0
MTEXT
  5
281
330
1F
100
AcDbEntity
  8
0-B_寸法
  6
Continuous
 62
     7
370
   211
100
AcDbMText
 10
3716.114677845182
 20
1168.505764228797
 30
0.0
 40
57.15
 41
37.5
 46
0.0
 71
     7
 72
     1
  1
{\fＭＳ ゴシック|b0|i0|c128|p49;1}
 73
     1
 44
1.0
  0
MTEXT
  5
282
330
1F
100
AcDbEntity
  8
0-B_寸法
  6
Continuous
 62
     7
370
   211
100
AcDbMText
 10
-3850.416852590201
 20
1053.07481854413
 30
0.0
 40
57.15
 41
112.5
 46
0.0
 71
     7
 72
     1
  1
{\fＭＳ ゴシック|b0|i0|c128|p49;334}
 73
     1
 44
1.0
  0
MTEXT
  5
283
330
1F
100
AcDbEntity
  8
0-B_寸法
  6
Continuous
 62
     7
370
   211
100
AcDbMText
 10
-3515.4168525902
 20
1053.07481854413
 30
0.0
 40
57.15
 41
112.5
 46
0.0
 71
     7
 72
     1
  1
{\fＭＳ ゴシック|b0|i0|c128|p49;334}
 73
     1
 44
1.0
  0
MTEXT
  5
284
330
1F
100
AcDbEntity
  8
0-B_寸法
  6
Continuous
 62
     7
370
   211
100
AcDbMText
 10
-445.5005206546258
 20
1053.074818544124
 30
0.0
 40
57.14999999999935
 41
187.4999999999979
 46
0.0
 71
     7
 72
     1
  1
{\fＭＳ ゴシック|b0|i0|c128|p49;282.5}
 73
     1
 44
1.0
  0
MTEXT
  5
285
330
1F
100
AcDbEntity
  8
0-B_寸法
  6
Continuous
 62
     7
370
   211
100
AcDbMText
 10
-162.0005206546261
 20
1053.074818544124
 30
0.0
 40
57.14999999999988
 41
187.4999999999996
 46
0.0
 71
     7
 72
     1
  1
{\fＭＳ ゴシック|b0|i0|c128|p49;282.5}
 73
     1
 44
1.0
  0
MTEXT
  5
286
330
1F
100
AcDbEntity
  8
0-B_寸法
  6
Continuous
 62
     7
370
   211
100
AcDbMText
 10
122.4994793453624
 20
1053.074818544125
 30
0.0
 40
57.15000000000034
 41
187.5000000000011
 46
0.0
 71
     7
 72
     1
  1
{\fＭＳ ゴシック|b0|i0|c128|p49;282.5}
 73
     1
 44
1.0
  0
MTEXT
  5
287
330
1F
100
AcDbEntity
  8
0-B_寸法
  6
Continuous
 62
     7
370
   211
100
AcDbMText
 10
405.9994793453595
 20
1053.074818544125
 30
0.0
 40
57.15000000000071
 41
187.5000000000023
 46
0.0
 71
     7
 72
     1
  1
{\fＭＳ ゴシック|b0|i0|c128|p49;282.5}
 73
     1
 44
1.0
  0
MTEXT
  5
288
330
1F
100
AcDbEntity
  8
0-B_寸法
  6
Continuous
 62
     7
370
   211
100
AcDbMText
 10
3427.415811280948
 20
1053.07481854413
 30
0.0
 40
57.15
 41
112.5
 46
0.0
 71
     7
 72
     1
  1
{\fＭＳ ゴシック|b0|i0|c128|p49;394}
 73
     1
 44
1.0
  0
MTEXT
  5
289
330
1F
100
AcDbEntity
  8
0-B_寸法
  6
Continuous
 62
     7
370
   211
100
AcDbMText
 10
3822.415811280948
 20
1053.07481854413
 30
0.0
 40
57.15
 41
112.5
 46
0.0
 71
     7
 72
     1
  1
{\fＭＳ ゴシック|b0|i0|c128|p49;394}
 73
     1
 44
1.0
  0
MTEXT
  5
28A
330
1F
100
AcDbEntity
  8
0-B_寸法
  6
Continuous
 62
     7
370
   211
100
AcDbMText
 10
4111.614677845182
 20
968.5057642287973
 30
0.0
 40
57.15
 41
37.5
 46
0.0
 71
     7
 72
     1
  1
{\fＭＳ ゴシック|b0|i0|c128|p49;2}
 73
     1
 44
1.0
  0
MTEXT
  5
28B
330
1F
100
AcDbEntity
  8
0-B_寸法
  6
Continuous
 62
     7
370
   211
100
AcDbMText
 10
-3795.416852590199
 20
853.07481854413
 30
0.0
 40
57.15
 41
337.5
 46
0.0
 71
     7
 72
     1
  1
{\fＭＳ ゴシック|b0|i0|c128|p49;ＤＷ＝669}
 73
     1
 44
1.0
  0
MTEXT
  5
28C
330
1F
100
AcDbEntity
  8
0-B_寸法
  6
Continuous
 62
     7
370
   211
100
AcDbMText
 10
-378.750520654626
 20
853.0748185441272
 30
0.0
 40
57.14999999999999
 41
337.5
 46
0.0
 71
     7
 72
     1
  1
{\fＭＳ ゴシック|b0|i0|c128|p49;ＤＷ＝566}
 73
     1
 44
1.0
  0
MTEXT
  5
28D
330
1F
100
AcDbEntity
  8
0-B_寸法
  6
Continuous
 62
     7
370
   211
100
AcDbMText
 10
189.2494793453758
 20
853.0748185441272
 30
0.0
 40
57.14999999999999
 41
337.5
 46
0.0
 71
     7
 72
     1
  1
{\fＭＳ ゴシック|b0|i0|c128|p49;ＤＷ＝566}
 73
     1
 44
1.0
  0
MTEXT
  5
28E
330
1F
100
AcDbEntity
  8
0-B_寸法
  6
Continuous
 62
     7
370
   211
100
AcDbMText
 10
3512.415811280948
 20
853.07481854413
 30
0.0
 40
57.15
 41
337.5
 46
0.0
 71
     7
 72
     1
  1
{\fＭＳ ゴシック|b0|i0|c128|p49;ＤＷ＝789}
 73
     1
 44
1.0
  0
MTEXT
  5
28F
330
1F
100
AcDbEntity
  8
0-B_寸法
  6
Continuous
 62
     7
370
   211
100
AcDbMText
 10
4303.415811280947
 20
853.07481854413
 30
0.0
 40
57.15
 41
337.5
 46
0.0
 71
     7
 72
     1
  1
{\fＭＳ ゴシック|b0|i0|c128|p49;ＤＷ＝789}
 73
     1
 44
1.0
  0
LINE
  5
290
330
1F
100
AcDbEntity
  8
0-0_補助線
  6
JWW_HOJO
 62
     7
370
     9
100
AcDbLine
 10
-5490.000018557986
 20
-2633.500150113492
 30
0.0
 11
5699.998762800888
 21
-2633.500150113492
 31
0.0
  0
LINE
  5
291
330
1F
100
AcDbEntity
  8
0-0_補助線
  6
JWW_HOJO
 62
   120
370
     5
100
AcDbLine
 10
-5490.000018557986
 20
-2683.500150113493
 30
0.0
 11
5699.998762800888
 21
-2683.500150113493
 31
0.0
  0
LINE
  5
292
330
1F
100
AcDbEntity
  8
0-4_枠
  6
Continuous
 62
    92
370
    13
100
AcDbLine
 10
-3744.000144082147
 20
-2633.500150113492
 30
0.0
 11
-1186.000144082145
 21
-2633.500150113493
 31
0.0
  0
LINE
  5
293
330
1F
100
AcDbEntity
  8
0-4_枠
  6
Continuous
 62
    92
370
    13
100
AcDbLine
 10
-3714.000144082147
 20
-2621.500150113492
 30
0.0
 11
-1216.000144082145
 21
-2621.500150113493
 31
0.0
  0
LINE
  5
294
330
1F
100
AcDbEntity
  8
0-B_寸法
  6
Continuous
 62
   120
370
     5
100
AcDbLine
 10
-3716.500144082146
 20
-3133.500150113493
 30
0.0
 11
-2883.500144082146
 21
-3133.500150113493
 31
0.0
  0
LINE
  5
295
330
1F
100
AcDbEntity
  8
0-B_寸法
  6
Continuous
 62
   120
370
     5
100
AcDbLine
 10
-3716.500144082146
 20
-3133.500150113493
 30
0.0
 11
-3716.500144082146
 21
-2683.500150113493
 31
0.0
  0
LINE
  5
296
330
1F
100
AcDbEntity
  8
0-B_寸法
  6
Continuous
 62
   120
370
     5
100
AcDbLine
 10
-2883.500144082146
 20
-3133.500150113493
 30
0.0
 11
-2883.500144082146
 21
-2683.500150113493
 31
0.0
  0
LINE
  5
297
330
1F
100
AcDbEntity
  8
0-B_寸法
  6
Continuous
 62
   120
370
     5
100
AcDbLine
 10
-2883.500144082146
 20
-3133.500150113493
 30
0.0
 11
-2881.500144082145
 21
-3133.500150113493
 31
0.0
  0
LINE
  5
298
330
1F
100
AcDbEntity
  8
0-B_寸法
  6
Continuous
 62
   120
370
     5
100
AcDbLine
 10
-2881.500144082145
 20
-3133.500150113493
 30
0.0
 11
-2881.500144082145
 21
-2683.500150113493
 31
0.0
  0
LINE
  5
299
330
1F
100
AcDbEntity
  8
0-B_寸法
  6
Continuous
 62
   120
370
     5
100
AcDbLine
 10
-2881.500144082145
 20
-3133.500150113493
 30
0.0
 11
-2048.500144082145
 21
-3133.500150113493
 31
0.0
  0
LINE
  5
29A
330
1F
100
AcDbEntity
  8
0-B_寸法
  6
Continuous
 62
   120
370
     5
100
AcDbLine
 10
-2048.500144082145
 20
-3133.500150113493
 30
0.0
 11
-2048.500144082145
 21
-2683.500150113493
 31
0.0
  0
LINE
  5
29B
330
1F
100
AcDbEntity
  8
0-B_寸法
  6
Continuous
 62
   120
370
     5
100
AcDbLine
 10
-2048.500144082145
 20
-3133.500150113493
 30
0.0
 11
-2046.500144082145
 21
-3133.500150113493
 31
0.0
  0
LINE
  5
29C
330
1F
100
AcDbEntity
  8
0-B_寸法
  6
Continuous
 62
   120
370
     5
100
AcDbLine
 10
-2046.500144082145
 20
-3133.500150113493
 30
0.0
 11
-2046.500144082145
 21
-2683.500150113493
 31
0.0
  0
LINE
  5
29D
330
1F
100
AcDbEntity
  8
0-B_寸法
  6
Continuous
 62
   120
370
     5
100
AcDbLine
 10
-2046.500144082145
 20
-3133.500150113493
 30
0.0
 11
-1213.500144082146
 21
-3133.500150113493
 31
0.0
  0
LINE
  5
29E
330
1F
100
AcDbEntity
  8
0-B_寸法
  6
Continuous
 62
   120
370
     5
100
AcDbLine
 10
-1213.500144082146
 20
-3133.500150113493
 30
0.0
 11
-1213.500144082146
 21
-2683.500150113493
 31
0.0
  0
LINE
  5
29F
330
1F
100
AcDbEntity
  8
0-B_寸法
  6
Continuous
 62
   120
370
     5
100
AcDbLine
 10
-3716.500144082146
 20
-2933.500150113492
 30
0.0
 11
-3300.500144082146
 21
-2933.500150113492
 31
0.0
  0
LINE
  5
2A0
330
1F
100
AcDbEntity
  8
0-B_寸法
  6
Continuous
 62
   120
370
     5
100
AcDbLine
 10
-3300.500144082146
 20
-2933.500150113492
 30
0.0
 11
-3300.500144082146
 21
-2683.500150113493
 31
0.0
  0
LINE
  5
2A1
330
1F
100
AcDbEntity
  8
0-B_寸法
  6
Continuous
 62
   120
370
     5
100
AcDbLine
 10
-3300.500144082146
 20
-2933.500150113492
 30
0.0
 11
-3299.500144082147
 21
-2933.500150113492
 31
0.0
  0
LINE
  5
2A2
330
1F
100
AcDbEntity
  8
0-B_寸法
  6
Continuous
 62
   120
370
     5
100
AcDbLine
 10
-3299.500144082147
 20
-2933.500150113492
 30
0.0
 11
-3299.500144082147
 21
-2683.500150113493
 31
0.0
  0
LINE
  5
2A3
330
1F
100
AcDbEntity
  8
0-B_寸法
  6
Continuous
 62
   120
370
     5
100
AcDbLine
 10
-3299.500144082147
 20
-2933.500150113492
 30
0.0
 11
-2883.500144082146
 21
-2933.500150113492
 31
0.0
  0
LINE
  5
2A4
330
1F
100
AcDbEntity
  8
0-B_寸法
  6
Continuous
 62
   120
370
     5
100
AcDbLine
 10
-3300.000144082146
 20
-2933.500150113492
 30
0.0
 11
-3265.051277517913
 21
-2803.069204428824
 31
0.0
  0
LINE
  5
2A5
330
1F
100
AcDbEntity
  8
0-B_寸法
  6
Continuous
 62
   120
370
     5
100
AcDbLine
 10
-3265.051277517913
 20
-2803.069204428824
 30
0.0
 11
-3214.268209444462
 21
-2803.069204428824
 31
0.0
  0
LINE
  5
2A6
330
1F
100
AcDbEntity
  8
0-B_寸法
  6
Continuous
 62
   120
370
     5
100
AcDbLine
 10
-2882.500144082146
 20
-3133.500150113493
 30
0.0
 11
-2847.55127751791
 21
-3003.069204428824
 31
0.0
  0
LINE
  5
2A7
330
1F
100
AcDbEntity
  8
0-B_寸法
  6
Continuous
 62
   120
370
     5
100
AcDbLine
 10
-2847.55127751791
 20
-3003.069204428824
 30
0.0
 11
-2796.768209444463
 21
-3003.069204428824
 31
0.0
  0
LINE
  5
2A8
330
1F
100
AcDbEntity
  8
0-B_寸法
  6
Continuous
 62
   120
370
     5
100
AcDbLine
 10
-2047.500144082146
 20
-3133.500150113493
 30
0.0
 11
-2012.55127751791
 21
-3003.069204428824
 31
0.0
  0
LINE
  5
2A9
330
1F
100
AcDbEntity
  8
0-B_寸法
  6
Continuous
 62
   120
370
     5
100
AcDbLine
 10
-2012.55127751791
 20
-3003.069204428824
 30
0.0
 11
-1961.768209444461
 21
-3003.069204428824
 31
0.0
  0
LWPOLYLINE
  5
2AA
330
1F
100
AcDbEntity
  8
0-B_寸法
  6
Continuous
 62
     7
370
     9
100
AcDbPolyline
 90
        4
 70
     1
 43
3.0
 10
-3715.000144082146
 20
-3133.500150113493
 42
0.4142135623731
 10
-3716.500144082146
 20
-3132.000150113493
 42
0.4142135623731
 10
-3718.000144082146
 20
-3133.500150113493
 42
0.4142135623731
 10
-3716.500144082146
 20
-3135.000150113493
 42
0.4142135623731
  0
LWPOLYLINE
  5
2AB
330
1F
100
AcDbEntity
  8
0-B_寸法
  6
Continuous
 62
     7
370
     9
100
AcDbPolyline
 90
        4
 70
     1
 43
3.0
 10
-2882.000144082147
 20
-3133.500150113493
 42
0.4142135623731
 10
-2883.500144082146
 20
-3132.000150113493
 42
0.4142135623731
 10
-2885.000144082146
 20
-3133.500150113493
 42
0.4142135623731
 10
-2883.500144082146
 20
-3135.000150113493
 42
0.4142135623731
  0
LWPOLYLINE
  5
2AC
330
1F
100
AcDbEntity
  8
0-B_寸法
  6
Continuous
 62
     7
370
     9
100
AcDbPolyline
 90
        4
 70
     1
 43
3.0
 10
-2880.000144082145
 20
-3133.500150113493
 42
0.4142135623731
 10
-2881.500144082145
 20
-3132.000150113493
 42
0.4142135623731
 10
-2883.000144082145
 20
-3133.500150113493
 42
0.4142135623731
 10
-2881.500144082145
 20
-3135.000150113493
 42
0.4142135623731
  0
LWPOLYLINE
  5
2AD
330
1F
100
AcDbEntity
  8
0-B_寸法
  6
Continuous
 62
     7
370
     9
100
AcDbPolyline
 90
        4
 70
     1
 43
3.0
 10
-2047.000144082145
 20
-3133.500150113493
 42
0.4142135623731
 10
-2048.500144082145
 20
-3132.000150113493
 42
0.4142135623731
 10
-2050.000144082145
 20
-3133.500150113493
 42
0.4142135623731
 10
-2048.500144082145
 20
-3135.000150113493
 42
0.4142135623731
  0
LWPOLYLINE
  5
2AE
330
1F
100
AcDbEntity
  8
0-B_寸法
  6
Continuous
 62
     7
370
     9
100
AcDbPolyline
 90
        4
 70
     1
 43
3.0
 10
-2045.000144082145
 20
-3133.500150113493
 42
0.4142135623731
 10
-2046.500144082145
 20
-3132.000150113493
 42
0.4142135623731
 10
-2048.000144082145
 20
-3133.500150113493
 42
0.4142135623731
 10
-2046.500144082145
 20
-3135.000150113493
 42
0.4142135623731
  0
LWPOLYLINE
  5
2AF
330
1F
100
AcDbEntity
  8
0-B_寸法
  6
Continuous
 62
     7
370
     9
100
AcDbPolyline
 90
        4
 70
     1
 43
3.0
 10
-1212.000144082146
 20
-3133.500150113493
 42
0.4142135623731
 10
-1213.500144082146
 20
-3132.000150113493
 42
0.4142135623731
 10
-1215.000144082146
 20
-3133.500150113493
 42
0.4142135623731
 10
-1213.500144082146
 20
-3135.000150113493
 42
0.4142135623731
  0
LWPOLYLINE
  5
2B0
330
1F
100
AcDbEntity
  8
0-B_寸法
  6
Continuous
 62
     7
370
     9
100
AcDbPolyline
 90
        4
 70
     1
 43
3.0
 10
-3715.000144082146
 20
-2933.500150113492
 42
0.4142135623731
 10
-3716.500144082146
 20
-2932.000150113492
 42
0.4142135623731
 10
-3718.000144082146
 20
-2933.500150113492
 42
0.4142135623731
 10
-3716.500144082146
 20
-2935.000150113492
 42
0.4142135623731
  0
LWPOLYLINE
  5
2B1
330
1F
100
AcDbEntity
  8
0-B_寸法
  6
Continuous
 62
     7
370
     9
100
AcDbPolyline
 90
        4
 70
     1
 43
3.0
 10
-3299.000144082146
 20
-2933.500150113492
 42
0.4142135623731
 10
-3300.500144082146
 20
-2932.000150113492
 42
0.4142135623731
 10
-3302.000144082146
 20
-2933.500150113492
 42
0.4142135623731
 10
-3300.500144082146
 20
-2935.000150113492
 42
0.4142135623731
  0
LWPOLYLINE
  5
2B2
330
1F
100
AcDbEntity
  8
0-B_寸法
  6
Continuous
 62
     7
370
     9
100
AcDbPolyline
 90
        4
 70
     1
 43
3.0
 10
-3298.000144082147
 20
-2933.500150113492
 42
0.4142135623731
 10
-3299.500144082147
 20
-2932.000150113492
 42
0.4142135623731
 10
-3301.000144082147
 20
-2933.500150113492
 42
0.4142135623731
 10
-3299.500144082147
 20
-2935.000150113492
 42
0.4142135623731
  0
LWPOLYLINE
  5
2B3
330
1F
100
AcDbEntity
  8
0-B_寸法
  6
Continuous
 62
     7
370
     9
100
AcDbPolyline
 90
        4
 70
     1
 43
3.0
 10
-2882.000144082147
 20
-2933.500150113492
 42
0.4142135623731
 10
-2883.500144082146
 20
-2932.000150113492
 42
0.4142135623731
 10
-2885.000144082146
 20
-2933.500150113492
 42
0.4142135623731
 10
-2883.500144082146
 20
-2935.000150113492
 42
0.4142135623731
  0
LINE
  5
2B4
330
1F
100
AcDbEntity
  8
0-2_扉
  6
Continuous
 62
    92
370
    13
100
AcDbLine
 10
-3299.500144082147
 20
-2613.000150113492
 30
0.0
 11
-2883.500144082146
 21
-2613.000150113492
 31
0.0
  0
LINE
  5
2B5
330
1F
100
AcDbEntity
  8
0-2_扉
  6
Continuous
 62
    92
370
    13
100
AcDbLine
 10
-2881.500144082145
 20
-2613.000150113491
 30
0.0
 11
-2465.500144082144
 21
-2613.000150113492
 31
0.0
  0
LINE
  5
2B6
330
1F
100
AcDbEntity
  8
0-2_扉
  6
Continuous
 62
    92
370
    13
100
AcDbLine
 10
-2464.500144082145
 20
-2613.000150113492
 30
0.0
 11
-2048.500144082145
 21
-2613.000150113492
 31
0.0
  0
LINE
  5
2B7
330
1F
100
AcDbEntity
  8
0-2_扉
  6
Continuous
 62
    92
370
    13
100
AcDbLine
 10
-2046.500144082145
 20
-2613.000150113492
 30
0.0
 11
-1630.500144082145
 21
-2613.000150113493
 31
0.0
  0
LINE
  5
2B8
330
1F
100
AcDbEntity
  8
0-2_扉
  6
JWW_DASHED1
 62
   120
370
     5
100
AcDbLine
 10
-1216.000144082145
 20
-2613.000150113493
 30
0.0
 11
-1213.500144082146
 21
-2613.000150113493
 31
0.0
  0
LINE
  5
2B9
330
1F
100
AcDbEntity
  8
0-2_扉
  6
Continuous
 62
    92
370
    13
100
AcDbLine
 10
-1629.500144082144
 20
-2613.000150113493
 30
0.0
 11
-1216.000144082145
 21
-2613.000150113493
 31
0.0
  0
ARC
  5
2BA
330
1F
100
AcDbEntity
  8
取手
  6
Continuous
 62
    92
370
    13
100
AcDbCircle
 10
-3268.500144082144
 20
-1597.000150113492
 30
0.0
 40
1.0
100
AcDbArc
 50
90.0
 51
180.0
  0
LINE
  5
2BB
330
1F
100
AcDbEntity
  8
取手
  6
Continuous
 62
    92
370
    13
100
AcDbLine
 10
-3260.500144082146
 20
-1596.000150113492
 30
0.0
 11
-3268.500144082144
 21
-1596.000150113492
 31
0.0
  0
ARC
  5
2BC
330
1F
100
AcDbEntity
  8
取手
  6
Continuous
 62
    92
370
    13
100
AcDbCircle
 10
-3260.500144082146
 20
-1597.000150113492
 30
0.0
 40
1.0
100
AcDbArc
 50
0.0
 51
90.00000000000001
  0
LINE
  5
2BD
330
1F
100
AcDbEntity
  8
取手
  6
Continuous
 62
    92
370
    13
100
AcDbLine
 10
-3259.500144082145
 20
-1729.000150113492
 30
0.0
 11
-3259.500144082145
 21
-1597.000150113492
 31
0.0
  0
ARC
  5
2BE
330
1F
100
AcDbEntity
  8
取手
  6
Continuous
 62
    92
370
    13
100
AcDbCircle
 10
-3260.500144082146
 20
-1729.000150113492
 30
0.0
 40
1.0
100
AcDbArc
 50
270.0
 51
0.0
  0
LINE
  5
2BF
330
1F
100
AcDbEntity
  8
取手
  6
Continuous
 62
    92
370
    13
100
AcDbLine
 10
-3268.500144082144
 20
-1730.000150113492
 30
0.0
 11
-3260.500144082146
 21
-1730.000150113492
 31
0.0
  0
LINE
  5
2C0
330
1F
100
AcDbEntity
  8
取手
  6
Continuous
 62
    92
370
    13
100
AcDbLine
 10
-3269.500144082147
 20
-1729.000150113492
 30
0.0
 11
-3269.500144082147
 21
-1597.000150113492
 31
0.0
  0
ARC
  5
2C1
330
1F
100
AcDbEntity
  8
取手
  6
Continuous
 62
    92
370
    13
100
AcDbCircle
 10
-3268.500144082144
 20
-1729.000150113492
 30
0.0
 40
1.0
100
AcDbArc
 50
180.0
 51
270.0
  0
ARC
  5
2C2
330
1F
100
AcDbEntity
  8
取手
  6
Continuous
 62
     7
370
     9
100
AcDbCircle
 10
-3269.500144082147
 20
-1599.000150113492
 30
0.0
 40
1.0
100
AcDbArc
 50
90.0
 51
180.0
  0
ARC
  5
2C3
330
1F
100
AcDbEntity
  8
取手
  6
Continuous
 62
     7
370
     9
100
AcDbCircle
 10
-3259.500144082145
 20
-1599.000150113492
 30
0.0
 40
1.0
100
AcDbArc
 50
0.0
 51
90.00000000000001
  0
LINE
  5
2C4
330
1F
100
AcDbEntity
  8
取手
  6
Continuous
 62
     7
370
     9
100
AcDbLine
 10
-3258.500144082146
 20
-1617.000150113492
 30
0.0
 11
-3258.500144082146
 21
-1599.000150113492
 31
0.0
  0
ARC
  5
2C5
330
1F
100
AcDbEntity
  8
取手
  6
Continuous
 62
     7
370
     9
100
AcDbCircle
 10
-3259.500144082145
 20
-1617.000150113492
 30
0.0
 40
1.0
100
AcDbArc
 50
270.0
 51
0.0
  0
LINE
  5
2C6
330
1F
100
AcDbEntity
  8
取手
  6
Continuous
 62
     7
370
     9
100
AcDbLine
 10
-3270.500144082146
 20
-1617.000150113492
 30
0.0
 11
-3270.500144082146
 21
-1599.000150113492
 31
0.0
  0
ARC
  5
2C7
330
1F
100
AcDbEntity
  8
取手
  6
Continuous
 62
     7
370
     9
100
AcDbCircle
 10
-3269.500144082147
 20
-1617.000150113492
 30
0.0
 40
1.0
100
AcDbArc
 50
180.0
 51
270.0
  0
ARC
  5
2C8
330
1F
100
AcDbEntity
  8
取手
  6
Continuous
 62
     7
370
     9
100
AcDbCircle
 10
-3269.500144082147
 20
-1709.000150113492
 30
0.0
 40
1.0
100
AcDbArc
 50
90.0
 51
180.0
  0
ARC
  5
2C9
330
1F
100
AcDbEntity
  8
取手
  6
Continuous
 62
     7
370
     9
100
AcDbCircle
 10
-3259.500144082145
 20
-1709.000150113492
 30
0.0
 40
1.0
100
AcDbArc
 50
0.0
 51
90.00000000000001
  0
LINE
  5
2CA
330
1F
100
AcDbEntity
  8
取手
  6
Continuous
 62
     7
370
     9
100
AcDbLine
 10
-3258.500144082146
 20
-1727.000150113492
 30
0.0
 11
-3258.500144082146
 21
-1709.000150113492
 31
0.0
  0
ARC
  5
2CB
330
1F
100
AcDbEntity
  8
取手
  6
Continuous
 62
     7
370
     9
100
AcDbCircle
 10
-3259.500144082145
 20
-1727.000150113492
 30
0.0
 40
1.0
100
AcDbArc
 50
270.0
 51
0.0
  0
LINE
  5
2CC
330
1F
100
AcDbEntity
  8
取手
  6
Continuous
 62
     7
370
     9
100
AcDbLine
 10
-3270.500144082146
 20
-1727.000150113492
 30
0.0
 11
-3270.500144082146
 21
-1709.000150113492
 31
0.0
  0
ARC
  5
2CD
330
1F
100
AcDbEntity
  8
取手
  6
Continuous
 62
     7
370
     9
100
AcDbCircle
 10
-3269.500144082147
 20
-1727.000150113492
 30
0.0
 40
1.0
100
AcDbArc
 50
180.0
 51
270.0
  0
ARC
  5
2CE
330
1F
100
AcDbEntity
  8
取手
  6
Continuous
 62
    92
370
    13
100
AcDbCircle
 10
-2433.500144082143
 20
-1597.000150113492
 30
0.0
 40
1.0
100
AcDbArc
 50
90.0
 51
180.0
  0
LINE
  5
2CF
330
1F
100
AcDbEntity
  8
取手
  6
Continuous
 62
    92
370
    13
100
AcDbLine
 10
-2425.500144082147
 20
-1596.000150113492
 30
0.0
 11
-2433.500144082143
 21
-1596.000150113492
 31
0.0
  0
ARC
  5
2D0
330
1F
100
AcDbEntity
  8
取手
  6
Continuous
 62
    92
370
    13
100
AcDbCircle
 10
-2425.500144082147
 20
-1597.000150113492
 30
0.0
 40
1.0
100
AcDbArc
 50
0.0
 51
90.00000000000001
  0
LINE
  5
2D1
330
1F
100
AcDbEntity
  8
取手
  6
Continuous
 62
    92
370
    13
100
AcDbLine
 10
-2424.500144082142
 20
-1729.000150113492
 30
0.0
 11
-2424.500144082142
 21
-1597.000150113492
 31
0.0
  0
ARC
  5
2D2
330
1F
100
AcDbEntity
  8
取手
  6
Continuous
 62
    92
370
    13
100
AcDbCircle
 10
-2425.500144082147
 20
-1729.000150113492
 30
0.0
 40
1.0
100
AcDbArc
 50
270.0
 51
0.0
  0
LINE
  5
2D3
330
1F
100
AcDbEntity
  8
取手
  6
Continuous
 62
    92
370
    13
100
AcDbLine
 10
-2433.500144082143
 20
-1730.000150113492
 30
0.0
 11
-2425.500144082147
 21
-1730.000150113492
 31
0.0
  0
LINE
  5
2D4
330
1F
100
AcDbEntity
  8
取手
  6
Continuous
 62
    92
370
    13
100
AcDbLine
 10
-2434.500144082145
 20
-1729.000150113492
 30
0.0
 11
-2434.500144082145
 21
-1597.000150113492
 31
0.0
  0
ARC
  5
2D5
330
1F
100
AcDbEntity
  8
取手
  6
Continuous
 62
    92
370
    13
100
AcDbCircle
 10
-2433.500144082143
 20
-1729.000150113492
 30
0.0
 40
1.0
100
AcDbArc
 50
180.0
 51
270.0
  0
ARC
  5
2D6
330
1F
100
AcDbEntity
  8
取手
  6
Continuous
 62
     7
370
     9
100
AcDbCircle
 10
-2434.500144082145
 20
-1599.000150113492
 30
0.0
 40
1.0
100
AcDbArc
 50
90.0
 51
180.0
  0
ARC
  5
2D7
330
1F
100
AcDbEntity
  8
取手
  6
Continuous
 62
     7
370
     9
100
AcDbCircle
 10
-2424.500144082142
 20
-1599.000150113492
 30
0.0
 40
1.0
100
AcDbArc
 50
0.0
 51
90.00000000000001
  0
LINE
  5
2D8
330
1F
100
AcDbEntity
  8
取手
  6
Continuous
 62
     7
370
     9
100
AcDbLine
 10
-2423.500144082145
 20
-1617.000150113492
 30
0.0
 11
-2423.500144082145
 21
-1599.000150113492
 31
0.0
  0
ARC
  5
2D9
330
1F
100
AcDbEntity
  8
取手
  6
Continuous
 62
     7
370
     9
100
AcDbCircle
 10
-2424.500144082142
 20
-1617.000150113492
 30
0.0
 40
1.0
100
AcDbArc
 50
270.0
 51
0.0
  0
LINE
  5
2DA
330
1F
100
AcDbEntity
  8
取手
  6
Continuous
 62
     7
370
     9
100
AcDbLine
 10
-2435.500144082144
 20
-1617.000150113492
 30
0.0
 11
-2435.500144082144
 21
-1599.000150113492
 31
0.0
  0
ARC
  5
2DB
330
1F
100
AcDbEntity
  8
取手
  6
Continuous
 62
     7
370
     9
100
AcDbCircle
 10
-2434.500144082145
 20
-1617.000150113492
 30
0.0
 40
1.0
100
AcDbArc
 50
180.0
 51
270.0
  0
ARC
  5
2DC
330
1F
100
AcDbEntity
  8
取手
  6
Continuous
 62
     7
370
     9
100
AcDbCircle
 10
-2434.500144082145
 20
-1709.000150113492
 30
0.0
 40
1.0
100
AcDbArc
 50
90.0
 51
180.0
  0
ARC
  5
2DD
330
1F
100
AcDbEntity
  8
取手
  6
Continuous
 62
     7
370
     9
100
AcDbCircle
 10
-2424.500144082142
 20
-1709.000150113492
 30
0.0
 40
1.0
100
AcDbArc
 50
0.0
 51
90.00000000000001
  0
LINE
  5
2DE
330
1F
100
AcDbEntity
  8
取手
  6
Continuous
 62
     7
370
     9
100
AcDbLine
 10
-2423.500144082145
 20
-1727.000150113492
 30
0.0
 11
-2423.500144082145
 21
-1709.000150113492
 31
0.0
  0
ARC
  5
2DF
330
1F
100
AcDbEntity
  8
取手
  6
Continuous
 62
     7
370
     9
100
AcDbCircle
 10
-2424.500144082142
 20
-1727.000150113492
 30
0.0
 40
1.0
100
AcDbArc
 50
270.0
 51
0.0
  0
LINE
  5
2E0
330
1F
100
AcDbEntity
  8
取手
  6
Continuous
 62
     7
370
     9
100
AcDbLine
 10
-2435.500144082144
 20
-1727.000150113492
 30
0.0
 11
-2435.500144082144
 21
-1709.000150113492
 31
0.0
  0
ARC
  5
2E1
330
1F
100
AcDbEntity
  8
取手
  6
Continuous
 62
     7
370
     9
100
AcDbCircle
 10
-2434.500144082145
 20
-1727.000150113492
 30
0.0
 40
1.0
100
AcDbArc
 50
180.0
 51
270.0
  0
ARC
  5
2E2
330
1F
100
AcDbEntity
  8
取手
  6
Continuous
 62
    92
370
    13
100
AcDbCircle
 10
-1669.500144082144
 20
-1597.000150113493
 30
0.0
 40
1.0
100
AcDbArc
 50
90.0
 51
180.0
  0
LINE
  5
2E3
330
1F
100
AcDbEntity
  8
取手
  6
Continuous
 62
    92
370
    13
100
AcDbLine
 10
-1661.500144082146
 20
-1596.000150113493
 30
0.0
 11
-1669.500144082144
 21
-1596.000150113493
 31
0.0
  0
ARC
  5
2E4
330
1F
100
AcDbEntity
  8
取手
  6
Continuous
 62
    92
370
    13
100
AcDbCircle
 10
-1661.500144082146
 20
-1597.000150113493
 30
0.0
 40
1.0
100
AcDbArc
 50
0.0
 51
90.00000000000001
  0
LINE
  5
2E5
330
1F
100
AcDbEntity
  8
取手
  6
Continuous
 62
    92
370
    13
100
AcDbLine
 10
-1660.500144082145
 20
-1729.000150113493
 30
0.0
 11
-1660.500144082145
 21
-1597.000150113493
 31
0.0
  0
ARC
  5
2E6
330
1F
100
AcDbEntity
  8
取手
  6
Continuous
 62
    92
370
    13
100
AcDbCircle
 10
-1661.500144082146
 20
-1729.000150113493
 30
0.0
 40
1.0
100
AcDbArc
 50
270.0
 51
0.0
  0
LINE
  5
2E7
330
1F
100
AcDbEntity
  8
取手
  6
Continuous
 62
    92
370
    13
100
AcDbLine
 10
-1669.500144082144
 20
-1730.000150113493
 30
0.0
 11
-1661.500144082146
 21
-1730.000150113493
 31
0.0
  0
LINE
  5
2E8
330
1F
100
AcDbEntity
  8
取手
  6
Continuous
 62
    92
370
    13
100
AcDbLine
 10
-1670.500144082145
 20
-1729.000150113493
 30
0.0
 11
-1670.500144082145
 21
-1597.000150113493
 31
0.0
  0
ARC
  5
2E9
330
1F
100
AcDbEntity
  8
取手
  6
Continuous
 62
    92
370
    13
100
AcDbCircle
 10
-1669.500144082144
 20
-1729.000150113493
 30
0.0
 40
1.0
100
AcDbArc
 50
180.0
 51
270.0
  0
ARC
  5
2EA
330
1F
100
AcDbEntity
  8
取手
  6
Continuous
 62
     7
370
     9
100
AcDbCircle
 10
-1670.500144082145
 20
-1599.000150113493
 30
0.0
 40
1.0
100
AcDbArc
 50
90.0
 51
180.0
  0
ARC
  5
2EB
330
1F
100
AcDbEntity
  8
取手
  6
Continuous
 62
     7
370
     9
100
AcDbCircle
 10
-1660.500144082145
 20
-1599.000150113493
 30
0.0
 40
1.0
100
AcDbArc
 50
0.0
 51
90.00000000000001
  0
LINE
  5
2EC
330
1F
100
AcDbEntity
  8
取手
  6
Continuous
 62
     7
370
     9
100
AcDbLine
 10
-1659.500144082144
 20
-1617.000150113493
 30
0.0
 11
-1659.500144082144
 21
-1599.000150113493
 31
0.0
  0
ARC
  5
2ED
330
1F
100
AcDbEntity
  8
取手
  6
Continuous
 62
     7
370
     9
100
AcDbCircle
 10
-1660.500144082145
 20
-1617.000150113493
 30
0.0
 40
1.0
100
AcDbArc
 50
270.0
 51
0.0
  0
LINE
  5
2EE
330
1F
100
AcDbEntity
  8
取手
  6
Continuous
 62
     7
370
     9
100
AcDbLine
 10
-1671.500144082145
 20
-1617.000150113493
 30
0.0
 11
-1671.500144082145
 21
-1599.000150113493
 31
0.0
  0
ARC
  5
2EF
330
1F
100
AcDbEntity
  8
取手
  6
Continuous
 62
     7
370
     9
100
AcDbCircle
 10
-1670.500144082145
 20
-1617.000150113493
 30
0.0
 40
1.0
100
AcDbArc
 50
180.0
 51
270.0
  0
ARC
  5
2F0
330
1F
100
AcDbEntity
  8
取手
  6
Continuous
 62
     7
370
     9
100
AcDbCircle
 10
-1670.500144082145
 20
-1709.000150113493
 30
0.0
 40
1.0
100
AcDbArc
 50
90.0
 51
180.0
  0
ARC
  5
2F1
330
1F
100
AcDbEntity
  8
取手
  6
Continuous
 62
     7
370
     9
100
AcDbCircle
 10
-1660.500144082145
 20
-1709.000150113493
 30
0.0
 40
1.0
100
AcDbArc
 50
0.0
 51
90.00000000000001
  0
LINE
  5
2F2
330
1F
100
AcDbEntity
  8
取手
  6
Continuous
 62
     7
370
     9
100
AcDbLine
 10
-1659.500144082144
 20
-1727.000150113493
 30
0.0
 11
-1659.500144082144
 21
-1709.000150113493
 31
0.0
  0
ARC
  5
2F3
330
1F
100
AcDbEntity
  8
取手
  6
Continuous
 62
     7
370
     9
100
AcDbCircle
 10
-1660.500144082145
 20
-1727.000150113493
 30
0.0
 40
1.0
100
AcDbArc
 50
270.0
 51
0.0
  0
LINE
  5
2F4
330
1F
100
AcDbEntity
  8
取手
  6
Continuous
 62
     7
370
     9
100
AcDbLine
 10
-1671.500144082145
 20
-1727.000150113493
 30
0.0
 11
-1671.500144082145
 21
-1709.000150113493
 31
0.0
  0
ARC
  5
2F5
330
1F
100
AcDbEntity
  8
取手
  6
Continuous
 62
     7
370
     9
100
AcDbCircle
 10
-1670.500144082145
 20
-1727.000150113493
 30
0.0
 40
1.0
100
AcDbArc
 50
180.0
 51
270.0
  0
LINE
  5
2F6
330
1F
100
AcDbEntity
  8
0-B_寸法
  6
Continuous
 62
   120
370
     5
100
AcDbLine
 10
-4044.000144082147
 20
-2613.000150113493
 30
0.0
 11
-3794.000144082147
 21
-2613.000150113493
 31
0.0
  0
LWPOLYLINE
  5
2F7
330
1F
100
AcDbEntity
  8
0-B_寸法
  6
Continuous
 62
     7
370
     9
100
AcDbPolyline
 90
        4
 70
     1
 43
3.0
 10
-4042.500144082146
 20
-2613.000150113493
 42
0.4142135623731
 10
-4044.000144082147
 20
-2611.500150113493
 42
0.4142135623731
 10
-4045.500144082147
 20
-2613.000150113493
 42
0.4142135623731
 10
-4044.000144082147
 20
-2614.500150113493
 42
0.4142135623731
  0
LINE
  5
2F8
330
1F
100
AcDbEntity
  8
0-2_扉
  6
JWW_DASHED1
 62
   120
370
     5
100
AcDbLine
 10
-3714.000144082147
 20
-2613.000150113492
 30
0.0
 11
-3716.500144082146
 21
-2613.000150113492
 31
0.0
  0
LINE
  5
2F9
330
1F
100
AcDbEntity
  8
0-2_扉
  6
Continuous
 62
    92
370
    13
100
AcDbLine
 10
-3714.000144082147
 20
-2613.000150113492
 30
0.0
 11
-3300.500144082146
 21
-2613.000150113492
 31
0.0
  0
LINE
  5
2FA
330
1F
100
AcDbEntity
  8
0-4_枠
  6
Continuous
 62
    92
370
    13
100
AcDbLine
 10
1448.499228297053
 20
-2633.500150113492
 30
0.0
 11
4841.499228297053
 21
-2633.500150113493
 31
0.0
  0
LINE
  5
2FB
330
1F
100
AcDbEntity
  8
0-4_枠
  6
Continuous
 62
    92
370
    13
100
AcDbLine
 10
1478.499228297053
 20
-2621.500150113492
 30
0.0
 11
4811.499228297053
 21
-2621.500150113493
 31
0.0
  0
LINE
  5
2FC
330
1F
100
AcDbEntity
  8
0-B_寸法
  6
Continuous
 62
   120
370
     5
100
AcDbLine
 10
1475.999228297053
 20
-3133.500150113493
 30
0.0
 11
2308.999228297054
 21
-3133.500150113493
 31
0.0
  0
LINE
  5
2FD
330
1F
100
AcDbEntity
  8
0-B_寸法
  6
Continuous
 62
   120
370
     5
100
AcDbLine
 10
1475.999228297053
 20
-3133.500150113493
 30
0.0
 11
1475.999228297053
 21
-2683.500150113493
 31
0.0
  0
LINE
  5
2FE
330
1F
100
AcDbEntity
  8
0-B_寸法
  6
Continuous
 62
   120
370
     5
100
AcDbLine
 10
2308.999228297054
 20
-3133.500150113493
 30
0.0
 11
2308.999228297054
 21
-2683.500150113493
 31
0.0
  0
LINE
  5
2FF
330
1F
100
AcDbEntity
  8
0-B_寸法
  6
Continuous
 62
   120
370
     5
100
AcDbLine
 10
2308.999228297054
 20
-3133.500150113493
 30
0.0
 11
2310.999228297054
 21
-3133.500150113493
 31
0.0
  0
LINE
  5
300
330
1F
100
AcDbEntity
  8
0-B_寸法
  6
Continuous
 62
   120
370
     5
100
AcDbLine
 10
2310.999228297054
 20
-3133.500150113493
 30
0.0
 11
2310.999228297054
 21
-2683.500150113493
 31
0.0
  0
LINE
  5
301
330
1F
100
AcDbEntity
  8
0-B_寸法
  6
Continuous
 62
   120
370
     5
100
AcDbLine
 10
2310.999228297054
 20
-3133.500150113493
 30
0.0
 11
3143.999228297055
 21
-3133.500150113493
 31
0.0
  0
LINE
  5
302
330
1F
100
AcDbEntity
  8
0-B_寸法
  6
Continuous
 62
   120
370
     5
100
AcDbLine
 10
3143.999228297055
 20
-3133.500150113493
 30
0.0
 11
3143.999228297055
 21
-2683.500150113493
 31
0.0
  0
LINE
  5
303
330
1F
100
AcDbEntity
  8
0-B_寸法
  6
Continuous
 62
   120
370
     5
100
AcDbLine
 10
3143.999228297055
 20
-3133.500150113493
 30
0.0
 11
3145.999228297055
 21
-3133.500150113493
 31
0.0
  0
LINE
  5
304
330
1F
100
AcDbEntity
  8
0-B_寸法
  6
Continuous
 62
   120
370
     5
100
AcDbLine
 10
3145.999228297055
 20
-3133.500150113493
 30
0.0
 11
3145.999228297055
 21
-2683.500150113493
 31
0.0
  0
LINE
  5
305
330
1F
100
AcDbEntity
  8
0-B_寸法
  6
Continuous
 62
   120
370
     5
100
AcDbLine
 10
3145.999228297055
 20
-3133.500150113493
 30
0.0
 11
3978.999228297054
 21
-3133.500150113493
 31
0.0
  0
LINE
  5
306
330
1F
100
AcDbEntity
  8
0-B_寸法
  6
Continuous
 62
   120
370
     5
100
AcDbLine
 10
3978.999228297054
 20
-3133.500150113493
 30
0.0
 11
3978.999228297054
 21
-2683.500150113493
 31
0.0
  0
LINE
  5
307
330
1F
100
AcDbEntity
  8
0-B_寸法
  6
Continuous
 62
   120
370
     5
100
AcDbLine
 10
1475.999228297053
 20
-2933.500150113492
 30
0.0
 11
1891.999228297053
 21
-2933.500150113492
 31
0.0
  0
LINE
  5
308
330
1F
100
AcDbEntity
  8
0-B_寸法
  6
Continuous
 62
   120
370
     5
100
AcDbLine
 10
1891.999228297053
 20
-2933.500150113492
 30
0.0
 11
1891.999228297053
 21
-2683.500150113493
 31
0.0
  0
LINE
  5
309
330
1F
100
AcDbEntity
  8
0-B_寸法
  6
Continuous
 62
   120
370
     5
100
AcDbLine
 10
1891.999228297053
 20
-2933.500150113492
 30
0.0
 11
1892.999228297054
 21
-2933.500150113492
 31
0.0
  0
LINE
  5
30A
330
1F
100
AcDbEntity
  8
0-B_寸法
  6
Continuous
 62
   120
370
     5
100
AcDbLine
 10
1892.999228297054
 20
-2933.500150113492
 30
0.0
 11
1892.999228297054
 21
-2683.500150113493
 31
0.0
  0
LINE
  5
30B
330
1F
100
AcDbEntity
  8
0-B_寸法
  6
Continuous
 62
   120
370
     5
100
AcDbLine
 10
1892.999228297054
 20
-2933.500150113492
 30
0.0
 11
2308.999228297054
 21
-2933.500150113492
 31
0.0
  0
LINE
  5
30C
330
1F
100
AcDbEntity
  8
0-B_寸法
  6
Continuous
 62
   120
370
     5
100
AcDbLine
 10
1892.499228297055
 20
-2933.500150113492
 30
0.0
 11
1927.448094861288
 21
-2803.069204428824
 31
0.0
  0
LINE
  5
30D
330
1F
100
AcDbEntity
  8
0-B_寸法
  6
Continuous
 62
   120
370
     5
100
AcDbLine
 10
1927.448094861288
 20
-2803.069204428824
 30
0.0
 11
1978.231162934738
 21
-2803.069204428824
 31
0.0
  0
LINE
  5
30E
330
1F
100
AcDbEntity
  8
0-B_寸法
  6
Continuous
 62
   120
370
     5
100
AcDbLine
 10
2309.999228297054
 20
-3133.500150113493
 30
0.0
 11
2344.948094861289
 21
-3003.069204428824
 31
0.0
  0
LINE
  5
30F
330
1F
100
AcDbEntity
  8
0-B_寸法
  6
Continuous
 62
   120
370
     5
100
AcDbLine
 10
2344.948094861289
 20
-3003.069204428824
 30
0.0
 11
2395.731162934738
 21
-3003.069204428824
 31
0.0
  0
LINE
  5
310
330
1F
100
AcDbEntity
  8
0-B_寸法
  6
Continuous
 62
   120
370
     5
100
AcDbLine
 10
3144.999228297055
 20
-3133.500150113493
 30
0.0
 11
3179.948094861289
 21
-3003.069204428824
 31
0.0
  0
LINE
  5
311
330
1F
100
AcDbEntity
  8
0-B_寸法
  6
Continuous
 62
   120
370
     5
100
AcDbLine
 10
3179.948094861289
 20
-3003.069204428824
 30
0.0
 11
3230.731162934739
 21
-3003.069204428824
 31
0.0
  0
LINE
  5
312
330
1F
100
AcDbEntity
  8
0-B_寸法
  6
Continuous
 62
   120
370
     5
100
AcDbLine
 10
3978.999228297054
 20
-3133.500150113493
 30
0.0
 11
3980.999228297054
 21
-3133.500150113493
 31
0.0
  0
LINE
  5
313
330
1F
100
AcDbEntity
  8
0-B_寸法
  6
Continuous
 62
   120
370
     5
100
AcDbLine
 10
3980.999228297054
 20
-3133.500150113493
 30
0.0
 11
3980.999228297054
 21
-2683.500150113493
 31
0.0
  0
LINE
  5
314
330
1F
100
AcDbEntity
  8
0-B_寸法
  6
Continuous
 62
   120
370
     5
100
AcDbLine
 10
3980.999228297054
 20
-3133.500150113493
 30
0.0
 11
4813.999228297054
 21
-3133.500150113493
 31
0.0
  0
LINE
  5
315
330
1F
100
AcDbEntity
  8
0-B_寸法
  6
Continuous
 62
   120
370
     5
100
AcDbLine
 10
4813.999228297054
 20
-3133.500150113493
 30
0.0
 11
4813.999228297054
 21
-2683.500150113493
 31
0.0
  0
LINE
  5
316
330
1F
100
AcDbEntity
  8
0-B_寸法
  6
Continuous
 62
   120
370
     5
100
AcDbLine
 10
3979.999228297054
 20
-3133.500150113493
 30
0.0
 11
4014.948094861288
 21
-3003.069204428824
 31
0.0
  0
LINE
  5
317
330
1F
100
AcDbEntity
  8
0-B_寸法
  6
Continuous
 62
   120
370
     5
100
AcDbLine
 10
4014.948094861288
 20
-3003.069204428824
 30
0.0
 11
4065.731162934738
 21
-3003.069204428824
 31
0.0
  0
LWPOLYLINE
  5
318
330
1F
100
AcDbEntity
  8
0-B_寸法
  6
Continuous
 62
     7
370
     9
100
AcDbPolyline
 90
        4
 70
     1
 43
3.0
 10
1477.499228297053
 20
-3133.500150113493
 42
0.4142135623731
 10
1475.999228297053
 20
-3132.000150113493
 42
0.4142135623731
 10
1474.499228297053
 20
-3133.500150113493
 42
0.4142135623731
 10
1475.999228297053
 20
-3135.000150113493
 42
0.4142135623731
  0
LWPOLYLINE
  5
319
330
1F
100
AcDbEntity
  8
0-B_寸法
  6
Continuous
 62
     7
370
     9
100
AcDbPolyline
 90
        4
 70
     1
 43
3.0
 10
2310.499228297054
 20
-3133.500150113493
 42
0.4142135623731
 10
2308.999228297054
 20
-3132.000150113493
 42
0.4142135623731
 10
2307.499228297055
 20
-3133.500150113493
 42
0.4142135623731
 10
2308.999228297054
 20
-3135.000150113493
 42
0.4142135623731
  0
LWPOLYLINE
  5
31A
330
1F
100
AcDbEntity
  8
0-B_寸法
  6
Continuous
 62
     7
370
     9
100
AcDbPolyline
 90
        4
 70
     1
 43
3.0
 10
2312.499228297054
 20
-3133.500150113493
 42
0.4142135623731
 10
2310.999228297054
 20
-3132.000150113493
 42
0.4142135623731
 10
2309.499228297054
 20
-3133.500150113493
 42
0.4142135623731
 10
2310.999228297054
 20
-3135.000150113493
 42
0.4142135623731
  0
LWPOLYLINE
  5
31B
330
1F
100
AcDbEntity
  8
0-B_寸法
  6
Continuous
 62
     7
370
     9
100
AcDbPolyline
 90
        4
 70
     1
 43
3.0
 10
3145.499228297055
 20
-3133.500150113493
 42
0.4142135623731
 10
3143.999228297055
 20
-3132.000150113493
 42
0.4142135623731
 10
3142.499228297055
 20
-3133.500150113493
 42
0.4142135623731
 10
3143.999228297055
 20
-3135.000150113493
 42
0.4142135623731
  0
LWPOLYLINE
  5
31C
330
1F
100
AcDbEntity
  8
0-B_寸法
  6
Continuous
 62
     7
370
     9
100
AcDbPolyline
 90
        4
 70
     1
 43
3.0
 10
3147.499228297055
 20
-3133.500150113493
 42
0.4142135623731
 10
3145.999228297055
 20
-3132.000150113493
 42
0.4142135623731
 10
3144.499228297055
 20
-3133.500150113493
 42
0.4142135623731
 10
3145.999228297055
 20
-3135.000150113493
 42
0.4142135623731
  0
LWPOLYLINE
  5
31D
330
1F
100
AcDbEntity
  8
0-B_寸法
  6
Continuous
 62
     7
370
     9
100
AcDbPolyline
 90
        4
 70
     1
 43
3.0
 10
3980.499228297054
 20
-3133.500150113493
 42
0.4142135623731
 10
3978.999228297054
 20
-3132.000150113493
 42
0.4142135623731
 10
3977.499228297054
 20
-3133.500150113493
 42
0.4142135623731
 10
3978.999228297054
 20
-3135.000150113493
 42
0.4142135623731
  0
LWPOLYLINE
  5
31E
330
1F
100
AcDbEntity
  8
0-B_寸法
  6
Continuous
 62
     7
370
     9
100
AcDbPolyline
 90
        4
 70
     1
 43
3.0
 10
1477.499228297053
 20
-2933.500150113492
 42
0.4142135623731
 10
1475.999228297053
 20
-2932.000150113492
 42
0.4142135623731
 10
1474.499228297053
 20
-2933.500150113492
 42
0.4142135623731
 10
1475.999228297053
 20
-2935.000150113492
 42
0.4142135623731
  0
LWPOLYLINE
  5
31F
330
1F
100
AcDbEntity
  8
0-B_寸法
  6
Continuous
 62
     7
370
     9
100
AcDbPolyline
 90
        4
 70
     1
 43
3.0
 10
1893.499228297053
 20
-2933.500150113492
 42
0.4142135623731
 10
1891.999228297053
 20
-2932.000150113492
 42
0.4142135623731
 10
1890.499228297054
 20
-2933.500150113492
 42
0.4142135623731
 10
1891.999228297053
 20
-2935.000150113492
 42
0.4142135623731
  0
LWPOLYLINE
  5
320
330
1F
100
AcDbEntity
  8
0-B_寸法
  6
Continuous
 62
     7
370
     9
100
AcDbPolyline
 90
        4
 70
     1
 43
3.0
 10
1894.499228297054
 20
-2933.500150113492
 42
0.4142135623731
 10
1892.999228297054
 20
-2932.000150113492
 42
0.4142135623731
 10
1891.499228297054
 20
-2933.500150113492
 42
0.4142135623731
 10
1892.999228297054
 20
-2935.000150113492
 42
0.4142135623731
  0
LWPOLYLINE
  5
321
330
1F
100
AcDbEntity
  8
0-B_寸法
  6
Continuous
 62
     7
370
     9
100
AcDbPolyline
 90
        4
 70
     1
 43
3.0
 10
2310.499228297054
 20
-2933.500150113492
 42
0.4142135623731
 10
2308.999228297054
 20
-2932.000150113492
 42
0.4142135623731
 10
2307.499228297055
 20
-2933.500150113492
 42
0.4142135623731
 10
2308.999228297054
 20
-2935.000150113492
 42
0.4142135623731
  0
LWPOLYLINE
  5
322
330
1F
100
AcDbEntity
  8
0-B_寸法
  6
Continuous
 62
     7
370
     9
100
AcDbPolyline
 90
        4
 70
     1
 43
3.0
 10
3982.499228297054
 20
-3133.500150113493
 42
0.4142135623731
 10
3980.999228297054
 20
-3132.000150113493
 42
0.4142135623731
 10
3979.499228297054
 20
-3133.500150113493
 42
0.4142135623731
 10
3980.999228297054
 20
-3135.000150113493
 42
0.4142135623731
  0
LWPOLYLINE
  5
323
330
1F
100
AcDbEntity
  8
0-B_寸法
  6
Continuous
 62
     7
370
     9
100
AcDbPolyline
 90
        4
 70
     1
 43
3.0
 10
4815.499228297055
 20
-3133.500150113493
 42
0.4142135623731
 10
4813.999228297054
 20
-3132.000150113493
 42
0.4142135623731
 10
4812.499228297054
 20
-3133.500150113493
 42
0.4142135623731
 10
4813.999228297054
 20
-3135.000150113493
 42
0.4142135623731
  0
LINE
  5
324
330
1F
100
AcDbEntity
  8
0-2_扉
  6
Continuous
 62
    92
370
    13
100
AcDbLine
 10
1892.999228297054
 20
-2613.000150113492
 30
0.0
 11
2308.999228297054
 21
-2613.000150113492
 31
0.0
  0
LINE
  5
325
330
1F
100
AcDbEntity
  8
0-2_扉
  6
Continuous
 62
    92
370
    13
100
AcDbLine
 10
2310.999228297054
 20
-2613.000150113491
 30
0.0
 11
2726.999228297055
 21
-2613.000150113492
 31
0.0
  0
LINE
  5
326
330
1F
100
AcDbEntity
  8
0-2_扉
  6
Continuous
 62
    92
370
    13
100
AcDbLine
 10
2727.999228297054
 20
-2613.000150113492
 30
0.0
 11
3143.999228297055
 21
-2613.000150113492
 31
0.0
  0
LINE
  5
327
330
1F
100
AcDbEntity
  8
0-2_扉
  6
Continuous
 62
    92
370
    13
100
AcDbLine
 10
3145.999228297055
 20
-2613.000150113492
 30
0.0
 11
3561.999228297055
 21
-2613.000150113493
 31
0.0
  0
LINE
  5
328
330
1F
100
AcDbEntity
  8
0-2_扉
  6
Continuous
 62
    92
370
    13
100
AcDbLine
 10
3562.999228297055
 20
-2613.000150113493
 30
0.0
 11
3978.999228297054
 21
-2613.000150113493
 31
0.0
  0
LINE
  5
329
330
1F
100
AcDbEntity
  8
0-2_扉
  6
Continuous
 62
    92
370
    13
100
AcDbLine
 10
3980.999228297054
 20
-2613.000150113493
 30
0.0
 11
4396.999228297054
 21
-2613.000150113494
 31
0.0
  0
LINE
  5
32A
330
1F
100
AcDbEntity
  8
0-2_扉
  6
JWW_DASHED1
 62
   120
370
     5
100
AcDbLine
 10
1478.499228297053
 20
-2613.000150113492
 30
0.0
 11
1475.999228297053
 21
-2613.000150113492
 31
0.0
  0
LINE
  5
32B
330
1F
100
AcDbEntity
  8
0-2_扉
  6
Continuous
 62
    92
370
    13
100
AcDbLine
 10
1478.499228297053
 20
-2613.000150113492
 30
0.0
 11
1891.999228297053
 21
-2613.000150113492
 31
0.0
  0
LINE
  5
32C
330
1F
100
AcDbEntity
  8
0-2_扉
  6
JWW_DASHED1
 62
   120
370
     5
100
AcDbLine
 10
4811.499228297053
 20
-2613.000150113493
 30
0.0
 11
4813.999228297053
 21
-2613.000150113493
 31
0.0
  0
LINE
  5
32D
330
1F
100
AcDbEntity
  8
0-2_扉
  6
Continuous
 62
    92
370
    13
100
AcDbLine
 10
4397.999228297054
 20
-2613.000150113494
 30
0.0
 11
4811.499228297053
 21
-2613.000150113494
 31
0.0
  0
ARC
  5
32E
330
1F
100
AcDbEntity
  8
取手
  6
Continuous
 62
    92
370
    13
100
AcDbCircle
 10
1923.999228297054
 20
-1597.000150113492
 30
0.0
 40
1.0
100
AcDbArc
 50
90.0
 51
180.0
  0
LINE
  5
32F
330
1F
100
AcDbEntity
  8
取手
  6
Continuous
 62
    92
370
    13
100
AcDbLine
 10
1931.999228297053
 20
-1596.000150113492
 30
0.0
 11
1923.999228297054
 21
-1596.000150113492
 31
0.0
  0
ARC
  5
330
330
1F
100
AcDbEntity
  8
取手
  6
Continuous
 62
    92
370
    13
100
AcDbCircle
 10
1931.999228297053
 20
-1597.000150113492
 30
0.0
 40
1.0
100
AcDbArc
 50
0.0
 51
90.00000000000001
  0
LINE
  5
331
330
1F
100
AcDbEntity
  8
取手
  6
Continuous
 62
    92
370
    13
100
AcDbLine
 10
1932.999228297054
 20
-1729.000150113492
 30
0.0
 11
1932.999228297054
 21
-1597.000150113492
 31
0.0
  0
ARC
  5
332
330
1F
100
AcDbEntity
  8
取手
  6
Continuous
 62
    92
370
    13
100
AcDbCircle
 10
1931.999228297053
 20
-1729.000150113492
 30
0.0
 40
1.0
100
AcDbArc
 50
270.0
 51
0.0
  0
LINE
  5
333
330
1F
100
AcDbEntity
  8
取手
  6
Continuous
 62
    92
370
    13
100
AcDbLine
 10
1923.999228297054
 20
-1730.000150113492
 30
0.0
 11
1931.999228297053
 21
-1730.000150113492
 31
0.0
  0
LINE
  5
334
330
1F
100
AcDbEntity
  8
取手
  6
Continuous
 62
    92
370
    13
100
AcDbLine
 10
1922.999228297054
 20
-1729.000150113492
 30
0.0
 11
1922.999228297054
 21
-1597.000150113492
 31
0.0
  0
ARC
  5
335
330
1F
100
AcDbEntity
  8
取手
  6
Continuous
 62
    92
370
    13
100
AcDbCircle
 10
1923.999228297054
 20
-1729.000150113492
 30
0.0
 40
1.0
100
AcDbArc
 50
180.0
 51
270.0
  0
ARC
  5
336
330
1F
100
AcDbEntity
  8
取手
  6
Continuous
 62
     7
370
     9
100
AcDbCircle
 10
1922.999228297054
 20
-1599.000150113492
 30
0.0
 40
1.0
100
AcDbArc
 50
90.0
 51
180.0
  0
ARC
  5
337
330
1F
100
AcDbEntity
  8
取手
  6
Continuous
 62
     7
370
     9
100
AcDbCircle
 10
1932.999228297054
 20
-1599.000150113492
 30
0.0
 40
1.0
100
AcDbArc
 50
0.0
 51
90.00000000000001
  0
LINE
  5
338
330
1F
100
AcDbEntity
  8
取手
  6
Continuous
 62
     7
370
     9
100
AcDbLine
 10
1933.999228297054
 20
-1617.000150113492
 30
0.0
 11
1933.999228297054
 21
-1599.000150113492
 31
0.0
  0
ARC
  5
339
330
1F
100
AcDbEntity
  8
取手
  6
Continuous
 62
     7
370
     9
100
AcDbCircle
 10
1932.999228297054
 20
-1617.000150113492
 30
0.0
 40
1.0
100
AcDbArc
 50
270.0
 51
0.0
  0
LINE
  5
33A
330
1F
100
AcDbEntity
  8
取手
  6
Continuous
 62
     7
370
     9
100
AcDbLine
 10
1921.999228297053
 20
-1617.000150113492
 30
0.0
 11
1921.999228297053
 21
-1599.000150113492
 31
0.0
  0
ARC
  5
33B
330
1F
100
AcDbEntity
  8
取手
  6
Continuous
 62
     7
370
     9
100
AcDbCircle
 10
1922.999228297054
 20
-1617.000150113492
 30
0.0
 40
1.0
100
AcDbArc
 50
180.0
 51
270.0
  0
ARC
  5
33C
330
1F
100
AcDbEntity
  8
取手
  6
Continuous
 62
     7
370
     9
100
AcDbCircle
 10
1922.999228297054
 20
-1709.000150113492
 30
0.0
 40
1.0
100
AcDbArc
 50
90.0
 51
180.0
  0
ARC
  5
33D
330
1F
100
AcDbEntity
  8
取手
  6
Continuous
 62
     7
370
     9
100
AcDbCircle
 10
1932.999228297054
 20
-1709.000150113492
 30
0.0
 40
1.0
100
AcDbArc
 50
0.0
 51
90.00000000000001
  0
LINE
  5
33E
330
1F
100
AcDbEntity
  8
取手
  6
Continuous
 62
     7
370
     9
100
AcDbLine
 10
1933.999228297054
 20
-1727.000150113492
 30
0.0
 11
1933.999228297054
 21
-1709.000150113492
 31
0.0
  0
ARC
  5
33F
330
1F
100
AcDbEntity
  8
取手
  6
Continuous
 62
     7
370
     9
100
AcDbCircle
 10
1932.999228297054
 20
-1727.000150113492
 30
0.0
 40
1.0
100
AcDbArc
 50
270.0
 51
0.0
  0
LINE
  5
340
330
1F
100
AcDbEntity
  8
取手
  6
Continuous
 62
     7
370
     9
100
AcDbLine
 10
1921.999228297053
 20
-1727.000150113492
 30
0.0
 11
1921.999228297053
 21
-1709.000150113492
 31
0.0
  0
ARC
  5
341
330
1F
100
AcDbEntity
  8
取手
  6
Continuous
 62
     7
370
     9
100
AcDbCircle
 10
1922.999228297054
 20
-1727.000150113492
 30
0.0
 40
1.0
100
AcDbArc
 50
180.0
 51
270.0
  0
ARC
  5
342
330
1F
100
AcDbEntity
  8
取手
  6
Continuous
 62
    92
370
    13
100
AcDbCircle
 10
2758.999228297056
 20
-1597.000150113492
 30
0.0
 40
1.0
100
AcDbArc
 50
90.0
 51
180.0
  0
LINE
  5
343
330
1F
100
AcDbEntity
  8
取手
  6
Continuous
 62
    92
370
    13
100
AcDbLine
 10
2766.999228297054
 20
-1596.000150113492
 30
0.0
 11
2758.999228297056
 21
-1596.000150113492
 31
0.0
  0
ARC
  5
344
330
1F
100
AcDbEntity
  8
取手
  6
Continuous
 62
    92
370
    13
100
AcDbCircle
 10
2766.999228297054
 20
-1597.000150113492
 30
0.0
 40
1.0
100
AcDbArc
 50
0.0
 51
90.00000000000001
  0
LINE
  5
345
330
1F
100
AcDbEntity
  8
取手
  6
Continuous
 62
    92
370
    13
100
AcDbLine
 10
2767.999228297055
 20
-1729.000150113492
 30
0.0
 11
2767.999228297055
 21
-1597.000150113492
 31
0.0
  0
ARC
  5
346
330
1F
100
AcDbEntity
  8
取手
  6
Continuous
 62
    92
370
    13
100
AcDbCircle
 10
2766.999228297054
 20
-1729.000150113492
 30
0.0
 40
1.0
100
AcDbArc
 50
270.0
 51
0.0
  0
LINE
  5
347
330
1F
100
AcDbEntity
  8
取手
  6
Continuous
 62
    92
370
    13
100
AcDbLine
 10
2758.999228297056
 20
-1730.000150113492
 30
0.0
 11
2766.999228297054
 21
-1730.000150113492
 31
0.0
  0
LINE
  5
348
330
1F
100
AcDbEntity
  8
取手
  6
Continuous
 62
    92
370
    13
100
AcDbLine
 10
2757.999228297055
 20
-1729.000150113492
 30
0.0
 11
2757.999228297055
 21
-1597.000150113492
 31
0.0
  0
ARC
  5
349
330
1F
100
AcDbEntity
  8
取手
  6
Continuous
 62
    92
370
    13
100
AcDbCircle
 10
2758.999228297056
 20
-1729.000150113492
 30
0.0
 40
1.0
100
AcDbArc
 50
180.0
 51
270.0
  0
ARC
  5
34A
330
1F
100
AcDbEntity
  8
取手
  6
Continuous
 62
     7
370
     9
100
AcDbCircle
 10
2757.999228297055
 20
-1599.000150113492
 30
0.0
 40
1.0
100
AcDbArc
 50
90.0
 51
180.0
  0
ARC
  5
34B
330
1F
100
AcDbEntity
  8
取手
  6
Continuous
 62
     7
370
     9
100
AcDbCircle
 10
2767.999228297055
 20
-1599.000150113492
 30
0.0
 40
1.0
100
AcDbArc
 50
0.0
 51
90.00000000000001
  0
LINE
  5
34C
330
1F
100
AcDbEntity
  8
取手
  6
Continuous
 62
     7
370
     9
100
AcDbLine
 10
2768.999228297055
 20
-1617.000150113492
 30
0.0
 11
2768.999228297055
 21
-1599.000150113492
 31
0.0
  0
ARC
  5
34D
330
1F
100
AcDbEntity
  8
取手
  6
Continuous
 62
     7
370
     9
100
AcDbCircle
 10
2767.999228297055
 20
-1617.000150113492
 30
0.0
 40
1.0
100
AcDbArc
 50
270.0
 51
0.0
  0
LINE
  5
34E
330
1F
100
AcDbEntity
  8
取手
  6
Continuous
 62
     7
370
     9
100
AcDbLine
 10
2756.999228297055
 20
-1617.000150113492
 30
0.0
 11
2756.999228297055
 21
-1599.000150113492
 31
0.0
  0
ARC
  5
34F
330
1F
100
AcDbEntity
  8
取手
  6
Continuous
 62
     7
370
     9
100
AcDbCircle
 10
2757.999228297055
 20
-1617.000150113492
 30
0.0
 40
1.0
100
AcDbArc
 50
180.0
 51
270.0
  0
ARC
  5
350
330
1F
100
AcDbEntity
  8
取手
  6
Continuous
 62
     7
370
     9
100
AcDbCircle
 10
2757.999228297055
 20
-1709.000150113492
 30
0.0
 40
1.0
100
AcDbArc
 50
90.0
 51
180.0
  0
ARC
  5
351
330
1F
100
AcDbEntity
  8
取手
  6
Continuous
 62
     7
370
     9
100
AcDbCircle
 10
2767.999228297055
 20
-1709.000150113492
 30
0.0
 40
1.0
100
AcDbArc
 50
0.0
 51
90.00000000000001
  0
LINE
  5
352
330
1F
100
AcDbEntity
  8
取手
  6
Continuous
 62
     7
370
     9
100
AcDbLine
 10
2768.999228297055
 20
-1727.000150113492
 30
0.0
 11
2768.999228297055
 21
-1709.000150113492
 31
0.0
  0
ARC
  5
353
330
1F
100
AcDbEntity
  8
取手
  6
Continuous
 62
     7
370
     9
100
AcDbCircle
 10
2767.999228297055
 20
-1727.000150113492
 30
0.0
 40
1.0
100
AcDbArc
 50
270.0
 51
0.0
  0
LINE
  5
354
330
1F
100
AcDbEntity
  8
取手
  6
Continuous
 62
     7
370
     9
100
AcDbLine
 10
2756.999228297055
 20
-1727.000150113492
 30
0.0
 11
2756.999228297055
 21
-1709.000150113492
 31
0.0
  0
ARC
  5
355
330
1F
100
AcDbEntity
  8
取手
  6
Continuous
 62
     7
370
     9
100
AcDbCircle
 10
2757.999228297055
 20
-1727.000150113492
 30
0.0
 40
1.0
100
AcDbArc
 50
180.0
 51
270.0
  0
ARC
  5
356
330
1F
100
AcDbEntity
  8
取手
  6
Continuous
 62
    92
370
    13
100
AcDbCircle
 10
3522.999228297055
 20
-1597.000150113493
 30
0.0
 40
1.0
100
AcDbArc
 50
90.0
 51
180.0
  0
LINE
  5
357
330
1F
100
AcDbEntity
  8
取手
  6
Continuous
 62
    92
370
    13
100
AcDbLine
 10
3530.999228297054
 20
-1596.000150113493
 30
0.0
 11
3522.999228297055
 21
-1596.000150113493
 31
0.0
  0
ARC
  5
358
330
1F
100
AcDbEntity
  8
取手
  6
Continuous
 62
    92
370
    13
100
AcDbCircle
 10
3530.999228297054
 20
-1597.000150113493
 30
0.0
 40
1.0
100
AcDbArc
 50
0.0
 51
90.00000000000001
  0
LINE
  5
359
330
1F
100
AcDbEntity
  8
取手
  6
Continuous
 62
    92
370
    13
100
AcDbLine
 10
3531.999228297055
 20
-1729.000150113493
 30
0.0
 11
3531.999228297055
 21
-1597.000150113493
 31
0.0
  0
ARC
  5
35A
330
1F
100
AcDbEntity
  8
取手
  6
Continuous
 62
    92
370
    13
100
AcDbCircle
 10
3530.999228297054
 20
-1729.000150113493
 30
0.0
 40
1.0
100
AcDbArc
 50
270.0
 51
0.0
  0
LINE
  5
35B
330
1F
100
AcDbEntity
  8
取手
  6
Continuous
 62
    92
370
    13
100
AcDbLine
 10
3522.999228297055
 20
-1730.000150113493
 30
0.0
 11
3530.999228297054
 21
-1730.000150113493
 31
0.0
  0
LINE
  5
35C
330
1F
100
AcDbEntity
  8
取手
  6
Continuous
 62
    92
370
    13
100
AcDbLine
 10
3521.999228297055
 20
-1729.000150113493
 30
0.0
 11
3521.999228297055
 21
-1597.000150113493
 31
0.0
  0
ARC
  5
35D
330
1F
100
AcDbEntity
  8
取手
  6
Continuous
 62
    92
370
    13
100
AcDbCircle
 10
3522.999228297055
 20
-1729.000150113493
 30
0.0
 40
1.0
100
AcDbArc
 50
180.0
 51
270.0
  0
ARC
  5
35E
330
1F
100
AcDbEntity
  8
取手
  6
Continuous
 62
     7
370
     9
100
AcDbCircle
 10
3521.999228297055
 20
-1599.000150113493
 30
0.0
 40
1.0
100
AcDbArc
 50
90.0
 51
180.0
  0
ARC
  5
35F
330
1F
100
AcDbEntity
  8
取手
  6
Continuous
 62
     7
370
     9
100
AcDbCircle
 10
3531.999228297055
 20
-1599.000150113493
 30
0.0
 40
1.0
100
AcDbArc
 50
0.0
 51
90.00000000000001
  0
LINE
  5
360
330
1F
100
AcDbEntity
  8
取手
  6
Continuous
 62
     7
370
     9
100
AcDbLine
 10
3532.999228297055
 20
-1617.000150113493
 30
0.0
 11
3532.999228297055
 21
-1599.000150113493
 31
0.0
  0
ARC
  5
361
330
1F
100
AcDbEntity
  8
取手
  6
Continuous
 62
     7
370
     9
100
AcDbCircle
 10
3531.999228297055
 20
-1617.000150113493
 30
0.0
 40
1.0
100
AcDbArc
 50
270.0
 51
0.0
  0
LINE
  5
362
330
1F
100
AcDbEntity
  8
取手
  6
Continuous
 62
     7
370
     9
100
AcDbLine
 10
3520.999228297055
 20
-1617.000150113493
 30
0.0
 11
3520.999228297055
 21
-1599.000150113493
 31
0.0
  0
ARC
  5
363
330
1F
100
AcDbEntity
  8
取手
  6
Continuous
 62
     7
370
     9
100
AcDbCircle
 10
3521.999228297055
 20
-1617.000150113493
 30
0.0
 40
1.0
100
AcDbArc
 50
180.0
 51
270.0
  0
ARC
  5
364
330
1F
100
AcDbEntity
  8
取手
  6
Continuous
 62
     7
370
     9
100
AcDbCircle
 10
3521.999228297055
 20
-1709.000150113493
 30
0.0
 40
1.0
100
AcDbArc
 50
90.0
 51
180.0
  0
ARC
  5
365
330
1F
100
AcDbEntity
  8
取手
  6
Continuous
 62
     7
370
     9
100
AcDbCircle
 10
3531.999228297055
 20
-1709.000150113493
 30
0.0
 40
1.0
100
AcDbArc
 50
0.0
 51
90.00000000000001
  0
LINE
  5
366
330
1F
100
AcDbEntity
  8
取手
  6
Continuous
 62
     7
370
     9
100
AcDbLine
 10
3532.999228297055
 20
-1727.000150113493
 30
0.0
 11
3532.999228297055
 21
-1709.000150113493
 31
0.0
  0
ARC
  5
367
330
1F
100
AcDbEntity
  8
取手
  6
Continuous
 62
     7
370
     9
100
AcDbCircle
 10
3531.999228297055
 20
-1727.000150113493
 30
0.0
 40
1.0
100
AcDbArc
 50
270.0
 51
0.0
  0
LINE
  5
368
330
1F
100
AcDbEntity
  8
取手
  6
Continuous
 62
     7
370
     9
100
AcDbLine
 10
3520.999228297055
 20
-1727.000150113493
 30
0.0
 11
3520.999228297055
 21
-1709.000150113493
 31
0.0
  0
ARC
  5
369
330
1F
100
AcDbEntity
  8
取手
  6
Continuous
 62
     7
370
     9
100
AcDbCircle
 10
3521.999228297055
 20
-1727.000150113493
 30
0.0
 40
1.0
100
AcDbArc
 50
180.0
 51
270.0
  0
ARC
  5
36A
330
1F
100
AcDbEntity
  8
取手
  6
Continuous
 62
    92
370
    13
100
AcDbCircle
 10
4357.999228297056
 20
-1597.000150113493
 30
0.0
 40
1.0
100
AcDbArc
 50
90.0
 51
180.0
  0
LINE
  5
36B
330
1F
100
AcDbEntity
  8
取手
  6
Continuous
 62
    92
370
    13
100
AcDbLine
 10
4365.999228297053
 20
-1596.000150113494
 30
0.0
 11
4357.999228297056
 21
-1596.000150113494
 31
0.0
  0
ARC
  5
36C
330
1F
100
AcDbEntity
  8
取手
  6
Continuous
 62
    92
370
    13
100
AcDbCircle
 10
4365.999228297053
 20
-1597.000150113493
 30
0.0
 40
1.0
100
AcDbArc
 50
0.0
 51
90.00000000000001
  0
LINE
  5
36D
330
1F
100
AcDbEntity
  8
取手
  6
Continuous
 62
    92
370
    13
100
AcDbLine
 10
4366.999228297054
 20
-1729.000150113494
 30
0.0
 11
4366.999228297054
 21
-1597.000150113493
 31
0.0
  0
ARC
  5
36E
330
1F
100
AcDbEntity
  8
取手
  6
Continuous
 62
    92
370
    13
100
AcDbCircle
 10
4365.999228297053
 20
-1729.000150113494
 30
0.0
 40
1.0
100
AcDbArc
 50
270.0
 51
0.0
  0
LINE
  5
36F
330
1F
100
AcDbEntity
  8
取手
  6
Continuous
 62
    92
370
    13
100
AcDbLine
 10
4357.999228297056
 20
-1730.000150113494
 30
0.0
 11
4365.999228297053
 21
-1730.000150113494
 31
0.0
  0
LINE
  5
370
330
1F
100
AcDbEntity
  8
取手
  6
Continuous
 62
    92
370
    13
100
AcDbLine
 10
4356.999228297055
 20
-1729.000150113494
 30
0.0
 11
4356.999228297055
 21
-1597.000150113493
 31
0.0
  0
ARC
  5
371
330
1F
100
AcDbEntity
  8
取手
  6
Continuous
 62
    92
370
    13
100
AcDbCircle
 10
4357.999228297056
 20
-1729.000150113494
 30
0.0
 40
1.0
100
AcDbArc
 50
180.0
 51
270.0
  0
ARC
  5
372
330
1F
100
AcDbEntity
  8
取手
  6
Continuous
 62
     7
370
     9
100
AcDbCircle
 10
4356.999228297055
 20
-1599.000150113494
 30
0.0
 40
1.0
100
AcDbArc
 50
90.0
 51
180.0
  0
ARC
  5
373
330
1F
100
AcDbEntity
  8
取手
  6
Continuous
 62
     7
370
     9
100
AcDbCircle
 10
4366.999228297054
 20
-1599.000150113494
 30
0.0
 40
1.0
100
AcDbArc
 50
0.0
 51
90.00000000000001
  0
LINE
  5
374
330
1F
100
AcDbEntity
  8
取手
  6
Continuous
 62
     7
370
     9
100
AcDbLine
 10
4367.999228297055
 20
-1617.000150113494
 30
0.0
 11
4367.999228297055
 21
-1599.000150113494
 31
0.0
  0
ARC
  5
375
330
1F
100
AcDbEntity
  8
取手
  6
Continuous
 62
     7
370
     9
100
AcDbCircle
 10
4366.999228297054
 20
-1617.000150113494
 30
0.0
 40
1.0
100
AcDbArc
 50
270.0
 51
0.0
  0
LINE
  5
376
330
1F
100
AcDbEntity
  8
取手
  6
Continuous
 62
     7
370
     9
100
AcDbLine
 10
4355.999228297054
 20
-1617.000150113494
 30
0.0
 11
4355.999228297054
 21
-1599.000150113494
 31
0.0
  0
ARC
  5
377
330
1F
100
AcDbEntity
  8
取手
  6
Continuous
 62
     7
370
     9
100
AcDbCircle
 10
4356.999228297055
 20
-1617.000150113494
 30
0.0
 40
1.0
100
AcDbArc
 50
180.0
 51
270.0
  0
ARC
  5
378
330
1F
100
AcDbEntity
  8
取手
  6
Continuous
 62
     7
370
     9
100
AcDbCircle
 10
4356.999228297055
 20
-1709.000150113494
 30
0.0
 40
1.0
100
AcDbArc
 50
90.0
 51
180.0
  0
ARC
  5
379
330
1F
100
AcDbEntity
  8
取手
  6
Continuous
 62
     7
370
     9
100
AcDbCircle
 10
4366.999228297054
 20
-1709.000150113494
 30
0.0
 40
1.0
100
AcDbArc
 50
0.0
 51
90.00000000000001
  0
LINE
  5
37A
330
1F
100
AcDbEntity
  8
取手
  6
Continuous
 62
     7
370
     9
100
AcDbLine
 10
4367.999228297055
 20
-1727.000150113494
 30
0.0
 11
4367.999228297055
 21
-1709.000150113494
 31
0.0
  0
ARC
  5
37B
330
1F
100
AcDbEntity
  8
取手
  6
Continuous
 62
     7
370
     9
100
AcDbCircle
 10
4366.999228297054
 20
-1727.000150113494
 30
0.0
 40
1.0
100
AcDbArc
 50
270.0
 51
0.0
  0
LINE
  5
37C
330
1F
100
AcDbEntity
  8
取手
  6
Continuous
 62
     7
370
     9
100
AcDbLine
 10
4355.999228297054
 20
-1727.000150113494
 30
0.0
 11
4355.999228297054
 21
-1709.000150113494
 31
0.0
  0
ARC
  5
37D
330
1F
100
AcDbEntity
  8
取手
  6
Continuous
 62
     7
370
     9
100
AcDbCircle
 10
4356.999228297055
 20
-1727.000150113494
 30
0.0
 40
1.0
100
AcDbArc
 50
180.0
 51
270.0
  0
LINE
  5
37E
330
1F
100
AcDbEntity
  8
0-B_寸法
  6
Continuous
 62
   120
370
     5
100
AcDbLine
 10
1148.499228297053
 20
-2613.000150113493
 30
0.0
 11
1398.499228297053
 21
-2613.000150113493
 31
0.0
  0
LWPOLYLINE
  5
37F
330
1F
100
AcDbEntity
  8
0-B_寸法
  6
Continuous
 62
     7
370
     9
100
AcDbPolyline
 90
        4
 70
     1
 43
3.0
 10
1149.999228297053
 20
-2613.000150113493
 42
0.4142135623731
 10
1148.499228297053
 20
-2611.500150113493
 42
0.4142135623731
 10
1146.999228297054
 20
-2613.000150113493
 42
0.4142135623731
 10
1148.499228297053
 20
-2614.500150113493
 42
0.4142135623731
  0
LINE
  5
380
330
1F
100
AcDbEntity
  8
0-0_補助線
  6
JWW_HOJO
 62
     7
370
     9
100
AcDbLine
 10
-5490.000018557986
 20
-285.5001501134922
 30
0.0
 11
5689.998977248733
 21
-285.5001501134922
 31
0.0
  0
LINE
  5
381
330
1F
100
AcDbEntity
  8
0-4_枠
  6
Continuous
 62
    92
370
    13
100
AcDbLine
 10
-3744.000144082147
 20
-2633.500150113492
 30
0.0
 11
-3744.000144082147
 21
-285.5001501134905
 31
0.0
  0
LINE
  5
382
330
1F
100
AcDbEntity
  8
0-4_枠
  6
Continuous
 62
    92
370
    13
100
AcDbLine
 10
-3714.000144082147
 20
-2633.500150113492
 30
0.0
 11
-3714.000144082147
 21
-321.500150113491
 31
0.0
  0
LINE
  5
383
330
1F
100
AcDbEntity
  8
0-4_枠
  6
Continuous
 62
    92
370
    13
100
AcDbLine
 10
-1186.000144082145
 20
-2633.500150113493
 30
0.0
 11
-1186.000144082145
 21
-285.5001501134922
 31
0.0
  0
LINE
  5
384
330
1F
100
AcDbEntity
  8
0-4_枠
  6
Continuous
 62
    92
370
    13
100
AcDbLine
 10
-1216.000144082145
 20
-2633.500150113493
 30
0.0
 11
-1216.000144082145
 21
-321.5001501134918
 31
0.0
  0
LINE
  5
385
330
1F
100
AcDbEntity
  8
0-4_枠
  6
Continuous
 62
    92
370
    13
100
AcDbLine
 10
-3744.000144082147
 20
-285.5001501134905
 30
0.0
 11
-1186.000144082145
 21
-285.5001501134922
 31
0.0
  0
LINE
  5
386
330
1F
100
AcDbEntity
  8
0-4_枠
  6
Continuous
 62
    92
370
    13
100
AcDbLine
 10
-3714.000144082147
 20
-321.500150113491
 30
0.0
 11
-1216.000144082145
 21
-321.5001501134918
 31
0.0
  0
LINE
  5
387
330
1F
100
AcDbEntity
  8
0-2_扉
  6
Continuous
 62
    92
370
    13
100
AcDbLine
 10
-2046.500144082145
 20
-329.0001501134918
 30
0.0
 11
-1630.500144082145
 21
-329.0001501134918
 31
0.0
  0
LINE
  5
388
330
1F
100
AcDbEntity
  8
0-2_扉
  6
Continuous
 62
    92
370
    13
100
AcDbLine
 10
-2464.500144082145
 20
-329.000150113491
 30
0.0
 11
-2048.500144082145
 21
-329.000150113491
 31
0.0
  0
LINE
  5
389
330
1F
100
AcDbEntity
  8
0-2_扉
  6
Continuous
 62
    92
370
    13
100
AcDbLine
 10
-2881.500144082145
 20
-329.000150113491
 30
0.0
 11
-2465.500144082144
 21
-329.000150113491
 31
0.0
  0
LINE
  5
38A
330
1F
100
AcDbEntity
  8
0-2_扉
  6
Continuous
 62
    92
370
    13
100
AcDbLine
 10
-3299.500144082147
 20
-329.000150113491
 30
0.0
 11
-2883.500144082146
 21
-329.000150113491
 31
0.0
  0
LINE
  5
38B
330
1F
100
AcDbEntity
  8
0-2_扉
  6
Continuous
 62
    92
370
    13
100
AcDbLine
 10
-2883.500144082146
 20
-329.000150113491
 30
0.0
 11
-2883.500144082146
 21
-2613.000150113492
 31
0.0
  0
LINE
  5
38C
330
1F
100
AcDbEntity
  8
0-2_扉
  6
Continuous
 62
    92
370
    13
100
AcDbLine
 10
-2881.500144082145
 20
-329.000150113491
 30
0.0
 11
-2881.500144082145
 21
-2613.000150113492
 31
0.0
  0
LINE
  5
38D
330
1F
100
AcDbEntity
  8
0-2_扉
  6
Continuous
 62
    92
370
    13
100
AcDbLine
 10
-2465.500144082144
 20
-329.000150113491
 30
0.0
 11
-2465.500144082144
 21
-2613.000150113492
 31
0.0
  0
LINE
  5
38E
330
1F
100
AcDbEntity
  8
0-2_扉
  6
Continuous
 62
    92
370
    13
100
AcDbLine
 10
-2464.500144082145
 20
-329.000150113491
 30
0.0
 11
-2464.500144082145
 21
-2613.000150113492
 31
0.0
  0
LINE
  5
38F
330
1F
100
AcDbEntity
  8
0-2_扉
  6
Continuous
 62
    92
370
    13
100
AcDbLine
 10
-2048.500144082145
 20
-329.0001501134918
 30
0.0
 11
-2048.500144082145
 21
-2613.000150113492
 31
0.0
  0
LINE
  5
390
330
1F
100
AcDbEntity
  8
0-2_扉
  6
Continuous
 62
    92
370
    13
100
AcDbLine
 10
-2046.500144082145
 20
-329.0001501134918
 30
0.0
 11
-2046.500144082145
 21
-2613.000150113492
 31
0.0
  0
LINE
  5
391
330
1F
100
AcDbEntity
  8
0-2_扉
  6
Continuous
 62
    92
370
    13
100
AcDbLine
 10
-1630.500144082145
 20
-329.0001501134918
 30
0.0
 11
-1630.500144082145
 21
-2613.000150113493
 31
0.0
  0
LINE
  5
392
330
1F
100
AcDbEntity
  8
0-2_扉
  6
Continuous
 62
    92
370
    13
100
AcDbLine
 10
-1629.500144082144
 20
-329.0001501134918
 30
0.0
 11
-1629.500144082144
 21
-2613.000150113493
 31
0.0
  0
LINE
  5
393
330
1F
100
AcDbEntity
  8
0-2_扉
  6
JWW_DASHED1
 62
   120
370
     5
100
AcDbLine
 10
-3716.500144082146
 20
-2613.000150113492
 30
0.0
 11
-3716.500144082146
 21
-329.000150113491
 31
0.0
  0
LINE
  5
394
330
1F
100
AcDbEntity
  8
0-2_扉
  6
JWW_DASHED1
 62
   120
370
     5
100
AcDbLine
 10
-1213.500144082146
 20
-2613.000150113493
 30
0.0
 11
-1213.500144082146
 21
-329.0001501134918
 31
0.0
  0
LINE
  5
395
330
1F
100
AcDbEntity
  8
0-2_扉
  6
JWW_DASHED1
 62
   120
370
     5
100
AcDbLine
 10
-3714.000144082147
 20
-329.000150113491
 30
0.0
 11
-3716.500144082146
 21
-329.000150113491
 31
0.0
  0
LINE
  5
396
330
1F
100
AcDbEntity
  8
0-2_扉
  6
Continuous
 62
    92
370
    13
100
AcDbLine
 10
-3714.000144082147
 20
-329.000150113491
 30
0.0
 11
-3300.500144082146
 21
-329.000150113491
 31
0.0
  0
LINE
  5
397
330
1F
100
AcDbEntity
  8
0-2_扉
  6
JWW_DASHED1
 62
   120
370
     5
100
AcDbLine
 10
-1216.000144082145
 20
-329.0001501134918
 30
0.0
 11
-1213.500144082146
 21
-329.0001501134918
 31
0.0
  0
LINE
  5
398
330
1F
100
AcDbEntity
  8
0-2_扉
  6
Continuous
 62
    92
370
    13
100
AcDbLine
 10
-1629.500144082144
 20
-329.0001501134918
 30
0.0
 11
-1216.000144082145
 21
-329.0001501134918
 31
0.0
  0
LINE
  5
399
330
1F
100
AcDbEntity
  8
0-2_扉
  6
Continuous
 62
    92
370
    13
100
AcDbLine
 10
-3299.500144082147
 20
-329.000150113491
 30
0.0
 11
-3299.500144082147
 21
-2613.000150113492
 31
0.0
  0
LINE
  5
39A
330
1F
100
AcDbEntity
  8
0-2_扉
  6
Continuous
 62
    92
370
    13
100
AcDbLine
 10
-3300.500144082146
 20
-329.000150113491
 30
0.0
 11
-3300.500144082146
 21
-2613.000150113492
 31
0.0
  0
LINE
  5
39B
330
1F
100
AcDbEntity
  8
0-B_寸法
  6
Continuous
 62
   120
370
     5
100
AcDbLine
 10
-4044.000144082147
 20
-329.0001501134918
 30
0.0
 11
-4044.000144082147
 21
-2613.000150113493
 31
0.0
  0
LINE
  5
39C
330
1F
100
AcDbEntity
  8
0-B_寸法
  6
Continuous
 62
   120
370
     5
100
AcDbLine
 10
-4044.000144082147
 20
-329.0001501134918
 30
0.0
 11
-3794.000144082147
 21
-329.0001501134918
 31
0.0
  0
LWPOLYLINE
  5
39D
330
1F
100
AcDbEntity
  8
0-B_寸法
  6
Continuous
 62
     7
370
     9
100
AcDbPolyline
 90
        4
 70
     1
 43
3.0
 10
-4042.500144082146
 20
-329.0001501134918
 42
0.4142135623731
 10
-4044.000144082147
 20
-327.5001501134918
 42
0.4142135623731
 10
-4045.500144082147
 20
-329.0001501134918
 42
0.4142135623731
 10
-4044.000144082147
 20
-330.5001501134918
 42
0.4142135623731
  0
LINE
  5
39E
330
1F
100
AcDbEntity
  8
0-4_枠
  6
Continuous
 62
    92
370
    13
100
AcDbLine
 10
1448.499228297053
 20
-2633.500150113492
 30
0.0
 11
1448.499228297053
 21
-285.5001501134905
 31
0.0
  0
LINE
  5
39F
330
1F
100
AcDbEntity
  8
0-4_枠
  6
Continuous
 62
    92
370
    13
100
AcDbLine
 10
1478.499228297053
 20
-2633.500150113492
 30
0.0
 11
1478.499228297053
 21
-321.500150113491
 31
0.0
  0
LINE
  5
3A0
330
1F
100
AcDbEntity
  8
0-4_枠
  6
Continuous
 62
    92
370
    13
100
AcDbLine
 10
4841.499228297053
 20
-2633.500150113493
 30
0.0
 11
4841.499228297053
 21
-285.5001501134922
 31
0.0
  0
LINE
  5
3A1
330
1F
100
AcDbEntity
  8
0-4_枠
  6
Continuous
 62
    92
370
    13
100
AcDbLine
 10
4811.499228297053
 20
-2633.500150113493
 30
0.0
 11
4811.499228297053
 21
-321.5001501134918
 31
0.0
  0
LINE
  5
3A2
330
1F
100
AcDbEntity
  8
0-4_枠
  6
Continuous
 62
    92
370
    13
100
AcDbLine
 10
1448.499228297053
 20
-285.5001501134905
 30
0.0
 11
4841.499228297053
 21
-285.5001501134922
 31
0.0
  0
LINE
  5
3A3
330
1F
100
AcDbEntity
  8
0-4_枠
  6
Continuous
 62
    92
370
    13
100
AcDbLine
 10
1478.499228297053
 20
-321.500150113491
 30
0.0
 11
4811.499228297053
 21
-321.5001501134918
 31
0.0
  0
LINE
  5
3A4
330
1F
100
AcDbEntity
  8
0-2_扉
  6
Continuous
 62
    92
370
    13
100
AcDbLine
 10
2727.999228297054
 20
-329.000150113491
 30
0.0
 11
3143.999228297055
 21
-329.000150113491
 31
0.0
  0
LINE
  5
3A5
330
1F
100
AcDbEntity
  8
0-2_扉
  6
Continuous
 62
    92
370
    13
100
AcDbLine
 10
2310.999228297054
 20
-329.000150113491
 30
0.0
 11
2726.999228297055
 21
-329.000150113491
 31
0.0
  0
LINE
  5
3A6
330
1F
100
AcDbEntity
  8
0-2_扉
  6
Continuous
 62
    92
370
    13
100
AcDbLine
 10
1892.999228297054
 20
-329.000150113491
 30
0.0
 11
2308.999228297054
 21
-329.000150113491
 31
0.0
  0
LINE
  5
3A7
330
1F
100
AcDbEntity
  8
0-2_扉
  6
Continuous
 62
    92
370
    13
100
AcDbLine
 10
1892.999228297054
 20
-329.000150113491
 30
0.0
 11
1892.999228297054
 21
-2613.000150113492
 31
0.0
  0
LINE
  5
3A8
330
1F
100
AcDbEntity
  8
0-2_扉
  6
Continuous
 62
    92
370
    13
100
AcDbLine
 10
1891.999228297053
 20
-329.000150113491
 30
0.0
 11
1891.999228297053
 21
-2613.000150113492
 31
0.0
  0
LINE
  5
3A9
330
1F
100
AcDbEntity
  8
0-2_扉
  6
Continuous
 62
    92
370
    13
100
AcDbLine
 10
2308.999228297054
 20
-329.000150113491
 30
0.0
 11
2308.999228297054
 21
-2613.000150113492
 31
0.0
  0
LINE
  5
3AA
330
1F
100
AcDbEntity
  8
0-2_扉
  6
Continuous
 62
    92
370
    13
100
AcDbLine
 10
2310.999228297054
 20
-329.000150113491
 30
0.0
 11
2310.999228297054
 21
-2613.000150113492
 31
0.0
  0
LINE
  5
3AB
330
1F
100
AcDbEntity
  8
0-2_扉
  6
Continuous
 62
    92
370
    13
100
AcDbLine
 10
2726.999228297055
 20
-329.000150113491
 30
0.0
 11
2726.999228297055
 21
-2613.000150113492
 31
0.0
  0
LINE
  5
3AC
330
1F
100
AcDbEntity
  8
0-2_扉
  6
Continuous
 62
    92
370
    13
100
AcDbLine
 10
2727.999228297054
 20
-329.000150113491
 30
0.0
 11
2727.999228297054
 21
-2613.000150113492
 31
0.0
  0
LINE
  5
3AD
330
1F
100
AcDbEntity
  8
0-2_扉
  6
Continuous
 62
    92
370
    13
100
AcDbLine
 10
3143.999228297055
 20
-329.0001501134918
 30
0.0
 11
3143.999228297055
 21
-2613.000150113492
 31
0.0
  0
LINE
  5
3AE
330
1F
100
AcDbEntity
  8
0-2_扉
  6
Continuous
 62
    92
370
    13
100
AcDbLine
 10
3145.999228297055
 20
-329.0001501134918
 30
0.0
 11
3145.999228297055
 21
-2613.000150113492
 31
0.0
  0
LINE
  5
3AF
330
1F
100
AcDbEntity
  8
0-2_扉
  6
Continuous
 62
    92
370
    13
100
AcDbLine
 10
3980.999228297054
 20
-329.0001501134918
 30
0.0
 11
4396.999228297054
 21
-329.0001501134918
 31
0.0
  0
LINE
  5
3B0
330
1F
100
AcDbEntity
  8
0-2_扉
  6
Continuous
 62
    92
370
    13
100
AcDbLine
 10
3145.999228297055
 20
-329.0001501134918
 30
0.0
 11
3561.999228297055
 21
-329.0001501134918
 31
0.0
  0
LINE
  5
3B1
330
1F
100
AcDbEntity
  8
0-2_扉
  6
Continuous
 62
    92
370
    13
100
AcDbLine
 10
3562.999228297055
 20
-329.0001501134918
 30
0.0
 11
3978.999228297054
 21
-329.0001501134918
 31
0.0
  0
LINE
  5
3B2
330
1F
100
AcDbEntity
  8
0-2_扉
  6
Continuous
 62
    92
370
    13
100
AcDbLine
 10
3561.999228297055
 20
-329.0001501134918
 30
0.0
 11
3561.999228297055
 21
-2613.000150113493
 31
0.0
  0
LINE
  5
3B3
330
1F
100
AcDbEntity
  8
0-2_扉
  6
Continuous
 62
    92
370
    13
100
AcDbLine
 10
3562.999228297055
 20
-329.0001501134918
 30
0.0
 11
3562.999228297055
 21
-2613.000150113493
 31
0.0
  0
LINE
  5
3B4
330
1F
100
AcDbEntity
  8
0-2_扉
  6
Continuous
 62
    92
370
    13
100
AcDbLine
 10
3980.999228297054
 20
-329.0001501134918
 30
0.0
 11
3980.999228297054
 21
-2613.000150113493
 31
0.0
  0
LINE
  5
3B5
330
1F
100
AcDbEntity
  8
0-2_扉
  6
Continuous
 62
    92
370
    13
100
AcDbLine
 10
3978.999228297054
 20
-329.0001501134918
 30
0.0
 11
3978.999228297054
 21
-2613.000150113493
 31
0.0
  0
LINE
  5
3B6
330
1F
100
AcDbEntity
  8
0-2_扉
  6
Continuous
 62
    92
370
    13
100
AcDbLine
 10
4397.999228297054
 20
-329.0001501134918
 30
0.0
 11
4397.999228297054
 21
-2613.000150113494
 31
0.0
  0
LINE
  5
3B7
330
1F
100
AcDbEntity
  8
0-2_扉
  6
Continuous
 62
    92
370
    13
100
AcDbLine
 10
4396.999228297054
 20
-329.0001501134918
 30
0.0
 11
4396.999228297054
 21
-2613.000150113494
 31
0.0
  0
LINE
  5
3B8
330
1F
100
AcDbEntity
  8
0-2_扉
  6
JWW_DASHED1
 62
   120
370
     5
100
AcDbLine
 10
1475.999228297053
 20
-2613.000150113492
 30
0.0
 11
1475.999228297053
 21
-329.000150113491
 31
0.0
  0
LINE
  5
3B9
330
1F
100
AcDbEntity
  8
0-2_扉
  6
JWW_DASHED1
 62
   120
370
     5
100
AcDbLine
 10
4813.999228297053
 20
-2613.000150113493
 30
0.0
 11
4813.999228297053
 21
-329.0001501134918
 31
0.0
  0
LINE
  5
3BA
330
1F
100
AcDbEntity
  8
0-2_扉
  6
JWW_DASHED1
 62
   120
370
     5
100
AcDbLine
 10
1478.499228297053
 20
-329.000150113491
 30
0.0
 11
1475.999228297053
 21
-329.000150113491
 31
0.0
  0
LINE
  5
3BB
330
1F
100
AcDbEntity
  8
0-2_扉
  6
Continuous
 62
    92
370
    13
100
AcDbLine
 10
1478.499228297053
 20
-329.000150113491
 30
0.0
 11
1891.999228297053
 21
-329.000150113491
 31
0.0
  0
LINE
  5
3BC
330
1F
100
AcDbEntity
  8
0-2_扉
  6
Continuous
 62
    92
370
    13
100
AcDbLine
 10
4397.999228297054
 20
-329.0001501134918
 30
0.0
 11
4811.499228297053
 21
-329.0001501134918
 31
0.0
  0
LINE
  5
3BD
330
1F
100
AcDbEntity
  8
0-2_扉
  6
JWW_DASHED1
 62
   120
370
     5
100
AcDbLine
 10
4811.499228297053
 20
-329.0001501134918
 30
0.0
 11
4813.999228297053
 21
-329.0001501134918
 31
0.0
  0
LINE
  5
3BE
330
1F
100
AcDbEntity
  8
0-B_寸法
  6
Continuous
 62
   120
370
     5
100
AcDbLine
 10
1148.499228297053
 20
-329.0001501134918
 30
0.0
 11
1148.499228297053
 21
-2613.000150113493
 31
0.0
  0
LINE
  5
3BF
330
1F
100
AcDbEntity
  8
0-B_寸法
  6
Continuous
 62
   120
370
     5
100
AcDbLine
 10
1148.499228297053
 20
-329.0001501134918
 30
0.0
 11
1398.499228297053
 21
-329.0001501134918
 31
0.0
  0
LWPOLYLINE
  5
3C0
330
1F
100
AcDbEntity
  8
0-B_寸法
  6
Continuous
 62
     7
370
     9
100
AcDbPolyline
 90
        4
 70
     1
 43
3.0
 10
1149.999228297053
 20
-329.0001501134918
 42
0.4142135623731
 10
1148.499228297053
 20
-327.5001501134918
 42
0.4142135623731
 10
1146.999228297054
 20
-329.0001501134918
 42
0.4142135623731
 10
1148.499228297053
 20
-330.5001501134918
 42
0.4142135623731
  0
LINE
  5
3C1
330
1F
100
AcDbEntity
  8
0-3_仕上げ
  6
Continuous
 62
     7
370
     9
100
AcDbLine
 10
-3647.500144082146
 20
-2517.000150113493
 30
0.0
 11
-3659.500144082145
 21
-2529.000150113493
 31
0.0
  0
LINE
  5
3C2
330
1F
100
AcDbEntity
  8
0-3_仕上げ
  6
Continuous
 62
     7
370
     9
100
AcDbLine
 10
-3369.500144082146
 20
-2517.000150113493
 30
0.0
 11
-3357.500144082146
 21
-2529.000150113493
 31
0.0
  0
LINE
  5
3C3
330
1F
100
AcDbEntity
  8
0-3_仕上げ
  6
Continuous
 62
     7
370
     9
100
AcDbLine
 10
-3659.500144082146
 20
-2529.000150113493
 30
0.0
 11
-3357.500144082146
 21
-2529.000150113493
 31
0.0
  0
LINE
  5
3C4
330
1F
100
AcDbEntity
  8
0-3_仕上げ
  6
Continuous
 62
     7
370
     9
100
AcDbLine
 10
-3647.500144082146
 20
-2517.000150113493
 30
0.0
 11
-3369.500144082146
 21
-2517.000150113493
 31
0.0
  0
LINE
  5
3C5
330
1F
100
AcDbEntity
  8
0-3_仕上げ
  6
Continuous
 62
     7
370
     9
100
AcDbLine
 10
-3385.500144082146
 20
-2501.000150113493
 30
0.0
 11
-3375.200144082145
 21
-2511.300150113492
 31
0.0
  0
LINE
  5
3C6
330
1F
100
AcDbEntity
  8
0-3_仕上げ
  6
Continuous
 62
     7
370
     9
100
AcDbLine
 10
-3631.500144082145
 20
-2501.000150113493
 30
0.0
 11
-3385.500144082146
 21
-2501.000150113493
 31
0.0
  0
LINE
  5
3C7
330
1F
100
AcDbEntity
  8
0-3_仕上げ
  6
Continuous
 62
     7
370
     9
100
AcDbLine
 10
-3631.500144082145
 20
-2501.000150113493
 30
0.0
 11
-3641.965144082145
 21
-2511.465150113493
 31
0.0
  0
LINE
  5
3C8
330
1F
100
AcDbEntity
  8
0-3_仕上げ
  6
Continuous
 62
     7
370
     9
100
AcDbLine
 10
-3230.500144082146
 20
-2517.000150113493
 30
0.0
 11
-3242.500144082146
 21
-2529.000150113493
 31
0.0
  0
LINE
  5
3C9
330
1F
100
AcDbEntity
  8
0-3_仕上げ
  6
Continuous
 62
     7
370
     9
100
AcDbLine
 10
-2952.500144082146
 20
-2517.000150113493
 30
0.0
 11
-2940.500144082147
 21
-2529.000150113493
 31
0.0
  0
LINE
  5
3CA
330
1F
100
AcDbEntity
  8
0-3_仕上げ
  6
Continuous
 62
     7
370
     9
100
AcDbLine
 10
-3242.500144082147
 20
-2529.000150113493
 30
0.0
 11
-2940.500144082147
 21
-2529.000150113493
 31
0.0
  0
LINE
  5
3CB
330
1F
100
AcDbEntity
  8
0-3_仕上げ
  6
Continuous
 62
     7
370
     9
100
AcDbLine
 10
-3230.500144082146
 20
-2517.000150113493
 30
0.0
 11
-2952.500144082147
 21
-2517.000150113493
 31
0.0
  0
LINE
  5
3CC
330
1F
100
AcDbEntity
  8
0-3_仕上げ
  6
Continuous
 62
     7
370
     9
100
AcDbLine
 10
-2968.500144082146
 20
-2501.000150113493
 30
0.0
 11
-2958.200144082146
 21
-2511.300150113492
 31
0.0
  0
LINE
  5
3CD
330
1F
100
AcDbEntity
  8
0-3_仕上げ
  6
Continuous
 62
     7
370
     9
100
AcDbLine
 10
-3214.500144082146
 20
-2501.000150113493
 30
0.0
 11
-2968.500144082146
 21
-2501.000150113493
 31
0.0
  0
LINE
  5
3CE
330
1F
100
AcDbEntity
  8
0-3_仕上げ
  6
Continuous
 62
     7
370
     9
100
AcDbLine
 10
-3214.500144082146
 20
-2501.000150113493
 30
0.0
 11
-3224.965144082146
 21
-2511.465150113493
 31
0.0
  0
LINE
  5
3CF
330
1F
100
AcDbEntity
  8
0-3_仕上げ
  6
Continuous
 62
     7
370
     9
100
AcDbLine
 10
-2812.500144082144
 20
-2517.000150113493
 30
0.0
 11
-2824.500144082144
 21
-2529.000150113492
 31
0.0
  0
LINE
  5
3D0
330
1F
100
AcDbEntity
  8
0-3_仕上げ
  6
Continuous
 62
     7
370
     9
100
AcDbLine
 10
-2534.500144082144
 20
-2517.000150113493
 30
0.0
 11
-2522.500144082145
 21
-2529.000150113492
 31
0.0
  0
LINE
  5
3D1
330
1F
100
AcDbEntity
  8
0-3_仕上げ
  6
Continuous
 62
     7
370
     9
100
AcDbLine
 10
-2824.500144082145
 20
-2529.000150113492
 30
0.0
 11
-2522.500144082145
 21
-2529.000150113492
 31
0.0
  0
LINE
  5
3D2
330
1F
100
AcDbEntity
  8
0-3_仕上げ
  6
Continuous
 62
     7
370
     9
100
AcDbLine
 10
-2812.500144082144
 20
-2517.000150113492
 30
0.0
 11
-2534.500144082145
 21
-2517.000150113492
 31
0.0
  0
LINE
  5
3D3
330
1F
100
AcDbEntity
  8
0-3_仕上げ
  6
Continuous
 62
     7
370
     9
100
AcDbLine
 10
-2550.500144082144
 20
-2501.000150113492
 30
0.0
 11
-2540.200144082145
 21
-2511.300150113492
 31
0.0
  0
LINE
  5
3D4
330
1F
100
AcDbEntity
  8
0-3_仕上げ
  6
Continuous
 62
     7
370
     9
100
AcDbLine
 10
-2796.500144082144
 20
-2501.000150113492
 30
0.0
 11
-2550.500144082144
 21
-2501.000150113492
 31
0.0
  0
LINE
  5
3D5
330
1F
100
AcDbEntity
  8
0-3_仕上げ
  6
Continuous
 62
     7
370
     9
100
AcDbLine
 10
-2796.500144082144
 20
-2501.000150113492
 30
0.0
 11
-2806.965144082144
 21
-2511.465150113492
 31
0.0
  0
LINE
  5
3D6
330
1F
100
AcDbEntity
  8
0-3_仕上げ
  6
Continuous
 62
     7
370
     9
100
AcDbLine
 10
-2395.500144082145
 20
-2517.000150113493
 30
0.0
 11
-2407.500144082145
 21
-2529.000150113493
 31
0.0
  0
LINE
  5
3D7
330
1F
100
AcDbEntity
  8
0-3_仕上げ
  6
Continuous
 62
     7
370
     9
100
AcDbLine
 10
-2117.500144082146
 20
-2517.000150113493
 30
0.0
 11
-2105.500144082145
 21
-2529.000150113493
 31
0.0
  0
LINE
  5
3D8
330
1F
100
AcDbEntity
  8
0-3_仕上げ
  6
Continuous
 62
     7
370
     9
100
AcDbLine
 10
-2407.500144082145
 20
-2529.000150113493
 30
0.0
 11
-2105.500144082145
 21
-2529.000150113493
 31
0.0
  0
LINE
  5
3D9
330
1F
100
AcDbEntity
  8
0-3_仕上げ
  6
Continuous
 62
     7
370
     9
100
AcDbLine
 10
-2395.500144082145
 20
-2517.000150113493
 30
0.0
 11
-2117.500144082146
 21
-2517.000150113493
 31
0.0
  0
LINE
  5
3DA
330
1F
100
AcDbEntity
  8
0-3_仕上げ
  6
Continuous
 62
     7
370
     9
100
AcDbLine
 10
-2133.500144082145
 20
-2501.000150113493
 30
0.0
 11
-2123.200144082145
 21
-2511.300150113492
 31
0.0
  0
LINE
  5
3DB
330
1F
100
AcDbEntity
  8
0-3_仕上げ
  6
Continuous
 62
     7
370
     9
100
AcDbLine
 10
-2379.500144082145
 20
-2501.000150113493
 30
0.0
 11
-2133.500144082145
 21
-2501.000150113493
 31
0.0
  0
LINE
  5
3DC
330
1F
100
AcDbEntity
  8
0-3_仕上げ
  6
Continuous
 62
     7
370
     9
100
AcDbLine
 10
-2379.500144082145
 20
-2501.000150113493
 30
0.0
 11
-2389.965144082144
 21
-2511.465150113493
 31
0.0
  0
LINE
  5
3DD
330
1F
100
AcDbEntity
  8
0-3_仕上げ
  6
Continuous
 62
     7
370
     9
100
AcDbLine
 10
-1977.500144082145
 20
-2517.000150113493
 30
0.0
 11
-1989.500144082145
 21
-2529.000150113493
 31
0.0
  0
LINE
  5
3DE
330
1F
100
AcDbEntity
  8
0-3_仕上げ
  6
Continuous
 62
     7
370
     9
100
AcDbLine
 10
-1699.500144082145
 20
-2517.000150113493
 30
0.0
 11
-1687.500144082145
 21
-2529.000150113493
 31
0.0
  0
LINE
  5
3DF
330
1F
100
AcDbEntity
  8
0-3_仕上げ
  6
Continuous
 62
     7
370
     9
100
AcDbLine
 10
-1989.500144082145
 20
-2529.000150113493
 30
0.0
 11
-1687.500144082145
 21
-2529.000150113493
 31
0.0
  0
LINE
  5
3E0
330
1F
100
AcDbEntity
  8
0-3_仕上げ
  6
Continuous
 62
     7
370
     9
100
AcDbLine
 10
-1977.500144082145
 20
-2517.000150113493
 30
0.0
 11
-1699.500144082146
 21
-2517.000150113493
 31
0.0
  0
LINE
  5
3E1
330
1F
100
AcDbEntity
  8
0-3_仕上げ
  6
Continuous
 62
     7
370
     9
100
AcDbLine
 10
-1715.500144082145
 20
-2501.000150113493
 30
0.0
 11
-1705.200144082145
 21
-2511.300150113492
 31
0.0
  0
LINE
  5
3E2
330
1F
100
AcDbEntity
  8
0-3_仕上げ
  6
Continuous
 62
     7
370
     9
100
AcDbLine
 10
-1961.500144082145
 20
-2501.000150113493
 30
0.0
 11
-1715.500144082145
 21
-2501.000150113493
 31
0.0
  0
LINE
  5
3E3
330
1F
100
AcDbEntity
  8
0-3_仕上げ
  6
Continuous
 62
     7
370
     9
100
AcDbLine
 10
-1961.500144082145
 20
-2501.000150113493
 30
0.0
 11
-1971.965144082144
 21
-2511.465150113493
 31
0.0
  0
LINE
  5
3E4
330
1F
100
AcDbEntity
  8
0-3_仕上げ
  6
Continuous
 62
     7
370
     9
100
AcDbLine
 10
-1560.500144082144
 20
-2517.000150113494
 30
0.0
 11
-1572.500144082144
 21
-2529.000150113493
 31
0.0
  0
LINE
  5
3E5
330
1F
100
AcDbEntity
  8
0-3_仕上げ
  6
Continuous
 62
     7
370
     9
100
AcDbLine
 10
-1282.500144082144
 20
-2517.000150113494
 30
0.0
 11
-1270.500144082144
 21
-2529.000150113493
 31
0.0
  0
LINE
  5
3E6
330
1F
100
AcDbEntity
  8
0-3_仕上げ
  6
Continuous
 62
     7
370
     9
100
AcDbLine
 10
-1572.500144082144
 20
-2529.000150113493
 30
0.0
 11
-1270.500144082144
 21
-2529.000150113493
 31
0.0
  0
LINE
  5
3E7
330
1F
100
AcDbEntity
  8
0-3_仕上げ
  6
Continuous
 62
     7
370
     9
100
AcDbLine
 10
-1560.500144082144
 20
-2517.000150113493
 30
0.0
 11
-1282.500144082144
 21
-2517.000150113493
 31
0.0
  0
LINE
  5
3E8
330
1F
100
AcDbEntity
  8
0-3_仕上げ
  6
Continuous
 62
     7
370
     9
100
AcDbLine
 10
-1298.500144082144
 20
-2501.000150113493
 30
0.0
 11
-1288.200144082144
 21
-2511.300150113493
 31
0.0
  0
LINE
  5
3E9
330
1F
100
AcDbEntity
  8
0-3_仕上げ
  6
Continuous
 62
     7
370
     9
100
AcDbLine
 10
-1544.500144082144
 20
-2501.000150113493
 30
0.0
 11
-1298.500144082144
 21
-2501.000150113493
 31
0.0
  0
LINE
  5
3EA
330
1F
100
AcDbEntity
  8
0-3_仕上げ
  6
Continuous
 62
     7
370
     9
100
AcDbLine
 10
-1544.500144082144
 20
-2501.000150113493
 30
0.0
 11
-1554.965144082144
 21
-2511.465150113494
 31
0.0
  0
LINE
  5
3EB
330
1F
100
AcDbEntity
  8
0-3_仕上げ
  6
Continuous
 62
     7
370
     9
100
AcDbLine
 10
1544.999228297054
 20
-2517.000150113493
 30
0.0
 11
1532.999228297052
 21
-2529.000150113493
 31
0.0
  0
LINE
  5
3EC
330
1F
100
AcDbEntity
  8
0-3_仕上げ
  6
Continuous
 62
     7
370
     9
100
AcDbLine
 10
1822.999228297054
 20
-2517.000150113493
 30
0.0
 11
1834.999228297053
 21
-2529.000150113493
 31
0.0
  0
LINE
  5
3ED
330
1F
100
AcDbEntity
  8
0-3_仕上げ
  6
Continuous
 62
     7
370
     9
100
AcDbLine
 10
1532.999228297052
 20
-2529.000150113493
 30
0.0
 11
1834.999228297053
 21
-2529.000150113493
 31
0.0
  0
LINE
  5
3EE
330
1F
100
AcDbEntity
  8
0-3_仕上げ
  6
Continuous
 62
     7
370
     9
100
AcDbLine
 10
1544.999228297054
 20
-2517.000150113493
 30
0.0
 11
1822.999228297053
 21
-2517.000150113493
 31
0.0
  0
LINE
  5
3EF
330
1F
100
AcDbEntity
  8
0-3_仕上げ
  6
Continuous
 62
     7
370
     9
100
AcDbLine
 10
1806.999228297053
 20
-2501.000150113493
 30
0.0
 11
1817.299228297054
 21
-2511.300150113492
 31
0.0
  0
LINE
  5
3F0
330
1F
100
AcDbEntity
  8
0-3_仕上げ
  6
Continuous
 62
     7
370
     9
100
AcDbLine
 10
1560.999228297053
 20
-2501.000150113493
 30
0.0
 11
1806.999228297053
 21
-2501.000150113493
 31
0.0
  0
LINE
  5
3F1
330
1F
100
AcDbEntity
  8
0-3_仕上げ
  6
Continuous
 62
     7
370
     9
100
AcDbLine
 10
1560.999228297053
 20
-2501.000150113493
 30
0.0
 11
1550.534228297054
 21
-2511.465150113493
 31
0.0
  0
LINE
  5
3F2
330
1F
100
AcDbEntity
  8
0-3_仕上げ
  6
Continuous
 62
     7
370
     9
100
AcDbLine
 10
1961.999228297053
 20
-2517.000150113494
 30
0.0
 11
1949.999228297053
 21
-2529.000150113493
 31
0.0
  0
LINE
  5
3F3
330
1F
100
AcDbEntity
  8
0-3_仕上げ
  6
Continuous
 62
     7
370
     9
100
AcDbLine
 10
2239.999228297052
 20
-2517.000150113494
 30
0.0
 11
2251.999228297052
 21
-2529.000150113493
 31
0.0
  0
LINE
  5
3F4
330
1F
100
AcDbEntity
  8
0-3_仕上げ
  6
Continuous
 62
     7
370
     9
100
AcDbLine
 10
1949.999228297053
 20
-2529.000150113493
 30
0.0
 11
2251.999228297052
 21
-2529.000150113493
 31
0.0
  0
LINE
  5
3F5
330
1F
100
AcDbEntity
  8
0-3_仕上げ
  6
Continuous
 62
     7
370
     9
100
AcDbLine
 10
1961.999228297053
 20
-2517.000150113493
 30
0.0
 11
2239.999228297052
 21
-2517.000150113493
 31
0.0
  0
LINE
  5
3F6
330
1F
100
AcDbEntity
  8
0-3_仕上げ
  6
Continuous
 62
     7
370
     9
100
AcDbLine
 10
2223.999228297052
 20
-2501.000150113493
 30
0.0
 11
2234.299228297054
 21
-2511.300150113493
 31
0.0
  0
LINE
  5
3F7
330
1F
100
AcDbEntity
  8
0-3_仕上げ
  6
Continuous
 62
     7
370
     9
100
AcDbLine
 10
1977.999228297053
 20
-2501.000150113493
 30
0.0
 11
2223.999228297052
 21
-2501.000150113493
 31
0.0
  0
LINE
  5
3F8
330
1F
100
AcDbEntity
  8
0-3_仕上げ
  6
Continuous
 62
     7
370
     9
100
AcDbLine
 10
1977.999228297053
 20
-2501.000150113493
 30
0.0
 11
1967.534228297053
 21
-2511.465150113494
 31
0.0
  0
LINE
  5
3F9
330
1F
100
AcDbEntity
  8
0-3_仕上げ
  6
Continuous
 62
     7
370
     9
100
AcDbLine
 10
2379.999228297055
 20
-2517.000150113493
 30
0.0
 11
2367.999228297054
 21
-2529.000150113492
 31
0.0
  0
LINE
  5
3FA
330
1F
100
AcDbEntity
  8
0-3_仕上げ
  6
Continuous
 62
     7
370
     9
100
AcDbLine
 10
2657.999228297054
 20
-2517.000150113493
 30
0.0
 11
2669.999228297054
 21
-2529.000150113492
 31
0.0
  0
LINE
  5
3FB
330
1F
100
AcDbEntity
  8
0-3_仕上げ
  6
Continuous
 62
     7
370
     9
100
AcDbLine
 10
2367.999228297054
 20
-2529.000150113492
 30
0.0
 11
2669.999228297054
 21
-2529.000150113492
 31
0.0
  0
LINE
  5
3FC
330
1F
100
AcDbEntity
  8
0-3_仕上げ
  6
Continuous
 62
     7
370
     9
100
AcDbLine
 10
2379.999228297055
 20
-2517.000150113492
 30
0.0
 11
2657.999228297053
 21
-2517.000150113492
 31
0.0
  0
LINE
  5
3FD
330
1F
100
AcDbEntity
  8
0-3_仕上げ
  6
Continuous
 62
     7
370
     9
100
AcDbLine
 10
2641.999228297054
 20
-2501.000150113492
 30
0.0
 11
2652.299228297055
 21
-2511.300150113492
 31
0.0
  0
LINE
  5
3FE
330
1F
100
AcDbEntity
  8
0-3_仕上げ
  6
Continuous
 62
     7
370
     9
100
AcDbLine
 10
2395.999228297055
 20
-2501.000150113492
 30
0.0
 11
2641.999228297054
 21
-2501.000150113492
 31
0.0
  0
LINE
  5
3FF
330
1F
100
AcDbEntity
  8
0-3_仕上げ
  6
Continuous
 62
     7
370
     9
100
AcDbLine
 10
2395.999228297055
 20
-2501.000150113492
 30
0.0
 11
2385.534228297055
 21
-2511.465150113492
 31
0.0
  0
LINE
  5
400
330
1F
100
AcDbEntity
  8
0-3_仕上げ
  6
Continuous
 62
     7
370
     9
100
AcDbLine
 10
2796.999228297054
 20
-2517.000150113493
 30
0.0
 11
2784.999228297054
 21
-2529.000150113493
 31
0.0
  0
LINE
  5
401
330
1F
100
AcDbEntity
  8
0-3_仕上げ
  6
Continuous
 62
     7
370
     9
100
AcDbLine
 10
3074.999228297054
 20
-2517.000150113493
 30
0.0
 11
3086.999228297054
 21
-2529.000150113493
 31
0.0
  0
LINE
  5
402
330
1F
100
AcDbEntity
  8
0-3_仕上げ
  6
Continuous
 62
     7
370
     9
100
AcDbLine
 10
2784.999228297054
 20
-2529.000150113493
 30
0.0
 11
3086.999228297054
 21
-2529.000150113493
 31
0.0
  0
LINE
  5
403
330
1F
100
AcDbEntity
  8
0-3_仕上げ
  6
Continuous
 62
     7
370
     9
100
AcDbLine
 10
2796.999228297054
 20
-2517.000150113493
 30
0.0
 11
3074.999228297053
 21
-2517.000150113493
 31
0.0
  0
LINE
  5
404
330
1F
100
AcDbEntity
  8
0-3_仕上げ
  6
Continuous
 62
     7
370
     9
100
AcDbLine
 10
3058.999228297053
 20
-2501.000150113493
 30
0.0
 11
3069.299228297054
 21
-2511.300150113492
 31
0.0
  0
LINE
  5
405
330
1F
100
AcDbEntity
  8
0-3_仕上げ
  6
Continuous
 62
     7
370
     9
100
AcDbLine
 10
2812.999228297054
 20
-2501.000150113493
 30
0.0
 11
3058.999228297053
 21
-2501.000150113493
 31
0.0
  0
LINE
  5
406
330
1F
100
AcDbEntity
  8
0-3_仕上げ
  6
Continuous
 62
     7
370
     9
100
AcDbLine
 10
2812.999228297054
 20
-2501.000150113493
 30
0.0
 11
2802.534228297055
 21
-2511.465150113493
 31
0.0
  0
LINE
  5
407
330
1F
100
AcDbEntity
  8
0-3_仕上げ
  6
Continuous
 62
     7
370
     9
100
AcDbLine
 10
3214.999228297055
 20
-2517.000150113493
 30
0.0
 11
3202.999228297056
 21
-2529.000150113493
 31
0.0
  0
LINE
  5
408
330
1F
100
AcDbEntity
  8
0-3_仕上げ
  6
Continuous
 62
     7
370
     9
100
AcDbLine
 10
3492.999228297054
 20
-2517.000150113493
 30
0.0
 11
3504.999228297055
 21
-2529.000150113493
 31
0.0
  0
LINE
  5
409
330
1F
100
AcDbEntity
  8
0-3_仕上げ
  6
Continuous
 62
     7
370
     9
100
AcDbLine
 10
3202.999228297055
 20
-2529.000150113493
 30
0.0
 11
3504.999228297055
 21
-2529.000150113493
 31
0.0
  0
LINE
  5
40A
330
1F
100
AcDbEntity
  8
0-3_仕上げ
  6
Continuous
 62
     7
370
     9
100
AcDbLine
 10
3214.999228297055
 20
-2517.000150113493
 30
0.0
 11
3492.999228297054
 21
-2517.000150113493
 31
0.0
  0
LINE
  5
40B
330
1F
100
AcDbEntity
  8
0-3_仕上げ
  6
Continuous
 62
     7
370
     9
100
AcDbLine
 10
3476.999228297055
 20
-2501.000150113493
 30
0.0
 11
3487.299228297054
 21
-2511.300150113492
 31
0.0
  0
LINE
  5
40C
330
1F
100
AcDbEntity
  8
0-3_仕上げ
  6
Continuous
 62
     7
370
     9
100
AcDbLine
 10
3230.999228297056
 20
-2501.000150113493
 30
0.0
 11
3476.999228297055
 21
-2501.000150113493
 31
0.0
  0
LINE
  5
40D
330
1F
100
AcDbEntity
  8
0-3_仕上げ
  6
Continuous
 62
     7
370
     9
100
AcDbLine
 10
3230.999228297056
 20
-2501.000150113493
 30
0.0
 11
3220.534228297056
 21
-2511.465150113493
 31
0.0
  0
LINE
  5
40E
330
1F
100
AcDbEntity
  8
0-3_仕上げ
  6
Continuous
 62
     7
370
     9
100
AcDbLine
 10
3631.999228297054
 20
-2517.000150113494
 30
0.0
 11
3619.999228297055
 21
-2529.000150113493
 31
0.0
  0
LINE
  5
40F
330
1F
100
AcDbEntity
  8
0-3_仕上げ
  6
Continuous
 62
     7
370
     9
100
AcDbLine
 10
3909.999228297054
 20
-2517.000150113494
 30
0.0
 11
3921.999228297053
 21
-2529.000150113493
 31
0.0
  0
LINE
  5
410
330
1F
100
AcDbEntity
  8
0-3_仕上げ
  6
Continuous
 62
     7
370
     9
100
AcDbLine
 10
3619.999228297054
 20
-2529.000150113493
 30
0.0
 11
3921.999228297053
 21
-2529.000150113493
 31
0.0
  0
LINE
  5
411
330
1F
100
AcDbEntity
  8
0-3_仕上げ
  6
Continuous
 62
     7
370
     9
100
AcDbLine
 10
3631.999228297054
 20
-2517.000150113493
 30
0.0
 11
3909.999228297054
 21
-2517.000150113493
 31
0.0
  0
LINE
  5
412
330
1F
100
AcDbEntity
  8
0-3_仕上げ
  6
Continuous
 62
     7
370
     9
100
AcDbLine
 10
3893.999228297055
 20
-2501.000150113493
 30
0.0
 11
3904.299228297054
 21
-2511.300150113493
 31
0.0
  0
LINE
  5
413
330
1F
100
AcDbEntity
  8
0-3_仕上げ
  6
Continuous
 62
     7
370
     9
100
AcDbLine
 10
3647.999228297054
 20
-2501.000150113493
 30
0.0
 11
3893.999228297055
 21
-2501.000150113493
 31
0.0
  0
LINE
  5
414
330
1F
100
AcDbEntity
  8
0-3_仕上げ
  6
Continuous
 62
     7
370
     9
100
AcDbLine
 10
3647.999228297054
 20
-2501.000150113493
 30
0.0
 11
3637.534228297055
 21
-2511.465150113494
 31
0.0
  0
LINE
  5
415
330
1F
100
AcDbEntity
  8
0-3_仕上げ
  6
Continuous
 62
     7
370
     9
100
AcDbLine
 10
4049.999228297054
 20
-2517.000150113494
 30
0.0
 11
4037.999228297055
 21
-2529.000150113493
 31
0.0
  0
LINE
  5
416
330
1F
100
AcDbEntity
  8
0-3_仕上げ
  6
Continuous
 62
     7
370
     9
100
AcDbLine
 10
4327.999228297054
 20
-2517.000150113494
 30
0.0
 11
4339.999228297055
 21
-2529.000150113493
 31
0.0
  0
LINE
  5
417
330
1F
100
AcDbEntity
  8
0-3_仕上げ
  6
Continuous
 62
     7
370
     9
100
AcDbLine
 10
4037.999228297053
 20
-2529.000150113493
 30
0.0
 11
4339.999228297055
 21
-2529.000150113493
 31
0.0
  0
LINE
  5
418
330
1F
100
AcDbEntity
  8
0-3_仕上げ
  6
Continuous
 62
     7
370
     9
100
AcDbLine
 10
4049.999228297054
 20
-2517.000150113493
 30
0.0
 11
4327.999228297054
 21
-2517.000150113493
 31
0.0
  0
LINE
  5
419
330
1F
100
AcDbEntity
  8
0-3_仕上げ
  6
Continuous
 62
     7
370
     9
100
AcDbLine
 10
4311.999228297055
 20
-2501.000150113493
 30
0.0
 11
4322.299228297054
 21
-2511.300150113493
 31
0.0
  0
LINE
  5
41A
330
1F
100
AcDbEntity
  8
0-3_仕上げ
  6
Continuous
 62
     7
370
     9
100
AcDbLine
 10
4065.999228297055
 20
-2501.000150113493
 30
0.0
 11
4311.999228297055
 21
-2501.000150113493
 31
0.0
  0
LINE
  5
41B
330
1F
100
AcDbEntity
  8
0-3_仕上げ
  6
Continuous
 62
     7
370
     9
100
AcDbLine
 10
4065.999228297055
 20
-2501.000150113493
 30
0.0
 11
4055.534228297055
 21
-2511.465150113494
 31
0.0
  0
LINE
  5
41C
330
1F
100
AcDbEntity
  8
0-3_仕上げ
  6
Continuous
 62
     7
370
     9
100
AcDbLine
 10
4466.999228297052
 20
-2517.000150113495
 30
0.0
 11
4454.999228297054
 21
-2529.000150113494
 31
0.0
  0
LINE
  5
41D
330
1F
100
AcDbEntity
  8
0-3_仕上げ
  6
Continuous
 62
     7
370
     9
100
AcDbLine
 10
4744.999228297053
 20
-2517.000150113495
 30
0.0
 11
4756.999228297054
 21
-2529.000150113494
 31
0.0
  0
LINE
  5
41E
330
1F
100
AcDbEntity
  8
0-3_仕上げ
  6
Continuous
 62
     7
370
     9
100
AcDbLine
 10
4454.999228297052
 20
-2529.000150113494
 30
0.0
 11
4756.999228297054
 21
-2529.000150113494
 31
0.0
  0
LINE
  5
41F
330
1F
100
AcDbEntity
  8
0-3_仕上げ
  6
Continuous
 62
     7
370
     9
100
AcDbLine
 10
4466.999228297052
 20
-2517.000150113494
 30
0.0
 11
4744.999228297053
 21
-2517.000150113494
 31
0.0
  0
LINE
  5
420
330
1F
100
AcDbEntity
  8
0-3_仕上げ
  6
Continuous
 62
     7
370
     9
100
AcDbLine
 10
4728.999228297054
 20
-2501.000150113494
 30
0.0
 11
4739.299228297054
 21
-2511.300150113494
 31
0.0
  0
LINE
  5
421
330
1F
100
AcDbEntity
  8
0-3_仕上げ
  6
Continuous
 62
     7
370
     9
100
AcDbLine
 10
4482.999228297054
 20
-2501.000150113494
 30
0.0
 11
4728.999228297054
 21
-2501.000150113494
 31
0.0
  0
LINE
  5
422
330
1F
100
AcDbEntity
  8
0-3_仕上げ
  6
Continuous
 62
     7
370
     9
100
AcDbLine
 10
4482.999228297054
 20
-2501.000150113494
 30
0.0
 11
4472.534228297054
 21
-2511.465150113494
 31
0.0
  0
LINE
  5
423
330
1F
100
AcDbEntity
  8
0-3_仕上げ
  6
Continuous
 62
     7
370
     9
100
AcDbLine
 10
-3647.500144082145
 20
-425.0001501134906
 30
0.0
 11
-3659.500144082145
 21
-413.0001501134905
 31
0.0
  0
LINE
  5
424
330
1F
100
AcDbEntity
  8
0-3_仕上げ
  6
Continuous
 62
     7
370
     9
100
AcDbLine
 10
-3357.500144082146
 20
-413.0001501134905
 30
0.0
 11
-3369.500144082146
 21
-425.0001501134906
 31
0.0
  0
LINE
  5
425
330
1F
100
AcDbEntity
  8
0-3_仕上げ
  6
Continuous
 62
     7
370
     9
100
AcDbLine
 10
-3659.500144082145
 20
-413.0001501134905
 30
0.0
 11
-3357.500144082146
 21
-413.0001501134905
 31
0.0
  0
LINE
  5
426
330
1F
100
AcDbEntity
  8
0-3_仕上げ
  6
Continuous
 62
     7
370
     9
100
AcDbLine
 10
-3647.500144082145
 20
-425.0001501134906
 30
0.0
 11
-3369.500144082146
 21
-425.0001501134906
 31
0.0
  0
LINE
  5
427
330
1F
100
AcDbEntity
  8
0-3_仕上げ
  6
Continuous
 62
     7
370
     9
100
AcDbLine
 10
-3659.500144082145
 20
-2613.000150113492
 30
0.0
 11
-3659.500144082145
 21
-329.000150113491
 31
0.0
  0
LINE
  5
428
330
1F
100
AcDbEntity
  8
0-3_仕上げ
  6
Continuous
 62
     7
370
     9
100
AcDbLine
 10
-3357.500144082145
 20
-2613.000150113492
 30
0.0
 11
-3357.500144082145
 21
-329.000150113491
 31
0.0
  0
LINE
  5
429
330
1F
100
AcDbEntity
  8
0-3_仕上げ
  6
Continuous
 62
     7
370
     9
100
AcDbLine
 10
-3647.500144082145
 20
-2517.000150113493
 30
0.0
 11
-3647.500144082145
 21
-425.0001501134906
 31
0.0
  0
LINE
  5
42A
330
1F
100
AcDbEntity
  8
0-3_仕上げ
  6
Continuous
 62
     7
370
     9
100
AcDbLine
 10
-3369.500144082146
 20
-2517.000150113493
 30
0.0
 11
-3369.500144082146
 21
-425.0001501134906
 31
0.0
  0
LINE
  5
42B
330
1F
100
AcDbEntity
  8
0-3_仕上げ
  6
Continuous
 62
     7
370
     9
100
AcDbLine
 10
-3631.500144082145
 20
-2501.000150113493
 30
0.0
 11
-3631.500144082145
 21
-441.0001501134906
 31
0.0
  0
LINE
  5
42C
330
1F
100
AcDbEntity
  8
0-3_仕上げ
  6
Continuous
 62
     7
370
     9
100
AcDbLine
 10
-3631.500144082145
 20
-441.0001501134906
 30
0.0
 11
-3641.965144082145
 21
-430.5351501134902
 31
0.0
  0
LINE
  5
42D
330
1F
100
AcDbEntity
  8
0-3_仕上げ
  6
Continuous
 62
     7
370
     9
100
AcDbLine
 10
-3631.500144082145
 20
-441.0001501134906
 30
0.0
 11
-3385.500144082146
 21
-441.0001501134906
 31
0.0
  0
LINE
  5
42E
330
1F
100
AcDbEntity
  8
0-3_仕上げ
  6
Continuous
 62
     7
370
     9
100
AcDbLine
 10
-3385.500144082146
 20
-2501.000150113493
 30
0.0
 11
-3385.500144082146
 21
-441.0001501134906
 31
0.0
  0
LINE
  5
42F
330
1F
100
AcDbEntity
  8
0-3_仕上げ
  6
Continuous
 62
     7
370
     9
100
AcDbLine
 10
-3385.500144082146
 20
-441.0001501134906
 30
0.0
 11
-3375.200144082145
 21
-430.7001501134906
 31
0.0
  0
LINE
  5
430
330
1F
100
AcDbEntity
  8
0-3_仕上げ
  6
Continuous
 62
     7
370
     9
100
AcDbLine
 10
-3230.500144082146
 20
-425.0001501134906
 30
0.0
 11
-3242.500144082146
 21
-413.0001501134905
 31
0.0
  0
LINE
  5
431
330
1F
100
AcDbEntity
  8
0-3_仕上げ
  6
Continuous
 62
     7
370
     9
100
AcDbLine
 10
-2940.500144082147
 20
-413.0001501134905
 30
0.0
 11
-2952.500144082146
 21
-425.0001501134906
 31
0.0
  0
LINE
  5
432
330
1F
100
AcDbEntity
  8
0-3_仕上げ
  6
Continuous
 62
     7
370
     9
100
AcDbLine
 10
-3242.500144082146
 20
-413.0001501134905
 30
0.0
 11
-2940.500144082147
 21
-413.0001501134905
 31
0.0
  0
LINE
  5
433
330
1F
100
AcDbEntity
  8
0-3_仕上げ
  6
Continuous
 62
     7
370
     9
100
AcDbLine
 10
-3230.500144082146
 20
-425.0001501134906
 30
0.0
 11
-2952.500144082146
 21
-425.0001501134906
 31
0.0
  0
LINE
  5
434
330
1F
100
AcDbEntity
  8
0-3_仕上げ
  6
Continuous
 62
     7
370
     9
100
AcDbLine
 10
-3242.500144082146
 20
-2613.000150113492
 30
0.0
 11
-3242.500144082146
 21
-329.000150113491
 31
0.0
  0
LINE
  5
435
330
1F
100
AcDbEntity
  8
0-3_仕上げ
  6
Continuous
 62
     7
370
     9
100
AcDbLine
 10
-2940.500144082146
 20
-2613.000150113492
 30
0.0
 11
-2940.500144082146
 21
-329.000150113491
 31
0.0
  0
LINE
  5
436
330
1F
100
AcDbEntity
  8
0-3_仕上げ
  6
Continuous
 62
     7
370
     9
100
AcDbLine
 10
-3230.500144082146
 20
-2517.000150113493
 30
0.0
 11
-3230.500144082146
 21
-425.0001501134906
 31
0.0
  0
LINE
  5
437
330
1F
100
AcDbEntity
  8
0-3_仕上げ
  6
Continuous
 62
     7
370
     9
100
AcDbLine
 10
-2952.500144082146
 20
-2517.000150113493
 30
0.0
 11
-2952.500144082146
 21
-425.0001501134906
 31
0.0
  0
LINE
  5
438
330
1F
100
AcDbEntity
  8
0-3_仕上げ
  6
Continuous
 62
     7
370
     9
100
AcDbLine
 10
-3214.500144082146
 20
-2501.000150113493
 30
0.0
 11
-3214.500144082146
 21
-441.0001501134906
 31
0.0
  0
LINE
  5
439
330
1F
100
AcDbEntity
  8
0-3_仕上げ
  6
Continuous
 62
     7
370
     9
100
AcDbLine
 10
-3214.500144082145
 20
-441.0001501134906
 30
0.0
 11
-3224.965144082146
 21
-430.5351501134902
 31
0.0
  0
LINE
  5
43A
330
1F
100
AcDbEntity
  8
0-3_仕上げ
  6
Continuous
 62
     7
370
     9
100
AcDbLine
 10
-3214.500144082145
 20
-441.0001501134906
 30
0.0
 11
-2968.500144082146
 21
-441.0001501134906
 31
0.0
  0
LINE
  5
43B
330
1F
100
AcDbEntity
  8
0-3_仕上げ
  6
Continuous
 62
     7
370
     9
100
AcDbLine
 10
-2968.500144082146
 20
-2501.000150113493
 30
0.0
 11
-2968.500144082146
 21
-441.0001501134906
 31
0.0
  0
LINE
  5
43C
330
1F
100
AcDbEntity
  8
0-3_仕上げ
  6
Continuous
 62
     7
370
     9
100
AcDbLine
 10
-2968.500144082146
 20
-441.0001501134906
 30
0.0
 11
-2958.200144082146
 21
-430.7001501134906
 31
0.0
  0
LINE
  5
43D
330
1F
100
AcDbEntity
  8
0-3_仕上げ
  6
Continuous
 62
     7
370
     9
100
AcDbLine
 10
-2812.500144082144
 20
-425.0001501134898
 30
0.0
 11
-2824.500144082144
 21
-413.0001501134896
 31
0.0
  0
LINE
  5
43E
330
1F
100
AcDbEntity
  8
0-3_仕上げ
  6
Continuous
 62
     7
370
     9
100
AcDbLine
 10
-2522.500144082145
 20
-413.0001501134896
 30
0.0
 11
-2534.500144082144
 21
-425.0001501134898
 31
0.0
  0
LINE
  5
43F
330
1F
100
AcDbEntity
  8
0-3_仕上げ
  6
Continuous
 62
     7
370
     9
100
AcDbLine
 10
-2824.500144082144
 20
-413.0001501134896
 30
0.0
 11
-2522.500144082145
 21
-413.0001501134896
 31
0.0
  0
LINE
  5
440
330
1F
100
AcDbEntity
  8
0-3_仕上げ
  6
Continuous
 62
     7
370
     9
100
AcDbLine
 10
-2812.500144082144
 20
-425.0001501134898
 30
0.0
 11
-2534.500144082144
 21
-425.0001501134898
 31
0.0
  0
LINE
  5
441
330
1F
100
AcDbEntity
  8
0-3_仕上げ
  6
Continuous
 62
     7
370
     9
100
AcDbLine
 10
-2824.500144082144
 20
-2613.000150113491
 30
0.0
 11
-2824.500144082144
 21
-329.0001501134901
 31
0.0
  0
LINE
  5
442
330
1F
100
AcDbEntity
  8
0-3_仕上げ
  6
Continuous
 62
     7
370
     9
100
AcDbLine
 10
-2522.500144082144
 20
-2613.000150113491
 30
0.0
 11
-2522.500144082144
 21
-329.0001501134901
 31
0.0
  0
LINE
  5
443
330
1F
100
AcDbEntity
  8
0-3_仕上げ
  6
Continuous
 62
     7
370
     9
100
AcDbLine
 10
-2812.500144082144
 20
-2517.000150113492
 30
0.0
 11
-2812.500144082144
 21
-425.0001501134898
 31
0.0
  0
LINE
  5
444
330
1F
100
AcDbEntity
  8
0-3_仕上げ
  6
Continuous
 62
     7
370
     9
100
AcDbLine
 10
-2534.500144082144
 20
-2517.000150113492
 30
0.0
 11
-2534.500144082144
 21
-425.0001501134898
 31
0.0
  0
LINE
  5
445
330
1F
100
AcDbEntity
  8
0-3_仕上げ
  6
Continuous
 62
     7
370
     9
100
AcDbLine
 10
-2796.500144082144
 20
-2501.000150113492
 30
0.0
 11
-2796.500144082144
 21
-441.0001501134897
 31
0.0
  0
LINE
  5
446
330
1F
100
AcDbEntity
  8
0-3_仕上げ
  6
Continuous
 62
     7
370
     9
100
AcDbLine
 10
-2796.500144082143
 20
-441.0001501134897
 30
0.0
 11
-2806.965144082144
 21
-430.5351501134894
 31
0.0
  0
LINE
  5
447
330
1F
100
AcDbEntity
  8
0-3_仕上げ
  6
Continuous
 62
     7
370
     9
100
AcDbLine
 10
-2796.500144082143
 20
-441.0001501134897
 30
0.0
 11
-2550.500144082144
 21
-441.0001501134897
 31
0.0
  0
LINE
  5
448
330
1F
100
AcDbEntity
  8
0-3_仕上げ
  6
Continuous
 62
     7
370
     9
100
AcDbLine
 10
-2550.500144082144
 20
-2501.000150113492
 30
0.0
 11
-2550.500144082144
 21
-441.0001501134897
 31
0.0
  0
LINE
  5
449
330
1F
100
AcDbEntity
  8
0-3_仕上げ
  6
Continuous
 62
     7
370
     9
100
AcDbLine
 10
-2550.500144082144
 20
-441.0001501134897
 30
0.0
 11
-2540.200144082145
 21
-430.7001501134897
 31
0.0
  0
LINE
  5
44A
330
1F
100
AcDbEntity
  8
0-3_仕上げ
  6
Continuous
 62
     7
370
     9
100
AcDbLine
 10
-2395.500144082145
 20
-425.0001501134906
 30
0.0
 11
-2407.500144082144
 21
-413.0001501134905
 31
0.0
  0
LINE
  5
44B
330
1F
100
AcDbEntity
  8
0-3_仕上げ
  6
Continuous
 62
     7
370
     9
100
AcDbLine
 10
-2105.500144082145
 20
-413.0001501134905
 30
0.0
 11
-2117.500144082146
 21
-425.0001501134906
 31
0.0
  0
LINE
  5
44C
330
1F
100
AcDbEntity
  8
0-3_仕上げ
  6
Continuous
 62
     7
370
     9
100
AcDbLine
 10
-2407.500144082144
 20
-413.0001501134905
 30
0.0
 11
-2105.500144082145
 21
-413.0001501134905
 31
0.0
  0
LINE
  5
44D
330
1F
100
AcDbEntity
  8
0-3_仕上げ
  6
Continuous
 62
     7
370
     9
100
AcDbLine
 10
-2395.500144082145
 20
-425.0001501134906
 30
0.0
 11
-2117.500144082146
 21
-425.0001501134906
 31
0.0
  0
LINE
  5
44E
330
1F
100
AcDbEntity
  8
0-3_仕上げ
  6
Continuous
 62
     7
370
     9
100
AcDbLine
 10
-2407.500144082145
 20
-2613.000150113492
 30
0.0
 11
-2407.500144082145
 21
-329.000150113491
 31
0.0
  0
LINE
  5
44F
330
1F
100
AcDbEntity
  8
0-3_仕上げ
  6
Continuous
 62
     7
370
     9
100
AcDbLine
 10
-2105.500144082145
 20
-2613.000150113492
 30
0.0
 11
-2105.500144082145
 21
-329.000150113491
 31
0.0
  0
LINE
  5
450
330
1F
100
AcDbEntity
  8
0-3_仕上げ
  6
Continuous
 62
     7
370
     9
100
AcDbLine
 10
-2395.500144082145
 20
-2517.000150113493
 30
0.0
 11
-2395.500144082145
 21
-425.0001501134906
 31
0.0
  0
LINE
  5
451
330
1F
100
AcDbEntity
  8
0-3_仕上げ
  6
Continuous
 62
     7
370
     9
100
AcDbLine
 10
-2117.500144082146
 20
-2517.000150113493
 30
0.0
 11
-2117.500144082146
 21
-425.0001501134906
 31
0.0
  0
LINE
  5
452
330
1F
100
AcDbEntity
  8
0-3_仕上げ
  6
Continuous
 62
     7
370
     9
100
AcDbLine
 10
-2379.500144082145
 20
-2501.000150113493
 30
0.0
 11
-2379.500144082145
 21
-441.0001501134906
 31
0.0
  0
LINE
  5
453
330
1F
100
AcDbEntity
  8
0-3_仕上げ
  6
Continuous
 62
     7
370
     9
100
AcDbLine
 10
-2379.500144082144
 20
-441.0001501134906
 30
0.0
 11
-2389.965144082144
 21
-430.5351501134902
 31
0.0
  0
LINE
  5
454
330
1F
100
AcDbEntity
  8
0-3_仕上げ
  6
Continuous
 62
     7
370
     9
100
AcDbLine
 10
-2379.500144082144
 20
-441.0001501134906
 30
0.0
 11
-2133.500144082145
 21
-441.0001501134906
 31
0.0
  0
LINE
  5
455
330
1F
100
AcDbEntity
  8
0-3_仕上げ
  6
Continuous
 62
     7
370
     9
100
AcDbLine
 10
-2133.500144082145
 20
-2501.000150113493
 30
0.0
 11
-2133.500144082145
 21
-441.0001501134906
 31
0.0
  0
LINE
  5
456
330
1F
100
AcDbEntity
  8
0-3_仕上げ
  6
Continuous
 62
     7
370
     9
100
AcDbLine
 10
-2133.500144082145
 20
-441.0001501134906
 30
0.0
 11
-2123.200144082145
 21
-430.7001501134906
 31
0.0
  0
LINE
  5
457
330
1F
100
AcDbEntity
  8
0-3_仕上げ
  6
Continuous
 62
     7
370
     9
100
AcDbLine
 10
-1977.500144082145
 20
-425.0001501134906
 30
0.0
 11
-1989.500144082144
 21
-413.0001501134905
 31
0.0
  0
LINE
  5
458
330
1F
100
AcDbEntity
  8
0-3_仕上げ
  6
Continuous
 62
     7
370
     9
100
AcDbLine
 10
-1687.500144082145
 20
-413.0001501134905
 30
0.0
 11
-1699.500144082145
 21
-425.0001501134906
 31
0.0
  0
LINE
  5
459
330
1F
100
AcDbEntity
  8
0-3_仕上げ
  6
Continuous
 62
     7
370
     9
100
AcDbLine
 10
-1989.500144082144
 20
-413.0001501134905
 30
0.0
 11
-1687.500144082145
 21
-413.0001501134905
 31
0.0
  0
LINE
  5
45A
330
1F
100
AcDbEntity
  8
0-3_仕上げ
  6
Continuous
 62
     7
370
     9
100
AcDbLine
 10
-1977.500144082145
 20
-425.0001501134906
 30
0.0
 11
-1699.500144082145
 21
-425.0001501134906
 31
0.0
  0
LINE
  5
45B
330
1F
100
AcDbEntity
  8
0-3_仕上げ
  6
Continuous
 62
     7
370
     9
100
AcDbLine
 10
-1989.500144082145
 20
-2613.000150113492
 30
0.0
 11
-1989.500144082145
 21
-329.000150113491
 31
0.0
  0
LINE
  5
45C
330
1F
100
AcDbEntity
  8
0-3_仕上げ
  6
Continuous
 62
     7
370
     9
100
AcDbLine
 10
-1687.500144082145
 20
-2613.000150113492
 30
0.0
 11
-1687.500144082145
 21
-329.000150113491
 31
0.0
  0
LINE
  5
45D
330
1F
100
AcDbEntity
  8
0-3_仕上げ
  6
Continuous
 62
     7
370
     9
100
AcDbLine
 10
-1977.500144082145
 20
-2517.000150113493
 30
0.0
 11
-1977.500144082145
 21
-425.0001501134906
 31
0.0
  0
LINE
  5
45E
330
1F
100
AcDbEntity
  8
0-3_仕上げ
  6
Continuous
 62
     7
370
     9
100
AcDbLine
 10
-1699.500144082145
 20
-2517.000150113493
 30
0.0
 11
-1699.500144082145
 21
-425.0001501134906
 31
0.0
  0
LINE
  5
45F
330
1F
100
AcDbEntity
  8
0-3_仕上げ
  6
Continuous
 62
     7
370
     9
100
AcDbLine
 10
-1961.500144082145
 20
-2501.000150113493
 30
0.0
 11
-1961.500144082145
 21
-441.0001501134906
 31
0.0
  0
LINE
  5
460
330
1F
100
AcDbEntity
  8
0-3_仕上げ
  6
Continuous
 62
     7
370
     9
100
AcDbLine
 10
-1961.500144082144
 20
-441.0001501134906
 30
0.0
 11
-1971.965144082144
 21
-430.5351501134902
 31
0.0
  0
LINE
  5
461
330
1F
100
AcDbEntity
  8
0-3_仕上げ
  6
Continuous
 62
     7
370
     9
100
AcDbLine
 10
-1961.500144082144
 20
-441.0001501134906
 30
0.0
 11
-1715.500144082145
 21
-441.0001501134906
 31
0.0
  0
LINE
  5
462
330
1F
100
AcDbEntity
  8
0-3_仕上げ
  6
Continuous
 62
     7
370
     9
100
AcDbLine
 10
-1715.500144082145
 20
-2501.000150113493
 30
0.0
 11
-1715.500144082145
 21
-441.0001501134906
 31
0.0
  0
LINE
  5
463
330
1F
100
AcDbEntity
  8
0-3_仕上げ
  6
Continuous
 62
     7
370
     9
100
AcDbLine
 10
-1715.500144082145
 20
-441.0001501134906
 30
0.0
 11
-1705.200144082145
 21
-430.7001501134906
 31
0.0
  0
LINE
  5
464
330
1F
100
AcDbEntity
  8
0-3_仕上げ
  6
Continuous
 62
     7
370
     9
100
AcDbLine
 10
-1560.500144082144
 20
-425.0001501134915
 30
0.0
 11
-1572.500144082143
 21
-413.0001501134913
 31
0.0
  0
LINE
  5
465
330
1F
100
AcDbEntity
  8
0-3_仕上げ
  6
Continuous
 62
     7
370
     9
100
AcDbLine
 10
-1270.500144082144
 20
-413.0001501134913
 30
0.0
 11
-1282.500144082144
 21
-425.0001501134915
 31
0.0
  0
LINE
  5
466
330
1F
100
AcDbEntity
  8
0-3_仕上げ
  6
Continuous
 62
     7
370
     9
100
AcDbLine
 10
-1572.500144082143
 20
-413.0001501134913
 30
0.0
 11
-1270.500144082144
 21
-413.0001501134913
 31
0.0
  0
LINE
  5
467
330
1F
100
AcDbEntity
  8
0-3_仕上げ
  6
Continuous
 62
     7
370
     9
100
AcDbLine
 10
-1560.500144082144
 20
-425.0001501134915
 30
0.0
 11
-1282.500144082144
 21
-425.0001501134915
 31
0.0
  0
LINE
  5
468
330
1F
100
AcDbEntity
  8
0-3_仕上げ
  6
Continuous
 62
     7
370
     9
100
AcDbLine
 10
-1572.500144082144
 20
-2613.000150113493
 30
0.0
 11
-1572.500144082144
 21
-329.0001501134918
 31
0.0
  0
LINE
  5
469
330
1F
100
AcDbEntity
  8
0-3_仕上げ
  6
Continuous
 62
     7
370
     9
100
AcDbLine
 10
-1270.500144082144
 20
-2613.000150113493
 30
0.0
 11
-1270.500144082144
 21
-329.0001501134918
 31
0.0
  0
LINE
  5
46A
330
1F
100
AcDbEntity
  8
0-3_仕上げ
  6
Continuous
 62
     7
370
     9
100
AcDbLine
 10
-1560.500144082144
 20
-2517.000150113493
 30
0.0
 11
-1560.500144082144
 21
-425.0001501134915
 31
0.0
  0
LINE
  5
46B
330
1F
100
AcDbEntity
  8
0-3_仕上げ
  6
Continuous
 62
     7
370
     9
100
AcDbLine
 10
-1282.500144082144
 20
-2517.000150113493
 30
0.0
 11
-1282.500144082144
 21
-425.0001501134915
 31
0.0
  0
LINE
  5
46C
330
1F
100
AcDbEntity
  8
0-3_仕上げ
  6
Continuous
 62
     7
370
     9
100
AcDbLine
 10
-1544.500144082144
 20
-2501.000150113493
 30
0.0
 11
-1544.500144082144
 21
-441.0001501134914
 31
0.0
  0
LINE
  5
46D
330
1F
100
AcDbEntity
  8
0-3_仕上げ
  6
Continuous
 62
     7
370
     9
100
AcDbLine
 10
-1544.500144082143
 20
-441.0001501134914
 30
0.0
 11
-1554.965144082144
 21
-430.5351501134911
 31
0.0
  0
LINE
  5
46E
330
1F
100
AcDbEntity
  8
0-3_仕上げ
  6
Continuous
 62
     7
370
     9
100
AcDbLine
 10
-1544.500144082143
 20
-441.0001501134914
 30
0.0
 11
-1298.500144082144
 21
-441.0001501134914
 31
0.0
  0
LINE
  5
46F
330
1F
100
AcDbEntity
  8
0-3_仕上げ
  6
Continuous
 62
     7
370
     9
100
AcDbLine
 10
-1298.500144082144
 20
-2501.000150113493
 30
0.0
 11
-1298.500144082144
 21
-441.0001501134914
 31
0.0
  0
LINE
  5
470
330
1F
100
AcDbEntity
  8
0-3_仕上げ
  6
Continuous
 62
     7
370
     9
100
AcDbLine
 10
-1298.500144082144
 20
-441.0001501134914
 30
0.0
 11
-1288.200144082144
 21
-430.7001501134914
 31
0.0
  0
LINE
  5
471
330
1F
100
AcDbEntity
  8
0-3_仕上げ
  6
Continuous
 62
     7
370
     9
100
AcDbLine
 10
1544.999228297054
 20
-425.0001501134906
 30
0.0
 11
1532.999228297053
 21
-413.0001501134905
 31
0.0
  0
LINE
  5
472
330
1F
100
AcDbEntity
  8
0-3_仕上げ
  6
Continuous
 62
     7
370
     9
100
AcDbLine
 10
1834.999228297053
 20
-413.0001501134905
 30
0.0
 11
1822.999228297054
 21
-425.0001501134906
 31
0.0
  0
LINE
  5
473
330
1F
100
AcDbEntity
  8
0-3_仕上げ
  6
Continuous
 62
     7
370
     9
100
AcDbLine
 10
1532.999228297053
 20
-413.0001501134905
 30
0.0
 11
1834.999228297053
 21
-413.0001501134905
 31
0.0
  0
LINE
  5
474
330
1F
100
AcDbEntity
  8
0-3_仕上げ
  6
Continuous
 62
     7
370
     9
100
AcDbLine
 10
1544.999228297054
 20
-425.0001501134906
 30
0.0
 11
1822.999228297054
 21
-425.0001501134906
 31
0.0
  0
LINE
  5
475
330
1F
100
AcDbEntity
  8
0-3_仕上げ
  6
Continuous
 62
     7
370
     9
100
AcDbLine
 10
1532.999228297052
 20
-2613.000150113492
 30
0.0
 11
1532.999228297052
 21
-329.000150113491
 31
0.0
  0
LINE
  5
476
330
1F
100
AcDbEntity
  8
0-3_仕上げ
  6
Continuous
 62
     7
370
     9
100
AcDbLine
 10
1834.999228297053
 20
-2613.000150113492
 30
0.0
 11
1834.999228297053
 21
-329.000150113491
 31
0.0
  0
LINE
  5
477
330
1F
100
AcDbEntity
  8
0-3_仕上げ
  6
Continuous
 62
     7
370
     9
100
AcDbLine
 10
1544.999228297054
 20
-2517.000150113493
 30
0.0
 11
1544.999228297054
 21
-425.0001501134906
 31
0.0
  0
LINE
  5
478
330
1F
100
AcDbEntity
  8
0-3_仕上げ
  6
Continuous
 62
     7
370
     9
100
AcDbLine
 10
1822.999228297054
 20
-2517.000150113493
 30
0.0
 11
1822.999228297054
 21
-425.0001501134906
 31
0.0
  0
LINE
  5
479
330
1F
100
AcDbEntity
  8
0-3_仕上げ
  6
Continuous
 62
     7
370
     9
100
AcDbLine
 10
1560.999228297053
 20
-2501.000150113493
 30
0.0
 11
1560.999228297053
 21
-441.0001501134906
 31
0.0
  0
LINE
  5
47A
330
1F
100
AcDbEntity
  8
0-3_仕上げ
  6
Continuous
 62
     7
370
     9
100
AcDbLine
 10
1560.999228297054
 20
-441.0001501134906
 30
0.0
 11
1550.534228297054
 21
-430.5351501134902
 31
0.0
  0
LINE
  5
47B
330
1F
100
AcDbEntity
  8
0-3_仕上げ
  6
Continuous
 62
     7
370
     9
100
AcDbLine
 10
1560.999228297054
 20
-441.0001501134906
 30
0.0
 11
1806.999228297053
 21
-441.0001501134906
 31
0.0
  0
LINE
  5
47C
330
1F
100
AcDbEntity
  8
0-3_仕上げ
  6
Continuous
 62
     7
370
     9
100
AcDbLine
 10
1806.999228297053
 20
-2501.000150113493
 30
0.0
 11
1806.999228297053
 21
-441.0001501134906
 31
0.0
  0
LINE
  5
47D
330
1F
100
AcDbEntity
  8
0-3_仕上げ
  6
Continuous
 62
     7
370
     9
100
AcDbLine
 10
1806.999228297053
 20
-441.0001501134906
 30
0.0
 11
1817.299228297054
 21
-430.7001501134906
 31
0.0
  0
LINE
  5
47E
330
1F
100
AcDbEntity
  8
0-3_仕上げ
  6
Continuous
 62
     7
370
     9
100
AcDbLine
 10
1961.999228297054
 20
-425.0001501134915
 30
0.0
 11
1949.999228297054
 21
-413.0001501134913
 31
0.0
  0
LINE
  5
47F
330
1F
100
AcDbEntity
  8
0-3_仕上げ
  6
Continuous
 62
     7
370
     9
100
AcDbLine
 10
2251.999228297052
 20
-413.0001501134913
 30
0.0
 11
2239.999228297052
 21
-425.0001501134915
 31
0.0
  0
LINE
  5
480
330
1F
100
AcDbEntity
  8
0-3_仕上げ
  6
Continuous
 62
     7
370
     9
100
AcDbLine
 10
1949.999228297054
 20
-413.0001501134913
 30
0.0
 11
2251.999228297052
 21
-413.0001501134913
 31
0.0
  0
LINE
  5
481
330
1F
100
AcDbEntity
  8
0-3_仕上げ
  6
Continuous
 62
     7
370
     9
100
AcDbLine
 10
1961.999228297054
 20
-425.0001501134915
 30
0.0
 11
2239.999228297052
 21
-425.0001501134915
 31
0.0
  0
LINE
  5
482
330
1F
100
AcDbEntity
  8
0-3_仕上げ
  6
Continuous
 62
     7
370
     9
100
AcDbLine
 10
1949.999228297053
 20
-2613.000150113493
 30
0.0
 11
1949.999228297053
 21
-329.0001501134918
 31
0.0
  0
LINE
  5
483
330
1F
100
AcDbEntity
  8
0-3_仕上げ
  6
Continuous
 62
     7
370
     9
100
AcDbLine
 10
2251.999228297052
 20
-2613.000150113493
 30
0.0
 11
2251.999228297052
 21
-329.0001501134918
 31
0.0
  0
LINE
  5
484
330
1F
100
AcDbEntity
  8
0-3_仕上げ
  6
Continuous
 62
     7
370
     9
100
AcDbLine
 10
1961.999228297054
 20
-2517.000150113493
 30
0.0
 11
1961.999228297054
 21
-425.0001501134915
 31
0.0
  0
LINE
  5
485
330
1F
100
AcDbEntity
  8
0-3_仕上げ
  6
Continuous
 62
     7
370
     9
100
AcDbLine
 10
2239.999228297052
 20
-2517.000150113493
 30
0.0
 11
2239.999228297052
 21
-425.0001501134915
 31
0.0
  0
LINE
  5
486
330
1F
100
AcDbEntity
  8
0-3_仕上げ
  6
Continuous
 62
     7
370
     9
100
AcDbLine
 10
1977.999228297053
 20
-2501.000150113493
 30
0.0
 11
1977.999228297053
 21
-441.0001501134914
 31
0.0
  0
LINE
  5
487
330
1F
100
AcDbEntity
  8
0-3_仕上げ
  6
Continuous
 62
     7
370
     9
100
AcDbLine
 10
1977.999228297054
 20
-441.0001501134914
 30
0.0
 11
1967.534228297053
 21
-430.5351501134911
 31
0.0
  0
LINE
  5
488
330
1F
100
AcDbEntity
  8
0-3_仕上げ
  6
Continuous
 62
     7
370
     9
100
AcDbLine
 10
1977.999228297054
 20
-441.0001501134914
 30
0.0
 11
2223.999228297052
 21
-441.0001501134914
 31
0.0
  0
LINE
  5
489
330
1F
100
AcDbEntity
  8
0-3_仕上げ
  6
Continuous
 62
     7
370
     9
100
AcDbLine
 10
2223.999228297052
 20
-2501.000150113493
 30
0.0
 11
2223.999228297052
 21
-441.0001501134914
 31
0.0
  0
LINE
  5
48A
330
1F
100
AcDbEntity
  8
0-3_仕上げ
  6
Continuous
 62
     7
370
     9
100
AcDbLine
 10
2223.999228297052
 20
-441.0001501134914
 30
0.0
 11
2234.299228297054
 21
-430.7001501134914
 31
0.0
  0
LINE
  5
48B
330
1F
100
AcDbEntity
  8
0-3_仕上げ
  6
Continuous
 62
     7
370
     9
100
AcDbLine
 10
2379.999228297056
 20
-425.0001501134898
 30
0.0
 11
2367.999228297055
 21
-413.0001501134896
 31
0.0
  0
LINE
  5
48C
330
1F
100
AcDbEntity
  8
0-3_仕上げ
  6
Continuous
 62
     7
370
     9
100
AcDbLine
 10
2669.999228297054
 20
-413.0001501134896
 30
0.0
 11
2657.999228297054
 21
-425.0001501134898
 31
0.0
  0
LINE
  5
48D
330
1F
100
AcDbEntity
  8
0-3_仕上げ
  6
Continuous
 62
     7
370
     9
100
AcDbLine
 10
2367.999228297055
 20
-413.0001501134896
 30
0.0
 11
2669.999228297054
 21
-413.0001501134896
 31
0.0
  0
LINE
  5
48E
330
1F
100
AcDbEntity
  8
0-3_仕上げ
  6
Continuous
 62
     7
370
     9
100
AcDbLine
 10
2379.999228297056
 20
-425.0001501134898
 30
0.0
 11
2657.999228297054
 21
-425.0001501134898
 31
0.0
  0
LINE
  5
48F
330
1F
100
AcDbEntity
  8
0-3_仕上げ
  6
Continuous
 62
     7
370
     9
100
AcDbLine
 10
2367.999228297054
 20
-2613.000150113491
 30
0.0
 11
2367.999228297054
 21
-329.0001501134901
 31
0.0
  0
LINE
  5
490
330
1F
100
AcDbEntity
  8
0-3_仕上げ
  6
Continuous
 62
     7
370
     9
100
AcDbLine
 10
2669.999228297054
 20
-2613.000150113491
 30
0.0
 11
2669.999228297054
 21
-329.0001501134901
 31
0.0
  0
LINE
  5
491
330
1F
100
AcDbEntity
  8
0-3_仕上げ
  6
Continuous
 62
     7
370
     9
100
AcDbLine
 10
2379.999228297056
 20
-2517.000150113492
 30
0.0
 11
2379.999228297056
 21
-425.0001501134898
 31
0.0
  0
LINE
  5
492
330
1F
100
AcDbEntity
  8
0-3_仕上げ
  6
Continuous
 62
     7
370
     9
100
AcDbLine
 10
2657.999228297054
 20
-2517.000150113492
 30
0.0
 11
2657.999228297054
 21
-425.0001501134898
 31
0.0
  0
LINE
  5
493
330
1F
100
AcDbEntity
  8
0-3_仕上げ
  6
Continuous
 62
     7
370
     9
100
AcDbLine
 10
2395.999228297055
 20
-2501.000150113492
 30
0.0
 11
2395.999228297055
 21
-441.0001501134897
 31
0.0
  0
LINE
  5
494
330
1F
100
AcDbEntity
  8
0-3_仕上げ
  6
Continuous
 62
     7
370
     9
100
AcDbLine
 10
2395.999228297056
 20
-441.0001501134897
 30
0.0
 11
2385.534228297055
 21
-430.5351501134894
 31
0.0
  0
LINE
  5
495
330
1F
100
AcDbEntity
  8
0-3_仕上げ
  6
Continuous
 62
     7
370
     9
100
AcDbLine
 10
2395.999228297056
 20
-441.0001501134897
 30
0.0
 11
2641.999228297054
 21
-441.0001501134897
 31
0.0
  0
LINE
  5
496
330
1F
100
AcDbEntity
  8
0-3_仕上げ
  6
Continuous
 62
     7
370
     9
100
AcDbLine
 10
2641.999228297054
 20
-2501.000150113492
 30
0.0
 11
2641.999228297054
 21
-441.0001501134897
 31
0.0
  0
LINE
  5
497
330
1F
100
AcDbEntity
  8
0-3_仕上げ
  6
Continuous
 62
     7
370
     9
100
AcDbLine
 10
2641.999228297054
 20
-441.0001501134897
 30
0.0
 11
2652.299228297055
 21
-430.7001501134897
 31
0.0
  0
LINE
  5
498
330
1F
100
AcDbEntity
  8
0-3_仕上げ
  6
Continuous
 62
     7
370
     9
100
AcDbLine
 10
2796.999228297055
 20
-425.0001501134906
 30
0.0
 11
2784.999228297055
 21
-413.0001501134905
 31
0.0
  0
LINE
  5
499
330
1F
100
AcDbEntity
  8
0-3_仕上げ
  6
Continuous
 62
     7
370
     9
100
AcDbLine
 10
3086.999228297054
 20
-413.0001501134905
 30
0.0
 11
3074.999228297054
 21
-425.0001501134906
 31
0.0
  0
LINE
  5
49A
330
1F
100
AcDbEntity
  8
0-3_仕上げ
  6
Continuous
 62
     7
370
     9
100
AcDbLine
 10
2784.999228297055
 20
-413.0001501134905
 30
0.0
 11
3086.999228297054
 21
-413.0001501134905
 31
0.0
  0
LINE
  5
49B
330
1F
100
AcDbEntity
  8
0-3_仕上げ
  6
Continuous
 62
     7
370
     9
100
AcDbLine
 10
2796.999228297055
 20
-425.0001501134906
 30
0.0
 11
3074.999228297054
 21
-425.0001501134906
 31
0.0
  0
LINE
  5
49C
330
1F
100
AcDbEntity
  8
0-3_仕上げ
  6
Continuous
 62
     7
370
     9
100
AcDbLine
 10
2784.999228297054
 20
-2613.000150113492
 30
0.0
 11
2784.999228297054
 21
-329.000150113491
 31
0.0
  0
LINE
  5
49D
330
1F
100
AcDbEntity
  8
0-3_仕上げ
  6
Continuous
 62
     7
370
     9
100
AcDbLine
 10
3086.999228297054
 20
-2613.000150113492
 30
0.0
 11
3086.999228297054
 21
-329.000150113491
 31
0.0
  0
LINE
  5
49E
330
1F
100
AcDbEntity
  8
0-3_仕上げ
  6
Continuous
 62
     7
370
     9
100
AcDbLine
 10
2796.999228297055
 20
-2517.000150113493
 30
0.0
 11
2796.999228297055
 21
-425.0001501134906
 31
0.0
  0
LINE
  5
49F
330
1F
100
AcDbEntity
  8
0-3_仕上げ
  6
Continuous
 62
     7
370
     9
100
AcDbLine
 10
3074.999228297054
 20
-2517.000150113493
 30
0.0
 11
3074.999228297054
 21
-425.0001501134906
 31
0.0
  0
LINE
  5
4A0
330
1F
100
AcDbEntity
  8
0-3_仕上げ
  6
Continuous
 62
     7
370
     9
100
AcDbLine
 10
2812.999228297054
 20
-2501.000150113493
 30
0.0
 11
2812.999228297054
 21
-441.0001501134906
 31
0.0
  0
LINE
  5
4A1
330
1F
100
AcDbEntity
  8
0-3_仕上げ
  6
Continuous
 62
     7
370
     9
100
AcDbLine
 10
2812.999228297055
 20
-441.0001501134906
 30
0.0
 11
2802.534228297055
 21
-430.5351501134902
 31
0.0
  0
LINE
  5
4A2
330
1F
100
AcDbEntity
  8
0-3_仕上げ
  6
Continuous
 62
     7
370
     9
100
AcDbLine
 10
2812.999228297055
 20
-441.0001501134906
 30
0.0
 11
3058.999228297053
 21
-441.0001501134906
 31
0.0
  0
LINE
  5
4A3
330
1F
100
AcDbEntity
  8
0-3_仕上げ
  6
Continuous
 62
     7
370
     9
100
AcDbLine
 10
3058.999228297053
 20
-2501.000150113493
 30
0.0
 11
3058.999228297053
 21
-441.0001501134906
 31
0.0
  0
LINE
  5
4A4
330
1F
100
AcDbEntity
  8
0-3_仕上げ
  6
Continuous
 62
     7
370
     9
100
AcDbLine
 10
3058.999228297053
 20
-441.0001501134906
 30
0.0
 11
3069.299228297054
 21
-430.7001501134906
 31
0.0
  0
LINE
  5
4A5
330
1F
100
AcDbEntity
  8
0-3_仕上げ
  6
Continuous
 62
     7
370
     9
100
AcDbLine
 10
3214.999228297055
 20
-425.0001501134906
 30
0.0
 11
3202.999228297056
 21
-413.0001501134905
 31
0.0
  0
LINE
  5
4A6
330
1F
100
AcDbEntity
  8
0-3_仕上げ
  6
Continuous
 62
     7
370
     9
100
AcDbLine
 10
3504.999228297055
 20
-413.0001501134905
 30
0.0
 11
3492.999228297054
 21
-425.0001501134906
 31
0.0
  0
LINE
  5
4A7
330
1F
100
AcDbEntity
  8
0-3_仕上げ
  6
Continuous
 62
     7
370
     9
100
AcDbLine
 10
3202.999228297056
 20
-413.0001501134905
 30
0.0
 11
3504.999228297055
 21
-413.0001501134905
 31
0.0
  0
LINE
  5
4A8
330
1F
100
AcDbEntity
  8
0-3_仕上げ
  6
Continuous
 62
     7
370
     9
100
AcDbLine
 10
3214.999228297055
 20
-425.0001501134906
 30
0.0
 11
3492.999228297054
 21
-425.0001501134906
 31
0.0
  0
LINE
  5
4A9
330
1F
100
AcDbEntity
  8
0-3_仕上げ
  6
Continuous
 62
     7
370
     9
100
AcDbLine
 10
3202.999228297056
 20
-2613.000150113492
 30
0.0
 11
3202.999228297056
 21
-329.000150113491
 31
0.0
  0
LINE
  5
4AA
330
1F
100
AcDbEntity
  8
0-3_仕上げ
  6
Continuous
 62
     7
370
     9
100
AcDbLine
 10
3504.999228297056
 20
-2613.000150113492
 30
0.0
 11
3504.999228297056
 21
-329.000150113491
 31
0.0
  0
LINE
  5
4AB
330
1F
100
AcDbEntity
  8
0-3_仕上げ
  6
Continuous
 62
     7
370
     9
100
AcDbLine
 10
3214.999228297055
 20
-2517.000150113493
 30
0.0
 11
3214.999228297055
 21
-425.0001501134906
 31
0.0
  0
LINE
  5
4AC
330
1F
100
AcDbEntity
  8
0-3_仕上げ
  6
Continuous
 62
     7
370
     9
100
AcDbLine
 10
3492.999228297054
 20
-2517.000150113493
 30
0.0
 11
3492.999228297054
 21
-425.0001501134906
 31
0.0
  0
LINE
  5
4AD
330
1F
100
AcDbEntity
  8
0-3_仕上げ
  6
Continuous
 62
     7
370
     9
100
AcDbLine
 10
3230.999228297056
 20
-2501.000150113493
 30
0.0
 11
3230.999228297056
 21
-441.0001501134906
 31
0.0
  0
LINE
  5
4AE
330
1F
100
AcDbEntity
  8
0-3_仕上げ
  6
Continuous
 62
     7
370
     9
100
AcDbLine
 10
3230.999228297056
 20
-441.0001501134906
 30
0.0
 11
3220.534228297056
 21
-430.5351501134902
 31
0.0
  0
LINE
  5
4AF
330
1F
100
AcDbEntity
  8
0-3_仕上げ
  6
Continuous
 62
     7
370
     9
100
AcDbLine
 10
3230.999228297056
 20
-441.0001501134906
 30
0.0
 11
3476.999228297055
 21
-441.0001501134906
 31
0.0
  0
LINE
  5
4B0
330
1F
100
AcDbEntity
  8
0-3_仕上げ
  6
Continuous
 62
     7
370
     9
100
AcDbLine
 10
3476.999228297055
 20
-2501.000150113493
 30
0.0
 11
3476.999228297055
 21
-441.0001501134906
 31
0.0
  0
LINE
  5
4B1
330
1F
100
AcDbEntity
  8
0-3_仕上げ
  6
Continuous
 62
     7
370
     9
100
AcDbLine
 10
3476.999228297055
 20
-441.0001501134906
 30
0.0
 11
3487.299228297054
 21
-430.7001501134906
 31
0.0
  0
LINE
  5
4B2
330
1F
100
AcDbEntity
  8
0-3_仕上げ
  6
Continuous
 62
     7
370
     9
100
AcDbLine
 10
3631.999228297054
 20
-425.0001501134915
 30
0.0
 11
3619.999228297055
 21
-413.0001501134913
 31
0.0
  0
LINE
  5
4B3
330
1F
100
AcDbEntity
  8
0-3_仕上げ
  6
Continuous
 62
     7
370
     9
100
AcDbLine
 10
3921.999228297053
 20
-413.0001501134913
 30
0.0
 11
3909.999228297054
 21
-425.0001501134915
 31
0.0
  0
LINE
  5
4B4
330
1F
100
AcDbEntity
  8
0-3_仕上げ
  6
Continuous
 62
     7
370
     9
100
AcDbLine
 10
3619.999228297055
 20
-413.0001501134913
 30
0.0
 11
3921.999228297053
 21
-413.0001501134913
 31
0.0
  0
LINE
  5
4B5
330
1F
100
AcDbEntity
  8
0-3_仕上げ
  6
Continuous
 62
     7
370
     9
100
AcDbLine
 10
3631.999228297054
 20
-425.0001501134915
 30
0.0
 11
3909.999228297054
 21
-425.0001501134915
 31
0.0
  0
LINE
  5
4B6
330
1F
100
AcDbEntity
  8
0-3_仕上げ
  6
Continuous
 62
     7
370
     9
100
AcDbLine
 10
3619.999228297055
 20
-2613.000150113493
 30
0.0
 11
3619.999228297055
 21
-329.0001501134918
 31
0.0
  0
LINE
  5
4B7
330
1F
100
AcDbEntity
  8
0-3_仕上げ
  6
Continuous
 62
     7
370
     9
100
AcDbLine
 10
3921.999228297055
 20
-2613.000150113493
 30
0.0
 11
3921.999228297055
 21
-329.0001501134918
 31
0.0
  0
LINE
  5
4B8
330
1F
100
AcDbEntity
  8
0-3_仕上げ
  6
Continuous
 62
     7
370
     9
100
AcDbLine
 10
3631.999228297054
 20
-2517.000150113493
 30
0.0
 11
3631.999228297054
 21
-425.0001501134915
 31
0.0
  0
LINE
  5
4B9
330
1F
100
AcDbEntity
  8
0-3_仕上げ
  6
Continuous
 62
     7
370
     9
100
AcDbLine
 10
3909.999228297054
 20
-2517.000150113493
 30
0.0
 11
3909.999228297054
 21
-425.0001501134915
 31
0.0
  0
LINE
  5
4BA
330
1F
100
AcDbEntity
  8
0-3_仕上げ
  6
Continuous
 62
     7
370
     9
100
AcDbLine
 10
3647.999228297054
 20
-2501.000150113493
 30
0.0
 11
3647.999228297054
 21
-441.0001501134914
 31
0.0
  0
LINE
  5
4BB
330
1F
100
AcDbEntity
  8
0-3_仕上げ
  6
Continuous
 62
     7
370
     9
100
AcDbLine
 10
3647.999228297054
 20
-441.0001501134914
 30
0.0
 11
3637.534228297055
 21
-430.5351501134911
 31
0.0
  0
LINE
  5
4BC
330
1F
100
AcDbEntity
  8
0-3_仕上げ
  6
Continuous
 62
     7
370
     9
100
AcDbLine
 10
3647.999228297054
 20
-441.0001501134914
 30
0.0
 11
3893.999228297055
 21
-441.0001501134914
 31
0.0
  0
LINE
  5
4BD
330
1F
100
AcDbEntity
  8
0-3_仕上げ
  6
Continuous
 62
     7
370
     9
100
AcDbLine
 10
3893.999228297055
 20
-2501.000150113493
 30
0.0
 11
3893.999228297055
 21
-441.0001501134914
 31
0.0
  0
LINE
  5
4BE
330
1F
100
AcDbEntity
  8
0-3_仕上げ
  6
Continuous
 62
     7
370
     9
100
AcDbLine
 10
3893.999228297055
 20
-441.0001501134914
 30
0.0
 11
3904.299228297054
 21
-430.7001501134914
 31
0.0
  0
LINE
  5
4BF
330
1F
100
AcDbEntity
  8
0-3_仕上げ
  6
Continuous
 62
     7
370
     9
100
AcDbLine
 10
4049.999228297054
 20
-425.0001501134915
 30
0.0
 11
4037.999228297055
 21
-413.0001501134913
 31
0.0
  0
LINE
  5
4C0
330
1F
100
AcDbEntity
  8
0-3_仕上げ
  6
Continuous
 62
     7
370
     9
100
AcDbLine
 10
4339.999228297055
 20
-413.0001501134913
 30
0.0
 11
4327.999228297054
 21
-425.0001501134915
 31
0.0
  0
LINE
  5
4C1
330
1F
100
AcDbEntity
  8
0-3_仕上げ
  6
Continuous
 62
     7
370
     9
100
AcDbLine
 10
4037.999228297055
 20
-413.0001501134913
 30
0.0
 11
4339.999228297055
 21
-413.0001501134913
 31
0.0
  0
LINE
  5
4C2
330
1F
100
AcDbEntity
  8
0-3_仕上げ
  6
Continuous
 62
     7
370
     9
100
AcDbLine
 10
4049.999228297054
 20
-425.0001501134915
 30
0.0
 11
4327.999228297054
 21
-425.0001501134915
 31
0.0
  0
LINE
  5
4C3
330
1F
100
AcDbEntity
  8
0-3_仕上げ
  6
Continuous
 62
     7
370
     9
100
AcDbLine
 10
4037.999228297055
 20
-2613.000150113493
 30
0.0
 11
4037.999228297055
 21
-329.0001501134918
 31
0.0
  0
LINE
  5
4C4
330
1F
100
AcDbEntity
  8
0-3_仕上げ
  6
Continuous
 62
     7
370
     9
100
AcDbLine
 10
4339.999228297055
 20
-2613.000150113493
 30
0.0
 11
4339.999228297055
 21
-329.0001501134918
 31
0.0
  0
LINE
  5
4C5
330
1F
100
AcDbEntity
  8
0-3_仕上げ
  6
Continuous
 62
     7
370
     9
100
AcDbLine
 10
4049.999228297054
 20
-2517.000150113493
 30
0.0
 11
4049.999228297054
 21
-425.0001501134915
 31
0.0
  0
LINE
  5
4C6
330
1F
100
AcDbEntity
  8
0-3_仕上げ
  6
Continuous
 62
     7
370
     9
100
AcDbLine
 10
4327.999228297054
 20
-2517.000150113493
 30
0.0
 11
4327.999228297054
 21
-425.0001501134915
 31
0.0
  0
LINE
  5
4C7
330
1F
100
AcDbEntity
  8
0-3_仕上げ
  6
Continuous
 62
     7
370
     9
100
AcDbLine
 10
4065.999228297055
 20
-2501.000150113493
 30
0.0
 11
4065.999228297055
 21
-441.0001501134914
 31
0.0
  0
LINE
  5
4C8
330
1F
100
AcDbEntity
  8
0-3_仕上げ
  6
Continuous
 62
     7
370
     9
100
AcDbLine
 10
4065.999228297055
 20
-441.0001501134914
 30
0.0
 11
4055.534228297055
 21
-430.5351501134911
 31
0.0
  0
LINE
  5
4C9
330
1F
100
AcDbEntity
  8
0-3_仕上げ
  6
Continuous
 62
     7
370
     9
100
AcDbLine
 10
4065.999228297055
 20
-441.0001501134914
 30
0.0
 11
4311.999228297055
 21
-441.0001501134914
 31
0.0
  0
LINE
  5
4CA
330
1F
100
AcDbEntity
  8
0-3_仕上げ
  6
Continuous
 62
     7
370
     9
100
AcDbLine
 10
4311.999228297055
 20
-2501.000150113493
 30
0.0
 11
4311.999228297055
 21
-441.0001501134914
 31
0.0
  0
LINE
  5
4CB
330
1F
100
AcDbEntity
  8
0-3_仕上げ
  6
Continuous
 62
     7
370
     9
100
AcDbLine
 10
4311.999228297055
 20
-441.0001501134914
 30
0.0
 11
4322.299228297054
 21
-430.7001501134914
 31
0.0
  0
LINE
  5
4CC
330
1F
100
AcDbEntity
  8
0-3_仕上げ
  6
Continuous
 62
     7
370
     9
100
AcDbLine
 10
4466.999228297052
 20
-425.0001501134923
 30
0.0
 11
4454.999228297054
 21
-413.0001501134922
 31
0.0
  0
LINE
  5
4CD
330
1F
100
AcDbEntity
  8
0-3_仕上げ
  6
Continuous
 62
     7
370
     9
100
AcDbLine
 10
4756.999228297054
 20
-413.0001501134922
 30
0.0
 11
4744.999228297053
 21
-425.0001501134923
 31
0.0
  0
LINE
  5
4CE
330
1F
100
AcDbEntity
  8
0-3_仕上げ
  6
Continuous
 62
     7
370
     9
100
AcDbLine
 10
4454.999228297054
 20
-413.0001501134922
 30
0.0
 11
4756.999228297054
 21
-413.0001501134922
 31
0.0
  0
LINE
  5
4CF
330
1F
100
AcDbEntity
  8
0-3_仕上げ
  6
Continuous
 62
     7
370
     9
100
AcDbLine
 10
4466.999228297052
 20
-425.0001501134923
 30
0.0
 11
4744.999228297053
 21
-425.0001501134923
 31
0.0
  0
LINE
  5
4D0
330
1F
100
AcDbEntity
  8
0-3_仕上げ
  6
Continuous
 62
     7
370
     9
100
AcDbLine
 10
4454.999228297054
 20
-2613.000150113494
 30
0.0
 11
4454.999228297054
 21
-329.0001501134927
 31
0.0
  0
LINE
  5
4D1
330
1F
100
AcDbEntity
  8
0-3_仕上げ
  6
Continuous
 62
     7
370
     9
100
AcDbLine
 10
4756.999228297054
 20
-2613.000150113494
 30
0.0
 11
4756.999228297054
 21
-329.0001501134927
 31
0.0
  0
LINE
  5
4D2
330
1F
100
AcDbEntity
  8
0-3_仕上げ
  6
Continuous
 62
     7
370
     9
100
AcDbLine
 10
4466.999228297052
 20
-2517.000150113494
 30
0.0
 11
4466.999228297052
 21
-425.0001501134923
 31
0.0
  0
LINE
  5
4D3
330
1F
100
AcDbEntity
  8
0-3_仕上げ
  6
Continuous
 62
     7
370
     9
100
AcDbLine
 10
4744.999228297053
 20
-2517.000150113494
 30
0.0
 11
4744.999228297053
 21
-425.0001501134923
 31
0.0
  0
LINE
  5
4D4
330
1F
100
AcDbEntity
  8
0-3_仕上げ
  6
Continuous
 62
     7
370
     9
100
AcDbLine
 10
4482.999228297054
 20
-2501.000150113494
 30
0.0
 11
4482.999228297054
 21
-441.0001501134923
 31
0.0
  0
LINE
  5
4D5
330
1F
100
AcDbEntity
  8
0-3_仕上げ
  6
Continuous
 62
     7
370
     9
100
AcDbLine
 10
4482.999228297054
 20
-441.0001501134923
 30
0.0
 11
4472.534228297054
 21
-430.5351501134919
 31
0.0
  0
LINE
  5
4D6
330
1F
100
AcDbEntity
  8
0-3_仕上げ
  6
Continuous
 62
     7
370
     9
100
AcDbLine
 10
4482.999228297054
 20
-441.0001501134923
 30
0.0
 11
4728.999228297054
 21
-441.0001501134923
 31
0.0
  0
LINE
  5
4D7
330
1F
100
AcDbEntity
  8
0-3_仕上げ
  6
Continuous
 62
     7
370
     9
100
AcDbLine
 10
4728.999228297054
 20
-2501.000150113494
 30
0.0
 11
4728.999228297054
 21
-441.0001501134923
 31
0.0
  0
LINE
  5
4D8
330
1F
100
AcDbEntity
  8
0-3_仕上げ
  6
Continuous
 62
     7
370
     9
100
AcDbLine
 10
4728.999228297054
 20
-441.0001501134923
 30
0.0
 11
4739.299228297054
 21
-430.7001501134923
 31
0.0
  0
MTEXT
  5
4D9
330
1F
100
AcDbEntity
  8
0-B_寸法
  6
Continuous
 62
     7
370
   211
100
AcDbMText
 10
-4059.000144082147
 20
-1686.175150113492
 30
0.0
 40
57.14999999999999
 41
412.5
 46
0.0
 71
     7
 72
     1
  1
{\fＭＳ ゴシック|b0|i0|c128|p49;ＤＨ＝2,284}
 11
6.123031769111886E-17
 21
1.0
 31
0.0
 73
     1
 44
1.0
  0
MTEXT
  5
4DA
330
1F
100
AcDbEntity
  8
0-B_寸法
  6
Continuous
 62
     7
370
   211
100
AcDbMText
 10
1133.499228297053
 20
-1686.175150113492
 30
0.0
 40
57.14999999999999
 41
412.5
 46
0.0
 71
     7
 72
     1
  1
{\fＭＳ ゴシック|b0|i0|c128|p49;ＤＨ＝2,284}
 11
6.123031769111886E-17
 21
1.0
 31
0.0
 73
     1
 44
1.0
  0
MTEXT
  5
4DB
330
1F
100
AcDbEntity
  8
0-B_寸法
  6
Continuous
 62
     7
370
   211
100
AcDbMText
 10
-3265.051277517913
 20
-2811.994204428824
 30
0.0
 40
57.15
 41
37.5
 46
0.0
 71
     7
 72
     1
  1
{\fＭＳ ゴシック|b0|i0|c128|p49;1}
 73
     1
 44
1.0
  0
MTEXT
  5
4DC
330
1F
100
AcDbEntity
  8
0-B_寸法
  6
Continuous
 62
     7
370
   211
100
AcDbMText
 10
1927.448094861289
 20
-2811.994204428824
 30
0.0
 40
57.15
 41
37.5
 46
0.0
 71
     7
 72
     1
  1
{\fＭＳ ゴシック|b0|i0|c128|p49;1}
 73
     1
 44
1.0
  0
MTEXT
  5
4DD
330
1F
100
AcDbEntity
  8
0-B_寸法
  6
Continuous
 62
     7
370
   211
100
AcDbMText
 10
-3564.750144082147
 20
-2927.425150113492
 30
0.0
 40
57.15
 41
112.5
 46
0.0
 71
     7
 72
     1
  1
{\fＭＳ ゴシック|b0|i0|c128|p49;416}
 73
     1
 44
1.0
  0
MTEXT
  5
4DE
330
1F
100
AcDbEntity
  8
0-B_寸法
  6
Continuous
 62
     7
370
   211
100
AcDbMText
 10
-3147.750144082145
 20
-2927.425150113492
 30
0.0
 40
57.15
 41
112.5
 46
0.0
 71
     7
 72
     1
  1
{\fＭＳ ゴシック|b0|i0|c128|p49;416}
 73
     1
 44
1.0
  0
MTEXT
  5
4DF
330
1F
100
AcDbEntity
  8
0-B_寸法
  6
Continuous
 62
     7
370
   211
100
AcDbMText
 10
1627.749228297053
 20
-2927.425150113492
 30
0.0
 40
57.15
 41
112.5
 46
0.0
 71
     7
 72
     1
  1
{\fＭＳ ゴシック|b0|i0|c128|p49;416}
 73
     1
 44
1.0
  0
MTEXT
  5
4E0
330
1F
100
AcDbEntity
  8
0-B_寸法
  6
Continuous
 62
     7
370
   211
100
AcDbMText
 10
2044.749228297054
 20
-2927.425150113492
 30
0.0
 40
57.15
 41
112.5
 46
0.0
 71
     7
 72
     1
  1
{\fＭＳ ゴシック|b0|i0|c128|p49;416}
 73
     1
 44
1.0
  0
MTEXT
  5
4E1
330
1F
100
AcDbEntity
  8
0-B_寸法
  6
Continuous
 62
     7
370
   211
100
AcDbMText
 10
-2847.55127751791
 20
-3011.994204428825
 30
0.0
 40
57.15
 41
37.5
 46
0.0
 71
     7
 72
     1
  1
{\fＭＳ ゴシック|b0|i0|c128|p49;2}
 73
     1
 44
1.0
  0
MTEXT
  5
4E2
330
1F
100
AcDbEntity
  8
0-B_寸法
  6
Continuous
 62
     7
370
   211
100
AcDbMText
 10
-2012.55127751791
 20
-3011.994204428825
 30
0.0
 40
57.15
 41
37.5
 46
0.0
 71
     7
 72
     1
  1
{\fＭＳ ゴシック|b0|i0|c128|p49;2}
 73
     1
 44
1.0
  0
MTEXT
  5
4E3
330
1F
100
AcDbEntity
  8
0-B_寸法
  6
Continuous
 62
     7
370
   211
100
AcDbMText
 10
2344.948094861289
 20
-3011.994204428825
 30
0.0
 40
57.15
 41
37.5
 46
0.0
 71
     7
 72
     1
  1
{\fＭＳ ゴシック|b0|i0|c128|p49;2}
 73
     1
 44
1.0
  0
MTEXT
  5
4E4
330
1F
100
AcDbEntity
  8
0-B_寸法
  6
Continuous
 62
     7
370
   211
100
AcDbMText
 10
3179.948094861289
 20
-3011.994204428825
 30
0.0
 40
57.15
 41
37.5
 46
0.0
 71
     7
 72
     1
  1
{\fＭＳ ゴシック|b0|i0|c128|p49;2}
 73
     1
 44
1.0
  0
MTEXT
  5
4E5
330
1F
100
AcDbEntity
  8
0-B_寸法
  6
Continuous
 62
     7
370
   211
100
AcDbMText
 10
4014.948094861288
 20
-3011.994204428825
 30
0.0
 40
57.15
 41
37.5
 46
0.0
 71
     7
 72
     1
  1
{\fＭＳ ゴシック|b0|i0|c128|p49;2}
 73
     1
 44
1.0
  0
MTEXT
  5
4E6
330
1F
100
AcDbEntity
  8
0-B_寸法
  6
Continuous
 62
     7
370
   211
100
AcDbMText
 10
-3468.750144082146
 20
-3127.425150113493
 30
0.0
 40
57.15
 41
337.5
 46
0.0
 71
     7
 72
     1
  1
{\fＭＳ ゴシック|b0|i0|c128|p49;ＤＷ＝833}
 73
     1
 44
1.0
  0
MTEXT
  5
4E7
330
1F
100
AcDbEntity
  8
0-B_寸法
  6
Continuous
 62
     7
370
   211
100
AcDbMText
 10
-2633.750144082145
 20
-3127.425150113493
 30
0.0
 40
57.15
 41
337.5
 46
0.0
 71
     7
 72
     1
  1
{\fＭＳ ゴシック|b0|i0|c128|p49;ＤＷ＝833}
 73
     1
 44
1.0
  0
MTEXT
  5
4E8
330
1F
100
AcDbEntity
  8
0-B_寸法
  6
Continuous
 62
     7
370
   211
100
AcDbMText
 10
-1798.750144082146
 20
-3127.425150113493
 30
0.0
 40
57.15
 41
337.5
 46
0.0
 71
     7
 72
     1
  1
{\fＭＳ ゴシック|b0|i0|c128|p49;ＤＷ＝833}
 73
     1
 44
1.0
  0
MTEXT
  5
4E9
330
1F
100
AcDbEntity
  8
0-B_寸法
  6
Continuous
 62
     7
370
   211
100
AcDbMText
 10
1723.749228297055
 20
-3127.425150113493
 30
0.0
 40
57.15
 41
337.5
 46
0.0
 71
     7
 72
     1
  1
{\fＭＳ ゴシック|b0|i0|c128|p49;ＤＷ＝833}
 73
     1
 44
1.0
  0
MTEXT
  5
4EA
330
1F
100
AcDbEntity
  8
0-B_寸法
  6
Continuous
 62
     7
370
   211
100
AcDbMText
 10
2558.749228297055
 20
-3127.425150113493
 30
0.0
 40
57.15
 41
337.5
 46
0.0
 71
     7
 72
     1
  1
{\fＭＳ ゴシック|b0|i0|c128|p49;ＤＷ＝833}
 73
     1
 44
1.0
  0
MTEXT
  5
4EB
330
1F
100
AcDbEntity
  8
0-B_寸法
  6
Continuous
 62
     7
370
   211
100
AcDbMText
 10
3393.749228297054
 20
-3127.425150113493
 30
0.0
 40
57.15
 41
337.5
 46
0.0
 71
     7
 72
     1
  1
{\fＭＳ ゴシック|b0|i0|c128|p49;ＤＷ＝833}
 73
     1
 44
1.0
  0
MTEXT
  5
4EC
330
1F
100
AcDbEntity
  8
0-B_寸法
  6
Continuous
 62
     7
370
   211
100
AcDbMText
 10
4228.749228297054
 20
-3127.425150113493
 30
0.0
 40
57.15
 41
337.5
 46
0.0
 71
     7
 72
     1
  1
{\fＭＳ ゴシック|b0|i0|c128|p49;ＤＷ＝833}
 73
     1
 44
1.0
  0
LINE
  5
4ED
330
1F
100
AcDbEntity
  8
0-1_通り芯
  6
JWW_CENTER1
 62
   120
370
     5
100
AcDbLine
 10
-3591.166852590201
 20
2394.49981854413
 30
0.0
 11
-3591.166852590201
 21
2240.49981854413
 31
0.0
  0
LINE
  5
4EE
330
1F
100
AcDbEntity
  8
0-1_通り芯
  6
JWW_CENTER1
 62
   120
370
     5
100
AcDbLine
 10
-3576.166852590201
 20
2317.49981854413
 30
0.0
 11
-3606.166852590199
 21
2317.49981854413
 31
0.0
  0
LINE
  5
4EF
330
1F
100
AcDbEntity
  8
0-1_通り芯
  6
JWW_CENTER1
 62
   120
370
     5
100
AcDbLine
 10
3716.665811280947
 20
2394.49981854413
 30
0.0
 11
3716.665811280947
 21
2240.49981854413
 31
0.0
  0
LINE
  5
4F0
330
1F
100
AcDbEntity
  8
0-1_通り芯
  6
JWW_CENTER1
 62
   120
370
     5
100
AcDbLine
 10
3731.665811280946
 20
2317.49981854413
 30
0.0
 11
3701.665811280947
 21
2317.49981854413
 31
0.0
  0
LINE
  5
4F1
330
1F
100
AcDbEntity
  8
0-1_通り芯
  6
JWW_CENTER1
 62
   120
370
     5
100
AcDbLine
 10
4436.665811280947
 20
2394.49981854413
 30
0.0
 11
4436.665811280947
 21
2240.49981854413
 31
0.0
  0
LINE
  5
4F2
330
1F
100
AcDbEntity
  8
0-1_通り芯
  6
JWW_CENTER1
 62
   120
370
     5
100
AcDbLine
 10
4451.665811280947
 20
2317.49981854413
 30
0.0
 11
4421.665811280949
 21
2317.49981854413
 31
0.0
  0
LINE
  5
4F3
330
1F
100
AcDbEntity
  8
0-1_通り芯
  6
JWW_CENTER1
 62
   120
370
     5
100
AcDbLine
 10
-174.5005206546267
 20
2394.49981854413
 30
0.0
 11
-174.5005206546267
 21
2240.49981854413
 31
0.0
  0
LINE
  5
4F4
330
1F
100
AcDbEntity
  8
0-1_通り芯
  6
JWW_CENTER1
 62
   120
370
     5
100
AcDbLine
 10
-159.5005206546276
 20
2317.49981854413
 30
0.0
 11
-189.5005206546259
 21
2317.49981854413
 31
0.0
  0
LINE
  5
4F5
330
1F
100
AcDbEntity
  8
0-1_通り芯
  6
JWW_CENTER1
 62
   120
370
     5
100
AcDbLine
 10
322.499479345374
 20
2394.49981854413
 30
0.0
 11
322.499479345374
 21
2240.49981854413
 31
0.0
  0
LINE
  5
4F6
330
1F
100
AcDbEntity
  8
0-1_通り芯
  6
JWW_CENTER1
 62
   120
370
     5
100
AcDbLine
 10
337.4994793453732
 20
2317.49981854413
 30
0.0
 11
307.4994793453749
 21
2317.49981854413
 31
0.0
  0
LINE
  5
4F7
330
1F
100
AcDbEntity
  8
0-1_通り芯
  6
JWW_CENTER1
 62
   120
370
     5
100
AcDbLine
 10
-3264.500144082144
 20
-1586.000150113493
 30
0.0
 11
-3264.500144082144
 21
-1740.000150113492
 31
0.0
  0
LINE
  5
4F8
330
1F
100
AcDbEntity
  8
0-1_通り芯
  6
JWW_CENTER1
 62
   120
370
     5
100
AcDbLine
 10
-3249.500144082148
 20
-1663.000150113492
 30
0.0
 11
-3279.500144082142
 21
-1663.000150113492
 31
0.0
  0
LINE
  5
4F9
330
1F
100
AcDbEntity
  8
0-1_通り芯
  6
JWW_CENTER1
 62
   120
370
     5
100
AcDbLine
 10
-2429.500144082145
 20
-1586.000150113493
 30
0.0
 11
-2429.500144082145
 21
-1740.000150113492
 31
0.0
  0
LINE
  5
4FA
330
1F
100
AcDbEntity
  8
0-1_通り芯
  6
JWW_CENTER1
 62
   120
370
     5
100
AcDbLine
 10
-2414.500144082147
 20
-1663.000150113492
 30
0.0
 11
-2444.500144082143
 21
-1663.000150113492
 31
0.0
  0
LINE
  5
4FB
330
1F
100
AcDbEntity
  8
0-1_通り芯
  6
JWW_CENTER1
 62
   120
370
     5
100
AcDbLine
 10
-1665.500144082146
 20
-1586.000150113493
 30
0.0
 11
-1665.500144082146
 21
-1740.000150113493
 31
0.0
  0
LINE
  5
4FC
330
1F
100
AcDbEntity
  8
0-1_通り芯
  6
JWW_CENTER1
 62
   120
370
     5
100
AcDbLine
 10
-1650.500144082146
 20
-1663.000150113493
 30
0.0
 11
-1680.500144082144
 21
-1663.000150113493
 31
0.0
  0
LINE
  5
4FD
330
1F
100
AcDbEntity
  8
0-1_通り芯
  6
JWW_CENTER1
 62
   120
370
     5
100
AcDbLine
 10
1927.999228297054
 20
-1586.000150113493
 30
0.0
 11
1927.999228297054
 21
-1740.000150113492
 31
0.0
  0
LINE
  5
4FE
330
1F
100
AcDbEntity
  8
0-1_通り芯
  6
JWW_CENTER1
 62
   120
370
     5
100
AcDbLine
 10
1942.999228297053
 20
-1663.000150113492
 30
0.0
 11
1912.999228297056
 21
-1663.000150113492
 31
0.0
  0
LINE
  5
4FF
330
1F
100
AcDbEntity
  8
0-1_通り芯
  6
JWW_CENTER1
 62
   120
370
     5
100
AcDbLine
 10
2762.999228297054
 20
-1586.000150113493
 30
0.0
 11
2762.999228297054
 21
-1740.000150113492
 31
0.0
  0
LINE
  5
500
330
1F
100
AcDbEntity
  8
0-1_通り芯
  6
JWW_CENTER1
 62
   120
370
     5
100
AcDbLine
 10
2777.999228297054
 20
-1663.000150113492
 30
0.0
 11
2747.999228297056
 21
-1663.000150113492
 31
0.0
  0
LINE
  5
501
330
1F
100
AcDbEntity
  8
0-1_通り芯
  6
JWW_CENTER1
 62
   120
370
     5
100
AcDbLine
 10
3526.999228297055
 20
-1586.000150113493
 30
0.0
 11
3526.999228297055
 21
-1740.000150113493
 31
0.0
  0
LINE
  5
502
330
1F
100
AcDbEntity
  8
0-1_通り芯
  6
JWW_CENTER1
 62
   120
370
     5
100
AcDbLine
 10
3541.999228297054
 20
-1663.000150113493
 30
0.0
 11
3511.999228297056
 21
-1663.000150113493
 31
0.0
  0
LINE
  5
503
330
1F
100
AcDbEntity
  8
0-1_通り芯
  6
JWW_CENTER1
 62
   120
370
     5
100
AcDbLine
 10
4361.999228297053
 20
-1586.000150113494
 30
0.0
 11
4361.999228297053
 21
-1740.000150113494
 31
0.0
  0
LINE
  5
504
330
1F
100
AcDbEntity
  8
0-1_通り芯
  6
JWW_CENTER1
 62
   120
370
     5
100
AcDbLine
 10
4376.999228297053
 20
-1663.000150113494
 30
0.0
 11
4346.999228297055
 21
-1663.000150113494
 31
0.0
  0
LINE
  5
505
330
1F
100
AcDbEntity
  8
F-0_補助線
  6
JWW_HOJO
 62
   200
370
    20
100
AcDbLine
 10
-5999.99998453501
 20
84.49993236644843
 30
0.0
 11
5689.998977248734
 21
84.49993236644843
 31
0.0
  0
LINE
  5
506
330
1F
100
AcDbEntity
  8
F-0_補助線
  6
JWW_HOJO
 62
   200
370
    20
100
AcDbLine
 10
-5999.99998453501
 20
4064.999901024072
 30
0.0
 11
5689.998977248734
 21
4064.999901024072
 31
0.0
  0
MTEXT
  5
507
330
1F
100
AcDbEntity
  8
0-A_文字
  6
Continuous
 62
     7
370
     9
100
AcDbMText
 10
-5370.000018557986
 20
661.5754150803014
 30
0.0
 40
57.15000000000013
 41
900.0000000000025
 46
0.0
 71
     7
 72
     1
  1
{\fＭＳ ゴシック|b0|i0|c128|p49;枠外幅 724mm（DW=669mm）}
 73
     1
 44
1.0
  0
MTEXT
  5
508
330
1F
100
AcDbEntity
  8
0-A_文字
  6
Continuous
 62
     7
370
     9
100
AcDbMText
 10
-1643.333686622418
 20
661.5754150803018
 30
0.0
 40
57.15000000000097
 41
975.000000000017
 46
0.0
 71
     7
 72
     1
  1
{\fＭＳ ゴシック|b0|i0|c128|p49;枠外幅 1,189mm（DW=566mm）}
 73
     1
 44
1.0
  0
MTEXT
  5
509
330
1F
100
AcDbEntity
  8
0-A_文字
  6
Continuous
 62
     7
370
     9
100
AcDbMText
 10
2083.332645313158
 20
661.5754150803006
 30
0.0
 40
57.14999999999867
 41
974.9999999999778
 46
0.0
 71
     7
 72
     1
  1
{\fＭＳ ゴシック|b0|i0|c128|p49;枠外幅 1,635mm（DW=789mm）}
 73
     1
 44
1.0
  0
MTEXT
  5
50A
330
1F
100
AcDbEntity
  8
0-A_文字
  6
Continuous
 62
     7
370
     9
100
AcDbMText
 10
-5370.000018557987
 20
-3318.924785552164
 30
0.0
 40
57.15000000000013
 41
975.0000000000025
 46
0.0
 71
     7
 72
     1
  1
{\fＭＳ ゴシック|b0|i0|c128|p49;枠外幅 2,558mm（DW=833mm）}
 73
     1
 44
1.0
  0
MTEXT
  5
50B
330
1F
100
AcDbEntity
  8
0-A_文字
  6
Continuous
 62
     7
370
     9
100
AcDbMText
 10
219.9994793453794
 20
-3318.924785552164
 30
0.0
 40
57.15000000000003
 41
975.0000000000009
 46
0.0
 71
     7
 72
     1
  1
{\fＭＳ ゴシック|b0|i0|c128|p49;枠外幅 3,393mm（DW=833mm）}
 73
     1
 44
1.0
  0
MTEXT
  5
50C
330
1F
100
AcDbEntity
  8
F-A_文字
  6
Continuous
 62
     7
370
     0
100
AcDbMText
 10
4778.749126529666
 20
-3938.071010139966
 30
0.0
 40
78.86699999999999
 41
517.5
 46
0.0
 71
     7
 72
     1
  1
{\fＭＳ ゴシック|b0|i0|c128|p49;2023.05.01}
 73
     1
 44
1.0
  0
MTEXT
  5
50D
330
1F
100
AcDbEntity
  8
F-A_文字
  6
Continuous
 62
     7
370
     0
100
AcDbMText
 10
-5247.547376752838
 20
-4045.1792909171
 30
0.0
 40
79.64129032258064
 41
3240.0
 46
0.0
 71
     7
 72
     1
  1
{\fＭＳ ゴシック|b0|i0|c128|p49;ドレタス　クローゼットドア　立体框組角タイプ　Ｂ－ＹＡ　Ｈ８尺}
 73
     1
 44
1.0
  0
MTEXT
  5
50E
330
1F
100
AcDbEntity
  8
0-A_文字
  6
Continuous
 62
     7
370
     9
100
AcDbMText
 10
-5370.000018557986
 20
541.5751831054657
 30
0.0
 40
57.15
 41
525.0
 46
0.0
 71
     7
 72
     1
  1
{\fＭＳ ゴシック|b0|i0|c128|p49;アールのライン}
 73
     1
 44
1.0
  0
MTEXT
  5
50F
330
1F
100
AcDbEntity
  8
0-A_文字
  6
Continuous
 62
     7
370
     9
100
AcDbMText
 10
-5370.000018557986
 20
421.5749511306341
 30
0.0
 40
57.14999999999998
 41
1200.0
 46
0.0
 71
     7
 72
     1
  1
{\fＭＳ ゴシック|b0|i0|c128|p49;ミラー付の扉は対応していません。}
 73
     1
 44
1.0
  0
MTEXT
  5
510
330
1F
100
AcDbEntity
  8
0-A_文字
  6
Continuous
 62
     7
370
     9
100
AcDbMText
 10
-5370.00001855799
 20
301.5754150803033
 30
0.0
 40
57.15000000000029
 41
1012.500000000005
 46
0.0
 71
     7
 72
     1
  1
{\fＭＳ ゴシック|b0|i0|c128|p49;ＰＷ に木目柄はありません。}
 73
     1
 44
1.0
  0
MTEXT
  5
511
330
1F
100
AcDbEntity
  8
0-A_文字
  6
Continuous
 62
     7
370
     9
100
AcDbMText
 10
-1643.333686622412
 20
541.5751831054657
 30
0.0
 40
57.15
 41
525.0
 46
0.0
 71
     7
 72
     1
  1
{\fＭＳ ゴシック|b0|i0|c128|p49;アールのライン}
 73
     1
 44
1.0
  0
MTEXT
  5
512
330
1F
100
AcDbEntity
  8
0-A_文字
  6
Continuous
 62
     7
370
     9
100
AcDbMText
 10
-1643.333686622412
 20
421.5749511306341
 30
0.0
 40
57.14999999999998
 41
1200.0
 46
0.0
 71
     7
 72
     1
  1
{\fＭＳ ゴシック|b0|i0|c128|p49;ミラー付の扉は対応していません。}
 73
     1
 44
1.0
  0
MTEXT
  5
513
330
1F
100
AcDbEntity
  8
0-A_文字
  6
Continuous
 62
     7
370
     9
100
AcDbMText
 10
-1643.333686622417
 20
301.5754150803033
 30
0.0
 40
57.15000000000029
 41
1012.500000000005
 46
0.0
 71
     7
 72
     1
  1
{\fＭＳ ゴシック|b0|i0|c128|p49;ＰＷ に木目柄はありません。}
 73
     1
 44
1.0
  0
MTEXT
  5
514
330
1F
100
AcDbEntity
  8
0-A_文字
  6
Continuous
 62
     7
370
     9
100
AcDbMText
 10
2083.332645313161
 20
541.5751831054657
 30
0.0
 40
57.15
 41
525.0
 46
0.0
 71
     7
 72
     1
  1
{\fＭＳ ゴシック|b0|i0|c128|p49;アールのライン}
 73
     1
 44
1.0
  0
MTEXT
  5
515
330
1F
100
AcDbEntity
  8
0-A_文字
  6
Continuous
 62
     7
370
     9
100
AcDbMText
 10
2083.33264531316
 20
421.5749511306341
 30
0.0
 40
57.14999999999998
 41
1200.0
 46
0.0
 71
     7
 72
     1
  1
{\fＭＳ ゴシック|b0|i0|c128|p49;ミラー付の扉は対応していません。}
 73
     1
 44
1.0
  0
MTEXT
  5
516
330
1F
100
AcDbEntity
  8
0-A_文字
  6
Continuous
 62
     7
370
     9
100
AcDbMText
 10
2083.332645313156
 20
301.5754150803033
 30
0.0
 40
57.15000000000029
 41
1012.500000000005
 46
0.0
 71
     7
 72
     1
  1
{\fＭＳ ゴシック|b0|i0|c128|p49;ＰＷ に木目柄はありません。}
 73
     1
 44
1.0
  0
MTEXT
  5
517
330
1F
100
AcDbEntity
  8
0-A_文字
  6
Continuous
 62
     7
370
     9
100
AcDbMText
 10
-5370.000018557986
 20
-3438.925017526991
 30
0.0
 40
57.15
 41
525.0
 46
0.0
 71
     7
 72
     1
  1
{\fＭＳ ゴシック|b0|i0|c128|p49;アールのライン}
 73
     1
 44
1.0
  0
MTEXT
  5
518
330
1F
100
AcDbEntity
  8
0-A_文字
  6
Continuous
 62
     7
370
     9
100
AcDbMText
 10
-5370.000018557986
 20
-3558.925249501823
 30
0.0
 40
57.14999999999998
 41
1200.0
 46
0.0
 71
     7
 72
     1
  1
{\fＭＳ ゴシック|b0|i0|c128|p49;ミラー付の扉は対応していません。}
 73
     1
 44
1.0
  0
MTEXT
  5
519
330
1F
100
AcDbEntity
  8
0-A_文字
  6
Continuous
 62
     7
370
     9
100
AcDbMText
 10
-5370.00001855799
 20
-3678.924785552153
 30
0.0
 40
57.15000000000029
 41
1012.500000000005
 46
0.0
 71
     7
 72
     1
  1
{\fＭＳ ゴシック|b0|i0|c128|p49;ＰＷ に木目柄はありません。}
 73
     1
 44
1.0
  0
MTEXT
  5
51A
330
1F
100
AcDbEntity
  8
0-A_文字
  6
Continuous
 62
     7
370
     9
100
AcDbMText
 10
219.9994793453747
 20
-3438.925017526991
 30
0.0
 40
57.15
 41
525.0
 46
0.0
 71
     7
 72
     1
  1
{\fＭＳ ゴシック|b0|i0|c128|p49;アールのライン}
 73
     1
 44
1.0
  0
MTEXT
  5
51B
330
1F
100
AcDbEntity
  8
0-A_文字
  6
Continuous
 62
     7
370
     9
100
AcDbMText
 10
219.9994793453743
 20
-3558.925249501823
 30
0.0
 40
57.14999999999998
 41
1200.0
 46
0.0
 71
     7
 72
     1
  1
{\fＭＳ ゴシック|b0|i0|c128|p49;ミラー付の扉は対応していません。}
 73
     1
 44
1.0
  0
MTEXT
  5
51C
330
1F
100
AcDbEntity
  8
0-A_文字
  6
Continuous
 62
     7
370
     9
100
AcDbMText
 10
219.99947934537
 20
-3678.924785552153
 30
0.0
 40
57.15000000000029
 41
1012.500000000005
 46
0.0
 71
     7
 72
     1
  1
{\fＭＳ ゴシック|b0|i0|c128|p49;ＰＷ に木目柄はありません。}
 73
     1
 44
1.0
  0
ENDSEC
  0
SECTION
  2
OBJECTS
  0
DICTIONARY
  5
C
330
0
100
AcDbDictionary
281
     1
  3
ACAD_GROUP
350
D
  3
ACAD_LAYOUT
350
1A
  3
ACAD_MATERIAL
350
3B
  3
ACAD_MLEADERSTYLE
350
51E
  3
ACAD_MLINESTYLE
350
17
  3
ACAD_PLOTSETTINGS
350
19
  3
ACAD_PLOTSTYLENAME
350
E
  3
ACAD_TABLESTYLE
350
51D
  3
ACAD_VISUALSTYLE
350
2A
  0
DICTIONARY
  5
D
102
{ACAD_REACTORS
330
C
102
}
330
C
100
AcDbDictionary
281
     1
  0
DICTIONARY
  5
1A
102
{ACAD_REACTORS
330
C
102
}
330
C
100
AcDbDictionary
281
     1
  3
Layout1
350
1E
  3
Layout2
350
26
  3
Model
350
22
  0
DICTIONARY
  5
3B
102
{ACAD_REACTORS
330
C
102
}
330
C
100
AcDbDictionary
281
     1
  3
ByBlock
350
3D
  3
ByLayer
350
3C
  3
Global
350
3E
  0
DICTIONARY
  5
51E
102
{ACAD_REACTORS
330
C
102
}
330
C
100
AcDbDictionary
281
     1
  0
DICTIONARY
  5
17
102
{ACAD_REACTORS
330
C
102
}
330
C
100
AcDbDictionary
281
     1
  3
Standard
350
18
  0
DICTIONARY
  5
19
102
{ACAD_REACTORS
330
C
102
}
330
C
100
AcDbDictionary
281
     1
  0
ACDBDICTIONARYWDFLT
  5
E
102
{ACAD_REACTORS
330
C
102
}
330
C
100
AcDbDictionary
281
     1
  3
Normal
350
F
100
AcDbDictionaryWithDefault
340
F
  0
DICTIONARY
  5
51D
102
{ACAD_REACTORS
330
C
102
}
330
C
100
AcDbDictionary
281
     1
  0
DICTIONARY
  5
2A
102
{ACAD_REACTORS
330
C
102
}
330
C
100
AcDbDictionary
281
     1
  3
2dWireframe
350
2F
  3
3D Hidden
350
31
  3
3dWireframe
350
30
  3
Basic
350
32
  3
Brighten
350
36
  3
ColorChange
350
3A
  3
Conceptual
350
34
  3
Dim
350
35
  3
Facepattern
350
39
  3
Flat
350
2B
  3
FlatWithEdges
350
2C
  3
Gouraud
350
2D
  3
GouraudWithEdges
350
2E
  3
Linepattern
350
38
  3
Realistic
350
33
  3
Thicken
350
37
  0
LAYOUT
  5
1E
102
{ACAD_REACTORS
330
1A
102
}
330
1A
100
AcDbPlotSettings
  1

  2
none_device
  4

  6

 40
0.0
 41
0.0
 42
0.0
 43
0.0
 44
0.0
 45
0.0
 46
0.0
 47
0.0
 48
0.0
 49
0.0
140
0.0
141
0.0
142
1.0
143
1.0
 70
   688
 72
     0
 73
     0
 74
     5
  7

 75
    16
 76
     0
 77
     5
 78
   300
147
1.0
148
0.0
149
0.0
100
AcDbLayout
  1
Layout1
 70
     1
 71
     1
 10
0.0
 20
0.0
 11
420.0
 21
297.0
 12
0.0
 22
0.0
 32
0.0
 14
1.000000000000000E+20
 24
1.000000000000000E+20
 34
1.000000000000000E+20
 15
-1.000000000000000E+20
 25
-1.000000000000000E+20
 35
-1.000000000000000E+20
146
0.0
 13
0.0
 23
0.0
 33
0.0
 16
1.0
 26
0.0
 36
0.0
 17
0.0
 27
1.0
 37
0.0
 76
     0
330
1B
  0
LAYOUT
  5
26
102
{ACAD_REACTORS
330
1A
102
}
330
1A
100
AcDbPlotSettings
  1

  2
none_device
  4

  6

 40
0.0
 41
0.0
 42
0.0
 43
0.0
 44
0.0
 45
0.0
 46
0.0
 47
0.0
 48
0.0
 49
0.0
140
0.0
141
0.0
142
1.0
143
1.0
 70
   688
 72
     0
 73
     0
 74
     5
  7

 75
    16
 76
     0
 77
     5
 78
   300
147
1.0
148
0.0
149
0.0
100
AcDbLayout
  1
Layout2
 70
     1
 71
     2
 10
0.0
 20
0.0
 11
0.0
 21
0.0
 12
0.0
 22
0.0
 32
0.0
 14
0.0
 24
0.0
 34
0.0
 15
0.0
 25
0.0
 35
0.0
146
0.0
 13
0.0
 23
0.0
 33
0.0
 16
1.0
 26
0.0
 36
0.0
 17
0.0
 27
1.0
 37
0.0
 76
     0
330
23
  0
LAYOUT
  5
22
102
{ACAD_REACTORS
330
1A
102
}
330
1A
100
AcDbPlotSettings
  1

  2
none_device
  4

  6

 40
0.0
 41
0.0
 42
0.0
 43
0.0
 44
0.0
 45
0.0
 46
0.0
 47
0.0
 48
0.0
 49
0.0
140
0.0
141
0.0
142
1.0
143
1.0
 70
  1712
 72
     0
 73
     0
 74
     0
  7

 75
     0
 76
     0
 77
     5
 78
   300
147
1.0
148
0.0
149
0.0
100
AcDbLayout
  1
Model
 70
     1
 71
     0
 10
-8910.0
 20
-6300.0
 11
8910.0
 21
6300.0
 12
0.0
 22
0.0
 32
0.0
 14
-8910.0
 24
-6300.0
 34
0.0
 15
8910.0
 25
6300.0
 35
0.0
146
0.0
 13
0.0
 23
0.0
 33
0.0
 16
1.0
 26
0.0
 36
0.0
 17
0.0
 27
1.0
 37
0.0
 76
     0
330
1F
331
29
  0
MATERIAL
  5
3D
102
{ACAD_REACTORS
330
3B
102
}
330
3B
100
AcDbMaterial
  1
ByBlock
 72
     1
 94
      127
  0
MATERIAL
  5
3C
102
{ACAD_REACTORS
330
3B
102
}
330
3B
100
AcDbMaterial
  1
ByLayer
 72
     1
 94
      127
  0
MATERIAL
  5
3E
102
{ACAD_REACTORS
330
3B
102
}
330
3B
100
AcDbMaterial
  1
Global
 72
     1
 94
      127
  0
MLINESTYLE
  5
18
102
{ACAD_REACTORS
330
17
102
}
330
17
100
AcDbMlineStyle
  2
Standard
 70
     0
  3

 62
   256
 51
90.0
 52
90.0
 71
     2
 49
0.5
 62
   256
  6
BYLAYER
 49
-0.5
 62
   256
  6
BYLAYER
  0
ACDBPLACEHOLDER
  5
F
102
{ACAD_REACTORS
330
E
102
}
330
E
  0
VISUALSTYLE
  5
2F
102
{ACAD_REACTORS
330
2A
102
}
330
2A
100
AcDbVisualStyle
  2
2dWireframe
 70
     4
177
     2
291
     0
 71
     0
176
     1
 72
     2
176
     1
 73
     0
176
     1
 90
        0
176
     1
 40
-0.6
176
     1
 41
-30.0
176
     1
 62
     5
 63
     7
421
 16777215
176
     1
 74
     1
176
     1
 91
        4
176
     1
 64
     7
176
     1
 65
   257
176
     1
 75
     1
176
     1
175
     1
176
     1
 42
1.0
176
     1
 92
        0
176
     1
 66
   257
176
     1
 43
1.0
176
     1
 76
     1
176
     1
 77
     6
176
     1
 78
     2
176
     1
 67
     7
176
     1
 79
     5
176
     1
170
     0
176
     1
171
     0
176
     1
290
     0
176
     1
 93
        1
176
     1
 44
0.0
176
     1
173
     0
176
     1
  0
VISUALSTYLE
  5
31
102
{ACAD_REACTORS
330
2A
102
}
330
2A
100
AcDbVisualStyle
  2
3D Hidden
 70
     6
177
     2
291
     0
 71
     1
176
     1
 72
     2
176
     1
 73
     2
176
     1
 90
        0
176
     1
 40
-0.6
176
     1
 41
-30.0
176
     1
 62
     5
 63
     7
421
 16777215
176
     1
 74
     2
176
     1
 91
        2
176
     1
 64
     7
176
     1
 65
   257
176
     1
 75
     2
176
     1
175
     1
176
     1
 42
40.0
176
     1
 92
        0
176
     1
 66
   257
176
     1
 43
1.0
176
     1
 76
     1
176
     1
 77
     6
176
     1
 78
     2
176
     1
 67
     7
176
     1
 79
     3
176
     1
170
     0
176
     1
171
     0
176
     1
290
     0
176
     1
 93
        1
176
     1
 44
0.0
176
     1
173
     0
176
     1
  0
VISUALSTYLE
  5
30
102
{ACAD_REACTORS
330
2A
102
}
330
2A
100
AcDbVisualStyle
  2
3dWireframe
 70
     5
177
     2
291
     0
 71
     0
176
     1
 72
     2
176
     1
 73
     0
176
     1
 90
        0
176
     1
 40
-0.6
176
     1
 41
-30.0
176
     1
 62
     5
 63
     7
421
 16777215
176
     1
 74
     1
176
     1
 91
        4
176
     1
 64
     7
176
     1
 65
   257
176
     1
 75
     1
176
     1
175
     1
176
     1
 42
1.0
176
     1
 92
        0
176
     1
 66
   257
176
     1
 43
1.0
176
     1
 76
     1
176
     1
 77
     6
176
     1
 78
     2
176
     1
 67
     7
176
     1
 79
     5
176
     1
170
     0
176
     1
171
     0
176
     1
290
     0
176
     1
 93
        1
176
     1
 44
0.0
176
     1
173
     0
176
     1
  0
VISUALSTYLE
  5
32
102
{ACAD_REACTORS
330
2A
102
}
330
2A
100
AcDbVisualStyle
  2
Basic
 70
     7
177
     2
291
     1
 71
     1
176
     1
 72
     0
176
     1
 73
     1
176
     1
 90
        0
176
     1
 40
-0.6
176
     1
 41
-30.0
176
     1
 62
     5
 63
     7
421
 16777215
176
     1
 74
     0
176
     1
 91
        4
176
     1
 64
     7
176
     1
 65
   257
176
     1
 75
     1
176
     1
175
     1
176
     1
 42
1.0
176
     1
 92
        8
176
     1
 66
     7
176
     1
 43
1.0
176
     1
 76
     1
176
     1
 77
     6
176
     1
 78
     2
176
     1
 67
     7
176
     1
 79
     5
176
     1
170
     0
176
     1
171
     0
176
     1
290
     0
176
     1
 93
        1
176
     1
 44
0.0
176
     1
173
     0
176
     1
  0
VISUALSTYLE
  5
36
102
{ACAD_REACTORS
330
2A
102
}
330
2A
100
AcDbVisualStyle
  2
Brighten
 70
    12
177
     2
291
     1
 71
     2
176
     1
 72
     2
176
     1
 73
     0
176
     1
 90
        0
176
     1
 40
-0.6
176
     1
 41
-30.0
176
     1
 62
     5
 63
     7
421
 16777215
176
     1
 74
     1
176
     1
 91
        4
176
     1
 64
     7
176
     1
 65
   257
176
     1
 75
     1
176
     1
175
     1
176
     1
 42
1.0
176
     1
 92
        8
176
     1
 66
     7
176
     1
 43
1.0
176
     1
 76
     1
176
     1
 77
     6
176
     1
 78
     2
176
     1
 67
     7
176
     1
 79
     5
176
     1
170
     0
176
     1
171
     0
176
     1
290
     0
176
     1
 93
        1
176
     1
 44
50.0
176
     1
173
     0
176
     1
  0
VISUALSTYLE
  5
3A
102
{ACAD_REACTORS
330
2A
102
}
330
2A
100
AcDbVisualStyle
  2
ColorChange
 70
    16
177
     2
291
     1
 71
     2
176
     1
 72
     2
176
     1
 73
     3
176
     1
 90
        0
176
     1
 40
-0.6
176
     1
 41
-30.0
176
     1
 62
     5
 63
     8
421
  8421504
176
     1
 74
     1
176
     1
 91
        4
176
     1
 64
     7
176
     1
 65
   257
176
     1
 75
     1
176
     1
175
     1
176
     1
 42
1.0
176
     1
 92
        8
176
     1
 66
     8
424
  8421504
176
     1
 43
1.0
176
     1
 76
     1
176
     1
 77
     6
176
     1
 78
     2
176
     1
 67
     7
176
     1
 79
     5
176
     1
170
     0
176
     1
171
     0
176
     1
290
     0
176
     1
 93
        1
176
     1
 44
0.0
176
     1
173
     0
176
     1
  0
VISUALSTYLE
  5
34
102
{ACAD_REACTORS
330
2A
102
}
330
2A
100
AcDbVisualStyle
  2
Conceptual
 70
     9
177
     2
291
     0
 71
     3
176
     1
 72
     2
176
     1
 73
     0
176
     1
 90
        0
176
     1
 40
-0.6
176
     1
 41
-30.0
176
     1
 62
     5
 63
     7
421
 16777215
176
     1
 74
     2
176
     1
 91
        2
176
     1
 64
     7
176
     1
 65
   257
176
     1
 75
     1
176
     1
175
     1
176
     1
 42
40.0
176
     1
 92
        8
176
     1
 66
     7
176
     1
 43
1.0
176
     1
 76
     1
176
     1
 77
     6
176
     1
 78
     2
176
     1
 67
     7
176
     1
 79
     3
176
     1
170
     0
176
     1
171
     0
176
     1
290
     0
176
     1
 93
        1
176
     1
 44
0.0
176
     1
173
     0
176
     1
  0
VISUALSTYLE
  5
35
102
{ACAD_REACTORS
330
2A
102
}
330
2A
100
AcDbVisualStyle
  2
Dim
 70
    11
177
     2
291
     1
 71
     2
176
     1
 72
     2
176
     1
 73
     0
176
     1
 90
        0
176
     1
 40
-0.6
176
     1
 41
-30.0
176
     1
 62
     5
 63
     7
421
 16777215
176
     1
 74
     1
176
     1
 91
        4
176
     1
 64
     7
176
     1
 65
   257
176
     1
 75
     1
176
     1
175
     1
176
     1
 42
1.0
176
     1
 92
        8
176
     1
 66
     7
176
     1
 43
1.0
176
     1
 76
     1
176
     1
 77
     6
176
     1
 78
     2
176
     1
 67
     7
176
     1
 79
     5
176
     1
170
     0
176
     1
171
     0
176
     1
290
     0
176
     1
 93
        1
176
     1
 44
-50.0
176
     1
173
     0
176
     1
  0
VISUALSTYLE
  5
39
102
{ACAD_REACTORS
330
2A
102
}
330
2A
100
AcDbVisualStyle
  2
Facepattern
 70
    15
177
     2
291
     1
 71
     2
176
     1
 72
     2
176
     1
 73
     0
176
     1
 90
        0
176
     1
 40
-0.6
176
     1
 41
-30.0
176
     1
 62
     5
 63
     7
421
 16777215
176
     1
 74
     1
176
     1
 91
        4
176
     1
 64
     7
176
     1
 65
   257
176
     1
 75
     1
176
     1
175
     1
176
     1
 42
1.0
176
     1
 92
        8
176
     1
 66
     7
176
     1
 43
1.0
176
     1
 76
     1
176
     1
 77
     6
176
     1
 78
     2
176
     1
 67
     7
176
     1
 79
     5
176
     1
170
     0
176
     1
171
     0
176
     1
290
     0
176
     1
 93
        1
176
     1
 44
0.0
176
     1
173
     0
176
     1
  0
VISUALSTYLE
  5
2B
102
{ACAD_REACTORS
330
2A
102
}
330
2A
100
AcDbVisualStyle
  2
Flat
 70
     0
177
     2
291
     1
 71
     2
176
     1
 72
     1
176
     1
 73
     1
176
     1
 90
        2
176
     1
 40
-0.6
176
     1
 41
30.0
176
     1
 62
     5
 63
     7
421
 16777215
176
     1
 74
     0
176
     1
 91
        4
176
     1
 64
     7
176
     1
 65
   257
176
     1
 75
     1
176
     1
175
     1
176
     1
 42
1.0
176
     1
 92
        8
176
     1
 66
     7
176
     1
 43
1.0
176
     1
 76
     1
176
     1
 77
     6
176
     1
 78
     2
176
     1
 67
     7
176
     1
 79
     5
176
     1
170
     0
176
     1
171
     0
176
     1
290
     0
176
     1
 93
       13
176
     1
 44
0.0
176
     1
173
     0
176
     1
  0
VISUALSTYLE
  5
2C
102
{ACAD_REACTORS
330
2A
102
}
330
2A
100
AcDbVisualStyle
  2
FlatWithEdges
 70
     1
177
     2
291
     1
 71
     2
176
     1
 72
     1
176
     1
 73
     1
176
     1
 90
        2
176
     1
 40
-0.6
176
     1
 41
30.0
176
     1
 62
     5
 63
     7
421
 16777215
176
     1
 74
     1
176
     1
 91
        4
176
     1
 64
     7
176
     1
 65
   257
176
     1
 75
     1
176
     1
175
     1
176
     1
 42
1.0
176
     1
 92
        0
176
     1
 66
   257
176
     1
 43
1.0
176
     1
 76
     1
176
     1
 77
     6
176
     1
 78
     2
176
     1
 67
     7
176
     1
 79
     5
176
     1
170
     0
176
     1
171
     0
176
     1
290
     0
176
     1
 93
       13
176
     1
 44
0.0
176
     1
173
     0
176
     1
  0
VISUALSTYLE
  5
2D
102
{ACAD_REACTORS
330
2A
102
}
330
2A
100
AcDbVisualStyle
  2
Gouraud
 70
     2
177
     2
291
     1
 71
     2
176
     1
 72
     2
176
     1
 73
     1
176
     1
 90
        2
176
     1
 40
-0.6
176
     1
 41
30.0
176
     1
 62
     5
 63
     7
421
 16777215
176
     1
 74
     0
176
     1
 91
        4
176
     1
 64
     7
176
     1
 65
   257
176
     1
 75
     1
176
     1
175
     1
176
     1
 42
1.0
176
     1
 92
        0
176
     1
 66
     7
176
     1
 43
1.0
176
     1
 76
     1
176
     1
 77
     6
176
     1
 78
     2
176
     1
 67
     7
176
     1
 79
     5
176
     1
170
     0
176
     1
171
     0
176
     1
290
     0
176
     1
 93
       13
176
     1
 44
0.0
176
     1
173
     0
176
     1
  0
VISUALSTYLE
  5
2E
102
{ACAD_REACTORS
330
2A
102
}
330
2A
100
AcDbVisualStyle
  2
GouraudWithEdges
 70
     3
177
     2
291
     1
 71
     2
176
     1
 72
     2
176
     1
 73
     1
176
     1
 90
        2
176
     1
 40
-0.6
176
     1
 41
30.0
176
     1
 62
     5
 63
     7
421
 16777215
176
     1
 74
     1
176
     1
 91
        4
176
     1
 64
     7
176
     1
 65
   257
176
     1
 75
     1
176
     1
175
     1
176
     1
 42
1.0
176
     1
 92
        0
176
     1
 66
   257
176
     1
 43
1.0
176
     1
 76
     1
176
     1
 77
     6
176
     1
 78
     2
176
     1
 67
     7
176
     1
 79
     5
176
     1
170
     0
176
     1
171
     0
176
     1
290
     0
176
     1
 93
       13
176
     1
 44
0.0
176
     1
173
     0
176
     1
  0
VISUALSTYLE
  5
38
102
{ACAD_REACTORS
330
2A
102
}
330
2A
100
AcDbVisualStyle
  2
Linepattern
 70
    14
177
     2
291
     1
 71
     2
176
     1
 72
     2
176
     1
 73
     0
176
     1
 90
        0
176
     1
 40
-0.6
176
     1
 41
-30.0
176
     1
 62
     5
 63
     7
421
 16777215
176
     1
 74
     1
176
     1
 91
        4
176
     1
 64
     7
176
     1
 65
   257
176
     1
 75
     7
176
     1
175
     7
176
     1
 42
1.0
176
     1
 92
        8
176
     1
 66
     7
176
     1
 43
1.0
176
     1
 76
     1
176
     1
 77
     6
176
     1
 78
     2
176
     1
 67
     7
176
     1
 79
     5
176
     1
170
     0
176
     1
171
     0
176
     1
290
     0
176
     1
 93
        1
176
     1
 44
0.0
176
     1
173
     0
176
     1
  0
VISUALSTYLE
  5
33
102
{ACAD_REACTORS
330
2A
102
}
330
2A
100
AcDbVisualStyle
  2
Realistic
 70
     8
177
     2
291
     0
 71
     2
176
     1
 72
     2
176
     1
 73
     0
176
     1
 90
        0
176
     1
 40
-0.6
176
     1
 41
-30.0
176
     1
 62
     5
 63
     7
421
 16777215
176
     1
 74
     1
176
     1
 91
        0
176
     1
 64
     7
176
     1
 65
   257
176
     1
 75
     1
176
     1
175
     1
176
     1
 42
1.0
176
     1
 92
        8
176
     1
 66
     8
424
  7895160
176
     1
 43
1.0
176
     1
 76
     1
176
     1
 77
     6
176
     1
 78
     2
176
     1
 67
     7
176
     1
 79
     5
176
     1
170
     0
176
     1
171
     0
176
     1
290
     0
176
     1
 93
       13
176
     1
 44
0.0
176
     1
173
     0
176
     1
  0
VISUALSTYLE
  5
37
102
{ACAD_REACTORS
330
2A
102
}
330
2A
100
AcDbVisualStyle
  2
Thicken
 70
    13
177
     2
291
     1
 71
     2
176
     1
 72
     2
176
     1
 73
     0
176
     1
 90
        0
176
     1
 40
-0.6
176
     1
 41
-30.0
176
     1
 62
     5
 63
     7
421
 16777215
176
     1
 74
     1
176
     1
 91
        4
176
     1
 64
     7
176
     1
 65
   257
176
     1
 75
     1
176
     1
175
     1
176
     1
 42
1.0
176
     1
 92
       12
176
     1
 66
     7
176
     1
 43
1.0
176
     1
 76
     1
176
     1
 77
     6
176
     1
 78
     2
176
     1
 67
     7
176
     1
 79
     5
176
     1
170
     0
176
     1
171
     0
176
     1
290
     0
176
     1
 93
        1
176
     1
 44
0.0
176
     1
173
     0
176
     1
  0
ENDSEC
  0
EOF
