  0
SECTION
  2
HEADER
  9
$ACADVER
  1
AC1024
  9
$ACADMAINTVER
 70
     6
  9
$DWGCODEPAGE
  3
ANSI_932
  9
$INSBASE
 10
0.0
 20
0.0
 30
0.0
  9
$EXTMIN
 10
-8910.0
 20
-6300.0
 30
0.0
  9
$EXTMAX
 10
8910.0
 20
6300.0
 30
0.0
  9
$LIMMIN
 10
-8910.0
 20
-6300.0
  9
$LIMMAX
 10
8910.0
 20
6300.0
  9
$ORTHOMODE
 70
     0
  9
$REGENMODE
 70
     1
  9
$FILLMODE
 70
     1
  9
$QTEXTMODE
 70
     0
  9
$MIRRTEXT
 70
     1
  9
$LTSCALE
 40
30.0
  9
$ATTMODE
 70
     1
  9
$TEXTSIZE
 40
2.5
  9
$TRACEWID
 40
1.0
  9
$TEXTSTYLE
  7
Standard
  9
$CLAYER
  8
0
  9
$CELTYPE
  6
ByLayer
  9
$CECOLOR
 62
   256
  9
$CELTSCALE
 40
1.0
  9
$DISPSILH
 70
     0
  9
$DIMSCALE
 40
1.0
  9
$DIMASZ
 40
2.5
  9
$DIMEXO
 40
0.625
  9
$DIMDLI
 40
3.75
  9
$DIMRND
 40
0.0
  9
$DIMDLE
 40
0.0
  9
$DIMEXE
 40
1.25
  9
$DIMTP
 40
0.0
  9
$DIMTM
 40
0.0
  9
$DIMTXT
 40
2.5
  9
$DIMCEN
 40
2.5
  9
$DIMTSZ
 40
0.0
  9
$DIMTOL
 70
     0
  9
$DIMLIM
 70
     0
  9
$DIMTIH
 70
     0
  9
$DIMTOH
 70
     0
  9
$DIMSE1
 70
     0
  9
$DIMSE2
 70
     0
  9
$DIMTAD
 70
     1
  9
$DIMZIN
 70
     8
  9
$DIMBLK
  1

  9
$DIMASO
 70
     1
  9
$DIMSHO
 70
     1
  9
$DIMPOST
  1

  9
$DIMAPOST
  1

  9
$DIMALT
 70
     0
  9
$DIMALTD
 70
     3
  9
$DIMALTF
 40
0.03937007874016
  9
$DIMLFAC
 40
1.0
  9
$DIMTOFL
 70
     1
  9
$DIMTVP
 40
0.0
  9
$DIMTIX
 70
     0
  9
$DIMSOXD
 70
     0
  9
$DIMSAH
 70
     0
  9
$DIMBLK1
  1

  9
$DIMBLK2
  1

  9
$DIMSTYLE
  2
ISO-25
  9
$DIMCLRD
 70
     0
  9
$DIMCLRE
 70
     0
  9
$DIMCLRT
 70
     0
  9
$DIMTFAC
 40
1.0
  9
$DIMGAP
 40
0.625
  9
$DIMJUST
 70
     0
  9
$DIMSD1
 70
     0
  9
$DIMSD2
 70
     0
  9
$DIMTOLJ
 70
     0
  9
$DIMTZIN
 70
     8
  9
$DIMALTZ
 70
     0
  9
$DIMALTTZ
 70
     0
  9
$DIMUPT
 70
     0
  9
$DIMDEC
 70
     2
  9
$DIMTDEC
 70
     2
  9
$DIMALTU
 70
     2
  9
$DIMALTTD
 70
     3
  9
$DIMTXSTY
  7
Standard
  9
$DIMAUNIT
 70
     0
  9
$DIMADEC
 70
     0
  9
$DIMALTRND
 40
0.0
  9
$DIMAZIN
 70
     0
  9
$DIMDSEP
 70
    44
  9
$DIMATFIT
 70
     3
  9
$DIMFRAC
 70
     0
  9
$DIMLDRBLK
  1

  9
$DIMLUNIT
 70
     2
  9
$DIMLWD
 70
    -2
  9
$DIMLWE
 70
    -2
  9
$DIMTMOVE
 70
     0
  9
$DIMFXL
 40
1.0
  9
$DIMFXLON
 70
     0
  9
$DIMJOGANG
 40
0.7853981633974483
  9
$DIMTFILL
 70
     0
  9
$DIMTFILLCLR
 70
     0
  9
$DIMARCSYM
 70
     0
  9
$DIMLTYPE
  6

  9
$DIMLTEX1
  6

  9
$DIMLTEX2
  6

  9
$DIMTXTDIRECTION
 70
     0
  9
$LUNITS
 70
     2
  9
$LUPREC
 70
     4
  9
$SKETCHINC
 40
1.0
  9
$FILLETRAD
 40
10.0
  9
$AUNITS
 70
     0
  9
$AUPREC
 70
     0
  9
$MENU
  1
.
  9
$ELEVATION
 40
0.0
  9
$PELEVATION
 40
0.0
  9
$THICKNESS
 40
0.0
  9
$LIMCHECK
 70
     0
  9
$CHAMFERA
 40
10.0
  9
$CHAMFERB
 40
10.0
  9
$CHAMFERC
 40
20.0
  9
$CHAMFERD
 40
0.0
  9
$SKPOLY
 70
     0
  9
$TDCREATE
 40
2459682.42045478
  9
$TDUCREATE
 40
2459682.04545478
  9
$TDUPDATE
 40
2459682.420454792
  9
$TDUUPDATE
 40
2459682.045454792
  9
$TDINDWG
 40
0.0000000116
  9
$TDUSRTIMER
 40
0.0000000116
  9
$USRTIMER
 70
     1
  9
$ANGBASE
 50
0.0
  9
$ANGDIR
 70
     0
  9
$PDMODE
 70
     0
  9
$PDSIZE
 40
0.0
  9
$PLINEWID
 40
0.0
  9
$SPLFRAME
 70
     0
  9
$SPLINETYPE
 70
     6
  9
$SPLINESEGS
 70
     8
  9
$HANDSEED
  5
30D
  9
$SURFTAB1
 70
     6
  9
$SURFTAB2
 70
     6
  9
$SURFTYPE
 70
     6
  9
$SURFU
 70
     6
  9
$SURFV
 70
     6
  9
$UCSBASE
  2

  9
$UCSNAME
  2

  9
$UCSORG
 10
0.0
 20
0.0
 30
0.0
  9
$UCSXDIR
 10
1.0
 20
0.0
 30
0.0
  9
$UCSYDIR
 10
0.0
 20
1.0
 30
0.0
  9
$UCSORTHOREF
  2

  9
$UCSORTHOVIEW
 70
     0
  9
$UCSORGTOP
 10
0.0
 20
0.0
 30
0.0
  9
$UCSORGBOTTOM
 10
0.0
 20
0.0
 30
0.0
  9
$UCSORGLEFT
 10
0.0
 20
0.0
 30
0.0
  9
$UCSORGRIGHT
 10
0.0
 20
0.0
 30
0.0
  9
$UCSORGFRONT
 10
0.0
 20
0.0
 30
0.0
  9
$UCSORGBACK
 10
0.0
 20
0.0
 30
0.0
  9
$PUCSBASE
  2

  9
$PUCSNAME
  2

  9
$PUCSORG
 10
0.0
 20
0.0
 30
0.0
  9
$PUCSXDIR
 10
1.0
 20
0.0
 30
0.0
  9
$PUCSYDIR
 10
0.0
 20
1.0
 30
0.0
  9
$PUCSORTHOREF
  2

  9
$PUCSORTHOVIEW
 70
     0
  9
$PUCSORGTOP
 10
0.0
 20
0.0
 30
0.0
  9
$PUCSORGBOTTOM
 10
0.0
 20
0.0
 30
0.0
  9
$PUCSORGLEFT
 10
0.0
 20
0.0
 30
0.0
  9
$PUCSORGRIGHT
 10
0.0
 20
0.0
 30
0.0
  9
$PUCSORGFRONT
 10
0.0
 20
0.0
 30
0.0
  9
$PUCSORGBACK
 10
0.0
 20
0.0
 30
0.0
  9
$USERI1
 70
     0
  9
$USERI2
 70
     0
  9
$USERI3
 70
     0
  9
$USERI4
 70
     0
  9
$USERI5
 70
     0
  9
$USERR1
 40
0.0
  9
$USERR2
 40
0.0
  9
$USERR3
 40
0.0
  9
$USERR4
 40
0.0
  9
$USERR5
 40
0.0
  9
$WORLDVIEW
 70
     1
  9
$SHADEDGE
 70
     3
  9
$SHADEDIF
 70
    70
  9
$TILEMODE
 70
     1
  9
$MAXACTVP
 70
    64
  9
$PINSBASE
 10
0.0
 20
0.0
 30
0.0
  9
$PLIMCHECK
 70
     0
  9
$PEXTMIN
 10
1.000000000000000E+20
 20
1.000000000000000E+20
 30
1.000000000000000E+20
  9
$PEXTMAX
 10
-1.000000000000000E+20
 20
-1.000000000000000E+20
 30
-1.000000000000000E+20
  9
$PLIMMIN
 10
0.0
 20
0.0
  9
$PLIMMAX
 10
420.0
 20
297.0
  9
$UNITMODE
 70
     0
  9
$VISRETAIN
 70
     1
  9
$PLINEGEN
 70
     0
  9
$PSLTSCALE
 70
     1
  9
$TREEDEPTH
 70
  3020
  9
$CMLSTYLE
  2
Standard
  9
$CMLJUST
 70
     0
  9
$CMLSCALE
 40
20.0
  9
$PROXYGRAPHICS
 70
     1
  9
$MEASUREMENT
 70
     1
  9
$CELWEIGHT
370
    -1
  9
$ENDCAPS
280
     0
  9
$JOINSTYLE
280
     0
  9
$LWDISPLAY
290
     0
  9
$INSUNITS
 70
     4
  9
$HYPERLINKBASE
  1

  9
$STYLESHEET
  1

  9
$XEDIT
290
     1
  9
$CEPSNTYPE
380
     0
  9
$PSTYLEMODE
290
     1
  9
$FINGERPRINTGUID
  2
{09B8E7DC-7A24-442A-9AC9-825F5FDD90A7}
  9
$VERSIONGUID
  2
{FAEB1C32-E019-11D5-929B-00C0DF256EC4}
  9
$EXTNAMES
290
     1
  9
$PSVPSCALE
 40
0.0
  9
$OLESTARTUP
290
     0
  9
$SORTENTS
280
   127
  9
$INDEXCTL
280
     0
  9
$HIDETEXT
280
     1
  9
$XCLIPFRAME
280
     2
  9
$HALOGAP
280
     0
  9
$OBSCOLOR
 70
   257
  9
$OBSLTYPE
280
     0
  9
$INTERSECTIONDISPLAY
280
     0
  9
$INTERSECTIONCOLOR
 70
   257
  9
$DIMASSOC
280
     2
  9
$PROJECTNAME
  1

  9
$CAMERADISPLAY
290
     0
  9
$LENSLENGTH
 40
50.0
  9
$CAMERAHEIGHT
 40
0.0
  9
$STEPSPERSEC
 40
2.0
  9
$STEPSIZE
 40
6.0
  9
$3DDWFPREC
 40
2.0
  9
$PSOLWIDTH
 40
5.0
  9
$PSOLHEIGHT
 40
80.0
  9
$LOFTANG1
 40
1.570796326794897
  9
$LOFTANG2
 40
1.570796326794897
  9
$LOFTMAG1
 40
0.0
  9
$LOFTMAG2
 40
0.0
  9
$LOFTPARAM
 70
     7
  9
$LOFTNORMALS
280
     1
  9
$LATITUDE
 40
37.795
  9
$LONGITUDE
 40
-122.394
  9
$NORTHDIRECTION
 40
0.0
  9
$TIMEZONE
 70
 -8000
  9
$LIGHTGLYPHDISPLAY
280
     1
  9
$TILEMODELIGHTSYNCH
280
     1
  9
$SOLIDHIST
280
     1
  9
$SHOWHIST
280
     1
  9
$DWFFRAME
280
     2
  9
$DGNFRAME
280
     2
  9
$REALWORLDSCALE
290
     1
  9
$INTERFERECOLOR
 62
   256
  9
$CSHADOW
280
     0
  9
$SHADOWPLANELOCATION
 40
0.0
  0
ENDSEC
  0
SECTION
  2
CLASSES
  0
CLASS
  1
ACDBDICTIONARYWDFLT
  2
AcDbDictionaryWithDefault
  3
ObjectDBX Classes
 90
        0
 91
        4
280
     0
281
     0
  0
CLASS
  1
VISUALSTYLE
  2
AcDbVisualStyle
  3
ObjectDBX Classes
 90
     4095
 91
        4
280
     0
281
     0
  0
CLASS
  1
MATERIAL
  2
AcDbMaterial
  3
ObjectDBX Classes
 90
     1153
 91
        4
280
     0
281
     0
  0
ENDSEC
  0
SECTION
  2
TABLES
  0
TABLE
  2
VPORT
  5
8
330
0
100
AcDbSymbolTable
 70
     1
  0
VPORT
  5
29
330
8
100
AcDbSymbolTableRecord
100
AcDbViewportTableRecord
  2
*Active
 70
     0
 10
0.0
 20
0.0
 11
1.0
 21
1.0
 12
0.0
 22
0.0
 13
0.0
 23
0.0
 14
10.0
 24
10.0
 15
10.0
 25
10.0
 16
0.0
 26
0.0
 36
1.0
 17
0.0
 27
0.0
 37
0.0
 40
13860.0
 41
1.414285714285714
 42
50.0
 43
0.0
 44
0.0
 50
0.0
 51
0.0
 71
     0
 72
 10000
 73
     1
 74
     3
 75
     0
 76
     0
 77
     0
 78
     0
281
     0
 65
     1
110
0.0
120
0.0
130
0.0
111
1.0
121
0.0
131
0.0
112
0.0
122
1.0
132
0.0
 79
     0
146
0.0
 60
     3
 61
     5
292
     1
282
     1
141
0.0
142
0.0
 63
   250
  0
ENDTAB
  0
TABLE
  2
LTYPE
  5
5
330
0
100
AcDbSymbolTable
 70
     4
  0
LTYPE
  5
14
330
5
100
AcDbSymbolTableRecord
100
AcDbLinetypeTableRecord
  2
ByBlock
 70
     0
  3

 72
    65
 73
     0
 40
0.0
  0
LTYPE
  5
15
330
5
100
AcDbSymbolTableRecord
100
AcDbLinetypeTableRecord
  2
ByLayer
 70
     0
  3

 72
    65
 73
     0
 40
0.0
  0
LTYPE
  5
16
330
5
100
AcDbSymbolTableRecord
100
AcDbLinetypeTableRecord
  2
Continuous
 70
     0
  3
Solid line
 72
    65
 73
     0
 40
0.0
  0
LTYPE
  5
3F
330
5
100
AcDbSymbolTableRecord
100
AcDbLinetypeTableRecord
  2
JWW_HOJO
 70
     0
  3
  -   -   -   -   -   -   -   - 
 72
    65
 73
     2
 40
1.693333333333333
 49
-1.27
 74
     0
 49
0.4233333333333333
 74
     0
  0
LTYPE
  5
40
330
5
100
AcDbSymbolTableRecord
100
AcDbLinetypeTableRecord
  2
JWW_CENTER1
 70
     0
  3
-----  --  ----------  --  -----
 72
    65
 73
     4
 40
6.773333333333333
 49
4.233333333333333
 74
     0
 49
-0.8466666666666667
 74
     0
 49
0.8466666666666667
 74
     0
 49
-0.8466666666666667
 74
     0
  0
LTYPE
  5
41
330
5
100
AcDbSymbolTableRecord
100
AcDbLinetypeTableRecord
  2
JWW_DASHED2
 70
     0
  3
--    ----    ----    ----    --
 72
    65
 73
     2
 40
3.386666666666667
 49
1.693333333333333
 74
     0
 49
-1.693333333333333
 74
     0
  0
ENDTAB
  0
TABLE
  2
LAYER
  5
2
330
0
100
AcDbSymbolTable
 70
    16
  0
LAYER
  5
10
330
2
100
AcDbSymbolTableRecord
100
AcDbLayerTableRecord
  2
0
 70
     0
 62
     7
  6
Continuous
370
    -3
390
F
347
3E
  0
LAYER
  5
42
330
2
100
AcDbSymbolTableRecord
100
AcDbLayerTableRecord
  2
F-0_補助線
 70
     0
 62
     7
  6
Continuous
370
    -3
390
F
347
3E
  0
LAYER
  5
43
330
2
100
AcDbSymbolTableRecord
100
AcDbLayerTableRecord
  2
F-1_枠
 70
     0
 62
     7
  6
Continuous
370
    -3
390
F
347
3E
  0
LAYER
  5
44
330
2
100
AcDbSymbolTableRecord
100
AcDbLayerTableRecord
  2
F-A_文字
 70
     0
 62
     7
  6
Continuous
370
    -3
390
F
347
3E
  0
LAYER
  5
45
330
2
100
AcDbSymbolTableRecord
100
AcDbLayerTableRecord
  2
0-A_文字
 70
     0
 62
     7
  6
Continuous
370
    -3
390
F
347
3E
  0
LAYER
  5
46
330
2
100
AcDbSymbolTableRecord
100
AcDbLayerTableRecord
  2
0-7_金物
 70
     0
 62
     7
  6
Continuous
370
    -3
390
F
347
3E
  0
LAYER
  5
47
330
2
100
AcDbSymbolTableRecord
100
AcDbLayerTableRecord
  2
0-3_仕上げ
 70
     0
 62
     7
  6
Continuous
370
    -3
390
F
347
3E
  0
LAYER
  5
48
330
2
100
AcDbSymbolTableRecord
100
AcDbLayerTableRecord
  2
0-B_寸法
 70
     0
 62
     7
  6
Continuous
370
    -3
390
F
347
3E
  0
LAYER
  5
49
330
2
100
AcDbSymbolTableRecord
100
AcDbLayerTableRecord
  2
0-4_枠
 70
     0
 62
     7
  6
Continuous
370
    -3
390
F
347
3E
  0
LAYER
  5
4A
330
2
100
AcDbSymbolTableRecord
100
AcDbLayerTableRecord
  2
0-6_扉
 70
     0
 62
     7
  6
Continuous
370
    -3
390
F
347
3E
  0
LAYER
  5
4B
330
2
100
AcDbSymbolTableRecord
100
AcDbLayerTableRecord
  2
0-1_通り芯
 70
     0
 62
     7
  6
Continuous
370
    -3
390
F
347
3E
  0
LAYER
  5
4C
330
2
100
AcDbSymbolTableRecord
100
AcDbLayerTableRecord
  2
0-0_補助線
 70
     0
 62
     7
  6
Continuous
370
    -3
390
F
347
3E
  0
LAYER
  5
4D
330
2
100
AcDbSymbolTableRecord
100
AcDbLayerTableRecord
  2
7-7_金物
 70
     0
 62
     7
  6
Continuous
370
    -3
390
F
347
3E
  0
LAYER
  5
4E
330
2
100
AcDbSymbolTableRecord
100
AcDbLayerTableRecord
  2
7-B_寸法
 70
     0
 62
     7
  6
Continuous
370
    -3
390
F
347
3E
  0
LAYER
  5
4F
330
2
100
AcDbSymbolTableRecord
100
AcDbLayerTableRecord
  2
7-1_通り芯
 70
     0
 62
     7
  6
Continuous
370
    -3
390
F
347
3E
  0
LAYER
  5
50
330
2
100
AcDbSymbolTableRecord
100
AcDbLayerTableRecord
  2
戸当り
 70
     0
 62
     7
  6
Continuous
370
    -3
390
F
347
3E
  0
ENDTAB
  0
TABLE
  2
STYLE
  5
3
330
0
100
AcDbSymbolTable
 70
     1
  0
STYLE
  5
11
330
3
100
AcDbSymbolTableRecord
100
AcDbTextStyleTableRecord
  2
Standard
 70
     0
 40
0.0
 41
1.0
 50
0.0
 71
     0
 42
2.5
  3
txt
  4

  0
ENDTAB
  0
TABLE
  2
VIEW
  5
6
330
0
100
AcDbSymbolTable
 70
     0
  0
ENDTAB
  0
TABLE
  2
UCS
  5
7
330
0
100
AcDbSymbolTable
 70
     0
  0
ENDTAB
  0
TABLE
  2
APPID
  5
9
330
0
100
AcDbSymbolTable
 70
     1
  0
APPID
  5
12
330
9
100
AcDbSymbolTableRecord
100
AcDbRegAppTableRecord
  2
ACAD
 70
     0
  0
ENDTAB
  0
TABLE
  2
DIMSTYLE
  5
A
330
0
100
AcDbSymbolTable
 70
     1
100
AcDbDimStyleTable
  0
DIMSTYLE
105
27
330
A
100
AcDbSymbolTableRecord
100
AcDbDimStyleTableRecord
  2
ISO-25
 70
     0
 41
2.5
 42
0.625
 43
3.75
 44
1.25
 73
     0
 74
     0
 77
     1
 78
     8
140
2.5
141
2.5
143
0.03937007874016
147
0.625
171
     3
172
     1
178
     0
271
     2
272
     2
274
     3
278
    44
283
     0
284
     8
340
11
  0
ENDTAB
  0
TABLE
  2
BLOCK_RECORD
  5
1
330
0
100
AcDbSymbolTable
 70
     2
  0
BLOCK_RECORD
  5
1F
330
1
100
AcDbSymbolTableRecord
100
AcDbBlockTableRecord
  2
*Model_Space
340
22
 70
     0
280
     1
281
     0
  0
BLOCK_RECORD
  5
1B
330
1
100
AcDbSymbolTableRecord
100
AcDbBlockTableRecord
  2
*Paper_Space
340
1E
 70
     0
280
     1
281
     0
  0
BLOCK_RECORD
  5
23
330
1
100
AcDbSymbolTableRecord
100
AcDbBlockTableRecord
  2
*Paper_Space0
340
26
 70
     0
280
     1
281
     0
  0
BLOCK_RECORD
  5
51
330
1
100
AcDbSymbolTableRecord
100
AcDbBlockTableRecord
  2
02@@SfigorgFlag@@4
340
0
102
{BLKREFS
331
187
331
1B8
102
}
 70
     0
280
     1
281
     0
  0
ENDTAB
  0
ENDSEC
  0
SECTION
  2
BLOCKS
  0
BLOCK
  5
20
330
1F
100
AcDbEntity
  8
0
100
AcDbBlockBegin
  2
*Model_Space
 70
     0
 10
0.0
 20
0.0
 30
0.0
  3
*Model_Space
  1

  0
ENDBLK
  5
21
330
1F
100
AcDbEntity
  8
0
100
AcDbBlockEnd
  0
BLOCK
  5
1C
330
1B
100
AcDbEntity
 67
     1
  8
0
100
AcDbBlockBegin
  2
*Paper_Space
 70
     0
 10
0.0
 20
0.0
 30
0.0
  3
*Paper_Space
  1

  0
ENDBLK
  5
1D
330
1B
100
AcDbEntity
 67
     1
  8
0
100
AcDbBlockEnd
  0
BLOCK
  5
24
330
23
100
AcDbEntity
  8
0
100
AcDbBlockBegin
  2
*Paper_Space0
 70
     0
 10
0.0
 20
0.0
 30
0.0
  3
*Paper_Space0
  1

  0
ENDBLK
  5
25
330
23
100
AcDbEntity
  8
0
100
AcDbBlockEnd
  0
BLOCK
  5
52
330
51
100
AcDbEntity
  8
0
100
AcDbBlockBegin
  2
02@@SfigorgFlag@@4
 70
     0
 10
0.0
 20
0.0
 30
0.0
  3
02@@SfigorgFlag@@4
  1

  0
ARC
  5
2FC
330
51
100
AcDbEntity
  8
0-0_補助線
  6
Continuous
 62
     7
370
     9
100
AcDbCircle
 10
1.160448776651236
 20
3.352222230456135
 30
0.0
 40
0.2
100
AcDbArc
 50
0.0
 51
90.00000000000001
  0
ARC
  5
2FD
330
51
100
AcDbEntity
  8
0-0_補助線
  6
Continuous
 62
     7
370
     9
100
AcDbCircle
 10
1.160448776651236
 20
-1.847777769543882
 30
0.0
 40
0.2
100
AcDbArc
 50
270.0
 51
0.0
  0
LINE
  5
2FE
330
51
100
AcDbEntity
  8
0-0_補助線
  6
Continuous
 62
     7
370
     9
100
AcDbLine
 10
1.360448776651225
 20
3.352222230456135
 30
0.0
 11
1.360448776651225
 21
-1.847777769543882
 31
0.0
  0
LINE
  5
2FF
330
51
100
AcDbEntity
  8
0-0_補助線
  6
Continuous
 62
     7
370
     9
100
AcDbLine
 10
1.160448776651236
 20
-2.04777776954387
 30
0.0
 11
0.5404487766512318
 21
-2.04777776954387
 31
0.0
  0
LINE
  5
300
330
51
100
AcDbEntity
  8
0-0_補助線
  6
Continuous
 62
     7
370
     9
100
AcDbLine
 10
0.5404487766512318
 20
-0.6477777695438647
 30
0.0
 11
0.5404487766512318
 21
-2.04777776954387
 31
0.0
  0
LINE
  5
301
330
51
100
AcDbEntity
  8
0-0_補助線
  6
Continuous
 62
     7
370
     9
100
AcDbLine
 10
0.5404487766512318
 20
-0.6477777695438647
 30
0.0
 11
-0.139551223348775
 21
-0.6477777695438647
 31
0.0
  0
LINE
  5
302
330
51
100
AcDbEntity
  8
0-0_補助線
  6
Continuous
 62
     7
370
     9
100
AcDbLine
 10
-0.139551223348775
 20
-0.6477777695438647
 30
0.0
 11
-0.139551223348775
 21
-2.04777776954387
 31
0.0
  0
LINE
  5
303
330
51
100
AcDbEntity
  8
0-0_補助線
  6
Continuous
 62
     7
370
     9
100
AcDbLine
 10
-0.9995512233487602
 20
-2.04777776954387
 30
0.0
 11
-0.139551223348775
 21
-2.04777776954387
 31
0.0
  0
LINE
  5
304
330
51
100
AcDbEntity
  8
0-0_補助線
  6
Continuous
 62
     7
370
     9
100
AcDbLine
 10
1.160448776651236
 20
3.552222230456124
 30
0.0
 11
-0.639551223348775
 21
3.552222230456124
 31
0.0
  0
LINE
  5
305
330
51
100
AcDbEntity
  8
0-0_補助線
  6
Continuous
 62
     7
370
     9
100
AcDbLine
 10
-0.9995512233487602
 20
2.95222223045613
 30
0.0
 11
-0.639551223348775
 21
2.95222223045613
 31
0.0
  0
LINE
  5
306
330
51
100
AcDbEntity
  8
0-0_補助線
  6
Continuous
 62
     7
370
     9
100
AcDbLine
 10
-0.639551223348775
 20
2.95222223045613
 30
0.0
 11
-0.639551223348775
 21
3.552222230456124
 31
0.0
  0
LINE
  5
307
330
51
100
AcDbEntity
  8
0-0_補助線
  6
Continuous
 62
     7
370
     9
100
AcDbLine
 10
-0.9995512233487602
 20
-2.04777776954387
 30
0.0
 11
-0.9995512233487602
 21
2.95222223045613
 31
0.0
  0
LINE
  5
308
330
51
100
AcDbEntity
  8
0-0_補助線
  6
Continuous
 62
     7
370
     9
100
AcDbLine
 10
-0.6938384209962578
 20
-2.04777776954387
 30
0.0
 11
-0.5738384209962533
 21
-2.167777769543875
 31
0.0
  0
LINE
  5
309
330
51
100
AcDbEntity
  8
0-0_補助線
  6
Continuous
 62
     7
370
     9
100
AcDbLine
 10
-0.5738384209962533
 20
-2.167777769543875
 30
0.0
 11
0.8804490577045101
 21
-2.167777769543875
 31
0.0
  0
LINE
  5
30A
330
51
100
AcDbEntity
  8
0-0_補助線
  6
Continuous
 62
     7
370
     9
100
AcDbLine
 10
1.000448761284588
 20
-2.047778065963797
 30
0.0
 11
0.8804490577045101
 21
-2.167777769543875
 31
0.0
  0
ENDBLK
  5
53
330
51
100
AcDbEntity
  8
0
100
AcDbBlockEnd
  0
ENDSEC
  0
SECTION
  2
ENTITIES
  0
LINE
  5
54
330
1F
100
AcDbEntity
  8
F-0_補助線
  6
JWW_HOJO
 62
   120
370
     5
100
AcDbLine
 10
-6140.081333436773
 20
-4455.0
 30
0.0
 11
-6140.081333436773
 21
4424.999604096284
 31
0.0
  0
LINE
  5
55
330
1F
100
AcDbEntity
  8
F-0_補助線
  6
JWW_HOJO
 62
   120
370
     5
100
AcDbLine
 10
-6140.081333436773
 20
4424.999604096284
 30
0.0
 11
6159.917676803936
 21
4424.999604096284
 31
0.0
  0
LINE
  5
56
330
1F
100
AcDbEntity
  8
F-0_補助線
  6
JWW_HOJO
 62
   120
370
     5
100
AcDbLine
 10
6159.917676803936
 20
4424.999604096284
 30
0.0
 11
6159.917676803936
 21
-4455.0
 31
0.0
  0
LINE
  5
57
330
1F
100
AcDbEntity
  8
F-0_補助線
  6
JWW_HOJO
 62
   120
370
     5
100
AcDbLine
 10
6159.917676803936
 20
-4455.0
 30
0.0
 11
-6140.081333436773
 21
-4455.0
 31
0.0
  0
LINE
  5
58
330
1F
100
AcDbEntity
  8
F-0_補助線
  6
JWW_HOJO
 62
     7
370
     9
100
AcDbLine
 10
509.9185840832865
 20
-3795.000003092998
 30
0.0
 11
509.9185840832865
 21
-4195.000008247994
 31
0.0
  0
LINE
  5
59
330
1F
100
AcDbEntity
  8
F-1_枠
  6
Continuous
 62
   200
370
    20
100
AcDbLine
 10
5859.917429364114
 20
4174.999769056166
 30
0.0
 11
5859.917429364114
 21
-4205.000164959882
 31
0.0
  0
LINE
  5
5A
330
1F
100
AcDbEntity
  8
F-1_枠
  6
Continuous
 62
   200
370
    20
100
AcDbLine
 10
-5840.081317971782
 20
4174.999769056166
 30
0.0
 11
-5840.081317971782
 21
-4205.000164959882
 31
0.0
  0
LINE
  5
5B
330
1F
100
AcDbEntity
  8
F-1_枠
  6
Continuous
 62
   200
370
    20
100
AcDbLine
 10
5859.917429364114
 20
-4205.000002577498
 30
0.0
 11
-5840.081085996952
 21
-4205.000002577498
 31
0.0
  0
LINE
  5
5C
330
1F
100
AcDbEntity
  8
F-1_枠
  6
Continuous
 62
   200
370
    20
100
AcDbLine
 10
-5830.081323642279
 20
4174.999769056166
 30
0.0
 11
-5830.081323642279
 21
-4205.000164959882
 31
0.0
  0
LINE
  5
5D
330
1F
100
AcDbEntity
  8
F-1_枠
  6
Continuous
 62
   200
370
    20
100
AcDbLine
 10
-5835.081309208291
 20
4174.999769056166
 30
0.0
 11
-5835.081309208291
 21
-4205.000164959882
 31
0.0
  0
LINE
  5
5E
330
1F
100
AcDbEntity
  8
F-1_枠
  6
Continuous
 62
   200
370
    20
100
AcDbLine
 10
5854.917165428304
 20
4174.999769056166
 30
0.0
 11
5854.917165428304
 21
-4205.000164959882
 31
0.0
  0
LINE
  5
5F
330
1F
100
AcDbEntity
  8
F-1_枠
  6
Continuous
 62
   200
370
    20
100
AcDbLine
 10
5849.917643811961
 20
4174.999769056166
 30
0.0
 11
5849.917643811961
 21
-4205.000164959882
 31
0.0
  0
LINE
  5
60
330
1F
100
AcDbEntity
  8
F-1_枠
  6
Continuous
 62
   200
370
    20
100
AcDbLine
 10
5859.917429364114
 20
-4199.999993814004
 30
0.0
 11
-5840.081085996952
 21
-4199.999993814004
 31
0.0
  0
LINE
  5
61
330
1F
100
AcDbEntity
  8
F-1_枠
  6
Continuous
 62
   200
370
    20
100
AcDbLine
 10
5859.917429364114
 20
-4195.000008247994
 30
0.0
 11
-5840.081085996952
 21
-4195.000008247994
 31
0.0
  0
LINE
  5
62
330
1F
100
AcDbEntity
  8
F-1_枠
  6
Continuous
 62
   200
370
    20
100
AcDbLine
 10
4349.917891251784
 20
-3795.000003092998
 30
0.0
 11
4349.917891251784
 21
-4195.000008247994
 31
0.0
  0
LINE
  5
63
330
1F
100
AcDbEntity
  8
F-1_枠
  6
Continuous
 62
   200
370
    20
100
AcDbLine
 10
2849.917396372139
 20
-3795.000003092998
 30
0.0
 11
2849.917396372139
 21
-4195.000008247994
 31
0.0
  0
LINE
  5
64
330
1F
100
AcDbEntity
  8
F-1_枠
  6
Continuous
 62
   200
370
    20
100
AcDbLine
 10
9.918542843316231
 20
-3795.000003092998
 30
0.0
 11
9.918542843316231
 21
-4195.000008247994
 31
0.0
  0
LINE
  5
65
330
1F
100
AcDbEntity
  8
F-1_枠
  6
Continuous
 62
   200
370
    20
100
AcDbLine
 10
9.918542843316231
 20
-3994.999936078046
 30
0.0
 11
5849.917643811961
 21
-3995.005364289155
 31
0.0
  0
LINE
  5
66
330
1F
100
AcDbEntity
  8
F-1_枠
  6
Continuous
 62
   200
370
    20
100
AcDbLine
 10
-5840.081085996952
 20
4174.999769056166
 30
0.0
 11
5859.917429364114
 21
4174.999769056166
 31
0.0
  0
LINE
  5
67
330
1F
100
AcDbEntity
  8
F-1_枠
  6
Continuous
 62
   200
370
    20
100
AcDbLine
 10
-5840.081085996952
 20
4164.999983504013
 30
0.0
 11
5859.917429364114
 21
4164.999983504013
 31
0.0
  0
LINE
  5
68
330
1F
100
AcDbEntity
  8
F-1_枠
  6
Continuous
 62
   200
370
    20
100
AcDbLine
 10
-5840.081085996952
 20
4169.999505120355
 30
0.0
 11
5859.917429364114
 21
4169.999505120355
 31
0.0
  0
LINE
  5
69
330
1F
100
AcDbEntity
  8
F-0_補助線
  6
JWW_HOJO
 62
     7
370
     9
100
AcDbLine
 10
-5830.081323642279
 20
-3994.99993607839
 30
0.0
 11
9.918542843316231
 21
-3994.99993607839
 31
0.0
  0
LINE
  5
6A
330
1F
100
AcDbEntity
  8
F-0_補助線
  6
JWW_HOJO
 62
     7
370
     9
100
AcDbLine
 10
-5830.081323642279
 20
-3904.99993607839
 30
0.0
 11
9.918542843316231
 21
-3904.99993607839
 31
0.0
  0
LINE
  5
6B
330
1F
100
AcDbEntity
  8
F-0_補助線
  6
JWW_HOJO
 62
     7
370
     9
100
AcDbLine
 10
-5830.081323642279
 20
-4084.99993607839
 30
0.0
 11
9.918542843316231
 21
-4084.99993607839
 31
0.0
  0
LINE
  5
6C
330
1F
100
AcDbEntity
  8
F-0_補助線
  6
JWW_HOJO
 62
     7
370
     9
100
AcDbLine
 10
9.918408067688347
 20
-4139.999739777983
 30
0.0
 11
5849.917509036332
 21
-4140.005167989091
 31
0.0
  0
LINE
  5
6D
330
1F
100
AcDbEntity
  8
F-0_補助線
  6
JWW_HOJO
 62
     7
370
     9
100
AcDbLine
 10
9.918491721639953
 20
-4049.999739778022
 30
0.0
 11
5849.917592690284
 21
-4050.005167989131
 31
0.0
  0
LINE
  5
6E
330
1F
100
AcDbEntity
  8
F-0_補助線
  6
JWW_HOJO
 62
     7
370
     9
100
AcDbLine
 10
9.918593965360003
 20
-3939.99973721807
 30
0.0
 11
5849.917694934004
 21
-3940.005165429179
 31
0.0
  0
LINE
  5
6F
330
1F
100
AcDbEntity
  8
F-0_補助線
  6
JWW_HOJO
 62
     7
370
     9
100
AcDbLine
 10
9.918677619311609
 20
-3849.999737218109
 30
0.0
 11
5849.917778587956
 21
-3850.005165429218
 31
0.0
  0
LINE
  5
70
330
1F
100
AcDbEntity
  8
F-0_補助線
  6
JWW_HOJO
 62
     7
370
     9
100
AcDbLine
 10
2939.917396372139
 20
-3795.000003092998
 30
0.0
 11
2939.917396372139
 21
-4195.000008247994
 31
0.0
  0
LINE
  5
71
330
1F
100
AcDbEntity
  8
F-0_補助線
  6
JWW_HOJO
 62
     7
370
     9
100
AcDbLine
 10
99.91854284331623
 20
-3795.000003092998
 30
0.0
 11
99.91854284331623
 21
-4195.000008247994
 31
0.0
  0
LINE
  5
72
330
1F
100
AcDbEntity
  8
F-0_補助線
  6
JWW_HOJO
 62
     7
370
     9
100
AcDbLine
 10
4439.917891251784
 20
-3795.000003092998
 30
0.0
 11
4439.917891251784
 21
-4195.000008247994
 31
0.0
  0
LINE
  5
73
330
1F
100
AcDbEntity
  8
F-1_枠
  6
Continuous
 62
   200
370
    20
100
AcDbLine
 10
5859.917429364114
 20
-3795.000003092998
 30
0.0
 11
-5840.081085996952
 21
-3795.000003092998
 31
0.0
  0
LINE
  5
74
330
1F
100
AcDbEntity
  8
F-1_枠
  6
Continuous
 62
   200
370
    20
100
AcDbLine
 10
5859.917429364114
 20
-3790.000017526987
 30
0.0
 11
-5840.081085996952
 21
-3790.000017526987
 31
0.0
  0
LINE
  5
75
330
1F
100
AcDbEntity
  8
F-0_補助線
  6
JWW_HOJO
 62
     7
370
     9
100
AcDbLine
 10
-5087.628710189611
 20
-3795.000003092999
 30
0.0
 11
-5087.628710189611
 21
-4205.000164959882
 31
0.0
  0
LINE
  5
76
330
1F
100
AcDbEntity
  8
F-0_補助線
  6
JWW_HOJO
 62
     7
370
     9
100
AcDbLine
 10
-50.08145715668377
 20
-3795.000003092998
 30
0.0
 11
-50.08145715668377
 21
-4195.000008247994
 31
0.0
  0
MTEXT
  5
77
330
1F
100
AcDbEntity
  8
F-A_文字
  6
Continuous
 62
     7
370
     0
100
AcDbMText
 10
99.91854284331623
 20
-3887.139820871936
 30
0.0
 40
45.72
 41
180.0
 46
0.0
 71
     7
 72
     1
  1
{\fＭＳ ゴシック|b0|i0|c128|p49;図面名}
 73
     1
 44
1.0
  0
MTEXT
  5
78
330
1F
100
AcDbEntity
  8
F-A_文字
  6
Continuous
 62
     7
370
     0
100
AcDbMText
 10
2939.917396372139
 20
-3887.142460617774
 30
0.0
 40
45.72
 41
300.0
 46
0.0
 71
     7
 72
     1
  1
{\fＭＳ ゴシック|b0|i0|c128|p49;ＳＣＡＬＥ}
 73
     1
 44
1.0
  0
MTEXT
  5
79
330
1F
100
AcDbEntity
  8
F-A_文字
  6
Continuous
 62
     7
370
     0
100
AcDbMText
 10
4439.917891251784
 20
-3887.143854850754
 30
0.0
 40
45.72
 41
240.0
 46
0.0
 71
     7
 72
     1
  1
{\fＭＳ ゴシック|b0|i0|c128|p49;ＤＡＴＥ}
 73
     1
 44
1.0
  0
MTEXT
  5
7A
330
1F
100
AcDbEntity
  8
F-A_文字
  6
Continuous
 62
     7
370
     0
100
AcDbMText
 10
2939.917396372139
 20
-4087.14246317786
 30
0.0
 40
45.72
 41
240.0
 46
0.0
 71
     7
 72
     1
  1
{\fＭＳ ゴシック|b0|i0|c128|p49;ＦＩＬＥ}
 73
     1
 44
1.0
  0
MTEXT
  5
7B
330
1F
100
AcDbEntity
  8
F-A_文字
  6
Continuous
 62
     7
370
     0
100
AcDbMText
 10
4439.917891251784
 20
-4087.143857410839
 30
0.0
 40
45.72
 41
180.0
 46
0.0
 71
     7
 72
     1
  1
{\fＭＳ ゴシック|b0|i0|c128|p49;ＮＯ．}
 73
     1
 44
1.0
  0
MTEXT
  5
7C
330
1F
100
AcDbEntity
  8
F-A_文字
  6
Continuous
 62
     7
370
     0
100
AcDbMText
 10
1394.917396372138
 20
-4096.140669266149
 30
0.0
 40
45.72
 41
120.0
 46
0.0
 71
     7
 72
     1
  1
{\fＭＳ ゴシック|b0|i0|c128|p49;株式}
 73
     1
 44
1.0
  0
MTEXT
  5
7D
330
1F
100
AcDbEntity
  8
F-A_文字
  6
Continuous
 62
     7
370
     0
100
AcDbMText
 10
1604.917396372138
 20
-4164.281754523929
 30
0.0
 40
101.44125
 41
1065.0
 46
0.0
 71
     7
 72
     1
  1
{\fＭＳ ゴシック|b0|i0|c128|p49;ウッドワン・・・}
 73
     1
 44
1.0
  0
MTEXT
  5
7E
330
1F
100
AcDbEntity
  8
F-A_文字
  6
Continuous
 62
     7
370
     0
100
AcDbMText
 10
1394.917396372138
 20
-4168.140669266187
 30
0.0
 40
45.72
 41
120.0
 46
0.0
 71
     7
 72
     1
  1
{\fＭＳ ゴシック|b0|i0|c128|p49;会社}
 73
     1
 44
1.0
  0
MTEXT
  5
7F
330
1F
100
AcDbEntity
  8
F-A_文字
  6
Continuous
 62
     7
370
     0
100
AcDbMText
 10
5768.321977672939
 20
-4314.841419020919
 30
0.0
 40
68.58
 41
90.0
 46
0.0
 71
     7
 72
     1
  1
{\fＭＳ ゴシック|b0|i0|c128|p49;）}
 73
     1
 44
1.0
  0
MTEXT
  5
80
330
1F
100
AcDbEntity
  8
F-A_文字
  6
Continuous
 62
     7
370
     0
100
AcDbMText
 10
5350.114617405298
 20
-4316.235443869856
 30
0.0
 40
68.58
 41
45.0
 46
0.0
 71
     7
 72
     1
  1
{\fＭＳ ゴシック|b0|i0|c128|p49;,}
 73
     1
 44
1.0
  0
MTEXT
  5
81
330
1F
100
AcDbEntity
  8
F-A_文字
  6
Continuous
 62
     7
370
     0
100
AcDbMText
 10
5083.855928478601
 20
-4314.771967288282
 30
0.0
 40
74.295
 41
97.5
 46
0.0
 71
     7
 72
     1
  1
{\fＭＳ ゴシック|b0|i0|c128|p49;$y}
 73
     1
 44
1.0
  0
MTEXT
  5
82
330
1F
100
AcDbEntity
  8
F-A_文字
  6
Continuous
 62
     7
370
     0
100
AcDbMText
 10
5238.592649517422
 20
-4314.771967288282
 30
0.0
 40
74.295
 41
97.5
 46
0.0
 71
     7
 72
     1
  1
{\fＭＳ ゴシック|b0|i0|c128|p49;$m}
 73
     1
 44
1.0
  0
MTEXT
  5
83
330
1F
100
AcDbEntity
  8
F-A_文字
  6
Continuous
 62
     7
370
     0
100
AcDbMText
 10
5393.32938200033
 20
-4314.771967288282
 30
0.0
 40
74.295
 41
97.5
 46
0.0
 71
     7
 72
     1
  1
{\fＭＳ ゴシック|b0|i0|c128|p49;$d}
 73
     1
 44
1.0
  0
MTEXT
  5
84
330
1F
100
AcDbEntity
  8
F-A_文字
  6
Continuous
 62
     7
370
     0
100
AcDbMText
 10
5548.066114483239
 20
-4314.771967288282
 30
0.0
 40
74.295
 41
195.0
 46
0.0
 71
     7
 72
     1
  1
{\fＭＳ ゴシック|b0|i0|c128|p49;印刷}
 73
     1
 44
1.0
  0
MTEXT
  5
85
330
1F
100
AcDbEntity
  8
F-A_文字
  6
Continuous
 62
     7
370
     0
100
AcDbMText
 10
4943.952040816226
 20
-4319.023493567732
 30
0.0
 40
68.58
 41
90.0
 46
0.0
 71
     7
 72
     1
  1
{\fＭＳ ゴシック|b0|i0|c128|p49;（}
 73
     1
 44
1.0
  0
MTEXT
  5
86
330
1F
100
AcDbEntity
  8
F-A_文字
  6
Continuous
 62
     7
370
     0
100
AcDbMText
 10
5191.195810375571
 20
-4319.023493567732
 30
0.0
 40
68.58
 41
45.0
 46
0.0
 71
     7
 72
     1
  1
{\fＭＳ ゴシック|b0|i0|c128|p49;,}
 73
     1
 44
1.0
  0
MTEXT
  5
87
330
1F
100
AcDbEntity
  8
F-A_文字
  6
Continuous
 62
     7
370
     9
100
AcDbMText
 10
5096.167700144058
 20
-4147.857012699985
 30
0.0
 40
74.295
 41
97.5
 46
0.0
 71
     7
 72
     1
  1
{\fＭＳ ゴシック|b0|i0|c128|p49;01}
 73
     1
 44
1.0
  0
MTEXT
  5
88
330
1F
100
AcDbEntity
  8
F-A_文字
  6
Continuous
 62
     7
370
     0
100
AcDbMText
 10
3569.917643811961
 20
-3946.903115907308
 30
0.0
 40
76.19999999999999
 41
150.0
 46
0.0
 71
     7
 72
     1
  1
{\fＭＳ ゴシック|b0|i0|c128|p49;1/5}
 73
     1
 44
1.0
  0
LINE
  5
89
330
1F
100
AcDbEntity
  8
F-0_補助線
  6
JWW_HOJO
 62
   120
370
     5
100
AcDbLine
 10
-6140.081333436773
 20
194.9998020481422
 30
0.0
 11
6159.917676803936
 21
194.9998020481422
 31
0.0
  0
LINE
  5
8A
330
1F
100
AcDbEntity
  8
F-0_補助線
  6
JWW_HOJO
 62
   120
370
     5
100
AcDbLine
 10
-5659.999495325861
 20
4424.999604096284
 30
0.0
 11
-5659.999495325861
 21
-4455.0
 31
0.0
  0
LINE
  5
8B
330
1F
100
AcDbEntity
  8
F-0_補助線
  6
JWW_HOJO
 62
   120
370
     5
100
AcDbLine
 10
-6140.081333436773
 20
2438.999683277028
 30
0.0
 11
6159.917676803936
 21
2438.999683277028
 31
0.0
  0
LINE
  5
8C
330
1F
100
AcDbEntity
  8
F-0_補助線
  6
JWW_HOJO
 62
   120
370
     5
100
AcDbLine
 10
-6140.081333436773
 20
-3159.000197951857
 30
0.0
 11
6159.917676803936
 21
-3159.000197951857
 31
0.0
  0
LINE
  5
8D
330
1F
100
AcDbEntity
  8
F-0_補助線
  6
JWW_HOJO
 62
   120
370
     5
100
AcDbLine
 10
-200.0818283164182
 20
-4455.0
 30
0.0
 11
-200.0818283164182
 21
194.9998020481422
 31
0.0
  0
LINE
  5
8E
330
1F
100
AcDbEntity
  8
F-0_補助線
  6
JWW_HOJO
 62
   120
370
     5
100
AcDbLine
 10
9.918171683581818
 20
-4455.0
 30
0.0
 11
9.918171683581818
 21
4424.999604096284
 31
0.0
  0
LINE
  5
8F
330
1F
100
AcDbEntity
  8
F-0_補助線
  6
JWW_HOJO
 62
   120
370
     5
100
AcDbLine
 10
219.9181716835818
 20
-4455.0
 30
0.0
 11
219.9181716835818
 21
194.9998020481422
 31
0.0
  0
LINE
  5
90
330
1F
100
AcDbEntity
  8
F-0_補助線
  6
JWW_HOJO
 62
   120
370
     5
100
AcDbLine
 10
5679.835838693025
 20
4000.000181455871
 30
0.0
 11
5679.835838693025
 21
-4455.0
 31
0.0
  0
LINE
  5
91
330
1F
100
AcDbEntity
  8
F-0_補助線
  6
JWW_HOJO
 62
   120
370
     5
100
AcDbLine
 10
-6140.081333436773
 20
3730.000181455871
 30
0.0
 11
6159.917676803936
 21
3730.000181455871
 31
0.0
  0
LINE
  5
92
330
1F
100
AcDbEntity
  8
F-0_補助線
  6
JWW_HOJO
 62
   120
370
     5
100
AcDbLine
 10
-6140.081333436773
 20
4000.000181455871
 30
0.0
 11
6159.917676803936
 21
4000.000181455871
 31
0.0
  0
MTEXT
  5
93
330
1F
100
AcDbEntity
  8
0-A_文字
  6
Continuous
 62
     7
370
     9
100
AcDbMText
 10
-2500.225075191177
 20
87.82821798363895
 30
0.0
 40
100.584
 41
660.0
 46
0.0
 71
     7
 72
     1
  1
{\fＭＳ ゴシック|b0|i0|c128|p49;■縦断面図}
 73
     1
 44
1.0
  0
LINE
  5
94
330
1F
100
AcDbEntity
  8
0-7_金物
  6
Continuous
 62
     7
370
     9
100
AcDbLine
 10
-1231.75605831643
 20
-3087.000197951857
 30
0.0
 11
-1225.75605831643
 21
-3087.000197951857
 31
0.0
  0
LINE
  5
95
330
1F
100
AcDbEntity
  8
0-7_金物
  6
Continuous
 62
     7
370
     9
100
AcDbLine
 10
-1266.556058316424
 20
-3087.000197951857
 30
0.0
 11
-1260.556058316424
 21
-3087.000197951857
 31
0.0
  0
LINE
  5
96
330
1F
100
AcDbEntity
  8
0-7_金物
  6
Continuous
 62
     7
370
     9
100
AcDbLine
 10
-1298.956058316424
 20
-3087.000197951857
 30
0.0
 11
-1292.956058316425
 21
-3087.000197951857
 31
0.0
  0
LINE
  5
97
330
1F
100
AcDbEntity
  8
0-7_金物
  6
Continuous
 62
     7
370
     9
100
AcDbLine
 10
-1336.756058316424
 20
-3087.000197951857
 30
0.0
 11
-1330.756058316425
 21
-3087.000197951857
 31
0.0
  0
LINE
  5
98
330
1F
100
AcDbEntity
  8
0-7_金物
  6
Continuous
 62
     7
370
     9
100
AcDbLine
 10
-1374.556058316425
 20
-3087.000197951857
 30
0.0
 11
-1368.556058316425
 21
-3087.000197951857
 31
0.0
  0
LINE
  5
99
330
1F
100
AcDbEntity
  8
0-7_金物
  6
Continuous
 62
     7
370
     9
100
AcDbLine
 10
-1406.956058316425
 20
-3087.000197951857
 30
0.0
 11
-1400.956058316424
 21
-3087.000197951857
 31
0.0
  0
LINE
  5
9A
330
1F
100
AcDbEntity
  8
0-7_金物
  6
Continuous
 62
     7
370
     9
100
AcDbLine
 10
-1441.756058316429
 20
-3087.000197951857
 30
0.0
 11
-1435.756058316429
 21
-3087.000197951857
 31
0.0
  0
LINE
  5
9B
330
1F
100
AcDbEntity
  8
0-7_金物
  6
Continuous
 62
     7
370
     9
100
AcDbLine
 10
-1298.956058316424
 20
-3075.000197951858
 30
0.0
 11
-1330.756058316425
 21
-3075.000197951858
 31
0.0
  0
LINE
  5
9C
330
1F
100
AcDbEntity
  8
0-7_金物
  6
Continuous
 62
     7
370
     9
100
AcDbLine
 10
-1330.756058316425
 20
-3087.000197951857
 30
0.0
 11
-1330.756058316425
 21
-3075.000197951858
 31
0.0
  0
LINE
  5
9D
330
1F
100
AcDbEntity
  8
0-7_金物
  6
Continuous
 62
     7
370
     9
100
AcDbLine
 10
-1266.556058316424
 20
-3075.000197951858
 30
0.0
 11
-1292.956058316425
 21
-3075.000197951858
 31
0.0
  0
LINE
  5
9E
330
1F
100
AcDbEntity
  8
0-7_金物
  6
Continuous
 62
     7
370
     9
100
AcDbLine
 10
-1243.75605831643
 20
-3075.000197951858
 30
0.0
 11
-1260.556058316424
 21
-3075.000197951858
 31
0.0
  0
LINE
  5
9F
330
1F
100
AcDbEntity
  8
0-7_金物
  6
Continuous
 62
     7
370
     9
100
AcDbLine
 10
-1336.756058316424
 20
-3075.000197951858
 30
0.0
 11
-1368.556058316425
 21
-3075.000197951858
 31
0.0
  0
LINE
  5
A0
330
1F
100
AcDbEntity
  8
0-7_金物
  6
Continuous
 62
     7
370
     9
100
AcDbLine
 10
-1374.556058316425
 20
-3075.000197951858
 30
0.0
 11
-1400.956058316424
 21
-3075.000197951858
 31
0.0
  0
LINE
  5
A1
330
1F
100
AcDbEntity
  8
0-7_金物
  6
Continuous
 62
     7
370
     9
100
AcDbLine
 10
-1406.956058316425
 20
-3075.000197951858
 30
0.0
 11
-1423.756058316429
 21
-3075.000197951858
 31
0.0
  0
LINE
  5
A2
330
1F
100
AcDbEntity
  8
0-7_金物
  6
Continuous
 62
     7
370
     9
100
AcDbLine
 10
-1400.956058316424
 20
-3087.000197951857
 30
0.0
 11
-1400.956058316424
 21
-3075.000197951858
 31
0.0
  0
LINE
  5
A3
330
1F
100
AcDbEntity
  8
0-7_金物
  6
Continuous
 62
     7
370
     9
100
AcDbLine
 10
-1406.956058316425
 20
-3087.000197951857
 30
0.0
 11
-1406.956058316425
 21
-3075.000197951858
 31
0.0
  0
LINE
  5
A4
330
1F
100
AcDbEntity
  8
0-7_金物
  6
Continuous
 62
     7
370
     9
100
AcDbLine
 10
-1368.556058316425
 20
-3087.000197951857
 30
0.0
 11
-1368.556058316425
 21
-3075.000197951858
 31
0.0
  0
LINE
  5
A5
330
1F
100
AcDbEntity
  8
0-7_金物
  6
Continuous
 62
     7
370
     9
100
AcDbLine
 10
-1374.556058316425
 20
-3087.000197951857
 30
0.0
 11
-1374.556058316425
 21
-3075.000197951858
 31
0.0
  0
LINE
  5
A6
330
1F
100
AcDbEntity
  8
0-7_金物
  6
Continuous
 62
     7
370
     9
100
AcDbLine
 10
-1336.756058316424
 20
-3087.000197951857
 30
0.0
 11
-1336.756058316424
 21
-3075.000197951858
 31
0.0
  0
LINE
  5
A7
330
1F
100
AcDbEntity
  8
0-7_金物
  6
Continuous
 62
     7
370
     9
100
AcDbLine
 10
-1266.556058316424
 20
-3087.000197951857
 30
0.0
 11
-1266.556058316424
 21
-3075.000197951858
 31
0.0
  0
LINE
  5
A8
330
1F
100
AcDbEntity
  8
0-7_金物
  6
Continuous
 62
     7
370
     9
100
AcDbLine
 10
-1260.556058316424
 20
-3087.000197951857
 30
0.0
 11
-1260.556058316424
 21
-3075.000197951858
 31
0.0
  0
LINE
  5
A9
330
1F
100
AcDbEntity
  8
0-7_金物
  6
Continuous
 62
     7
370
     9
100
AcDbLine
 10
-1298.956058316424
 20
-3087.000197951857
 30
0.0
 11
-1298.956058316424
 21
-3075.000197951858
 31
0.0
  0
LINE
  5
AA
330
1F
100
AcDbEntity
  8
0-7_金物
  6
Continuous
 62
     7
370
     9
100
AcDbLine
 10
-1292.956058316425
 20
-3087.000197951857
 30
0.0
 11
-1292.956058316425
 21
-3075.000197951858
 31
0.0
  0
ARC
  5
AB
330
1F
100
AcDbEntity
  8
0-7_金物
  6
Continuous
 62
     7
370
     9
100
AcDbCircle
 10
-1243.75605831643
 20
-3087.000197951857
 30
0.0
 40
12.0
100
AcDbArc
 50
0.0
 51
90.0
  0
ARC
  5
AC
330
1F
100
AcDbEntity
  8
0-7_金物
  6
Continuous
 62
     7
370
     9
100
AcDbCircle
 10
-1423.756058316429
 20
-3087.000197951857
 30
0.0
 40
12.0
100
AcDbArc
 50
90.0
 51
180.0
  0
ARC
  5
AD
330
1F
100
AcDbEntity
  8
0-7_金物
  6
Continuous
 62
     7
370
     9
100
AcDbCircle
 10
-1243.75605831643
 20
-3087.000197951857
 30
0.0
 40
18.0
100
AcDbArc
 50
0.0
 51
90.0
  0
LINE
  5
AE
330
1F
100
AcDbEntity
  8
0-7_金物
  6
Continuous
 62
     7
370
     9
100
AcDbLine
 10
-1243.75605831643
 20
-3069.000197951857
 30
0.0
 11
-1423.756058316429
 21
-3069.000197951857
 31
0.0
  0
ARC
  5
AF
330
1F
100
AcDbEntity
  8
0-7_金物
  6
Continuous
 62
     7
370
     9
100
AcDbCircle
 10
-1423.756058316429
 20
-3087.000197951857
 30
0.0
 40
18.0
100
AcDbArc
 50
90.0
 51
180.0
  0
LINE
  5
B0
330
1F
100
AcDbEntity
  8
0-3_仕上げ
  6
Continuous
 62
     7
370
     9
100
AcDbLine
 10
-1873.756058316418
 20
-290.9999919582054
 30
0.0
 11
-1195.75605831642
 21
-290.9999919582054
 31
0.0
  0
LWPOLYLINE
  5
B1
330
1F
100
AcDbEntity
  8
0-B_寸法
  6
Continuous
 62
     7
370
     9
100
AcDbPolyline
 90
        4
 70
     1
 43
3.0
 10
-198.5818283164182
 20
-3087.000197951854
 42
0.4142135623731
 10
-200.0818283164182
 20
-3085.500197951854
 42
0.4142135623731
 10
-201.5818283164182
 20
-3087.000197951854
 42
0.4142135623731
 10
-200.0818283164182
 20
-3088.500197951854
 42
0.4142135623731
  0
LINE
  5
B2
330
1F
100
AcDbEntity
  8
0-B_寸法
  6
Continuous
 62
   120
370
     5
100
AcDbLine
 10
-200.0818283164182
 20
-3087.000197951854
 30
0.0
 11
-830.0818280790063
 21
-3087.000197951854
 31
0.0
  0
LINE
  5
B3
330
1F
100
AcDbEntity
  8
0-3_仕上げ
  6
Continuous
 62
     7
370
     9
100
AcDbLine
 10
-830.0818283164185
 20
-3150.000197951854
 30
0.0
 11
-2290.225075345228
 21
-3150.000197951854
 31
0.0
  0
LINE
  5
B4
330
1F
100
AcDbEntity
  8
0-3_仕上げ
  6
Continuous
 62
     7
370
     9
100
AcDbLine
 10
-830.0818283164185
 20
-3141.000197951856
 30
0.0
 11
-2290.225075345228
 21
-3141.000197951856
 31
0.0
  0
LINE
  5
B5
330
1F
100
AcDbEntity
  8
0-3_仕上げ
  6
Continuous
 62
     7
370
     9
100
AcDbLine
 10
-830.0818283164185
 20
-3132.000197951854
 30
0.0
 11
-2290.225075345228
 21
-3132.000197951854
 31
0.0
  0
LINE
  5
B6
330
1F
100
AcDbEntity
  8
0-3_仕上げ
  6
Continuous
 62
     7
370
     9
100
AcDbLine
 10
-830.0818283164185
 20
-3123.000197951855
 30
0.0
 11
-2290.225075345228
 21
-3123.000197951855
 31
0.0
  0
LINE
  5
B7
330
1F
100
AcDbEntity
  8
0-3_仕上げ
  6
Continuous
 62
     7
370
     9
100
AcDbLine
 10
-830.0818283164185
 20
-3114.000197951857
 30
0.0
 11
-2290.225075345228
 21
-3114.000197951857
 31
0.0
  0
LINE
  5
B8
330
1F
100
AcDbEntity
  8
0-3_仕上げ
  6
Continuous
 62
     7
370
     9
100
AcDbLine
 10
-830.0818283164185
 20
-3105.000197951858
 30
0.0
 11
-2290.225075345228
 21
-3105.000197951858
 31
0.0
  0
LINE
  5
B9
330
1F
100
AcDbEntity
  8
0-3_仕上げ
  6
Continuous
 62
     7
370
     9
100
AcDbLine
 10
-830.0818283164185
 20
-3096.000197951856
 30
0.0
 11
-2290.225075345228
 21
-3096.000197951856
 31
0.0
  0
LINE
  5
BA
330
1F
100
AcDbEntity
  8
0-3_仕上げ
  6
Continuous
 62
    40
370
    15
100
AcDbLine
 10
-830.0818283164185
 20
-3159.000197951857
 30
0.0
 11
-2290.225075345228
 21
-3159.000197951857
 31
0.0
  0
LINE
  5
BB
330
1F
100
AcDbEntity
  8
0-3_仕上げ
  6
Continuous
 62
    40
370
    15
100
AcDbLine
 10
-830.0818283164185
 20
-3087.000197951857
 30
0.0
 11
-2290.225075345228
 21
-3087.000197951857
 31
0.0
  0
LINE
  5
BC
330
1F
100
AcDbEntity
  8
0-4_枠
  6
Continuous
 62
   120
370
     5
100
AcDbLine
 10
-1195.75605831642
 20
-1839.000197951857
 30
0.0
 11
-1195.75605831642
 21
-3087.000197951857
 31
0.0
  0
LINE
  5
BD
330
1F
100
AcDbEntity
  8
0-6_扉
  6
Continuous
 62
   200
370
    20
100
AcDbLine
 10
-1441.756058316421
 20
-1839.000197951857
 30
0.0
 11
-1441.756058316421
 21
-3009.000197951857
 31
0.0
  0
LINE
  5
BE
330
1F
100
AcDbEntity
  8
0-3_仕上げ
  6
Continuous
 62
     7
370
     9
100
AcDbLine
 10
-1195.75605831642
 20
9.00000806869059
 30
0.0
 11
-1195.75605831642
 21
-290.9999919582054
 31
0.0
  0
LINE
  5
BF
330
1F
100
AcDbEntity
  8
0-3_仕上げ
  6
Continuous
 62
     7
370
     9
100
AcDbLine
 10
-1873.756058316418
 20
9.00000806869059
 30
0.0
 11
-1873.756058316418
 21
-290.9999919582054
 31
0.0
  0
LWPOLYLINE
  5
C0
330
1F
100
AcDbEntity
  8
0-B_寸法
  6
Continuous
 62
     7
370
     9
100
AcDbPolyline
 90
        4
 70
     1
 43
3.0
 10
-1224.25605831642
 20
-1051.14666123487
 42
0.4142135623731
 10
-1225.75605831642
 20
-1049.64666123487
 42
0.4142135623731
 10
-1227.25605831642
 20
-1051.14666123487
 42
0.4142135623731
 10
-1225.75605831642
 20
-1052.64666123487
 42
0.4142135623731
  0
LWPOLYLINE
  5
C1
330
1F
100
AcDbEntity
  8
0-B_寸法
  6
Continuous
 62
     7
370
     9
100
AcDbPolyline
 90
        4
 70
     1
 43
3.0
 10
-1440.256058316422
 20
-1051.14666123487
 42
0.4142135623731
 10
-1441.756058316421
 20
-1049.64666123487
 42
0.4142135623731
 10
-1443.256058316421
 20
-1051.14666123487
 42
0.4142135623731
 10
-1441.756058316421
 20
-1052.64666123487
 42
0.4142135623731
  0
LINE
  5
C2
330
1F
100
AcDbEntity
  8
0-B_寸法
  6
Continuous
 62
   120
370
     5
100
AcDbLine
 10
-1441.756058316421
 20
-1051.14666123487
 30
0.0
 11
-1225.75605831642
 21
-1051.14666123487
 31
0.0
  0
LINE
  5
C3
330
1F
100
AcDbEntity
  8
0-6_扉
  6
Continuous
 62
   200
370
    20
100
AcDbLine
 10
-1441.756058316421
 20
-500.9999919582054
 30
0.0
 11
-1441.756058316421
 21
-1719.000197951857
 31
0.0
  0
LINE
  5
C4
330
1F
100
AcDbEntity
  8
0-6_扉
  6
Continuous
 62
   200
370
    20
100
AcDbLine
 10
-1225.75605831642
 20
-500.9999919582054
 30
0.0
 11
-1225.75605831642
 21
-1719.000197951857
 31
0.0
  0
LINE
  5
C5
330
1F
100
AcDbEntity
  8
0-7_金物
  6
Continuous
 62
     7
370
     9
100
AcDbLine
 10
-1480.756023984143
 20
-338.9999919582027
 30
0.0
 11
-1480.756023984143
 21
-314.999923293654
 31
0.0
  0
LINE
  5
C6
330
1F
100
AcDbEntity
  8
0-7_金物
  6
Continuous
 62
     7
370
     9
100
AcDbLine
 10
-1588.756092648694
 20
-314.999923293654
 30
0.0
 11
-1588.756092648694
 21
-338.9999919582027
 31
0.0
  0
LINE
  5
C7
330
1F
100
AcDbEntity
  8
0-7_金物
  6
Continuous
 62
     7
370
     9
100
AcDbLine
 10
-1594.756258588025
 20
-314.999923293654
 30
0.0
 11
-1474.756601910779
 21
-314.999923293654
 31
0.0
  0
LINE
  5
C8
330
1F
100
AcDbEntity
  8
0-7_金物
  6
Continuous
 62
     7
370
     9
100
AcDbLine
 10
-1474.756601910779
 20
-303.0003295589114
 30
0.0
 11
-1474.756601910779
 21
-314.999923293654
 31
0.0
  0
LINE
  5
C9
330
1F
100
AcDbEntity
  8
0-7_金物
  6
Continuous
 62
     7
370
     9
100
AcDbLine
 10
-1594.756258588025
 20
-303.0003295589114
 30
0.0
 11
-1594.756258588025
 21
-314.999923293654
 31
0.0
  0
LINE
  5
CA
330
1F
100
AcDbEntity
  8
0-7_金物
  6
Continuous
 62
     7
370
     9
100
AcDbLine
 10
-1624.756361584848
 20
-290.9999919582054
 30
0.0
 11
-1444.756498913956
 21
-290.9999919582054
 31
0.0
  0
LINE
  5
CB
330
1F
100
AcDbEntity
  8
0-7_金物
  6
Continuous
 62
     7
370
     9
100
AcDbLine
 10
-1624.756361584848
 20
-290.9999919582054
 30
0.0
 11
-1624.756361584848
 21
-303.0003295589114
 31
0.0
  0
LINE
  5
CC
330
1F
100
AcDbEntity
  8
0-7_金物
  6
Continuous
 62
     7
370
     9
100
AcDbLine
 10
-1444.756498913956
 20
-290.9999919582054
 30
0.0
 11
-1444.756498913956
 21
-303.0003295589114
 31
0.0
  0
LINE
  5
CD
330
1F
100
AcDbEntity
  8
0-7_金物
  6
Continuous
 62
     7
370
     9
100
AcDbLine
 10
-1624.756361584848
 20
-303.0003295589114
 30
0.0
 11
-1444.756498913956
 21
-303.0003295589114
 31
0.0
  0
LINE
  5
CE
330
1F
100
AcDbEntity
  8
0-6_扉
  6
Continuous
 62
   200
370
    20
100
AcDbLine
 10
-1225.75605831642
 20
-1839.000197951857
 30
0.0
 11
-1225.75605831642
 21
-3009.000197951857
 31
0.0
  0
LINE
  5
CF
330
1F
100
AcDbEntity
  8
0-4_枠
  6
Continuous
 62
   120
370
     5
100
AcDbLine
 10
-1873.756058316418
 20
-1839.000197951857
 30
0.0
 11
-1873.756058316418
 21
-3087.000197951854
 31
0.0
  0
LINE
  5
D0
330
1F
100
AcDbEntity
  8
0-6_扉
  6
Continuous
 62
   200
370
    20
100
AcDbLine
 10
-1225.75605831642
 20
-3009.000197951857
 30
0.0
 11
-1441.756058316421
 21
-3009.000197951857
 31
0.0
  0
LINE
  5
D1
330
1F
100
AcDbEntity
  8
0-1_通り芯
  6
JWW_CENTER1
 62
   120
370
     5
100
AcDbLine
 10
-1534.756058316419
 20
9.000008041797969
 30
0.0
 11
-1534.756058316419
 21
-3328.451439426646
 31
0.0
  0
LINE
  5
D2
330
1F
100
AcDbEntity
  8
0-0_補助線
  6
JWW_HOJO
 62
   120
370
     5
100
AcDbLine
 10
-2290.225075345228
 20
9.000008041797969
 30
0.0
 11
-830.0818283164185
 21
9.000008041797969
 31
0.0
  0
LINE
  5
D3
330
1F
100
AcDbEntity
  8
0-0_補助線
  6
JWW_HOJO
 62
   120
370
     5
100
AcDbLine
 10
-2290.225075345228
 20
9.000008041797969
 30
0.0
 11
-2290.225075345228
 21
-3328.451439426646
 31
0.0
  0
LINE
  5
D4
330
1F
100
AcDbEntity
  8
0-0_補助線
  6
JWW_HOJO
 62
   120
370
     5
100
AcDbLine
 10
-830.0818283164185
 20
9.000008041797969
 30
0.0
 11
-830.0818283164185
 21
-3328.451439426646
 31
0.0
  0
LWPOLYLINE
  5
D5
330
1F
100
AcDbEntity
  8
0-B_寸法
  6
Continuous
 62
     7
370
     9
100
AcDbPolyline
 90
        4
 70
     1
 43
3.0
 10
-198.5818283164182
 20
-338.9999919582027
 42
0.4142135623731
 10
-200.0818283164182
 20
-337.4999919582027
 42
0.4142135623731
 10
-201.5818283164182
 20
-338.9999919582027
 42
0.4142135623731
 10
-200.0818283164182
 20
-340.4999919582027
 42
0.4142135623731
  0
LINE
  5
D6
330
1F
100
AcDbEntity
  8
0-B_寸法
  6
Continuous
 62
   120
370
     5
100
AcDbLine
 10
-200.0818283164182
 20
-338.9999919582027
 30
0.0
 11
-830.0818280790063
 21
-338.9999919582027
 31
0.0
  0
LINE
  5
D7
330
1F
100
AcDbEntity
  8
0-0_補助線
  6
JWW_HOJO
 62
    92
370
    13
100
AcDbLine
 10
-200.0818283164182
 20
-392.9999919582048
 30
0.0
 11
-200.0818283164182
 21
-446.9999919582034
 31
0.0
  0
LWPOLYLINE
  5
D8
330
1F
100
AcDbEntity
  8
0-B_寸法
  6
Continuous
 62
     7
370
     9
100
AcDbPolyline
 90
        4
 70
     1
 43
3.0
 10
-408.5818283164183
 20
-338.9999919582027
 42
0.4142135623731
 10
-410.0818283164183
 20
-337.4999919582027
 42
0.4142135623731
 10
-411.5818283164183
 20
-338.9999919582027
 42
0.4142135623731
 10
-410.0818283164183
 20
-340.4999919582027
 42
0.4142135623731
  0
LWPOLYLINE
  5
D9
330
1F
100
AcDbEntity
  8
0-B_寸法
  6
Continuous
 62
     7
370
     9
100
AcDbPolyline
 90
        4
 70
     1
 43
3.0
 10
-618.5818283164185
 20
-500.9999919582054
 42
0.4142135623731
 10
-620.0818283164185
 20
-499.4999919582054
 42
0.4142135623731
 10
-621.5818283164185
 20
-500.9999919582054
 42
0.4142135623731
 10
-620.0818283164185
 20
-502.4999919582054
 42
0.4142135623731
  0
LINE
  5
DA
330
1F
100
AcDbEntity
  8
0-B_寸法
  6
Continuous
 62
   120
370
     5
100
AcDbLine
 10
-620.0818283164185
 20
-500.9999919582054
 30
0.0
 11
-830.0818280790063
 21
-500.9999919582054
 31
0.0
  0
LWPOLYLINE
  5
DB
330
1F
100
AcDbEntity
  8
0-B_寸法
  6
Continuous
 62
     7
370
     9
100
AcDbPolyline
 90
        4
 70
     1
 43
3.0
 10
-2468.725075345227
 20
-290.9999919582054
 42
0.4142135623731
 10
-2470.225075345227
 20
-289.4999919582054
 42
0.4142135623731
 10
-2471.725075345227
 20
-290.9999919582054
 42
0.4142135623731
 10
-2470.225075345227
 20
-292.4999919582054
 42
0.4142135623731
  0
LINE
  5
DC
330
1F
100
AcDbEntity
  8
0-B_寸法
  6
Continuous
 62
   120
370
     5
100
AcDbLine
 10
-2470.225075345227
 20
-290.9999919582054
 30
0.0
 11
-2470.225075345227
 21
-3159.000197951857
 31
0.0
  0
LINE
  5
DD
330
1F
100
AcDbEntity
  8
0-B_寸法
  6
Continuous
 62
   120
370
     5
100
AcDbLine
 10
-2470.225075345227
 20
-290.9999919582054
 30
0.0
 11
-2290.225075103238
 21
-290.9999919582054
 31
0.0
  0
LINE
  5
DE
330
1F
100
AcDbEntity
  8
0-0_補助線
  6
JWW_HOJO
 62
   120
370
     5
100
AcDbLine
 10
-934.7560583164188
 20
-1839.000197951857
 30
0.0
 11
-2101.338983361698
 21
-1839.000197951857
 31
0.0
  0
LINE
  5
DF
330
1F
100
AcDbEntity
  8
0-0_補助線
  6
JWW_HOJO
 62
   120
370
     5
100
AcDbLine
 10
-934.7560583164188
 20
-1719.000197951857
 30
0.0
 11
-2101.338983361698
 21
-1719.000197951857
 31
0.0
  0
LWPOLYLINE
  5
E0
330
1F
100
AcDbEntity
  8
0-B_寸法
  6
Continuous
 62
     7
370
     9
100
AcDbPolyline
 90
        4
 70
     1
 43
3.0
 10
-198.5818283164182
 20
-3159.000197951857
 42
0.4142135623731
 10
-200.0818283164182
 20
-3157.500197951857
 42
0.4142135623731
 10
-201.5818283164182
 20
-3159.000197951857
 42
0.4142135623731
 10
-200.0818283164182
 20
-3160.500197951857
 42
0.4142135623731
  0
LWPOLYLINE
  5
E1
330
1F
100
AcDbEntity
  8
0-B_寸法
  6
Continuous
 62
     7
370
     9
100
AcDbPolyline
 90
        4
 70
     1
 43
3.0
 10
-408.5818283164183
 20
-3069.000197951857
 42
0.4142135623731
 10
-410.0818283164183
 20
-3067.500197951857
 42
0.4142135623731
 10
-411.5818283164183
 20
-3069.000197951857
 42
0.4142135623731
 10
-410.0818283164183
 20
-3070.500197951857
 42
0.4142135623731
  0
LINE
  5
E2
330
1F
100
AcDbEntity
  8
0-B_寸法
  6
Continuous
 62
   120
370
     5
100
AcDbLine
 10
-410.0818283164183
 20
-3069.000197951857
 30
0.0
 11
-830.0818280790063
 21
-3069.000197951857
 31
0.0
  0
LWPOLYLINE
  5
E3
330
1F
100
AcDbEntity
  8
0-B_寸法
  6
Continuous
 62
     7
370
     9
100
AcDbPolyline
 90
        4
 70
     1
 43
3.0
 10
-408.5818283164183
 20
-3087.000197951854
 42
0.4142135623731
 10
-410.0818283164183
 20
-3085.500197951854
 42
0.4142135623731
 10
-411.5818283164183
 20
-3087.000197951854
 42
0.4142135623731
 10
-410.0818283164183
 20
-3088.500197951854
 42
0.4142135623731
  0
LWPOLYLINE
  5
E4
330
1F
100
AcDbEntity
  8
0-B_寸法
  6
Continuous
 62
     7
370
     9
100
AcDbPolyline
 90
        4
 70
     1
 43
3.0
 10
-618.5818283164185
 20
-3009.000197951857
 42
0.4142135623731
 10
-620.0818283164185
 20
-3007.500197951857
 42
0.4142135623731
 10
-621.5818283164185
 20
-3009.000197951857
 42
0.4142135623731
 10
-620.0818283164185
 20
-3010.500197951857
 42
0.4142135623731
  0
LINE
  5
E5
330
1F
100
AcDbEntity
  8
0-B_寸法
  6
Continuous
 62
   120
370
     5
100
AcDbLine
 10
-620.0818283164185
 20
-3009.000197951857
 30
0.0
 11
-830.0818280790063
 21
-3009.000197951857
 31
0.0
  0
LWPOLYLINE
  5
E6
330
1F
100
AcDbEntity
  8
0-B_寸法
  6
Continuous
 62
     7
370
     9
100
AcDbPolyline
 90
        4
 70
     1
 43
3.0
 10
-618.5818283164185
 20
-3069.000197951857
 42
0.4142135623731
 10
-620.0818283164185
 20
-3067.500197951857
 42
0.4142135623731
 10
-621.5818283164185
 20
-3069.000197951857
 42
0.4142135623731
 10
-620.0818283164185
 20
-3070.500197951857
 42
0.4142135623731
  0
LWPOLYLINE
  5
E7
330
1F
100
AcDbEntity
  8
0-B_寸法
  6
Continuous
 62
     7
370
     9
100
AcDbPolyline
 90
        4
 70
     1
 43
3.0
 10
-2468.725075345227
 20
-3159.000197951857
 42
0.4142135623731
 10
-2470.225075345227
 20
-3157.500197951857
 42
0.4142135623731
 10
-2471.725075345227
 20
-3159.000197951857
 42
0.4142135623731
 10
-2470.225075345227
 20
-3160.500197951857
 42
0.4142135623731
  0
LINE
  5
E8
330
1F
100
AcDbEntity
  8
0-B_寸法
  6
Continuous
 62
   120
370
     5
100
AcDbLine
 10
-2470.225075345227
 20
-3159.000197951857
 30
0.0
 11
-2290.225075103238
 21
-3159.000197951857
 31
0.0
  0
LINE
  5
E9
330
1F
100
AcDbEntity
  8
0-1_通り芯
  6
JWW_CENTER1
 62
   120
370
     5
100
AcDbLine
 10
-2574.607703419791
 20
-3159.000197951857
 30
0.0
 11
-105.1789737625863
 21
-3159.000197951857
 31
0.0
  0
LINE
  5
EA
330
1F
100
AcDbEntity
  8
0-B_寸法
  6
Continuous
 62
   120
370
     5
100
AcDbLine
 10
-200.0818283164182
 20
-3159.000197951857
 30
0.0
 11
-830.0818280790063
 21
-3159.000197951857
 31
0.0
  0
LINE
  5
EB
330
1F
100
AcDbEntity
  8
0-1_通り芯
  6
JWW_CENTER1
 62
   120
370
     5
100
AcDbLine
 10
-200.0818283164182
 20
-290.9999919582054
 30
0.0
 11
-2574.607703419791
 21
-290.9999919582054
 31
0.0
  0
MTEXT
  5
EC
330
1F
100
AcDbEntity
  8
0-B_寸法
  6
Continuous
 62
     7
370
   211
100
AcDbMText
 10
-1397.50605831642
 20
-1047.569161234869
 30
0.0
 40
97.15500000000162
 41
127.5000000000021
 46
0.0
 71
     7
 72
     1
  1
{\fＭＳ ゴシック|b0|i0|c128|p49;36}
 73
     1
 44
1.0
  0
MTEXT
  5
ED
330
1F
100
AcDbEntity
  8
0-B_寸法
  6
Continuous
 62
     7
370
     0
100
AcDbMText
 10
-633.1626489611003
 20
-2155.584743406402
 30
0.0
 40
101.8309090909091
 41
735.0
 46
0.0
 71
     7
 72
     1
  1
{\fＭＳ ゴシック|b0|i0|c128|p49;ＤＨ＝1,995}
 11
6.123031769111886E-17
 21
1.0
 31
0.0
 73
     1
 44
1.0
  0
MTEXT
  5
EE
330
1F
100
AcDbEntity
  8
0-B_寸法
  6
Continuous
 62
     7
370
     0
100
AcDbMText
 10
-208.9964787431251
 20
-2155.584743406402
 30
0.0
 40
101.8309090909091
 41
735.0
 46
0.0
 71
     7
 72
     1
  1
{\fＭＳ ゴシック|b0|i0|c128|p49;枠外＝2,035}
 11
6.123031769111886E-17
 21
1.0
 31
0.0
 73
     1
 44
1.0
  0
MTEXT
  5
EF
330
1F
100
AcDbEntity
  8
0-B_寸法
  6
Continuous
 62
     7
370
     0
100
AcDbMText
 10
-2498.070379212632
 20
-2193.004813336472
 30
0.0
 40
101.9907692307692
 41
870.0
 46
0.0
 71
     7
 72
     1
  1
{\fＭＳ ゴシック|b0|i0|c128|p49;ＲＯＨ＝2,055}
 11
6.123031769111886E-17
 21
1.0
 31
0.0
 73
     1
 44
1.0
  0
MTEXT
  5
F0
330
1F
100
AcDbEntity
  8
0-B_寸法
  6
Continuous
 62
     7
370
     0
100
AcDbMText
 10
-635.0818283164185
 20
-3020.422697951857
 30
0.0
 40
97.15499999999999
 41
127.5
 46
0.0
 71
     7
 72
     1
  1
{\fＭＳ ゴシック|b0|i0|c128|p49;10}
 11
6.123031769111886E-17
 21
1.0
 31
0.0
 73
     1
 44
1.0
  0
MTEXT
  5
F1
330
1F
100
AcDbEntity
  8
0-B_寸法
  6
Continuous
 62
     7
370
   211
100
AcDbMText
 10
-425.0818283164183
 20
-3075.780197951857
 30
0.0
 40
91.44
 41
60.0
 46
0.0
 71
     7
 72
     1
  1
{\fＭＳ ゴシック|b0|i0|c128|p49;3}
 11
6.123031769111886E-17
 21
1.0
 31
0.0
 73
     1
 44
1.0
  0
LINE
  5
F2
330
1F
100
AcDbEntity
  8
0-B_寸法
  6
Continuous
 62
   120
370
     5
100
AcDbLine
 10
2505.771030233653
 20
-1135.641442697331
 30
0.0
 11
2598.771030233654
 21
-1135.641442697331
 31
0.0
  0
LWPOLYLINE
  5
F3
330
1F
100
AcDbEntity
  8
0-B_寸法
  6
Continuous
 62
     7
370
     9
100
AcDbPolyline
 90
        4
 70
     1
 43
3.0
 10
2507.271030233653
 20
-1135.641442697331
 42
0.4142135623731
 10
2505.771030233653
 20
-1134.141442697331
 42
0.4142135623731
 10
2504.271030233653
 20
-1135.641442697331
 42
0.4142135623731
 10
2505.771030233653
 20
-1137.141442697331
 42
0.4142135623731
  0
LWPOLYLINE
  5
F4
330
1F
100
AcDbEntity
  8
0-B_寸法
  6
Continuous
 62
     7
370
     9
100
AcDbPolyline
 90
        4
 70
     1
 43
3.0
 10
2600.271030233654
 20
-1135.641442697331
 42
0.4142135623731
 10
2598.771030233654
 20
-1134.141442697331
 42
0.4142135623731
 10
2597.271030233654
 20
-1135.641442697331
 42
0.4142135623731
 10
2598.771030233654
 20
-1137.141442697331
 42
0.4142135623731
  0
LINE
  5
F5
330
1F
100
AcDbEntity
  8
0-B_寸法
  6
Continuous
 62
   120
370
     5
100
AcDbLine
 10
2598.771030233653
 20
-1335.449754073249
 30
0.0
 11
2814.771030233653
 21
-1335.449754073249
 31
0.0
  0
LWPOLYLINE
  5
F6
330
1F
100
AcDbEntity
  8
0-B_寸法
  6
Continuous
 62
     7
370
     9
100
AcDbPolyline
 90
        4
 70
     1
 43
3.0
 10
2600.271030233653
 20
-1335.449754073249
 42
0.4142135623731
 10
2598.771030233653
 20
-1333.949754073249
 42
0.4142135623731
 10
2597.271030233653
 20
-1335.449754073249
 42
0.4142135623731
 10
2598.771030233653
 20
-1336.949754073249
 42
0.4142135623731
  0
LWPOLYLINE
  5
F7
330
1F
100
AcDbEntity
  8
0-B_寸法
  6
Continuous
 62
     7
370
     9
100
AcDbPolyline
 90
        4
 70
     1
 43
3.0
 10
2816.271030233653
 20
-1335.449754073249
 42
0.4142135623731
 10
2814.771030233653
 20
-1333.949754073249
 42
0.4142135623731
 10
2813.271030233653
 20
-1335.449754073249
 42
0.4142135623731
 10
2814.771030233653
 20
-1336.949754073249
 42
0.4142135623731
  0
LINE
  5
F8
330
1F
100
AcDbEntity
  8
0-A_文字
  6
Continuous
 62
    92
370
    13
100
AcDbLine
 10
3519.918171683584
 20
-2190.04154883779
 30
0.0
 11
1719.918171683582
 21
-2190.04154883779
 31
0.0
  0
LINE
  5
F9
330
1F
100
AcDbEntity
  8
0-A_文字
  6
Continuous
 62
    92
370
    13
100
AcDbLine
 10
219.9181716835818
 20
-290.9999919582054
 30
0.0
 11
219.9181716835835
 21
-2010.041548837792
 31
0.0
  0
LINE
  5
FA
330
1F
100
AcDbEntity
  8
7-7_金物
  6
Continuous
 62
     7
370
     9
100
AcDbLine
 10
3255.86286345152
 20
-2844.392781877546
 30
0.0
 11
3285.86286345152
 21
-2844.392781877546
 31
0.0
  0
LINE
  5
FB
330
1F
100
AcDbEntity
  8
7-7_金物
  6
Continuous
 62
     7
370
     9
100
AcDbLine
 10
3081.862863451553
 20
-2844.392781877546
 30
0.0
 11
3111.862863451549
 21
-2844.392781877546
 31
0.0
  0
LINE
  5
FC
330
1F
100
AcDbEntity
  8
7-7_金物
  6
Continuous
 62
     7
370
     9
100
AcDbLine
 10
2919.86286345155
 20
-2844.392781877546
 30
0.0
 11
2949.862863451546
 21
-2844.392781877546
 31
0.0
  0
LINE
  5
FD
330
1F
100
AcDbEntity
  8
7-7_金物
  6
Continuous
 62
     7
370
     9
100
AcDbLine
 10
2730.862863451551
 20
-2844.392781877546
 30
0.0
 11
2760.862863451548
 21
-2844.392781877546
 31
0.0
  0
LINE
  5
FE
330
1F
100
AcDbEntity
  8
7-7_金物
  6
Continuous
 62
     7
370
     9
100
AcDbLine
 10
2541.862863451551
 20
-2844.392781877546
 30
0.0
 11
2571.862863451549
 21
-2844.392781877546
 31
0.0
  0
LINE
  5
FF
330
1F
100
AcDbEntity
  8
7-7_金物
  6
Continuous
 62
     7
370
     9
100
AcDbLine
 10
2379.862863451548
 20
-2844.392781877546
 30
0.0
 11
2409.862863451548
 21
-2844.392781877546
 31
0.0
  0
LINE
  5
100
330
1F
100
AcDbEntity
  8
7-7_金物
  6
Continuous
 62
     7
370
     9
100
AcDbLine
 10
2205.862863451527
 20
-2844.392781877546
 30
0.0
 11
2235.862863451527
 21
-2844.392781877546
 31
0.0
  0
LINE
  5
101
330
1F
100
AcDbEntity
  8
7-7_金物
  6
Continuous
 62
     7
370
     9
100
AcDbLine
 10
2919.86286345155
 20
-2784.392781877546
 30
0.0
 11
2760.862863451548
 21
-2784.392781877546
 31
0.0
  0
LINE
  5
102
330
1F
100
AcDbEntity
  8
7-7_金物
  6
Continuous
 62
     7
370
     9
100
AcDbLine
 10
2760.862863451548
 20
-2844.392781877546
 30
0.0
 11
2760.862863451548
 21
-2784.392781877546
 31
0.0
  0
LINE
  5
103
330
1F
100
AcDbEntity
  8
7-7_金物
  6
Continuous
 62
     7
370
     9
100
AcDbLine
 10
3081.862863451553
 20
-2784.392781877546
 30
0.0
 11
2949.862863451546
 21
-2784.392781877546
 31
0.0
  0
LINE
  5
104
330
1F
100
AcDbEntity
  8
7-7_金物
  6
Continuous
 62
     7
370
     9
100
AcDbLine
 10
3195.86286345152
 20
-2784.392781877546
 30
0.0
 11
3111.862863451549
 21
-2784.392781877546
 31
0.0
  0
LINE
  5
105
330
1F
100
AcDbEntity
  8
7-7_金物
  6
Continuous
 62
     7
370
     9
100
AcDbLine
 10
2730.862863451551
 20
-2784.392781877546
 30
0.0
 11
2571.862863451549
 21
-2784.392781877546
 31
0.0
  0
LINE
  5
106
330
1F
100
AcDbEntity
  8
7-7_金物
  6
Continuous
 62
     7
370
     9
100
AcDbLine
 10
2541.862863451551
 20
-2784.392781877546
 30
0.0
 11
2409.862863451548
 21
-2784.392781877546
 31
0.0
  0
LINE
  5
107
330
1F
100
AcDbEntity
  8
7-7_金物
  6
Continuous
 62
     7
370
     9
100
AcDbLine
 10
2379.862863451548
 20
-2784.392781877546
 30
0.0
 11
2295.862863451527
 21
-2784.392781877546
 31
0.0
  0
LINE
  5
108
330
1F
100
AcDbEntity
  8
7-7_金物
  6
Continuous
 62
     7
370
     9
100
AcDbLine
 10
2409.862863451548
 20
-2844.392781877546
 30
0.0
 11
2409.862863451548
 21
-2784.392781877546
 31
0.0
  0
LINE
  5
109
330
1F
100
AcDbEntity
  8
7-7_金物
  6
Continuous
 62
     7
370
     9
100
AcDbLine
 10
2379.862863451548
 20
-2844.392781877546
 30
0.0
 11
2379.862863451548
 21
-2784.392781877546
 31
0.0
  0
LINE
  5
10A
330
1F
100
AcDbEntity
  8
7-7_金物
  6
Continuous
 62
     7
370
     9
100
AcDbLine
 10
2571.862863451549
 20
-2844.392781877546
 30
0.0
 11
2571.862863451549
 21
-2784.392781877546
 31
0.0
  0
LINE
  5
10B
330
1F
100
AcDbEntity
  8
7-7_金物
  6
Continuous
 62
     7
370
     9
100
AcDbLine
 10
2541.862863451551
 20
-2844.392781877546
 30
0.0
 11
2541.862863451551
 21
-2784.392781877546
 31
0.0
  0
LINE
  5
10C
330
1F
100
AcDbEntity
  8
7-7_金物
  6
Continuous
 62
     7
370
     9
100
AcDbLine
 10
2730.862863451551
 20
-2844.392781877546
 30
0.0
 11
2730.862863451551
 21
-2784.392781877546
 31
0.0
  0
LINE
  5
10D
330
1F
100
AcDbEntity
  8
7-7_金物
  6
Continuous
 62
     7
370
     9
100
AcDbLine
 10
3081.862863451553
 20
-2844.392781877546
 30
0.0
 11
3081.862863451553
 21
-2784.392781877546
 31
0.0
  0
LINE
  5
10E
330
1F
100
AcDbEntity
  8
7-7_金物
  6
Continuous
 62
     7
370
     9
100
AcDbLine
 10
3111.862863451549
 20
-2844.392781877546
 30
0.0
 11
3111.862863451549
 21
-2784.392781877546
 31
0.0
  0
LINE
  5
10F
330
1F
100
AcDbEntity
  8
7-7_金物
  6
Continuous
 62
     7
370
     9
100
AcDbLine
 10
2919.86286345155
 20
-2844.392781877546
 30
0.0
 11
2919.86286345155
 21
-2784.392781877546
 31
0.0
  0
LINE
  5
110
330
1F
100
AcDbEntity
  8
7-7_金物
  6
Continuous
 62
     7
370
     9
100
AcDbLine
 10
2949.862863451546
 20
-2844.392781877546
 30
0.0
 11
2949.862863451546
 21
-2784.392781877546
 31
0.0
  0
ARC
  5
111
330
1F
100
AcDbEntity
  8
7-7_金物
  6
Continuous
 62
     7
370
     9
100
AcDbCircle
 10
3195.86286345152
 20
-2844.392781877546
 30
0.0
 40
59.99999999999999
100
AcDbArc
 50
0.0
 51
90.0
  0
ARC
  5
112
330
1F
100
AcDbEntity
  8
7-7_金物
  6
Continuous
 62
     7
370
     9
100
AcDbCircle
 10
2295.862863451527
 20
-2844.392781877546
 30
0.0
 40
59.99999999999999
100
AcDbArc
 50
90.0
 51
180.0
  0
ARC
  5
113
330
1F
100
AcDbEntity
  8
7-7_金物
  6
Continuous
 62
     7
370
     9
100
AcDbCircle
 10
3195.86286345152
 20
-2844.392781877546
 30
0.0
 40
90.0
100
AcDbArc
 50
0.0
 51
90.0
  0
LINE
  5
114
330
1F
100
AcDbEntity
  8
7-7_金物
  6
Continuous
 62
     7
370
     9
100
AcDbLine
 10
3195.86286345152
 20
-2754.392781877546
 30
0.0
 11
2295.862863451527
 21
-2754.392781877546
 31
0.0
  0
ARC
  5
115
330
1F
100
AcDbEntity
  8
7-7_金物
  6
Continuous
 62
     7
370
     9
100
AcDbCircle
 10
2295.862863451527
 20
-2844.392781877546
 30
0.0
 40
90.0
100
AcDbArc
 50
90.0
 51
180.0
  0
LINE
  5
116
330
1F
100
AcDbEntity
  8
7-B_寸法
  6
Continuous
 62
   120
370
     5
100
AcDbLine
 10
1965.862863451527
 20
-2754.392781877546
 30
0.0
 11
2145.862863451527
 21
-2754.392781877546
 31
0.0
  0
LINE
  5
117
330
1F
100
AcDbEntity
  8
7-B_寸法
  6
Continuous
 62
   120
370
     5
100
AcDbLine
 10
1965.862863451527
 20
-2844.392781877546
 30
0.0
 11
2145.862863451527
 21
-2844.392781877546
 31
0.0
  0
LWPOLYLINE
  5
118
330
1F
100
AcDbEntity
  8
7-B_寸法
  6
Continuous
 62
     7
370
     9
100
AcDbPolyline
 90
        4
 70
     1
 43
3.0
 10
1967.362863451527
 20
-2754.392781877546
 42
0.4142135623731
 10
1965.862863451527
 20
-2752.892781877546
 42
0.4142135623731
 10
1964.362863451527
 20
-2754.392781877546
 42
0.4142135623731
 10
1965.862863451527
 20
-2755.892781877546
 42
0.4142135623731
  0
LWPOLYLINE
  5
119
330
1F
100
AcDbEntity
  8
7-B_寸法
  6
Continuous
 62
     7
370
     9
100
AcDbPolyline
 90
        4
 70
     1
 43
3.0
 10
1967.362863451527
 20
-2844.392781877546
 42
0.4142135623731
 10
1965.862863451527
 20
-2842.892781877546
 42
0.4142135623731
 10
1964.362863451527
 20
-2844.392781877546
 42
0.4142135623731
 10
1965.862863451527
 20
-2845.892781877546
 42
0.4142135623731
  0
LINE
  5
11A
330
1F
100
AcDbEntity
  8
7-B_寸法
  6
Continuous
 62
   120
370
     5
100
AcDbLine
 10
1965.862863451527
 20
-2844.392781877546
 30
0.0
 11
1965.862863451527
 21
-2754.392781877546
 31
0.0
  0
LINE
  5
11B
330
1F
100
AcDbEntity
  8
7-B_寸法
  6
Continuous
 62
   120
370
     5
100
AcDbLine
 10
3285.86286345152
 20
-2544.392781877546
 30
0.0
 11
3285.86286345152
 21
-2694.392781877546
 31
0.0
  0
LINE
  5
11C
330
1F
100
AcDbEntity
  8
7-B_寸法
  6
Continuous
 62
   120
370
     5
100
AcDbLine
 10
2205.862863451527
 20
-2544.392781877546
 30
0.0
 11
2205.862863451527
 21
-2694.392781877546
 31
0.0
  0
LWPOLYLINE
  5
11D
330
1F
100
AcDbEntity
  8
7-B_寸法
  6
Continuous
 62
     7
370
     9
100
AcDbPolyline
 90
        4
 70
     1
 43
3.0
 10
3287.36286345152
 20
-2544.392781877546
 42
0.4142135623731
 10
3285.86286345152
 20
-2542.892781877546
 42
0.4142135623731
 10
3284.362863451521
 20
-2544.392781877546
 42
0.4142135623731
 10
3285.86286345152
 20
-2545.892781877546
 42
0.4142135623731
  0
LWPOLYLINE
  5
11E
330
1F
100
AcDbEntity
  8
7-B_寸法
  6
Continuous
 62
     7
370
     9
100
AcDbPolyline
 90
        4
 70
     1
 43
3.0
 10
2207.362863451527
 20
-2544.392781877546
 42
0.4142135623731
 10
2205.862863451527
 20
-2542.892781877546
 42
0.4142135623731
 10
2204.362863451528
 20
-2544.392781877546
 42
0.4142135623731
 10
2205.862863451527
 20
-2545.892781877546
 42
0.4142135623731
  0
LINE
  5
11F
330
1F
100
AcDbEntity
  8
7-B_寸法
  6
Continuous
 62
   120
370
     5
100
AcDbLine
 10
2205.862863451527
 20
-2544.392781877546
 30
0.0
 11
3285.86286345152
 21
-2544.392781877546
 31
0.0
  0
LINE
  5
120
330
1F
100
AcDbEntity
  8
7-1_通り芯
  6
JWW_CENTER1
 62
   120
370
     5
100
AcDbLine
 10
3015.862863451548
 20
-2864.187929934024
 30
0.0
 11
3015.862863451548
 21
-2681.002302957325
 31
0.0
  0
LINE
  5
121
330
1F
100
AcDbEntity
  8
7-1_通り芯
  6
JWW_CENTER1
 62
   120
370
     5
100
AcDbLine
 10
2475.862863451548
 20
-2864.187929934024
 30
0.0
 11
2475.862863451548
 21
-2681.002302957325
 31
0.0
  0
LINE
  5
122
330
1F
100
AcDbEntity
  8
0-A_文字
  6
Continuous
 62
    92
370
    13
100
AcDbLine
 10
1719.918171683584
 20
-3159.000197951858
 30
0.0
 11
1719.918171683584
 21
-290.9999919582054
 31
0.0
  0
LINE
  5
123
330
1F
100
AcDbEntity
  8
0-A_文字
  6
Continuous
 62
    92
370
    13
100
AcDbLine
 10
3519.918171683584
 20
-3159.000197951857
 30
0.0
 11
3519.918171683584
 21
-290.9999919582054
 31
0.0
  0
LINE
  5
124
330
1F
100
AcDbEntity
  8
0-A_文字
  6
Continuous
 62
    92
370
    13
100
AcDbLine
 10
3519.918171683584
 20
-3159.000197951858
 30
0.0
 11
1719.918171683584
 21
-3159.000197951858
 31
0.0
  0
LINE
  5
125
330
1F
100
AcDbEntity
  8
0-A_文字
  6
Continuous
 62
    92
370
    13
100
AcDbLine
 10
219.9181716835818
 20
-290.9999919582054
 30
0.0
 11
3519.918171683584
 21
-290.9999919582054
 31
0.0
  0
LINE
  5
126
330
1F
100
AcDbEntity
  8
0-A_文字
  6
Continuous
 62
    92
370
    13
100
AcDbLine
 10
219.9181716835835
 20
-2010.041548837792
 30
0.0
 11
3519.91817168358
 21
-2010.041548837792
 31
0.0
  0
LINE
  5
127
330
1F
100
AcDbEntity
  8
0-A_文字
  6
Continuous
 62
    92
370
    13
100
AcDbLine
 10
3519.91817168358
 20
-470.9999919582054
 30
0.0
 11
219.9181716835818
 21
-470.9999919582054
 31
0.0
  0
LINE
  5
128
330
1F
100
AcDbEntity
  8
0-4_枠
  6
Continuous
 62
    92
370
    13
100
AcDbLine
 10
2814.771030233653
 20
-1830.041548837794
 30
0.0
 11
2814.771030233653
 21
-770.9999919582054
 31
0.0
  0
LINE
  5
129
330
1F
100
AcDbEntity
  8
0-4_枠
  6
Continuous
 62
    92
370
    13
100
AcDbLine
 10
2598.771030233653
 20
-1830.041548837794
 30
0.0
 11
2598.771030233653
 21
-770.9999919582054
 31
0.0
  0
LINE
  5
12A
330
1F
100
AcDbEntity
  8
0-1_通り芯
  6
JWW_CENTER1
 62
   120
370
     5
100
AcDbLine
 10
2505.771030233653
 20
-710.9999919582054
 30
0.0
 11
2505.771030233653
 21
-1890.041548837794
 31
0.0
  0
MTEXT
  5
12B
330
1F
100
AcDbEntity
  8
0-A_文字
  6
Continuous
 62
     7
370
     9
100
AcDbMText
 10
1839.918171683584
 20
-455.2799919582055
 30
0.0
 40
91.43999999999997
 41
1560.0
 46
0.0
 71
     7
 72
     1
  1
{\fＭＳ ゴシック|b0|i0|c128|p49;床直付けレール取付位置目安}
 73
     1
 44
1.0
  0
MTEXT
  5
12C
330
1F
100
AcDbEntity
  8
0-A_文字
  6
Continuous
 62
     7
370
     0
100
AcDbMText
 10
2199.91817168359
 20
-698.8284640340776
 30
0.0
 40
91.44000000000018
 41
840.0000000000017
 46
0.0
 71
     7
 72
     1
  1
{\fＭＳ ゴシック|b0|i0|c128|p49;壁(枠)センター}
 73
     1
 44
1.0
  0
MTEXT
  5
12D
330
1F
100
AcDbEntity
  8
0-A_文字
  6
Continuous
 62
     7
370
     9
100
AcDbMText
 10
2897.665313521298
 20
-955.2899760928186
 30
0.0
 40
91.44
 41
600.0
 46
0.0
 71
     7
 72
     1
  1
{\fＭＳ ゴシック|b0|i0|c128|p49;（ドア側）}
 73
     1
 44
1.0
  0
MTEXT
  5
12E
330
1F
100
AcDbEntity
  8
0-A_文字
  6
Continuous
 62
     7
370
     0
100
AcDbMText
 10
2072.418171683586
 20
-1544.609081773918
 30
0.0
 40
91.44
 41
120.0
 46
0.0
 71
     7
 72
     1
  1
{\fＭＳ ゴシック|b0|i0|c128|p49;床}
 73
     1
 44
1.0
  0
MTEXT
  5
12F
330
1F
100
AcDbEntity
  8
0-A_文字
  6
Continuous
 62
     7
370
     0
100
AcDbMText
 10
3047.418171683587
 20
-1544.609081773918
 30
0.0
 40
91.44
 41
120.0
 46
0.0
 71
     7
 72
     1
  1
{\fＭＳ ゴシック|b0|i0|c128|p49;床}
 73
     1
 44
1.0
  0
MTEXT
  5
130
330
1F
100
AcDbEntity
  8
0-A_文字
  6
Continuous
 62
     7
370
     0
100
AcDbMText
 10
2115.86286345152
 20
-2174.32154883779
 30
0.0
 40
91.43999999999997
 41
1080.0
 46
0.0
 71
     7
 72
     1
  1
{\fＭＳ ゴシック|b0|i0|c128|p49;下枠詳細図 (S=1/1)}
 73
     1
 44
1.0
  0
MTEXT
  5
131
330
1F
100
AcDbEntity
  8
0-B_寸法
  6
Continuous
 62
     7
370
   211
100
AcDbMText
 10
2319.236464369989
 20
-1130.635192697331
 30
0.0
 40
100.0125
 41
262.5
 46
0.0
 71
     7
 72
     1
  1
{\fＭＳ ゴシック|b0|i0|c128|p49;15.5}
 73
     1
 44
1.0
  0
MTEXT
  5
132
330
1F
100
AcDbEntity
  8
0-B_寸法
  6
Continuous
 62
     7
370
   211
100
AcDbMText
 10
2643.021030233653
 20
-1331.872254073249
 30
0.0
 40
97.15499999999999
 41
127.5
 46
0.0
 71
     7
 72
     1
  1
{\fＭＳ ゴシック|b0|i0|c128|p49;36}
 73
     1
 44
1.0
  0
LINE
  5
133
330
1F
100
AcDbEntity
  8
0-3_仕上げ
  6
Continuous
 62
   120
370
     5
100
AcDbLine
 10
1959.918171683587
 20
-970.8083033341227
 30
0.0
 11
2598.771030233653
 21
-970.8083033341227
 31
0.0
  0
LINE
  5
134
330
1F
100
AcDbEntity
  8
0-3_仕上げ
  6
Continuous
 62
   120
370
     5
100
AcDbLine
 10
1959.918171683587
 20
-1170.616614710041
 30
0.0
 11
2598.771030233653
 21
-1170.616614710041
 31
0.0
  0
LINE
  5
135
330
1F
100
AcDbEntity
  8
0-3_仕上げ
  6
Continuous
 62
   120
370
     5
100
AcDbLine
 10
1959.918171683587
 20
-1370.42492608596
 30
0.0
 11
2598.771030233653
 21
-1370.42492608596
 31
0.0
  0
LINE
  5
136
330
1F
100
AcDbEntity
  8
0-3_仕上げ
  6
Continuous
 62
   120
370
     5
100
AcDbLine
 10
1959.918171683587
 20
-1570.233237461877
 30
0.0
 11
2598.771030233653
 21
-1570.233237461877
 31
0.0
  0
LINE
  5
137
330
1F
100
AcDbEntity
  8
0-3_仕上げ
  6
Continuous
 62
   120
370
     5
100
AcDbLine
 10
1959.918171683587
 20
-1770.041548837794
 30
0.0
 11
2598.771030233653
 21
-1770.041548837794
 31
0.0
  0
LINE
  5
138
330
1F
100
AcDbEntity
  8
0-3_仕上げ
  6
Continuous
 62
   120
370
     5
100
AcDbLine
 10
2814.771030233653
 20
-970.8083033341227
 30
0.0
 11
3279.918171683587
 21
-970.8083033341227
 31
0.0
  0
LINE
  5
139
330
1F
100
AcDbEntity
  8
0-3_仕上げ
  6
Continuous
 62
   120
370
     5
100
AcDbLine
 10
2814.771030233653
 20
-1170.616614710041
 30
0.0
 11
3279.918171683587
 21
-1170.616614710041
 31
0.0
  0
LINE
  5
13A
330
1F
100
AcDbEntity
  8
0-3_仕上げ
  6
Continuous
 62
   120
370
     5
100
AcDbLine
 10
2814.771030233653
 20
-1370.42492608596
 30
0.0
 11
3279.918171683587
 21
-1370.42492608596
 31
0.0
  0
LINE
  5
13B
330
1F
100
AcDbEntity
  8
0-3_仕上げ
  6
Continuous
 62
   120
370
     5
100
AcDbLine
 10
2814.771030233653
 20
-1570.233237461877
 30
0.0
 11
3279.918171683587
 21
-1570.233237461877
 31
0.0
  0
LINE
  5
13C
330
1F
100
AcDbEntity
  8
0-3_仕上げ
  6
Continuous
 62
   120
370
     5
100
AcDbLine
 10
2814.771030233653
 20
-1770.041548837794
 30
0.0
 11
3279.918171683587
 21
-1770.041548837794
 31
0.0
  0
MTEXT
  5
13D
330
1F
100
AcDbEntity
  8
7-B_寸法
  6
Continuous
 62
     7
370
   211
100
AcDbMText
 10
2682.112863451524
 20
-2540.815281877546
 30
0.0
 40
97.15499999999999
 41
127.5
 46
0.0
 71
     7
 72
     1
  1
{\fＭＳ ゴシック|b0|i0|c128|p49;36}
 73
     1
 44
1.0
  0
MTEXT
  5
13E
330
1F
100
AcDbEntity
  8
7-B_寸法
  6
Continuous
 62
     7
370
   211
100
AcDbMText
 10
1950.862863451527
 20
-2843.672781877546
 30
0.0
 40
91.44
 41
60.0
 46
0.0
 71
     7
 72
     1
  1
{\fＭＳ ゴシック|b0|i0|c128|p49;3}
 11
6.123031769111886E-17
 21
1.0
 31
0.0
 73
     1
 44
1.0
  0
MTEXT
  5
13F
330
1F
100
AcDbEntity
  8
0-A_文字
  6
Continuous
 62
     7
370
     9
100
AcDbMText
 10
549.9181716835835
 20
-455.2799919582054
 30
0.0
 40
91.44
 41
840.0
 46
0.0
 71
     7
 72
     1
  1
{\fＭＳ ゴシック|b0|i0|c128|p49;竪枠下端形状図}
 73
     1
 44
1.0
  0
LINE
  5
140
330
1F
100
AcDbEntity
  8
0-A_文字
  6
Continuous
 62
    92
370
    13
100
AcDbLine
 10
-5659.999495325861
 20
3730.000181455871
 30
0.0
 11
-5659.999495325861
 21
4000.000181455871
 31
0.0
  0
MTEXT
  5
141
330
1F
100
AcDbEntity
  8
0-A_文字
  6
Continuous
 62
     7
370
     0
100
AcDbMText
 10
-2897.081828316421
 20
1875.637146960945
 30
0.0
 40
91.44
 41
720.0
 46
0.0
 71
     7
 72
     1
  1
{\fＭＳ ゴシック|b0|i0|c128|p49;（子ドア側）}
 73
     1
 44
1.0
  0
MTEXT
  5
142
330
1F
100
AcDbEntity
  8
0-A_文字
  6
Continuous
 62
     7
370
     0
100
AcDbMText
 10
2208.918171683586
 20
1875.637146960945
 30
0.0
 40
91.44
 41
720.0
 46
0.0
 71
     7
 72
     1
  1
{\fＭＳ ゴシック|b0|i0|c128|p49;（親ドア側）}
 73
     1
 44
1.0
  0
LINE
  5
143
330
1F
100
AcDbEntity
  8
0-0_補助線
  6
JWW_HOJO
 62
   120
370
     5
100
AcDbLine
 10
693.8073537416318
 20
2813.917146960958
 30
0.0
 11
693.8073537416318
 21
1913.917146960958
 31
0.0
  0
LINE
  5
144
330
1F
100
AcDbEntity
  8
0-0_補助線
  6
JWW_HOJO
 62
   120
370
     5
100
AcDbLine
 10
813.8073537416318
 20
2813.917146960958
 30
0.0
 11
813.8073537416318
 21
1913.917146960958
 31
0.0
  0
CIRCLE
  5
145
330
1F
100
AcDbEntity
  8
0-0_補助線
  6
Continuous
 62
     7
370
     9
100
AcDbCircle
 10
2033.165484015374
 20
2052.946584212463
 30
0.0
 40
21.00000000000001
  0
CIRCLE
  5
146
330
1F
100
AcDbEntity
  8
0-0_補助線
  6
Continuous
 62
     7
370
     9
100
AcDbCircle
 10
2033.165484015374
 20
2052.946584212463
 30
0.0
 40
30.0
  0
LWPOLYLINE
  5
147
330
1F
100
AcDbEntity
  8
0-B_寸法
  6
Continuous
 62
     7
370
     9
100
AcDbPolyline
 90
        4
 70
     1
 43
3.0
 10
-2187.581828316419
 20
989.9171469609437
 42
0.4142135623731
 10
-2189.081828316419
 20
991.4171469609436
 42
0.4142135623731
 10
-2190.581828316419
 20
989.9171469609437
 42
0.4142135623731
 10
-2189.081828316419
 20
988.4171469609438
 42
0.4142135623731
  0
LWPOLYLINE
  5
148
330
1F
100
AcDbEntity
  8
0-B_寸法
  6
Continuous
 62
     7
370
     9
100
AcDbPolyline
 90
        4
 70
     1
 43
3.0
 10
-2187.581828316419
 20
1169.917146960943
 42
0.4142135623731
 10
-2189.081828316419
 20
1171.417146960943
 42
0.4142135623731
 10
-2190.581828316419
 20
1169.917146960943
 42
0.4142135623731
 10
-2189.081828316419
 20
1168.417146960943
 42
0.4142135623731
  0
LWPOLYLINE
  5
149
330
1F
100
AcDbEntity
  8
0-B_寸法
  6
Continuous
 62
     7
370
     9
100
AcDbPolyline
 90
        4
 70
     1
 43
3.0
 10
-2043.581828316416
 20
1169.917146960943
 42
0.4142135623731
 10
-2045.081828316416
 20
1171.417146960943
 42
0.4142135623731
 10
-2046.581828316416
 20
1169.917146960943
 42
0.4142135623731
 10
-2045.081828316416
 20
1168.417146960943
 42
0.4142135623731
  0
LWPOLYLINE
  5
14A
330
1F
100
AcDbEntity
  8
0-B_寸法
  6
Continuous
 62
     7
370
     9
100
AcDbPolyline
 90
        4
 70
     1
 43
3.0
 10
-2043.581828316416
 20
1349.917146960944
 42
0.4142135623731
 10
-2045.081828316416
 20
1351.417146960944
 42
0.4142135623731
 10
-2046.581828316416
 20
1349.917146960944
 42
0.4142135623731
 10
-2045.081828316416
 20
1348.417146960944
 42
0.4142135623731
  0
LWPOLYLINE
  5
14B
330
1F
100
AcDbEntity
  8
0-B_寸法
  6
Continuous
 62
     7
370
     9
100
AcDbPolyline
 90
        4
 70
     1
 43
3.0
 10
-2031.581828316417
 20
1349.917146960944
 42
0.4142135623731
 10
-2033.081828316417
 20
1351.417146960944
 42
0.4142135623731
 10
-2034.581828316417
 20
1349.917146960944
 42
0.4142135623731
 10
-2033.081828316417
 20
1348.417146960944
 42
0.4142135623731
  0
LWPOLYLINE
  5
14C
330
1F
100
AcDbEntity
  8
0-B_寸法
  6
Continuous
 62
     7
370
     9
100
AcDbPolyline
 90
        4
 70
     1
 43
3.0
 10
-543.8034642003206
 20
1349.917146960944
 42
0.4142135623731
 10
-545.3034642003206
 20
1351.417146960944
 42
0.4142135623731
 10
-546.8034642003206
 20
1349.917146960944
 42
0.4142135623731
 10
-545.3034642003206
 20
1348.417146960944
 42
0.4142135623731
  0
LWPOLYLINE
  5
14D
330
1F
100
AcDbEntity
  8
0-B_寸法
  6
Continuous
 62
     7
370
     9
100
AcDbPolyline
 90
        4
 70
     1
 43
3.0
 10
-567.8034642003192
 20
1349.917146960944
 42
0.4142135623731
 10
-569.3034642003192
 20
1351.417146960944
 42
0.4142135623731
 10
-570.8034642003192
 20
1349.917146960944
 42
0.4142135623731
 10
-569.3034642003192
 20
1348.417146960944
 42
0.4142135623731
  0
MTEXT
  5
14E
330
1F
100
AcDbEntity
  8
0-B_寸法
  6
Continuous
 62
     7
370
     0
100
AcDbMText
 10
-2181.694336289964
 20
3139.081281332194
 30
0.0
 40
97.15499999999999
 41
127.5
 46
0.0
 71
     7
 72
     1
  1
{\fＭＳ ゴシック|b0|i0|c128|p49;24}
 73
     1
 44
1.0
  0
MTEXT
  5
14F
330
1F
100
AcDbEntity
  8
0-B_寸法
  6
Continuous
 62
     7
370
     0
100
AcDbMText
 10
-2161.378339004929
 20
2994.881051590142
 30
0.0
 40
91.44
 41
60.0
 46
0.0
 71
     7
 72
     1
  1
{\fＭＳ ゴシック|b0|i0|c128|p49;9}
 73
     1
 44
1.0
  0
MTEXT
  5
150
330
1F
100
AcDbEntity
  8
0-B_寸法
  6
Continuous
 62
     7
370
     0
100
AcDbMText
 10
-2053.177726296589
 20
2996.555629817573
 30
0.0
 40
97.15499999999999
 41
127.5
 46
0.0
 71
     7
 72
     1
  1
{\fＭＳ ゴシック|b0|i0|c128|p49;10}
 73
     1
 44
1.0
  0
LINE
  5
151
330
1F
100
AcDbEntity
  8
0-B_寸法
  6
Continuous
 62
   120
370
     5
100
AcDbLine
 10
2208.918171683585
 20
989.9171469609437
 30
0.0
 11
-2189.081828316419
 21
989.9171469609437
 31
0.0
  0
LINE
  5
152
330
1F
100
AcDbEntity
  8
0-B_寸法
  6
Continuous
 62
   120
370
     5
100
AcDbLine
 10
2208.918171683585
 20
1169.917146960943
 30
0.0
 11
-2189.081828316419
 21
1169.917146960943
 31
0.0
  0
LINE
  5
153
330
1F
100
AcDbEntity
  8
0-B_寸法
  6
Continuous
 62
   120
370
     5
100
AcDbLine
 10
2064.918171683585
 20
1349.917146960944
 30
0.0
 11
-2045.081828316416
 21
1349.917146960944
 31
0.0
  0
LWPOLYLINE
  5
154
330
1F
100
AcDbEntity
  8
0-B_寸法
  6
Continuous
 62
     7
370
     9
100
AcDbPolyline
 90
        4
 70
     1
 43
3.0
 10
2210.418171683585
 20
989.9171469609437
 42
0.4142135623731
 10
2208.918171683585
 20
991.4171469609436
 42
0.4142135623731
 10
2207.418171683585
 20
989.9171469609437
 42
0.4142135623731
 10
2208.918171683585
 20
988.4171469609438
 42
0.4142135623731
  0
LWPOLYLINE
  5
155
330
1F
100
AcDbEntity
  8
0-B_寸法
  6
Continuous
 62
     7
370
     9
100
AcDbPolyline
 90
        4
 70
     1
 43
3.0
 10
2066.418171683585
 20
1169.917146960943
 42
0.4142135623731
 10
2064.918171683585
 20
1171.417146960943
 42
0.4142135623731
 10
2063.418171683585
 20
1169.917146960943
 42
0.4142135623731
 10
2064.918171683585
 20
1168.417146960943
 42
0.4142135623731
  0
LWPOLYLINE
  5
156
330
1F
100
AcDbEntity
  8
0-B_寸法
  6
Continuous
 62
     7
370
     9
100
AcDbPolyline
 90
        4
 70
     1
 43
3.0
 10
2210.418171683585
 20
1169.917146960943
 42
0.4142135623731
 10
2208.918171683585
 20
1171.417146960943
 42
0.4142135623731
 10
2207.418171683585
 20
1169.917146960943
 42
0.4142135623731
 10
2208.918171683585
 20
1168.417146960943
 42
0.4142135623731
  0
LWPOLYLINE
  5
157
330
1F
100
AcDbEntity
  8
0-B_寸法
  6
Continuous
 62
     7
370
     9
100
AcDbPolyline
 90
        4
 70
     1
 43
3.0
 10
2054.418171683586
 20
1349.917146960944
 42
0.4142135623731
 10
2052.918171683586
 20
1351.417146960944
 42
0.4142135623731
 10
2051.418171683586
 20
1349.917146960944
 42
0.4142135623731
 10
2052.918171683586
 20
1348.417146960944
 42
0.4142135623731
  0
LWPOLYLINE
  5
158
330
1F
100
AcDbEntity
  8
0-B_寸法
  6
Continuous
 62
     7
370
     9
100
AcDbPolyline
 90
        4
 70
     1
 43
3.0
 10
2066.418171683585
 20
1349.917146960944
 42
0.4142135623731
 10
2064.918171683585
 20
1351.417146960944
 42
0.4142135623731
 10
2063.418171683585
 20
1349.917146960944
 42
0.4142135623731
 10
2064.918171683585
 20
1348.417146960944
 42
0.4142135623731
  0
MTEXT
  5
159
330
1F
100
AcDbEntity
  8
0-B_寸法
  6
Continuous
 62
     7
370
     0
100
AcDbMText
 10
-2250.097471947644
 20
2992.515208045003
 30
0.0
 40
91.44
 41
60.0
 46
0.0
 71
     7
 72
     1
  1
{\fＭＳ ゴシック|b0|i0|c128|p49;5}
 73
     1
 44
1.0
  0
MTEXT
  5
15A
330
1F
100
AcDbEntity
  8
0-B_寸法
  6
Continuous
 62
     7
370
     0
100
AcDbMText
 10
-1740.929075243996
 20
2344.667076243678
 30
0.0
 40
99.06
 41
195.0
 46
0.0
 71
     7
 72
     1
  1
{\fＭＳ ゴシック|b0|i0|c128|p49;113}
 11
6.123031769111886E-17
 21
1.0
 31
0.0
 73
     1
 44
1.0
  0
MTEXT
  5
15B
330
1F
100
AcDbEntity
  8
0-B_寸法
  6
Continuous
 62
     7
370
   211
100
AcDbMText
 10
-557.0818283164158
 20
1530.637146960939
 30
0.0
 40
91.43999999999998
 41
1140.0
 46
0.0
 71
     7
 72
     1
  1
{\fＭＳ ゴシック|b0|i0|c128|p49;有効開口寸法＝1,021}
 73
     1
 44
1.0
  0
MTEXT
  5
15C
330
1F
100
AcDbEntity
  8
0-B_寸法
  6
Continuous
 62
     7
370
   211
100
AcDbMText
 10
-2113.016251847182
 20
1350.637146960945
 30
0.0
 40
91.44
 41
60.0
 46
0.0
 71
     7
 72
     1
  1
{\fＭＳ ゴシック|b0|i0|c128|p49;2}
 73
     1
 44
1.0
  0
LINE
  5
15D
330
1F
100
AcDbEntity
  8
0-B_寸法
  6
Continuous
 62
   120
370
     5
100
AcDbLine
 10
-2033.081828316417
 20
1349.917146960944
 30
0.0
 11
-2033.081828316417
 21
1889.917146960945
 31
0.0
  0
LINE
  5
15E
330
1F
100
AcDbEntity
  8
0-B_寸法
  6
Continuous
 62
   120
370
     5
100
AcDbLine
 10
-2045.081828316416
 20
1169.917146960943
 30
0.0
 11
-2045.081828316416
 21
1889.917146960945
 31
0.0
  0
LINE
  5
15F
330
1F
100
AcDbEntity
  8
0-B_寸法
  6
Continuous
 62
   120
370
     5
100
AcDbLine
 10
-2189.081828316419
 20
989.9171469609437
 30
0.0
 11
-2189.081828316419
 21
1889.917146960945
 31
0.0
  0
LINE
  5
160
330
1F
100
AcDbEntity
  8
0-B_寸法
  6
Continuous
 62
   120
370
     5
100
AcDbLine
 10
2052.918171683586
 20
1349.917146960944
 30
0.0
 11
2052.918171683586
 21
1889.917146960945
 31
0.0
  0
LINE
  5
161
330
1F
100
AcDbEntity
  8
0-B_寸法
  6
Continuous
 62
   120
370
     5
100
AcDbLine
 10
2064.918171683585
 20
1169.917146960943
 30
0.0
 11
2064.918171683585
 21
1889.917146960945
 31
0.0
  0
LINE
  5
162
330
1F
100
AcDbEntity
  8
0-B_寸法
  6
Continuous
 62
   120
370
     5
100
AcDbLine
 10
2208.918171683585
 20
989.9171469609437
 30
0.0
 11
2208.918171683585
 21
1889.917146960945
 31
0.0
  0
LINE
  5
163
330
1F
100
AcDbEntity
  8
0-B_寸法
  6
Continuous
 62
   120
370
     5
100
AcDbLine
 10
-545.3034642003206
 20
1349.917146960944
 30
0.0
 11
-545.3034642003206
 21
1529.917146960944
 31
0.0
  0
LINE
  5
164
330
1F
100
AcDbEntity
  8
0-B_寸法
  6
Continuous
 62
   120
370
     5
100
AcDbLine
 10
-569.3034642003192
 20
1349.917146960944
 30
0.0
 11
-569.3034642003192
 21
1529.917146960944
 31
0.0
  0
MTEXT
  5
165
330
1F
100
AcDbEntity
  8
0-B_寸法
  6
Continuous
 62
     7
370
   211
100
AcDbMText
 10
-1571.192646258368
 20
1350.637146960945
 30
0.0
 40
91.43999999999998
 41
540.0
 46
0.0
 71
     7
 72
     1
  1
{\fＭＳ ゴシック|b0|i0|c128|p49;ＤＷ＝410}
 73
     1
 44
1.0
  0
LWPOLYLINE
  5
166
330
1F
100
AcDbEntity
  8
0-B_寸法
  6
Continuous
 62
     7
370
     9
100
AcDbPolyline
 90
        4
 70
     1
 43
3.0
 10
-1677.612904286316
 20
1529.917146960944
 42
0.4142135623731
 10
-1679.112904286316
 20
1531.417146960944
 42
0.4142135623731
 10
-1680.612904286316
 20
1529.917146960944
 42
0.4142135623731
 10
-1679.112904286316
 20
1528.417146960944
 42
0.4142135623731
  0
LINE
  5
167
330
1F
100
AcDbEntity
  8
0-B_寸法
  6
Continuous
 62
   120
370
     5
100
AcDbLine
 10
-1679.112904286316
 20
1529.917146960944
 30
0.0
 11
-1679.112904286316
 21
1889.917146960945
 31
0.0
  0
LWPOLYLINE
  5
168
330
1F
100
AcDbEntity
  8
0-B_寸法
  6
Continuous
 62
     7
370
     9
100
AcDbPolyline
 90
        4
 70
     1
 43
3.0
 10
1706.449247653484
 20
1529.917146960944
 42
0.4142135623731
 10
1704.949247653485
 20
1531.417146960944
 42
0.4142135623731
 10
1703.449247653485
 20
1529.917146960944
 42
0.4142135623731
 10
1704.949247653485
 20
1528.417146960944
 42
0.4142135623731
  0
LINE
  5
169
330
1F
100
AcDbEntity
  8
0-B_寸法
  6
Continuous
 62
   120
370
     5
100
AcDbLine
 10
1704.949247653485
 20
1529.917146960944
 30
0.0
 11
1704.949247653485
 21
1889.917146960945
 31
0.0
  0
LINE
  5
16A
330
1F
100
AcDbEntity
  8
0-B_寸法
  6
Continuous
 62
   120
370
     5
100
AcDbLine
 10
-1679.112904286316
 20
1529.917146960944
 30
0.0
 11
1704.949247653485
 21
1529.917146960944
 31
0.0
  0
LINE
  5
16B
330
1F
100
AcDbEntity
  8
0-6_扉
  6
JWW_DASHED2
 62
   200
370
    20
100
AcDbLine
 10
1704.949247653485
 20
2014.258956854574
 30
0.0
 11
1920.949247653484
 21
2014.258956854574
 31
0.0
  0
LINE
  5
16C
330
1F
100
AcDbEntity
  8
0-6_扉
  6
JWW_DASHED2
 62
   200
370
    20
100
AcDbLine
 10
1920.949247653484
 20
2014.258956854574
 30
0.0
 11
1920.949247653484
 21
1889.917146960945
 31
0.0
  0
LINE
  5
16D
330
1F
100
AcDbEntity
  8
0-6_扉
  6
JWW_DASHED2
 62
   200
370
    20
100
AcDbLine
 10
1704.949247653485
 20
2014.258956854574
 30
0.0
 11
1704.949247653485
 21
1889.917146960945
 31
0.0
  0
LINE
  5
16E
330
1F
100
AcDbEntity
  8
0-6_扉
  6
JWW_DASHED2
 62
   200
370
    20
100
AcDbLine
 10
-1679.112904286316
 20
2014.258956854574
 30
0.0
 11
-1895.112904286316
 21
2014.258956854574
 31
0.0
  0
LINE
  5
16F
330
1F
100
AcDbEntity
  8
0-6_扉
  6
JWW_DASHED2
 62
   200
370
    20
100
AcDbLine
 10
-1895.112904286316
 20
2014.258956854574
 30
0.0
 11
-1895.112904286316
 21
1889.917146960945
 31
0.0
  0
LINE
  5
170
330
1F
100
AcDbEntity
  8
0-6_扉
  6
JWW_DASHED2
 62
   200
370
    20
100
AcDbLine
 10
-1679.112904286316
 20
2014.258956854574
 30
0.0
 11
-1679.112904286316
 21
1889.917146960945
 31
0.0
  0
MTEXT
  5
171
330
1F
100
AcDbEntity
  8
0-B_寸法
  6
Continuous
 62
     7
370
   211
100
AcDbMText
 10
-531.900577882426
 20
1350.637146960945
 30
0.0
 40
91.44
 41
60.0
 46
0.0
 71
     7
 72
     1
  1
{\fＭＳ ゴシック|b0|i0|c128|p49;4}
 73
     1
 44
1.0
  0
LINE
  5
172
330
1F
100
AcDbEntity
  8
0-B_寸法
  6
Continuous
 62
   120
370
     5
100
AcDbLine
 10
2208.918171683584
 20
989.9171469609437
 30
0.0
 11
2238.773889523008
 21
989.9171469609437
 31
0.0
  0
LWPOLYLINE
  5
173
330
1F
100
AcDbEntity
  8
0-B_寸法
  6
Continuous
 62
     7
370
     9
100
AcDbPolyline
 90
        4
 70
     1
 43
3.0
 10
2210.418171683584
 20
989.9171469609437
 42
0.4142135623731
 10
2208.918171683584
 20
991.4171469609436
 42
0.4142135623731
 10
2207.418171683584
 20
989.9171469609437
 42
0.4142135623731
 10
2208.918171683584
 20
988.4171469609438
 42
0.4142135623731
  0
LWPOLYLINE
  5
174
330
1F
100
AcDbEntity
  8
0-B_寸法
  6
Continuous
 62
     7
370
     9
100
AcDbPolyline
 90
        4
 70
     1
 43
3.0
 10
2240.273889523007
 20
989.9171469609437
 42
0.4142135623731
 10
2238.773889523008
 20
991.4171469609436
 42
0.4142135623731
 10
2237.273889523008
 20
989.9171469609437
 42
0.4142135623731
 10
2238.773889523008
 20
988.4171469609438
 42
0.4142135623731
  0
LINE
  5
175
330
1F
100
AcDbEntity
  8
0-B_寸法
  6
Continuous
 62
   120
370
     5
100
AcDbLine
 10
2208.918171683584
 20
989.9171469609437
 30
0.0
 11
2208.918171683584
 21
1889.917146960945
 31
0.0
  0
LINE
  5
176
330
1F
100
AcDbEntity
  8
0-B_寸法
  6
Continuous
 62
   120
370
     5
100
AcDbLine
 10
2238.773889523008
 20
989.9171469609437
 30
0.0
 11
2238.773889523008
 21
1889.917146960945
 31
0.0
  0
MTEXT
  5
177
330
1F
100
AcDbEntity
  8
0-B_寸法
  6
Continuous
 62
     7
370
   211
100
AcDbMText
 10
483.8073537416318
 20
1350.637146960945
 30
0.0
 40
91.43999999999998
 41
540.0
 46
0.0
 71
     7
 72
     1
  1
{\fＭＳ ゴシック|b0|i0|c128|p49;ＤＷ＝723}
 73
     1
 44
1.0
  0
CIRCLE
  5
178
330
1F
100
AcDbEntity
  8
0-0_補助線
  6
Continuous
 62
     7
370
     9
100
AcDbCircle
 10
-2012.299703396685
 20
2052.946584212463
 30
0.0
 40
30.0
  0
CIRCLE
  5
179
330
1F
100
AcDbEntity
  8
0-0_補助線
  6
Continuous
 62
     7
370
     9
100
AcDbCircle
 10
-2012.299703396685
 20
2052.946584212463
 30
0.0
 40
21.00000000000001
  0
MTEXT
  5
17A
330
1F
100
AcDbEntity
  8
0-B_寸法
  6
Continuous
 62
     7
370
   211
100
AcDbMText
 10
2072.230916164138
 20
1350.637146960945
 30
0.0
 40
91.44
 41
60.0
 46
0.0
 71
     7
 72
     1
  1
{\fＭＳ ゴシック|b0|i0|c128|p49;2}
 73
     1
 44
1.0
  0
LINE
  5
17B
330
1F
100
AcDbEntity
  8
0-B_寸法
  6
Continuous
 62
   120
370
     5
100
AcDbLine
 10
-2189.081828316419
 20
989.9171469609437
 30
0.0
 11
-2218.937546155844
 21
989.9171469609437
 31
0.0
  0
LWPOLYLINE
  5
17C
330
1F
100
AcDbEntity
  8
0-B_寸法
  6
Continuous
 62
     7
370
     9
100
AcDbPolyline
 90
        4
 70
     1
 43
3.0
 10
-2187.581828316419
 20
989.9171469609437
 42
0.4142135623731
 10
-2189.081828316419
 20
991.4171469609436
 42
0.4142135623731
 10
-2190.581828316419
 20
989.9171469609437
 42
0.4142135623731
 10
-2189.081828316419
 20
988.4171469609438
 42
0.4142135623731
  0
LWPOLYLINE
  5
17D
330
1F
100
AcDbEntity
  8
0-B_寸法
  6
Continuous
 62
     7
370
     9
100
AcDbPolyline
 90
        4
 70
     1
 43
3.0
 10
-2217.437546155844
 20
989.9171469609437
 42
0.4142135623731
 10
-2218.937546155844
 20
991.4171469609436
 42
0.4142135623731
 10
-2220.437546155844
 20
989.9171469609437
 42
0.4142135623731
 10
-2218.937546155844
 20
988.4171469609438
 42
0.4142135623731
  0
LINE
  5
17E
330
1F
100
AcDbEntity
  8
0-B_寸法
  6
Continuous
 62
   120
370
     5
100
AcDbLine
 10
-2189.081828316419
 20
989.9171469609437
 30
0.0
 11
-2189.081828316419
 21
1889.917146960945
 31
0.0
  0
LINE
  5
17F
330
1F
100
AcDbEntity
  8
0-B_寸法
  6
Continuous
 62
   120
370
     5
100
AcDbLine
 10
-2218.937546155844
 20
989.9171469609437
 30
0.0
 11
-2218.937546155844
 21
1889.917146960945
 31
0.0
  0
MTEXT
  5
180
330
1F
100
AcDbEntity
  8
0-B_寸法
  6
Continuous
 62
     7
370
   211
100
AcDbMText
 10
-2177.081828316418
 20
1170.637146960944
 30
0.0
 40
91.44
 41
120.0
 46
0.0
 71
     7
 72
     1
  1
{\fＭＳ ゴシック|b0|i0|c128|p49;24}
 73
     1
 44
1.0
  0
LINE
  5
181
330
1F
100
AcDbEntity
  8
0-B_寸法
  6
Continuous
 62
   120
370
     5
100
AcDbLine
 10
2238.773889523008
 20
809.9171469609437
 30
0.0
 11
-2218.937546155844
 21
809.9171469609437
 31
0.0
  0
LWPOLYLINE
  5
182
330
1F
100
AcDbEntity
  8
0-B_寸法
  6
Continuous
 62
     7
370
     9
100
AcDbPolyline
 90
        4
 70
     1
 43
3.0
 10
2240.273889523007
 20
809.9171469609437
 42
0.4142135623731
 10
2238.773889523008
 20
811.4171469609437
 42
0.4142135623731
 10
2237.273889523008
 20
809.9171469609437
 42
0.4142135623731
 10
2238.773889523008
 20
808.4171469609437
 42
0.4142135623731
  0
LWPOLYLINE
  5
183
330
1F
100
AcDbEntity
  8
0-B_寸法
  6
Continuous
 62
     7
370
     9
100
AcDbPolyline
 90
        4
 70
     1
 43
3.0
 10
-2217.437546155844
 20
809.9171469609437
 42
0.4142135623731
 10
-2218.937546155844
 20
811.4171469609437
 42
0.4142135623731
 10
-2220.437546155844
 20
809.9171469609437
 42
0.4142135623731
 10
-2218.937546155844
 20
808.4171469609437
 42
0.4142135623731
  0
LINE
  5
184
330
1F
100
AcDbEntity
  8
0-B_寸法
  6
Continuous
 62
   120
370
     5
100
AcDbLine
 10
2238.773889523008
 20
809.9171469609437
 30
0.0
 11
2238.773889523008
 21
989.9171469609437
 31
0.0
  0
LINE
  5
185
330
1F
100
AcDbEntity
  8
0-B_寸法
  6
Continuous
 62
   120
370
     5
100
AcDbLine
 10
-2218.937546155844
 20
809.9171469609437
 30
0.0
 11
-2218.937546155844
 21
989.9171469609437
 31
0.0
  0
MTEXT
  5
186
330
1F
100
AcDbEntity
  8
0-B_寸法
  6
Continuous
 62
     7
370
   211
100
AcDbMText
 10
-317.0818283164158
 20
1170.637146960944
 30
0.0
 40
91.43999999999997
 41
660.0
 46
0.0
 71
     7
 72
     1
  1
{\fＭＳ ゴシック|b0|i0|c128|p49;枠内＝1,141}
 73
     1
 44
1.0
  0
INSERT
  5
187
330
1F
100
AcDbEntity
  8
0-0_補助線
  6
Continuous
 62
     7
370
     9
100
AcDbBlockReference
  2
02@@SfigorgFlag@@4
 10
2045.731634983121
 20
2425.377716824172
 30
0.0
 41
-30.0
 42
30.0
  0
LINE
  5
188
330
1F
100
AcDbEntity
  8
0-3_仕上げ
  6
Continuous
 62
     7
370
     9
100
AcDbLine
 10
2538.918171683584
 20
2777.999683277027
 30
0.0
 11
2238.918171683584
 21
2777.999683277027
 31
0.0
  0
LINE
  5
189
330
1F
100
AcDbEntity
  8
0-3_仕上げ
  6
Continuous
 62
     7
370
     9
100
AcDbLine
 10
2538.918171683584
 20
2099.999683277028
 30
0.0
 11
2238.918171683584
 21
2099.999683277028
 31
0.0
  0
LINE
  5
18A
330
1F
100
AcDbEntity
  8
0-0_補助線
  6
Continuous
 62
   120
370
     5
100
AcDbLine
 10
2067.918171683577
 20
2773.999913044847
 30
0.0
 11
2068.917941915763
 21
2774.999683277033
 31
0.0
  0
LINE
  5
18B
330
1F
100
AcDbEntity
  8
0-0_補助線
  6
Continuous
 62
   120
370
     5
100
AcDbLine
 10
2067.918171683579
 20
2714.602943425146
 30
0.0
 11
2124.918171683582
 21
2771.60294342515
 31
0.0
  0
LINE
  5
18C
330
1F
100
AcDbEntity
  8
0-0_補助線
  6
Continuous
 62
   120
370
     5
100
AcDbLine
 10
2178.918171683597
 20
2766.205973805518
 30
0.0
 11
2190.711881155095
 21
2777.999683277016
 31
0.0
  0
LINE
  5
18D
330
1F
100
AcDbEntity
  8
0-0_補助線
  6
Continuous
 62
   120
370
     5
100
AcDbLine
 10
2067.918171683584
 20
2655.205973805504
 30
0.0
 11
2130.711881155085
 21
2717.999683277006
 31
0.0
  0
LINE
  5
18E
330
1F
100
AcDbEntity
  8
0-0_補助線
  6
Continuous
 62
   120
370
     5
100
AcDbLine
 10
2067.918171683589
 20
2595.809004185862
 30
0.0
 11
2208.918171683592
 21
2736.809004185865
 31
0.0
  0
LINE
  5
18F
330
1F
100
AcDbEntity
  8
0-0_補助線
  6
Continuous
 62
   120
370
     5
100
AcDbLine
 10
2067.918171683575
 20
2536.412034566145
 30
0.0
 11
2208.918171683577
 21
2677.412034566149
 31
0.0
  0
LINE
  5
190
330
1F
100
AcDbEntity
  8
0-0_補助線
  6
Continuous
 62
   120
370
     5
100
AcDbLine
 10
2067.918171683584
 20
2298.824156087457
 30
0.0
 11
2208.918171683581
 21
2439.824156087452
 31
0.0
  0
LINE
  5
191
330
1F
100
AcDbEntity
  8
0-0_補助線
  6
Continuous
 62
   120
370
     5
100
AcDbLine
 10
2067.918171683575
 20
2239.4271864678
 30
0.0
 11
2208.918171683577
 21
2380.427186467803
 31
0.0
  0
LINE
  5
192
330
1F
100
AcDbEntity
  8
0-0_補助線
  6
Continuous
 62
   120
370
     5
100
AcDbLine
 10
2067.918171683586
 20
2180.030216848165
 30
0.0
 11
2208.91817168357
 21
2321.030216848149
 31
0.0
  0
LINE
  5
193
330
1F
100
AcDbEntity
  8
0-0_補助線
  6
Continuous
 62
   120
370
     5
100
AcDbLine
 10
2067.918171683582
 20
2120.63324722846
 30
0.0
 11
2208.918171683581
 21
2261.633247228458
 31
0.0
  0
LINE
  5
194
330
1F
100
AcDbEntity
  8
0-0_補助線
  6
Continuous
 62
   120
370
     5
100
AcDbLine
 10
2166.681577351799
 20
2159.999683277029
 30
0.0
 11
2208.918171683574
 21
2202.236277608802
 31
0.0
  0
LINE
  5
195
330
1F
100
AcDbEntity
  8
0-0_補助線
  6
Continuous
 62
   120
370
     5
100
AcDbLine
 10
2109.68157735179
 20
2102.99968327702
 30
0.0
 11
2124.918171683591
 21
2118.23627760882
 31
0.0
  0
LINE
  5
196
330
1F
100
AcDbEntity
  8
0-0_補助線
  6
Continuous
 62
   120
370
     5
100
AcDbLine
 10
2178.918171683563
 20
2112.839307989092
 30
0.0
 11
2208.918171683572
 21
2142.839307989099
 31
0.0
  0
LINE
  5
197
330
1F
100
AcDbEntity
  8
0-0_補助線
  6
Continuous
 62
    92
370
    13
100
AcDbLine
 10
2208.918171683584
 20
2099.999683277028
 30
0.0
 11
2178.918171683584
 21
2099.999683277028
 31
0.0
  0
LINE
  5
198
330
1F
100
AcDbEntity
  8
0-0_補助線
  6
Continuous
 62
    92
370
    13
100
AcDbLine
 10
2178.918171683584
 20
2159.999683277028
 30
0.0
 11
2178.918171683584
 21
2099.999683277028
 31
0.0
  0
LINE
  5
199
330
1F
100
AcDbEntity
  8
0-0_補助線
  6
Continuous
 62
    92
370
    13
100
AcDbLine
 10
2178.918171683584
 20
2159.999683277028
 30
0.0
 11
2124.918171683585
 21
2159.999683277028
 31
0.0
  0
LINE
  5
19A
330
1F
100
AcDbEntity
  8
0-0_補助線
  6
Continuous
 62
    92
370
    13
100
AcDbLine
 10
2124.918171683585
 20
2159.999683277028
 30
0.0
 11
2124.918171683585
 21
2099.999683277028
 31
0.0
  0
LINE
  5
19B
330
1F
100
AcDbEntity
  8
0-0_補助線
  6
Continuous
 62
    92
370
    13
100
AcDbLine
 10
2208.918171683584
 20
2777.999683277027
 30
0.0
 11
2178.918171683584
 21
2777.999683277027
 31
0.0
  0
LINE
  5
19C
330
1F
100
AcDbEntity
  8
0-0_補助線
  6
Continuous
 62
    92
370
    13
100
AcDbLine
 10
2178.918171683584
 20
2717.999683277027
 30
0.0
 11
2178.918171683584
 21
2777.999683277027
 31
0.0
  0
LINE
  5
19D
330
1F
100
AcDbEntity
  8
0-0_補助線
  6
Continuous
 62
    92
370
    13
100
AcDbLine
 10
2178.918171683584
 20
2717.999683277027
 30
0.0
 11
2124.918171683585
 21
2717.999683277027
 31
0.0
  0
LINE
  5
19E
330
1F
100
AcDbEntity
  8
0-0_補助線
  6
Continuous
 62
    92
370
    13
100
AcDbLine
 10
2124.918171683585
 20
2717.999683277027
 30
0.0
 11
2124.918171683585
 21
2777.999683277027
 31
0.0
  0
LINE
  5
19F
330
1F
100
AcDbEntity
  8
0-0_補助線
  6
Continuous
 62
    92
370
    13
100
AcDbLine
 10
2124.918171683585
 20
2777.999683277027
 30
0.0
 11
2064.918171683585
 21
2777.999683277027
 31
0.0
  0
LINE
  5
1A0
330
1F
100
AcDbEntity
  8
0-0_補助線
  6
Continuous
 62
    92
370
    13
100
AcDbLine
 10
2124.917998475707
 20
2102.999683277027
 30
0.0
 11
2067.918171683584
 21
2102.999683277027
 31
0.0
  0
LINE
  5
1A1
330
1F
100
AcDbEntity
  8
0-0_補助線
  6
Continuous
 62
    92
370
    13
100
AcDbLine
 10
2124.917998475707
 20
2099.999683277028
 30
0.0
 11
2064.918171683585
 21
2099.999683277028
 31
0.0
  0
LINE
  5
1A2
330
1F
100
AcDbEntity
  8
0-0_補助線
  6
Continuous
 62
    92
370
    13
100
AcDbLine
 10
2124.917998475707
 20
2774.999683277028
 30
0.0
 11
2067.918171683584
 21
2774.999683277028
 31
0.0
  0
LINE
  5
1A3
330
1F
100
AcDbEntity
  8
0-0_補助線
  6
Continuous
 62
     7
370
     9
100
AcDbLine
 10
2238.918171683584
 20
2777.999683277027
 30
0.0
 11
2238.918171683584
 21
2099.999683277028
 31
0.0
  0
LINE
  5
1A4
330
1F
100
AcDbEntity
  8
0-0_補助線
  6
Continuous
 62
    92
370
    13
100
AcDbLine
 10
2208.918171683584
 20
2777.999683277027
 30
0.0
 11
2208.918171683584
 21
2099.999683277028
 31
0.0
  0
LINE
  5
1A5
330
1F
100
AcDbEntity
  8
0-0_補助線
  6
Continuous
 62
     7
370
     9
100
AcDbLine
 10
2211.917785677462
 20
2384.999653584247
 30
0.0
 11
2208.918171683584
 21
2384.999653584247
 31
0.0
  0
LINE
  5
1A6
330
1F
100
AcDbEntity
  8
0-0_補助線
  6
Continuous
 62
     7
370
     9
100
AcDbLine
 10
2211.917785677462
 20
2492.999712969806
 30
0.0
 11
2208.918171683584
 21
2492.999712969806
 31
0.0
  0
LINE
  5
1A7
330
1F
100
AcDbEntity
  8
0-0_補助線
  6
Continuous
 62
     7
370
     9
100
AcDbLine
 10
2238.918171683584
 20
2349.000128668707
 30
0.0
 11
2223.917751035887
 21
2349.000128668707
 31
0.0
  0
LINE
  5
1A8
330
1F
100
AcDbEntity
  8
0-0_補助線
  6
Continuous
 62
     7
370
     9
100
AcDbLine
 10
2238.918171683584
 20
2528.999980204815
 30
0.0
 11
2223.917751035887
 21
2528.999980204815
 31
0.0
  0
LINE
  5
1A9
330
1F
100
AcDbEntity
  8
0-0_補助線
  6
Continuous
 62
     7
370
     9
100
AcDbLine
 10
2211.917785677462
 20
2498.999881228884
 30
0.0
 11
2211.917785677462
 21
2379.000227644637
 31
0.0
  0
LINE
  5
1AA
330
1F
100
AcDbEntity
  8
0-0_補助線
  6
Continuous
 62
     7
370
     9
100
AcDbLine
 10
2223.917751035887
 20
2379.000227644637
 30
0.0
 11
2211.917785677462
 21
2379.000227644637
 31
0.0
  0
LINE
  5
1AB
330
1F
100
AcDbEntity
  8
0-0_補助線
  6
Continuous
 62
     7
370
     9
100
AcDbLine
 10
2223.917751035887
 20
2498.999881228884
 30
0.0
 11
2211.917785677462
 21
2498.999881228884
 31
0.0
  0
LINE
  5
1AC
330
1F
100
AcDbEntity
  8
0-0_補助線
  6
Continuous
 62
     7
370
     9
100
AcDbLine
 10
2238.918171683584
 20
2528.999980204815
 30
0.0
 11
2238.918171683584
 21
2349.000128668707
 31
0.0
  0
LINE
  5
1AD
330
1F
100
AcDbEntity
  8
0-0_補助線
  6
Continuous
 62
     7
370
     9
100
AcDbLine
 10
2223.917751035887
 20
2528.999980204815
 30
0.0
 11
2223.917751035887
 21
2349.000128668707
 31
0.0
  0
LINE
  5
1AE
330
1F
100
AcDbEntity
  8
0-0_補助線
  6
Continuous
 62
    92
370
    13
100
AcDbLine
 10
2076.923658176377
 20
2516.944383737856
 30
0.0
 11
2064.918171683585
 21
2516.944383737856
 31
0.0
  0
LINE
  5
1AF
330
1F
100
AcDbEntity
  8
0-0_補助線
  6
Continuous
 62
    92
370
    13
100
AcDbLine
 10
2076.923658176377
 20
2360.944383737856
 30
0.0
 11
2076.923658176377
 21
2516.944383737856
 31
0.0
  0
LINE
  5
1B0
330
1F
100
AcDbEntity
  8
0-0_補助線
  6
Continuous
 62
    92
370
    13
100
AcDbLine
 10
2064.918171683585
 20
2360.944383737856
 30
0.0
 11
2076.923658176377
 21
2360.944383737856
 31
0.0
  0
LINE
  5
1B1
330
1F
100
AcDbEntity
  8
0-0_補助線
  6
Continuous
 62
   120
370
     5
100
AcDbLine
 10
2076.923658176377
 20
2367.22661219995
 30
0.0
 11
2208.918171683581
 21
2499.221125707156
 31
0.0
  0
LINE
  5
1B2
330
1F
100
AcDbEntity
  8
0-0_補助線
  6
Continuous
 62
   120
370
     5
100
AcDbLine
 10
2076.923658176377
 20
2426.623581819599
 30
0.0
 11
2208.918171683584
 21
2558.618095326805
 31
0.0
  0
LINE
  5
1B3
330
1F
100
AcDbEntity
  8
0-0_補助線
  6
Continuous
 62
   120
370
     5
100
AcDbLine
 10
2076.923658176377
 20
2486.020551439298
 30
0.0
 11
2208.918171683579
 21
2618.015064946503
 31
0.0
  0
LINE
  5
1B4
330
1F
100
AcDbEntity
  8
0-0_補助線
  6
Continuous
 62
    92
370
    13
100
AcDbLine
 10
2064.918171683585
 20
2516.944383737856
 30
0.0
 11
2064.918171683585
 21
2777.999683277027
 31
0.0
  0
LINE
  5
1B5
330
1F
100
AcDbEntity
  8
0-0_補助線
  6
Continuous
 62
    92
370
    13
100
AcDbLine
 10
2067.918171683584
 20
2516.944383737856
 30
0.0
 11
2067.918171683584
 21
2774.999683277028
 31
0.0
  0
LINE
  5
1B6
330
1F
100
AcDbEntity
  8
0-0_補助線
  6
Continuous
 62
    92
370
    13
100
AcDbLine
 10
2067.918171683584
 20
2360.944383737856
 30
0.0
 11
2067.918171683584
 21
2102.999683277027
 31
0.0
  0
LINE
  5
1B7
330
1F
100
AcDbEntity
  8
0-0_補助線
  6
Continuous
 62
    92
370
    13
100
AcDbLine
 10
2064.918171683585
 20
2360.944383737856
 30
0.0
 11
2064.918171683585
 21
2099.999683277028
 31
0.0
  0
INSERT
  5
1B8
330
1F
100
AcDbEntity
  8
0-0_補助線
  6
Continuous
 62
     7
370
     9
100
AcDbBlockReference
  2
02@@SfigorgFlag@@4
 10
-2025.895291615951
 20
2425.377716824172
 30
0.0
 41
30.0
 42
30.0
  0
LINE
  5
1B9
330
1F
100
AcDbEntity
  8
0-3_仕上げ
  6
Continuous
 62
     7
370
     9
100
AcDbLine
 10
-2519.081828316415
 20
2777.999683277027
 30
0.0
 11
-2219.081828316415
 21
2777.999683277027
 31
0.0
  0
LINE
  5
1BA
330
1F
100
AcDbEntity
  8
0-3_仕上げ
  6
Continuous
 62
     7
370
     9
100
AcDbLine
 10
-2519.081828316415
 20
2099.999683277028
 30
0.0
 11
-2219.081828316415
 21
2099.999683277028
 31
0.0
  0
LINE
  5
1BB
330
1F
100
AcDbEntity
  8
0-0_補助線
  6
Continuous
 62
   120
370
     5
100
AcDbLine
 10
-2048.081828316409
 20
2773.999913044847
 30
0.0
 11
-2049.081598548594
 21
2774.999683277033
 31
0.0
  0
LINE
  5
1BC
330
1F
100
AcDbEntity
  8
0-0_補助線
  6
Continuous
 62
   120
370
     5
100
AcDbLine
 10
-2048.08182831641
 20
2714.602943425146
 30
0.0
 11
-2105.081828316413
 21
2771.60294342515
 31
0.0
  0
LINE
  5
1BD
330
1F
100
AcDbEntity
  8
0-0_補助線
  6
Continuous
 62
   120
370
     5
100
AcDbLine
 10
-2159.081828316429
 20
2766.205973805518
 30
0.0
 11
-2170.875537787927
 21
2777.999683277016
 31
0.0
  0
LINE
  5
1BE
330
1F
100
AcDbEntity
  8
0-0_補助線
  6
Continuous
 62
   120
370
     5
100
AcDbLine
 10
-2048.081828316415
 20
2655.205973805504
 30
0.0
 11
-2110.875537787916
 21
2717.999683277006
 31
0.0
  0
LINE
  5
1BF
330
1F
100
AcDbEntity
  8
0-0_補助線
  6
Continuous
 62
   120
370
     5
100
AcDbLine
 10
-2048.081828316421
 20
2595.809004185862
 30
0.0
 11
-2189.081828316424
 21
2736.809004185865
 31
0.0
  0
LINE
  5
1C0
330
1F
100
AcDbEntity
  8
0-0_補助線
  6
Continuous
 62
   120
370
     5
100
AcDbLine
 10
-2048.081828316405
 20
2536.412034566145
 30
0.0
 11
-2189.081828316408
 21
2677.412034566149
 31
0.0
  0
LINE
  5
1C1
330
1F
100
AcDbEntity
  8
0-0_補助線
  6
Continuous
 62
   120
370
     5
100
AcDbLine
 10
-2048.081828316415
 20
2298.824156087457
 30
0.0
 11
-2189.081828316412
 21
2439.824156087452
 31
0.0
  0
LINE
  5
1C2
330
1F
100
AcDbEntity
  8
0-0_補助線
  6
Continuous
 62
   120
370
     5
100
AcDbLine
 10
-2048.081828316405
 20
2239.4271864678
 30
0.0
 11
-2189.081828316408
 21
2380.427186467803
 31
0.0
  0
LINE
  5
1C3
330
1F
100
AcDbEntity
  8
0-0_補助線
  6
Continuous
 62
   120
370
     5
100
AcDbLine
 10
-2048.081828316417
 20
2180.030216848165
 30
0.0
 11
-2189.081828316402
 21
2321.030216848149
 31
0.0
  0
LINE
  5
1C4
330
1F
100
AcDbEntity
  8
0-0_補助線
  6
Continuous
 62
   120
370
     5
100
AcDbLine
 10
-2048.081828316414
 20
2120.63324722846
 30
0.0
 11
-2189.081828316412
 21
2261.633247228458
 31
0.0
  0
LINE
  5
1C5
330
1F
100
AcDbEntity
  8
0-0_補助線
  6
Continuous
 62
   120
370
     5
100
AcDbLine
 10
-2146.845233984631
 20
2159.999683277029
 30
0.0
 11
-2189.081828316405
 21
2202.236277608802
 31
0.0
  0
LINE
  5
1C6
330
1F
100
AcDbEntity
  8
0-0_補助線
  6
Continuous
 62
   120
370
     5
100
AcDbLine
 10
-2089.845233984621
 20
2102.99968327702
 30
0.0
 11
-2105.081828316422
 21
2118.23627760882
 31
0.0
  0
LINE
  5
1C7
330
1F
100
AcDbEntity
  8
0-0_補助線
  6
Continuous
 62
   120
370
     5
100
AcDbLine
 10
-2159.081828316394
 20
2112.839307989092
 30
0.0
 11
-2189.081828316403
 21
2142.839307989099
 31
0.0
  0
LINE
  5
1C8
330
1F
100
AcDbEntity
  8
0-0_補助線
  6
Continuous
 62
    92
370
    13
100
AcDbLine
 10
-2189.081828316415
 20
2099.999683277028
 30
0.0
 11
-2159.081828316415
 21
2099.999683277028
 31
0.0
  0
LINE
  5
1C9
330
1F
100
AcDbEntity
  8
0-0_補助線
  6
Continuous
 62
    92
370
    13
100
AcDbLine
 10
-2159.081828316415
 20
2159.999683277028
 30
0.0
 11
-2159.081828316415
 21
2099.999683277028
 31
0.0
  0
LINE
  5
1CA
330
1F
100
AcDbEntity
  8
0-0_補助線
  6
Continuous
 62
    92
370
    13
100
AcDbLine
 10
-2159.081828316415
 20
2159.999683277028
 30
0.0
 11
-2105.081828316415
 21
2159.999683277028
 31
0.0
  0
LINE
  5
1CB
330
1F
100
AcDbEntity
  8
0-0_補助線
  6
Continuous
 62
    92
370
    13
100
AcDbLine
 10
-2105.081828316415
 20
2159.999683277028
 30
0.0
 11
-2105.081828316415
 21
2099.999683277028
 31
0.0
  0
LINE
  5
1CC
330
1F
100
AcDbEntity
  8
0-0_補助線
  6
Continuous
 62
    92
370
    13
100
AcDbLine
 10
-2189.081828316415
 20
2777.999683277027
 30
0.0
 11
-2159.081828316415
 21
2777.999683277027
 31
0.0
  0
LINE
  5
1CD
330
1F
100
AcDbEntity
  8
0-0_補助線
  6
Continuous
 62
    92
370
    13
100
AcDbLine
 10
-2159.081828316415
 20
2717.999683277027
 30
0.0
 11
-2159.081828316415
 21
2777.999683277027
 31
0.0
  0
LINE
  5
1CE
330
1F
100
AcDbEntity
  8
0-0_補助線
  6
Continuous
 62
    92
370
    13
100
AcDbLine
 10
-2159.081828316415
 20
2717.999683277027
 30
0.0
 11
-2105.081828316415
 21
2717.999683277027
 31
0.0
  0
LINE
  5
1CF
330
1F
100
AcDbEntity
  8
0-0_補助線
  6
Continuous
 62
    92
370
    13
100
AcDbLine
 10
-2105.081828316415
 20
2717.999683277027
 30
0.0
 11
-2105.081828316415
 21
2777.999683277027
 31
0.0
  0
LINE
  5
1D0
330
1F
100
AcDbEntity
  8
0-0_補助線
  6
Continuous
 62
    92
370
    13
100
AcDbLine
 10
-2105.081828316415
 20
2777.999683277027
 30
0.0
 11
-2045.081828316415
 21
2777.999683277027
 31
0.0
  0
LINE
  5
1D1
330
1F
100
AcDbEntity
  8
0-0_補助線
  6
Continuous
 62
    92
370
    13
100
AcDbLine
 10
-2105.081655108538
 20
2102.999683277027
 30
0.0
 11
-2048.081828316415
 21
2102.999683277027
 31
0.0
  0
LINE
  5
1D2
330
1F
100
AcDbEntity
  8
0-0_補助線
  6
Continuous
 62
    92
370
    13
100
AcDbLine
 10
-2105.081655108538
 20
2099.999683277028
 30
0.0
 11
-2045.081828316415
 21
2099.999683277028
 31
0.0
  0
LINE
  5
1D3
330
1F
100
AcDbEntity
  8
0-0_補助線
  6
Continuous
 62
    92
370
    13
100
AcDbLine
 10
-2105.081655108538
 20
2774.999683277028
 30
0.0
 11
-2048.081828316415
 21
2774.999683277028
 31
0.0
  0
LINE
  5
1D4
330
1F
100
AcDbEntity
  8
0-0_補助線
  6
Continuous
 62
     7
370
     9
100
AcDbLine
 10
-2219.081828316415
 20
2777.999683277027
 30
0.0
 11
-2219.081828316415
 21
2099.999683277028
 31
0.0
  0
LINE
  5
1D5
330
1F
100
AcDbEntity
  8
0-0_補助線
  6
Continuous
 62
    92
370
    13
100
AcDbLine
 10
-2189.081828316415
 20
2777.999683277027
 30
0.0
 11
-2189.081828316415
 21
2099.999683277028
 31
0.0
  0
LINE
  5
1D6
330
1F
100
AcDbEntity
  8
0-0_補助線
  6
Continuous
 62
     7
370
     9
100
AcDbLine
 10
-2192.081442310293
 20
2384.999653584247
 30
0.0
 11
-2189.081828316415
 21
2384.999653584247
 31
0.0
  0
LINE
  5
1D7
330
1F
100
AcDbEntity
  8
0-0_補助線
  6
Continuous
 62
     7
370
     9
100
AcDbLine
 10
-2192.081442310293
 20
2492.999712969806
 30
0.0
 11
-2189.081828316415
 21
2492.999712969806
 31
0.0
  0
LINE
  5
1D8
330
1F
100
AcDbEntity
  8
0-0_補助線
  6
Continuous
 62
     7
370
     9
100
AcDbLine
 10
-2219.081828316415
 20
2349.000128668707
 30
0.0
 11
-2204.081407668718
 21
2349.000128668707
 31
0.0
  0
LINE
  5
1D9
330
1F
100
AcDbEntity
  8
0-0_補助線
  6
Continuous
 62
     7
370
     9
100
AcDbLine
 10
-2219.081828316415
 20
2528.999980204815
 30
0.0
 11
-2204.081407668718
 21
2528.999980204815
 31
0.0
  0
LINE
  5
1DA
330
1F
100
AcDbEntity
  8
0-0_補助線
  6
Continuous
 62
     7
370
     9
100
AcDbLine
 10
-2192.081442310293
 20
2498.999881228884
 30
0.0
 11
-2192.081442310293
 21
2379.000227644637
 31
0.0
  0
LINE
  5
1DB
330
1F
100
AcDbEntity
  8
0-0_補助線
  6
Continuous
 62
     7
370
     9
100
AcDbLine
 10
-2204.081407668718
 20
2379.000227644637
 30
0.0
 11
-2192.081442310293
 21
2379.000227644637
 31
0.0
  0
LINE
  5
1DC
330
1F
100
AcDbEntity
  8
0-0_補助線
  6
Continuous
 62
     7
370
     9
100
AcDbLine
 10
-2204.081407668718
 20
2498.999881228884
 30
0.0
 11
-2192.081442310293
 21
2498.999881228884
 31
0.0
  0
LINE
  5
1DD
330
1F
100
AcDbEntity
  8
0-0_補助線
  6
Continuous
 62
     7
370
     9
100
AcDbLine
 10
-2219.081828316415
 20
2528.999980204815
 30
0.0
 11
-2219.081828316415
 21
2349.000128668707
 31
0.0
  0
LINE
  5
1DE
330
1F
100
AcDbEntity
  8
0-0_補助線
  6
Continuous
 62
     7
370
     9
100
AcDbLine
 10
-2204.081407668718
 20
2528.999980204815
 30
0.0
 11
-2204.081407668718
 21
2349.000128668707
 31
0.0
  0
LINE
  5
1DF
330
1F
100
AcDbEntity
  8
0-0_補助線
  6
Continuous
 62
    92
370
    13
100
AcDbLine
 10
-2057.087314809207
 20
2516.944383737856
 30
0.0
 11
-2045.081828316415
 21
2516.944383737856
 31
0.0
  0
LINE
  5
1E0
330
1F
100
AcDbEntity
  8
0-0_補助線
  6
Continuous
 62
    92
370
    13
100
AcDbLine
 10
-2057.087314809207
 20
2360.944383737856
 30
0.0
 11
-2057.087314809207
 21
2516.944383737856
 31
0.0
  0
LINE
  5
1E1
330
1F
100
AcDbEntity
  8
0-0_補助線
  6
Continuous
 62
    92
370
    13
100
AcDbLine
 10
-2045.081828316415
 20
2360.944383737856
 30
0.0
 11
-2057.087314809207
 21
2360.944383737856
 31
0.0
  0
LINE
  5
1E2
330
1F
100
AcDbEntity
  8
0-0_補助線
  6
Continuous
 62
   120
370
     5
100
AcDbLine
 10
-2057.087314809207
 20
2367.22661219995
 30
0.0
 11
-2189.081828316412
 21
2499.221125707156
 31
0.0
  0
LINE
  5
1E3
330
1F
100
AcDbEntity
  8
0-0_補助線
  6
Continuous
 62
   120
370
     5
100
AcDbLine
 10
-2057.087314809207
 20
2426.623581819599
 30
0.0
 11
-2189.081828316415
 21
2558.618095326805
 31
0.0
  0
LINE
  5
1E4
330
1F
100
AcDbEntity
  8
0-0_補助線
  6
Continuous
 62
   120
370
     5
100
AcDbLine
 10
-2057.087314809207
 20
2486.020551439298
 30
0.0
 11
-2189.08182831641
 21
2618.015064946503
 31
0.0
  0
LINE
  5
1E5
330
1F
100
AcDbEntity
  8
0-0_補助線
  6
Continuous
 62
    92
370
    13
100
AcDbLine
 10
-2045.081828316415
 20
2516.944383737856
 30
0.0
 11
-2045.081828316415
 21
2777.999683277027
 31
0.0
  0
LINE
  5
1E6
330
1F
100
AcDbEntity
  8
0-0_補助線
  6
Continuous
 62
    92
370
    13
100
AcDbLine
 10
-2048.081828316415
 20
2516.944383737856
 30
0.0
 11
-2048.081828316415
 21
2774.999683277028
 31
0.0
  0
LINE
  5
1E7
330
1F
100
AcDbEntity
  8
0-0_補助線
  6
Continuous
 62
    92
370
    13
100
AcDbLine
 10
-2048.081828316415
 20
2360.944383737856
 30
0.0
 11
-2048.081828316415
 21
2102.999683277027
 31
0.0
  0
LINE
  5
1E8
330
1F
100
AcDbEntity
  8
0-0_補助線
  6
Continuous
 62
    92
370
    13
100
AcDbLine
 10
-2045.081828316415
 20
2360.944383737856
 30
0.0
 11
-2045.081828316415
 21
2099.999683277028
 31
0.0
  0
LWPOLYLINE
  5
1E9
330
1F
100
AcDbEntity
  8
0-B_寸法
  6
Continuous
 62
     7
370
     9
100
AcDbPolyline
 90
        4
 70
     1
 43
3.0
 10
-2043.581828316415
 20
3147.016061564036
 42
0.4142135623731
 10
-2045.081828316415
 20
3148.516061564036
 42
0.4142135623731
 10
-2046.581828316415
 20
3147.016061564036
 42
0.4142135623731
 10
-2045.081828316415
 20
3145.516061564036
 42
0.4142135623731
  0
LWPOLYLINE
  5
1EA
330
1F
100
AcDbEntity
  8
0-B_寸法
  6
Continuous
 62
     7
370
     9
100
AcDbPolyline
 90
        4
 70
     1
 43
3.0
 10
-2187.581828316417
 20
3147.016061564036
 42
0.4142135623731
 10
-2189.081828316417
 20
3148.516061564036
 42
0.4142135623731
 10
-2190.581828316417
 20
3147.016061564036
 42
0.4142135623731
 10
-2189.081828316417
 20
3145.516061564036
 42
0.4142135623731
  0
LWPOLYLINE
  5
1EB
330
1F
100
AcDbEntity
  8
0-B_寸法
  6
Continuous
 62
     7
370
     9
100
AcDbPolyline
 90
        4
 70
     1
 43
3.0
 10
-2043.581828316415
 20
3005.873667201509
 42
0.4142135623731
 10
-2045.081828316415
 20
3007.373667201509
 42
0.4142135623731
 10
-2046.581828316415
 20
3005.873667201509
 42
0.4142135623731
 10
-2045.081828316415
 20
3004.373667201509
 42
0.4142135623731
  0
LWPOLYLINE
  5
1EC
330
1F
100
AcDbEntity
  8
0-B_寸法
  6
Continuous
 62
     7
370
     9
100
AcDbPolyline
 90
        4
 70
     1
 43
3.0
 10
-2103.58165510854
 20
3005.873667201509
 42
0.4142135623731
 10
-2105.08165510854
 20
3007.373667201509
 42
0.4142135623731
 10
-2106.58165510854
 20
3005.873667201509
 42
0.4142135623731
 10
-2105.08165510854
 20
3004.373667201509
 42
0.4142135623731
  0
LWPOLYLINE
  5
1ED
330
1F
100
AcDbEntity
  8
0-B_寸法
  6
Continuous
 62
     7
370
     9
100
AcDbPolyline
 90
        4
 70
     1
 43
3.0
 10
-2157.581684801321
 20
3005.873667201509
 42
0.4142135623731
 10
-2159.081684801321
 20
3007.373667201509
 42
0.4142135623731
 10
-2160.581684801321
 20
3005.873667201509
 42
0.4142135623731
 10
-2159.081684801321
 20
3004.373667201509
 42
0.4142135623731
  0
LWPOLYLINE
  5
1EE
330
1F
100
AcDbEntity
  8
0-B_寸法
  6
Continuous
 62
     7
370
     9
100
AcDbPolyline
 90
        4
 70
     1
 43
3.0
 10
-2187.581828316417
 20
3005.873667201509
 42
0.4142135623731
 10
-2189.081828316417
 20
3007.373667201509
 42
0.4142135623731
 10
-2190.581828316417
 20
3005.873667201509
 42
0.4142135623731
 10
-2189.081828316417
 20
3004.373667201509
 42
0.4142135623731
  0
LINE
  5
1EF
330
1F
100
AcDbEntity
  8
0-B_寸法
  6
Continuous
 62
   120
370
     5
100
AcDbLine
 10
-2189.081828316417
 20
3147.016061564036
 30
0.0
 11
-2045.081828316415
 21
3147.016061564036
 31
0.0
  0
LINE
  5
1F0
330
1F
100
AcDbEntity
  8
0-B_寸法
  6
Continuous
 62
   120
370
     5
100
AcDbLine
 10
-2045.081828316415
 20
3147.016061564036
 30
0.0
 11
-2045.081828316415
 21
2852.768662182618
 31
0.0
  0
LINE
  5
1F1
330
1F
100
AcDbEntity
  8
0-B_寸法
  6
Continuous
 62
   120
370
     5
100
AcDbLine
 10
-2105.08165510854
 20
3005.873667201509
 30
0.0
 11
-2105.08165510854
 21
2852.768662182618
 31
0.0
  0
LINE
  5
1F2
330
1F
100
AcDbEntity
  8
0-B_寸法
  6
Continuous
 62
   120
370
     5
100
AcDbLine
 10
-2159.081684801321
 20
3005.873667201509
 30
0.0
 11
-2159.081684801321
 21
2852.768662182618
 31
0.0
  0
LINE
  5
1F3
330
1F
100
AcDbEntity
  8
0-B_寸法
  6
Continuous
 62
   120
370
     5
100
AcDbLine
 10
-2189.081828316417
 20
3147.016061564036
 30
0.0
 11
-2189.081828316417
 21
2852.768662182618
 31
0.0
  0
LINE
  5
1F4
330
1F
100
AcDbEntity
  8
0-B_寸法
  6
Continuous
 62
   120
370
     5
100
AcDbLine
 10
-2189.081828316417
 20
3005.873667201509
 30
0.0
 11
-2045.081828316415
 21
3005.873667201509
 31
0.0
  0
LINE
  5
1F5
330
1F
100
AcDbEntity
  8
0-B_寸法
  6
Continuous
 62
   120
370
     5
100
AcDbLine
 10
-1722.463106689515
 20
2099.999683277028
 30
0.0
 11
-1722.463106689515
 21
2777.999683277027
 31
0.0
  0
LWPOLYLINE
  5
1F6
330
1F
100
AcDbEntity
  8
0-B_寸法
  6
Continuous
 62
     7
370
     9
100
AcDbPolyline
 90
        4
 70
     1
 43
3.0
 10
-1720.963106689515
 20
2777.999683277027
 42
0.4142135623731
 10
-1722.463106689515
 20
2779.499683277027
 42
0.4142135623731
 10
-1723.963106689515
 20
2777.999683277027
 42
0.4142135623731
 10
-1722.463106689515
 20
2776.499683277028
 42
0.4142135623731
  0
LINE
  5
1F7
330
1F
100
AcDbEntity
  8
0-B_寸法
  6
Continuous
 62
   120
370
     5
100
AcDbLine
 10
-1913.922515011415
 20
2777.999683277027
 30
0.0
 11
-1722.463106689515
 21
2777.999683277027
 31
0.0
  0
LWPOLYLINE
  5
1F8
330
1F
100
AcDbEntity
  8
0-B_寸法
  6
Continuous
 62
     7
370
     9
100
AcDbPolyline
 90
        4
 70
     1
 43
3.0
 10
-1720.963106689515
 20
2099.999683277028
 42
0.4142135623731
 10
-1722.463106689515
 20
2101.499683277028
 42
0.4142135623731
 10
-1723.963106689515
 20
2099.999683277028
 42
0.4142135623731
 10
-1722.463106689515
 20
2098.499683277028
 42
0.4142135623731
  0
LINE
  5
1F9
330
1F
100
AcDbEntity
  8
0-B_寸法
  6
Continuous
 62
   120
370
     5
100
AcDbLine
 10
-1913.922515011415
 20
2099.999683277028
 30
0.0
 11
-1722.463106689515
 21
2099.999683277028
 31
0.0
  0
MTEXT
  5
1FA
330
1F
100
AcDbEntity
  8
0-B_寸法
  6
Continuous
 62
     7
370
   211
100
AcDbMText
 10
2076.918171683586
 20
1170.637146960944
 30
0.0
 40
91.44
 41
120.0
 46
0.0
 71
     7
 72
     1
  1
{\fＭＳ ゴシック|b0|i0|c128|p49;24}
 73
     1
 44
1.0
  0
MTEXT
  5
1FB
330
1F
100
AcDbEntity
  8
0-B_寸法
  6
Continuous
 62
     7
370
   211
100
AcDbMText
 10
-2170.20523834523
 20
990.6371469609433
 30
0.0
 40
91.44
 41
60.0
 46
0.0
 71
     7
 72
     1
  1
{\fＭＳ ゴシック|b0|i0|c128|p49;5}
 73
     1
 44
1.0
  0
MTEXT
  5
1FC
330
1F
100
AcDbEntity
  8
0-B_寸法
  6
Continuous
 62
     7
370
   211
100
AcDbMText
 10
-317.0818283164158
 20
990.6371469609444
 30
0.0
 40
91.43999999999997
 41
660.0
 46
0.0
 71
     7
 72
     1
  1
{\fＭＳ ゴシック|b0|i0|c128|p49;枠外＝1,189}
 73
     1
 44
1.0
  0
MTEXT
  5
1FD
330
1F
100
AcDbEntity
  8
0-B_寸法
  6
Continuous
 62
     7
370
   211
100
AcDbMText
 10
2140.44971407927
 20
990.6371469609433
 30
0.0
 40
91.44
 41
60.0
 46
0.0
 71
     7
 72
     1
  1
{\fＭＳ ゴシック|b0|i0|c128|p49;5}
 73
     1
 44
1.0
  0
MTEXT
  5
1FE
330
1F
100
AcDbEntity
  8
0-B_寸法
  6
Continuous
 62
     7
370
   211
100
AcDbMText
 10
-425.0818283164182
 20
815.9125315763283
 30
0.0
 40
101.9907692307692
 41
870.0
 46
0.0
 71
     7
 72
     1
  1
{\fＭＳ ゴシック|b0|i0|c128|p49;ＲＯＷ＝1,199}
 73
     1
 44
1.0
  0
LINE
  5
1FF
330
1F
100
AcDbEntity
  8
0-0_補助線
  6
JWW_HOJO
 62
   120
370
     5
100
AcDbLine
 10
9.918171683581818
 20
1889.917146960945
 30
0.0
 11
9.918171683581818
 21
3179.917146960943
 31
0.0
  0
LINE
  5
200
330
1F
100
AcDbEntity
  8
0-0_補助線
  6
JWW_HOJO
 62
   120
370
     5
100
AcDbLine
 10
2538.918171683584
 20
3179.917146960943
 30
0.0
 11
-2519.081828316415
 21
3179.917146960943
 31
0.0
  0
LINE
  5
201
330
1F
100
AcDbEntity
  8
0-0_補助線
  6
JWW_HOJO
 62
   120
370
     5
100
AcDbLine
 10
2538.918171683584
 20
1889.917146960945
 30
0.0
 11
2538.918171683584
 21
3179.917146960943
 31
0.0
  0
LINE
  5
202
330
1F
100
AcDbEntity
  8
0-0_補助線
  6
JWW_HOJO
 62
   120
370
     5
100
AcDbLine
 10
-2519.081828316415
 20
1889.917146960945
 30
0.0
 11
-2519.081828316415
 21
3179.917146960943
 31
0.0
  0
LINE
  5
203
330
1F
100
AcDbEntity
  8
0-0_補助線
  6
JWW_HOJO
 62
   120
370
     5
100
AcDbLine
 10
2538.918171683584
 20
1889.917146960945
 30
0.0
 11
-2519.081828316415
 21
1889.917146960945
 31
0.0
  0
MTEXT
  5
204
330
1F
100
AcDbEntity
  8
0-A_文字
  6
Continuous
 62
     7
370
     9
100
AcDbMText
 10
-2856.422942931159
 20
3297.647247222263
 30
0.0
 40
100.584
 41
660.0
 46
0.0
 71
     7
 72
     1
  1
{\fＭＳ ゴシック|b0|i0|c128|p49;■横断面図}
 73
     1
 44
1.0
  0
MTEXT
  5
205
330
1F
100
AcDbEntity
  8
0-A_文字
  6
Continuous
 62
     7
370
     9
100
AcDbMText
 10
2388.43419992598
 20
753.8718759678217
 30
0.0
 40
68.58000000000001
 41
720.0
 46
0.0
 71
     7
 72
     1
  1
{\fＭＳ ゴシック|b0|i0|c128|p49;※図示：右吊り元}
 73
     1
 44
1.0
  0
LINE
  5
206
330
1F
100
AcDbEntity
  8
0-1_通り芯
  6
JWW_CENTER1
 62
   120
370
     5
100
AcDbLine
 10
2538.918171683584
 20
2438.999683277028
 30
0.0
 11
-2519.081828316415
 21
2438.999683277028
 31
0.0
  0
LINE
  5
207
330
1F
100
AcDbEntity
  8
0-A_文字
  6
Continuous
 62
    92
370
    13
100
AcDbLine
 10
4083.835838693027
 20
3730.000181455871
 30
0.0
 11
4083.835838693027
 21
2764.000181455871
 31
0.0
  0
LINE
  5
208
330
1F
100
AcDbEntity
  8
0-A_文字
  6
Continuous
 62
    92
370
    13
100
AcDbLine
 10
5679.835838693025
 20
3730.000181455871
 30
0.0
 11
5679.835838693025
 21
2764.000181455871
 31
0.0
  0
LINE
  5
209
330
1F
100
AcDbEntity
  8
0-A_文字
  6
Continuous
 62
    92
370
    13
100
AcDbLine
 10
5679.835838693025
 20
2764.000181455871
 30
0.0
 11
4083.835838693027
 21
2764.000181455871
 31
0.0
  0
LINE
  5
20A
330
1F
100
AcDbEntity
  8
0-A_文字
  6
Continuous
 62
    92
370
    13
100
AcDbLine
 10
4881.835838693028
 20
3730.000181455871
 30
0.0
 11
4881.835838693028
 21
2764.000181455871
 31
0.0
  0
LINE
  5
20B
330
1F
100
AcDbEntity
  8
0-A_文字
  6
Continuous
 62
    92
370
    13
100
AcDbLine
 10
4083.835838693027
 20
3604.00018145587
 30
0.0
 11
5679.835838693025
 21
3604.00018145587
 31
0.0
  0
LINE
  5
20C
330
1F
100
AcDbEntity
  8
0-A_文字
  6
Continuous
 62
    92
370
    13
100
AcDbLine
 10
5679.835838693025
 20
3730.000181455871
 30
0.0
 11
4083.835838693027
 21
3730.000181455871
 31
0.0
  0
LINE
  5
20D
330
1F
100
AcDbEntity
  8
戸当り
  6
Continuous
 62
    40
370
    15
100
AcDbLine
 10
5511.835838693028
 20
3481.846273380328
 30
0.0
 11
5658.835838693027
 21
3481.846273380328
 31
0.0
  0
LINE
  5
20E
330
1F
100
AcDbEntity
  8
戸当り
  6
Continuous
 62
    40
370
    15
100
AcDbLine
 10
5049.835838693025
 20
3481.846273380328
 30
0.0
 11
4902.835838693026
 21
3481.846273380328
 31
0.0
  0
LINE
  5
20F
330
1F
100
AcDbEntity
  8
戸当り
  6
Continuous
 62
    40
370
    15
100
AcDbLine
 10
4713.835838693027
 20
3481.846273380328
 30
0.0
 11
4860.835838693027
 21
3481.846273380328
 31
0.0
  0
LINE
  5
210
330
1F
100
AcDbEntity
  8
戸当り
  6
Continuous
 62
    40
370
    15
100
AcDbLine
 10
4251.835838693028
 20
3481.846273380328
 30
0.0
 11
4104.835838693025
 21
3481.846273380328
 31
0.0
  0
LINE
  5
211
330
1F
100
AcDbEntity
  8
0-0_補助線
  6
JWW_HOJO
 62
   120
370
     5
100
AcDbLine
 10
5658.835838693027
 20
3730.000181455871
 30
0.0
 11
5658.835838693027
 21
2764.000181455871
 31
0.0
  0
LINE
  5
212
330
1F
100
AcDbEntity
  8
0-0_補助線
  6
JWW_HOJO
 62
   120
370
     5
100
AcDbLine
 10
4902.835838693026
 20
3730.000181455871
 30
0.0
 11
4902.835838693026
 21
2764.000181455871
 31
0.0
  0
LINE
  5
213
330
1F
100
AcDbEntity
  8
0-0_補助線
  6
JWW_HOJO
 62
   120
370
     5
100
AcDbLine
 10
4860.835838693027
 20
3730.000181455871
 30
0.0
 11
4860.835838693027
 21
2764.000181455871
 31
0.0
  0
LINE
  5
214
330
1F
100
AcDbEntity
  8
0-0_補助線
  6
JWW_HOJO
 62
   120
370
     5
100
AcDbLine
 10
4104.835838693025
 20
3730.000181455871
 30
0.0
 11
4104.835838693025
 21
2764.000181455871
 31
0.0
  0
ELLIPSE
  5
215
330
1F
100
AcDbEntity
  8
戸当り
  6
Continuous
 62
    92
370
    13
100
AcDbEllipse
 10
5207.192036141519
 20
2972.884428393054
 30
0.0
 11
-17.7763823922528
 21
100.8148742797557
 31
0.0
210
0.0
220
0.0
230
1.0
 40
0.4000000000000001
 41
1.850633272656679
 42
2.442876790075129
  0
ELLIPSE
  5
216
330
1F
100
AcDbEntity
  8
戸当り
  6
Continuous
 62
    92
370
    13
100
AcDbEllipse
 10
5207.192036141519
 20
2972.884428393054
 30
0.0
 11
-17.7763823922528
 21
100.8148742797557
 31
0.0
210
0.0
220
0.0
230
1.0
 40
0.4000000000000001
 41
3.840308517104466
 42
4.432552034522944
  0
ELLIPSE
  5
217
330
1F
100
AcDbEntity
  8
戸当り
  6
Continuous
 62
    92
370
    13
100
AcDbEllipse
 10
5206.77229009162
 20
2975.264926534712
 30
0.0
 11
-14.67024424252691
 21
83.19908946199426
 31
0.0
210
0.0
220
0.0
230
1.0
 40
0.5
 41
4.340591432030095
 42
8.225779182329084
  0
LINE
  5
218
330
1F
100
AcDbEntity
  8
戸当り
  6
Continuous
 62
    92
370
    13
100
AcDbLine
 10
5246.741919914281
 20
2900.267379069785
 30
0.0
 11
5194.863795824745
 21
2891.119866084259
 31
0.0
  0
LINE
  5
219
330
1F
100
AcDbEntity
  8
戸当り
  6
Continuous
 62
    92
370
    13
100
AcDbLine
 10
5248.929886952884
 20
2887.858801381832
 30
0.0
 11
5197.051762863349
 21
2878.711288396305
 31
0.0
  0
ELLIPSE
  5
21A
330
1F
100
AcDbEntity
  8
戸当り
  6
Continuous
 62
    92
370
    13
100
AcDbEllipse
 10
5222.990824908116
 20
2883.285044889068
 30
0.0
 11
-7.622927487939132
 21
43.23177007461331
 31
0.0
210
0.0
220
0.0
230
1.0
 40
0.6000000000000001
 41
1.570796326794897
 42
4.71238898038469
  0
ELLIPSE
  5
21B
330
1F
100
AcDbEntity
  8
戸当り
  6
Continuous
 62
    92
370
    13
100
AcDbEllipse
 10
5361.652805079398
 20
3008.935263882862
 30
0.0
 11
26.49533313827761
 21
98.88192943551533
 31
0.0
210
0.0
220
0.0
230
0.9999999999999999
 40
0.4
 41
1.850633272656679
 42
2.442876790075129
  0
ELLIPSE
  5
21C
330
1F
100
AcDbEntity
  8
戸当り
  6
Continuous
 62
    92
370
    13
100
AcDbEllipse
 10
5361.652805079398
 20
3008.935263882862
 30
0.0
 11
26.49533313827761
 21
98.88192943551533
 31
0.0
210
0.0
220
0.0
230
0.9999999999999999
 40
0.4
 41
3.840308517104466
 42
4.432552034522944
  0
ELLIPSE
  5
21D
330
1F
100
AcDbEntity
  8
戸当り
  6
Continuous
 62
    92
370
    13
100
AcDbEllipse
 10
5362.278427952498
 20
3011.270120231655
 30
0.0
 11
21.86569797210526
 21
81.6038957748525
 31
0.0
210
0.0
220
0.0
230
1.0
 40
0.5
 41
4.340591432030095
 42
8.225779182329084
  0
LINE
  5
21E
330
1F
100
AcDbEntity
  8
戸当り
  6
Continuous
 62
    92
370
    13
100
AcDbLine
 10
5366.807881561307
 20
2926.407363477468
 30
0.0
 11
5315.924427684913
 21
2940.041543851753
 31
0.0
  0
LINE
  5
21F
330
1F
100
AcDbEntity
  8
戸当り
  6
Continuous
 62
    92
370
    13
100
AcDbLine
 10
5363.546761593016
 20
2914.236698066226
 30
0.0
 11
5312.663307716622
 21
2927.870878440511
 31
0.0
  0
ELLIPSE
  5
220
330
1F
100
AcDbEntity
  8
戸当り
  6
Continuous
 62
    92
370
    13
100
AcDbEllipse
 10
5338.105034654817
 20
2921.053788253368
 30
0.0
 11
11.36181697857171
 21
42.40287823032828
 31
0.0
210
0.0
220
0.0
230
0.9999999999999999
 40
0.6
 41
1.570796326794897
 42
4.71238898038469
  0
LINE
  5
221
330
1F
100
AcDbEntity
  8
戸当り
  6
Continuous
 62
    40
370
    15
100
AcDbLine
 10
5049.835838693025
 20
3481.846273380328
 30
0.0
 11
5049.835838693025
 21
3133.246273380327
 31
0.0
  0
LINE
  5
222
330
1F
100
AcDbEntity
  8
戸当り
  6
Continuous
 62
    40
370
    15
100
AcDbLine
 10
5511.835838693028
 20
3481.846273380328
 30
0.0
 11
5511.835838693028
 21
3292.846273380327
 31
0.0
  0
ARC
  5
223
330
1F
100
AcDbEntity
  8
戸当り
  6
Continuous
 62
    40
370
    15
100
AcDbCircle
 10
5049.835838693025
 20
3444.046273380328
 30
0.0
 40
310.8
100
AcDbArc
 50
270.0
 51
0.0
  0
ARC
  5
224
330
1F
100
AcDbEntity
  8
戸当り
  6
Continuous
 62
    40
370
    15
100
AcDbCircle
 10
5511.835838693028
 20
3444.046273380328
 30
0.0
 40
151.1999999999998
100
AcDbArc
 50
180.0
 51
270.0
  0
LINE
  5
225
330
1F
100
AcDbEntity
  8
戸当り
  6
Continuous
 62
    40
370
    15
100
AcDbLine
 10
5658.835838693027
 20
3444.046273380328
 30
0.0
 11
4902.835838693026
 21
3444.046273380328
 31
0.0
  0
LINE
  5
226
330
1F
100
AcDbEntity
  8
0-0_補助線
  6
JWW_HOJO
 62
   120
370
     5
100
AcDbLine
 10
5280.835838693027
 20
3730.000181455871
 30
0.0
 11
5280.835838693027
 21
2764.000181455871
 31
0.0
  0
LINE
  5
227
330
1F
100
AcDbEntity
  8
0-0_補助線
  6
JWW_HOJO
 62
   120
370
     5
100
AcDbLine
 10
4482.835838693026
 20
3730.000181455871
 30
0.0
 11
4482.835838693026
 21
2764.000181455871
 31
0.0
  0
ELLIPSE
  5
228
330
1F
100
AcDbEntity
  8
戸当り
  6
Continuous
 62
    92
370
    13
100
AcDbEllipse
 10
4409.192036141518
 20
2972.884428393054
 30
0.0
 11
-17.7763823922528
 21
100.8148742797557
 31
0.0
210
0.0
220
0.0
230
1.0
 40
0.4000000000000001
 41
1.850633272656679
 42
2.442876790075129
  0
ELLIPSE
  5
229
330
1F
100
AcDbEntity
  8
戸当り
  6
Continuous
 62
    92
370
    13
100
AcDbEllipse
 10
4409.192036141518
 20
2972.884428393054
 30
0.0
 11
-17.7763823922528
 21
100.8148742797557
 31
0.0
210
0.0
220
0.0
230
1.0
 40
0.4000000000000001
 41
3.840308517104466
 42
4.432552034522944
  0
ELLIPSE
  5
22A
330
1F
100
AcDbEntity
  8
戸当り
  6
Continuous
 62
    92
370
    13
100
AcDbEllipse
 10
4408.772290091619
 20
2975.264926534712
 30
0.0
 11
-14.67024424252691
 21
83.19908946199426
 31
0.0
210
0.0
220
0.0
230
1.0
 40
0.5
 41
4.340591432030095
 42
8.225779182329084
  0
LINE
  5
22B
330
1F
100
AcDbEntity
  8
戸当り
  6
Continuous
 62
    92
370
    13
100
AcDbLine
 10
4448.741919914281
 20
2900.267379069785
 30
0.0
 11
4396.863795824745
 21
2891.119866084259
 31
0.0
  0
LINE
  5
22C
330
1F
100
AcDbEntity
  8
戸当り
  6
Continuous
 62
    92
370
    13
100
AcDbLine
 10
4450.929886952883
 20
2887.858801381832
 30
0.0
 11
4399.051762863348
 21
2878.711288396305
 31
0.0
  0
ELLIPSE
  5
22D
330
1F
100
AcDbEntity
  8
戸当り
  6
Continuous
 62
    92
370
    13
100
AcDbEllipse
 10
4424.990824908116
 20
2883.285044889068
 30
0.0
 11
-7.622927487939132
 21
43.23177007461331
 31
0.0
210
0.0
220
0.0
230
1.0
 40
0.6000000000000001
 41
1.570796326794897
 42
4.71238898038469
  0
ELLIPSE
  5
22E
330
1F
100
AcDbEntity
  8
戸当り
  6
Continuous
 62
    92
370
    13
100
AcDbEllipse
 10
4563.652805079397
 20
3008.935263882862
 30
0.0
 11
26.49533313827761
 21
98.88192943551533
 31
0.0
210
0.0
220
0.0
230
0.9999999999999999
 40
0.4
 41
1.850633272656679
 42
2.442876790075129
  0
ELLIPSE
  5
22F
330
1F
100
AcDbEntity
  8
戸当り
  6
Continuous
 62
    92
370
    13
100
AcDbEllipse
 10
4563.652805079397
 20
3008.935263882862
 30
0.0
 11
26.49533313827761
 21
98.88192943551533
 31
0.0
210
0.0
220
0.0
230
0.9999999999999999
 40
0.4
 41
3.840308517104466
 42
4.432552034522944
  0
ELLIPSE
  5
230
330
1F
100
AcDbEntity
  8
戸当り
  6
Continuous
 62
    92
370
    13
100
AcDbEllipse
 10
4564.278427952497
 20
3011.270120231655
 30
0.0
 11
21.86569797210526
 21
81.6038957748525
 31
0.0
210
0.0
220
0.0
230
1.0
 40
0.5
 41
4.340591432030095
 42
8.225779182329084
  0
LINE
  5
231
330
1F
100
AcDbEntity
  8
戸当り
  6
Continuous
 62
    92
370
    13
100
AcDbLine
 10
4568.807881561306
 20
2926.407363477468
 30
0.0
 11
4517.924427684912
 21
2940.041543851753
 31
0.0
  0
LINE
  5
232
330
1F
100
AcDbEntity
  8
戸当り
  6
Continuous
 62
    92
370
    13
100
AcDbLine
 10
4565.546761593015
 20
2914.236698066226
 30
0.0
 11
4514.663307716621
 21
2927.870878440511
 31
0.0
  0
ELLIPSE
  5
233
330
1F
100
AcDbEntity
  8
戸当り
  6
Continuous
 62
    92
370
    13
100
AcDbEllipse
 10
4540.105034654818
 20
2921.053788253368
 30
0.0
 11
11.36181697857171
 21
42.40287823032828
 31
0.0
210
0.0
220
0.0
230
0.9999999999999999
 40
0.6
 41
1.570796326794897
 42
4.71238898038469
  0
LINE
  5
234
330
1F
100
AcDbEntity
  8
戸当り
  6
Continuous
 62
    40
370
    15
100
AcDbLine
 10
4713.835838693027
 20
3481.846273380328
 30
0.0
 11
4713.835838693027
 21
3133.246273380327
 31
0.0
  0
LINE
  5
235
330
1F
100
AcDbEntity
  8
戸当り
  6
Continuous
 62
    40
370
    15
100
AcDbLine
 10
4251.835838693028
 20
3481.846273380328
 30
0.0
 11
4251.835838693028
 21
3292.846273380327
 31
0.0
  0
ARC
  5
236
330
1F
100
AcDbEntity
  8
戸当り
  6
Continuous
 62
    40
370
    15
100
AcDbCircle
 10
4713.835838693027
 20
3444.046273380328
 30
0.0
 40
310.8
100
AcDbArc
 50
180.0
 51
270.0
  0
ARC
  5
237
330
1F
100
AcDbEntity
  8
戸当り
  6
Continuous
 62
    40
370
    15
100
AcDbCircle
 10
4251.835838693028
 20
3444.046273380328
 30
0.0
 40
151.1999999999998
100
AcDbArc
 50
270.0
 51
0.0
  0
LINE
  5
238
330
1F
100
AcDbEntity
  8
戸当り
  6
Continuous
 62
    40
370
    15
100
AcDbLine
 10
4104.835838693025
 20
3444.046273380328
 30
0.0
 11
4860.835838693027
 21
3444.046273380328
 31
0.0
  0
MTEXT
  5
239
330
1F
100
AcDbEntity
  8
0-A_文字
  6
Continuous
 62
     7
370
     9
100
AcDbMText
 10
4083.835838693027
 20
3750.482681455871
 30
0.0
 40
100.965
 41
795.0
 46
0.0
 71
     7
 72
     1
  1
{\fＭＳ ゴシック|b0|i0|c128|p49;■吊り手方向}
 73
     1
 44
1.0
  0
MTEXT
  5
23A
330
1F
100
AcDbEntity
  8
0-A_文字
  6
Continuous
 62
     7
370
     9
100
AcDbMText
 10
4332.835838693026
 20
3615.10018145587
 30
0.0
 40
76.19999999999999
 41
300.0
 46
0.0
 71
     7
 72
     1
  1
{\fＭＳ ゴシック|b0|i0|c128|p49;右吊元}
 73
     1
 44
1.0
  0
MTEXT
  5
23B
330
1F
100
AcDbEntity
  8
0-A_文字
  6
Continuous
 62
     7
370
     9
100
AcDbMText
 10
5131.574329392652
 20
3615.10018145587
 30
0.0
 40
76.19999999999999
 41
300.0
 46
0.0
 71
     7
 72
     1
  1
{\fＭＳ ゴシック|b0|i0|c128|p49;左吊元}
 73
     1
 44
1.0
  0
LINE
  5
23C
330
1F
100
AcDbEntity
  8
0-A_文字
  6
Continuous
 62
    92
370
    13
100
AcDbLine
 10
-5659.999495325861
 20
4000.000181455871
 30
0.0
 11
-2257.142857142857
 21
4000.000181455871
 31
0.0
  0
LINE
  5
23D
330
1F
100
AcDbEntity
  8
0-A_文字
  6
Continuous
 62
    92
370
    13
100
AcDbLine
 10
-5659.999495325861
 20
3730.000181455871
 30
0.0
 11
-2257.142857142857
 21
3730.000181455871
 31
0.0
  0
LINE
  5
23E
330
1F
100
AcDbEntity
  8
0-A_文字
  6
Continuous
 62
    92
370
    13
100
AcDbLine
 10
-2257.142857142857
 20
4000.000181455871
 30
0.0
 11
-2257.142857142857
 21
3730.000181455871
 31
0.0
  0
LINE
  5
23F
330
1F
100
AcDbEntity
  8
F-0_補助線
  6
JWW_HOJO
 62
   120
370
     5
100
AcDbLine
 10
-2407.142857142857
 20
4000.000181455871
 30
0.0
 11
-2407.142857142857
 21
3730.000181455871
 31
0.0
  0
MTEXT
  5
240
330
1F
100
AcDbEntity
  8
0-A_文字
  6
Continuous
 62
    92
370
    13
100
AcDbMText
 10
-5509.642857142857
 20
3758.937993955871
 30
0.0
 40
147.875625
 41
3105.0
 46
0.0
 71
     7
 72
     1
  1
{\fＭＳ ゴシック|b0|i0|c128|p49;親子ドア　調整枠　床直付けレール}
 73
     1
 44
1.0
  0
MTEXT
  5
241
330
1F
100
AcDbEntity
  8
0-B_寸法
  6
Continuous
 62
     7
370
   211
100
AcDbMText
 10
-215.0818283164182
 20
-3313.139771599193
 30
0.0
 40
97.15499999999999
 41
127.5
 46
0.0
 71
     7
 72
     1
  1
{\fＭＳ ゴシック|b0|i0|c128|p49;12}
 11
6.123031769111886E-17
 21
1.0
 31
0.0
 73
     1
 44
1.0
  0
LINE
  5
242
330
1F
100
AcDbEntity
  8
F-0_補助線
  6
JWW_HOJO
 62
   120
370
     5
100
AcDbLine
 10
-5509.999495325861
 20
4000.000181455871
 30
0.0
 11
-5509.999495325861
 21
3730.000181455871
 31
0.0
  0
LINE
  5
243
330
1F
100
AcDbEntity
  8
F-0_補助線
  6
JWW_HOJO
 62
   120
370
     5
100
AcDbLine
 10
3519.91817168358
 20
-770.9999919582054
 30
0.0
 11
219.9181716835818
 21
-770.9999919582054
 31
0.0
  0
LINE
  5
244
330
1F
100
AcDbEntity
  8
F-0_補助線
  6
JWW_HOJO
 62
   120
370
     5
100
AcDbLine
 10
219.9181716835835
 20
-1710.041548837792
 30
0.0
 11
3519.91817168358
 21
-1710.041548837792
 31
0.0
  0
LINE
  5
245
330
1F
100
AcDbEntity
  8
0-0_補助線
  6
Continuous
 62
   120
370
     5
100
AcDbLine
 10
595.7444662570639
 20
-770.9999919582054
 30
0.0
 11
1273.744466257065
 21
-770.9999919582054
 31
0.0
  0
LWPOLYLINE
  5
246
330
1F
100
AcDbEntity
  8
0-0_補助線
  6
Continuous
 62
     7
370
     9
100
AcDbPolyline
 90
        4
 70
     1
 43
3.0
 10
597.244466257064
 20
-770.9999919582054
 42
0.4142135623731
 10
595.7444662570639
 20
-769.4999919582054
 42
0.4142135623731
 10
594.2444662570639
 20
-770.9999919582054
 42
0.4142135623731
 10
595.7444662570639
 20
-772.4999919582054
 42
0.4142135623731
  0
LWPOLYLINE
  5
247
330
1F
100
AcDbEntity
  8
0-0_補助線
  6
Continuous
 62
     7
370
     9
100
AcDbPolyline
 90
        4
 70
     1
 43
3.0
 10
1275.244466257064
 20
-770.9999919582054
 42
0.4142135623731
 10
1273.744466257065
 20
-769.4999919582054
 42
0.4142135623731
 10
1272.244466257065
 20
-770.9999919582054
 42
0.4142135623731
 10
1273.744466257065
 20
-772.4999919582054
 42
0.4142135623731
  0
LINE
  5
248
330
1F
100
AcDbEntity
  8
0-0_補助線
  6
Continuous
 62
   120
370
     5
100
AcDbLine
 10
595.7444662570639
 20
-770.9999919582054
 30
0.0
 11
595.7444662570639
 21
-896.6582023711308
 31
0.0
  0
LINE
  5
249
330
1F
100
AcDbEntity
  8
0-0_補助線
  6
Continuous
 62
   120
370
     5
100
AcDbLine
 10
1273.744466257065
 20
-770.9999919582054
 30
0.0
 11
1273.744466257065
 21
-896.6582023711308
 31
0.0
  0
MTEXT
  5
24A
330
1F
100
AcDbEntity
  8
0-0_補助線
  6
Continuous
 62
     7
370
   211
100
AcDbMText
 10
837.2444662570642
 20
-766.4699919582055
 30
0.0
 40
99.06
 41
195.0
 46
0.0
 71
     7
 72
     1
  1
{\fＭＳ ゴシック|b0|i0|c128|p49;113}
 73
     1
 44
1.0
  0
LINE
  5
24B
330
1F
100
AcDbEntity
  8
0-4_枠
  6
Continuous
 62
    92
370
    13
100
AcDbLine
 10
595.7444662570639
 20
-942.4218498403316
 30
0.0
 11
595.7444662570639
 21
-1710.041548837792
 31
0.0
  0
LINE
  5
24C
330
1F
100
AcDbEntity
  8
0-4_枠
  6
Continuous
 62
    92
370
    13
100
AcDbLine
 10
595.7444662570639
 20
-1710.041548837792
 30
0.0
 11
1273.744466257065
 21
-1710.041548837792
 31
0.0
  0
LINE
  5
24D
330
1F
100
AcDbEntity
  8
0-4_枠
  6
Continuous
 62
    92
370
    13
100
AcDbLine
 10
1273.744466257065
 20
-942.4218498403316
 30
0.0
 11
1273.744466257065
 21
-1710.041548837792
 31
0.0
  0
LINE
  5
24E
330
1F
100
AcDbEntity
  8
F-0_補助線
  6
JWW_HOJO
 62
     7
370
     9
100
AcDbLine
 10
1349.918584083287
 20
-3795.000003092998
 30
0.0
 11
1349.918584083287
 21
-4195.000008247994
 31
0.0
  0
LINE
  5
24F
330
1F
100
AcDbEntity
  8
F-0_補助線
  6
JWW_HOJO
 62
     7
370
     9
100
AcDbLine
 10
4889.917891251784
 20
-3795.000003092998
 30
0.0
 11
4889.917891251784
 21
-4195.000008247994
 31
0.0
  0
MTEXT
  5
250
330
1F
100
AcDbEntity
  8
F-A_文字
  6
Continuous
 62
     7
370
     0
100
AcDbMText
 10
-5087.628710189611
 20
-4045.062971792676
 30
0.0
 40
79.87392857142851
 41
4402.5
 46
0.0
 71
     7
 72
     1
  1
{\fＭＳ ゴシック|b0|i0|c128|p49;ピノアース　親子ルドア　調整枠　通気　床直付けレール(アルミ)　枠外H2,035　枠外W1,189}
 73
     1
 44
1.0
  0
MTEXT
  5
251
330
1F
100
AcDbEntity
  8
F-0_補助線
  6
Continuous
 62
     7
370
     0
100
AcDbMText
 10
509.9185840832865
 20
-3956.425201962234
 30
0.0
 40
57.15
 41
675.0
 46
0.0
 71
     7
 72
     1
  1
{\fＭＳ ゴシック|b0|i0|c128|p49;ＰＩＮＯＥＡＲＴＨ}
 73
     1
 44
1.0
  0
MTEXT
  5
252
330
1F
100
AcDbEntity
  8
F-0_補助線
  6
Continuous
 62
     7
370
     0
100
AcDbMText
 10
1349.918584083287
 20
-3945.948482732445
 30
0.0
 40
78.105
 41
615.0
 46
0.0
 71
     7
 72
     1
  1
{\fＭＳ ゴシック|b0|i0|c128|p49;建具納まり図}
 73
     1
 44
1.0
  0
LWPOLYLINE
  5
253
330
1F
100
AcDbEntity
  8
0-B_寸法
  6
Continuous
 62
     7
370
     9
100
AcDbPolyline
 90
        4
 70
     1
 43
3.0
 10
-198.5818283164182
 20
-290.9999919582054
 42
0.4142135623731
 10
-200.0818283164182
 20
-289.4999919582054
 42
0.4142135623731
 10
-201.5818283164182
 20
-290.9999919582054
 42
0.4142135623731
 10
-200.0818283164182
 20
-292.4999919582054
 42
0.4142135623731
  0
LINE
  5
254
330
1F
100
AcDbEntity
  8
0-B_寸法
  6
Continuous
 62
   120
370
     5
100
AcDbLine
 10
-200.0818283164182
 20
-290.9999919582054
 30
0.0
 11
-830.0818280790063
 21
-290.9999919582054
 31
0.0
  0
MTEXT
  5
255
330
1F
100
AcDbEntity
  8
0-B_寸法
  6
Continuous
 62
     7
370
     0
100
AcDbMText
 10
-217.8344671201814
 20
-296.8526163481265
 30
0.0
 40
91.44
 41
60.0
 46
0.0
 71
     7
 72
     1
  1
{\fＭＳ ゴシック|b0|i0|c128|p49;8}
 11
6.123031769111886E-17
 21
1.0
 31
0.0
 73
     1
 44
1.0
  0
LINE
  5
256
330
1F
100
AcDbEntity
  8
0-B_寸法
  6
Continuous
 62
   120
370
     5
100
AcDbLine
 10
-410.0818283164183
 20
-338.9999919582027
 30
0.0
 11
-410.0818283164183
 21
-3087.000197951854
 31
0.0
  0
LINE
  5
257
330
1F
100
AcDbEntity
  8
0-B_寸法
  6
Continuous
 62
   120
370
     5
100
AcDbLine
 10
-200.0818283164182
 20
-290.9999919582054
 30
0.0
 11
-200.0818283164182
 21
-3159.000197951857
 31
0.0
  0
MTEXT
  5
258
330
1F
100
AcDbEntity
  8
0-B_寸法
  6
Continuous
 62
     7
370
   211
100
AcDbMText
 10
-2125.225075345227
 20
-440.2800119853649
 30
0.0
 40
91.44000000000001
 41
60.0
 46
0.0
 71
     7
 72
     1
  1
{\fＭＳ ゴシック|b0|i0|c128|p49;9}
 11
6.123031769111886E-17
 21
1.0
 31
0.0
 73
     1
 44
1.0
  0
LINE
  5
259
330
1F
100
AcDbEntity
  8
0-B_寸法
  6
Continuous
 62
   120
370
     5
100
AcDbLine
 10
-2290.225075345227
 20
-338.9999919582036
 30
0.0
 11
-1930.225075345227
 21
-338.9999919582036
 31
0.0
  0
LINE
  5
25A
330
1F
100
AcDbEntity
  8
0-B_寸法
  6
Continuous
 62
   120
370
     5
100
AcDbLine
 10
-2110.225075345227
 20
-369.0000320125267
 30
0.0
 11
-1930.225075345227
 21
-369.0000320125267
 31
0.0
  0
LINE
  5
25B
330
1F
100
AcDbEntity
  8
0-B_寸法
  6
Continuous
 62
   120
370
     5
100
AcDbLine
 10
-2110.225075345227
 20
-422.9999919582039
 30
0.0
 11
-1930.225075345227
 21
-422.9999919582039
 31
0.0
  0
LWPOLYLINE
  5
25C
330
1F
100
AcDbEntity
  8
0-B_寸法
  6
Continuous
 62
     7
370
     9
100
AcDbPolyline
 90
        4
 70
     1
 43
3.0
 10
-2108.725075345227
 20
-338.9999919582036
 42
0.4142135623731
 10
-2110.225075345227
 20
-337.4999919582036
 42
0.4142135623731
 10
-2111.725075345227
 20
-338.9999919582036
 42
0.4142135623731
 10
-2110.225075345227
 20
-340.4999919582036
 42
0.4142135623731
  0
LWPOLYLINE
  5
25D
330
1F
100
AcDbEntity
  8
0-B_寸法
  6
Continuous
 62
     7
370
     9
100
AcDbPolyline
 90
        4
 70
     1
 43
3.0
 10
-2108.725075345227
 20
-369.0000320125267
 42
0.4142135623731
 10
-2110.225075345227
 20
-367.5000320125267
 42
0.4142135623731
 10
-2111.725075345227
 20
-369.0000320125267
 42
0.4142135623731
 10
-2110.225075345227
 20
-370.5000320125267
 42
0.4142135623731
  0
LWPOLYLINE
  5
25E
330
1F
100
AcDbEntity
  8
0-B_寸法
  6
Continuous
 62
     7
370
     9
100
AcDbPolyline
 90
        4
 70
     1
 43
3.0
 10
-2108.725075345227
 20
-422.9999919582039
 42
0.4142135623731
 10
-2110.225075345227
 20
-421.4999919582039
 42
0.4142135623731
 10
-2111.725075345227
 20
-422.9999919582039
 42
0.4142135623731
 10
-2110.225075345227
 20
-424.4999919582039
 42
0.4142135623731
  0
LWPOLYLINE
  5
25F
330
1F
100
AcDbEntity
  8
0-B_寸法
  6
Continuous
 62
     7
370
     9
100
AcDbPolyline
 90
        4
 70
     1
 43
3.0
 10
-2288.725075345227
 20
-338.9999919582036
 42
0.4142135623731
 10
-2290.225075345227
 20
-337.4999919582036
 42
0.4142135623731
 10
-2291.725075345227
 20
-338.9999919582036
 42
0.4142135623731
 10
-2290.225075345227
 20
-340.4999919582036
 42
0.4142135623731
  0
LINE
  5
260
330
1F
100
AcDbEntity
  8
0-B_寸法
  6
Continuous
 62
   120
370
     5
100
AcDbLine
 10
-2290.225075345227
 20
-464.9999919582048
 30
0.0
 11
-1930.225075345227
 21
-464.9999919582048
 31
0.0
  0
LWPOLYLINE
  5
261
330
1F
100
AcDbEntity
  8
0-B_寸法
  6
Continuous
 62
     7
370
     9
100
AcDbPolyline
 90
        4
 70
     1
 43
3.0
 10
-2108.725075345227
 20
-464.9999919582048
 42
0.4142135623731
 10
-2110.225075345227
 20
-463.4999919582048
 42
0.4142135623731
 10
-2111.725075345227
 20
-464.9999919582048
 42
0.4142135623731
 10
-2110.225075345227
 20
-466.4999919582048
 42
0.4142135623731
  0
LWPOLYLINE
  5
262
330
1F
100
AcDbEntity
  8
0-B_寸法
  6
Continuous
 62
     7
370
     9
100
AcDbPolyline
 90
        4
 70
     1
 43
3.0
 10
-2288.725075345227
 20
-464.9999919582048
 42
0.4142135623731
 10
-2290.225075345227
 20
-463.4999919582048
 42
0.4142135623731
 10
-2291.725075345227
 20
-464.9999919582048
 42
0.4142135623731
 10
-2290.225075345227
 20
-466.4999919582048
 42
0.4142135623731
  0
MTEXT
  5
263
330
1F
100
AcDbEntity
  8
0-B_寸法
  6
Continuous
 62
     7
370
   211
100
AcDbMText
 10
-2125.225075345227
 20
-560.0139165891774
 30
0.0
 40
91.44000000000017
 41
60.00000000000011
 46
0.0
 71
     7
 72
     1
  1
{\fＭＳ ゴシック|b0|i0|c128|p49;7}
 11
6.123031769111886E-17
 21
1.0
 31
0.0
 73
     1
 44
1.0
  0
LINE
  5
264
330
1F
100
AcDbEntity
  8
0-B_寸法
  6
Continuous
 62
   120
370
     5
100
AcDbLine
 10
-2290.225075345227
 20
-338.9999919582036
 30
0.0
 11
-2290.225075345227
 21
-464.9999919582048
 31
0.0
  0
LINE
  5
265
330
1F
100
AcDbEntity
  8
0-B_寸法
  6
Continuous
 62
   120
370
     5
100
AcDbLine
 10
-2110.225075345227
 20
-338.9999919582036
 30
0.0
 11
-2110.225075345227
 21
-574.099177475954
 31
0.0
  0
LINE
  5
266
330
1F
100
AcDbEntity
  8
0-0_補助線
  6
Continuous
 62
   120
370
     5
100
AcDbLine
 10
-1289.906213697651
 20
-462.0004268336937
 30
0.0
 11
-1250.905778822163
 21
-422.9999919582039
 31
0.0
  0
LINE
  5
267
330
1F
100
AcDbEntity
  8
0-0_補助線
  6
Continuous
 62
   200
370
    20
100
AcDbLine
 10
-1441.756058316418
 20
-500.9999919582054
 30
0.0
 11
-1225.756058316417
 21
-500.9999919582054
 31
0.0
  0
LINE
  5
268
330
1F
100
AcDbEntity
  8
0-0_補助線
  6
Continuous
 62
   120
370
     5
100
AcDbLine
 10
-1456.631931887316
 20
-450.5352361643637
 30
0.0
 11
-1345.096687681164
 21
-338.9999919582121
 31
0.0
  0
LINE
  5
269
330
1F
100
AcDbEntity
  8
0-0_補助線
  6
Continuous
 62
    92
370
    13
100
AcDbLine
 10
-1456.631931887316
 20
-414.0000949550328
 30
0.0
 11
-1478.831931887316
 21
-414.0000949550328
 31
0.0
  0
LINE
  5
26A
330
1F
100
AcDbEntity
  8
0-0_補助線
  6
Continuous
 62
    92
370
    13
100
AcDbLine
 10
-1478.831931887316
 20
-464.9999919582056
 30
0.0
 11
-1590.431931887315
 21
-464.9999919582056
 31
0.0
  0
LINE
  5
26B
330
1F
100
AcDbEntity
  8
0-0_補助線
  6
Continuous
 62
    92
370
    13
100
AcDbLine
 10
-1456.631931887316
 20
-414.0000949550328
 30
0.0
 11
-1456.631931887316
 21
-465.0000949550316
 31
0.0
  0
LINE
  5
26C
330
1F
100
AcDbEntity
  8
0-0_補助線
  6
Continuous
 62
    92
370
    13
100
AcDbLine
 10
-1478.831931887316
 20
-464.9999919582056
 30
0.0
 11
-1478.831931887316
 21
-414.0000949550328
 31
0.0
  0
LINE
  5
26D
330
1F
100
AcDbEntity
  8
0-0_補助線
  6
Continuous
 62
    92
370
    13
100
AcDbLine
 10
-1590.431931887315
 20
-464.9999919582056
 30
0.0
 11
-1590.431931887315
 21
-413.9999919582059
 31
0.0
  0
LINE
  5
26E
330
1F
100
AcDbEntity
  8
0-0_補助線
  6
Continuous
 62
    92
370
    13
100
AcDbLine
 10
-1590.431931887315
 20
-413.9999919582059
 30
0.0
 11
-1612.631931887316
 21
-413.9999919582059
 31
0.0
  0
LINE
  5
26F
330
1F
100
AcDbEntity
  8
0-0_補助線
  6
Continuous
 62
    92
370
    13
100
AcDbLine
 10
-1612.631931887316
 20
-413.9999919582059
 30
0.0
 11
-1612.631931887316
 21
-465.0000949550316
 31
0.0
  0
ARC
  5
270
330
1F
100
AcDbEntity
  8
0-0_補助線
  6
Continuous
 62
     7
370
     9
100
AcDbCircle
 10
-1480.331931887317
 20
-495.959991958205
 30
0.0
 40
7.199999999999999
100
AcDbArc
 50
342.6701739020166
 51
41.40962210927217
  0
LINE
  5
271
330
1F
100
AcDbEntity
  8
0-0_補助線
  6
Continuous
 62
     7
370
     9
100
AcDbLine
 10
-1472.531931887317
 20
-515.9999919582048
 30
0.0
 11
-1472.531931887317
 21
-491.999991958204
 31
0.0
  0
LINE
  5
272
330
1F
100
AcDbEntity
  8
0-0_補助線
  6
Continuous
 62
     7
370
     9
100
AcDbLine
 10
-1610.531931887314
 20
-515.9999919582048
 30
0.0
 11
-1610.531931887314
 21
-503.3999919582056
 31
0.0
  0
LINE
  5
273
330
1F
100
AcDbEntity
  8
0-0_補助線
  6
Continuous
 62
     7
370
     9
100
AcDbLine
 10
-1610.531931887314
 20
-503.3999919582056
 30
0.0
 11
-1598.531931887315
 21
-503.3999919582056
 31
0.0
  0
LINE
  5
274
330
1F
100
AcDbEntity
  8
0-0_補助線
  6
Continuous
 62
     7
370
     9
100
AcDbLine
 10
-1598.531931887315
 20
-503.3999919582056
 30
0.0
 11
-1598.531931887315
 21
-496.1999919582053
 31
0.0
  0
LINE
  5
275
330
1F
100
AcDbEntity
  8
0-0_補助線
  6
Continuous
 62
     7
370
     9
100
AcDbLine
 10
-1598.531931887315
 20
-496.1999919582053
 30
0.0
 11
-1610.531931887314
 21
-496.1999919582053
 31
0.0
  0
LINE
  5
276
330
1F
100
AcDbEntity
  8
0-0_補助線
  6
Continuous
 62
     7
370
     9
100
AcDbLine
 10
-1610.531931887314
 20
-496.1999919582053
 30
0.0
 11
-1610.531931887314
 21
-479.9999919582056
 31
0.0
  0
ARC
  5
277
330
1F
100
AcDbEntity
  8
0-0_補助線
  6
Continuous
 62
     7
370
     9
100
AcDbCircle
 10
-1617.731931887315
 20
-466.7999919582056
 30
0.0
 40
1.8
100
AcDbArc
 50
41.34777721969273
 51
180.0
  0
LINE
  5
278
330
1F
100
AcDbEntity
  8
0-0_補助線
  6
Continuous
 62
     7
370
     9
100
AcDbLine
 10
-1619.531931887316
 20
-518.9999919582051
 30
0.0
 11
-1619.531931887316
 21
-466.7999919582056
 31
0.0
  0
ARC
  5
279
330
1F
100
AcDbEntity
  8
0-0_補助線
  6
Continuous
 62
     7
370
     9
100
AcDbCircle
 10
-1613.531931887317
 20
-518.9999919582051
 30
0.0
 40
6.0
100
AcDbArc
 50
180.0
 51
270.0
  0
LINE
  5
27A
330
1F
100
AcDbEntity
  8
0-0_補助線
  6
Continuous
 62
     7
370
     9
100
AcDbLine
 10
-1444.872969978371
 20
-484.8316019219272
 30
0.0
 11
-1463.531931887317
 21
-521.9999919582041
 31
0.0
  0
LINE
  5
27B
330
1F
100
AcDbEntity
  8
0-0_補助線
  6
Continuous
 62
     7
370
     9
100
AcDbLine
 10
-1454.531931887316
 20
-469.1999919582043
 30
0.0
 11
-1463.531931887317
 21
-469.1999919582043
 31
0.0
  0
ARC
  5
27C
330
1F
100
AcDbEntity
  8
0-0_補助線
  6
Continuous
 62
     7
370
     9
100
AcDbCircle
 10
-1466.531931887316
 20
-521.9999919582041
 30
0.0
 40
3.0
100
AcDbArc
 50
270.0
 51
0.0
  0
LINE
  5
27D
330
1F
100
AcDbEntity
  8
0-0_補助線
  6
Continuous
 62
     7
370
     9
100
AcDbLine
 10
-1463.531931887317
 20
-479.9999919582039
 30
0.0
 11
-1467.731931887315
 21
-479.9999919582039
 31
0.0
  0
LINE
  5
27E
330
1F
100
AcDbEntity
  8
0-0_補助線
  6
Continuous
 62
     7
370
     9
100
AcDbLine
 10
-1472.531931887317
 20
-515.9999919582048
 30
0.0
 11
-1610.531931887314
 21
-515.9999919582048
 31
0.0
  0
LINE
  5
27F
330
1F
100
AcDbEntity
  8
0-0_補助線
  6
Continuous
 62
     7
370
     9
100
AcDbLine
 10
-1463.531931887317
 20
-521.9999919582041
 30
0.0
 11
-1463.531931887317
 21
-479.9999919582039
 31
0.0
  0
LINE
  5
280
330
1F
100
AcDbEntity
  8
0-0_補助線
  6
Continuous
 62
     7
370
     9
100
AcDbLine
 10
-1613.531931887317
 20
-524.9999919582056
 30
0.0
 11
-1466.531931887316
 21
-524.9999919582043
 31
0.0
  0
ARC
  5
281
330
1F
100
AcDbEntity
  8
0-0_補助線
  6
Continuous
 62
     7
370
     9
100
AcDbCircle
 10
-1454.531931887316
 20
-479.9999919582039
 30
0.0
 40
10.8
100
AcDbArc
 50
333.4248464959397
 51
89.99999999999994
  0
ARC
  5
282
330
1F
100
AcDbEntity
  8
0-0_補助線
  6
Continuous
 62
     7
370
     9
100
AcDbCircle
 10
-1454.531931887316
 20
-479.9999919582039
 30
0.0
 40
6.6
100
AcDbArc
 50
333.4248464959397
 51
89.99999999999994
  0
LINE
  5
283
330
1F
100
AcDbEntity
  8
0-0_補助線
  6
Continuous
 62
     7
370
     9
100
AcDbLine
 10
-1448.626539094416
 20
-482.9472667895613
 30
0.0
 11
-1463.531931887317
 21
-512.6385998698229
 31
0.0
  0
LINE
  5
284
330
1F
100
AcDbEntity
  8
0-0_補助線
  6
Continuous
 62
     7
370
     9
100
AcDbLine
 10
-1605.731931887315
 20
-464.9999919582056
 30
0.0
 11
-1607.231931887317
 21
-464.9999919582056
 31
0.0
  0
LINE
  5
285
330
1F
100
AcDbEntity
  8
0-0_補助線
  6
Continuous
 62
     7
370
     9
100
AcDbLine
 10
-1607.231931887317
 20
-464.9999919582056
 30
0.0
 11
-1607.231931887317
 21
-479.9999919582056
 31
0.0
  0
LINE
  5
286
330
1F
100
AcDbEntity
  8
0-0_補助線
  6
Continuous
 62
     7
370
     9
100
AcDbLine
 10
-1605.731931887315
 20
-464.9999919582056
 30
0.0
 11
-1605.731931887315
 21
-437.9999919582054
 31
0.0
  0
ARC
  5
287
330
1F
100
AcDbEntity
  8
0-0_補助線
  6
Continuous
 62
     7
370
     9
100
AcDbCircle
 10
-1604.231931887316
 20
-491.3999919582046
 30
0.0
 40
3.600000000000001
100
AcDbArc
 50
196.7900255983375
 51
270.0
  0
ARC
  5
288
330
1F
100
AcDbEntity
  8
0-0_補助線
  6
Continuous
 62
     7
370
     9
100
AcDbCircle
 10
-1604.231931887316
 20
-491.3999919582046
 30
0.0
 40
3.600000000000001
100
AcDbArc
 50
270.0
 51
23.33765268897096
  0
LINE
  5
289
330
1F
100
AcDbEntity
  8
0-0_補助線
  6
Continuous
 62
     7
370
     9
100
AcDbLine
 10
-1602.722285592532
 20
-485.0046139622558
 30
0.0
 11
-1600.8477069306
 21
-490.1723839416369
 31
0.0
  0
ARC
  5
28A
330
1F
100
AcDbEntity
  8
0-0_補助線
  6
Continuous
 62
     7
370
     9
100
AcDbCircle
 10
-1606.031931887315
 20
-479.9999919582056
 30
0.0
 40
5.999999999999659
100
AcDbArc
 50
303.4773790501727
 51
0.0000000000000127
  0
LINE
  5
28B
330
1F
100
AcDbEntity
  8
0-0_補助線
  6
Continuous
 62
     7
370
     9
100
AcDbLine
 10
-1605.731931887315
 20
-437.9999919582054
 30
0.0
 11
-1612.631931887316
 21
-437.9999919582054
 31
0.0
  0
LINE
  5
28C
330
1F
100
AcDbEntity
  8
0-0_補助線
  6
Continuous
 62
     7
370
     9
100
AcDbLine
 10
-1592.231931887317
 20
-437.9999919582054
 30
0.0
 11
-1596.731931887316
 21
-437.9999919582054
 31
0.0
  0
LINE
  5
28D
330
1F
100
AcDbEntity
  8
0-0_補助線
  6
Continuous
 62
     7
370
     9
100
AcDbLine
 10
-1596.731931887316
 20
-437.9999919582054
 30
0.0
 11
-1596.731931887316
 21
-464.9999919582056
 31
0.0
  0
LINE
  5
28E
330
1F
100
AcDbEntity
  8
0-0_補助線
  6
Continuous
 62
     7
370
     9
100
AcDbLine
 10
-1592.231931887317
 20
-437.9999919582054
 30
0.0
 11
-1601.231931887316
 21
-419.9999919582056
 31
0.0
  0
LINE
  5
28F
330
1F
100
AcDbEntity
  8
0-0_補助線
  6
Continuous
 62
     7
370
     9
100
AcDbLine
 10
-1601.231931887316
 20
-419.9999919582056
 30
0.0
 11
-1612.631931887316
 21
-437.9999919582054
 31
0.0
  0
LINE
  5
290
330
1F
100
AcDbEntity
  8
0-0_補助線
  6
Continuous
 62
     7
370
     9
100
AcDbLine
 10
-1600.031931887317
 20
-476.999991958204
 30
0.0
 11
-1600.031931887317
 21
-479.9999919582056
 31
0.0
  0
ARC
  5
291
330
1F
100
AcDbEntity
  8
0-0_補助線
  6
Continuous
 62
     7
370
     9
100
AcDbCircle
 10
-1597.031931887316
 20
-476.999991958204
 30
0.0
 40
3.0
100
AcDbArc
 50
90.0
 51
180.0
  0
ARC
  5
292
330
1F
100
AcDbEntity
  8
0-0_補助線
  6
Continuous
 62
     7
370
     9
100
AcDbCircle
 10
-1487.531931887315
 20
-476.999991958204
 30
0.0
 40
3.0
100
AcDbArc
 50
0.0000000000000035
 51
90.0
  0
LINE
  5
293
330
1F
100
AcDbEntity
  8
0-0_補助線
  6
Continuous
 62
     7
370
     9
100
AcDbLine
 10
-1484.531931887316
 20
-476.999991958204
 30
0.0
 11
-1484.531931887316
 21
-488.7599919582048
 31
0.0
  0
LINE
  5
294
330
1F
100
AcDbEntity
  8
0-0_補助線
  6
Continuous
 62
     7
370
     9
100
AcDbLine
 10
-1487.531931887315
 20
-473.999991958205
 30
0.0
 11
-1597.031931887316
 21
-473.999991958205
 31
0.0
  0
ARC
  5
295
330
1F
100
AcDbEntity
  8
0-0_補助線
  6
Continuous
 62
     7
370
     9
100
AcDbCircle
 10
-1477.331931887316
 20
-488.7599919582048
 30
0.0
 40
7.199999999999999
100
AcDbArc
 50
180.0
 51
237.2112623503457
  0
LINE
  5
296
330
1F
100
AcDbEntity
  8
0-0_補助線
  6
Continuous
 62
     7
370
     9
100
AcDbLine
 10
-1481.231041298419
 20
-494.8128380491142
 30
0.0
 11
-1486.141276451783
 21
-510.5489299439964
 31
0.0
  0
ARC
  5
297
330
1F
100
AcDbEntity
  8
0-0_補助線
  6
Continuous
 62
     7
370
     9
100
AcDbCircle
 10
-1482.131931887315
 20
-511.7999919582048
 30
0.0
 40
4.2
100
AcDbArc
 50
162.6701702617455
 51
342.6701720818837
  0
LINE
  5
298
330
1F
100
AcDbEntity
  8
0-0_補助線
  6
Continuous
 62
     7
370
     9
100
AcDbLine
 10
-1473.458769640543
 20
-498.1046692601635
 30
0.0
 11
-1478.122587243367
 21
-513.051053717681
 31
0.0
  0
ARC
  5
299
330
1F
100
AcDbEntity
  8
0-0_補助線
  6
Continuous
 62
     7
370
     9
100
AcDbCircle
 10
-1471.331931887316
 20
-488.0227380250097
 30
0.0
 40
4.800000000000001
100
AcDbArc
 50
180.0
 51
221.40962210927
  0
LINE
  5
29A
330
1F
100
AcDbEntity
  8
0-0_補助線
  6
Continuous
 62
     7
370
     9
100
AcDbLine
 10
-1476.131931887317
 20
-473.999991958205
 30
0.0
 11
-1476.131931887317
 21
-488.0227380250097
 31
0.0
  0
LINE
  5
29B
330
1F
100
AcDbEntity
  8
0-0_補助線
  6
Continuous
 62
     7
370
     9
100
AcDbLine
 10
-1469.531931887316
 20
-473.999991958205
 30
0.0
 11
-1476.131931887317
 21
-473.999991958205
 31
0.0
  0
LINE
  5
29C
330
1F
100
AcDbEntity
  8
0-0_補助線
  6
Continuous
 62
     7
370
     9
100
AcDbLine
 10
-1469.531931887316
 20
-469.1999919582043
 30
0.0
 11
-1469.531931887316
 21
-473.999991958205
 31
0.0
  0
LINE
  5
29D
330
1F
100
AcDbEntity
  8
0-0_補助線
  6
Continuous
 62
     7
370
     9
100
AcDbLine
 10
-1463.531931887317
 20
-469.1999919582043
 30
0.0
 11
-1469.531931887316
 21
-469.1999919582043
 31
0.0
  0
LINE
  5
29E
330
1F
100
AcDbEntity
  8
0-0_補助線
  6
Continuous
 62
     7
370
     9
100
AcDbLine
 10
-1463.531931887317
 20
-469.1999919582043
 30
0.0
 11
-1463.531931887317
 21
-437.9999919582045
 31
0.0
  0
LINE
  5
29F
330
1F
100
AcDbEntity
  8
0-0_補助線
  6
Continuous
 62
     7
370
     9
100
AcDbLine
 10
-1472.531931887317
 20
-464.9999919582039
 30
0.0
 11
-1596.731931887316
 21
-464.9999919582056
 31
0.0
  0
LINE
  5
2A0
330
1F
100
AcDbEntity
  8
0-0_補助線
  6
Continuous
 62
     7
370
     9
100
AcDbLine
 10
-1468.031931887314
 20
-419.9999919582039
 30
0.0
 11
-1456.631931887316
 21
-437.9999919582045
 31
0.0
  0
LINE
  5
2A1
330
1F
100
AcDbEntity
  8
0-0_補助線
  6
Continuous
 62
     7
370
     9
100
AcDbLine
 10
-1477.031931887316
 20
-437.9999919582045
 30
0.0
 11
-1468.031931887314
 21
-419.9999919582039
 31
0.0
  0
LINE
  5
2A2
330
1F
100
AcDbEntity
  8
0-0_補助線
  6
Continuous
 62
     7
370
     9
100
AcDbLine
 10
-1472.531931887317
 20
-437.9999919582045
 30
0.0
 11
-1472.531931887317
 21
-464.9999919582039
 31
0.0
  0
LINE
  5
2A3
330
1F
100
AcDbEntity
  8
0-0_補助線
  6
Continuous
 62
     7
370
     9
100
AcDbLine
 10
-1477.031931887316
 20
-437.9999919582045
 30
0.0
 11
-1472.531931887317
 21
-437.9999919582045
 31
0.0
  0
LINE
  5
2A4
330
1F
100
AcDbEntity
  8
0-0_補助線
  6
Continuous
 62
     7
370
     9
100
AcDbLine
 10
-1463.531931887317
 20
-437.9999919582045
 30
0.0
 11
-1456.631931887316
 21
-437.9999919582045
 31
0.0
  0
LINE
  5
2A5
330
1F
100
AcDbEntity
  8
0-0_補助線
  6
Continuous
 62
     7
370
     9
100
AcDbLine
 10
-1454.531931887316
 20
-473.3999919582047
 30
0.0
 11
-1469.531931887316
 21
-473.3999919582047
 31
0.0
  0
ARC
  5
2A6
330
1F
100
AcDbEntity
  8
0-0_補助線
  6
Continuous
 62
     7
370
     9
100
AcDbCircle
 10
-1472.82940764082
 20
-488.999991958205
 30
0.0
 40
3.0
100
AcDbArc
 50
143.6152131060223
 51
270.0
  0
LINE
  5
2A7
330
1F
100
AcDbEntity
  8
0-0_補助線
  6
Continuous
 62
     7
370
     9
100
AcDbLine
 10
-1467.731931887315
 20
-479.9999919582039
 30
0.0
 11
-1475.244561639359
 21
-487.2203765044211
 31
0.0
  0
LINE
  5
2A8
330
1F
100
AcDbEntity
  8
0-0_補助線
  6
Continuous
 62
     7
370
     9
100
AcDbLine
 10
-1472.82940764082
 20
-491.999991958204
 30
0.0
 11
-1472.531931887317
 21
-491.999991958204
 31
0.0
  0
LINE
  5
2A9
330
1F
100
AcDbEntity
  8
0-0_補助線
  6
Continuous
 62
     7
370
     9
100
AcDbLine
 10
-1609.031931887316
 20
-479.9999919582056
 30
0.0
 11
-1610.531931887314
 21
-479.9999919582056
 31
0.0
  0
ARC
  5
2AA
330
1F
100
AcDbEntity
  8
0-0_補助線
  6
Continuous
 62
     7
370
     9
100
AcDbCircle
 10
-1609.031931887316
 20
-478.1999919582055
 30
0.0
 40
1.8
100
AcDbArc
 50
270.0
 51
41.34777721969354
  0
LINE
  5
2AB
330
1F
100
AcDbEntity
  8
0-0_補助線
  6
Continuous
 62
     7
370
     9
100
AcDbLine
 10
-1616.380647556857
 20
-465.6108617473996
 30
0.0
 11
-1607.680647556856
 21
-477.0108617473995
 31
0.0
  0
LINE
  5
2AC
330
1F
100
AcDbEntity
  8
0-0_補助線
  6
Continuous
 62
     7
370
     9
100
AcDbLine
 10
-1608.731931887316
 20
-479.9999919582056
 30
0.0
 11
-1607.231931887317
 21
-479.9999919582056
 31
0.0
  0
LINE
  5
2AD
330
1F
100
AcDbEntity
  8
0-0_補助線
  6
Continuous
 62
     7
370
     9
100
AcDbLine
 10
-1610.455197526342
 20
-482.3199492039053
 30
0.0
 11
-1607.616156839494
 21
-492.6275999872806
 31
0.0
  0
ARC
  5
2AE
330
1F
100
AcDbEntity
  8
0-0_補助線
  6
Continuous
 62
     7
370
     9
100
AcDbCircle
 10
-1608.731931887316
 20
-481.7999919582056
 30
0.0
 40
1.8
100
AcDbArc
 50
90.0
 51
196.7900255983358
  0
LINE
  5
2AF
330
1F
100
AcDbEntity
  8
0-0_補助線
  6
Continuous
 62
   120
370
     5
100
AcDbLine
 10
-1824.478940274641
 20
-462.0004268336937
 30
0.0
 11
-1701.478505399147
 21
-338.999991958201
 31
0.0
  0
LINE
  5
2B0
330
1F
100
AcDbEntity
  8
0-0_補助線
  6
Continuous
 62
   120
370
     5
100
AcDbLine
 10
-1765.081970654993
 20
-462.0004268336937
 30
0.0
 11
-1642.081535779517
 21
-338.9999919582164
 31
0.0
  0
LINE
  5
2B1
330
1F
100
AcDbEntity
  8
0-0_補助線
  6
Continuous
 62
   120
370
     5
100
AcDbLine
 10
-1705.685001035345
 20
-462.0004268336937
 30
0.0
 11
-1582.68456615986
 21
-338.9999919582053
 31
0.0
  0
LINE
  5
2B2
330
1F
100
AcDbEntity
  8
0-0_補助線
  6
Continuous
 62
   120
370
     5
100
AcDbLine
 10
-1586.891061795995
 20
-462.0004268336937
 30
0.0
 11
-1463.89062692051
 21
-338.9999919582095
 31
0.0
  0
LINE
  5
2B3
330
1F
100
AcDbEntity
  8
0-0_補助線
  6
Continuous
 62
   120
370
     5
100
AcDbLine
 10
-1527.494092176295
 20
-462.0004268336937
 30
0.0
 11
-1404.493657300805
 21
-338.9999919582027
 31
0.0
  0
LINE
  5
2B4
330
1F
100
AcDbEntity
  8
0-0_補助線
  6
Continuous
 62
   120
370
     5
100
AcDbLine
 10
-1408.700152936945
 20
-462.0004268336937
 30
0.0
 11
-1285.699718061463
 21
-338.9999919582095
 31
0.0
  0
LINE
  5
2B5
330
1F
100
AcDbEntity
  8
0-0_補助線
  6
Continuous
 62
   120
370
     5
100
AcDbLine
 10
-1646.288031415645
 20
-462.0004268336937
 30
0.0
 11
-1612.631931887316
 21
-428.3443273053653
 31
0.0
  0
LINE
  5
2B6
330
1F
100
AcDbEntity
  8
0-0_補助線
  6
Continuous
 62
   120
370
     5
100
AcDbLine
 10
-1598.287596540157
 20
-413.9999919582062
 30
0.0
 11
-1523.287596540147
 21
-338.9999919581976
 31
0.0
  0
LINE
  5
2B7
330
1F
100
AcDbEntity
  8
0-0_補助線
  6
Continuous
 62
   120
370
     5
100
AcDbLine
 10
-1813.756058316417
 20
-391.8805752557664
 30
0.0
 11
-1760.875475018863
 21
-338.9999919582138
 31
0.0
  0
LINE
  5
2B8
330
1F
100
AcDbEntity
  8
0-0_補助線
  6
Continuous
 62
    92
370
    13
100
AcDbLine
 10
-1819.756058316417
 20
-422.9999919582039
 30
0.0
 11
-1879.756058316417
 21
-422.9999919582039
 31
0.0
  0
LINE
  5
2B9
330
1F
100
AcDbEntity
  8
0-0_補助線
  6
Continuous
 62
    92
370
    13
100
AcDbLine
 10
-1819.756058316417
 20
-368.9999919582053
 30
0.0
 11
-1819.756058316417
 21
-422.9999919582039
 31
0.0
  0
LINE
  5
2BA
330
1F
100
AcDbEntity
  8
0-0_補助線
  6
Continuous
 62
    92
370
    13
100
AcDbLine
 10
-1819.756058316417
 20
-368.9999919582053
 30
0.0
 11
-1879.756058316417
 21
-368.9999919582053
 31
0.0
  0
LINE
  5
2BB
330
1F
100
AcDbEntity
  8
0-0_補助線
  6
Continuous
 62
   120
370
     5
100
AcDbLine
 10
-1856.27244463857
 20
-368.9999919582051
 30
0.0
 11
-1826.272444638578
 21
-338.9999919582138
 31
0.0
  0
LINE
  5
2BC
330
1F
100
AcDbEntity
  8
0-0_補助線
  6
Continuous
 62
   120
370
     5
100
AcDbLine
 10
-1876.756493191906
 20
-454.8810101312556
 30
0.0
 11
-1844.875475018855
 21
-422.9999919582056
 31
0.0
  0
LINE
  5
2BD
330
1F
100
AcDbEntity
  8
0-0_補助線
  6
Continuous
 62
    92
370
    13
100
AcDbLine
 10
-1876.756493191906
 20
-422.9999919582039
 30
0.0
 11
-1876.756493191906
 21
-462.0004268336937
 31
0.0
  0
LINE
  5
2BE
330
1F
100
AcDbEntity
  8
0-0_補助線
  6
Continuous
 62
    92
370
    13
100
AcDbLine
 10
-1876.756493191906
 20
-462.0004268336937
 30
0.0
 11
-1612.631931887316
 21
-462.0004268336937
 31
0.0
  0
LINE
  5
2BF
330
1F
100
AcDbEntity
  8
0-0_補助線
  6
Continuous
 62
    92
370
    13
100
AcDbLine
 10
-1879.756058316417
 20
-464.9999919582039
 30
0.0
 11
-1612.631931887316
 21
-464.9999919582039
 31
0.0
  0
LINE
  5
2C0
330
1F
100
AcDbEntity
  8
0-0_補助線
  6
Continuous
 62
    92
370
    13
100
AcDbLine
 10
-1879.756058316417
 20
-422.9999919582039
 30
0.0
 11
-1879.756058316417
 21
-464.9999919582039
 31
0.0
  0
LINE
  5
2C1
330
1F
100
AcDbEntity
  8
0-0_補助線
  6
Continuous
 62
    92
370
    13
100
AcDbLine
 10
-1879.756058316417
 20
-338.9999919582053
 30
0.0
 11
-1879.756058316417
 21
-368.9999919582053
 31
0.0
  0
LINE
  5
2C2
330
1F
100
AcDbEntity
  8
0-0_補助線
  6
Continuous
 62
    92
370
    13
100
AcDbLine
 10
-1249.755646329115
 20
-368.9999919582053
 30
0.0
 11
-1249.755646329115
 21
-422.9999919582039
 31
0.0
  0
LINE
  5
2C3
330
1F
100
AcDbEntity
  8
0-0_補助線
  6
Continuous
 62
    92
370
    13
100
AcDbLine
 10
-1189.756058316419
 20
-422.9999919582039
 30
0.0
 11
-1249.755646329115
 21
-422.9999919582039
 31
0.0
  0
LINE
  5
2C4
330
1F
100
AcDbEntity
  8
0-0_補助線
  6
Continuous
 62
    92
370
    13
100
AcDbLine
 10
-1249.755646329115
 20
-368.9999919582053
 30
0.0
 11
-1189.756058316419
 21
-368.9999919582053
 31
0.0
  0
LINE
  5
2C5
330
1F
100
AcDbEntity
  8
0-0_補助線
  6
Continuous
 62
    92
370
    13
100
AcDbLine
 10
-1192.756218533702
 20
-462.0004268336937
 30
0.0
 11
-1456.631931887316
 21
-462.0004268336937
 31
0.0
  0
LINE
  5
2C6
330
1F
100
AcDbEntity
  8
0-0_補助線
  6
Continuous
 62
    92
370
    13
100
AcDbLine
 10
-1192.756218533702
 20
-462.0004268336937
 30
0.0
 11
-1192.756218533702
 21
-422.9999919582039
 31
0.0
  0
LINE
  5
2C7
330
1F
100
AcDbEntity
  8
0-0_補助線
  6
Continuous
 62
    92
370
    13
100
AcDbLine
 10
-1189.756058316419
 20
-464.9999919582039
 30
0.0
 11
-1189.756058316419
 21
-422.9999919582039
 31
0.0
  0
LINE
  5
2C8
330
1F
100
AcDbEntity
  8
0-0_補助線
  6
Continuous
 62
    92
370
    13
100
AcDbLine
 10
-1189.756058316419
 20
-464.9999919582039
 30
0.0
 11
-1456.631931887316
 21
-464.9999919582039
 31
0.0
  0
LINE
  5
2C9
330
1F
100
AcDbEntity
  8
0-0_補助線
  6
Continuous
 62
    92
370
    13
100
AcDbLine
 10
-1189.756058316419
 20
-338.9999919582053
 30
0.0
 11
-1879.756058316417
 21
-338.9999919582053
 31
0.0
  0
LINE
  5
2CA
330
1F
100
AcDbEntity
  8
0-0_補助線
  6
Continuous
 62
    92
370
    13
100
AcDbLine
 10
-1189.756058316419
 20
-338.9999919582053
 30
0.0
 11
-1189.756058316419
 21
-368.9999919582053
 31
0.0
  0
LINE
  5
2CB
330
1F
100
AcDbEntity
  8
0-0_補助線
  6
Continuous
 62
   120
370
     5
100
AcDbLine
 10
-1349.303183317298
 20
-462.0004268336937
 30
0.0
 11
-1226.302748441812
 21
-338.9999919582053
 31
0.0
  0
LINE
  5
2CC
330
1F
100
AcDbEntity
  8
0-0_補助線
  6
Continuous
 62
   120
370
     5
100
AcDbLine
 10
-1230.509244077948
 20
-462.0004268336937
 30
0.0
 11
-1192.756218533702
 21
-424.2474012894463
 31
0.0
  0
LINE
  5
2CD
330
1F
100
AcDbEntity
  8
0-0_補助線
  6
Continuous
 62
   120
370
     5
100
AcDbLine
 10
-1879.756058316417
 20
-816.7161272645628
 30
0.0
 11
-1189.756058316419
 21
-816.7161272645628
 31
0.0
  0
LWPOLYLINE
  5
2CE
330
1F
100
AcDbEntity
  8
0-0_補助線
  6
Continuous
 62
     7
370
     9
100
AcDbPolyline
 90
        4
 70
     1
 43
3.0
 10
-1878.256058316417
 20
-816.7161272645628
 42
0.4142135623731
 10
-1879.756058316417
 20
-815.2161272645628
 42
0.4142135623731
 10
-1881.256058316417
 20
-816.7161272645628
 42
0.4142135623731
 10
-1879.756058316417
 20
-818.2161272645628
 42
0.4142135623731
  0
LWPOLYLINE
  5
2CF
330
1F
100
AcDbEntity
  8
0-0_補助線
  6
Continuous
 62
     7
370
     9
100
AcDbPolyline
 90
        4
 70
     1
 43
3.0
 10
-1188.256058316419
 20
-816.7161272645628
 42
0.4142135623731
 10
-1189.756058316419
 20
-815.2161272645628
 42
0.4142135623731
 10
-1191.256058316419
 20
-816.7161272645628
 42
0.4142135623731
 10
-1189.756058316419
 20
-818.2161272645628
 42
0.4142135623731
  0
LINE
  5
2D0
330
1F
100
AcDbEntity
  8
0-0_補助線
  6
Continuous
 62
   120
370
     5
100
AcDbLine
 10
-1879.756058316417
 20
-816.7161272645628
 30
0.0
 11
-1879.756058316417
 21
-617.2584173882867
 31
0.0
  0
LINE
  5
2D1
330
1F
100
AcDbEntity
  8
0-0_補助線
  6
Continuous
 62
   120
370
     5
100
AcDbLine
 10
-1189.756058316419
 20
-816.7161272645628
 30
0.0
 11
-1189.756058316419
 21
-617.2584173882867
 31
0.0
  0
MTEXT
  5
2D2
330
1F
100
AcDbEntity
  8
0-0_補助線
  6
Continuous
 62
     7
370
   211
100
AcDbMText
 10
-1632.256058316418
 20
-812.1861272645629
 30
0.0
 40
99.06
 41
195.0
 46
0.0
 71
     7
 72
     1
  1
{\fＭＳ ゴシック|b0|i0|c128|p49;115}
 73
     1
 44
1.0
  0
MTEXT
  5
2D3
330
1F
100
AcDbEntity
  8
0-B_寸法
  6
Continuous
 62
     7
370
   211
100
AcDbMText
 10
-2305.225075345227
 20
-460.7069884571372
 30
0.0
 40
97.155
 41
127.5
 46
0.0
 71
     7
 72
     1
  1
{\fＭＳ ゴシック|b0|i0|c128|p49;21}
 11
6.123031769111886E-17
 21
1.0
 31
0.0
 73
     1
 44
1.0
  0
MTEXT
  5
2D4
330
1F
100
AcDbEntity
  8
0-B_寸法
  6
Continuous
 62
     7
370
   211
100
AcDbMText
 10
-2125.225075345227
 20
-357.5031418221128
 30
0.0
 40
91.44000000000001
 41
60.0
 46
0.0
 71
     7
 72
     1
  1
{\fＭＳ ゴシック|b0|i0|c128|p49;5}
 11
6.123031769111886E-17
 21
1.0
 31
0.0
 73
     1
 44
1.0
  0
LINE
  5
2D5
330
1F
100
AcDbEntity
  8
0-4_枠
  6
Continuous
 62
   120
370
     5
100
AcDbLine
 10
-1873.756058316418
 20
-464.9999919582048
 30
0.0
 11
-1873.756058316418
 21
-1719.000197951857
 31
0.0
  0
LINE
  5
2D6
330
1F
100
AcDbEntity
  8
0-4_枠
  6
Continuous
 62
   120
370
     5
100
AcDbLine
 10
-1195.75605831642
 20
-464.9999919582048
 30
0.0
 11
-1195.75605831642
 21
-1719.000197951857
 31
0.0
  0
LWPOLYLINE
  5
2D7
330
1F
100
AcDbEntity
  8
0-B_寸法
  6
Continuous
 62
     7
370
     9
100
AcDbPolyline
 90
        4
 70
     1
 43
3.0
 10
-408.5818283164183
 20
-464.9999919582048
 42
0.4142135623731
 10
-410.0818283164183
 20
-463.4999919582048
 42
0.4142135623731
 10
-411.5818283164183
 20
-464.9999919582048
 42
0.4142135623731
 10
-410.0818283164183
 20
-466.4999919582048
 42
0.4142135623731
  0
LINE
  5
2D8
330
1F
100
AcDbEntity
  8
0-B_寸法
  6
Continuous
 62
   120
370
     5
100
AcDbLine
 10
-410.0818283164183
 20
-464.9999919582048
 30
0.0
 11
-830.0818280790063
 21
-464.9999919582048
 31
0.0
  0
LINE
  5
2D9
330
1F
100
AcDbEntity
  8
0-B_寸法
  6
Continuous
 62
   120
370
     5
100
AcDbLine
 10
-620.0818283164185
 20
-464.9999919582048
 30
0.0
 11
-620.0818283164185
 21
-3069.000197951857
 31
0.0
  0
LWPOLYLINE
  5
2DA
330
1F
100
AcDbEntity
  8
0-B_寸法
  6
Continuous
 62
     7
370
     9
100
AcDbPolyline
 90
        4
 70
     1
 43
3.0
 10
-618.5818283164185
 20
-464.9999919582048
 42
0.4142135623731
 10
-620.0818283164185
 20
-463.4999919582048
 42
0.4142135623731
 10
-621.5818283164185
 20
-464.9999919582048
 42
0.4142135623731
 10
-620.0818283164185
 20
-466.4999919582048
 42
0.4142135623731
  0
MTEXT
  5
2DB
330
1F
100
AcDbEntity
  8
0-B_寸法
  6
Continuous
 62
     7
370
     0
100
AcDbMText
 10
-630.4340783932621
 20
-587.8498088759313
 30
0.0
 40
91.44
 41
60.0
 46
0.0
 71
     7
 72
     1
  1
{\fＭＳ ゴシック|b0|i0|c128|p49;6}
 11
6.123031769111886E-17
 21
1.0
 31
0.0
 73
     1
 44
1.0
  0
MTEXT
  5
2DC
330
1F
100
AcDbEntity
  8
0-B_寸法
  6
Continuous
 62
     7
370
   211
100
AcDbMText
 10
-425.0818283164183
 20
-472.4967538057568
 30
0.0
 40
97.15499999999999
 41
127.5
 46
0.0
 71
     7
 72
     1
  1
{\fＭＳ ゴシック|b0|i0|c128|p49;21}
 11
6.123031769111886E-17
 21
1.0
 31
0.0
 73
     1
 44
1.0
  0
MTEXT
  5
2DD
330
1F
100
AcDbEntity
  8
0-B_寸法
  6
Continuous
 62
     7
370
   211
100
AcDbMText
 10
-425.0818283164183
 20
-2155.584743406402
 30
0.0
 40
101.8309090909091
 41
735.0
 46
0.0
 71
     7
 72
     1
  1
{\fＭＳ ゴシック|b0|i0|c128|p49;枠内＝2,011}
 11
6.123031769111886E-17
 21
1.0
 31
0.0
 73
     1
 44
1.0
  0
LINE
  5
2DE
330
1F
100
AcDbEntity
  8
0-6_扉
  6
Continuous
 62
   200
370
    20
100
AcDbLine
 10
-569.3034642003192
 20
2129.999683277028
 30
0.0
 11
-569.3034642003192
 21
2345.999683277027
 31
0.0
  0
LINE
  5
2DF
330
1F
100
AcDbEntity
  8
0-6_扉
  6
Continuous
 62
   200
370
    20
100
AcDbLine
 10
-545.3034642003206
 20
2129.999683277028
 30
0.0
 11
-545.3034642003206
 21
2345.999683277027
 31
0.0
  0
LINE
  5
2E0
330
1F
100
AcDbEntity
  8
0-B_寸法
  6
Continuous
 62
   120
370
     5
100
AcDbLine
 10
-1415.022467543537
 20
2345.999683277027
 30
0.0
 11
-1415.022467543537
 21
2129.999683277026
 31
0.0
  0
LWPOLYLINE
  5
2E1
330
1F
100
AcDbEntity
  8
0-B_寸法
  6
Continuous
 62
     7
370
     9
100
AcDbPolyline
 90
        4
 70
     1
 43
3.0
 10
-1413.522467543537
 20
2345.999683277027
 42
0.4142135623731
 10
-1415.022467543537
 20
2347.499683277027
 42
0.4142135623731
 10
-1416.522467543537
 20
2345.999683277027
 42
0.4142135623731
 10
-1415.022467543537
 20
2344.499683277027
 42
0.4142135623731
  0
LWPOLYLINE
  5
2E2
330
1F
100
AcDbEntity
  8
0-B_寸法
  6
Continuous
 62
     7
370
     9
100
AcDbPolyline
 90
        4
 70
     1
 43
3.0
 10
-1413.522467543537
 20
2129.999683277026
 42
0.4142135623731
 10
-1415.022467543537
 20
2131.499683277026
 42
0.4142135623731
 10
-1416.522467543537
 20
2129.999683277026
 42
0.4142135623731
 10
-1415.022467543537
 20
2128.499683277026
 42
0.4142135623731
  0
LINE
  5
2E3
330
1F
100
AcDbEntity
  8
0-6_扉
  6
Continuous
 62
   200
370
    20
100
AcDbLine
 10
-545.3034642003206
 20
2345.999683277027
 30
0.0
 11
-545.3034642003206
 21
2129.999683277027
 31
0.0
  0
LINE
  5
2E4
330
1F
100
AcDbEntity
  8
0-1_通り芯
  6
JWW_CENTER1
 62
     7
370
     9
100
AcDbLine
 10
-767.5142169903006
 20
2237.999683277026
 30
0.0
 11
-516.8005259777226
 21
2237.999683277026
 31
0.0
  0
CIRCLE
  5
2E5
330
1F
100
AcDbEntity
  8
0-1_通り芯
  6
Continuous
 62
     7
370
     9
100
AcDbCircle
 10
-644.3034642003141
 20
2237.999683277026
 30
0.0
 40
42.00000000000001
  0
LINE
  5
2E6
330
1F
100
AcDbEntity
  8
0-6_扉
  6
Continuous
 62
   200
370
    20
100
AcDbLine
 10
-569.3034642003192
 20
2345.999683277027
 30
0.0
 11
-569.3034642003192
 21
2129.999683277028
 31
0.0
  0
LINE
  5
2E7
330
1F
100
AcDbEntity
  8
0-6_扉
  6
Continuous
 62
   200
370
    20
100
AcDbLine
 10
2052.918171683586
 20
2345.999683277027
 30
0.0
 11
2052.918171683586
 21
2129.999683277028
 31
0.0
  0
LINE
  5
2E8
330
1F
100
AcDbEntity
  8
0-6_扉
  6
Continuous
 62
   200
370
    20
100
AcDbLine
 10
-545.3034642003206
 20
2129.999683277028
 30
0.0
 11
693.8073537416318
 21
2129.999683277028
 31
0.0
  0
LINE
  5
2E9
330
1F
100
AcDbEntity
  8
0-6_扉
  6
Continuous
 62
   200
370
    20
100
AcDbLine
 10
-545.3034642003206
 20
2345.999683277027
 30
0.0
 11
693.8073537416318
 21
2345.999683277027
 31
0.0
  0
LINE
  5
2EA
330
1F
100
AcDbEntity
  8
0-6_扉
  6
Continuous
 62
   200
370
    20
100
AcDbLine
 10
813.8073537416318
 20
2345.999683277027
 30
0.0
 11
2052.918171683586
 21
2345.999683277027
 31
0.0
  0
LINE
  5
2EB
330
1F
100
AcDbEntity
  8
0-6_扉
  6
Continuous
 62
   200
370
    20
100
AcDbLine
 10
813.8073537416318
 20
2129.999683277028
 30
0.0
 11
2052.918171683586
 21
2129.999683277028
 31
0.0
  0
MTEXT
  5
2EC
330
1F
100
AcDbEntity
  8
0-B_寸法
  6
Continuous
 62
     7
370
   211
100
AcDbMText
 10
-1430.022467543537
 20
2163.719683277026
 30
0.0
 40
91.44
 41
120.0
 46
0.0
 71
     7
 72
     1
  1
{\fＭＳ ゴシック|b0|i0|c128|p49;36}
 11
6.123031769111886E-17
 21
1.0
 31
0.0
 73
     1
 44
1.0
  0
LINE
  5
2ED
330
1F
100
AcDbEntity
  8
0-6_扉
  6
Continuous
 62
   200
370
    20
100
AcDbLine
 10
-569.3034642003192
 20
2129.999683277028
 30
0.0
 11
-2033.081828316417
 21
2129.999683277028
 31
0.0
  0
LINE
  5
2EE
330
1F
100
AcDbEntity
  8
0-6_扉
  6
Continuous
 62
   200
370
    20
100
AcDbLine
 10
-569.3034642003192
 20
2345.999683277027
 30
0.0
 11
-2033.081828316417
 21
2345.999683277027
 31
0.0
  0
LINE
  5
2EF
330
1F
100
AcDbEntity
  8
0-6_扉
  6
Continuous
 62
   200
370
    20
100
AcDbLine
 10
-2033.081828316417
 20
2129.999683277028
 30
0.0
 11
-2033.081828316417
 21
2345.999683277027
 31
0.0
  0
LINE
  5
2F0
330
1F
100
AcDbEntity
  8
0-1_通り芯
  6
JWW_CENTER1
 62
     7
370
     9
100
AcDbLine
 10
-644.3034642003141
 20
2386.773804593703
 30
0.0
 11
-644.3034642003141
 21
2091.378465677893
 31
0.0
  0
LINE
  5
2F1
330
1F
100
AcDbEntity
  8
0-B_寸法
  6
Continuous
 62
   120
370
     5
100
AcDbLine
 10
-1115.022467543537
 20
2237.999725341797
 30
0.0
 11
-1115.022467543537
 21
2438.999683277028
 31
0.0
  0
LWPOLYLINE
  5
2F2
330
1F
100
AcDbEntity
  8
0-B_寸法
  6
Continuous
 62
     7
370
     9
100
AcDbPolyline
 90
        4
 70
     1
 43
3.0
 10
-1113.522467543537
 20
2237.999725341797
 42
0.4142135623731
 10
-1115.022467543537
 20
2239.499725341797
 42
0.4142135623731
 10
-1116.522467543537
 20
2237.999725341797
 42
0.4142135623731
 10
-1115.022467543537
 20
2236.499725341797
 42
0.4142135623731
  0
LWPOLYLINE
  5
2F3
330
1F
100
AcDbEntity
  8
0-B_寸法
  6
Continuous
 62
     7
370
     9
100
AcDbPolyline
 90
        4
 70
     1
 43
3.0
 10
-1113.522467543537
 20
2438.999683277028
 42
0.4142135623731
 10
-1115.022467543537
 20
2440.499683277027
 42
0.4142135623731
 10
-1116.522467543537
 20
2438.999683277028
 42
0.4142135623731
 10
-1115.022467543537
 20
2437.499683277028
 42
0.4142135623731
  0
MTEXT
  5
2F4
330
1F
100
AcDbEntity
  8
0-B_寸法
  6
Continuous
 62
     7
370
   211
100
AcDbMText
 10
-1130.022467543537
 20
2197.255954309412
 30
0.0
 40
100.0125
 41
262.5
 46
0.0
 71
     7
 72
     1
  1
{\fＭＳ ゴシック|b0|i0|c128|p49;33.5}
 11
6.123031769111886E-17
 21
1.0
 31
0.0
 73
     1
 44
1.0
  0
LINE
  5
2F5
330
1F
100
AcDbEntity
  8
0-B_寸法
  6
Continuous
 62
   120
370
     5
100
AcDbLine
 10
-1333.756058316424
 20
-1351.14666123487
 30
0.0
 11
-1534.756058316419
 21
-1351.14666123487
 31
0.0
  0
LWPOLYLINE
  5
2F6
330
1F
100
AcDbEntity
  8
0-B_寸法
  6
Continuous
 62
     7
370
     9
100
AcDbPolyline
 90
        4
 70
     1
 43
3.0
 10
-1332.256058316424
 20
-1351.14666123487
 42
0.4142135623731
 10
-1333.756058316424
 20
-1349.64666123487
 42
0.4142135623731
 10
-1335.256058316424
 20
-1351.14666123487
 42
0.4142135623731
 10
-1333.756058316424
 20
-1352.64666123487
 42
0.4142135623731
  0
LWPOLYLINE
  5
2F7
330
1F
100
AcDbEntity
  8
0-B_寸法
  6
Continuous
 62
     7
370
     9
100
AcDbPolyline
 90
        4
 70
     1
 43
3.0
 10
-1533.256058316419
 20
-1351.14666123487
 42
0.4142135623731
 10
-1534.756058316419
 20
-1349.64666123487
 42
0.4142135623731
 10
-1536.256058316419
 20
-1351.14666123487
 42
0.4142135623731
 10
-1534.756058316419
 20
-1352.64666123487
 42
0.4142135623731
  0
MTEXT
  5
2F8
330
1F
100
AcDbEntity
  8
0-B_寸法
  6
Continuous
 62
     7
370
   211
100
AcDbMText
 10
-1565.506058316421
 20
-1346.14041123487
 30
0.0
 40
100.0125
 41
262.5
 46
0.0
 71
     7
 72
     1
  1
{\fＭＳ ゴシック|b0|i0|c128|p49;33.5}
 73
     1
 44
1.0
  0
MTEXT
  5
2F9
330
1F
100
AcDbEntity
  8
F-A_文字
  6
Continuous
 62
     7
370
     0
100
AcDbMText
 10
4889.917891251784
 20
-3945.570773120548
 30
0.0
 40
78.86699999999999
 41
517.5
 46
0.0
 71
     7
 72
     1
  1
{\fＭＳ ゴシック|b0|i0|c128|p49;2022.04.01}
 73
     1
 44
1.0
  0
LINE
  5
2FA
330
1F
100
AcDbEntity
  8
0-1_通り芯
  6
JWW_CENTER1
 62
   120
370
     5
100
AcDbLine
 10
2064.918171683585
 20
2237.999683277027
 30
0.0
 11
-2045.081828316415
 21
2237.999683277027
 31
0.0
  0
LINE
  5
2FB
330
1F
100
AcDbEntity
  8
0-1_通り芯
  6
JWW_CENTER1
 62
   120
370
     5
100
AcDbLine
 10
-1333.756058316424
 20
-464.9999919582039
 30
0.0
 11
-1333.756058316424
 21
-3087.000197951857
 31
0.0
  0
ENDSEC
  0
SECTION
  2
OBJECTS
  0
DICTIONARY
  5
C
330
0
100
AcDbDictionary
281
     1
  3
ACAD_GROUP
350
D
  3
ACAD_LAYOUT
350
1A
  3
ACAD_MATERIAL
350
3B
  3
ACAD_MLEADERSTYLE
350
30C
  3
ACAD_MLINESTYLE
350
17
  3
ACAD_PLOTSETTINGS
350
19
  3
ACAD_PLOTSTYLENAME
350
E
  3
ACAD_TABLESTYLE
350
30B
  3
ACAD_VISUALSTYLE
350
2A
  0
DICTIONARY
  5
D
102
{ACAD_REACTORS
330
C
102
}
330
C
100
AcDbDictionary
281
     1
  0
DICTIONARY
  5
1A
102
{ACAD_REACTORS
330
C
102
}
330
C
100
AcDbDictionary
281
     1
  3
Layout1
350
1E
  3
Layout2
350
26
  3
Model
350
22
  0
DICTIONARY
  5
3B
102
{ACAD_REACTORS
330
C
102
}
330
C
100
AcDbDictionary
281
     1
  3
ByBlock
350
3D
  3
ByLayer
350
3C
  3
Global
350
3E
  0
DICTIONARY
  5
30C
102
{ACAD_REACTORS
330
C
102
}
330
C
100
AcDbDictionary
281
     1
  0
DICTIONARY
  5
17
102
{ACAD_REACTORS
330
C
102
}
330
C
100
AcDbDictionary
281
     1
  3
Standard
350
18
  0
DICTIONARY
  5
19
102
{ACAD_REACTORS
330
C
102
}
330
C
100
AcDbDictionary
281
     1
  0
ACDBDICTIONARYWDFLT
  5
E
102
{ACAD_REACTORS
330
C
102
}
330
C
100
AcDbDictionary
281
     1
  3
Normal
350
F
100
AcDbDictionaryWithDefault
340
F
  0
DICTIONARY
  5
30B
102
{ACAD_REACTORS
330
C
102
}
330
C
100
AcDbDictionary
281
     1
  0
DICTIONARY
  5
2A
102
{ACAD_REACTORS
330
C
102
}
330
C
100
AcDbDictionary
281
     1
  3
2dWireframe
350
2F
  3
3D Hidden
350
31
  3
3dWireframe
350
30
  3
Basic
350
32
  3
Brighten
350
36
  3
ColorChange
350
3A
  3
Conceptual
350
34
  3
Dim
350
35
  3
Facepattern
350
39
  3
Flat
350
2B
  3
FlatWithEdges
350
2C
  3
Gouraud
350
2D
  3
GouraudWithEdges
350
2E
  3
Linepattern
350
38
  3
Realistic
350
33
  3
Thicken
350
37
  0
LAYOUT
  5
1E
102
{ACAD_REACTORS
330
1A
102
}
330
1A
100
AcDbPlotSettings
  1

  2
none_device
  4

  6

 40
0.0
 41
0.0
 42
0.0
 43
0.0
 44
0.0
 45
0.0
 46
0.0
 47
0.0
 48
0.0
 49
0.0
140
0.0
141
0.0
142
1.0
143
1.0
 70
   688
 72
     0
 73
     0
 74
     5
  7

 75
    16
 76
     0
 77
     5
 78
   300
147
1.0
148
0.0
149
0.0
100
AcDbLayout
  1
Layout1
 70
     1
 71
     1
 10
0.0
 20
0.0
 11
420.0
 21
297.0
 12
0.0
 22
0.0
 32
0.0
 14
1.000000000000000E+20
 24
1.000000000000000E+20
 34
1.000000000000000E+20
 15
-1.000000000000000E+20
 25
-1.000000000000000E+20
 35
-1.000000000000000E+20
146
0.0
 13
0.0
 23
0.0
 33
0.0
 16
1.0
 26
0.0
 36
0.0
 17
0.0
 27
1.0
 37
0.0
 76
     0
330
1B
  0
LAYOUT
  5
26
102
{ACAD_REACTORS
330
1A
102
}
330
1A
100
AcDbPlotSettings
  1

  2
none_device
  4

  6

 40
0.0
 41
0.0
 42
0.0
 43
0.0
 44
0.0
 45
0.0
 46
0.0
 47
0.0
 48
0.0
 49
0.0
140
0.0
141
0.0
142
1.0
143
1.0
 70
   688
 72
     0
 73
     0
 74
     5
  7

 75
    16
 76
     0
 77
     5
 78
   300
147
1.0
148
0.0
149
0.0
100
AcDbLayout
  1
Layout2
 70
     1
 71
     2
 10
0.0
 20
0.0
 11
0.0
 21
0.0
 12
0.0
 22
0.0
 32
0.0
 14
0.0
 24
0.0
 34
0.0
 15
0.0
 25
0.0
 35
0.0
146
0.0
 13
0.0
 23
0.0
 33
0.0
 16
1.0
 26
0.0
 36
0.0
 17
0.0
 27
1.0
 37
0.0
 76
     0
330
23
  0
LAYOUT
  5
22
102
{ACAD_REACTORS
330
1A
102
}
330
1A
100
AcDbPlotSettings
  1

  2
none_device
  4

  6

 40
0.0
 41
0.0
 42
0.0
 43
0.0
 44
0.0
 45
0.0
 46
0.0
 47
0.0
 48
0.0
 49
0.0
140
0.0
141
0.0
142
1.0
143
1.0
 70
  1712
 72
     0
 73
     0
 74
     0
  7

 75
     0
 76
     0
 77
     5
 78
   300
147
1.0
148
0.0
149
0.0
100
AcDbLayout
  1
Model
 70
     1
 71
     0
 10
-8910.0
 20
-6300.0
 11
8910.0
 21
6300.0
 12
0.0
 22
0.0
 32
0.0
 14
-8910.0
 24
-6300.0
 34
0.0
 15
8910.0
 25
6300.0
 35
0.0
146
0.0
 13
0.0
 23
0.0
 33
0.0
 16
1.0
 26
0.0
 36
0.0
 17
0.0
 27
1.0
 37
0.0
 76
     0
330
1F
331
29
  0
MATERIAL
  5
3D
102
{ACAD_REACTORS
330
3B
102
}
330
3B
100
AcDbMaterial
  1
ByBlock
 72
     1
 94
      127
  0
MATERIAL
  5
3C
102
{ACAD_REACTORS
330
3B
102
}
330
3B
100
AcDbMaterial
  1
ByLayer
 72
     1
 94
      127
  0
MATERIAL
  5
3E
102
{ACAD_REACTORS
330
3B
102
}
330
3B
100
AcDbMaterial
  1
Global
 72
     1
 94
      127
  0
MLINESTYLE
  5
18
102
{ACAD_REACTORS
330
17
102
}
330
17
100
AcDbMlineStyle
  2
Standard
 70
     0
  3

 62
   256
 51
90.0
 52
90.0
 71
     2
 49
0.5
 62
   256
  6
BYLAYER
 49
-0.5
 62
   256
  6
BYLAYER
  0
ACDBPLACEHOLDER
  5
F
102
{ACAD_REACTORS
330
E
102
}
330
E
  0
VISUALSTYLE
  5
2F
102
{ACAD_REACTORS
330
2A
102
}
330
2A
100
AcDbVisualStyle
  2
2dWireframe
 70
     4
177
     2
291
     0
 71
     0
176
     1
 72
     2
176
     1
 73
     0
176
     1
 90
        0
176
     1
 40
-0.6
176
     1
 41
-30.0
176
     1
 62
     5
 63
     7
421
 16777215
176
     1
 74
     1
176
     1
 91
        4
176
     1
 64
     7
176
     1
 65
   257
176
     1
 75
     1
176
     1
175
     1
176
     1
 42
1.0
176
     1
 92
        0
176
     1
 66
   257
176
     1
 43
1.0
176
     1
 76
     1
176
     1
 77
     6
176
     1
 78
     2
176
     1
 67
     7
176
     1
 79
     5
176
     1
170
     0
176
     1
171
     0
176
     1
290
     0
176
     1
 93
        1
176
     1
 44
0.0
176
     1
173
     0
176
     1
  0
VISUALSTYLE
  5
31
102
{ACAD_REACTORS
330
2A
102
}
330
2A
100
AcDbVisualStyle
  2
3D Hidden
 70
     6
177
     2
291
     0
 71
     1
176
     1
 72
     2
176
     1
 73
     2
176
     1
 90
        0
176
     1
 40
-0.6
176
     1
 41
-30.0
176
     1
 62
     5
 63
     7
421
 16777215
176
     1
 74
     2
176
     1
 91
        2
176
     1
 64
     7
176
     1
 65
   257
176
     1
 75
     2
176
     1
175
     1
176
     1
 42
40.0
176
     1
 92
        0
176
     1
 66
   257
176
     1
 43
1.0
176
     1
 76
     1
176
     1
 77
     6
176
     1
 78
     2
176
     1
 67
     7
176
     1
 79
     3
176
     1
170
     0
176
     1
171
     0
176
     1
290
     0
176
     1
 93
        1
176
     1
 44
0.0
176
     1
173
     0
176
     1
  0
VISUALSTYLE
  5
30
102
{ACAD_REACTORS
330
2A
102
}
330
2A
100
AcDbVisualStyle
  2
3dWireframe
 70
     5
177
     2
291
     0
 71
     0
176
     1
 72
     2
176
     1
 73
     0
176
     1
 90
        0
176
     1
 40
-0.6
176
     1
 41
-30.0
176
     1
 62
     5
 63
     7
421
 16777215
176
     1
 74
     1
176
     1
 91
        4
176
     1
 64
     7
176
     1
 65
   257
176
     1
 75
     1
176
     1
175
     1
176
     1
 42
1.0
176
     1
 92
        0
176
     1
 66
   257
176
     1
 43
1.0
176
     1
 76
     1
176
     1
 77
     6
176
     1
 78
     2
176
     1
 67
     7
176
     1
 79
     5
176
     1
170
     0
176
     1
171
     0
176
     1
290
     0
176
     1
 93
        1
176
     1
 44
0.0
176
     1
173
     0
176
     1
  0
VISUALSTYLE
  5
32
102
{ACAD_REACTORS
330
2A
102
}
330
2A
100
AcDbVisualStyle
  2
Basic
 70
     7
177
     2
291
     1
 71
     1
176
     1
 72
     0
176
     1
 73
     1
176
     1
 90
        0
176
     1
 40
-0.6
176
     1
 41
-30.0
176
     1
 62
     5
 63
     7
421
 16777215
176
     1
 74
     0
176
     1
 91
        4
176
     1
 64
     7
176
     1
 65
   257
176
     1
 75
     1
176
     1
175
     1
176
     1
 42
1.0
176
     1
 92
        8
176
     1
 66
     7
176
     1
 43
1.0
176
     1
 76
     1
176
     1
 77
     6
176
     1
 78
     2
176
     1
 67
     7
176
     1
 79
     5
176
     1
170
     0
176
     1
171
     0
176
     1
290
     0
176
     1
 93
        1
176
     1
 44
0.0
176
     1
173
     0
176
     1
  0
VISUALSTYLE
  5
36
102
{ACAD_REACTORS
330
2A
102
}
330
2A
100
AcDbVisualStyle
  2
Brighten
 70
    12
177
     2
291
     1
 71
     2
176
     1
 72
     2
176
     1
 73
     0
176
     1
 90
        0
176
     1
 40
-0.6
176
     1
 41
-30.0
176
     1
 62
     5
 63
     7
421
 16777215
176
     1
 74
     1
176
     1
 91
        4
176
     1
 64
     7
176
     1
 65
   257
176
     1
 75
     1
176
     1
175
     1
176
     1
 42
1.0
176
     1
 92
        8
176
     1
 66
     7
176
     1
 43
1.0
176
     1
 76
     1
176
     1
 77
     6
176
     1
 78
     2
176
     1
 67
     7
176
     1
 79
     5
176
     1
170
     0
176
     1
171
     0
176
     1
290
     0
176
     1
 93
        1
176
     1
 44
50.0
176
     1
173
     0
176
     1
  0
VISUALSTYLE
  5
3A
102
{ACAD_REACTORS
330
2A
102
}
330
2A
100
AcDbVisualStyle
  2
ColorChange
 70
    16
177
     2
291
     1
 71
     2
176
     1
 72
     2
176
     1
 73
     3
176
     1
 90
        0
176
     1
 40
-0.6
176
     1
 41
-30.0
176
     1
 62
     5
 63
     8
421
  8421504
176
     1
 74
     1
176
     1
 91
        4
176
     1
 64
     7
176
     1
 65
   257
176
     1
 75
     1
176
     1
175
     1
176
     1
 42
1.0
176
     1
 92
        8
176
     1
 66
     8
424
  8421504
176
     1
 43
1.0
176
     1
 76
     1
176
     1
 77
     6
176
     1
 78
     2
176
     1
 67
     7
176
     1
 79
     5
176
     1
170
     0
176
     1
171
     0
176
     1
290
     0
176
     1
 93
        1
176
     1
 44
0.0
176
     1
173
     0
176
     1
  0
VISUALSTYLE
  5
34
102
{ACAD_REACTORS
330
2A
102
}
330
2A
100
AcDbVisualStyle
  2
Conceptual
 70
     9
177
     2
291
     0
 71
     3
176
     1
 72
     2
176
     1
 73
     0
176
     1
 90
        0
176
     1
 40
-0.6
176
     1
 41
-30.0
176
     1
 62
     5
 63
     7
421
 16777215
176
     1
 74
     2
176
     1
 91
        2
176
     1
 64
     7
176
     1
 65
   257
176
     1
 75
     1
176
     1
175
     1
176
     1
 42
40.0
176
     1
 92
        8
176
     1
 66
     7
176
     1
 43
1.0
176
     1
 76
     1
176
     1
 77
     6
176
     1
 78
     2
176
     1
 67
     7
176
     1
 79
     3
176
     1
170
     0
176
     1
171
     0
176
     1
290
     0
176
     1
 93
        1
176
     1
 44
0.0
176
     1
173
     0
176
     1
  0
VISUALSTYLE
  5
35
102
{ACAD_REACTORS
330
2A
102
}
330
2A
100
AcDbVisualStyle
  2
Dim
 70
    11
177
     2
291
     1
 71
     2
176
     1
 72
     2
176
     1
 73
     0
176
     1
 90
        0
176
     1
 40
-0.6
176
     1
 41
-30.0
176
     1
 62
     5
 63
     7
421
 16777215
176
     1
 74
     1
176
     1
 91
        4
176
     1
 64
     7
176
     1
 65
   257
176
     1
 75
     1
176
     1
175
     1
176
     1
 42
1.0
176
     1
 92
        8
176
     1
 66
     7
176
     1
 43
1.0
176
     1
 76
     1
176
     1
 77
     6
176
     1
 78
     2
176
     1
 67
     7
176
     1
 79
     5
176
     1
170
     0
176
     1
171
     0
176
     1
290
     0
176
     1
 93
        1
176
     1
 44
-50.0
176
     1
173
     0
176
     1
  0
VISUALSTYLE
  5
39
102
{ACAD_REACTORS
330
2A
102
}
330
2A
100
AcDbVisualStyle
  2
Facepattern
 70
    15
177
     2
291
     1
 71
     2
176
     1
 72
     2
176
     1
 73
     0
176
     1
 90
        0
176
     1
 40
-0.6
176
     1
 41
-30.0
176
     1
 62
     5
 63
     7
421
 16777215
176
     1
 74
     1
176
     1
 91
        4
176
     1
 64
     7
176
     1
 65
   257
176
     1
 75
     1
176
     1
175
     1
176
     1
 42
1.0
176
     1
 92
        8
176
     1
 66
     7
176
     1
 43
1.0
176
     1
 76
     1
176
     1
 77
     6
176
     1
 78
     2
176
     1
 67
     7
176
     1
 79
     5
176
     1
170
     0
176
     1
171
     0
176
     1
290
     0
176
     1
 93
        1
176
     1
 44
0.0
176
     1
173
     0
176
     1
  0
VISUALSTYLE
  5
2B
102
{ACAD_REACTORS
330
2A
102
}
330
2A
100
AcDbVisualStyle
  2
Flat
 70
     0
177
     2
291
     1
 71
     2
176
     1
 72
     1
176
     1
 73
     1
176
     1
 90
        2
176
     1
 40
-0.6
176
     1
 41
30.0
176
     1
 62
     5
 63
     7
421
 16777215
176
     1
 74
     0
176
     1
 91
        4
176
     1
 64
     7
176
     1
 65
   257
176
     1
 75
     1
176
     1
175
     1
176
     1
 42
1.0
176
     1
 92
        8
176
     1
 66
     7
176
     1
 43
1.0
176
     1
 76
     1
176
     1
 77
     6
176
     1
 78
     2
176
     1
 67
     7
176
     1
 79
     5
176
     1
170
     0
176
     1
171
     0
176
     1
290
     0
176
     1
 93
       13
176
     1
 44
0.0
176
     1
173
     0
176
     1
  0
VISUALSTYLE
  5
2C
102
{ACAD_REACTORS
330
2A
102
}
330
2A
100
AcDbVisualStyle
  2
FlatWithEdges
 70
     1
177
     2
291
     1
 71
     2
176
     1
 72
     1
176
     1
 73
     1
176
     1
 90
        2
176
     1
 40
-0.6
176
     1
 41
30.0
176
     1
 62
     5
 63
     7
421
 16777215
176
     1
 74
     1
176
     1
 91
        4
176
     1
 64
     7
176
     1
 65
   257
176
     1
 75
     1
176
     1
175
     1
176
     1
 42
1.0
176
     1
 92
        0
176
     1
 66
   257
176
     1
 43
1.0
176
     1
 76
     1
176
     1
 77
     6
176
     1
 78
     2
176
     1
 67
     7
176
     1
 79
     5
176
     1
170
     0
176
     1
171
     0
176
     1
290
     0
176
     1
 93
       13
176
     1
 44
0.0
176
     1
173
     0
176
     1
  0
VISUALSTYLE
  5
2D
102
{ACAD_REACTORS
330
2A
102
}
330
2A
100
AcDbVisualStyle
  2
Gouraud
 70
     2
177
     2
291
     1
 71
     2
176
     1
 72
     2
176
     1
 73
     1
176
     1
 90
        2
176
     1
 40
-0.6
176
     1
 41
30.0
176
     1
 62
     5
 63
     7
421
 16777215
176
     1
 74
     0
176
     1
 91
        4
176
     1
 64
     7
176
     1
 65
   257
176
     1
 75
     1
176
     1
175
     1
176
     1
 42
1.0
176
     1
 92
        0
176
     1
 66
     7
176
     1
 43
1.0
176
     1
 76
     1
176
     1
 77
     6
176
     1
 78
     2
176
     1
 67
     7
176
     1
 79
     5
176
     1
170
     0
176
     1
171
     0
176
     1
290
     0
176
     1
 93
       13
176
     1
 44
0.0
176
     1
173
     0
176
     1
  0
VISUALSTYLE
  5
2E
102
{ACAD_REACTORS
330
2A
102
}
330
2A
100
AcDbVisualStyle
  2
GouraudWithEdges
 70
     3
177
     2
291
     1
 71
     2
176
     1
 72
     2
176
     1
 73
     1
176
     1
 90
        2
176
     1
 40
-0.6
176
     1
 41
30.0
176
     1
 62
     5
 63
     7
421
 16777215
176
     1
 74
     1
176
     1
 91
        4
176
     1
 64
     7
176
     1
 65
   257
176
     1
 75
     1
176
     1
175
     1
176
     1
 42
1.0
176
     1
 92
        0
176
     1
 66
   257
176
     1
 43
1.0
176
     1
 76
     1
176
     1
 77
     6
176
     1
 78
     2
176
     1
 67
     7
176
     1
 79
     5
176
     1
170
     0
176
     1
171
     0
176
     1
290
     0
176
     1
 93
       13
176
     1
 44
0.0
176
     1
173
     0
176
     1
  0
VISUALSTYLE
  5
38
102
{ACAD_REACTORS
330
2A
102
}
330
2A
100
AcDbVisualStyle
  2
Linepattern
 70
    14
177
     2
291
     1
 71
     2
176
     1
 72
     2
176
     1
 73
     0
176
     1
 90
        0
176
     1
 40
-0.6
176
     1
 41
-30.0
176
     1
 62
     5
 63
     7
421
 16777215
176
     1
 74
     1
176
     1
 91
        4
176
     1
 64
     7
176
     1
 65
   257
176
     1
 75
     7
176
     1
175
     7
176
     1
 42
1.0
176
     1
 92
        8
176
     1
 66
     7
176
     1
 43
1.0
176
     1
 76
     1
176
     1
 77
     6
176
     1
 78
     2
176
     1
 67
     7
176
     1
 79
     5
176
     1
170
     0
176
     1
171
     0
176
     1
290
     0
176
     1
 93
        1
176
     1
 44
0.0
176
     1
173
     0
176
     1
  0
VISUALSTYLE
  5
33
102
{ACAD_REACTORS
330
2A
102
}
330
2A
100
AcDbVisualStyle
  2
Realistic
 70
     8
177
     2
291
     0
 71
     2
176
     1
 72
     2
176
     1
 73
     0
176
     1
 90
        0
176
     1
 40
-0.6
176
     1
 41
-30.0
176
     1
 62
     5
 63
     7
421
 16777215
176
     1
 74
     1
176
     1
 91
        0
176
     1
 64
     7
176
     1
 65
   257
176
     1
 75
     1
176
     1
175
     1
176
     1
 42
1.0
176
     1
 92
        8
176
     1
 66
     8
424
  7895160
176
     1
 43
1.0
176
     1
 76
     1
176
     1
 77
     6
176
     1
 78
     2
176
     1
 67
     7
176
     1
 79
     5
176
     1
170
     0
176
     1
171
     0
176
     1
290
     0
176
     1
 93
       13
176
     1
 44
0.0
176
     1
173
     0
176
     1
  0
VISUALSTYLE
  5
37
102
{ACAD_REACTORS
330
2A
102
}
330
2A
100
AcDbVisualStyle
  2
Thicken
 70
    13
177
     2
291
     1
 71
     2
176
     1
 72
     2
176
     1
 73
     0
176
     1
 90
        0
176
     1
 40
-0.6
176
     1
 41
-30.0
176
     1
 62
     5
 63
     7
421
 16777215
176
     1
 74
     1
176
     1
 91
        4
176
     1
 64
     7
176
     1
 65
   257
176
     1
 75
     1
176
     1
175
     1
176
     1
 42
1.0
176
     1
 92
       12
176
     1
 66
     7
176
     1
 43
1.0
176
     1
 76
     1
176
     1
 77
     6
176
     1
 78
     2
176
     1
 67
     7
176
     1
 79
     5
176
     1
170
     0
176
     1
171
     0
176
     1
290
     0
176
     1
 93
        1
176
     1
 44
0.0
176
     1
173
     0
176
     1
  0
ENDSEC
  0
EOF
