  0
SECTION
  2
HEADER
  9
$ACADVER
  1
AC1024
  9
$ACADMAINTVER
 70
     6
  9
$DWGCODEPAGE
  3
ANSI_932
  9
$INSBASE
 10
0.0
 20
0.0
 30
0.0
  9
$EXTMIN
 10
-6300.0
 20
-4455.0
 30
0.0
  9
$EXTMAX
 10
6300.0
 20
4455.0
 30
0.0
  9
$LIMMIN
 10
-6300.0
 20
-4455.0
  9
$LIMMAX
 10
6300.0
 20
4455.0
  9
$ORTHOMODE
 70
     0
  9
$REGENMODE
 70
     1
  9
$FILLMODE
 70
     1
  9
$QTEXTMODE
 70
     0
  9
$MIRRTEXT
 70
     1
  9
$LTSCALE
 40
30.0
  9
$ATTMODE
 70
     1
  9
$TEXTSIZE
 40
2.5
  9
$TRACEWID
 40
1.0
  9
$TEXTSTYLE
  7
Standard
  9
$CLAYER
  8
0
  9
$CELTYPE
  6
ByLayer
  9
$CECOLOR
 62
   256
  9
$CELTSCALE
 40
1.0
  9
$DISPSILH
 70
     0
  9
$DIMSCALE
 40
1.0
  9
$DIMASZ
 40
2.5
  9
$DIMEXO
 40
0.625
  9
$DIMDLI
 40
3.75
  9
$DIMRND
 40
0.0
  9
$DIMDLE
 40
0.0
  9
$DIMEXE
 40
1.25
  9
$DIMTP
 40
0.0
  9
$DIMTM
 40
0.0
  9
$DIMTXT
 40
2.5
  9
$DIMCEN
 40
2.5
  9
$DIMTSZ
 40
0.0
  9
$DIMTOL
 70
     0
  9
$DIMLIM
 70
     0
  9
$DIMTIH
 70
     0
  9
$DIMTOH
 70
     0
  9
$DIMSE1
 70
     0
  9
$DIMSE2
 70
     0
  9
$DIMTAD
 70
     1
  9
$DIMZIN
 70
     8
  9
$DIMBLK
  1

  9
$DIMASO
 70
     1
  9
$DIMSHO
 70
     1
  9
$DIMPOST
  1

  9
$DIMAPOST
  1

  9
$DIMALT
 70
     0
  9
$DIMALTD
 70
     3
  9
$DIMALTF
 40
0.03937007874016
  9
$DIMLFAC
 40
1.0
  9
$DIMTOFL
 70
     1
  9
$DIMTVP
 40
0.0
  9
$DIMTIX
 70
     0
  9
$DIMSOXD
 70
     0
  9
$DIMSAH
 70
     0
  9
$DIMBLK1
  1

  9
$DIMBLK2
  1

  9
$DIMSTYLE
  2
ISO-25
  9
$DIMCLRD
 70
     0
  9
$DIMCLRE
 70
     0
  9
$DIMCLRT
 70
     0
  9
$DIMTFAC
 40
1.0
  9
$DIMGAP
 40
0.625
  9
$DIMJUST
 70
     0
  9
$DIMSD1
 70
     0
  9
$DIMSD2
 70
     0
  9
$DIMTOLJ
 70
     0
  9
$DIMTZIN
 70
     8
  9
$DIMALTZ
 70
     0
  9
$DIMALTTZ
 70
     0
  9
$DIMUPT
 70
     0
  9
$DIMDEC
 70
     2
  9
$DIMTDEC
 70
     2
  9
$DIMALTU
 70
     2
  9
$DIMALTTD
 70
     3
  9
$DIMTXSTY
  7
Standard
  9
$DIMAUNIT
 70
     0
  9
$DIMADEC
 70
     0
  9
$DIMALTRND
 40
0.0
  9
$DIMAZIN
 70
     0
  9
$DIMDSEP
 70
    44
  9
$DIMATFIT
 70
     3
  9
$DIMFRAC
 70
     0
  9
$DIMLDRBLK
  1

  9
$DIMLUNIT
 70
     2
  9
$DIMLWD
 70
    -2
  9
$DIMLWE
 70
    -2
  9
$DIMTMOVE
 70
     0
  9
$DIMFXL
 40
1.0
  9
$DIMFXLON
 70
     0
  9
$DIMJOGANG
 40
0.7853981633974483
  9
$DIMTFILL
 70
     0
  9
$DIMTFILLCLR
 70
     0
  9
$DIMARCSYM
 70
     0
  9
$DIMLTYPE
  6

  9
$DIMLTEX1
  6

  9
$DIMLTEX2
  6

  9
$DIMTXTDIRECTION
 70
     0
  9
$LUNITS
 70
     2
  9
$LUPREC
 70
     4
  9
$SKETCHINC
 40
1.0
  9
$FILLETRAD
 40
10.0
  9
$AUNITS
 70
     0
  9
$AUPREC
 70
     0
  9
$MENU
  1
.
  9
$ELEVATION
 40
0.0
  9
$PELEVATION
 40
0.0
  9
$THICKNESS
 40
0.0
  9
$LIMCHECK
 70
     0
  9
$CHAMFERA
 40
10.0
  9
$CHAMFERB
 40
10.0
  9
$CHAMFERC
 40
20.0
  9
$CHAMFERD
 40
0.0
  9
$SKPOLY
 70
     0
  9
$TDCREATE
 40
2459411.613702164
  9
$TDUCREATE
 40
2459411.238702164
  9
$TDUPDATE
 40
2459411.613702176
  9
$TDUUPDATE
 40
2459411.238702176
  9
$TDINDWG
 40
0.0000000116
  9
$TDUSRTIMER
 40
0.0000000116
  9
$USRTIMER
 70
     1
  9
$ANGBASE
 50
0.0
  9
$ANGDIR
 70
     0
  9
$PDMODE
 70
     0
  9
$PDSIZE
 40
0.0
  9
$PLINEWID
 40
0.0
  9
$SPLFRAME
 70
     0
  9
$SPLINETYPE
 70
     6
  9
$SPLINESEGS
 70
     8
  9
$HANDSEED
  5
2AE
  9
$SURFTAB1
 70
     6
  9
$SURFTAB2
 70
     6
  9
$SURFTYPE
 70
     6
  9
$SURFU
 70
     6
  9
$SURFV
 70
     6
  9
$UCSBASE
  2

  9
$UCSNAME
  2

  9
$UCSORG
 10
0.0
 20
0.0
 30
0.0
  9
$UCSXDIR
 10
1.0
 20
0.0
 30
0.0
  9
$UCSYDIR
 10
0.0
 20
1.0
 30
0.0
  9
$UCSORTHOREF
  2

  9
$UCSORTHOVIEW
 70
     0
  9
$UCSORGTOP
 10
0.0
 20
0.0
 30
0.0
  9
$UCSORGBOTTOM
 10
0.0
 20
0.0
 30
0.0
  9
$UCSORGLEFT
 10
0.0
 20
0.0
 30
0.0
  9
$UCSORGRIGHT
 10
0.0
 20
0.0
 30
0.0
  9
$UCSORGFRONT
 10
0.0
 20
0.0
 30
0.0
  9
$UCSORGBACK
 10
0.0
 20
0.0
 30
0.0
  9
$PUCSBASE
  2

  9
$PUCSNAME
  2

  9
$PUCSORG
 10
0.0
 20
0.0
 30
0.0
  9
$PUCSXDIR
 10
1.0
 20
0.0
 30
0.0
  9
$PUCSYDIR
 10
0.0
 20
1.0
 30
0.0
  9
$PUCSORTHOREF
  2

  9
$PUCSORTHOVIEW
 70
     0
  9
$PUCSORGTOP
 10
0.0
 20
0.0
 30
0.0
  9
$PUCSORGBOTTOM
 10
0.0
 20
0.0
 30
0.0
  9
$PUCSORGLEFT
 10
0.0
 20
0.0
 30
0.0
  9
$PUCSORGRIGHT
 10
0.0
 20
0.0
 30
0.0
  9
$PUCSORGFRONT
 10
0.0
 20
0.0
 30
0.0
  9
$PUCSORGBACK
 10
0.0
 20
0.0
 30
0.0
  9
$USERI1
 70
     0
  9
$USERI2
 70
     0
  9
$USERI3
 70
     0
  9
$USERI4
 70
     0
  9
$USERI5
 70
     0
  9
$USERR1
 40
0.0
  9
$USERR2
 40
0.0
  9
$USERR3
 40
0.0
  9
$USERR4
 40
0.0
  9
$USERR5
 40
0.0
  9
$WORLDVIEW
 70
     1
  9
$SHADEDGE
 70
     3
  9
$SHADEDIF
 70
    70
  9
$TILEMODE
 70
     1
  9
$MAXACTVP
 70
    64
  9
$PINSBASE
 10
0.0
 20
0.0
 30
0.0
  9
$PLIMCHECK
 70
     0
  9
$PEXTMIN
 10
1.000000000000000E+20
 20
1.000000000000000E+20
 30
1.000000000000000E+20
  9
$PEXTMAX
 10
-1.000000000000000E+20
 20
-1.000000000000000E+20
 30
-1.000000000000000E+20
  9
$PLIMMIN
 10
0.0
 20
0.0
  9
$PLIMMAX
 10
420.0
 20
297.0
  9
$UNITMODE
 70
     0
  9
$VISRETAIN
 70
     1
  9
$PLINEGEN
 70
     0
  9
$PSLTSCALE
 70
     1
  9
$TREEDEPTH
 70
  3020
  9
$CMLSTYLE
  2
Standard
  9
$CMLJUST
 70
     0
  9
$CMLSCALE
 40
20.0
  9
$PROXYGRAPHICS
 70
     1
  9
$MEASUREMENT
 70
     1
  9
$CELWEIGHT
370
    -1
  9
$ENDCAPS
280
     0
  9
$JOINSTYLE
280
     0
  9
$LWDISPLAY
290
     0
  9
$INSUNITS
 70
     4
  9
$HYPERLINKBASE
  1

  9
$STYLESHEET
  1

  9
$XEDIT
290
     1
  9
$CEPSNTYPE
380
     0
  9
$PSTYLEMODE
290
     1
  9
$FINGERPRINTGUID
  2
{CF1E8008-2469-4AFE-B594-CA491BB473CC}
  9
$VERSIONGUID
  2
{FAEB1C32-E019-11D5-929B-00C0DF256EC4}
  9
$EXTNAMES
290
     1
  9
$PSVPSCALE
 40
0.0
  9
$OLESTARTUP
290
     0
  9
$SORTENTS
280
   127
  9
$INDEXCTL
280
     0
  9
$HIDETEXT
280
     1
  9
$XCLIPFRAME
280
     2
  9
$HALOGAP
280
     0
  9
$OBSCOLOR
 70
   257
  9
$OBSLTYPE
280
     0
  9
$INTERSECTIONDISPLAY
280
     0
  9
$INTERSECTIONCOLOR
 70
   257
  9
$DIMASSOC
280
     2
  9
$PROJECTNAME
  1

  9
$CAMERADISPLAY
290
     0
  9
$LENSLENGTH
 40
50.0
  9
$CAMERAHEIGHT
 40
0.0
  9
$STEPSPERSEC
 40
2.0
  9
$STEPSIZE
 40
6.0
  9
$3DDWFPREC
 40
2.0
  9
$PSOLWIDTH
 40
5.0
  9
$PSOLHEIGHT
 40
80.0
  9
$LOFTANG1
 40
1.570796326794897
  9
$LOFTANG2
 40
1.570796326794897
  9
$LOFTMAG1
 40
0.0
  9
$LOFTMAG2
 40
0.0
  9
$LOFTPARAM
 70
     7
  9
$LOFTNORMALS
280
     1
  9
$LATITUDE
 40
37.795
  9
$LONGITUDE
 40
-122.394
  9
$NORTHDIRECTION
 40
0.0
  9
$TIMEZONE
 70
 -8000
  9
$LIGHTGLYPHDISPLAY
280
     1
  9
$TILEMODELIGHTSYNCH
280
     1
  9
$SOLIDHIST
280
     1
  9
$SHOWHIST
280
     1
  9
$DWFFRAME
280
     2
  9
$DGNFRAME
280
     2
  9
$REALWORLDSCALE
290
     1
  9
$INTERFERECOLOR
 62
   256
  9
$CSHADOW
280
     0
  9
$SHADOWPLANELOCATION
 40
0.0
  0
ENDSEC
  0
SECTION
  2
CLASSES
  0
CLASS
  1
ACDBDICTIONARYWDFLT
  2
AcDbDictionaryWithDefault
  3
ObjectDBX Classes
 90
        0
 91
        4
280
     0
281
     0
  0
CLASS
  1
VISUALSTYLE
  2
AcDbVisualStyle
  3
ObjectDBX Classes
 90
     4095
 91
        4
280
     0
281
     0
  0
CLASS
  1
MATERIAL
  2
AcDbMaterial
  3
ObjectDBX Classes
 90
     1153
 91
        4
280
     0
281
     0
  0
ENDSEC
  0
SECTION
  2
TABLES
  0
TABLE
  2
VPORT
  5
8
330
0
100
AcDbSymbolTable
 70
     1
  0
VPORT
  5
29
330
8
100
AcDbSymbolTableRecord
100
AcDbViewportTableRecord
  2
*Active
 70
     0
 10
0.0
 20
0.0
 11
1.0
 21
1.0
 12
0.0
 22
0.0
 13
0.0
 23
0.0
 14
10.0
 24
10.0
 15
10.0
 25
10.0
 16
0.0
 26
0.0
 36
1.0
 17
0.0
 27
0.0
 37
0.0
 40
9801.0
 41
1.414141414141414
 42
50.0
 43
0.0
 44
0.0
 50
0.0
 51
0.0
 71
     0
 72
 10000
 73
     1
 74
     3
 75
     0
 76
     0
 77
     0
 78
     0
281
     0
 65
     1
110
0.0
120
0.0
130
0.0
111
1.0
121
0.0
131
0.0
112
0.0
122
1.0
132
0.0
 79
     0
146
0.0
 60
     3
 61
     5
292
     1
282
     1
141
0.0
142
0.0
 63
   250
  0
ENDTAB
  0
TABLE
  2
LTYPE
  5
5
330
0
100
AcDbSymbolTable
 70
     4
  0
LTYPE
  5
14
330
5
100
AcDbSymbolTableRecord
100
AcDbLinetypeTableRecord
  2
ByBlock
 70
     0
  3

 72
    65
 73
     0
 40
0.0
  0
LTYPE
  5
15
330
5
100
AcDbSymbolTableRecord
100
AcDbLinetypeTableRecord
  2
ByLayer
 70
     0
  3

 72
    65
 73
     0
 40
0.0
  0
LTYPE
  5
16
330
5
100
AcDbSymbolTableRecord
100
AcDbLinetypeTableRecord
  2
Continuous
 70
     0
  3
Solid line
 72
    65
 73
     0
 40
0.0
  0
LTYPE
  5
3F
330
5
100
AcDbSymbolTableRecord
100
AcDbLinetypeTableRecord
  2
JWW_DASHED1
 70
     0
  3
-  --  --  --  --  --  --  --  -
 72
    65
 73
     2
 40
1.693333333333333
 49
0.8466666666666667
 74
     0
 49
-0.8466666666666667
 74
     0
  0
LTYPE
  5
40
330
5
100
AcDbSymbolTableRecord
100
AcDbLinetypeTableRecord
  2
JWW_CENTER1
 70
     0
  3
-----  --  ----------  --  -----
 72
    65
 73
     4
 40
6.773333333333333
 49
4.233333333333333
 74
     0
 49
-0.8466666666666667
 74
     0
 49
0.8466666666666667
 74
     0
 49
-0.8466666666666667
 74
     0
  0
LTYPE
  5
41
330
5
100
AcDbSymbolTableRecord
100
AcDbLinetypeTableRecord
  2
JWW_HOJO
 70
     0
  3
  -   -   -   -   -   -   -   - 
 72
    65
 73
     2
 40
1.693333333333333
 49
-1.27
 74
     0
 49
0.4233333333333333
 74
     0
  0
ENDTAB
  0
TABLE
  2
LAYER
  5
2
330
0
100
AcDbSymbolTable
 70
     6
  0
LAYER
  5
10
330
2
100
AcDbSymbolTableRecord
100
AcDbLayerTableRecord
  2
0
 70
     0
 62
     7
  6
Continuous
370
    -3
390
F
347
3E
  0
LAYER
  5
42
330
2
100
AcDbSymbolTableRecord
100
AcDbLayerTableRecord
  2
4-4
 70
     0
 62
     7
  6
Continuous
370
    -3
390
F
347
3E
  0
LAYER
  5
43
330
2
100
AcDbSymbolTableRecord
100
AcDbLayerTableRecord
  2
2-2
 70
     0
 62
     7
  6
Continuous
370
    -3
390
F
347
3E
  0
LAYER
  5
44
330
2
100
AcDbSymbolTableRecord
100
AcDbLayerTableRecord
  2
F-A
 70
     0
 62
     7
  6
Continuous
370
    -3
390
F
347
3E
  0
LAYER
  5
45
330
2
100
AcDbSymbolTableRecord
100
AcDbLayerTableRecord
  2
F-0
 70
     0
 62
     7
  6
Continuous
370
    -3
390
F
347
3E
  0
LAYER
  5
46
330
2
100
AcDbSymbolTableRecord
100
AcDbLayerTableRecord
  2
F-1
 70
     0
 62
     7
  6
Continuous
370
    -3
390
F
347
3E
  0
ENDTAB
  0
TABLE
  2
STYLE
  5
3
330
0
100
AcDbSymbolTable
 70
     1
  0
STYLE
  5
11
330
3
100
AcDbSymbolTableRecord
100
AcDbTextStyleTableRecord
  2
Standard
 70
     0
 40
0.0
 41
1.0
 50
0.0
 71
     0
 42
2.5
  3
txt
  4

  0
ENDTAB
  0
TABLE
  2
VIEW
  5
6
330
0
100
AcDbSymbolTable
 70
     0
  0
ENDTAB
  0
TABLE
  2
UCS
  5
7
330
0
100
AcDbSymbolTable
 70
     0
  0
ENDTAB
  0
TABLE
  2
APPID
  5
9
330
0
100
AcDbSymbolTable
 70
     1
  0
APPID
  5
12
330
9
100
AcDbSymbolTableRecord
100
AcDbRegAppTableRecord
  2
ACAD
 70
     0
  0
ENDTAB
  0
TABLE
  2
DIMSTYLE
  5
A
330
0
100
AcDbSymbolTable
 70
     1
100
AcDbDimStyleTable
  0
DIMSTYLE
105
27
330
A
100
AcDbSymbolTableRecord
100
AcDbDimStyleTableRecord
  2
ISO-25
 70
     0
 41
2.5
 42
0.625
 43
3.75
 44
1.25
 73
     0
 74
     0
 77
     1
 78
     8
140
2.5
141
2.5
143
0.03937007874016
147
0.625
171
     3
172
     1
178
     0
271
     2
272
     2
274
     3
278
    44
283
     0
284
     8
340
11
  0
ENDTAB
  0
TABLE
  2
BLOCK_RECORD
  5
1
330
0
100
AcDbSymbolTable
 70
     1
  0
BLOCK_RECORD
  5
1F
330
1
100
AcDbSymbolTableRecord
100
AcDbBlockTableRecord
  2
*Model_Space
340
22
 70
     0
280
     1
281
     0
  0
BLOCK_RECORD
  5
1B
330
1
100
AcDbSymbolTableRecord
100
AcDbBlockTableRecord
  2
*Paper_Space
340
1E
 70
     0
280
     1
281
     0
  0
BLOCK_RECORD
  5
23
330
1
100
AcDbSymbolTableRecord
100
AcDbBlockTableRecord
  2
*Paper_Space0
340
26
 70
     0
280
     1
281
     0
  0
ENDTAB
  0
ENDSEC
  0
SECTION
  2
BLOCKS
  0
BLOCK
  5
20
330
1F
100
AcDbEntity
  8
0
100
AcDbBlockBegin
  2
*Model_Space
 70
     0
 10
0.0
 20
0.0
 30
0.0
  3
*Model_Space
  1

  0
ENDBLK
  5
21
330
1F
100
AcDbEntity
  8
0
100
AcDbBlockEnd
  0
BLOCK
  5
1C
330
1B
100
AcDbEntity
 67
     1
  8
0
100
AcDbBlockBegin
  2
*Paper_Space
 70
     0
 10
0.0
 20
0.0
 30
0.0
  3
*Paper_Space
  1

  0
ENDBLK
  5
1D
330
1B
100
AcDbEntity
 67
     1
  8
0
100
AcDbBlockEnd
  0
BLOCK
  5
24
330
23
100
AcDbEntity
  8
0
100
AcDbBlockBegin
  2
*Paper_Space0
 70
     0
 10
0.0
 20
0.0
 30
0.0
  3
*Paper_Space0
  1

  0
ENDBLK
  5
25
330
23
100
AcDbEntity
  8
0
100
AcDbBlockEnd
  0
ENDSEC
  0
SECTION
  2
ENTITIES
  0
LINE
  5
47
330
1F
100
AcDbEntity
  8
4-4
  6
Continuous
 62
     7
370
     9
100
AcDbLine
 10
851.0189227926672
 20
264.0314029384422
 30
0.0
 11
-3954.981077207334
 21
264.0314029384422
 31
0.0
  0
LINE
  5
48
330
1F
100
AcDbEntity
  8
4-4
  6
Continuous
 62
     7
370
     9
100
AcDbLine
 10
-4876.787700733714
 20
-2453.968597061558
 30
0.0
 11
3963.315286878625
 21
-2453.968597061558
 31
0.0
  0
LINE
  5
49
330
1F
100
AcDbEntity
  8
4-4
  6
Continuous
 62
     7
370
     9
100
AcDbLine
 10
3963.315286878625
 20
668.7150837988821
 30
0.0
 11
3963.315286878625
 21
-3022.793296089385
 31
0.0
  0
LWPOLYLINE
  5
4A
330
1F
100
AcDbEntity
  8
4-4
  6
Continuous
 62
     4
370
     5
100
AcDbPolyline
 90
        4
 70
     1
 43
3.0
 10
3964.815286878625
 20
-3022.793296089385
 42
0.4142135623731
 10
3963.315286878625
 20
-3021.293296089385
 42
0.4142135623731
 10
3961.815286878624
 20
-3022.793296089385
 42
0.4142135623731
 10
3963.315286878625
 20
-3024.293296089385
 42
0.4142135623731
  0
MTEXT
  5
4B
330
1F
100
AcDbEntity
  8
4-4
  6
Continuous
 62
     7
370
     9
100
AcDbMText
 10
556.6565115833478
 20
-2457.125498543999
 30
0.0
 40
76.19999999999999
 41
300.0
 46
0.0
 71
     7
 72
     1
  1
{\fＭＳ ゴシック|b0|i0|c128|p49;▼ＦＬ}
 73
     1
 44
1.0
  0
LWPOLYLINE
  5
4C
330
1F
100
AcDbEntity
  8
4-4
  6
Continuous
 62
     4
370
     5
100
AcDbPolyline
 90
        4
 70
     1
 43
3.0
 10
3964.815286878625
 20
-2682.569832402235
 42
0.4142135623731
 10
3963.315286878625
 20
-2681.069832402235
 42
0.4142135623731
 10
3961.815286878624
 20
-2682.569832402235
 42
0.4142135623731
 10
3963.315286878625
 20
-2684.069832402235
 42
0.4142135623731
  0
MTEXT
  5
4D
330
1F
100
AcDbEntity
  8
4-4
  6
Continuous
 62
     7
370
     9
100
AcDbMText
 10
3227.690209185764
 20
-2792.339005785556
 30
0.0
 40
78.58125
 41
412.5
 46
0.0
 71
     7
 72
     1
  1
{\fＭＳ ゴシック|b0|i0|c128|p49;(左側板)}
 73
     1
 44
1.0
  0
LINE
  5
4E
330
1F
100
AcDbEntity
  8
4-4
  6
Continuous
 62
     7
370
     9
100
AcDbLine
 10
3948.315286878625
 20
270.0314029384435
 30
0.0
 11
3948.315286878625
 21
-1913.968597061558
 31
0.0
  0
LINE
  5
4F
330
1F
100
AcDbEntity
  8
4-4
  6
Continuous
 62
     7
370
     9
100
AcDbLine
 10
2763.315286878624
 20
-2682.569832402235
 30
0.0
 11
2763.315286878624
 21
-2530.055865921789
 31
0.0
  0
LINE
  5
50
330
1F
100
AcDbEntity
  8
4-4
  6
Continuous
 62
     7
370
     9
100
AcDbLine
 10
3843.315286878625
 20
-2003.968597061558
 30
0.0
 11
3843.315286878625
 21
-2453.968597061558
 31
0.0
  0
LINE
  5
51
330
1F
100
AcDbEntity
  8
4-4
  6
Continuous
 62
     7
370
     9
100
AcDbLine
 10
2913.315286878624
 20
-2003.968597061558
 30
0.0
 11
2913.315286878624
 21
-2453.968597061558
 31
0.0
  0
LINE
  5
52
330
1F
100
AcDbEntity
  8
2-2
  6
Continuous
 62
     7
370
     9
100
AcDbLine
 10
3871.985471949637
 20
3128.00332379887
 30
0.0
 11
4957.348600441257
 21
3128.00332379887
 31
0.0
  0
LINE
  5
53
330
1F
100
AcDbEntity
  8
2-2
  6
Continuous
 62
     7
370
     9
100
AcDbLine
 10
3316.985471949637
 20
3308.00332379887
 30
0.0
 11
3496.985471949637
 21
3308.00332379887
 31
0.0
  0
LINE
  5
54
330
1F
100
AcDbEntity
  8
2-2
  6
Continuous
 62
     7
370
     9
100
AcDbLine
 10
3316.985471949637
 20
3308.00332379887
 30
0.0
 11
3316.985471949637
 21
3128.00332379887
 31
0.0
  0
LINE
  5
55
330
1F
100
AcDbEntity
  8
2-2
  6
Continuous
 62
     7
370
     9
100
AcDbLine
 10
3496.985471949637
 20
3308.00332379887
 30
0.0
 11
3496.985471949637
 21
3128.00332379887
 31
0.0
  0
LINE
  5
56
330
1F
100
AcDbEntity
  8
2-2
  6
Continuous
 62
     7
370
     9
100
AcDbLine
 10
3691.985471949637
 20
3308.00332379887
 30
0.0
 11
3691.985471949637
 21
3128.00332379887
 31
0.0
  0
LINE
  5
57
330
1F
100
AcDbEntity
  8
2-2
  6
Continuous
 62
     7
370
     9
100
AcDbLine
 10
3871.985471949637
 20
3308.00332379887
 30
0.0
 11
3871.985471949637
 21
3128.00332379887
 31
0.0
  0
LINE
  5
58
330
1F
100
AcDbEntity
  8
2-2
  6
Continuous
 62
     7
370
     9
100
AcDbLine
 10
3691.985471949637
 20
3308.00332379887
 30
0.0
 11
3871.985471949637
 21
3308.00332379887
 31
0.0
  0
LINE
  5
59
330
1F
100
AcDbEntity
  8
2-2
  6
Continuous
 62
     7
370
     9
100
AcDbLine
 10
3496.985471949637
 20
3128.00332379887
 30
0.0
 11
3691.985471949637
 21
3128.00332379887
 31
0.0
  0
MTEXT
  5
5A
330
1F
100
AcDbEntity
  8
2-2
  6
Continuous
 62
     7
370
     9
100
AcDbMText
 10
3350.086030608855
 20
1042.740249958695
 30
0.0
 40
101.8760869565217
 41
1537.5
 46
0.0
 71
     7
 72
     1
  1
{\fＭＳ ゴシック|b0|i0|c128|p49;【天板溝加工　SCL=1/2】}
 73
     1
 44
1.0
  0
LINE
  5
5B
330
1F
100
AcDbEntity
  8
2-2
  6
Continuous
 62
     4
370
     5
100
AcDbLine
 10
3196.985471949637
 20
2114.899971843563
 30
0.0
 11
3496.985471949637
 21
2114.899971843563
 31
0.0
  0
LWPOLYLINE
  5
5C
330
1F
100
AcDbEntity
  8
2-2
  6
Continuous
 62
     4
370
     5
100
AcDbPolyline
 90
        4
 70
     1
 43
3.0
 10
3198.485471949637
 20
2114.899971843563
 42
0.4142135623731
 10
3196.985471949637
 20
2116.399971843563
 42
0.4142135623731
 10
3195.485471949637
 20
2114.899971843563
 42
0.4142135623731
 10
3196.985471949637
 20
2113.399971843563
 42
0.4142135623731
  0
LWPOLYLINE
  5
5D
330
1F
100
AcDbEntity
  8
2-2
  6
Continuous
 62
     4
370
     5
100
AcDbPolyline
 90
        4
 70
     1
 43
3.0
 10
3498.485471949637
 20
2114.899971843563
 42
0.4142135623731
 10
3496.985471949637
 20
2116.399971843563
 42
0.4142135623731
 10
3495.485471949637
 20
2114.899971843563
 42
0.4142135623731
 10
3496.985471949637
 20
2113.399971843563
 42
0.4142135623731
  0
MTEXT
  5
5E
330
1F
100
AcDbEntity
  8
2-2
  6
Continuous
 62
     7
370
   211
100
AcDbMText
 10
3283.235471949637
 20
2118.477471843563
 30
0.0
 40
97.15499999999999
 41
127.5
 46
0.0
 71
     7
 72
     1
  1
{\fＭＳ ゴシック|b0|i0|c128|p49;20}
 73
     1
 44
1.0
  0
LINE
  5
5F
330
1F
100
AcDbEntity
  8
2-2
  6
Continuous
 62
     4
370
     5
100
AcDbLine
 10
3496.985471949637
 20
2114.899971843563
 30
0.0
 11
3571.985471949637
 21
2114.899971843563
 31
0.0
  0
LWPOLYLINE
  5
60
330
1F
100
AcDbEntity
  8
2-2
  6
Continuous
 62
     4
370
     5
100
AcDbPolyline
 90
        4
 70
     1
 43
3.0
 10
3573.485471949637
 20
2114.899971843563
 42
0.4142135623731
 10
3571.985471949637
 20
2116.399971843563
 42
0.4142135623731
 10
3570.485471949637
 20
2114.899971843563
 42
0.4142135623731
 10
3571.985471949637
 20
2113.399971843563
 42
0.4142135623731
  0
MTEXT
  5
61
330
1F
100
AcDbEntity
  8
2-2
  6
Continuous
 62
     7
370
   211
100
AcDbMText
 10
3504.485471949637
 20
2115.619971843563
 30
0.0
 40
91.44
 41
60.0
 46
0.0
 71
     7
 72
     1
  1
{\fＭＳ ゴシック|b0|i0|c128|p49;5}
 73
     1
 44
1.0
  0
LINE
  5
62
330
1F
100
AcDbEntity
  8
2-2
  6
Continuous
 62
     4
370
     5
100
AcDbLine
 10
3571.985471949637
 20
2114.899971843563
 30
0.0
 11
3871.985471949637
 21
2114.899971843563
 31
0.0
  0
LWPOLYLINE
  5
63
330
1F
100
AcDbEntity
  8
2-2
  6
Continuous
 62
     4
370
     5
100
AcDbPolyline
 90
        4
 70
     1
 43
3.0
 10
3873.485471949638
 20
2114.899971843563
 42
0.4142135623731
 10
3871.985471949637
 20
2116.399971843563
 42
0.4142135623731
 10
3870.485471949637
 20
2114.899971843563
 42
0.4142135623731
 10
3871.985471949637
 20
2113.399971843563
 42
0.4142135623731
  0
MTEXT
  5
64
330
1F
100
AcDbEntity
  8
2-2
  6
Continuous
 62
     7
370
   211
100
AcDbMText
 10
3658.235471949637
 20
2118.477471843563
 30
0.0
 40
97.15499999999999
 41
127.5
 46
0.0
 71
     7
 72
     1
  1
{\fＭＳ ゴシック|b0|i0|c128|p49;20}
 73
     1
 44
1.0
  0
LINE
  5
65
330
1F
100
AcDbEntity
  8
2-2
  6
JWW_DASHED1
 62
     3
370
    13
100
AcDbLine
 10
3196.985471949637
 20
2512.919524916188
 30
0.0
 11
3196.985471949637
 21
3098.00332379887
 31
0.0
  0
LINE
  5
66
330
1F
100
AcDbEntity
  8
2-2
  6
JWW_DASHED1
 62
     3
370
    13
100
AcDbLine
 10
3196.985471949637
 20
3098.00332379887
 30
0.0
 11
3496.985471949637
 21
3098.00332379887
 31
0.0
  0
LINE
  5
67
330
1F
100
AcDbEntity
  8
2-2
  6
JWW_DASHED1
 62
     3
370
    13
100
AcDbLine
 10
3496.985471949637
 20
3098.00332379887
 30
0.0
 11
3496.985471949637
 21
2512.919524916188
 31
0.0
  0
LINE
  5
68
330
1F
100
AcDbEntity
  8
2-2
  6
JWW_DASHED1
 62
     3
370
    13
100
AcDbLine
 10
3571.985471949637
 20
2512.919524916188
 30
0.0
 11
3571.985471949637
 21
3098.00332379887
 31
0.0
  0
LINE
  5
69
330
1F
100
AcDbEntity
  8
2-2
  6
JWW_DASHED1
 62
     3
370
    13
100
AcDbLine
 10
3571.985471949637
 20
3098.00332379887
 30
0.0
 11
3871.985471949637
 21
3098.00332379887
 31
0.0
  0
LINE
  5
6A
330
1F
100
AcDbEntity
  8
2-2
  6
JWW_DASHED1
 62
     3
370
    13
100
AcDbLine
 10
3871.985471949637
 20
3098.00332379887
 30
0.0
 11
3871.985471949637
 21
2512.919524916188
 31
0.0
  0
LINE
  5
6B
330
1F
100
AcDbEntity
  8
2-2
  6
JWW_DASHED1
 62
     3
370
    13
100
AcDbLine
 10
3871.985471949637
 20
2452.919524916188
 30
0.0
 11
3871.985471949637
 21
1882.835726033507
 31
0.0
  0
LINE
  5
6C
330
1F
100
AcDbEntity
  8
2-2
  6
JWW_DASHED1
 62
     3
370
    13
100
AcDbLine
 10
3871.985471949637
 20
1882.835726033507
 30
0.0
 11
3571.985471949637
 21
1882.835726033507
 31
0.0
  0
LINE
  5
6D
330
1F
100
AcDbEntity
  8
2-2
  6
JWW_DASHED1
 62
     3
370
    13
100
AcDbLine
 10
3571.985471949637
 20
1882.835726033507
 30
0.0
 11
3571.985471949637
 21
2452.919524916188
 31
0.0
  0
LINE
  5
6E
330
1F
100
AcDbEntity
  8
2-2
  6
JWW_DASHED1
 62
     3
370
    13
100
AcDbLine
 10
3496.985471949637
 20
2452.919524916188
 30
0.0
 11
3496.985471949637
 21
1882.835726033507
 31
0.0
  0
LINE
  5
6F
330
1F
100
AcDbEntity
  8
2-2
  6
JWW_DASHED1
 62
     3
370
    13
100
AcDbLine
 10
3496.985471949637
 20
1882.835726033507
 30
0.0
 11
3196.985471949637
 21
1882.835726033507
 31
0.0
  0
LINE
  5
70
330
1F
100
AcDbEntity
  8
2-2
  6
JWW_CENTER1
 62
     3
370
    13
100
AcDbLine
 10
4957.348600441257
 20
3855.712821005573
 30
0.0
 11
4957.348600441257
 21
2481.159748379876
 31
0.0
  0
LINE
  5
71
330
1F
100
AcDbEntity
  8
2-2
  6
JWW_CENTER1
 62
     3
370
    13
100
AcDbLine
 10
4957.348600441257
 20
2481.159748379876
 30
0.0
 11
4987.348600441257
 21
2451.159748379876
 31
0.0
  0
LINE
  5
72
330
1F
100
AcDbEntity
  8
2-2
  6
JWW_CENTER1
 62
     3
370
    13
100
AcDbLine
 10
4987.348600441257
 20
2451.159748379876
 30
0.0
 11
4927.348600441257
 21
2421.159748379876
 31
0.0
  0
LINE
  5
73
330
1F
100
AcDbEntity
  8
2-2
  6
JWW_CENTER1
 62
     3
370
    13
100
AcDbLine
 10
4927.348600441257
 20
2421.159748379876
 30
0.0
 11
4957.348600441257
 21
2391.159748379876
 31
0.0
  0
LINE
  5
74
330
1F
100
AcDbEntity
  8
2-2
  6
JWW_CENTER1
 62
     3
370
    13
100
AcDbLine
 10
4957.348600441257
 20
2391.159748379876
 30
0.0
 11
4957.348600441257
 21
1086.997737206691
 31
0.0
  0
LINE
  5
75
330
1F
100
AcDbEntity
  8
2-2
  6
Continuous
 62
     4
370
     5
100
AcDbLine
 10
3196.985471949637
 20
2114.899971843563
 30
0.0
 11
2596.985471949637
 21
2114.899971843563
 31
0.0
  0
LINE
  5
76
330
1F
100
AcDbEntity
  8
2-2
  6
Continuous
 62
     7
370
     9
100
AcDbLine
 10
3196.985471949637
 20
2114.899971843563
 30
0.0
 11
3196.985471949637
 21
1882.835726033507
 31
0.0
  0
LINE
  5
77
330
1F
100
AcDbEntity
  8
2-2
  6
Continuous
 62
     4
370
     5
100
AcDbLine
 10
3871.985471949637
 20
2916.944341533335
 30
0.0
 11
3691.985471949637
 21
2916.944341533335
 31
0.0
  0
LWPOLYLINE
  5
78
330
1F
100
AcDbEntity
  8
2-2
  6
Continuous
 62
     4
370
     5
100
AcDbPolyline
 90
        4
 70
     1
 43
3.0
 10
3873.485471949638
 20
2916.944341533335
 42
0.4142135623731
 10
3871.985471949637
 20
2918.444341533335
 42
0.4142135623731
 10
3870.485471949637
 20
2916.944341533335
 42
0.4142135623731
 10
3871.985471949637
 20
2915.444341533335
 42
0.4142135623731
  0
LWPOLYLINE
  5
79
330
1F
100
AcDbEntity
  8
2-2
  6
Continuous
 62
     4
370
     5
100
AcDbPolyline
 90
        4
 70
     1
 43
3.0
 10
3693.485471949637
 20
2916.944341533335
 42
0.4142135623731
 10
3691.985471949637
 20
2918.444341533335
 42
0.4142135623731
 10
3690.485471949637
 20
2916.944341533335
 42
0.4142135623731
 10
3691.985471949637
 20
2915.444341533335
 42
0.4142135623731
  0
LINE
  5
7A
330
1F
100
AcDbEntity
  8
2-2
  6
Continuous
 62
     7
370
     9
100
AcDbLine
 10
3871.985471949637
 20
2916.944341533335
 30
0.0
 11
3871.985471949637
 21
3032.210099407573
 31
0.0
  0
LINE
  5
7B
330
1F
100
AcDbEntity
  8
2-2
  6
Continuous
 62
     7
370
     9
100
AcDbLine
 10
3691.985471949637
 20
2916.944341533335
 30
0.0
 11
3691.985471949637
 21
3032.210099407573
 31
0.0
  0
MTEXT
  5
7C
330
1F
100
AcDbEntity
  8
2-2
  6
Continuous
 62
     7
370
   211
100
AcDbMText
 10
3718.235471949637
 20
2920.521841533335
 30
0.0
 40
97.15499999999999
 41
127.5
 46
0.0
 71
     7
 72
     1
  1
{\fＭＳ ゴシック|b0|i0|c128|p49;12}
 73
     1
 44
1.0
  0
LINE
  5
7D
330
1F
100
AcDbEntity
  8
2-2
  6
Continuous
 62
     4
370
     5
100
AcDbLine
 10
3691.985471949637
 20
2916.944341533335
 30
0.0
 11
3496.985471949637
 21
2916.944341533335
 31
0.0
  0
LWPOLYLINE
  5
7E
330
1F
100
AcDbEntity
  8
2-2
  6
Continuous
 62
     4
370
     5
100
AcDbPolyline
 90
        4
 70
     1
 43
3.0
 10
3498.485471949637
 20
2916.944341533335
 42
0.4142135623731
 10
3496.985471949637
 20
2918.444341533335
 42
0.4142135623731
 10
3495.485471949637
 20
2916.944341533335
 42
0.4142135623731
 10
3496.985471949637
 20
2915.444341533335
 42
0.4142135623731
  0
LINE
  5
7F
330
1F
100
AcDbEntity
  8
2-2
  6
Continuous
 62
     7
370
     9
100
AcDbLine
 10
3496.985471949637
 20
2916.944341533335
 30
0.0
 11
3496.985471949637
 21
3032.210099407573
 31
0.0
  0
MTEXT
  5
80
330
1F
100
AcDbEntity
  8
2-2
  6
Continuous
 62
     7
370
   211
100
AcDbMText
 10
3530.735471949637
 20
2920.521841533335
 30
0.0
 40
97.15499999999999
 41
127.5
 46
0.0
 71
     7
 72
     1
  1
{\fＭＳ ゴシック|b0|i0|c128|p49;13}
 73
     1
 44
1.0
  0
LINE
  5
81
330
1F
100
AcDbEntity
  8
2-2
  6
Continuous
 62
     4
370
     5
100
AcDbLine
 10
3496.985471949637
 20
2916.944341533335
 30
0.0
 11
3316.985471949637
 21
2916.944341533335
 31
0.0
  0
LWPOLYLINE
  5
82
330
1F
100
AcDbEntity
  8
2-2
  6
Continuous
 62
     4
370
     5
100
AcDbPolyline
 90
        4
 70
     1
 43
3.0
 10
3318.485471949637
 20
2916.944341533335
 42
0.4142135623731
 10
3316.985471949637
 20
2918.444341533335
 42
0.4142135623731
 10
3315.485471949637
 20
2916.944341533335
 42
0.4142135623731
 10
3316.985471949637
 20
2915.444341533335
 42
0.4142135623731
  0
LINE
  5
83
330
1F
100
AcDbEntity
  8
2-2
  6
Continuous
 62
     7
370
     9
100
AcDbLine
 10
3316.985471949637
 20
2916.944341533335
 30
0.0
 11
3316.985471949637
 21
3032.210099407573
 31
0.0
  0
MTEXT
  5
84
330
1F
100
AcDbEntity
  8
2-2
  6
Continuous
 62
     7
370
   211
100
AcDbMText
 10
3343.235471949637
 20
2920.521841533335
 30
0.0
 40
97.15499999999999
 41
127.5
 46
0.0
 71
     7
 72
     1
  1
{\fＭＳ ゴシック|b0|i0|c128|p49;12}
 73
     1
 44
1.0
  0
LINE
  5
85
330
1F
100
AcDbEntity
  8
2-2
  6
Continuous
 62
     4
370
     5
100
AcDbLine
 10
3316.985471949637
 20
2916.944341533335
 30
0.0
 11
3166.985471949637
 21
2916.944341533335
 31
0.0
  0
LWPOLYLINE
  5
86
330
1F
100
AcDbEntity
  8
2-2
  6
Continuous
 62
     4
370
     5
100
AcDbPolyline
 90
        4
 70
     1
 43
3.0
 10
3168.485471949637
 20
2916.944341533335
 42
0.4142135623731
 10
3166.985471949637
 20
2918.444341533335
 42
0.4142135623731
 10
3165.485471949637
 20
2916.944341533335
 42
0.4142135623731
 10
3166.985471949637
 20
2915.444341533335
 42
0.4142135623731
  0
LINE
  5
87
330
1F
100
AcDbEntity
  8
2-2
  6
Continuous
 62
     7
370
     9
100
AcDbLine
 10
3166.985471949637
 20
2916.944341533335
 30
0.0
 11
3166.985471949637
 21
3032.210099407573
 31
0.0
  0
MTEXT
  5
88
330
1F
100
AcDbEntity
  8
2-2
  6
Continuous
 62
     7
370
   211
100
AcDbMText
 10
3178.235471949637
 20
2920.521841533335
 30
0.0
 40
97.15499999999999
 41
127.5
 46
0.0
 71
     7
 72
     1
  1
{\fＭＳ ゴシック|b0|i0|c128|p49;10}
 73
     1
 44
1.0
  0
LINE
  5
89
330
1F
100
AcDbEntity
  8
2-2
  6
Continuous
 62
     4
370
     5
100
AcDbLine
 10
2090.881589907186
 20
3128.00332379887
 30
0.0
 11
2090.881589907186
 21
3098.00332379887
 31
0.0
  0
LWPOLYLINE
  5
8A
330
1F
100
AcDbEntity
  8
2-2
  6
Continuous
 62
     4
370
     5
100
AcDbPolyline
 90
        4
 70
     1
 43
3.0
 10
2092.381589907186
 20
3128.00332379887
 42
0.4142135623731
 10
2090.881589907186
 20
3129.50332379887
 42
0.4142135623731
 10
2089.381589907186
 20
3128.00332379887
 42
0.4142135623731
 10
2090.881589907186
 20
3126.50332379887
 42
0.4142135623731
  0
LWPOLYLINE
  5
8B
330
1F
100
AcDbEntity
  8
2-2
  6
Continuous
 62
     4
370
     5
100
AcDbPolyline
 90
        4
 70
     1
 43
3.0
 10
2092.381589907186
 20
3098.00332379887
 42
0.4142135623731
 10
2090.881589907186
 20
3099.50332379887
 42
0.4142135623731
 10
2089.381589907186
 20
3098.00332379887
 42
0.4142135623731
 10
2090.881589907186
 20
3096.50332379887
 42
0.4142135623731
  0
LINE
  5
8C
330
1F
100
AcDbEntity
  8
2-2
  6
Continuous
 62
     7
370
     9
100
AcDbLine
 10
2090.881589907186
 20
3128.00332379887
 30
0.0
 11
2279.285839627104
 21
3128.00332379887
 31
0.0
  0
LINE
  5
8D
330
1F
100
AcDbEntity
  8
2-2
  6
Continuous
 62
     7
370
     9
100
AcDbLine
 10
2090.881589907186
 20
3098.00332379887
 30
0.0
 11
2279.285839627104
 21
3098.00332379887
 31
0.0
  0
MTEXT
  5
8E
330
1F
100
AcDbEntity
  8
2-2
  6
Continuous
 62
     7
370
   211
100
AcDbMText
 10
2075.881589907186
 20
3068.72332379887
 30
0.0
 40
91.44
 41
60.0
 46
0.0
 71
     7
 72
     1
  1
{\fＭＳ ゴシック|b0|i0|c128|p49;2}
 11
6.123031769111886E-17
 21
1.0
 31
0.0
 73
     1
 44
1.0
  0
LINE
  5
8F
330
1F
100
AcDbEntity
  8
2-2
  6
Continuous
 62
     4
370
     5
100
AcDbLine
 10
2090.881589907186
 20
1882.835726033507
 30
0.0
 11
2090.881589907186
 21
1837.835726033507
 31
0.0
  0
LWPOLYLINE
  5
90
330
1F
100
AcDbEntity
  8
2-2
  6
Continuous
 62
     4
370
     5
100
AcDbPolyline
 90
        4
 70
     1
 43
3.0
 10
2092.381589907186
 20
1882.835726033507
 42
0.4142135623731
 10
2090.881589907186
 20
1884.335726033506
 42
0.4142135623731
 10
2089.381589907186
 20
1882.835726033507
 42
0.4142135623731
 10
2090.881589907186
 20
1881.335726033507
 42
0.4142135623731
  0
LWPOLYLINE
  5
91
330
1F
100
AcDbEntity
  8
2-2
  6
Continuous
 62
     4
370
     5
100
AcDbPolyline
 90
        4
 70
     1
 43
3.0
 10
2092.381589907186
 20
1837.835726033507
 42
0.4142135623731
 10
2090.881589907186
 20
1839.335726033506
 42
0.4142135623731
 10
2089.381589907186
 20
1837.835726033507
 42
0.4142135623731
 10
2090.881589907186
 20
1836.335726033507
 42
0.4142135623731
  0
LINE
  5
92
330
1F
100
AcDbEntity
  8
2-2
  6
Continuous
 62
     7
370
     9
100
AcDbLine
 10
2090.881589907186
 20
1882.835726033507
 30
0.0
 11
2279.285839627104
 21
1882.835726033507
 31
0.0
  0
LINE
  5
93
330
1F
100
AcDbEntity
  8
2-2
  6
Continuous
 62
     7
370
     9
100
AcDbLine
 10
1831.949892535761
 20
1837.835726033507
 30
0.0
 11
2279.285839627104
 21
1837.835726033507
 31
0.0
  0
MTEXT
  5
94
330
1F
100
AcDbEntity
  8
2-2
  6
Continuous
 62
     7
370
   211
100
AcDbMText
 10
2075.881589907186
 20
1816.055726033507
 30
0.0
 40
91.44
 41
60.0
 46
0.0
 71
     7
 72
     1
  1
{\fＭＳ ゴシック|b0|i0|c128|p49;3}
 11
6.123031769111886E-17
 21
1.0
 31
0.0
 73
     1
 44
1.0
  0
LINE
  5
95
330
1F
100
AcDbEntity
  8
2-2
  6
Continuous
 62
     4
370
     5
100
AcDbLine
 10
2090.881589907186
 20
3128.00332379887
 30
0.0
 11
2090.881589907186
 21
3308.00332379887
 31
0.0
  0
LWPOLYLINE
  5
96
330
1F
100
AcDbEntity
  8
2-2
  6
Continuous
 62
     4
370
     5
100
AcDbPolyline
 90
        4
 70
     1
 43
3.0
 10
2092.381589907186
 20
3308.00332379887
 42
0.4142135623731
 10
2090.881589907186
 20
3309.50332379887
 42
0.4142135623731
 10
2089.381589907186
 20
3308.00332379887
 42
0.4142135623731
 10
2090.881589907186
 20
3306.50332379887
 42
0.4142135623731
  0
LINE
  5
97
330
1F
100
AcDbEntity
  8
2-2
  6
Continuous
 62
     7
370
     9
100
AcDbLine
 10
2090.881589907186
 20
3308.00332379887
 30
0.0
 11
2279.285839627104
 21
3308.00332379887
 31
0.0
  0
MTEXT
  5
98
330
1F
100
AcDbEntity
  8
2-2
  6
Continuous
 62
     7
370
   211
100
AcDbMText
 10
2229.705773911337
 20
3147.832506167645
 30
0.0
 40
97.15499999999999
 41
127.5
 46
0.0
 71
     7
 72
     1
  1
{\fＭＳ ゴシック|b0|i0|c128|p49;12}
 11
6.123031769111886E-17
 21
1.0
 31
0.0
 73
     1
 44
1.0
  0
LINE
  5
99
330
1F
100
AcDbEntity
  8
2-2
  6
Continuous
 62
     4
370
     5
100
AcDbLine
 10
2090.881589907186
 20
3098.00332379887
 30
0.0
 11
2090.881589907186
 21
1882.835726033507
 31
0.0
  0
MTEXT
  5
9A
330
1F
100
AcDbEntity
  8
2-2
  6
Continuous
 62
     7
370
   211
100
AcDbMText
 10
2081.155054722182
 20
2168.859189720658
 30
0.0
 40
101.6
 41
600.0
 46
0.0
 71
     7
 72
     1
  1
{\fＭＳ ゴシック|b0|i0|c128|p49;引戸H=723}
 11
6.123031769111886E-17
 21
1.0
 31
0.0
 73
     1
 44
1.0
  0
LINE
  5
9B
330
1F
100
AcDbEntity
  8
2-2
  6
Continuous
 62
     7
370
     9
100
AcDbLine
 10
1831.949892535761
 20
1387.835726033507
 30
0.0
 11
2279.285839627104
 21
1387.835726033507
 31
0.0
  0
LINE
  5
9C
330
1F
100
AcDbEntity
  8
2-2
  6
Continuous
 62
     4
370
     5
100
AcDbLine
 10
1831.949892535761
 20
1837.835726033507
 30
0.0
 11
1831.949892535761
 21
1387.835726033507
 31
0.0
  0
LWPOLYLINE
  5
9D
330
1F
100
AcDbEntity
  8
2-2
  6
Continuous
 62
     4
370
     5
100
AcDbPolyline
 90
        4
 70
     1
 43
3.0
 10
1833.449892535761
 20
1837.835726033507
 42
0.4142135623731
 10
1831.949892535761
 20
1839.335726033506
 42
0.4142135623731
 10
1830.449892535761
 20
1837.835726033507
 42
0.4142135623731
 10
1831.949892535761
 20
1836.335726033507
 42
0.4142135623731
  0
LWPOLYLINE
  5
9E
330
1F
100
AcDbEntity
  8
2-2
  6
Continuous
 62
     4
370
     5
100
AcDbPolyline
 90
        4
 70
     1
 43
3.0
 10
1833.449892535761
 20
1387.835726033507
 42
0.4142135623731
 10
1831.949892535761
 20
1389.335726033506
 42
0.4142135623731
 10
1830.449892535761
 20
1387.835726033507
 42
0.4142135623731
 10
1831.949892535761
 20
1386.335726033507
 42
0.4142135623731
  0
MTEXT
  5
9F
330
1F
100
AcDbEntity
  8
2-2
  6
Continuous
 62
     7
370
   211
100
AcDbMText
 10
1815.073078453804
 20
1277.846090225976
 30
0.0
 40
101.830909090909
 41
734.9999999999991
 46
0.0
 71
     7
 72
     1
  1
{\fＭＳ ゴシック|b0|i0|c128|p49;30(ｶｳﾝﾀｰ厚)}
 11
6.123031769111886E-17
 21
1.0
 31
0.0
 73
     1
 44
1.0
  0
LINE
  5
A0
330
1F
100
AcDbEntity
  8
4-4
  6
Continuous
 62
     4
370
     5
100
AcDbLine
 10
-4740.707058719162
 20
264.031402938443
 30
0.0
 11
-4740.707058719162
 21
-1910.968597061558
 31
0.0
  0
LINE
  5
A1
330
1F
100
AcDbEntity
  8
4-4
  6
Continuous
 62
     4
370
     5
100
AcDbLine
 10
-4740.707058719162
 20
-2003.968597061558
 30
0.0
 11
-4740.707058719162
 21
-2453.968597061558
 31
0.0
  0
LWPOLYLINE
  5
A2
330
1F
100
AcDbEntity
  8
4-4
  6
Continuous
 62
     4
370
     5
100
AcDbPolyline
 90
        4
 70
     1
 43
3.0
 10
-4739.207058719162
 20
-2453.968597061558
 42
0.4142135623731
 10
-4740.707058719162
 20
-2452.468597061558
 42
0.4142135623731
 10
-4742.207058719162
 20
-2453.968597061558
 42
0.4142135623731
 10
-4740.707058719162
 20
-2455.468597061557
 42
0.4142135623731
  0
MTEXT
  5
A3
330
1F
100
AcDbEntity
  8
4-4
  6
Continuous
 62
     7
370
   211
100
AcDbMText
 10
-4755.707058719162
 20
-2336.938597061558
 30
0.0
 40
99.06
 41
195.0
 46
0.0
 71
     7
 72
     1
  1
{\fＭＳ ゴシック|b0|i0|c128|p49;150}
 11
6.123031769111886E-17
 21
1.0
 31
0.0
 73
     1
 44
1.0
  0
MTEXT
  5
A4
330
1F
100
AcDbEntity
  8
4-4
  6
Continuous
 62
     7
370
   211
100
AcDbMText
 10
-4828.176261946375
 20
131.4024317807346
 30
0.0
 40
91.44
 41
60.0
 46
0.0
 71
     7
 72
     1
  1
{\fＭＳ ゴシック|b0|i0|c128|p49;2}
 11
6.123031769111886E-17
 21
1.0
 31
0.0
 73
     1
 44
1.0
  0
MTEXT
  5
A5
330
1F
100
AcDbEntity
  8
4-4
  6
Continuous
 62
     7
370
   211
100
AcDbMText
 10
-4842.540544300835
 20
-1872.414956666414
 30
0.0
 40
91.44
 41
60.0
 46
0.0
 71
     7
 72
     1
  1
{\fＭＳ ゴシック|b0|i0|c128|p49;3}
 11
6.123031769111886E-17
 21
1.0
 31
0.0
 73
     1
 44
1.0
  0
LINE
  5
A6
330
1F
100
AcDbEntity
  8
4-4
  6
Continuous
 62
     3
370
    13
100
AcDbLine
 10
-4821.473285539295
 20
180.8816307571607
 30
0.0
 11
-4727.564992652611
 21
266.3622563335011
 31
0.0
  0
LINE
  5
A7
330
1F
100
AcDbEntity
  8
4-4
  6
Continuous
 62
     3
370
    13
100
AcDbLine
 10
-4838.961757052261
 20
-1842.420505725693
 30
0.0
 11
-4723.853897476482
 21
-1908.927269036144
 31
0.0
  0
LINE
  5
A8
330
1F
100
AcDbEntity
  8
4-4
  6
Continuous
 62
     4
370
     5
100
AcDbLine
 10
-4986.978587014454
 20
360.0314029384418
 30
0.0
 11
-4986.978587014454
 21
-2003.968597061558
 31
0.0
  0
LINE
  5
A9
330
1F
100
AcDbEntity
  8
4-4
  6
Continuous
 62
     4
370
     5
100
AcDbLine
 10
-4740.707058719162
 20
354.0314029384422
 30
0.0
 11
-4740.707058719162
 21
264.0314029384422
 31
0.0
  0
LWPOLYLINE
  5
AA
330
1F
100
AcDbEntity
  8
4-4
  6
Continuous
 62
     4
370
     5
100
AcDbPolyline
 90
        4
 70
     1
 43
3.0
 10
-4739.207058719162
 20
354.0314029384422
 42
0.4142135623731
 10
-4740.707058719162
 20
355.5314029384422
 42
0.4142135623731
 10
-4742.207058719162
 20
354.0314029384422
 42
0.4142135623731
 10
-4740.707058719162
 20
352.5314029384422
 42
0.4142135623731
  0
LWPOLYLINE
  5
AB
330
1F
100
AcDbEntity
  8
4-4
  6
Continuous
 62
     4
370
     5
100
AcDbPolyline
 90
        4
 70
     1
 43
3.0
 10
-4739.207058719162
 20
264.0314029384422
 42
0.4142135623731
 10
-4740.707058719162
 20
265.5314029384422
 42
0.4142135623731
 10
-4742.207058719162
 20
264.0314029384422
 42
0.4142135623731
 10
-4740.707058719162
 20
262.5314029384422
 42
0.4142135623731
  0
LINE
  5
AC
330
1F
100
AcDbEntity
  8
4-4
  6
Continuous
 62
     7
370
     9
100
AcDbLine
 10
-4986.978587014454
 20
354.0314029384422
 30
0.0
 11
-4443.981077207334
 21
354.0314029384422
 31
0.0
  0
LINE
  5
AD
330
1F
100
AcDbEntity
  8
4-4
  6
Continuous
 62
     7
370
     9
100
AcDbLine
 10
-4740.707058719162
 20
264.0314029384422
 30
0.0
 11
-4443.981077207334
 21
264.0314029384422
 31
0.0
  0
LWPOLYLINE
  5
AE
330
1F
100
AcDbEntity
  8
4-4
  6
Continuous
 62
     4
370
     5
100
AcDbPolyline
 90
        4
 70
     1
 43
3.0
 10
-4739.207058719162
 20
258.0314029384425
 42
0.4142135623731
 10
-4740.707058719162
 20
259.5314029384425
 42
0.4142135623731
 10
-4742.207058719162
 20
258.0314029384425
 42
0.4142135623731
 10
-4740.707058719162
 20
256.5314029384425
 42
0.4142135623731
  0
LINE
  5
AF
330
1F
100
AcDbEntity
  8
4-4
  6
Continuous
 62
     7
370
     9
100
AcDbLine
 10
-4740.707058719162
 20
258.0314029384425
 30
0.0
 11
-4443.981077207334
 21
258.0314029384425
 31
0.0
  0
LWPOLYLINE
  5
B0
330
1F
100
AcDbEntity
  8
4-4
  6
Continuous
 62
     4
370
     5
100
AcDbPolyline
 90
        4
 70
     1
 43
3.0
 10
-4985.478587014454
 20
354.0314029384422
 42
0.4142135623731
 10
-4986.978587014454
 20
355.5314029384422
 42
0.4142135623731
 10
-4988.478587014454
 20
354.0314029384422
 42
0.4142135623731
 10
-4986.978587014454
 20
352.5314029384422
 42
0.4142135623731
  0
MTEXT
  5
B1
330
1F
100
AcDbEntity
  8
4-4
  6
Continuous
 62
     7
370
   211
100
AcDbMText
 10
-4756.887103627266
 20
210.0703997222316
 30
0.0
 40
97.15499999999999
 41
127.5
 46
0.0
 71
     7
 72
     1
  1
{\fＭＳ ゴシック|b0|i0|c128|p49;30}
 11
6.123031769111886E-17
 21
1.0
 31
0.0
 73
     1
 44
1.0
  0
LWPOLYLINE
  5
B2
330
1F
100
AcDbEntity
  8
4-4
  6
Continuous
 62
     4
370
     5
100
AcDbPolyline
 90
        4
 70
     1
 43
3.0
 10
-4739.207058719162
 20
-1901.968597061557
 42
0.4142135623731
 10
-4740.707058719162
 20
-1900.468597061558
 42
0.4142135623731
 10
-4742.207058719162
 20
-1901.968597061557
 42
0.4142135623731
 10
-4740.707058719162
 20
-1903.468597061557
 42
0.4142135623731
  0
LINE
  5
B3
330
1F
100
AcDbEntity
  8
4-4
  6
Continuous
 62
     7
370
     9
100
AcDbLine
 10
-4740.707058719162
 20
-1901.968597061557
 30
0.0
 11
-4443.981077207334
 21
-1901.968597061557
 31
0.0
  0
LWPOLYLINE
  5
B4
330
1F
100
AcDbEntity
  8
4-4
  6
Continuous
 62
     4
370
     5
100
AcDbPolyline
 90
        4
 70
     1
 43
3.0
 10
-4739.207058719162
 20
-1910.968597061558
 42
0.4142135623731
 10
-4740.707058719162
 20
-1909.468597061558
 42
0.4142135623731
 10
-4742.207058719162
 20
-1910.968597061558
 42
0.4142135623731
 10
-4740.707058719162
 20
-1912.468597061558
 42
0.4142135623731
  0
LINE
  5
B5
330
1F
100
AcDbEntity
  8
4-4
  6
Continuous
 62
     7
370
     9
100
AcDbLine
 10
-4740.707058719162
 20
-1910.968597061558
 30
0.0
 11
-4443.981077207334
 21
-1910.968597061558
 31
0.0
  0
LINE
  5
B6
330
1F
100
AcDbEntity
  8
4-4
  6
Continuous
 62
     4
370
     5
100
AcDbLine
 10
-4740.707058719162
 20
-1910.968597061558
 30
0.0
 11
-4740.707058719162
 21
-2000.968597061558
 31
0.0
  0
LWPOLYLINE
  5
B7
330
1F
100
AcDbEntity
  8
4-4
  6
Continuous
 62
     4
370
     5
100
AcDbPolyline
 90
        4
 70
     1
 43
3.0
 10
-4739.207058719162
 20
-2000.968597061558
 42
0.4142135623731
 10
-4740.707058719162
 20
-1999.468597061558
 42
0.4142135623731
 10
-4742.207058719162
 20
-2000.968597061558
 42
0.4142135623731
 10
-4740.707058719162
 20
-2002.468597061558
 42
0.4142135623731
  0
LINE
  5
B8
330
1F
100
AcDbEntity
  8
4-4
  6
Continuous
 62
     7
370
     9
100
AcDbLine
 10
-4986.978587014454
 20
-2000.968597061558
 30
0.0
 11
-4443.981077207334
 21
-2000.968597061558
 31
0.0
  0
LWPOLYLINE
  5
B9
330
1F
100
AcDbEntity
  8
4-4
  6
Continuous
 62
     4
370
     5
100
AcDbPolyline
 90
        4
 70
     1
 43
3.0
 10
-4985.478587014454
 20
-2000.968597061558
 42
0.4142135623731
 10
-4986.978587014454
 20
-1999.468597061558
 42
0.4142135623731
 10
-4988.478587014454
 20
-2000.968597061558
 42
0.4142135623731
 10
-4986.978587014454
 20
-2002.468597061558
 42
0.4142135623731
  0
MTEXT
  5
BA
330
1F
100
AcDbEntity
  8
4-4
  6
Continuous
 62
     7
370
   211
100
AcDbMText
 10
-4766.128388231366
 20
-2009.881568069037
 30
0.0
 40
97.15499999999999
 41
127.5
 46
0.0
 71
     7
 72
     1
  1
{\fＭＳ ゴシック|b0|i0|c128|p49;30}
 11
6.123031769111886E-17
 21
1.0
 31
0.0
 73
     1
 44
1.0
  0
MTEXT
  5
BB
330
1F
100
AcDbEntity
  8
4-4
  6
Continuous
 62
     7
370
   211
100
AcDbMText
 10
-5001.978587014454
 20
-930.4860970615574
 30
0.0
 40
100.965
 41
795.0
 46
0.0
 71
     7
 72
     1
  1
{\fＭＳ ゴシック|b0|i0|c128|p49;785(ﾎﾞｯｸｽH）}
 11
6.123031769111886E-17
 21
1.0
 31
0.0
 73
     1
 44
1.0
  0
LINE
  5
BC
330
1F
100
AcDbEntity
  8
4-4
  6
Continuous
 62
     3
370
    13
100
AcDbLine
 10
2937.315286878624
 20
306.0314029384423
 30
0.0
 11
2973.315286878624
 21
306.0314029384423
 31
0.0
  0
LINE
  5
BD
330
1F
100
AcDbEntity
  8
4-4
  6
Continuous
 62
     3
370
    13
100
AcDbLine
 10
2937.315286878624
 20
270.0314029384435
 30
0.0
 11
2937.315286878624
 21
306.0314029384423
 31
0.0
  0
LINE
  5
BE
330
1F
100
AcDbEntity
  8
4-4
  6
Continuous
 62
     3
370
    13
100
AcDbLine
 10
2973.315286878624
 20
270.0314029384435
 30
0.0
 11
2973.315286878624
 21
306.0314029384423
 31
0.0
  0
LINE
  5
BF
330
1F
100
AcDbEntity
  8
4-4
  6
Continuous
 62
     3
370
    13
100
AcDbLine
 10
2862.315286878624
 20
306.0314029384423
 30
0.0
 11
2898.315286878624
 21
306.0314029384423
 31
0.0
  0
LINE
  5
C0
330
1F
100
AcDbEntity
  8
4-4
  6
Continuous
 62
     3
370
    13
100
AcDbLine
 10
2862.315286878624
 20
270.0314029384435
 30
0.0
 11
2862.315286878624
 21
306.0314029384423
 31
0.0
  0
LINE
  5
C1
330
1F
100
AcDbEntity
  8
4-4
  6
Continuous
 62
     3
370
    13
100
AcDbLine
 10
2898.315286878624
 20
270.0314029384435
 30
0.0
 11
2898.315286878624
 21
306.0314029384423
 31
0.0
  0
LINE
  5
C2
330
1F
100
AcDbEntity
  8
4-4
  6
Continuous
 62
     7
370
     9
100
AcDbLine
 10
2838.315286878624
 20
264.031402938443
 30
0.0
 11
2898.315286878624
 21
264.031402938443
 31
0.0
  0
LINE
  5
C3
330
1F
100
AcDbEntity
  8
4-4
  6
Continuous
 62
     7
370
     9
100
AcDbLine
 10
2913.315286878624
 20
264.031402938443
 30
0.0
 11
2973.315286878624
 21
264.031402938443
 31
0.0
  0
LINE
  5
C4
330
1F
100
AcDbEntity
  8
4-4
  6
Continuous
 62
     7
370
     9
100
AcDbLine
 10
2898.315286878624
 20
270.0314029384435
 30
0.0
 11
2937.315286878624
 21
270.0314029384435
 31
0.0
  0
LINE
  5
C5
330
1F
100
AcDbEntity
  8
4-4
  6
Continuous
 62
     7
370
     9
100
AcDbLine
 10
2973.315286878624
 20
264.031402938443
 30
0.0
 11
2973.315286878624
 21
-1904.968597061558
 31
0.0
  0
LINE
  5
C6
330
1F
100
AcDbEntity
  8
4-4
  6
Continuous
 62
     7
370
     9
100
AcDbLine
 10
2913.315286878624
 20
264.031402938443
 30
0.0
 11
2913.315286878624
 21
-1904.968597061558
 31
0.0
  0
LINE
  5
C7
330
1F
100
AcDbEntity
  8
4-4
  6
Continuous
 62
     7
370
     9
100
AcDbLine
 10
2898.315286878624
 20
264.031402938443
 30
0.0
 11
2898.315286878624
 21
-1904.968597061558
 31
0.0
  0
LINE
  5
C8
330
1F
100
AcDbEntity
  8
4-4
  6
Continuous
 62
     7
370
     9
100
AcDbLine
 10
2838.315286878624
 20
264.031402938443
 30
0.0
 11
2838.315286878624
 21
-1904.968597061558
 31
0.0
  0
LINE
  5
C9
330
1F
100
AcDbEntity
  8
4-4
  6
Continuous
 62
     7
370
     9
100
AcDbLine
 10
2838.315286878624
 20
-1904.968597061558
 30
0.0
 11
2898.315286878624
 21
-1904.968597061558
 31
0.0
  0
LINE
  5
CA
330
1F
100
AcDbEntity
  8
4-4
  6
Continuous
 62
     7
370
     9
100
AcDbLine
 10
2913.315286878624
 20
-1904.968597061558
 30
0.0
 11
2973.315286878624
 21
-1904.968597061558
 31
0.0
  0
LINE
  5
CB
330
1F
100
AcDbEntity
  8
4-4
  6
Continuous
 62
     7
370
     9
100
AcDbLine
 10
2988.315286878624
 20
270.0314029384435
 30
0.0
 11
2988.315286878624
 21
-1913.968597061558
 31
0.0
  0
LINE
  5
CC
330
1F
100
AcDbEntity
  8
4-4
  6
Continuous
 62
     7
370
     9
100
AcDbLine
 10
2973.315286878624
 20
270.0314029384435
 30
0.0
 11
3963.315286878625
 21
270.0314029384435
 31
0.0
  0
LINE
  5
CD
330
1F
100
AcDbEntity
  8
4-4
  6
Continuous
 62
     7
370
     9
100
AcDbLine
 10
2718.315286878624
 20
360.0314029384435
 30
0.0
 11
3963.315286878625
 21
360.0314029384435
 31
0.0
  0
LINE
  5
CE
330
1F
100
AcDbEntity
  8
4-4
  6
Continuous
 62
     7
370
     9
100
AcDbLine
 10
2718.315286878624
 20
270.0314029384435
 30
0.0
 11
2718.315286878624
 21
360.0314029384435
 31
0.0
  0
LINE
  5
CF
330
1F
100
AcDbEntity
  8
4-4
  6
Continuous
 62
     7
370
     9
100
AcDbLine
 10
2718.315286878624
 20
270.0314029384435
 30
0.0
 11
2862.315286878624
 21
270.0314029384435
 31
0.0
  0
LINE
  5
D0
330
1F
100
AcDbEntity
  8
4-4
  6
Continuous
 62
     7
370
     9
100
AcDbLine
 10
2718.315286878624
 20
-1913.968597061558
 30
0.0
 11
3963.315286878625
 21
-1913.968597061558
 31
0.0
  0
LINE
  5
D1
330
1F
100
AcDbEntity
  8
4-4
  6
Continuous
 62
     7
370
     9
100
AcDbLine
 10
2718.315286878624
 20
-1913.968597061558
 30
0.0
 11
2718.315286878624
 21
-2003.968597061558
 31
0.0
  0
LINE
  5
D2
330
1F
100
AcDbEntity
  8
4-4
  6
Continuous
 62
     7
370
     9
100
AcDbLine
 10
2718.315286878624
 20
-2003.968597061558
 30
0.0
 11
3963.315286878625
 21
-2003.968597061558
 31
0.0
  0
LINE
  5
D3
330
1F
100
AcDbEntity
  8
4-4
  6
Continuous
 62
     4
370
     5
100
AcDbLine
 10
2718.315286878624
 20
-2682.569832402235
 30
0.0
 11
2838.315286878624
 21
-2682.569832402235
 31
0.0
  0
LWPOLYLINE
  5
D4
330
1F
100
AcDbEntity
  8
4-4
  6
Continuous
 62
     4
370
     5
100
AcDbPolyline
 90
        4
 70
     1
 43
3.0
 10
2719.815286878624
 20
-2682.569832402235
 42
0.4142135623731
 10
2718.315286878624
 20
-2681.069832402235
 42
0.4142135623731
 10
2716.815286878624
 20
-2682.569832402235
 42
0.4142135623731
 10
2718.315286878624
 20
-2684.069832402235
 42
0.4142135623731
  0
LWPOLYLINE
  5
D5
330
1F
100
AcDbEntity
  8
4-4
  6
Continuous
 62
     4
370
     5
100
AcDbPolyline
 90
        4
 70
     1
 43
3.0
 10
2839.815286878624
 20
-2682.569832402235
 42
0.4142135623731
 10
2838.315286878624
 20
-2681.069832402235
 42
0.4142135623731
 10
2836.815286878624
 20
-2682.569832402235
 42
0.4142135623731
 10
2838.315286878624
 20
-2684.069832402235
 42
0.4142135623731
  0
LINE
  5
D6
330
1F
100
AcDbEntity
  8
4-4
  6
Continuous
 62
     7
370
     9
100
AcDbLine
 10
2718.315286878624
 20
-2682.569832402235
 30
0.0
 11
2718.315286878624
 21
-2530.055865921789
 31
0.0
  0
LINE
  5
D7
330
1F
100
AcDbEntity
  8
4-4
  6
Continuous
 62
     7
370
     9
100
AcDbLine
 10
2838.315286878624
 20
-2682.569832402235
 30
0.0
 11
2838.315286878624
 21
-2530.055865921789
 31
0.0
  0
MTEXT
  5
D8
330
1F
100
AcDbEntity
  8
4-4
  6
Continuous
 62
     7
370
   211
100
AcDbMText
 10
2714.565286878624
 20
-2678.992332402235
 30
0.0
 40
97.15499999999999
 41
127.5
 46
0.0
 71
     7
 72
     1
  1
{\fＭＳ ゴシック|b0|i0|c128|p49;40}
 73
     1
 44
1.0
  0
LINE
  5
D9
330
1F
100
AcDbEntity
  8
4-4
  6
Continuous
 62
     4
370
     5
100
AcDbLine
 10
2838.315286878624
 20
-2682.569832402235
 30
0.0
 11
2898.315286878624
 21
-2682.569832402235
 31
0.0
  0
LWPOLYLINE
  5
DA
330
1F
100
AcDbEntity
  8
4-4
  6
Continuous
 62
     4
370
     5
100
AcDbPolyline
 90
        4
 70
     1
 43
3.0
 10
2899.815286878624
 20
-2682.569832402235
 42
0.4142135623731
 10
2898.315286878624
 20
-2681.069832402235
 42
0.4142135623731
 10
2896.815286878624
 20
-2682.569832402235
 42
0.4142135623731
 10
2898.315286878624
 20
-2684.069832402235
 42
0.4142135623731
  0
LINE
  5
DB
330
1F
100
AcDbEntity
  8
4-4
  6
Continuous
 62
     7
370
     9
100
AcDbLine
 10
2898.315286878624
 20
-2682.569832402235
 30
0.0
 11
2898.315286878624
 21
-2530.055865921789
 31
0.0
  0
LINE
  5
DC
330
1F
100
AcDbEntity
  8
4-4
  6
Continuous
 62
     4
370
     5
100
AcDbLine
 10
2898.315286878624
 20
-2682.569832402235
 30
0.0
 11
2913.315286878624
 21
-2682.569832402235
 31
0.0
  0
LWPOLYLINE
  5
DD
330
1F
100
AcDbEntity
  8
4-4
  6
Continuous
 62
     4
370
     5
100
AcDbPolyline
 90
        4
 70
     1
 43
3.0
 10
2914.815286878624
 20
-2682.569832402235
 42
0.4142135623731
 10
2913.315286878624
 20
-2681.069832402235
 42
0.4142135623731
 10
2911.815286878624
 20
-2682.569832402235
 42
0.4142135623731
 10
2913.315286878624
 20
-2684.069832402235
 42
0.4142135623731
  0
LINE
  5
DE
330
1F
100
AcDbEntity
  8
4-4
  6
Continuous
 62
     7
370
     9
100
AcDbLine
 10
2913.315286878624
 20
-2682.569832402235
 30
0.0
 11
2913.315286878624
 21
-2530.055865921789
 31
0.0
  0
LINE
  5
DF
330
1F
100
AcDbEntity
  8
4-4
  6
Continuous
 62
     4
370
     5
100
AcDbLine
 10
2913.315286878624
 20
-2682.569832402235
 30
0.0
 11
2973.315286878624
 21
-2682.569832402235
 31
0.0
  0
LWPOLYLINE
  5
E0
330
1F
100
AcDbEntity
  8
4-4
  6
Continuous
 62
     4
370
     5
100
AcDbPolyline
 90
        4
 70
     1
 43
3.0
 10
2974.815286878624
 20
-2682.569832402235
 42
0.4142135623731
 10
2973.315286878624
 20
-2681.069832402235
 42
0.4142135623731
 10
2971.815286878624
 20
-2682.569832402235
 42
0.4142135623731
 10
2973.315286878624
 20
-2684.069832402235
 42
0.4142135623731
  0
LINE
  5
E1
330
1F
100
AcDbEntity
  8
4-4
  6
Continuous
 62
     7
370
     9
100
AcDbLine
 10
2973.315286878624
 20
-2682.569832402235
 30
0.0
 11
2973.315286878624
 21
-2530.055865921789
 31
0.0
  0
LINE
  5
E2
330
1F
100
AcDbEntity
  8
4-4
  6
Continuous
 62
     4
370
     5
100
AcDbLine
 10
2973.315286878624
 20
-2682.569832402235
 30
0.0
 11
2988.315286878624
 21
-2682.569832402235
 31
0.0
  0
LWPOLYLINE
  5
E3
330
1F
100
AcDbEntity
  8
4-4
  6
Continuous
 62
     4
370
     5
100
AcDbPolyline
 90
        4
 70
     1
 43
3.0
 10
2989.815286878624
 20
-2682.569832402235
 42
0.4142135623731
 10
2988.315286878624
 20
-2681.069832402235
 42
0.4142135623731
 10
2986.815286878624
 20
-2682.569832402235
 42
0.4142135623731
 10
2988.315286878624
 20
-2684.069832402235
 42
0.4142135623731
  0
LINE
  5
E4
330
1F
100
AcDbEntity
  8
4-4
  6
Continuous
 62
     7
370
     9
100
AcDbLine
 10
2988.315286878624
 20
-2682.569832402235
 30
0.0
 11
2988.315286878624
 21
-2530.055865921789
 31
0.0
  0
LINE
  5
E5
330
1F
100
AcDbEntity
  8
4-4
  6
Continuous
 62
     4
370
     5
100
AcDbLine
 10
2988.315286878624
 20
-2682.569832402235
 30
0.0
 11
3963.315286878625
 21
-2682.569832402235
 31
0.0
  0
MTEXT
  5
E6
330
1F
100
AcDbEntity
  8
4-4
  6
Continuous
 62
     7
370
   211
100
AcDbMText
 10
3378.315286878624
 20
-2678.039832402235
 30
0.0
 40
99.06
 41
195.0
 46
0.0
 71
     7
 72
     1
  1
{\fＭＳ ゴシック|b0|i0|c128|p49;325}
 73
     1
 44
1.0
  0
MTEXT
  5
E7
330
1F
100
AcDbEntity
  8
4-4
  6
Continuous
 62
     7
370
   211
100
AcDbMText
 10
3023.748821118407
 20
-2682.689549052649
 30
0.0
 40
91.44
 41
60.0
 46
0.0
 71
     7
 72
     1
  1
{\fＭＳ ゴシック|b0|i0|c128|p49;5}
 73
     1
 44
1.0
  0
MTEXT
  5
E8
330
1F
100
AcDbEntity
  8
4-4
  6
Continuous
 62
     7
370
   211
100
AcDbMText
 10
2777.863844204372
 20
-2829.863560390026
 30
0.0
 40
97.15499999999999
 41
127.5
 46
0.0
 71
     7
 72
     1
  1
{\fＭＳ ゴシック|b0|i0|c128|p49;20}
 73
     1
 44
1.0
  0
MTEXT
  5
E9
330
1F
100
AcDbEntity
  8
4-4
  6
Continuous
 62
     7
370
   211
100
AcDbMText
 10
2875.815286878624
 20
-2681.849832402235
 30
0.0
 40
91.44
 41
60.0
 46
0.0
 71
     7
 72
     1
  1
{\fＭＳ ゴシック|b0|i0|c128|p49;5}
 73
     1
 44
1.0
  0
MTEXT
  5
EA
330
1F
100
AcDbEntity
  8
4-4
  6
Continuous
 62
     7
370
   211
100
AcDbMText
 10
2861.214683836248
 20
-2921.549483985089
 30
0.0
 40
97.15499999999999
 41
127.5
 46
0.0
 71
     7
 72
     1
  1
{\fＭＳ ゴシック|b0|i0|c128|p49;20}
 73
     1
 44
1.0
  0
LINE
  5
EB
330
1F
100
AcDbEntity
  8
4-4
  6
Continuous
 62
     4
370
     5
100
AcDbLine
 10
2718.315286878624
 20
-3022.793296089385
 30
0.0
 11
3963.315286878625
 21
-3022.793296089385
 31
0.0
  0
LWPOLYLINE
  5
EC
330
1F
100
AcDbEntity
  8
4-4
  6
Continuous
 62
     4
370
     5
100
AcDbPolyline
 90
        4
 70
     1
 43
3.0
 10
2719.815286878624
 20
-3022.793296089385
 42
0.4142135623731
 10
2718.315286878624
 20
-3021.293296089385
 42
0.4142135623731
 10
2716.815286878624
 20
-3022.793296089385
 42
0.4142135623731
 10
2718.315286878624
 20
-3024.293296089385
 42
0.4142135623731
  0
LINE
  5
ED
330
1F
100
AcDbEntity
  8
4-4
  6
Continuous
 62
     7
370
     9
100
AcDbLine
 10
2718.315286878624
 20
-3022.793296089385
 30
0.0
 11
2718.315286878624
 21
-2682.569832402235
 31
0.0
  0
MTEXT
  5
EE
330
1F
100
AcDbEntity
  8
4-4
  6
Continuous
 62
     7
370
   211
100
AcDbMText
 10
2874.432758028776
 20
-3028.033168719096
 30
0.0
 40
102.0535714285714
 41
937.5
 46
0.0
 71
     7
 72
     1
  1
{\fＭＳ ゴシック|b0|i0|c128|p49;415(ｶｳﾝﾀｰ奥行)}
 73
     1
 44
1.0
  0
LINE
  5
EF
330
1F
100
AcDbEntity
  8
2-2
  6
Continuous
 62
     7
370
     9
100
AcDbLine
 10
2619.485471949637
 20
3578.00332379887
 30
0.0
 11
4957.348600441257
 21
3578.00332379887
 31
0.0
  0
LINE
  5
F0
330
1F
100
AcDbEntity
  8
4-4
  6
Continuous
 62
     7
370
     9
100
AcDbLine
 10
2619.485471949637
 20
3578.00332379887
 30
0.0
 11
2596.985471949637
 21
3555.50332379887
 31
0.0
  0
LINE
  5
F1
330
1F
100
AcDbEntity
  8
4-4
  6
Continuous
 62
     7
370
     9
100
AcDbLine
 10
2596.985471949637
 20
3150.50332379887
 30
0.0
 11
2596.985471949637
 21
3555.50332379887
 31
0.0
  0
LINE
  5
F2
330
1F
100
AcDbEntity
  8
2-2
  6
Continuous
 62
     7
370
     9
100
AcDbLine
 10
2619.485471949637
 20
3128.00332379887
 30
0.0
 11
3316.985471949637
 21
3128.00332379887
 31
0.0
  0
LINE
  5
F3
330
1F
100
AcDbEntity
  8
4-4
  6
Continuous
 62
     7
370
     9
100
AcDbLine
 10
2596.985471949637
 20
3150.50332379887
 30
0.0
 11
2619.485471949637
 21
3128.00332379887
 31
0.0
  0
LINE
  5
F4
330
1F
100
AcDbEntity
  8
2-2
  6
Continuous
 62
     7
370
     9
100
AcDbLine
 10
2619.485471949637
 20
1837.835726033507
 30
0.0
 11
4957.348600441257
 21
1837.835726033507
 31
0.0
  0
LINE
  5
F5
330
1F
100
AcDbEntity
  8
4-4
  6
Continuous
 62
     7
370
     9
100
AcDbLine
 10
2619.485471949637
 20
1837.835726033507
 30
0.0
 11
2596.985471949637
 21
1815.335726033507
 31
0.0
  0
LINE
  5
F6
330
1F
100
AcDbEntity
  8
4-4
  6
Continuous
 62
     7
370
     9
100
AcDbLine
 10
2596.985471949637
 20
1410.335726033507
 30
0.0
 11
2596.985471949637
 21
1815.335726033507
 31
0.0
  0
LINE
  5
F7
330
1F
100
AcDbEntity
  8
2-2
  6
Continuous
 62
     7
370
     9
100
AcDbLine
 10
2619.485471949637
 20
1387.835726033507
 30
0.0
 11
4957.348600441257
 21
1387.835726033507
 31
0.0
  0
LINE
  5
F8
330
1F
100
AcDbEntity
  8
4-4
  6
Continuous
 62
     7
370
     9
100
AcDbLine
 10
2596.985471949637
 20
1410.335726033507
 30
0.0
 11
2619.485471949637
 21
1387.835726033507
 31
0.0
  0
LINE
  5
F9
330
1F
100
AcDbEntity
  8
4-4
  6
Continuous
 62
     4
370
     5
100
AcDbLine
 10
2596.985471949637
 20
2114.899971843563
 30
0.0
 11
3196.985471949637
 21
2114.899971843563
 31
0.0
  0
LWPOLYLINE
  5
FA
330
1F
100
AcDbEntity
  8
4-4
  6
Continuous
 62
     4
370
     5
100
AcDbPolyline
 90
        4
 70
     1
 43
3.0
 10
2598.485471949637
 20
2114.899971843563
 42
0.4142135623731
 10
2596.985471949637
 20
2116.399971843563
 42
0.4142135623731
 10
2595.485471949637
 20
2114.899971843563
 42
0.4142135623731
 10
2596.985471949637
 20
2113.399971843563
 42
0.4142135623731
  0
LWPOLYLINE
  5
FB
330
1F
100
AcDbEntity
  8
4-4
  6
Continuous
 62
     4
370
     5
100
AcDbPolyline
 90
        4
 70
     1
 43
3.0
 10
3198.485471949637
 20
2114.899971843563
 42
0.4142135623731
 10
3196.985471949637
 20
2116.399971843563
 42
0.4142135623731
 10
3195.485471949637
 20
2114.899971843563
 42
0.4142135623731
 10
3196.985471949637
 20
2113.399971843563
 42
0.4142135623731
  0
LINE
  5
FC
330
1F
100
AcDbEntity
  8
4-4
  6
Continuous
 62
     7
370
     9
100
AcDbLine
 10
2596.985471949637
 20
2114.899971843563
 30
0.0
 11
2596.985471949637
 21
1882.835726033507
 31
0.0
  0
LINE
  5
FD
330
1F
100
AcDbEntity
  8
4-4
  6
Continuous
 62
     7
370
     9
100
AcDbLine
 10
3196.985471949637
 20
2114.899971843563
 30
0.0
 11
3196.985471949637
 21
1882.835726033507
 31
0.0
  0
MTEXT
  5
FE
330
1F
100
AcDbEntity
  8
4-4
  6
Continuous
 62
     7
370
   211
100
AcDbMText
 10
2799.485471949637
 20
2118.477471843563
 30
0.0
 40
97.15499999999999
 41
127.5
 46
0.0
 71
     7
 72
     1
  1
{\fＭＳ ゴシック|b0|i0|c128|p49;40}
 73
     1
 44
1.0
  0
LINE
  5
FF
330
1F
100
AcDbEntity
  8
4-4
  6
Continuous
 62
     4
370
     5
100
AcDbLine
 10
2988.315286878624
 20
499.7493717956677
 30
0.0
 11
3168.315286878625
 21
499.7493717956677
 31
0.0
  0
LWPOLYLINE
  5
100
330
1F
100
AcDbEntity
  8
4-4
  6
Continuous
 62
     4
370
     5
100
AcDbPolyline
 90
        4
 70
     1
 43
3.0
 10
2989.815286878624
 20
499.7493717956677
 42
0.4142135623731
 10
2988.315286878624
 20
501.2493717956678
 42
0.4142135623731
 10
2986.815286878624
 20
499.7493717956677
 42
0.4142135623731
 10
2988.315286878624
 20
498.2493717956677
 42
0.4142135623731
  0
LWPOLYLINE
  5
101
330
1F
100
AcDbEntity
  8
4-4
  6
Continuous
 62
     4
370
     5
100
AcDbPolyline
 90
        4
 70
     1
 43
3.0
 10
3169.815286878625
 20
499.7493717956677
 42
0.4142135623731
 10
3168.315286878625
 20
501.2493717956678
 42
0.4142135623731
 10
3166.815286878625
 20
499.7493717956677
 42
0.4142135623731
 10
3168.315286878625
 20
498.2493717956677
 42
0.4142135623731
  0
LINE
  5
102
330
1F
100
AcDbEntity
  8
4-4
  6
Continuous
 62
     7
370
     9
100
AcDbLine
 10
2988.315286878624
 20
499.7493717956677
 30
0.0
 11
2988.315286878624
 21
427.1831938594456
 31
0.0
  0
LINE
  5
103
330
1F
100
AcDbEntity
  8
4-4
  6
Continuous
 62
     7
370
     9
100
AcDbLine
 10
3168.315286878625
 20
499.7493717956677
 30
0.0
 11
3168.315286878625
 21
427.1831938594456
 31
0.0
  0
MTEXT
  5
104
330
1F
100
AcDbEntity
  8
4-4
  6
Continuous
 62
     7
370
   211
100
AcDbMText
 10
3014.565286878624
 20
503.3268717956678
 30
0.0
 40
97.15499999999999
 41
127.5
 46
0.0
 71
     7
 72
     1
  1
{\fＭＳ ゴシック|b0|i0|c128|p49;60}
 73
     1
 44
1.0
  0
LINE
  5
105
330
1F
100
AcDbEntity
  8
4-4
  6
Continuous
 62
     4
370
     5
100
AcDbLine
 10
3168.315286878625
 20
499.7493717956677
 30
0.0
 11
3858.315286878625
 21
499.7493717956677
 31
0.0
  0
LWPOLYLINE
  5
106
330
1F
100
AcDbEntity
  8
4-4
  6
Continuous
 62
     4
370
     5
100
AcDbPolyline
 90
        4
 70
     1
 43
3.0
 10
3859.815286878625
 20
499.7493717956677
 42
0.4142135623731
 10
3858.315286878625
 20
501.2493717956678
 42
0.4142135623731
 10
3856.815286878624
 20
499.7493717956677
 42
0.4142135623731
 10
3858.315286878625
 20
498.2493717956677
 42
0.4142135623731
  0
LINE
  5
107
330
1F
100
AcDbEntity
  8
4-4
  6
Continuous
 62
     7
370
     9
100
AcDbLine
 10
3858.315286878625
 20
499.7493717956677
 30
0.0
 11
3858.315286878625
 21
427.1831938594456
 31
0.0
  0
MTEXT
  5
108
330
1F
100
AcDbEntity
  8
4-4
  6
Continuous
 62
     7
370
   211
100
AcDbMText
 10
3415.815286878625
 20
504.2793717956678
 30
0.0
 40
99.06
 41
195.0
 46
0.0
 71
     7
 72
     1
  1
{\fＭＳ ゴシック|b0|i0|c128|p49;230}
 73
     1
 44
1.0
  0
LINE
  5
109
330
1F
100
AcDbEntity
  8
4-4
  6
Continuous
 62
     4
370
     5
100
AcDbLine
 10
3858.315286878625
 20
499.7493717956677
 30
0.0
 11
3948.315286878625
 21
499.7493717956677
 31
0.0
  0
LWPOLYLINE
  5
10A
330
1F
100
AcDbEntity
  8
4-4
  6
Continuous
 62
     4
370
     5
100
AcDbPolyline
 90
        4
 70
     1
 43
3.0
 10
3949.815286878625
 20
499.7493717956677
 42
0.4142135623731
 10
3948.315286878625
 20
501.2493717956678
 42
0.4142135623731
 10
3946.815286878624
 20
499.7493717956677
 42
0.4142135623731
 10
3948.315286878625
 20
498.2493717956677
 42
0.4142135623731
  0
LINE
  5
10B
330
1F
100
AcDbEntity
  8
4-4
  6
Continuous
 62
     7
370
     9
100
AcDbLine
 10
3948.315286878625
 20
499.7493717956677
 30
0.0
 11
3948.315286878625
 21
427.1831938594456
 31
0.0
  0
MTEXT
  5
10C
330
1F
100
AcDbEntity
  8
4-4
  6
Continuous
 62
     7
370
   211
100
AcDbMText
 10
3839.565286878625
 20
503.3268717956678
 30
0.0
 40
97.15499999999999
 41
127.5
 46
0.0
 71
     7
 72
     1
  1
{\fＭＳ ゴシック|b0|i0|c128|p49;30}
 73
     1
 44
1.0
  0
LINE
  5
10D
330
1F
100
AcDbEntity
  8
4-4
  6
Continuous
 62
     4
370
     5
100
AcDbLine
 10
4193.625155621489
 20
-1913.968597061558
 30
0.0
 11
4193.625155621489
 21
-1406.968597061556
 31
0.0
  0
LWPOLYLINE
  5
10E
330
1F
100
AcDbEntity
  8
4-4
  6
Continuous
 62
     4
370
     5
100
AcDbPolyline
 90
        4
 70
     1
 43
3.0
 10
4195.125155621489
 20
-1913.968597061558
 42
0.4142135623731
 10
4193.625155621489
 20
-1912.468597061558
 42
0.4142135623731
 10
4192.125155621489
 20
-1913.968597061558
 42
0.4142135623731
 10
4193.625155621489
 20
-1915.468597061558
 42
0.4142135623731
  0
LWPOLYLINE
  5
10F
330
1F
100
AcDbEntity
  8
4-4
  6
Continuous
 62
     4
370
     5
100
AcDbPolyline
 90
        4
 70
     1
 43
3.0
 10
4195.125155621489
 20
-1406.968597061556
 42
0.4142135623731
 10
4193.625155621489
 20
-1405.468597061556
 42
0.4142135623731
 10
4192.125155621489
 20
-1406.968597061556
 42
0.4142135623731
 10
4193.625155621489
 20
-1408.468597061556
 42
0.4142135623731
  0
LINE
  5
110
330
1F
100
AcDbEntity
  8
4-4
  6
Continuous
 62
     7
370
     9
100
AcDbLine
 10
4193.625155621489
 20
-1913.968597061558
 30
0.0
 11
4033.979564161801
 21
-1913.968597061558
 31
0.0
  0
LINE
  5
111
330
1F
100
AcDbEntity
  8
4-4
  6
Continuous
 62
     7
370
     9
100
AcDbLine
 10
4193.625155621489
 20
-1406.968597061556
 30
0.0
 11
4033.979564161801
 21
-1406.968597061556
 31
0.0
  0
MTEXT
  5
112
330
1F
100
AcDbEntity
  8
4-4
  6
Continuous
 62
     7
370
   211
100
AcDbMText
 10
4178.625155621489
 20
-1768.438597061557
 30
0.0
 40
99.06
 41
195.0
 46
0.0
 71
     7
 72
     1
  1
{\fＭＳ ゴシック|b0|i0|c128|p49;169}
 11
6.123031769111886E-17
 21
1.0
 31
0.0
 73
     1
 44
1.0
  0
LINE
  5
113
330
1F
100
AcDbEntity
  8
4-4
  6
Continuous
 62
     4
370
     5
100
AcDbLine
 10
4193.625155621489
 20
-1406.968597061556
 30
0.0
 11
4193.625155621489
 21
-1316.968597061556
 31
0.0
  0
LWPOLYLINE
  5
114
330
1F
100
AcDbEntity
  8
4-4
  6
Continuous
 62
     4
370
     5
100
AcDbPolyline
 90
        4
 70
     1
 43
3.0
 10
4195.125155621489
 20
-1316.968597061556
 42
0.4142135623731
 10
4193.625155621489
 20
-1315.468597061556
 42
0.4142135623731
 10
4192.125155621489
 20
-1316.968597061556
 42
0.4142135623731
 10
4193.625155621489
 20
-1318.468597061556
 42
0.4142135623731
  0
LINE
  5
115
330
1F
100
AcDbEntity
  8
4-4
  6
Continuous
 62
     7
370
     9
100
AcDbLine
 10
4193.625155621489
 20
-1316.968597061556
 30
0.0
 11
4033.979564161801
 21
-1316.968597061556
 31
0.0
  0
MTEXT
  5
116
330
1F
100
AcDbEntity
  8
4-4
  6
Continuous
 62
     7
370
   211
100
AcDbMText
 10
4178.625155621489
 20
-1437.141097061556
 30
0.0
 40
97.15499999999999
 41
127.5
 46
0.0
 71
     7
 72
     1
  1
{\fＭＳ ゴシック|b0|i0|c128|p49;30}
 11
6.123031769111886E-17
 21
1.0
 31
0.0
 73
     1
 44
1.0
  0
LINE
  5
117
330
1F
100
AcDbEntity
  8
4-4
  6
Continuous
 62
     4
370
     5
100
AcDbLine
 10
4193.625155621489
 20
-1316.968597061556
 30
0.0
 11
4193.625155621489
 21
-1226.968597061556
 31
0.0
  0
LWPOLYLINE
  5
118
330
1F
100
AcDbEntity
  8
4-4
  6
Continuous
 62
     4
370
     5
100
AcDbPolyline
 90
        4
 70
     1
 43
3.0
 10
4195.125155621489
 20
-1226.968597061556
 42
0.4142135623731
 10
4193.625155621489
 20
-1225.468597061556
 42
0.4142135623731
 10
4192.125155621489
 20
-1226.968597061556
 42
0.4142135623731
 10
4193.625155621489
 20
-1228.468597061556
 42
0.4142135623731
  0
LINE
  5
119
330
1F
100
AcDbEntity
  8
4-4
  6
Continuous
 62
     7
370
     9
100
AcDbLine
 10
4193.625155621489
 20
-1226.968597061556
 30
0.0
 11
4033.979564161801
 21
-1226.968597061556
 31
0.0
  0
LINE
  5
11A
330
1F
100
AcDbEntity
  8
4-4
  6
Continuous
 62
     4
370
     5
100
AcDbLine
 10
4193.625155621489
 20
-1226.968597061556
 30
0.0
 11
4193.625155621489
 21
-1136.968597061556
 31
0.0
  0
LWPOLYLINE
  5
11B
330
1F
100
AcDbEntity
  8
4-4
  6
Continuous
 62
     4
370
     5
100
AcDbPolyline
 90
        4
 70
     1
 43
3.0
 10
4195.125155621489
 20
-1136.968597061556
 42
0.4142135623731
 10
4193.625155621489
 20
-1135.468597061556
 42
0.4142135623731
 10
4192.125155621489
 20
-1136.968597061556
 42
0.4142135623731
 10
4193.625155621489
 20
-1138.468597061556
 42
0.4142135623731
  0
LINE
  5
11C
330
1F
100
AcDbEntity
  8
4-4
  6
Continuous
 62
     7
370
     9
100
AcDbLine
 10
4193.625155621489
 20
-1136.968597061556
 30
0.0
 11
4033.979564161801
 21
-1136.968597061556
 31
0.0
  0
MTEXT
  5
11D
330
1F
100
AcDbEntity
  8
4-4
  6
Continuous
 62
     7
370
   211
100
AcDbMText
 10
4178.625155621489
 20
-1257.141097061556
 30
0.0
 40
97.15499999999999
 41
127.5
 46
0.0
 71
     7
 72
     1
  1
{\fＭＳ ゴシック|b0|i0|c128|p49;30}
 11
6.123031769111886E-17
 21
1.0
 31
0.0
 73
     1
 44
1.0
  0
LINE
  5
11E
330
1F
100
AcDbEntity
  8
4-4
  6
Continuous
 62
     4
370
     5
100
AcDbLine
 10
4193.625155621489
 20
-1136.968597061556
 30
0.0
 11
4193.625155621489
 21
-1046.968597061556
 31
0.0
  0
LWPOLYLINE
  5
11F
330
1F
100
AcDbEntity
  8
4-4
  6
Continuous
 62
     4
370
     5
100
AcDbPolyline
 90
        4
 70
     1
 43
3.0
 10
4195.125155621489
 20
-1046.968597061556
 42
0.4142135623731
 10
4193.625155621489
 20
-1045.468597061556
 42
0.4142135623731
 10
4192.125155621489
 20
-1046.968597061556
 42
0.4142135623731
 10
4193.625155621489
 20
-1048.468597061556
 42
0.4142135623731
  0
LINE
  5
120
330
1F
100
AcDbEntity
  8
4-4
  6
Continuous
 62
     7
370
     9
100
AcDbLine
 10
4193.625155621489
 20
-1046.968597061556
 30
0.0
 11
4033.979564161801
 21
-1046.968597061556
 31
0.0
  0
LINE
  5
121
330
1F
100
AcDbEntity
  8
4-4
  6
Continuous
 62
     4
370
     5
100
AcDbLine
 10
4193.625155621489
 20
-1046.968597061556
 30
0.0
 11
4193.625155621489
 21
-956.9685970615565
 31
0.0
  0
LWPOLYLINE
  5
122
330
1F
100
AcDbEntity
  8
4-4
  6
Continuous
 62
     4
370
     5
100
AcDbPolyline
 90
        4
 70
     1
 43
3.0
 10
4195.125155621489
 20
-956.9685970615565
 42
0.4142135623731
 10
4193.625155621489
 20
-955.4685970615564
 42
0.4142135623731
 10
4192.125155621489
 20
-956.9685970615565
 42
0.4142135623731
 10
4193.625155621489
 20
-958.4685970615565
 42
0.4142135623731
  0
LINE
  5
123
330
1F
100
AcDbEntity
  8
4-4
  6
Continuous
 62
     7
370
     9
100
AcDbLine
 10
4193.625155621489
 20
-956.9685970615565
 30
0.0
 11
4033.979564161801
 21
-956.9685970615565
 31
0.0
  0
LINE
  5
124
330
1F
100
AcDbEntity
  8
4-4
  6
Continuous
 62
     4
370
     5
100
AcDbLine
 10
4193.625155621489
 20
-956.9685970615565
 30
0.0
 11
4193.625155621489
 21
-866.9685970615565
 31
0.0
  0
LWPOLYLINE
  5
125
330
1F
100
AcDbEntity
  8
4-4
  6
Continuous
 62
     4
370
     5
100
AcDbPolyline
 90
        4
 70
     1
 43
3.0
 10
4195.125155621489
 20
-866.9685970615565
 42
0.4142135623731
 10
4193.625155621489
 20
-865.4685970615564
 42
0.4142135623731
 10
4192.125155621489
 20
-866.9685970615565
 42
0.4142135623731
 10
4193.625155621489
 20
-868.4685970615565
 42
0.4142135623731
  0
LINE
  5
126
330
1F
100
AcDbEntity
  8
4-4
  6
Continuous
 62
     7
370
     9
100
AcDbLine
 10
4193.625155621489
 20
-866.9685970615565
 30
0.0
 11
4033.979564161801
 21
-866.9685970615565
 31
0.0
  0
LINE
  5
127
330
1F
100
AcDbEntity
  8
4-4
  6
Continuous
 62
     4
370
     5
100
AcDbLine
 10
4193.625155621489
 20
-866.9685970615565
 30
0.0
 11
4193.625155621489
 21
-776.9685970615565
 31
0.0
  0
LWPOLYLINE
  5
128
330
1F
100
AcDbEntity
  8
4-4
  6
Continuous
 62
     4
370
     5
100
AcDbPolyline
 90
        4
 70
     1
 43
3.0
 10
4195.125155621489
 20
-776.9685970615565
 42
0.4142135623731
 10
4193.625155621489
 20
-775.4685970615564
 42
0.4142135623731
 10
4192.125155621489
 20
-776.9685970615565
 42
0.4142135623731
 10
4193.625155621489
 20
-778.4685970615565
 42
0.4142135623731
  0
LINE
  5
129
330
1F
100
AcDbEntity
  8
4-4
  6
Continuous
 62
     7
370
     9
100
AcDbLine
 10
4193.625155621489
 20
-776.9685970615565
 30
0.0
 11
4033.979564161801
 21
-776.9685970615565
 31
0.0
  0
LINE
  5
12A
330
1F
100
AcDbEntity
  8
4-4
  6
Continuous
 62
     4
370
     5
100
AcDbLine
 10
4193.625155621489
 20
-776.9685970615565
 30
0.0
 11
4193.625155621489
 21
-686.9685970615565
 31
0.0
  0
LWPOLYLINE
  5
12B
330
1F
100
AcDbEntity
  8
4-4
  6
Continuous
 62
     4
370
     5
100
AcDbPolyline
 90
        4
 70
     1
 43
3.0
 10
4195.125155621489
 20
-686.9685970615565
 42
0.4142135623731
 10
4193.625155621489
 20
-685.4685970615564
 42
0.4142135623731
 10
4192.125155621489
 20
-686.9685970615565
 42
0.4142135623731
 10
4193.625155621489
 20
-688.4685970615565
 42
0.4142135623731
  0
LINE
  5
12C
330
1F
100
AcDbEntity
  8
4-4
  6
Continuous
 62
     7
370
     9
100
AcDbLine
 10
4193.625155621489
 20
-686.9685970615565
 30
0.0
 11
4033.979564161801
 21
-686.9685970615565
 31
0.0
  0
LINE
  5
12D
330
1F
100
AcDbEntity
  8
4-4
  6
Continuous
 62
     4
370
     5
100
AcDbLine
 10
4193.625155621489
 20
-686.9685970615565
 30
0.0
 11
4193.625155621489
 21
-596.9685970615565
 31
0.0
  0
LWPOLYLINE
  5
12E
330
1F
100
AcDbEntity
  8
4-4
  6
Continuous
 62
     4
370
     5
100
AcDbPolyline
 90
        4
 70
     1
 43
3.0
 10
4195.125155621489
 20
-596.9685970615565
 42
0.4142135623731
 10
4193.625155621489
 20
-595.4685970615564
 42
0.4142135623731
 10
4192.125155621489
 20
-596.9685970615565
 42
0.4142135623731
 10
4193.625155621489
 20
-598.4685970615565
 42
0.4142135623731
  0
LINE
  5
12F
330
1F
100
AcDbEntity
  8
4-4
  6
Continuous
 62
     7
370
     9
100
AcDbLine
 10
4193.625155621489
 20
-596.9685970615565
 30
0.0
 11
4033.979564161801
 21
-596.9685970615565
 31
0.0
  0
MTEXT
  5
130
330
1F
100
AcDbEntity
  8
4-4
  6
Continuous
 62
     7
370
   211
100
AcDbMText
 10
4178.625155621489
 20
-717.1410970615565
 30
0.0
 40
97.15499999999999
 41
127.5
 46
0.0
 71
     7
 72
     1
  1
{\fＭＳ ゴシック|b0|i0|c128|p49;30}
 11
6.123031769111886E-17
 21
1.0
 31
0.0
 73
     1
 44
1.0
  0
LINE
  5
131
330
1F
100
AcDbEntity
  8
4-4
  6
Continuous
 62
     4
370
     5
100
AcDbLine
 10
4193.625155621489
 20
-596.9685970615565
 30
0.0
 11
4193.625155621489
 21
-506.9685970615564
 31
0.0
  0
LWPOLYLINE
  5
132
330
1F
100
AcDbEntity
  8
4-4
  6
Continuous
 62
     4
370
     5
100
AcDbPolyline
 90
        4
 70
     1
 43
3.0
 10
4195.125155621489
 20
-506.9685970615564
 42
0.4142135623731
 10
4193.625155621489
 20
-505.4685970615564
 42
0.4142135623731
 10
4192.125155621489
 20
-506.9685970615564
 42
0.4142135623731
 10
4193.625155621489
 20
-508.4685970615565
 42
0.4142135623731
  0
LINE
  5
133
330
1F
100
AcDbEntity
  8
4-4
  6
Continuous
 62
     7
370
     9
100
AcDbLine
 10
4193.625155621489
 20
-506.9685970615564
 30
0.0
 11
4033.979564161801
 21
-506.9685970615564
 31
0.0
  0
LINE
  5
134
330
1F
100
AcDbEntity
  8
4-4
  6
Continuous
 62
     4
370
     5
100
AcDbLine
 10
4193.625155621489
 20
-506.9685970615564
 30
0.0
 11
4193.625155621489
 21
-416.9685970615564
 31
0.0
  0
LWPOLYLINE
  5
135
330
1F
100
AcDbEntity
  8
4-4
  6
Continuous
 62
     4
370
     5
100
AcDbPolyline
 90
        4
 70
     1
 43
3.0
 10
4195.125155621489
 20
-416.9685970615564
 42
0.4142135623731
 10
4193.625155621489
 20
-415.4685970615564
 42
0.4142135623731
 10
4192.125155621489
 20
-416.9685970615564
 42
0.4142135623731
 10
4193.625155621489
 20
-418.4685970615565
 42
0.4142135623731
  0
LINE
  5
136
330
1F
100
AcDbEntity
  8
4-4
  6
Continuous
 62
     7
370
     9
100
AcDbLine
 10
4193.625155621489
 20
-416.9685970615564
 30
0.0
 11
4033.979564161801
 21
-416.9685970615564
 31
0.0
  0
MTEXT
  5
137
330
1F
100
AcDbEntity
  8
4-4
  6
Continuous
 62
     7
370
   211
100
AcDbMText
 10
4178.625155621489
 20
-537.1410970615565
 30
0.0
 40
97.15499999999999
 41
127.5
 46
0.0
 71
     7
 72
     1
  1
{\fＭＳ ゴシック|b0|i0|c128|p49;30}
 11
6.123031769111886E-17
 21
1.0
 31
0.0
 73
     1
 44
1.0
  0
LINE
  5
138
330
1F
100
AcDbEntity
  8
4-4
  6
Continuous
 62
     4
370
     5
100
AcDbLine
 10
4193.625155621489
 20
-416.9685970615564
 30
0.0
 11
4193.625155621489
 21
-326.9685970615564
 31
0.0
  0
LWPOLYLINE
  5
139
330
1F
100
AcDbEntity
  8
4-4
  6
Continuous
 62
     4
370
     5
100
AcDbPolyline
 90
        4
 70
     1
 43
3.0
 10
4195.125155621489
 20
-326.9685970615564
 42
0.4142135623731
 10
4193.625155621489
 20
-325.4685970615564
 42
0.4142135623731
 10
4192.125155621489
 20
-326.9685970615564
 42
0.4142135623731
 10
4193.625155621489
 20
-328.4685970615565
 42
0.4142135623731
  0
LINE
  5
13A
330
1F
100
AcDbEntity
  8
4-4
  6
Continuous
 62
     7
370
     9
100
AcDbLine
 10
4193.625155621489
 20
-326.9685970615564
 30
0.0
 11
4033.979564161801
 21
-326.9685970615564
 31
0.0
  0
LINE
  5
13B
330
1F
100
AcDbEntity
  8
4-4
  6
Continuous
 62
     4
370
     5
100
AcDbLine
 10
4193.625155621489
 20
-326.9685970615564
 30
0.0
 11
4193.625155621489
 21
-236.9685970615564
 31
0.0
  0
LWPOLYLINE
  5
13C
330
1F
100
AcDbEntity
  8
4-4
  6
Continuous
 62
     4
370
     5
100
AcDbPolyline
 90
        4
 70
     1
 43
3.0
 10
4195.125155621489
 20
-236.9685970615564
 42
0.4142135623731
 10
4193.625155621489
 20
-235.4685970615564
 42
0.4142135623731
 10
4192.125155621489
 20
-236.9685970615564
 42
0.4142135623731
 10
4193.625155621489
 20
-238.4685970615564
 42
0.4142135623731
  0
LINE
  5
13D
330
1F
100
AcDbEntity
  8
4-4
  6
Continuous
 62
     7
370
     9
100
AcDbLine
 10
4193.625155621489
 20
-236.9685970615564
 30
0.0
 11
4033.979564161801
 21
-236.9685970615564
 31
0.0
  0
MTEXT
  5
13E
330
1F
100
AcDbEntity
  8
4-4
  6
Continuous
 62
     7
370
   211
100
AcDbMText
 10
4178.625155621489
 20
-357.1410970615564
 30
0.0
 40
97.15499999999999
 41
127.5
 46
0.0
 71
     7
 72
     1
  1
{\fＭＳ ゴシック|b0|i0|c128|p49;30}
 11
6.123031769111886E-17
 21
1.0
 31
0.0
 73
     1
 44
1.0
  0
LINE
  5
13F
330
1F
100
AcDbEntity
  8
4-4
  6
Continuous
 62
     4
370
     5
100
AcDbLine
 10
4193.625155621489
 20
-236.9685970615564
 30
0.0
 11
4193.625155621489
 21
270.0314029384435
 31
0.0
  0
LWPOLYLINE
  5
140
330
1F
100
AcDbEntity
  8
4-4
  6
Continuous
 62
     4
370
     5
100
AcDbPolyline
 90
        4
 70
     1
 43
3.0
 10
4195.125155621489
 20
270.0314029384435
 42
0.4142135623731
 10
4193.625155621489
 20
271.5314029384435
 42
0.4142135623731
 10
4192.125155621489
 20
270.0314029384435
 42
0.4142135623731
 10
4193.625155621489
 20
268.5314029384435
 42
0.4142135623731
  0
LINE
  5
141
330
1F
100
AcDbEntity
  8
4-4
  6
Continuous
 62
     7
370
     9
100
AcDbLine
 10
4193.625155621489
 20
270.0314029384435
 30
0.0
 11
4033.979564161801
 21
270.0314029384435
 31
0.0
  0
MTEXT
  5
142
330
1F
100
AcDbEntity
  8
4-4
  6
Continuous
 62
     7
370
   211
100
AcDbMText
 10
4178.625155621489
 20
-91.43859706155644
 30
0.0
 40
99.06
 41
195.0
 46
0.0
 71
     7
 72
     1
  1
{\fＭＳ ゴシック|b0|i0|c128|p49;169}
 11
6.123031769111886E-17
 21
1.0
 31
0.0
 73
     1
 44
1.0
  0
MTEXT
  5
143
330
1F
100
AcDbEntity
  8
4-4
  6
Continuous
 62
     7
370
   211
100
AcDbMText
 10
4347.917075427151
 20
-1164.073416146795
 30
0.0
 40
97.15499999999999
 41
127.5
 46
0.0
 71
     7
 72
     1
  1
{\fＭＳ ゴシック|b0|i0|c128|p49;30}
 11
6.123031769111886E-17
 21
1.0
 31
0.0
 73
     1
 44
1.0
  0
MTEXT
  5
144
330
1F
100
AcDbEntity
  8
4-4
  6
Continuous
 62
     7
370
   211
100
AcDbMText
 10
4178.625155621489
 20
-897.1410970615565
 30
0.0
 40
97.15499999999999
 41
127.5
 46
0.0
 71
     7
 72
     1
  1
{\fＭＳ ゴシック|b0|i0|c128|p49;30}
 11
6.123031769111886E-17
 21
1.0
 31
0.0
 73
     1
 44
1.0
  0
MTEXT
  5
145
330
1F
100
AcDbEntity
  8
4-4
  6
Continuous
 62
     7
370
   211
100
AcDbMText
 10
4178.625155621489
 20
-1077.141097061556
 30
0.0
 40
97.15499999999999
 41
127.5
 46
0.0
 71
     7
 72
     1
  1
{\fＭＳ ゴシック|b0|i0|c128|p49;30}
 11
6.123031769111886E-17
 21
1.0
 31
0.0
 73
     1
 44
1.0
  0
MTEXT
  5
146
330
1F
100
AcDbEntity
  8
4-4
  6
Continuous
 62
     7
370
   211
100
AcDbMText
 10
4352.53798196652
 20
-986.1685143810524
 30
0.0
 40
97.15499999999999
 41
127.5
 46
0.0
 71
     7
 72
     1
  1
{\fＭＳ ゴシック|b0|i0|c128|p49;30}
 11
6.123031769111886E-17
 21
1.0
 31
0.0
 73
     1
 44
1.0
  0
MTEXT
  5
147
330
1F
100
AcDbEntity
  8
4-4
  6
Continuous
 62
     7
370
   211
100
AcDbMText
 10
4352.53798196652
 20
-1341.978317912538
 30
0.0
 40
97.15499999999999
 41
127.5
 46
0.0
 71
     7
 72
     1
  1
{\fＭＳ ゴシック|b0|i0|c128|p49;30}
 11
6.123031769111886E-17
 21
1.0
 31
0.0
 73
     1
 44
1.0
  0
MTEXT
  5
148
330
1F
100
AcDbEntity
  8
4-4
  6
Continuous
 62
     7
370
   211
100
AcDbMText
 10
4350.227528696835
 20
-805.9531593456248
 30
0.0
 40
97.15499999999999
 41
127.5
 46
0.0
 71
     7
 72
     1
  1
{\fＭＳ ゴシック|b0|i0|c128|p49;30}
 11
6.123031769111886E-17
 21
1.0
 31
0.0
 73
     1
 44
1.0
  0
MTEXT
  5
149
330
1F
100
AcDbEntity
  8
4-4
  6
Continuous
 62
     7
370
   211
100
AcDbMText
 10
4350.227528696835
 20
-625.737804310197
 30
0.0
 40
97.15499999999999
 41
127.5
 46
0.0
 71
     7
 72
     1
  1
{\fＭＳ ゴシック|b0|i0|c128|p49;30}
 11
6.123031769111886E-17
 21
1.0
 31
0.0
 73
     1
 44
1.0
  0
MTEXT
  5
14A
330
1F
100
AcDbEntity
  8
4-4
  6
Continuous
 62
     7
370
   211
100
AcDbMText
 10
4352.53798196652
 20
-443.2119960050843
 30
0.0
 40
97.15499999999999
 41
127.5
 46
0.0
 71
     7
 72
     1
  1
{\fＭＳ ゴシック|b0|i0|c128|p49;30}
 11
6.123031769111886E-17
 21
1.0
 31
0.0
 73
     1
 44
1.0
  0
CIRCLE
  5
14B
330
1F
100
AcDbEntity
  8
4-4
  6
JWW_DASHED1
 62
     7
370
     9
100
AcDbCircle
 10
3168.315286878625
 20
-236.9685970615564
 30
0.0
 40
7.5
  0
CIRCLE
  5
14C
330
1F
100
AcDbEntity
  8
4-4
  6
JWW_DASHED1
 62
     7
370
     9
100
AcDbCircle
 10
3858.315286878625
 20
-236.9685970615564
 30
0.0
 40
7.5
  0
CIRCLE
  5
14D
330
1F
100
AcDbEntity
  8
4-4
  6
JWW_DASHED1
 62
     7
370
     9
100
AcDbCircle
 10
3858.315286878625
 20
-326.9685970615564
 30
0.0
 40
7.5
  0
CIRCLE
  5
14E
330
1F
100
AcDbEntity
  8
4-4
  6
JWW_DASHED1
 62
     7
370
     9
100
AcDbCircle
 10
3168.315286878625
 20
-326.9685970615564
 30
0.0
 40
7.5
  0
CIRCLE
  5
14F
330
1F
100
AcDbEntity
  8
4-4
  6
JWW_DASHED1
 62
     7
370
     9
100
AcDbCircle
 10
3168.315286878625
 20
-416.9685970615564
 30
0.0
 40
7.5
  0
CIRCLE
  5
150
330
1F
100
AcDbEntity
  8
4-4
  6
JWW_DASHED1
 62
     7
370
     9
100
AcDbCircle
 10
3858.315286878625
 20
-416.9685970615564
 30
0.0
 40
7.5
  0
CIRCLE
  5
151
330
1F
100
AcDbEntity
  8
4-4
  6
JWW_DASHED1
 62
     7
370
     9
100
AcDbCircle
 10
3168.315286878625
 20
-506.9685970615564
 30
0.0
 40
7.5
  0
CIRCLE
  5
152
330
1F
100
AcDbEntity
  8
4-4
  6
JWW_DASHED1
 62
     7
370
     9
100
AcDbCircle
 10
3858.315286878625
 20
-506.9685970615564
 30
0.0
 40
7.5
  0
CIRCLE
  5
153
330
1F
100
AcDbEntity
  8
4-4
  6
JWW_DASHED1
 62
     7
370
     9
100
AcDbCircle
 10
3858.315286878625
 20
-596.9685970615565
 30
0.0
 40
7.5
  0
CIRCLE
  5
154
330
1F
100
AcDbEntity
  8
4-4
  6
JWW_DASHED1
 62
     7
370
     9
100
AcDbCircle
 10
3168.315286878625
 20
-596.9685970615565
 30
0.0
 40
7.5
  0
CIRCLE
  5
155
330
1F
100
AcDbEntity
  8
4-4
  6
JWW_DASHED1
 62
     7
370
     9
100
AcDbCircle
 10
3168.315286878625
 20
-686.9685970615565
 30
0.0
 40
7.5
  0
CIRCLE
  5
156
330
1F
100
AcDbEntity
  8
4-4
  6
JWW_DASHED1
 62
     7
370
     9
100
AcDbCircle
 10
3858.315286878625
 20
-686.9685970615565
 30
0.0
 40
7.5
  0
CIRCLE
  5
157
330
1F
100
AcDbEntity
  8
4-4
  6
JWW_DASHED1
 62
     7
370
     9
100
AcDbCircle
 10
3858.315286878625
 20
-776.9685970615565
 30
0.0
 40
7.5
  0
CIRCLE
  5
158
330
1F
100
AcDbEntity
  8
4-4
  6
JWW_DASHED1
 62
     7
370
     9
100
AcDbCircle
 10
3168.315286878625
 20
-776.9685970615565
 30
0.0
 40
7.5
  0
CIRCLE
  5
159
330
1F
100
AcDbEntity
  8
4-4
  6
JWW_DASHED1
 62
     7
370
     9
100
AcDbCircle
 10
3168.315286878625
 20
-866.9685970615565
 30
0.0
 40
7.5
  0
CIRCLE
  5
15A
330
1F
100
AcDbEntity
  8
4-4
  6
JWW_DASHED1
 62
     7
370
     9
100
AcDbCircle
 10
3858.315286878625
 20
-866.9685970615565
 30
0.0
 40
7.5
  0
CIRCLE
  5
15B
330
1F
100
AcDbEntity
  8
4-4
  6
JWW_DASHED1
 62
     7
370
     9
100
AcDbCircle
 10
3858.315286878625
 20
-956.9685970615565
 30
0.0
 40
7.5
  0
CIRCLE
  5
15C
330
1F
100
AcDbEntity
  8
4-4
  6
JWW_DASHED1
 62
     7
370
     9
100
AcDbCircle
 10
3168.315286878625
 20
-956.9685970615565
 30
0.0
 40
7.5
  0
CIRCLE
  5
15D
330
1F
100
AcDbEntity
  8
4-4
  6
JWW_DASHED1
 62
     7
370
     9
100
AcDbCircle
 10
3168.315286878625
 20
-1046.968597061556
 30
0.0
 40
7.5
  0
CIRCLE
  5
15E
330
1F
100
AcDbEntity
  8
4-4
  6
JWW_DASHED1
 62
     7
370
     9
100
AcDbCircle
 10
3858.315286878625
 20
-1046.968597061556
 30
0.0
 40
7.5
  0
CIRCLE
  5
15F
330
1F
100
AcDbEntity
  8
4-4
  6
JWW_DASHED1
 62
     7
370
     9
100
AcDbCircle
 10
3858.315286878625
 20
-1136.968597061556
 30
0.0
 40
7.5
  0
CIRCLE
  5
160
330
1F
100
AcDbEntity
  8
4-4
  6
JWW_DASHED1
 62
     7
370
     9
100
AcDbCircle
 10
3168.315286878625
 20
-1136.968597061556
 30
0.0
 40
7.5
  0
CIRCLE
  5
161
330
1F
100
AcDbEntity
  8
4-4
  6
JWW_DASHED1
 62
     7
370
     9
100
AcDbCircle
 10
3168.315286878625
 20
-1226.968597061556
 30
0.0
 40
7.5
  0
CIRCLE
  5
162
330
1F
100
AcDbEntity
  8
4-4
  6
JWW_DASHED1
 62
     7
370
     9
100
AcDbCircle
 10
3858.315286878625
 20
-1226.968597061556
 30
0.0
 40
7.5
  0
CIRCLE
  5
163
330
1F
100
AcDbEntity
  8
4-4
  6
JWW_DASHED1
 62
     7
370
     9
100
AcDbCircle
 10
3858.315286878625
 20
-1316.968597061556
 30
0.0
 40
7.5
  0
CIRCLE
  5
164
330
1F
100
AcDbEntity
  8
4-4
  6
JWW_DASHED1
 62
     7
370
     9
100
AcDbCircle
 10
3168.315286878625
 20
-1316.968597061556
 30
0.0
 40
7.5
  0
CIRCLE
  5
165
330
1F
100
AcDbEntity
  8
4-4
  6
JWW_DASHED1
 62
     7
370
     9
100
AcDbCircle
 10
3168.315286878625
 20
-1406.968597061556
 30
0.0
 40
7.5
  0
CIRCLE
  5
166
330
1F
100
AcDbEntity
  8
4-4
  6
JWW_DASHED1
 62
     7
370
     9
100
AcDbCircle
 10
3858.315286878625
 20
-1406.968597061556
 30
0.0
 40
7.5
  0
LINE
  5
167
330
1F
100
AcDbEntity
  8
4-4
  6
Continuous
 62
     4
370
     5
100
AcDbLine
 10
3163.011986019726
 20
-242.2718979204555
 30
0.0
 11
3173.618587737524
 21
-231.6652962026573
 31
0.0
  0
MTEXT
  5
168
330
1F
100
AcDbEntity
  8
4-4
  6
Continuous
 62
     7
370
   211
100
AcDbMText
 10
3269.078003197708
 20
-127.3676773068775
 30
0.0
 40
95.25000000000001
 41
187.5
 46
0.0
 71
     7
 72
     1
  1
{\fＭＳ ゴシック|b0|i0|c128|p49;5φ}
 11
0.7071067811865508
 21
0.7071067811865442
 31
0.0
 73
     1
 44
1.0
  0
LINE
  5
169
330
1F
100
AcDbEntity
  8
4-4
  6
Continuous
 62
     4
370
     5
100
AcDbLine
 10
3173.618587737524
 20
-231.6652962026573
 30
0.0
 11
3412.267126387985
 21
6.983242447801246
 31
0.0
  0
LINE
  5
16A
330
1F
100
AcDbEntity
  8
4-4
  6
Continuous
 62
     4
370
     5
100
AcDbLine
 10
3056.945968841743
 20
-348.3379150984371
 30
0.0
 11
3163.011986019726
 21
-242.2718979204555
 31
0.0
  0
LINE
  5
16B
330
1F
100
AcDbEntity
  8
4-4
  6
Continuous
 62
     4
370
     5
100
AcDbLine
 10
3163.011986019726
 20
-242.2718979204555
 30
0.0
 11
3118.011986019725
 21
-320.2141842610548
 31
0.0
  0
LINE
  5
16C
330
1F
100
AcDbEntity
  8
4-4
  6
Continuous
 62
     4
370
     5
100
AcDbLine
 10
3163.011986019726
 20
-242.2718979204555
 30
0.0
 11
3085.069699679126
 21
-287.2718979204552
 31
0.0
  0
LINE
  5
16D
330
1F
100
AcDbEntity
  8
4-4
  6
Continuous
 62
     4
370
     5
100
AcDbLine
 10
3173.618587737524
 20
-231.6652962026573
 30
0.0
 11
3218.618587737524
 21
-153.7230098620581
 31
0.0
  0
LINE
  5
16E
330
1F
100
AcDbEntity
  8
4-4
  6
Continuous
 62
     4
370
     5
100
AcDbLine
 10
3173.618587737524
 20
-231.6652962026573
 30
0.0
 11
3251.560874078123
 21
-186.6652962026577
 31
0.0
  0
LWPOLYLINE
  5
16F
330
1F
100
AcDbEntity
  8
4-4
  6
Continuous
 62
     4
370
     5
100
AcDbPolyline
 90
        4
 70
     1
 43
3.0
 10
-4970.223454923659
 20
1052.990908822615
 42
0.4142135623731
 10
-4971.723454923659
 20
1054.490908822615
 42
0.4142135623731
 10
-4973.223454923659
 20
1052.990908822615
 42
0.4142135623731
 10
-4971.723454923659
 20
1051.490908822615
 42
0.4142135623731
  0
LWPOLYLINE
  5
170
330
1F
100
AcDbEntity
  8
4-4
  6
Continuous
 62
     4
370
     5
100
AcDbPolyline
 90
        4
 70
     1
 43
3.0
 10
-4544.41954058862
 20
1052.990908822615
 42
0.4142135623731
 10
-4545.91954058862
 20
1054.490908822615
 42
0.4142135623731
 10
-4547.41954058862
 20
1052.990908822615
 42
0.4142135623731
 10
-4545.91954058862
 20
1051.490908822615
 42
0.4142135623731
  0
MTEXT
  5
171
330
1F
100
AcDbEntity
  8
4-4
  6
Continuous
 62
     7
370
   211
100
AcDbMText
 10
-4560.91954058862
 20
1112.818408822616
 30
0.0
 40
97.15499999999999
 41
127.5
 46
0.0
 71
     7
 72
     1
  1
{\fＭＳ ゴシック|b0|i0|c128|p49;90}
 11
6.123031769111886E-17
 21
1.0
 31
0.0
 73
     1
 44
1.0
  0
LINE
  5
172
330
1F
100
AcDbEntity
  8
4-4
  6
JWW_CENTER1
 62
     3
370
    13
100
AcDbLine
 10
-1551.981077207334
 20
915.7779629095662
 30
0.0
 11
-1551.981077207334
 21
2534.772376317388
 31
0.0
  0
LINE
  5
173
330
1F
100
AcDbEntity
  8
4-4
  6
JWW_DASHED1
 62
     7
370
     9
100
AcDbLine
 10
-1626.981077207334
 20
1232.990908822615
 30
0.0
 11
-1626.981077207334
 21
1172.990908822615
 31
0.0
  0
LINE
  5
174
330
1F
100
AcDbEntity
  8
4-4
  6
Continuous
 62
     4
370
     5
100
AcDbLine
 10
-4545.91954058862
 20
2297.990908822615
 30
0.0
 11
-4545.91954058862
 21
1322.990908822615
 31
0.0
  0
LINE
  5
175
330
1F
100
AcDbEntity
  8
4-4
  6
JWW_DASHED1
 62
     7
370
     9
100
AcDbLine
 10
-1476.981077207334
 20
1307.990908822615
 30
0.0
 11
-1476.981077207334
 21
1247.990908822615
 31
0.0
  0
LINE
  5
176
330
1F
100
AcDbEntity
  8
4-4
  6
JWW_DASHED1
 62
     7
370
     9
100
AcDbLine
 10
-1581.981077207334
 20
1322.990908822615
 30
0.0
 11
-1581.981077207334
 21
2297.990908822615
 31
0.0
  0
LINE
  5
177
330
1F
100
AcDbEntity
  8
4-4
  6
JWW_DASHED1
 62
     7
370
     9
100
AcDbLine
 10
-1581.981077207334
 20
1322.990908822615
 30
0.0
 11
-1521.981077207334
 21
1322.990908822615
 31
0.0
  0
LINE
  5
178
330
1F
100
AcDbEntity
  8
4-4
  6
JWW_DASHED1
 62
     7
370
     9
100
AcDbLine
 10
-1521.981077207334
 20
1322.990908822615
 30
0.0
 11
-1521.981077207334
 21
2297.990908822615
 31
0.0
  0
LINE
  5
179
330
1F
100
AcDbEntity
  8
4-4
  6
Continuous
 62
     4
370
     5
100
AcDbLine
 10
-4545.91954058862
 20
1052.990908822615
 30
0.0
 11
-4545.91954058862
 21
1322.990908822615
 31
0.0
  0
LWPOLYLINE
  5
17A
330
1F
100
AcDbEntity
  8
4-4
  6
Continuous
 62
     4
370
     5
100
AcDbPolyline
 90
        4
 70
     1
 43
3.0
 10
-4544.41954058862
 20
1322.990908822615
 42
0.4142135623731
 10
-4545.91954058862
 20
1324.490908822615
 42
0.4142135623731
 10
-4547.41954058862
 20
1322.990908822615
 42
0.4142135623731
 10
-4545.91954058862
 20
1321.490908822615
 42
0.4142135623731
  0
LINE
  5
17B
330
1F
100
AcDbEntity
  8
4-4
  6
Continuous
 62
     7
370
     9
100
AcDbLine
 10
-4971.723454923659
 20
1052.990908822615
 30
0.0
 11
-4428.725945116539
 21
1052.990908822615
 31
0.0
  0
LINE
  5
17C
330
1F
100
AcDbEntity
  8
4-4
  6
Continuous
 62
     7
370
     9
100
AcDbLine
 10
-4545.91954058862
 20
1322.990908822615
 30
0.0
 11
-4428.725945116539
 21
1322.990908822615
 31
0.0
  0
LWPOLYLINE
  5
17D
330
1F
100
AcDbEntity
  8
4-4
  6
Continuous
 62
     4
370
     5
100
AcDbPolyline
 90
        4
 70
     1
 43
3.0
 10
-4544.41954058862
 20
2177.990908822615
 42
0.4142135623731
 10
-4545.91954058862
 20
2179.490908822615
 42
0.4142135623731
 10
-4547.41954058862
 20
2177.990908822615
 42
0.4142135623731
 10
-4545.91954058862
 20
2176.490908822615
 42
0.4142135623731
  0
LINE
  5
17E
330
1F
100
AcDbEntity
  8
4-4
  6
Continuous
 62
     7
370
     9
100
AcDbLine
 10
-4545.91954058862
 20
2177.990908822615
 30
0.0
 11
-4428.725945116539
 21
2177.990908822615
 31
0.0
  0
LWPOLYLINE
  5
17F
330
1F
100
AcDbEntity
  8
4-4
  6
Continuous
 62
     4
370
     5
100
AcDbPolyline
 90
        4
 70
     1
 43
3.0
 10
-4544.41954058862
 20
2297.990908822615
 42
0.4142135623731
 10
-4545.91954058862
 20
2299.490908822615
 42
0.4142135623731
 10
-4547.41954058862
 20
2297.990908822615
 42
0.4142135623731
 10
-4545.91954058862
 20
2296.490908822615
 42
0.4142135623731
  0
LINE
  5
180
330
1F
100
AcDbEntity
  8
4-4
  6
Continuous
 62
     7
370
     9
100
AcDbLine
 10
-4971.723454923659
 20
2297.990908822615
 30
0.0
 11
-4428.725945116539
 21
2297.990908822615
 31
0.0
  0
MTEXT
  5
181
330
1F
100
AcDbEntity
  8
4-4
  6
Continuous
 62
     7
370
   211
100
AcDbMText
 10
-4560.91954058862
 20
2162.818408822615
 30
0.0
 40
97.15499999999999
 41
127.5
 46
0.0
 71
     7
 72
     1
  1
{\fＭＳ ゴシック|b0|i0|c128|p49;40}
 11
6.123031769111886E-17
 21
1.0
 31
0.0
 73
     1
 44
1.0
  0
MTEXT
  5
182
330
1F
100
AcDbEntity
  8
4-4
  6
Continuous
 62
     7
370
   211
100
AcDbMText
 10
-4560.91954058862
 20
1642.520908822615
 30
0.0
 40
99.06
 41
195.0
 46
0.0
 71
     7
 72
     1
  1
{\fＭＳ ゴシック|b0|i0|c128|p49;285}
 11
6.123031769111886E-17
 21
1.0
 31
0.0
 73
     1
 44
1.0
  0
LINE
  5
183
330
1F
100
AcDbEntity
  8
4-4
  6
Continuous
 62
     4
370
     5
100
AcDbLine
 10
-4725.451926628367
 20
1322.990908822615
 30
0.0
 11
-4725.451926628367
 21
2297.990908822615
 31
0.0
  0
LWPOLYLINE
  5
184
330
1F
100
AcDbEntity
  8
4-4
  6
Continuous
 62
     4
370
     5
100
AcDbPolyline
 90
        4
 70
     1
 43
3.0
 10
-4723.951926628367
 20
1322.990908822615
 42
0.4142135623731
 10
-4725.451926628367
 20
1324.490908822615
 42
0.4142135623731
 10
-4726.951926628367
 20
1322.990908822615
 42
0.4142135623731
 10
-4725.451926628367
 20
1321.490908822615
 42
0.4142135623731
  0
LWPOLYLINE
  5
185
330
1F
100
AcDbEntity
  8
4-4
  6
Continuous
 62
     4
370
     5
100
AcDbPolyline
 90
        4
 70
     1
 43
3.0
 10
-4723.951926628367
 20
2297.990908822615
 42
0.4142135623731
 10
-4725.451926628367
 20
2299.490908822615
 42
0.4142135623731
 10
-4726.951926628367
 20
2297.990908822615
 42
0.4142135623731
 10
-4725.451926628367
 20
2296.490908822615
 42
0.4142135623731
  0
LINE
  5
186
330
1F
100
AcDbEntity
  8
4-4
  6
Continuous
 62
     7
370
     9
100
AcDbLine
 10
-4725.451926628367
 20
1322.990908822615
 30
0.0
 11
-4569.420679987486
 21
1322.990908822615
 31
0.0
  0
MTEXT
  5
187
330
1F
100
AcDbEntity
  8
4-4
  6
Continuous
 62
     7
370
   211
100
AcDbMText
 10
-4740.451926628367
 20
1702.520908822615
 30
0.0
 40
99.06
 41
195.0
 46
0.0
 71
     7
 72
     1
  1
{\fＭＳ ゴシック|b0|i0|c128|p49;325}
 11
6.123031769111886E-17
 21
1.0
 31
0.0
 73
     1
 44
1.0
  0
LINE
  5
188
330
1F
100
AcDbEntity
  8
4-4
  6
Continuous
 62
     4
370
     5
100
AcDbLine
 10
-4971.723454923659
 20
1052.990908822615
 30
0.0
 11
-4971.723454923659
 21
2297.990908822615
 31
0.0
  0
LWPOLYLINE
  5
189
330
1F
100
AcDbEntity
  8
4-4
  6
Continuous
 62
     4
370
     5
100
AcDbPolyline
 90
        4
 70
     1
 43
3.0
 10
-4970.223454923659
 20
2297.990908822615
 42
0.4142135623731
 10
-4971.723454923659
 20
2299.490908822615
 42
0.4142135623731
 10
-4973.223454923659
 20
2297.990908822615
 42
0.4142135623731
 10
-4971.723454923659
 20
2296.490908822615
 42
0.4142135623731
  0
MTEXT
  5
18A
330
1F
100
AcDbEntity
  8
4-4
  6
Continuous
 62
     7
370
   211
100
AcDbMText
 10
-5006.47390542644
 20
1230.575209611696
 30
0.0
 40
102.0535714285714
 41
937.5
 46
0.0
 71
     7
 72
     1
  1
{\fＭＳ ゴシック|b0|i0|c128|p49;415(ｶｳﾝﾀｰ奥行)}
 11
6.123031769111886E-17
 21
1.0
 31
0.0
 73
     1
 44
1.0
  0
LINE
  5
18B
330
1F
100
AcDbEntity
  8
4-4
  6
Continuous
 62
     7
370
     9
100
AcDbLine
 10
-1521.981077207334
 20
2583.341006306737
 30
0.0
 11
-1521.981077207334
 21
3453.341006306737
 31
0.0
  0
LINE
  5
18C
330
1F
100
AcDbEntity
  8
4-4
  6
JWW_DASHED1
 62
     7
370
     9
100
AcDbLine
 10
-1521.981077207334
 20
3378.341006306737
 30
0.0
 11
-1491.981077207334
 21
3378.341006306737
 31
0.0
  0
LINE
  5
18D
330
1F
100
AcDbEntity
  8
4-4
  6
JWW_DASHED1
 62
     7
370
     9
100
AcDbLine
 10
-1521.981077207334
 20
3348.341006306737
 30
0.0
 11
-1491.981077207334
 21
3348.341006306737
 31
0.0
  0
LINE
  5
18E
330
1F
100
AcDbEntity
  8
4-4
  6
JWW_DASHED1
 62
     7
370
     9
100
AcDbLine
 10
-1491.981077207334
 20
3348.341006306737
 30
0.0
 11
-1491.981077207334
 21
3378.341006306737
 31
0.0
  0
LINE
  5
18F
330
1F
100
AcDbEntity
  8
4-4
  6
JWW_DASHED1
 62
     7
370
     9
100
AcDbLine
 10
-1521.981077207334
 20
2688.341006306737
 30
0.0
 11
-1491.981077207334
 21
2688.341006306737
 31
0.0
  0
LINE
  5
190
330
1F
100
AcDbEntity
  8
4-4
  6
JWW_DASHED1
 62
     7
370
     9
100
AcDbLine
 10
-1491.981077207334
 20
2658.341006306737
 30
0.0
 11
-1491.981077207334
 21
2688.341006306737
 31
0.0
  0
LINE
  5
191
330
1F
100
AcDbEntity
  8
4-4
  6
JWW_DASHED1
 62
     7
370
     9
100
AcDbLine
 10
-1521.981077207334
 20
2658.341006306737
 30
0.0
 11
-1491.981077207334
 21
2658.341006306737
 31
0.0
  0
LINE
  5
192
330
1F
100
AcDbEntity
  8
4-4
  6
JWW_CENTER1
 62
     7
370
     9
100
AcDbLine
 10
-1546.247218027639
 20
3363.341006306737
 30
0.0
 11
-1458.666164261112
 21
3363.341006306737
 31
0.0
  0
LINE
  5
193
330
1F
100
AcDbEntity
  8
4-4
  6
JWW_CENTER1
 62
     7
370
     9
100
AcDbLine
 10
-1546.247218027639
 20
2673.341006306737
 30
0.0
 11
-1458.666164261112
 21
2673.341006306737
 31
0.0
  0
LWPOLYLINE
  5
194
330
1F
100
AcDbEntity
  8
4-4
  6
Continuous
 62
     4
370
     5
100
AcDbPolyline
 90
        4
 70
     1
 43
3.0
 10
-1520.481077207334
 20
3822.621564482029
 42
0.4142135623731
 10
-1521.981077207334
 20
3824.121564482029
 42
0.4142135623731
 10
-1523.481077207333
 20
3822.621564482029
 42
0.4142135623731
 10
-1521.981077207334
 20
3821.121564482029
 42
0.4142135623731
  0
LINE
  5
195
330
1F
100
AcDbEntity
  8
4-4
  6
Continuous
 62
     7
370
     9
100
AcDbLine
 10
-1521.981077207334
 20
3822.621564482029
 30
0.0
 11
-1521.981077207334
 21
3518.306522623352
 31
0.0
  0
LINE
  5
196
330
1F
100
AcDbEntity
  8
4-4
  6
Continuous
 62
     4
370
     5
100
AcDbLine
 10
-1700.518901679895
 20
2658.341006306737
 30
0.0
 11
-1700.518901679895
 21
2688.341006306737
 31
0.0
  0
LWPOLYLINE
  5
197
330
1F
100
AcDbEntity
  8
4-4
  6
Continuous
 62
     4
370
     5
100
AcDbPolyline
 90
        4
 70
     1
 43
3.0
 10
-1699.018901679895
 20
2658.341006306737
 42
0.4142135623731
 10
-1700.518901679895
 20
2659.841006306737
 42
0.4142135623731
 10
-1702.018901679895
 20
2658.341006306737
 42
0.4142135623731
 10
-1700.518901679895
 20
2656.841006306737
 42
0.4142135623731
  0
LWPOLYLINE
  5
198
330
1F
100
AcDbEntity
  8
4-4
  6
Continuous
 62
     4
370
     5
100
AcDbPolyline
 90
        4
 70
     1
 43
3.0
 10
-1699.018901679895
 20
2688.341006306737
 42
0.4142135623731
 10
-1700.518901679895
 20
2689.841006306737
 42
0.4142135623731
 10
-1702.018901679895
 20
2688.341006306737
 42
0.4142135623731
 10
-1700.518901679895
 20
2686.841006306737
 42
0.4142135623731
  0
LINE
  5
199
330
1F
100
AcDbEntity
  8
4-4
  6
Continuous
 62
     7
370
     9
100
AcDbLine
 10
-1700.518901679895
 20
2658.341006306737
 30
0.0
 11
-1595.282504060046
 21
2658.341006306737
 31
0.0
  0
LINE
  5
19A
330
1F
100
AcDbEntity
  8
4-4
  6
Continuous
 62
     7
370
     9
100
AcDbLine
 10
-1700.518901679895
 20
2688.341006306737
 30
0.0
 11
-1595.282504060046
 21
2688.341006306737
 31
0.0
  0
MTEXT
  5
19B
330
1F
100
AcDbEntity
  8
4-4
  6
Continuous
 62
     7
370
   211
100
AcDbMText
 10
-1715.518901679895
 20
2598.168506306737
 30
0.0
 40
97.15499999999999
 41
127.5
 46
0.0
 71
     7
 72
     1
  1
{\fＭＳ ゴシック|b0|i0|c128|p49;10}
 11
6.123031769111886E-17
 21
1.0
 31
0.0
 73
     1
 44
1.0
  0
LWPOLYLINE
  5
19C
330
1F
100
AcDbEntity
  8
4-4
  6
Continuous
 62
     4
370
     5
100
AcDbPolyline
 90
        4
 70
     1
 43
3.0
 10
-1699.018901679895
 20
3348.341006306737
 42
0.4142135623731
 10
-1700.518901679895
 20
3349.841006306737
 42
0.4142135623731
 10
-1702.018901679895
 20
3348.341006306737
 42
0.4142135623731
 10
-1700.518901679895
 20
3346.841006306737
 42
0.4142135623731
  0
LINE
  5
19D
330
1F
100
AcDbEntity
  8
4-4
  6
Continuous
 62
     7
370
     9
100
AcDbLine
 10
-1700.518901679895
 20
3348.341006306737
 30
0.0
 11
-1595.282504060046
 21
3348.341006306737
 31
0.0
  0
LINE
  5
19E
330
1F
100
AcDbEntity
  8
4-4
  6
Continuous
 62
     4
370
     5
100
AcDbLine
 10
-1700.518901679895
 20
3348.341006306737
 30
0.0
 11
-1700.518901679895
 21
3378.341006306737
 31
0.0
  0
LWPOLYLINE
  5
19F
330
1F
100
AcDbEntity
  8
4-4
  6
Continuous
 62
     4
370
     5
100
AcDbPolyline
 90
        4
 70
     1
 43
3.0
 10
-1699.018901679895
 20
3378.341006306737
 42
0.4142135623731
 10
-1700.518901679895
 20
3379.841006306737
 42
0.4142135623731
 10
-1702.018901679895
 20
3378.341006306737
 42
0.4142135623731
 10
-1700.518901679895
 20
3376.841006306737
 42
0.4142135623731
  0
LINE
  5
1A0
330
1F
100
AcDbEntity
  8
4-4
  6
Continuous
 62
     7
370
     9
100
AcDbLine
 10
-1700.518901679895
 20
3378.341006306737
 30
0.0
 11
-1595.282504060046
 21
3378.341006306737
 31
0.0
  0
MTEXT
  5
1A1
330
1F
100
AcDbEntity
  8
4-4
  6
Continuous
 62
     7
370
   211
100
AcDbMText
 10
-1715.518901679895
 20
3288.168506306737
 30
0.0
 40
97.15499999999999
 41
127.5
 46
0.0
 71
     7
 72
     1
  1
{\fＭＳ ゴシック|b0|i0|c128|p49;10}
 11
6.123031769111886E-17
 21
1.0
 31
0.0
 73
     1
 44
1.0
  0
LINE
  5
1A2
330
1F
100
AcDbEntity
  8
4-4
  6
Continuous
 62
     4
370
     5
100
AcDbLine
 10
-1521.981077207334
 20
3596.194503171247
 30
0.0
 11
-1491.981077207334
 21
3596.194503171247
 31
0.0
  0
LWPOLYLINE
  5
1A3
330
1F
100
AcDbEntity
  8
4-4
  6
Continuous
 62
     4
370
     5
100
AcDbPolyline
 90
        4
 70
     1
 43
3.0
 10
-1520.481077207334
 20
3596.194503171247
 42
0.4142135623731
 10
-1521.981077207334
 20
3597.694503171247
 42
0.4142135623731
 10
-1523.481077207333
 20
3596.194503171247
 42
0.4142135623731
 10
-1521.981077207334
 20
3594.694503171247
 42
0.4142135623731
  0
LWPOLYLINE
  5
1A4
330
1F
100
AcDbEntity
  8
4-4
  6
Continuous
 62
     4
370
     5
100
AcDbPolyline
 90
        4
 70
     1
 43
3.0
 10
-1490.481077207334
 20
3596.194503171247
 42
0.4142135623731
 10
-1491.981077207334
 20
3597.694503171247
 42
0.4142135623731
 10
-1493.481077207333
 20
3596.194503171247
 42
0.4142135623731
 10
-1491.981077207334
 20
3594.694503171247
 42
0.4142135623731
  0
LINE
  5
1A5
330
1F
100
AcDbEntity
  8
4-4
  6
Continuous
 62
     7
370
     9
100
AcDbLine
 10
-1491.981077207334
 20
3596.194503171247
 30
0.0
 11
-1491.981077207334
 21
3518.306522623352
 31
0.0
  0
MTEXT
  5
1A6
330
1F
100
AcDbEntity
  8
4-4
  6
Continuous
 62
     7
370
   211
100
AcDbMText
 10
-1570.731077207334
 20
3599.772003171247
 30
0.0
 40
97.15499999999999
 41
127.5
 46
0.0
 71
     7
 72
     1
  1
{\fＭＳ ゴシック|b0|i0|c128|p49;10}
 73
     1
 44
1.0
  0
MTEXT
  5
1A7
330
1F
100
AcDbEntity
  8
4-4
  6
Continuous
 62
     7
370
     9
100
AcDbMText
 10
-799.1543340380549
 20
2920.953183139534
 30
0.0
 40
101.44125
 41
1065.0
 46
0.0
 71
     7
 72
     1
  1
{\fＭＳ ゴシック|b0|i0|c128|p49;棚板　厚み15ｍｍ}
 73
     1
 44
1.0
  0
LWPOLYLINE
  5
1A8
330
1F
100
AcDbEntity
  8
4-4
  6
Continuous
 62
     4
370
     5
100
AcDbPolyline
 90
        4
 70
     1
 43
3.0
 10
-3953.481077207332
 20
-2682.569832402235
 42
0.4142135623731
 10
-3954.981077207333
 20
-2681.069832402235
 42
0.4142135623731
 10
-3956.481077207333
 20
-2682.569832402235
 42
0.4142135623731
 10
-3954.981077207333
 20
-2684.069832402235
 42
0.4142135623731
  0
LINE
  5
1A9
330
1F
100
AcDbEntity
  8
4-4
  6
Continuous
 62
     7
370
     9
100
AcDbLine
 10
-3954.981077207334
 20
-3022.793296089385
 30
0.0
 11
-3954.981077207333
 21
-2530.055865921789
 31
0.0
  0
LWPOLYLINE
  5
1AA
330
1F
100
AcDbEntity
  8
4-4
  6
Continuous
 62
     4
370
     5
100
AcDbPolyline
 90
        4
 70
     1
 43
3.0
 10
852.5189227926668
 20
-2682.569832402235
 42
0.4142135623731
 10
851.0189227926668
 20
-2681.069832402235
 42
0.4142135623731
 10
849.5189227926668
 20
-2682.569832402235
 42
0.4142135623731
 10
851.0189227926668
 20
-2684.069832402235
 42
0.4142135623731
  0
LINE
  5
1AB
330
1F
100
AcDbEntity
  8
4-4
  6
Continuous
 62
     7
370
     9
100
AcDbLine
 10
851.0189227926676
 20
-3022.793296089385
 30
0.0
 11
851.0189227926668
 21
-2530.055865921789
 31
0.0
  0
LINE
  5
1AC
330
1F
100
AcDbEntity
  8
2-2
  6
Continuous
 62
     3
370
    13
100
AcDbLine
 10
2388.99995382879
 20
3784.790634375212
 30
0.0
 11
3401.522792689816
 21
3784.790634375212
 31
0.0
  0
MTEXT
  5
1AD
330
1F
100
AcDbEntity
  8
2-2
  6
Continuous
 62
     7
370
     9
100
AcDbMText
 10
2402.500258346937
 20
3790.076332535183
 30
0.0
 40
78.97090909090909
 41
1140.0
 46
0.0
 71
     7
 72
     1
  1
{\fＭＳ ゴシック|b0|i0|c128|p49;1.5C面（ｶｳﾝﾀｰ前/側面）}
 73
     1
 44
1.0
  0
LINE
  5
1AE
330
1F
100
AcDbEntity
  8
2-2
  6
Continuous
 62
     3
370
    13
100
AcDbLine
 10
2601.894001992624
 20
3559.936246426892
 30
0.0
 11
2540.203364432036
 21
3665.987954615518
 31
0.0
  0
LINE
  5
1AF
330
1F
100
AcDbEntity
  8
2-2
  6
Continuous
 62
     3
370
    13
100
AcDbLine
 10
2388.99995382879
 20
3784.790634375212
 30
0.0
 11
2601.894001992624
 21
3559.936246426892
 31
0.0
  0
LINE
  5
1B0
330
1F
100
AcDbEntity
  8
4-4
  6
Continuous
 62
     7
370
     9
100
AcDbLine
 10
-3954.981077207334
 20
354.0314029384422
 30
0.0
 11
-3954.981077207334
 21
264.0314029384422
 31
0.0
  0
LINE
  5
1B1
330
1F
100
AcDbEntity
  8
4-4
  6
Continuous
 62
     7
370
     9
100
AcDbLine
 10
-3954.981077207334
 20
-1910.968597061558
 30
0.0
 11
-3954.981077207334
 21
-2000.968597061558
 31
0.0
  0
LINE
  5
1B2
330
1F
100
AcDbEntity
  8
4-4
  6
Continuous
 62
     7
370
     9
100
AcDbLine
 10
-3954.981077207334
 20
354.0314029384422
 30
0.0
 11
851.0189227926672
 21
354.0314029384422
 31
0.0
  0
LINE
  5
1B3
330
1F
100
AcDbEntity
  8
4-4
  6
Continuous
 62
     7
370
     9
100
AcDbLine
 10
851.0189227926672
 20
354.0314029384422
 30
0.0
 11
851.0189227926672
 21
264.0314029384422
 31
0.0
  0
LINE
  5
1B4
330
1F
100
AcDbEntity
  8
4-4
  6
Continuous
 62
     7
370
     9
100
AcDbLine
 10
-3954.981077207334
 20
-2000.968597061558
 30
0.0
 11
851.0189227926672
 21
-2000.968597061558
 31
0.0
  0
LINE
  5
1B5
330
1F
100
AcDbEntity
  8
4-4
  6
Continuous
 62
     7
370
     9
100
AcDbLine
 10
851.0189227926672
 20
-1910.968597061558
 30
0.0
 11
851.0189227926672
 21
-2000.968597061558
 31
0.0
  0
LINE
  5
1B6
330
1F
100
AcDbEntity
  8
4-4
  6
Continuous
 62
     7
370
     9
100
AcDbLine
 10
-3954.981077207334
 20
-1910.968597061558
 30
0.0
 11
851.0189227926672
 21
-1910.968597061558
 31
0.0
  0
LINE
  5
1B7
330
1F
100
AcDbEntity
  8
4-4
  6
JWW_DASHED1
 62
     7
370
     9
100
AcDbLine
 10
-3744.981077207334
 20
1322.990908822615
 30
0.0
 11
-3744.981077207334
 21
2297.990908822615
 31
0.0
  0
LINE
  5
1B8
330
1F
100
AcDbEntity
  8
4-4
  6
JWW_DASHED1
 62
     7
370
     9
100
AcDbLine
 10
-3804.981077207334
 20
1322.990908822615
 30
0.0
 11
-3804.981077207334
 21
2297.990908822615
 31
0.0
  0
LINE
  5
1B9
330
1F
100
AcDbEntity
  8
4-4
  6
JWW_DASHED1
 62
     7
370
     9
100
AcDbLine
 10
-3804.981077207334
 20
1322.990908822615
 30
0.0
 11
-3744.981077207334
 21
1322.990908822615
 31
0.0
  0
LINE
  5
1BA
330
1F
100
AcDbEntity
  8
4-4
  6
JWW_DASHED1
 62
     7
370
     9
100
AcDbLine
 10
-3804.981077207334
 20
1307.990908822615
 30
0.0
 11
-1476.981077207334
 21
1307.990908822615
 31
0.0
  0
LINE
  5
1BB
330
1F
100
AcDbEntity
  8
4-4
  6
JWW_DASHED1
 62
     7
370
     9
100
AcDbLine
 10
-3804.981077207334
 20
1307.990908822615
 30
0.0
 11
-3804.981077207334
 21
1247.990908822615
 31
0.0
  0
LINE
  5
1BC
330
1F
100
AcDbEntity
  8
4-4
  6
JWW_DASHED1
 62
     7
370
     9
100
AcDbLine
 10
-3804.981077207334
 20
1247.990908822615
 30
0.0
 11
-1476.981077207334
 21
1247.990908822615
 31
0.0
  0
LINE
  5
1BD
330
1F
100
AcDbEntity
  8
4-4
  6
Continuous
 62
     7
370
     9
100
AcDbLine
 10
-3954.981077207334
 20
1052.990908822615
 30
0.0
 11
-3954.981077207334
 21
2297.990908822615
 31
0.0
  0
LINE
  5
1BE
330
1F
100
AcDbEntity
  8
4-4
  6
Continuous
 62
     4
370
     5
100
AcDbLine
 10
-3954.981077207334
 20
2557.951846531001
 30
0.0
 11
-3204.981077207334
 21
2557.951846531001
 31
0.0
  0
LWPOLYLINE
  5
1BF
330
1F
100
AcDbEntity
  8
4-4
  6
Continuous
 62
     4
370
     5
100
AcDbPolyline
 90
        4
 70
     1
 43
3.0
 10
-3953.481077207333
 20
2557.951846531001
 42
0.4142135623731
 10
-3954.981077207334
 20
2559.451846531001
 42
0.4142135623731
 10
-3956.481077207334
 20
2557.951846531001
 42
0.4142135623731
 10
-3954.981077207334
 20
2556.451846531001
 42
0.4142135623731
  0
LWPOLYLINE
  5
1C0
330
1F
100
AcDbEntity
  8
4-4
  6
Continuous
 62
     4
370
     5
100
AcDbPolyline
 90
        4
 70
     1
 43
3.0
 10
-3203.481077207334
 20
2557.951846531001
 42
0.4142135623731
 10
-3204.981077207334
 20
2559.451846531001
 42
0.4142135623731
 10
-3206.481077207334
 20
2557.951846531001
 42
0.4142135623731
 10
-3204.981077207334
 20
2556.451846531001
 42
0.4142135623731
  0
LINE
  5
1C1
330
1F
100
AcDbEntity
  8
4-4
  6
Continuous
 62
     7
370
     9
100
AcDbLine
 10
-3954.981077207334
 20
2557.951846531001
 30
0.0
 11
-3954.981077207334
 21
2413.569642421135
 31
0.0
  0
LINE
  5
1C2
330
1F
100
AcDbEntity
  8
4-4
  6
Continuous
 62
     7
370
     9
100
AcDbLine
 10
-3204.981077207334
 20
2557.951846531001
 30
0.0
 11
-3204.981077207334
 21
2413.569642421135
 31
0.0
  0
MTEXT
  5
1C3
330
1F
100
AcDbEntity
  8
4-4
  6
Continuous
 62
     7
370
   211
100
AcDbMText
 10
-3677.481077207334
 20
2562.481846531001
 30
0.0
 40
99.06
 41
195.0
 46
0.0
 71
     7
 72
     1
  1
{\fＭＳ ゴシック|b0|i0|c128|p49;250}
 73
     1
 44
1.0
  0
LINE
  5
1C4
330
1F
100
AcDbEntity
  8
4-4
  6
Continuous
 62
     4
370
     5
100
AcDbLine
 10
-3204.981077207334
 20
2557.951846531001
 30
0.0
 11
-3114.981077207339
 21
2557.951846531001
 31
0.0
  0
LWPOLYLINE
  5
1C5
330
1F
100
AcDbEntity
  8
4-4
  6
Continuous
 62
     4
370
     5
100
AcDbPolyline
 90
        4
 70
     1
 43
3.0
 10
-3113.481077207339
 20
2557.951846531001
 42
0.4142135623731
 10
-3114.981077207339
 20
2559.451846531001
 42
0.4142135623731
 10
-3116.481077207339
 20
2557.951846531001
 42
0.4142135623731
 10
-3114.981077207339
 20
2556.451846531001
 42
0.4142135623731
  0
LINE
  5
1C6
330
1F
100
AcDbEntity
  8
4-4
  6
Continuous
 62
     7
370
     9
100
AcDbLine
 10
-3114.981077207339
 20
2557.951846531001
 30
0.0
 11
-3114.981077207339
 21
2413.569642421135
 31
0.0
  0
MTEXT
  5
1C7
330
1F
100
AcDbEntity
  8
4-4
  6
Continuous
 62
     7
370
   211
100
AcDbMText
 10
-3223.731077207336
 20
2561.529346531001
 30
0.0
 40
97.15499999999999
 41
127.5
 46
0.0
 71
     7
 72
     1
  1
{\fＭＳ ゴシック|b0|i0|c128|p49;30}
 73
     1
 44
1.0
  0
LINE
  5
1C8
330
1F
100
AcDbEntity
  8
4-4
  6
JWW_DASHED1
 62
     7
370
     9
100
AcDbLine
 10
-3204.981077207334
 20
1322.990908822615
 30
0.0
 11
-3114.981077207334
 21
1322.990908822615
 31
0.0
  0
LINE
  5
1C9
330
1F
100
AcDbEntity
  8
4-4
  6
JWW_DASHED1
 62
     7
370
     9
100
AcDbLine
 10
-3138.655810527316
 20
1322.990908822607
 30
0.0
 11
-3114.981077207327
 21
1346.665642142597
 31
0.0
  0
LINE
  5
1CA
330
1F
100
AcDbEntity
  8
4-4
  6
JWW_DASHED1
 62
     7
370
     9
100
AcDbLine
 10
-3181.082217398517
 20
1322.990908822607
 30
0.0
 11
-3114.981077207331
 21
1389.092049013792
 31
0.0
  0
LINE
  5
1CB
330
1F
100
AcDbEntity
  8
4-4
  6
JWW_DASHED1
 62
     7
370
     9
100
AcDbLine
 10
-3204.981077207326
 20
1341.518455884997
 30
0.0
 11
-3114.981077207335
 21
1431.518455884989
 31
0.0
  0
LINE
  5
1CC
330
1F
100
AcDbEntity
  8
4-4
  6
JWW_DASHED1
 62
     7
370
     9
100
AcDbLine
 10
-3204.98107720733
 20
1383.944862756194
 30
0.0
 11
-3114.981077207338
 21
1473.944862756185
 31
0.0
  0
LINE
  5
1CD
330
1F
100
AcDbEntity
  8
4-4
  6
JWW_DASHED1
 62
     7
370
     9
100
AcDbLine
 10
-3204.981077207333
 20
1426.37126962739
 30
0.0
 11
-3114.981077207326
 21
1516.371269627397
 31
0.0
  0
LINE
  5
1CE
330
1F
100
AcDbEntity
  8
4-4
  6
JWW_DASHED1
 62
     7
370
     9
100
AcDbLine
 10
-3204.981077207336
 20
1468.797676498587
 30
0.0
 11
-3114.98107720733
 21
1558.797676498594
 31
0.0
  0
LINE
  5
1CF
330
1F
100
AcDbEntity
  8
4-4
  6
JWW_DASHED1
 62
     7
370
     9
100
AcDbLine
 10
-3204.98107720734
 20
1511.224083369783
 30
0.0
 11
-3114.981077207333
 21
1601.22408336979
 31
0.0
  0
LINE
  5
1D0
330
1F
100
AcDbEntity
  8
4-4
  6
JWW_DASHED1
 62
     7
370
     9
100
AcDbLine
 10
-3204.981077207332
 20
1553.650490240937
 30
0.0
 11
-3114.981077207325
 21
1643.650490240944
 31
0.0
  0
LINE
  5
1D1
330
1F
100
AcDbEntity
  8
4-4
  6
JWW_DASHED1
 62
     7
370
     9
100
AcDbLine
 10
-3204.98107720732
 20
1596.076897112149
 30
0.0
 11
-3114.981077207329
 21
1686.07689711214
 31
0.0
  0
LINE
  5
1D2
330
1F
100
AcDbEntity
  8
4-4
  6
JWW_DASHED1
 62
     7
370
     9
100
AcDbLine
 10
-3204.981077207323
 20
1638.503303983346
 30
0.0
 11
-3114.981077207332
 21
1728.503303983337
 31
0.0
  0
LINE
  5
1D3
330
1F
100
AcDbEntity
  8
4-4
  6
JWW_DASHED1
 62
     7
370
     9
100
AcDbLine
 10
-3204.981077207327
 20
1680.929710854542
 30
0.0
 11
-3114.981077207336
 21
1770.929710854532
 31
0.0
  0
LINE
  5
1D4
330
1F
100
AcDbEntity
  8
4-4
  6
JWW_DASHED1
 62
     7
370
     9
100
AcDbLine
 10
-3204.981077207331
 20
1723.356117725737
 30
0.0
 11
-3114.98107720734
 21
1813.356117725729
 31
0.0
  0
LINE
  5
1D5
330
1F
100
AcDbEntity
  8
4-4
  6
JWW_DASHED1
 62
     7
370
     9
100
AcDbLine
 10
-3204.981077207335
 20
1765.782524596935
 30
0.0
 11
-3114.981077207328
 21
1855.782524596942
 31
0.0
  0
LINE
  5
1D6
330
1F
100
AcDbEntity
  8
4-4
  6
JWW_DASHED1
 62
     7
370
     9
100
AcDbLine
 10
-3204.981077207338
 20
1808.208931468131
 30
0.0
 11
-3114.981077207331
 21
1898.208931468138
 31
0.0
  0
LINE
  5
1D7
330
1F
100
AcDbEntity
  8
4-4
  6
JWW_DASHED1
 62
     7
370
     9
100
AcDbLine
 10
-3204.981077207346
 20
1850.635338339269
 30
0.0
 11
-3114.981077207339
 21
1940.635338339276
 31
0.0
  0
LINE
  5
1D8
330
1F
100
AcDbEntity
  8
4-4
  6
JWW_DASHED1
 62
     7
370
     9
100
AcDbLine
 10
-3204.981077207334
 20
1893.06174521048
 30
0.0
 11
-3114.981077207327
 21
1983.061745210488
 31
0.0
  0
LINE
  5
1D9
330
1F
100
AcDbEntity
  8
4-4
  6
JWW_DASHED1
 62
     7
370
     9
100
AcDbLine
 10
-3204.981077207322
 20
1935.488152081694
 30
0.0
 11
-3114.98107720733
 21
2025.488152081685
 31
0.0
  0
LINE
  5
1DA
330
1F
100
AcDbEntity
  8
4-4
  6
JWW_DASHED1
 62
     7
370
     9
100
AcDbLine
 10
-3204.981077207326
 20
1977.91455895289
 30
0.0
 11
-3114.981077207334
 21
2067.91455895288
 31
0.0
  0
LINE
  5
1DB
330
1F
100
AcDbEntity
  8
4-4
  6
JWW_DASHED1
 62
     7
370
     9
100
AcDbLine
 10
-3204.981077207329
 20
2020.340965824086
 30
0.0
 11
-3114.981077207337
 21
2110.340965824078
 31
0.0
  0
LINE
  5
1DC
330
1F
100
AcDbEntity
  8
4-4
  6
JWW_DASHED1
 62
     7
370
     9
100
AcDbLine
 10
-3204.981077207332
 20
2062.767372695283
 30
0.0
 11
-3114.981077207342
 21
2152.767372695273
 31
0.0
  0
LINE
  5
1DD
330
1F
100
AcDbEntity
  8
4-4
  6
JWW_DASHED1
 62
     7
370
     9
100
AcDbLine
 10
-3204.981077207334
 20
1322.990908822615
 30
0.0
 11
-3204.981077207334
 21
2177.990908822615
 31
0.0
  0
LINE
  5
1DE
330
1F
100
AcDbEntity
  8
4-4
  6
JWW_DASHED1
 62
     7
370
     9
100
AcDbLine
 10
-3114.981077207334
 20
1322.990908822615
 30
0.0
 11
-3114.981077207334
 21
2177.990908822615
 31
0.0
  0
LINE
  5
1DF
330
1F
100
AcDbEntity
  8
4-4
  6
JWW_DASHED1
 62
     7
370
     9
100
AcDbLine
 10
-3204.981077207334
 20
2177.990908822615
 30
0.0
 11
-3114.981077207334
 21
2177.990908822615
 31
0.0
  0
LINE
  5
1E0
330
1F
100
AcDbEntity
  8
4-4
  6
JWW_DASHED1
 62
     7
370
     9
100
AcDbLine
 10
-3204.98107720734
 20
2147.620186437674
 30
0.0
 11
-3174.610354822399
 21
2177.990908822615
 31
0.0
  0
LINE
  5
1E1
330
1F
100
AcDbEntity
  8
4-4
  6
JWW_DASHED1
 62
     7
370
     9
100
AcDbLine
 10
-3204.981077207336
 20
2105.193779566478
 30
0.0
 11
-3132.183947951199
 21
2177.990908822615
 31
0.0
  0
LINE
  5
1E2
330
1F
100
AcDbEntity
  8
4-4
  6
JWW_DASHED1
 62
     7
370
     9
100
AcDbLine
 10
641.0189227926674
 20
1247.990908822615
 30
0.0
 11
641.0189227926674
 21
2297.990908822615
 31
0.0
  0
LINE
  5
1E3
330
1F
100
AcDbEntity
  8
4-4
  6
JWW_DASHED1
 62
     7
370
     9
100
AcDbLine
 10
701.0189227926674
 20
1247.990908822615
 30
0.0
 11
701.0189227926674
 21
2297.990908822615
 31
0.0
  0
LINE
  5
1E4
330
1F
100
AcDbEntity
  8
4-4
  6
JWW_DASHED1
 62
     7
370
     9
100
AcDbLine
 10
-1626.981077207334
 20
1232.990908822615
 30
0.0
 11
701.0189227926674
 21
1232.990908822615
 31
0.0
  0
LINE
  5
1E5
330
1F
100
AcDbEntity
  8
4-4
  6
JWW_DASHED1
 62
     7
370
     9
100
AcDbLine
 10
-1626.981077207334
 20
1172.990908822615
 30
0.0
 11
701.0189227926674
 21
1172.990908822615
 31
0.0
  0
LINE
  5
1E6
330
1F
100
AcDbEntity
  8
4-4
  6
JWW_DASHED1
 62
     7
370
     9
100
AcDbLine
 10
701.0189227926674
 20
1232.990908822615
 30
0.0
 11
701.0189227926674
 21
1172.990908822615
 31
0.0
  0
LINE
  5
1E7
330
1F
100
AcDbEntity
  8
4-4
  6
JWW_DASHED1
 62
     7
370
     9
100
AcDbLine
 10
641.0189227926674
 20
1247.990908822615
 30
0.0
 11
701.0189227926674
 21
1247.990908822615
 31
0.0
  0
LINE
  5
1E8
330
1F
100
AcDbEntity
  8
4-4
  6
JWW_DASHED1
 62
     7
370
     9
100
AcDbLine
 10
-3744.981077207334
 20
2282.990908822615
 30
0.0
 11
641.0189227926676
 21
2282.990908822615
 31
0.0
  0
LINE
  5
1E9
330
1F
100
AcDbEntity
  8
4-4
  6
Continuous
 62
     7
370
     9
100
AcDbLine
 10
-3954.981077207334
 20
2297.990908822615
 30
0.0
 11
851.0189227926672
 21
2297.990908822615
 31
0.0
  0
LINE
  5
1EA
330
1F
100
AcDbEntity
  8
4-4
  6
Continuous
 62
     7
370
     9
100
AcDbLine
 10
851.0189227926672
 20
1052.990908822615
 30
0.0
 11
851.0189227926672
 21
2297.990908822615
 31
0.0
  0
LINE
  5
1EB
330
1F
100
AcDbEntity
  8
4-4
  6
Continuous
 62
     7
370
     9
100
AcDbLine
 10
-3954.981077207334
 20
1052.990908822615
 30
0.0
 11
851.0189227926672
 21
1052.990908822615
 31
0.0
  0
LINE
  5
1EC
330
1F
100
AcDbEntity
  8
4-4
  6
JWW_DASHED1
 62
     7
370
     9
100
AcDbLine
 10
101.0189227926672
 20
1322.990908822615
 30
0.0
 11
11.01892279266721
 21
1322.990908822615
 31
0.0
  0
LINE
  5
1ED
330
1F
100
AcDbEntity
  8
4-4
  6
JWW_DASHED1
 62
     7
370
     9
100
AcDbLine
 10
34.69365611264983
 20
1322.990908822607
 30
0.0
 11
11.01892279266039
 21
1346.665642142597
 31
0.0
  0
LINE
  5
1EE
330
1F
100
AcDbEntity
  8
4-4
  6
JWW_DASHED1
 62
     7
370
     9
100
AcDbLine
 10
77.12006298385049
 20
1322.990908822607
 30
0.0
 11
11.01892279266423
 21
1389.092049013792
 31
0.0
  0
LINE
  5
1EF
330
1F
100
AcDbEntity
  8
4-4
  6
JWW_DASHED1
 62
     7
370
     9
100
AcDbLine
 10
101.0189227926591
 20
1341.518455884997
 30
0.0
 11
11.01892279266764
 21
1431.518455884989
 31
0.0
  0
LINE
  5
1F0
330
1F
100
AcDbEntity
  8
4-4
  6
JWW_DASHED1
 62
     7
370
     9
100
AcDbLine
 10
101.0189227926632
 20
1383.944862756194
 30
0.0
 11
11.01892279267148
 21
1473.944862756185
 31
0.0
  0
LINE
  5
1F1
330
1F
100
AcDbEntity
  8
4-4
  6
JWW_DASHED1
 62
     7
370
     9
100
AcDbLine
 10
101.0189227926666
 20
1426.37126962739
 30
0.0
 11
11.01892279265911
 21
1516.371269627397
 31
0.0
  0
LINE
  5
1F2
330
1F
100
AcDbEntity
  8
4-4
  6
JWW_DASHED1
 62
     7
370
     9
100
AcDbLine
 10
101.01892279267
 20
1468.797676498587
 30
0.0
 11
11.01892279266295
 21
1558.797676498594
 31
0.0
  0
LINE
  5
1F3
330
1F
100
AcDbEntity
  8
4-4
  6
JWW_DASHED1
 62
     7
370
     9
100
AcDbLine
 10
101.0189227926738
 20
1511.224083369783
 30
0.0
 11
11.01892279266636
 21
1601.22408336979
 31
0.0
  0
LINE
  5
1F4
330
1F
100
AcDbEntity
  8
4-4
  6
JWW_DASHED1
 62
     7
370
     9
100
AcDbLine
 10
101.0189227926655
 20
1553.650490240937
 30
0.0
 11
11.01892279265847
 21
1643.650490240944
 31
0.0
  0
LINE
  5
1F5
330
1F
100
AcDbEntity
  8
4-4
  6
JWW_DASHED1
 62
     7
370
     9
100
AcDbLine
 10
101.0189227926536
 20
1596.076897112149
 30
0.0
 11
11.0189227926621
 21
1686.07689711214
 31
0.0
  0
LINE
  5
1F6
330
1F
100
AcDbEntity
  8
4-4
  6
JWW_DASHED1
 62
     7
370
     9
100
AcDbLine
 10
101.018922792657
 20
1638.503303983346
 30
0.0
 11
11.01892279266551
 21
1728.503303983337
 31
0.0
  0
LINE
  5
1F7
330
1F
100
AcDbEntity
  8
4-4
  6
JWW_DASHED1
 62
     7
370
     9
100
AcDbLine
 10
101.0189227926604
 20
1680.929710854542
 30
0.0
 11
11.01892279266934
 21
1770.929710854532
 31
0.0
  0
LINE
  5
1F8
330
1F
100
AcDbEntity
  8
4-4
  6
JWW_DASHED1
 62
     7
370
     9
100
AcDbLine
 10
101.0189227926642
 20
1723.356117725737
 30
0.0
 11
11.01892279267275
 21
1813.356117725729
 31
0.0
  0
LINE
  5
1F9
330
1F
100
AcDbEntity
  8
4-4
  6
JWW_DASHED1
 62
     7
370
     9
100
AcDbLine
 10
101.0189227926676
 20
1765.782524596935
 30
0.0
 11
11.01892279266082
 21
1855.782524596942
 31
0.0
  0
LINE
  5
1FA
330
1F
100
AcDbEntity
  8
4-4
  6
JWW_DASHED1
 62
     7
370
     9
100
AcDbLine
 10
101.0189227926715
 20
1808.208931468131
 30
0.0
 11
11.01892279266423
 21
1898.208931468138
 31
0.0
  0
LINE
  5
1FB
330
1F
100
AcDbEntity
  8
4-4
  6
JWW_DASHED1
 62
     7
370
     9
100
AcDbLine
 10
101.0189227926791
 20
1850.635338339269
 30
0.0
 11
11.01892279267233
 21
1940.635338339276
 31
0.0
  0
LINE
  5
1FC
330
1F
100
AcDbEntity
  8
4-4
  6
JWW_DASHED1
 62
     7
370
     9
100
AcDbLine
 10
101.0189227926672
 20
1893.06174521048
 30
0.0
 11
11.01892279266018
 21
1983.061745210488
 31
0.0
  0
LINE
  5
1FD
330
1F
100
AcDbEntity
  8
4-4
  6
JWW_DASHED1
 62
     7
370
     9
100
AcDbLine
 10
101.0189227926551
 20
1935.488152081694
 30
0.0
 11
11.01892279266359
 21
2025.488152081685
 31
0.0
  0
LINE
  5
1FE
330
1F
100
AcDbEntity
  8
4-4
  6
JWW_DASHED1
 62
     7
370
     9
100
AcDbLine
 10
101.0189227926587
 20
1977.91455895289
 30
0.0
 11
11.01892279266721
 21
2067.91455895288
 31
0.0
  0
LINE
  5
1FF
330
1F
100
AcDbEntity
  8
4-4
  6
JWW_DASHED1
 62
     7
370
     9
100
AcDbLine
 10
101.0189227926621
 20
2020.340965824086
 30
0.0
 11
11.01892279267062
 21
2110.340965824078
 31
0.0
  0
LINE
  5
200
330
1F
100
AcDbEntity
  8
4-4
  6
JWW_DASHED1
 62
     7
370
     9
100
AcDbLine
 10
101.0189227926655
 20
2062.767372695283
 30
0.0
 11
11.01892279267446
 21
2152.767372695273
 31
0.0
  0
LINE
  5
201
330
1F
100
AcDbEntity
  8
4-4
  6
JWW_DASHED1
 62
     7
370
     9
100
AcDbLine
 10
11.01892279266721
 20
1322.990908822615
 30
0.0
 11
11.01892279266721
 21
2177.990908822615
 31
0.0
  0
LINE
  5
202
330
1F
100
AcDbEntity
  8
4-4
  6
JWW_DASHED1
 62
     7
370
     9
100
AcDbLine
 10
11.01892279266721
 20
2177.990908822615
 30
0.0
 11
101.0189227926672
 21
2177.990908822615
 31
0.0
  0
LINE
  5
203
330
1F
100
AcDbEntity
  8
4-4
  6
JWW_DASHED1
 62
     7
370
     9
100
AcDbLine
 10
101.0189227926672
 20
1322.990908822615
 30
0.0
 11
101.0189227926672
 21
2177.990908822615
 31
0.0
  0
LINE
  5
204
330
1F
100
AcDbEntity
  8
4-4
  6
JWW_DASHED1
 62
     7
370
     9
100
AcDbLine
 10
101.0189227926693
 20
2105.193779566478
 30
0.0
 11
28.22179353653215
 21
2177.990908822615
 31
0.0
  0
LINE
  5
205
330
1F
100
AcDbEntity
  8
4-4
  6
JWW_DASHED1
 62
     7
370
     9
100
AcDbLine
 10
101.0189227926734
 20
2147.620186437674
 30
0.0
 11
70.64820040773228
 21
2177.990908822615
 31
0.0
  0
LINE
  5
206
330
1F
100
AcDbEntity
  8
4-4
  6
Continuous
 62
     7
370
     9
100
AcDbLine
 10
-3069.981077207334
 20
-2000.968597061558
 30
0.0
 11
-3069.981077207334
 21
-2453.968597061558
 31
0.0
  0
LINE
  5
207
330
1F
100
AcDbEntity
  8
4-4
  6
Continuous
 62
     7
370
     9
100
AcDbLine
 10
-3159.981077207334
 20
-2000.968597061558
 30
0.0
 11
-3159.981077207334
 21
-2453.968597061558
 31
0.0
  0
LINE
  5
208
330
1F
100
AcDbEntity
  8
4-4
  6
Continuous
 62
     7
370
     9
100
AcDbLine
 10
101.0189227926672
 20
-2000.968597061558
 30
0.0
 11
101.0189227926672
 21
-2453.968597061558
 31
0.0
  0
LINE
  5
209
330
1F
100
AcDbEntity
  8
4-4
  6
Continuous
 62
     7
370
     9
100
AcDbLine
 10
11.01892279266721
 20
-2000.968597061558
 30
0.0
 11
11.01892279266721
 21
-2453.968597061558
 31
0.0
  0
LINE
  5
20A
330
1F
100
AcDbEntity
  8
4-4
  6
JWW_DASHED1
 62
     7
370
     9
100
AcDbLine
 10
611.0189227926674
 20
3378.341006306737
 30
0.0
 11
641.0189227926671
 21
3378.341006306737
 31
0.0
  0
LINE
  5
20B
330
1F
100
AcDbEntity
  8
4-4
  6
JWW_DASHED1
 62
     7
370
     9
100
AcDbLine
 10
611.0189227926674
 20
3348.341006306737
 30
0.0
 11
641.0189227926671
 21
3348.341006306737
 31
0.0
  0
LINE
  5
20C
330
1F
100
AcDbEntity
  8
4-4
  6
JWW_DASHED1
 62
     7
370
     9
100
AcDbLine
 10
611.0189227926674
 20
3348.341006306737
 30
0.0
 11
611.0189227926674
 21
3378.341006306737
 31
0.0
  0
LINE
  5
20D
330
1F
100
AcDbEntity
  8
4-4
  6
JWW_DASHED1
 62
     7
370
     9
100
AcDbLine
 10
611.0189227926674
 20
2688.341006306737
 30
0.0
 11
641.0189227926676
 21
2688.341006306737
 31
0.0
  0
LINE
  5
20E
330
1F
100
AcDbEntity
  8
4-4
  6
JWW_DASHED1
 62
     7
370
     9
100
AcDbLine
 10
611.0189227926674
 20
2658.341006306737
 30
0.0
 11
611.0189227926674
 21
2688.341006306737
 31
0.0
  0
LINE
  5
20F
330
1F
100
AcDbEntity
  8
4-4
  6
JWW_DASHED1
 62
     7
370
     9
100
AcDbLine
 10
611.0189227926674
 20
2658.341006306737
 30
0.0
 11
641.0189227926676
 21
2658.341006306737
 31
0.0
  0
LINE
  5
210
330
1F
100
AcDbEntity
  8
4-4
  6
JWW_CENTER1
 62
     7
370
     9
100
AcDbLine
 10
568.0305036275456
 20
3363.341006306737
 30
0.0
 11
670.5997380471656
 21
3363.341006306737
 31
0.0
  0
LINE
  5
211
330
1F
100
AcDbEntity
  8
4-4
  6
JWW_CENTER1
 62
     7
370
     9
100
AcDbLine
 10
568.0305036275456
 20
2673.341006306737
 30
0.0
 11
670.5997380471656
 21
2673.341006306737
 31
0.0
  0
LINE
  5
212
330
1F
100
AcDbEntity
  8
4-4
  6
Continuous
 62
     4
370
     5
100
AcDbLine
 10
828.9183744619604
 20
2583.341006306737
 30
0.0
 11
828.9183744619604
 21
2673.341006306737
 31
0.0
  0
LWPOLYLINE
  5
213
330
1F
100
AcDbEntity
  8
4-4
  6
Continuous
 62
     4
370
     5
100
AcDbPolyline
 90
        4
 70
     1
 43
3.0
 10
830.4183744619605
 20
2583.341006306737
 42
0.4142135623731
 10
828.9183744619604
 20
2584.841006306737
 42
0.4142135623731
 10
827.4183744619604
 20
2583.341006306737
 42
0.4142135623731
 10
828.9183744619604
 20
2581.841006306737
 42
0.4142135623731
  0
LWPOLYLINE
  5
214
330
1F
100
AcDbEntity
  8
4-4
  6
Continuous
 62
     4
370
     5
100
AcDbPolyline
 90
        4
 70
     1
 43
3.0
 10
830.4183744619605
 20
2673.341006306737
 42
0.4142135623731
 10
828.9183744619604
 20
2674.841006306737
 42
0.4142135623731
 10
827.4183744619604
 20
2673.341006306737
 42
0.4142135623731
 10
828.9183744619604
 20
2671.841006306737
 42
0.4142135623731
  0
LINE
  5
215
330
1F
100
AcDbEntity
  8
4-4
  6
Continuous
 62
     7
370
     9
100
AcDbLine
 10
1153.500233841672
 20
2583.341006306737
 30
0.0
 11
706.271556213097
 21
2583.341006306737
 31
0.0
  0
LINE
  5
216
330
1F
100
AcDbEntity
  8
4-4
  6
Continuous
 62
     7
370
     9
100
AcDbLine
 10
828.9183744619604
 20
2673.341006306737
 30
0.0
 11
706.271556213097
 21
2673.341006306737
 31
0.0
  0
MTEXT
  5
217
330
1F
100
AcDbEntity
  8
4-4
  6
Continuous
 62
     7
370
   211
100
AcDbMText
 10
813.9183744619604
 20
2553.168506306737
 30
0.0
 40
97.15499999999999
 41
127.5
 46
0.0
 71
     7
 72
     1
  1
{\fＭＳ ゴシック|b0|i0|c128|p49;30}
 11
6.123031769111886E-17
 21
1.0
 31
0.0
 73
     1
 44
1.0
  0
LWPOLYLINE
  5
218
330
1F
100
AcDbEntity
  8
4-4
  6
Continuous
 62
     4
370
     5
100
AcDbPolyline
 90
        4
 70
     1
 43
3.0
 10
830.4183744619605
 20
3363.341006306737
 42
0.4142135623731
 10
828.9183744619604
 20
3364.841006306737
 42
0.4142135623731
 10
827.4183744619604
 20
3363.341006306737
 42
0.4142135623731
 10
828.9183744619604
 20
3361.841006306737
 42
0.4142135623731
  0
LINE
  5
219
330
1F
100
AcDbEntity
  8
4-4
  6
Continuous
 62
     7
370
     9
100
AcDbLine
 10
828.9183744619604
 20
3363.341006306737
 30
0.0
 11
706.271556213097
 21
3363.341006306737
 31
0.0
  0
LINE
  5
21A
330
1F
100
AcDbEntity
  8
4-4
  6
Continuous
 62
     4
370
     5
100
AcDbLine
 10
828.9183744619604
 20
3363.341006306737
 30
0.0
 11
828.9183744619604
 21
3453.341006306737
 31
0.0
  0
LWPOLYLINE
  5
21B
330
1F
100
AcDbEntity
  8
4-4
  6
Continuous
 62
     4
370
     5
100
AcDbPolyline
 90
        4
 70
     1
 43
3.0
 10
830.4183744619605
 20
3453.341006306737
 42
0.4142135623731
 10
828.9183744619604
 20
3454.841006306737
 42
0.4142135623731
 10
827.4183744619604
 20
3453.341006306737
 42
0.4142135623731
 10
828.9183744619604
 20
3451.841006306737
 42
0.4142135623731
  0
LINE
  5
21C
330
1F
100
AcDbEntity
  8
4-4
  6
Continuous
 62
     7
370
     9
100
AcDbLine
 10
1153.500233841672
 20
3453.341006306737
 30
0.0
 11
706.271556213097
 21
3453.341006306737
 31
0.0
  0
MTEXT
  5
21D
330
1F
100
AcDbEntity
  8
4-4
  6
Continuous
 62
     7
370
   211
100
AcDbMText
 10
813.9183744619604
 20
3333.168506306737
 30
0.0
 40
97.15499999999999
 41
127.5
 46
0.0
 71
     7
 72
     1
  1
{\fＭＳ ゴシック|b0|i0|c128|p49;30}
 11
6.123031769111886E-17
 21
1.0
 31
0.0
 73
     1
 44
1.0
  0
LINE
  5
21E
330
1F
100
AcDbEntity
  8
4-4
  6
Continuous
 62
     4
370
     5
100
AcDbLine
 10
1153.500233841672
 20
2583.341006306737
 30
0.0
 11
1153.500233841672
 21
3453.341006306737
 31
0.0
  0
LWPOLYLINE
  5
21F
330
1F
100
AcDbEntity
  8
4-4
  6
Continuous
 62
     4
370
     5
100
AcDbPolyline
 90
        4
 70
     1
 43
3.0
 10
1155.000233841672
 20
2583.341006306737
 42
0.4142135623731
 10
1153.500233841672
 20
2584.841006306737
 42
0.4142135623731
 10
1152.000233841672
 20
2583.341006306737
 42
0.4142135623731
 10
1153.500233841672
 20
2581.841006306737
 42
0.4142135623731
  0
LWPOLYLINE
  5
220
330
1F
100
AcDbEntity
  8
4-4
  6
Continuous
 62
     4
370
     5
100
AcDbPolyline
 90
        4
 70
     1
 43
3.0
 10
1155.000233841672
 20
3453.341006306737
 42
0.4142135623731
 10
1153.500233841672
 20
3454.841006306737
 42
0.4142135623731
 10
1152.000233841672
 20
3453.341006306737
 42
0.4142135623731
 10
1153.500233841672
 20
3451.841006306737
 42
0.4142135623731
  0
MTEXT
  5
221
330
1F
100
AcDbEntity
  8
4-4
  6
Continuous
 62
     7
370
   211
100
AcDbMText
 10
1138.500233841672
 20
2910.371006306737
 30
0.0
 40
99.06
 41
195.0
 46
0.0
 71
     7
 72
     1
  1
{\fＭＳ ゴシック|b0|i0|c128|p49;290}
 11
6.123031769111886E-17
 21
1.0
 31
0.0
 73
     1
 44
1.0
  0
LWPOLYLINE
  5
222
330
1F
100
AcDbEntity
  8
4-4
  6
Continuous
 62
     4
370
     5
100
AcDbPolyline
 90
        4
 70
     1
 43
3.0
 10
642.5189227926674
 20
3822.621564482029
 42
0.4142135623731
 10
641.0189227926674
 20
3824.121564482029
 42
0.4142135623731
 10
639.5189227926674
 20
3822.621564482029
 42
0.4142135623731
 10
641.0189227926674
 20
3821.121564482029
 42
0.4142135623731
  0
LINE
  5
223
330
1F
100
AcDbEntity
  8
4-4
  6
Continuous
 62
     7
370
     9
100
AcDbLine
 10
641.0189227926674
 20
3822.621564482029
 30
0.0
 11
641.0189227926674
 21
3518.306522623352
 31
0.0
  0
LWPOLYLINE
  5
224
330
1F
100
AcDbEntity
  8
4-4
  6
Continuous
 62
     4
370
     5
100
AcDbPolyline
 90
        4
 70
     1
 43
3.0
 10
612.5189227926678
 20
3596.194503171247
 42
0.4142135623731
 10
611.0189227926677
 20
3597.694503171247
 42
0.4142135623731
 10
609.5189227926677
 20
3596.194503171247
 42
0.4142135623731
 10
611.0189227926677
 20
3594.694503171247
 42
0.4142135623731
  0
LINE
  5
225
330
1F
100
AcDbEntity
  8
4-4
  6
Continuous
 62
     7
370
     9
100
AcDbLine
 10
611.0189227926677
 20
3596.194503171247
 30
0.0
 11
611.0189227926677
 21
3518.306522623352
 31
0.0
  0
LINE
  5
226
330
1F
100
AcDbEntity
  8
4-4
  6
Continuous
 62
     4
370
     5
100
AcDbLine
 10
611.0189227926677
 20
3596.194503171247
 30
0.0
 11
641.0189227926674
 21
3596.194503171247
 31
0.0
  0
LWPOLYLINE
  5
227
330
1F
100
AcDbEntity
  8
4-4
  6
Continuous
 62
     4
370
     5
100
AcDbPolyline
 90
        4
 70
     1
 43
3.0
 10
642.5189227926674
 20
3596.194503171247
 42
0.4142135623731
 10
641.0189227926674
 20
3597.694503171247
 42
0.4142135623731
 10
639.5189227926674
 20
3596.194503171247
 42
0.4142135623731
 10
641.0189227926674
 20
3594.694503171247
 42
0.4142135623731
  0
MTEXT
  5
228
330
1F
100
AcDbEntity
  8
4-4
  6
Continuous
 62
     7
370
   211
100
AcDbMText
 10
562.2689227926676
 20
3599.772003171247
 30
0.0
 40
97.15499999999999
 41
127.5
 46
0.0
 71
     7
 72
     1
  1
{\fＭＳ ゴシック|b0|i0|c128|p49;10}
 73
     1
 44
1.0
  0
LINE
  5
229
330
1F
100
AcDbEntity
  8
4-4
  6
Continuous
 62
     7
370
     9
100
AcDbLine
 10
-1521.981077207334
 20
3453.341006306737
 30
0.0
 11
641.0189227926674
 21
3453.341006306737
 31
0.0
  0
LINE
  5
22A
330
1F
100
AcDbEntity
  8
4-4
  6
Continuous
 62
     7
370
     9
100
AcDbLine
 10
641.0189227926674
 20
2583.341006306737
 30
0.0
 11
641.0189227926674
 21
3453.341006306737
 31
0.0
  0
LINE
  5
22B
330
1F
100
AcDbEntity
  8
4-4
  6
Continuous
 62
     7
370
     9
100
AcDbLine
 10
-1521.981077207334
 20
2583.341006306737
 30
0.0
 11
641.0189227926674
 21
2583.341006306737
 31
0.0
  0
LINE
  5
22C
330
1F
100
AcDbEntity
  8
4-4
  6
Continuous
 62
     4
370
     5
100
AcDbLine
 10
-1521.981077207334
 20
3822.621564482029
 30
0.0
 11
641.0189227926672
 21
3822.621564482029
 31
0.0
  0
MTEXT
  5
22D
330
1F
100
AcDbEntity
  8
4-4
  6
Continuous
 62
     7
370
   211
100
AcDbMText
 10
-537.9810772073331
 20
3827.15156448203
 30
0.0
 40
99.06
 41
195.0
 46
0.0
 71
     7
 72
     1
  1
{\fＭＳ ゴシック|b0|i0|c128|p49;721}
 73
     1
 44
1.0
  0
LINE
  5
22E
330
1F
100
AcDbEntity
  8
4-4
  6
Continuous
 62
     4
370
     5
100
AcDbLine
 10
1190.740618557089
 20
2297.990908822615
 30
0.0
 11
1190.740618557089
 21
1247.990908822615
 31
0.0
  0
LWPOLYLINE
  5
22F
330
1F
100
AcDbEntity
  8
4-4
  6
Continuous
 62
     4
370
     5
100
AcDbPolyline
 90
        4
 70
     1
 43
3.0
 10
1192.240618557088
 20
2297.990908822615
 42
0.4142135623731
 10
1190.740618557089
 20
2299.490908822615
 42
0.4142135623731
 10
1189.240618557089
 20
2297.990908822615
 42
0.4142135623731
 10
1190.740618557089
 20
2296.490908822615
 42
0.4142135623731
  0
LWPOLYLINE
  5
230
330
1F
100
AcDbEntity
  8
4-4
  6
Continuous
 62
     4
370
     5
100
AcDbPolyline
 90
        4
 70
     1
 43
3.0
 10
1192.240618557088
 20
1247.990908822615
 42
0.4142135623731
 10
1190.740618557089
 20
1249.490908822615
 42
0.4142135623731
 10
1189.240618557089
 20
1247.990908822615
 42
0.4142135623731
 10
1190.740618557089
 20
1246.490908822615
 42
0.4142135623731
  0
LINE
  5
231
330
1F
100
AcDbEntity
  8
4-4
  6
Continuous
 62
     7
370
     9
100
AcDbLine
 10
1190.740618557089
 20
2297.990908822615
 30
0.0
 11
982.2983102645892
 21
2297.990908822615
 31
0.0
  0
LINE
  5
232
330
1F
100
AcDbEntity
  8
4-4
  6
Continuous
 62
     7
370
     9
100
AcDbLine
 10
1190.740618557089
 20
1247.990908822615
 30
0.0
 11
982.2983102645892
 21
1247.990908822615
 31
0.0
  0
MTEXT
  5
233
330
1F
100
AcDbEntity
  8
4-4
  6
Continuous
 62
     7
370
   211
100
AcDbMText
 10
1175.740618557089
 20
1665.020908822615
 30
0.0
 40
99.06
 41
195.0
 46
0.0
 71
     7
 72
     1
  1
{\fＭＳ ゴシック|b0|i0|c128|p49;350}
 11
6.123031769111886E-17
 21
1.0
 31
0.0
 73
     1
 44
1.0
  0
LINE
  5
234
330
1F
100
AcDbEntity
  8
4-4
  6
Continuous
 62
     4
370
     5
100
AcDbLine
 10
-3954.981077207334
 20
-2682.569832402235
 30
0.0
 11
-3804.981077207333
 21
-2682.569832402235
 31
0.0
  0
LWPOLYLINE
  5
235
330
1F
100
AcDbEntity
  8
4-4
  6
Continuous
 62
     4
370
     5
100
AcDbPolyline
 90
        4
 70
     1
 43
3.0
 10
-3803.481077207333
 20
-2682.569832402235
 42
0.4142135623731
 10
-3804.981077207333
 20
-2681.069832402235
 42
0.4142135623731
 10
-3806.481077207333
 20
-2682.569832402235
 42
0.4142135623731
 10
-3804.981077207333
 20
-2684.069832402235
 42
0.4142135623731
  0
LINE
  5
236
330
1F
100
AcDbEntity
  8
4-4
  6
Continuous
 62
     7
370
     9
100
AcDbLine
 10
-3804.981077207333
 20
-2682.569832402235
 30
0.0
 11
-3804.981077207333
 21
-2530.055865921789
 31
0.0
  0
MTEXT
  5
237
330
1F
100
AcDbEntity
  8
4-4
  6
Continuous
 62
     7
370
   211
100
AcDbMText
 10
-3943.731077207334
 20
-2678.992332402235
 30
0.0
 40
97.15499999999999
 41
127.5
 46
0.0
 71
     7
 72
     1
  1
{\fＭＳ ゴシック|b0|i0|c128|p49;50}
 73
     1
 44
1.0
  0
LINE
  5
238
330
1F
100
AcDbEntity
  8
4-4
  6
Continuous
 62
     4
370
     5
100
AcDbLine
 10
-3804.981077207333
 20
-2682.569832402235
 30
0.0
 11
701.0189227926668
 21
-2682.569832402235
 31
0.0
  0
LWPOLYLINE
  5
239
330
1F
100
AcDbEntity
  8
4-4
  6
Continuous
 62
     4
370
     5
100
AcDbPolyline
 90
        4
 70
     1
 43
3.0
 10
702.5189227926668
 20
-2682.569832402235
 42
0.4142135623731
 10
701.0189227926668
 20
-2681.069832402235
 42
0.4142135623731
 10
699.5189227926668
 20
-2682.569832402235
 42
0.4142135623731
 10
701.0189227926668
 20
-2684.069832402235
 42
0.4142135623731
  0
LINE
  5
23A
330
1F
100
AcDbEntity
  8
4-4
  6
Continuous
 62
     7
370
     9
100
AcDbLine
 10
701.0189227926668
 20
-2682.569832402235
 30
0.0
 11
701.0189227926668
 21
-2530.055865921789
 31
0.0
  0
LINE
  5
23B
330
1F
100
AcDbEntity
  8
4-4
  6
Continuous
 62
     4
370
     5
100
AcDbLine
 10
701.0189227926668
 20
-2682.569832402235
 30
0.0
 11
851.0189227926668
 21
-2682.569832402235
 31
0.0
  0
MTEXT
  5
23C
330
1F
100
AcDbEntity
  8
4-4
  6
Continuous
 62
     7
370
   211
100
AcDbMText
 10
712.2689227926668
 20
-2678.992332402235
 30
0.0
 40
97.15499999999999
 41
127.5
 46
0.0
 71
     7
 72
     1
  1
{\fＭＳ ゴシック|b0|i0|c128|p49;50}
 73
     1
 44
1.0
  0
LINE
  5
23D
330
1F
100
AcDbEntity
  8
4-4
  6
Continuous
 62
     4
370
     5
100
AcDbLine
 10
-3954.981077207334
 20
-3022.793296089385
 30
0.0
 11
851.0189227926676
 21
-3022.793296089385
 31
0.0
  0
LWPOLYLINE
  5
23E
330
1F
100
AcDbEntity
  8
4-4
  6
Continuous
 62
     4
370
     5
100
AcDbPolyline
 90
        4
 70
     1
 43
3.0
 10
-3953.481077207333
 20
-3022.793296089385
 42
0.4142135623731
 10
-3954.981077207334
 20
-3021.293296089385
 42
0.4142135623731
 10
-3956.481077207334
 20
-3022.793296089385
 42
0.4142135623731
 10
-3954.981077207334
 20
-3024.293296089385
 42
0.4142135623731
  0
LWPOLYLINE
  5
23F
330
1F
100
AcDbEntity
  8
4-4
  6
Continuous
 62
     4
370
     5
100
AcDbPolyline
 90
        4
 70
     1
 43
3.0
 10
852.5189227926677
 20
-3022.793296089385
 42
0.4142135623731
 10
851.0189227926676
 20
-3021.293296089385
 42
0.4142135623731
 10
849.5189227926676
 20
-3022.793296089385
 42
0.4142135623731
 10
851.0189227926676
 20
-3024.293296089385
 42
0.4142135623731
  0
LINE
  5
240
330
1F
100
AcDbEntity
  8
4-4
  6
JWW_CENTER1
 62
     3
370
    13
100
AcDbLine
 10
-1551.981077207334
 20
457.5418994413407
 30
0.0
 11
-1551.981077207334
 21
-1965.166582827071
 31
0.0
  0
MTEXT
  5
241
330
1F
100
AcDbEntity
  8
F-A
  6
Continuous
 62
     7
370
     0
100
AcDbMText
 10
99.91854284331623
 20
-3887.139820871936
 30
0.0
 40
45.72
 41
180.0
 46
0.0
 71
     7
 72
     1
  1
{\fＭＳ ゴシック|b0|i0|c128|p49;図面名}
 73
     1
 44
1.0
  0
LINE
  5
242
330
1F
100
AcDbEntity
  8
F-0
  6
JWW_HOJO
 62
     4
370
     5
100
AcDbLine
 10
-6140.081333436773
 20
-4455.0
 30
0.0
 11
-6140.081333436773
 21
4424.999604096284
 31
0.0
  0
LINE
  5
243
330
1F
100
AcDbEntity
  8
F-0
  6
JWW_HOJO
 62
     4
370
     5
100
AcDbLine
 10
-6140.081333436773
 20
4424.999604096284
 30
0.0
 11
6159.917676803936
 21
4424.999604096284
 31
0.0
  0
LINE
  5
244
330
1F
100
AcDbEntity
  8
F-0
  6
JWW_HOJO
 62
     4
370
     5
100
AcDbLine
 10
6159.917676803936
 20
4424.999604096284
 30
0.0
 11
6159.917676803936
 21
-4455.0
 31
0.0
  0
LINE
  5
245
330
1F
100
AcDbEntity
  8
F-0
  6
JWW_HOJO
 62
     4
370
     5
100
AcDbLine
 10
6159.917676803936
 20
-4455.0
 30
0.0
 11
-6140.081333436773
 21
-4455.0
 31
0.0
  0
LINE
  5
246
330
1F
100
AcDbEntity
  8
F-0
  6
JWW_HOJO
 62
     7
370
     9
100
AcDbLine
 10
1009.918254163523
 20
-3795.000003092998
 30
0.0
 11
1009.918254163523
 21
-4195.000008247994
 31
0.0
  0
LINE
  5
247
330
1F
100
AcDbEntity
  8
F-0
  6
JWW_HOJO
 62
     7
370
     9
100
AcDbLine
 10
509.9185840832865
 20
-3795.000003092998
 30
0.0
 11
509.9185840832865
 21
-4195.000008247994
 31
0.0
  0
LINE
  5
248
330
1F
100
AcDbEntity
  8
F-1
  6
Continuous
 62
   200
370
    20
100
AcDbLine
 10
5859.917429364114
 20
4174.999769056166
 30
0.0
 11
5859.917429364114
 21
-4205.000164959882
 31
0.0
  0
LINE
  5
249
330
1F
100
AcDbEntity
  8
F-1
  6
Continuous
 62
   200
370
    20
100
AcDbLine
 10
-5840.081317971782
 20
4174.999769056166
 30
0.0
 11
-5840.081317971782
 21
-4205.000164959882
 31
0.0
  0
LINE
  5
24A
330
1F
100
AcDbEntity
  8
F-1
  6
Continuous
 62
   200
370
    20
100
AcDbLine
 10
5859.917429364114
 20
-4205.000002577498
 30
0.0
 11
-5840.081085996952
 21
-4205.000002577498
 31
0.0
  0
LINE
  5
24B
330
1F
100
AcDbEntity
  8
F-1
  6
Continuous
 62
   200
370
    20
100
AcDbLine
 10
-5830.081323642279
 20
4174.999769056166
 30
0.0
 11
-5830.081323642279
 21
-4205.000164959882
 31
0.0
  0
LINE
  5
24C
330
1F
100
AcDbEntity
  8
F-1
  6
Continuous
 62
   200
370
    20
100
AcDbLine
 10
-5835.081309208291
 20
4174.999769056166
 30
0.0
 11
-5835.081309208291
 21
-4205.000164959882
 31
0.0
  0
LINE
  5
24D
330
1F
100
AcDbEntity
  8
F-1
  6
Continuous
 62
   200
370
    20
100
AcDbLine
 10
5854.917165428304
 20
4174.999769056166
 30
0.0
 11
5854.917165428304
 21
-4205.000164959882
 31
0.0
  0
LINE
  5
24E
330
1F
100
AcDbEntity
  8
F-1
  6
Continuous
 62
   200
370
    20
100
AcDbLine
 10
5849.917643811961
 20
4174.999769056166
 30
0.0
 11
5849.917643811961
 21
-4205.000164959882
 31
0.0
  0
LINE
  5
24F
330
1F
100
AcDbEntity
  8
F-1
  6
Continuous
 62
   200
370
    20
100
AcDbLine
 10
5859.917429364114
 20
-4199.999993814004
 30
0.0
 11
-5840.081085996952
 21
-4199.999993814004
 31
0.0
  0
LINE
  5
250
330
1F
100
AcDbEntity
  8
F-1
  6
Continuous
 62
   200
370
    20
100
AcDbLine
 10
5859.917429364114
 20
-4195.000008247994
 30
0.0
 11
-5840.081085996952
 21
-4195.000008247994
 31
0.0
  0
LINE
  5
251
330
1F
100
AcDbEntity
  8
F-1
  6
Continuous
 62
   200
370
    20
100
AcDbLine
 10
4349.917891251784
 20
-3795.000003092998
 30
0.0
 11
4349.917891251784
 21
-4195.000008247994
 31
0.0
  0
LINE
  5
252
330
1F
100
AcDbEntity
  8
F-1
  6
Continuous
 62
   200
370
    20
100
AcDbLine
 10
2849.917396372139
 20
-3795.000003092998
 30
0.0
 11
2849.917396372139
 21
-4195.000008247994
 31
0.0
  0
LINE
  5
253
330
1F
100
AcDbEntity
  8
F-1
  6
Continuous
 62
   200
370
    20
100
AcDbLine
 10
9.918542843316231
 20
-3795.000003092998
 30
0.0
 11
9.918542843316231
 21
-4195.000008247994
 31
0.0
  0
LINE
  5
254
330
1F
100
AcDbEntity
  8
F-1
  6
Continuous
 62
   200
370
    20
100
AcDbLine
 10
9.918542843316231
 20
-3994.999936078046
 30
0.0
 11
5849.917643811961
 21
-3995.005364289155
 31
0.0
  0
LINE
  5
255
330
1F
100
AcDbEntity
  8
F-1
  6
Continuous
 62
   200
370
    20
100
AcDbLine
 10
-5840.081085996952
 20
4174.999769056166
 30
0.0
 11
5859.917429364114
 21
4174.999769056166
 31
0.0
  0
LINE
  5
256
330
1F
100
AcDbEntity
  8
F-1
  6
Continuous
 62
   200
370
    20
100
AcDbLine
 10
-5840.081085996952
 20
4164.999983504013
 30
0.0
 11
5859.917429364114
 21
4164.999983504013
 31
0.0
  0
LINE
  5
257
330
1F
100
AcDbEntity
  8
F-1
  6
Continuous
 62
   200
370
    20
100
AcDbLine
 10
-5840.081085996952
 20
4169.999505120355
 30
0.0
 11
5859.917429364114
 21
4169.999505120355
 31
0.0
  0
LINE
  5
258
330
1F
100
AcDbEntity
  8
F-0
  6
JWW_HOJO
 62
     7
370
     9
100
AcDbLine
 10
-5830.081323642279
 20
-3994.99993607839
 30
0.0
 11
9.918542843316231
 21
-3994.99993607839
 31
0.0
  0
LINE
  5
259
330
1F
100
AcDbEntity
  8
F-0
  6
JWW_HOJO
 62
     7
370
     9
100
AcDbLine
 10
-5830.081323642279
 20
-3904.99993607839
 30
0.0
 11
9.918542843316231
 21
-3904.99993607839
 31
0.0
  0
LINE
  5
25A
330
1F
100
AcDbEntity
  8
F-0
  6
JWW_HOJO
 62
     7
370
     9
100
AcDbLine
 10
-5830.081323642279
 20
-4084.99993607839
 30
0.0
 11
9.918542843316231
 21
-4084.99993607839
 31
0.0
  0
LINE
  5
25B
330
1F
100
AcDbEntity
  8
F-0
  6
JWW_HOJO
 62
     7
370
     9
100
AcDbLine
 10
9.918408067688347
 20
-4139.999739777983
 30
0.0
 11
5849.917509036332
 21
-4140.005167989091
 31
0.0
  0
LINE
  5
25C
330
1F
100
AcDbEntity
  8
F-0
  6
JWW_HOJO
 62
     7
370
     9
100
AcDbLine
 10
9.918491721639953
 20
-4049.999739778022
 30
0.0
 11
5849.917592690284
 21
-4050.005167989131
 31
0.0
  0
LINE
  5
25D
330
1F
100
AcDbEntity
  8
F-0
  6
JWW_HOJO
 62
     7
370
     9
100
AcDbLine
 10
9.918593965360003
 20
-3939.99973721807
 30
0.0
 11
5849.917694934004
 21
-3940.005165429179
 31
0.0
  0
LINE
  5
25E
330
1F
100
AcDbEntity
  8
F-0
  6
JWW_HOJO
 62
     7
370
     9
100
AcDbLine
 10
9.918677619311609
 20
-3849.999737218109
 30
0.0
 11
5849.917778587956
 21
-3850.005165429218
 31
0.0
  0
LINE
  5
25F
330
1F
100
AcDbEntity
  8
F-0
  6
JWW_HOJO
 62
     7
370
     9
100
AcDbLine
 10
2939.917396372139
 20
-3795.000003092998
 30
0.0
 11
2939.917396372139
 21
-4195.000008247994
 31
0.0
  0
LINE
  5
260
330
1F
100
AcDbEntity
  8
F-0
  6
JWW_HOJO
 62
     7
370
     9
100
AcDbLine
 10
99.91854284331623
 20
-3795.000003092998
 30
0.0
 11
99.91854284331623
 21
-4195.000008247994
 31
0.0
  0
LINE
  5
261
330
1F
100
AcDbEntity
  8
F-0
  6
JWW_HOJO
 62
     7
370
     9
100
AcDbLine
 10
4439.917891251784
 20
-3795.000003092998
 30
0.0
 11
4439.917891251784
 21
-4195.000008247994
 31
0.0
  0
MTEXT
  5
262
330
1F
100
AcDbEntity
  8
F-A
  6
Continuous
 62
     7
370
     0
100
AcDbMText
 10
2939.917396372139
 20
-3887.142460617774
 30
0.0
 40
45.72
 41
300.0
 46
0.0
 71
     7
 72
     1
  1
{\fＭＳ ゴシック|b0|i0|c128|p49;ＳＣＡＬＥ}
 73
     1
 44
1.0
  0
MTEXT
  5
263
330
1F
100
AcDbEntity
  8
F-A
  6
Continuous
 62
     7
370
     0
100
AcDbMText
 10
4439.917891251784
 20
-3887.143854850754
 30
0.0
 40
45.72
 41
240.0
 46
0.0
 71
     7
 72
     1
  1
{\fＭＳ ゴシック|b0|i0|c128|p49;ＤＡＴＥ}
 73
     1
 44
1.0
  0
LINE
  5
264
330
1F
100
AcDbEntity
  8
F-1
  6
Continuous
 62
   200
370
    20
100
AcDbLine
 10
5859.917429364114
 20
-3795.000003092998
 30
0.0
 11
-5840.081085996952
 21
-3795.000003092998
 31
0.0
  0
LINE
  5
265
330
1F
100
AcDbEntity
  8
F-1
  6
Continuous
 62
   200
370
    20
100
AcDbLine
 10
5859.917429364114
 20
-3790.000017526987
 30
0.0
 11
-5840.081085996952
 21
-3790.000017526987
 31
0.0
  0
LINE
  5
266
330
1F
100
AcDbEntity
  8
F-0
  6
JWW_HOJO
 62
     7
370
     9
100
AcDbLine
 10
-5087.628710189611
 20
-3795.000003092999
 30
0.0
 11
-5087.628710189611
 21
-4205.000164959882
 31
0.0
  0
LINE
  5
267
330
1F
100
AcDbEntity
  8
F-0
  6
JWW_HOJO
 62
     7
370
     9
100
AcDbLine
 10
-50.08145715668377
 20
-3795.000003092998
 30
0.0
 11
-50.08145715668377
 21
-4195.000008247994
 31
0.0
  0
MTEXT
  5
268
330
1F
100
AcDbEntity
  8
F-A
  6
Continuous
 62
     7
370
     0
100
AcDbMText
 10
3412.41764381196
 20
-3945.633115907308
 30
0.0
 40
78.74000000000008
 41
465.0000000000005
 46
0.0
 71
     7
 72
     1
  1
{\fＭＳ ゴシック|b0|i0|c128|p49;1/10・1/2}
 73
     1
 44
1.0
  0
MTEXT
  5
269
330
1F
100
AcDbEntity
  8
F-A
  6
Continuous
 62
     7
370
     0
100
AcDbMText
 10
2939.917396372139
 20
-4087.14246317786
 30
0.0
 40
45.72
 41
240.0
 46
0.0
 71
     7
 72
     1
  1
{\fＭＳ ゴシック|b0|i0|c128|p49;ＦＩＬＥ}
 73
     1
 44
1.0
  0
MTEXT
  5
26A
330
1F
100
AcDbEntity
  8
F-A
  6
Continuous
 62
     7
370
     0
100
AcDbMText
 10
4439.917891251784
 20
-4087.143857410839
 30
0.0
 40
45.72
 41
180.0
 46
0.0
 71
     7
 72
     1
  1
{\fＭＳ ゴシック|b0|i0|c128|p49;ＮＯ．}
 73
     1
 44
1.0
  0
MTEXT
  5
26B
330
1F
100
AcDbEntity
  8
F-A
  6
Continuous
 62
     7
370
     0
100
AcDbMText
 10
1394.917396372138
 20
-4096.140669266149
 30
0.0
 40
45.72
 41
120.0
 46
0.0
 71
     7
 72
     1
  1
{\fＭＳ ゴシック|b0|i0|c128|p49;株式}
 73
     1
 44
1.0
  0
MTEXT
  5
26C
330
1F
100
AcDbEntity
  8
F-A
  6
Continuous
 62
     7
370
     9
100
AcDbMText
 10
5096.167700144058
 20
-4147.857012699985
 30
0.0
 40
74.295
 41
97.5
 46
0.0
 71
     7
 72
     1
  1
{\fＭＳ ゴシック|b0|i0|c128|p49;01}
 73
     1
 44
1.0
  0
MTEXT
  5
26D
330
1F
100
AcDbEntity
  8
F-A
  6
Continuous
 62
     7
370
     0
100
AcDbMText
 10
1604.917396372138
 20
-4164.281754523929
 30
0.0
 40
101.44125
 41
1065.0
 46
0.0
 71
     7
 72
     1
  1
{\fＭＳ ゴシック|b0|i0|c128|p49;ウッドワン・・・}
 73
     1
 44
1.0
  0
MTEXT
  5
26E
330
1F
100
AcDbEntity
  8
F-A
  6
Continuous
 62
     7
370
     0
100
AcDbMText
 10
1394.917396372138
 20
-4168.140669266187
 30
0.0
 40
45.72
 41
120.0
 46
0.0
 71
     7
 72
     1
  1
{\fＭＳ ゴシック|b0|i0|c128|p49;会社}
 73
     1
 44
1.0
  0
MTEXT
  5
26F
330
1F
100
AcDbEntity
  8
F-A
  6
Continuous
 62
     7
370
     0
100
AcDbMText
 10
5768.321977672939
 20
-4314.841419020919
 30
0.0
 40
68.58
 41
90.0
 46
0.0
 71
     7
 72
     1
  1
{\fＭＳ ゴシック|b0|i0|c128|p49;）}
 73
     1
 44
1.0
  0
MTEXT
  5
270
330
1F
100
AcDbEntity
  8
F-A
  6
Continuous
 62
     7
370
     0
100
AcDbMText
 10
5350.114617405298
 20
-4316.235443869856
 30
0.0
 40
68.58
 41
45.0
 46
0.0
 71
     7
 72
     1
  1
{\fＭＳ ゴシック|b0|i0|c128|p49;,}
 73
     1
 44
1.0
  0
MTEXT
  5
271
330
1F
100
AcDbEntity
  8
F-A
  6
Continuous
 62
     7
370
     0
100
AcDbMText
 10
5083.855928478601
 20
-4314.771967288282
 30
0.0
 40
74.295
 41
97.5
 46
0.0
 71
     7
 72
     1
  1
{\fＭＳ ゴシック|b0|i0|c128|p49;$y}
 73
     1
 44
1.0
  0
MTEXT
  5
272
330
1F
100
AcDbEntity
  8
F-A
  6
Continuous
 62
     7
370
     0
100
AcDbMText
 10
5238.592649517422
 20
-4314.771967288282
 30
0.0
 40
74.295
 41
97.5
 46
0.0
 71
     7
 72
     1
  1
{\fＭＳ ゴシック|b0|i0|c128|p49;$m}
 73
     1
 44
1.0
  0
MTEXT
  5
273
330
1F
100
AcDbEntity
  8
F-A
  6
Continuous
 62
     7
370
     0
100
AcDbMText
 10
5393.32938200033
 20
-4314.771967288282
 30
0.0
 40
74.295
 41
97.5
 46
0.0
 71
     7
 72
     1
  1
{\fＭＳ ゴシック|b0|i0|c128|p49;$d}
 73
     1
 44
1.0
  0
MTEXT
  5
274
330
1F
100
AcDbEntity
  8
F-A
  6
Continuous
 62
     7
370
     0
100
AcDbMText
 10
5548.066114483239
 20
-4314.771967288282
 30
0.0
 40
74.295
 41
195.0
 46
0.0
 71
     7
 72
     1
  1
{\fＭＳ ゴシック|b0|i0|c128|p49;印刷}
 73
     1
 44
1.0
  0
MTEXT
  5
275
330
1F
100
AcDbEntity
  8
F-A
  6
Continuous
 62
     7
370
     0
100
AcDbMText
 10
4943.952040816226
 20
-4319.023493567732
 30
0.0
 40
68.58
 41
90.0
 46
0.0
 71
     7
 72
     1
  1
{\fＭＳ ゴシック|b0|i0|c128|p49;（}
 73
     1
 44
1.0
  0
MTEXT
  5
276
330
1F
100
AcDbEntity
  8
F-A
  6
Continuous
 62
     7
370
     0
100
AcDbMText
 10
5191.195810375571
 20
-4319.023493567732
 30
0.0
 40
68.58
 41
45.0
 46
0.0
 71
     7
 72
     1
  1
{\fＭＳ ゴシック|b0|i0|c128|p49;,}
 73
     1
 44
1.0
  0
LINE
  5
277
330
1F
100
AcDbEntity
  8
4-4
  6
Continuous
 62
     7
370
     9
100
AcDbLine
 10
701.0189227926667
 20
264.0314029384422
 30
0.0
 11
701.0189227926667
 21
-1910.968597061558
 31
0.0
  0
LINE
  5
278
330
1F
100
AcDbEntity
  8
4-4
  6
Continuous
 62
     7
370
     9
100
AcDbLine
 10
-1521.981077207334
 20
264.0314029384422
 30
0.0
 11
-1521.981077207334
 21
-1910.968597061558
 31
0.0
  0
LINE
  5
279
330
1F
100
AcDbEntity
  8
4-4
  6
Continuous
 62
     7
370
     9
100
AcDbLine
 10
-1581.981077207334
 20
264.0314029384422
 30
0.0
 11
-1581.981077207334
 21
-1910.968597061558
 31
0.0
  0
LINE
  5
27A
330
1F
100
AcDbEntity
  8
4-4
  6
Continuous
 62
     7
370
     9
100
AcDbLine
 10
-3804.981077207333
 20
264.0314029384422
 30
0.0
 11
-3804.981077207333
 21
-1910.968597061558
 31
0.0
  0
LINE
  5
27B
330
1F
100
AcDbEntity
  8
4-4
  6
Continuous
 62
     7
370
     9
100
AcDbLine
 10
-3744.981077207334
 20
264.0314029384422
 30
0.0
 11
-3744.981077207334
 21
-1910.968597061558
 31
0.0
  0
LINE
  5
27C
330
1F
100
AcDbEntity
  8
4-4
  6
Continuous
 62
     7
370
     9
100
AcDbLine
 10
641.0189227926674
 20
264.0314029384422
 30
0.0
 11
641.0189227926674
 21
-1910.968597061558
 31
0.0
  0
LINE
  5
27D
330
1F
100
AcDbEntity
  8
4-4
  6
Continuous
 62
     7
370
     9
100
AcDbLine
 10
641.0189227926674
 20
-186.6652962026574
 30
0.0
 11
-1521.981077207334
 21
-186.6652962026574
 31
0.0
  0
LINE
  5
27E
330
1F
100
AcDbEntity
  8
4-4
  6
Continuous
 62
     7
370
     9
100
AcDbLine
 10
-1521.981077207334
 20
-231.6652962026574
 30
0.0
 11
641.0189227926674
 21
-231.6652962026574
 31
0.0
  0
LINE
  5
27F
330
1F
100
AcDbEntity
  8
4-4
  6
Continuous
 62
     7
370
     9
100
AcDbLine
 10
-1521.981077207334
 20
-731.9685970615565
 30
0.0
 11
641.0189227926674
 21
-731.9685970615565
 31
0.0
  0
LINE
  5
280
330
1F
100
AcDbEntity
  8
4-4
  6
Continuous
 62
     7
370
     9
100
AcDbLine
 10
641.0189227926674
 20
-776.9685970615565
 30
0.0
 11
-1521.981077207334
 21
-776.9685970615565
 31
0.0
  0
LINE
  5
281
330
1F
100
AcDbEntity
  8
4-4
  6
Continuous
 62
     7
370
     9
100
AcDbLine
 10
-1521.981077207334
 20
-1271.968597061557
 30
0.0
 11
641.0189227926674
 21
-1271.968597061557
 31
0.0
  0
LINE
  5
282
330
1F
100
AcDbEntity
  8
4-4
  6
Continuous
 62
     7
370
     9
100
AcDbLine
 10
641.0189227926674
 20
-1316.968597061557
 30
0.0
 11
-1521.981077207334
 21
-1316.968597061557
 31
0.0
  0
LINE
  5
283
330
1F
100
AcDbEntity
  8
4-4
  6
Continuous
 62
     7
370
     9
100
AcDbLine
 10
-1581.981077207334
 20
-1316.968597061557
 30
0.0
 11
-3744.981077207334
 21
-1316.968597061557
 31
0.0
  0
LINE
  5
284
330
1F
100
AcDbEntity
  8
4-4
  6
Continuous
 62
     7
370
     9
100
AcDbLine
 10
-3744.981077207334
 20
-1271.968597061557
 30
0.0
 11
-1581.981077207334
 21
-1271.968597061557
 31
0.0
  0
LINE
  5
285
330
1F
100
AcDbEntity
  8
4-4
  6
Continuous
 62
     7
370
     9
100
AcDbLine
 10
-1581.981077207334
 20
-776.9685970615565
 30
0.0
 11
-3744.981077207334
 21
-776.9685970615565
 31
0.0
  0
LINE
  5
286
330
1F
100
AcDbEntity
  8
4-4
  6
Continuous
 62
     7
370
     9
100
AcDbLine
 10
-3744.981077207334
 20
-731.9685970615565
 30
0.0
 11
-1581.981077207334
 21
-731.9685970615565
 31
0.0
  0
LINE
  5
287
330
1F
100
AcDbEntity
  8
4-4
  6
Continuous
 62
     7
370
     9
100
AcDbLine
 10
-3744.981077207334
 20
-231.6652962026574
 30
0.0
 11
-1581.981077207334
 21
-231.6652962026574
 31
0.0
  0
LINE
  5
288
330
1F
100
AcDbEntity
  8
4-4
  6
Continuous
 62
     7
370
     9
100
AcDbLine
 10
-1581.981077207334
 20
-186.6652962026574
 30
0.0
 11
-3744.981077207334
 21
-186.6652962026574
 31
0.0
  0
LINE
  5
289
330
1F
100
AcDbEntity
  8
4-4
  6
Continuous
 62
     4
370
     5
100
AcDbLine
 10
-1626.981077207334
 20
754.4318217284103
 30
0.0
 11
701.0189227926668
 21
754.4318217284103
 31
0.0
  0
LWPOLYLINE
  5
28A
330
1F
100
AcDbEntity
  8
4-4
  6
Continuous
 62
     4
370
     5
100
AcDbPolyline
 90
        4
 70
     1
 43
3.0
 10
-1625.481077207334
 20
754.4318217284103
 42
0.4142135623731
 10
-1626.981077207334
 20
755.9318217284103
 42
0.4142135623731
 10
-1628.481077207333
 20
754.4318217284103
 42
0.4142135623731
 10
-1626.981077207334
 20
752.9318217284103
 42
0.4142135623731
  0
LWPOLYLINE
  5
28B
330
1F
100
AcDbEntity
  8
4-4
  6
Continuous
 62
     4
370
     5
100
AcDbPolyline
 90
        4
 70
     1
 43
3.0
 10
702.5189227926668
 20
754.4318217284103
 42
0.4142135623731
 10
701.0189227926668
 20
755.9318217284103
 42
0.4142135623731
 10
699.5189227926668
 20
754.4318217284103
 42
0.4142135623731
 10
701.0189227926668
 20
752.9318217284103
 42
0.4142135623731
  0
LINE
  5
28C
330
1F
100
AcDbEntity
  8
4-4
  6
Continuous
 62
     7
370
     9
100
AcDbLine
 10
-1626.981077207334
 20
754.4318217284103
 30
0.0
 11
-1626.981077207334
 21
979.2603772051978
 31
0.0
  0
LINE
  5
28D
330
1F
100
AcDbEntity
  8
4-4
  6
Continuous
 62
     7
370
     9
100
AcDbLine
 10
701.0189227926668
 20
754.4318217284103
 30
0.0
 11
701.0189227926668
 21
979.2603772051978
 31
0.0
  0
MTEXT
  5
28E
330
1F
100
AcDbEntity
  8
4-4
  6
Continuous
 62
     7
370
   211
100
AcDbMText
 10
-763.218817223651
 20
760.416414911642
 30
0.0
 40
100.965
 41
795.0
 46
0.0
 71
     7
 72
     1
  1
{\fＭＳ ゴシック|b0|i0|c128|p49;776（引戸W）}
 73
     1
 44
1.0
  0
LINE
  5
28F
330
1F
100
AcDbEntity
  8
4-4
  6
Continuous
 62
     4
370
     5
100
AcDbLine
 10
-3804.981077207333
 20
-2682.569832402235
 30
0.0
 11
-3744.981077207334
 21
-2682.569832402235
 31
0.0
  0
LWPOLYLINE
  5
290
330
1F
100
AcDbEntity
  8
4-4
  6
Continuous
 62
     4
370
     5
100
AcDbPolyline
 90
        4
 70
     1
 43
3.0
 10
-3803.481077207333
 20
-2682.569832402235
 42
0.4142135623731
 10
-3804.981077207333
 20
-2681.069832402235
 42
0.4142135623731
 10
-3806.481077207333
 20
-2682.569832402235
 42
0.4142135623731
 10
-3804.981077207333
 20
-2684.069832402235
 42
0.4142135623731
  0
LWPOLYLINE
  5
291
330
1F
100
AcDbEntity
  8
4-4
  6
Continuous
 62
     4
370
     5
100
AcDbPolyline
 90
        4
 70
     1
 43
3.0
 10
-3743.481077207334
 20
-2682.569832402235
 42
0.4142135623731
 10
-3744.981077207334
 20
-2681.069832402235
 42
0.4142135623731
 10
-3746.481077207334
 20
-2682.569832402235
 42
0.4142135623731
 10
-3744.981077207334
 20
-2684.069832402235
 42
0.4142135623731
  0
LINE
  5
292
330
1F
100
AcDbEntity
  8
4-4
  6
Continuous
 62
     7
370
     9
100
AcDbLine
 10
-3804.981077207333
 20
-2682.569832402235
 30
0.0
 11
-3804.981077207333
 21
-2530.055865921789
 31
0.0
  0
LINE
  5
293
330
1F
100
AcDbEntity
  8
4-4
  6
Continuous
 62
     7
370
     9
100
AcDbLine
 10
-3744.981077207334
 20
-2682.569832402235
 30
0.0
 11
-3744.981077207334
 21
-2530.055865921789
 31
0.0
  0
LINE
  5
294
330
1F
100
AcDbEntity
  8
4-4
  6
Continuous
 62
     4
370
     5
100
AcDbLine
 10
-3744.981077207334
 20
-2682.569832402235
 30
0.0
 11
-1581.981077207334
 21
-2682.569832402235
 31
0.0
  0
LWPOLYLINE
  5
295
330
1F
100
AcDbEntity
  8
4-4
  6
Continuous
 62
     4
370
     5
100
AcDbPolyline
 90
        4
 70
     1
 43
3.0
 10
-1580.481077207334
 20
-2682.569832402235
 42
0.4142135623731
 10
-1581.981077207334
 20
-2681.069832402235
 42
0.4142135623731
 10
-1583.481077207333
 20
-2682.569832402235
 42
0.4142135623731
 10
-1581.981077207334
 20
-2684.069832402235
 42
0.4142135623731
  0
LINE
  5
296
330
1F
100
AcDbEntity
  8
4-4
  6
Continuous
 62
     7
370
     9
100
AcDbLine
 10
-1581.981077207334
 20
-2682.569832402235
 30
0.0
 11
-1581.981077207334
 21
-2530.055865921789
 31
0.0
  0
MTEXT
  5
297
330
1F
100
AcDbEntity
  8
4-4
  6
Continuous
 62
     7
370
   211
100
AcDbMText
 10
-2760.981077207333
 20
-2678.039832402235
 30
0.0
 40
99.06
 41
195.0
 46
0.0
 71
     7
 72
     1
  1
{\fＭＳ ゴシック|b0|i0|c128|p49;721}
 73
     1
 44
1.0
  0
LINE
  5
298
330
1F
100
AcDbEntity
  8
4-4
  6
Continuous
 62
     4
370
     5
100
AcDbLine
 10
-1581.981077207334
 20
-2682.569832402235
 30
0.0
 11
-1521.981077207334
 21
-2682.569832402235
 31
0.0
  0
LWPOLYLINE
  5
299
330
1F
100
AcDbEntity
  8
4-4
  6
Continuous
 62
     4
370
     5
100
AcDbPolyline
 90
        4
 70
     1
 43
3.0
 10
-1520.481077207334
 20
-2682.569832402235
 42
0.4142135623731
 10
-1521.981077207334
 20
-2681.069832402235
 42
0.4142135623731
 10
-1523.481077207333
 20
-2682.569832402235
 42
0.4142135623731
 10
-1521.981077207334
 20
-2684.069832402235
 42
0.4142135623731
  0
LINE
  5
29A
330
1F
100
AcDbEntity
  8
4-4
  6
Continuous
 62
     7
370
     9
100
AcDbLine
 10
-1521.981077207334
 20
-2682.569832402235
 30
0.0
 11
-1521.981077207334
 21
-2530.055865921789
 31
0.0
  0
LINE
  5
29B
330
1F
100
AcDbEntity
  8
4-4
  6
Continuous
 62
     4
370
     5
100
AcDbLine
 10
-1521.981077207334
 20
-2682.569832402235
 30
0.0
 11
641.0189227926672
 21
-2682.569832402235
 31
0.0
  0
LWPOLYLINE
  5
29C
330
1F
100
AcDbEntity
  8
4-4
  6
Continuous
 62
     4
370
     5
100
AcDbPolyline
 90
        4
 70
     1
 43
3.0
 10
642.5189227926672
 20
-2682.569832402235
 42
0.4142135623731
 10
641.0189227926672
 20
-2681.069832402235
 42
0.4142135623731
 10
639.5189227926672
 20
-2682.569832402235
 42
0.4142135623731
 10
641.0189227926672
 20
-2684.069832402235
 42
0.4142135623731
  0
LINE
  5
29D
330
1F
100
AcDbEntity
  8
4-4
  6
Continuous
 62
     7
370
     9
100
AcDbLine
 10
641.0189227926672
 20
-2682.569832402235
 30
0.0
 11
641.0189227926672
 21
-2530.055865921789
 31
0.0
  0
MTEXT
  5
29E
330
1F
100
AcDbEntity
  8
4-4
  6
Continuous
 62
     7
370
   211
100
AcDbMText
 10
-537.9810772073331
 20
-2678.039832402235
 30
0.0
 40
99.06
 41
195.0
 46
0.0
 71
     7
 72
     1
  1
{\fＭＳ ゴシック|b0|i0|c128|p49;721}
 73
     1
 44
1.0
  0
LINE
  5
29F
330
1F
100
AcDbEntity
  8
4-4
  6
Continuous
 62
     4
370
     5
100
AcDbLine
 10
641.0189227926674
 20
-2682.569832402235
 30
0.0
 11
701.0189227926667
 21
-2682.569832402235
 31
0.0
  0
LWPOLYLINE
  5
2A0
330
1F
100
AcDbEntity
  8
4-4
  6
Continuous
 62
     4
370
     5
100
AcDbPolyline
 90
        4
 70
     1
 43
3.0
 10
642.5189227926674
 20
-2682.569832402235
 42
0.4142135623731
 10
641.0189227926674
 20
-2681.069832402235
 42
0.4142135623731
 10
639.5189227926674
 20
-2682.569832402235
 42
0.4142135623731
 10
641.0189227926674
 20
-2684.069832402235
 42
0.4142135623731
  0
LWPOLYLINE
  5
2A1
330
1F
100
AcDbEntity
  8
4-4
  6
Continuous
 62
     4
370
     5
100
AcDbPolyline
 90
        4
 70
     1
 43
3.0
 10
702.5189227926667
 20
-2682.569832402235
 42
0.4142135623731
 10
701.0189227926667
 20
-2681.069832402235
 42
0.4142135623731
 10
699.5189227926667
 20
-2682.569832402235
 42
0.4142135623731
 10
701.0189227926667
 20
-2684.069832402235
 42
0.4142135623731
  0
LINE
  5
2A2
330
1F
100
AcDbEntity
  8
4-4
  6
Continuous
 62
     7
370
     9
100
AcDbLine
 10
641.0189227926674
 20
-2682.569832402235
 30
0.0
 11
641.0189227926674
 21
-2530.055865921789
 31
0.0
  0
LINE
  5
2A3
330
1F
100
AcDbEntity
  8
4-4
  6
Continuous
 62
     7
370
     9
100
AcDbLine
 10
701.0189227926667
 20
-2682.569832402235
 30
0.0
 11
701.0189227926667
 21
-2530.055865921789
 31
0.0
  0
MTEXT
  5
2A4
330
1F
100
AcDbEntity
  8
4-4
  6
Continuous
 62
     7
370
   211
100
AcDbMText
 10
-3838.731077207334
 20
-2837.083875661376
 30
0.0
 40
97.15499999999999
 41
127.5
 46
0.0
 71
     7
 72
     1
  1
{\fＭＳ ゴシック|b0|i0|c128|p49;20}
 73
     1
 44
1.0
  0
MTEXT
  5
2A5
330
1F
100
AcDbEntity
  8
4-4
  6
Continuous
 62
     7
370
   211
100
AcDbMText
 10
-1615.731077207334
 20
-2837.083875661376
 30
0.0
 40
97.15499999999999
 41
127.5
 46
0.0
 71
     7
 72
     1
  1
{\fＭＳ ゴシック|b0|i0|c128|p49;20}
 73
     1
 44
1.0
  0
MTEXT
  5
2A6
330
1F
100
AcDbEntity
  8
4-4
  6
Continuous
 62
     7
370
   211
100
AcDbMText
 10
607.268922792667
 20
-2837.083875661376
 30
0.0
 40
97.15499999999999
 41
127.5
 46
0.0
 71
     7
 72
     1
  1
{\fＭＳ ゴシック|b0|i0|c128|p49;20}
 73
     1
 44
1.0
  0
MTEXT
  5
2A7
330
1F
100
AcDbEntity
  8
4-4
  6
Continuous
 62
     7
370
   211
100
AcDbMText
 10
-2084.481077207333
 20
-2996.800173668885
 30
0.0
 40
101.44125
 41
1065.0
 46
0.0
 71
     7
 72
     1
  1
{\fＭＳ ゴシック|b0|i0|c128|p49;1,602（ﾎﾞｯｸｽＷ）}
 73
     1
 44
1.0
  0
MTEXT
  5
2A8
330
1F
100
AcDbEntity
  8
4-4
  6
Continuous
 62
     7
370
   211
100
AcDbMText
 10
-4755.707058719162
 20
-929.0726879706484
 30
0.0
 40
100.7918181818182
 41
727.5
 46
0.0
 71
     7
 72
     1
  1
{\fＭＳ ゴシック|b0|i0|c128|p49;720(引戸H）}
 11
6.123031769111886E-17
 21
1.0
 31
0.0
 73
     1
 44
1.0
  0
MTEXT
  5
2A9
330
1F
100
AcDbEntity
  8
F-A
  6
Continuous
 62
     7
370
     0
100
AcDbMText
 10
-5080.081323642279
 20
-4045.28068607839
 30
0.0
 40
79.4385
 41
2085.0
 46
0.0
 71
     7
 72
     1
  1
{\fＭＳ ゴシック|b0|i0|c128|p49;和風下駄箱　舞良戸／格子戸　Ｗ５尺タイプ}
 73
     1
 44
1.0
  0
MTEXT
  5
2AA
330
1F
100
AcDbEntity
  8
F-A
  6
Continuous
 62
     7
370
     0
100
AcDbMText
 10
1130.336368466946
 20
-3945.630161599839
 30
0.0
 40
78.74000000000001
 41
930.0
 46
0.0
 71
     7
 72
     1
  1
{\fＭＳ ゴシック|b0|i0|c128|p49;和風下駄箱　寸法図}
 73
     1
 44
1.0
  0
MTEXT
  5
2AB
330
1F
100
AcDbEntity
  8
F-A
  6
Continuous
 62
     7
370
     0
100
AcDbMText
 10
4886.167793092893
 20
-3938.071010139966
 30
0.0
 40
78.86699999999999
 41
517.5
 46
0.0
 71
     7
 72
     1
  1
{\fＭＳ ゴシック|b0|i0|c128|p49;2021.04.01}
 73
     1
 44
1.0
  0
ENDSEC
  0
SECTION
  2
OBJECTS
  0
DICTIONARY
  5
C
330
0
100
AcDbDictionary
281
     1
  3
ACAD_GROUP
350
D
  3
ACAD_LAYOUT
350
1A
  3
ACAD_MATERIAL
350
3B
  3
ACAD_MLEADERSTYLE
350
2AD
  3
ACAD_MLINESTYLE
350
17
  3
ACAD_PLOTSETTINGS
350
19
  3
ACAD_PLOTSTYLENAME
350
E
  3
ACAD_TABLESTYLE
350
2AC
  3
ACAD_VISUALSTYLE
350
2A
  0
DICTIONARY
  5
D
102
{ACAD_REACTORS
330
C
102
}
330
C
100
AcDbDictionary
281
     1
  0
DICTIONARY
  5
1A
102
{ACAD_REACTORS
330
C
102
}
330
C
100
AcDbDictionary
281
     1
  3
Layout1
350
1E
  3
Layout2
350
26
  3
Model
350
22
  0
DICTIONARY
  5
3B
102
{ACAD_REACTORS
330
C
102
}
330
C
100
AcDbDictionary
281
     1
  3
ByBlock
350
3D
  3
ByLayer
350
3C
  3
Global
350
3E
  0
DICTIONARY
  5
2AD
102
{ACAD_REACTORS
330
C
102
}
330
C
100
AcDbDictionary
281
     1
  0
DICTIONARY
  5
17
102
{ACAD_REACTORS
330
C
102
}
330
C
100
AcDbDictionary
281
     1
  3
Standard
350
18
  0
DICTIONARY
  5
19
102
{ACAD_REACTORS
330
C
102
}
330
C
100
AcDbDictionary
281
     1
  0
ACDBDICTIONARYWDFLT
  5
E
102
{ACAD_REACTORS
330
C
102
}
330
C
100
AcDbDictionary
281
     1
  3
Normal
350
F
100
AcDbDictionaryWithDefault
340
F
  0
DICTIONARY
  5
2AC
102
{ACAD_REACTORS
330
C
102
}
330
C
100
AcDbDictionary
281
     1
  0
DICTIONARY
  5
2A
102
{ACAD_REACTORS
330
C
102
}
330
C
100
AcDbDictionary
281
     1
  3
2dWireframe
350
2F
  3
3D Hidden
350
31
  3
3dWireframe
350
30
  3
Basic
350
32
  3
Brighten
350
36
  3
ColorChange
350
3A
  3
Conceptual
350
34
  3
Dim
350
35
  3
Facepattern
350
39
  3
Flat
350
2B
  3
FlatWithEdges
350
2C
  3
Gouraud
350
2D
  3
GouraudWithEdges
350
2E
  3
Linepattern
350
38
  3
Realistic
350
33
  3
Thicken
350
37
  0
LAYOUT
  5
1E
102
{ACAD_REACTORS
330
1A
102
}
330
1A
100
AcDbPlotSettings
  1

  2
none_device
  4

  6

 40
0.0
 41
0.0
 42
0.0
 43
0.0
 44
0.0
 45
0.0
 46
0.0
 47
0.0
 48
0.0
 49
0.0
140
0.0
141
0.0
142
1.0
143
1.0
 70
   688
 72
     0
 73
     0
 74
     5
  7

 75
    16
 76
     0
 77
     5
 78
   300
147
1.0
148
0.0
149
0.0
100
AcDbLayout
  1
Layout1
 70
     1
 71
     1
 10
0.0
 20
0.0
 11
420.0
 21
297.0
 12
0.0
 22
0.0
 32
0.0
 14
1.000000000000000E+20
 24
1.000000000000000E+20
 34
1.000000000000000E+20
 15
-1.000000000000000E+20
 25
-1.000000000000000E+20
 35
-1.000000000000000E+20
146
0.0
 13
0.0
 23
0.0
 33
0.0
 16
1.0
 26
0.0
 36
0.0
 17
0.0
 27
1.0
 37
0.0
 76
     0
330
1B
  0
LAYOUT
  5
26
102
{ACAD_REACTORS
330
1A
102
}
330
1A
100
AcDbPlotSettings
  1

  2
none_device
  4

  6

 40
0.0
 41
0.0
 42
0.0
 43
0.0
 44
0.0
 45
0.0
 46
0.0
 47
0.0
 48
0.0
 49
0.0
140
0.0
141
0.0
142
1.0
143
1.0
 70
   688
 72
     0
 73
     0
 74
     5
  7

 75
    16
 76
     0
 77
     5
 78
   300
147
1.0
148
0.0
149
0.0
100
AcDbLayout
  1
Layout2
 70
     1
 71
     2
 10
0.0
 20
0.0
 11
0.0
 21
0.0
 12
0.0
 22
0.0
 32
0.0
 14
0.0
 24
0.0
 34
0.0
 15
0.0
 25
0.0
 35
0.0
146
0.0
 13
0.0
 23
0.0
 33
0.0
 16
1.0
 26
0.0
 36
0.0
 17
0.0
 27
1.0
 37
0.0
 76
     0
330
23
  0
LAYOUT
  5
22
102
{ACAD_REACTORS
330
1A
102
}
330
1A
100
AcDbPlotSettings
  1

  2
none_device
  4

  6

 40
0.0
 41
0.0
 42
0.0
 43
0.0
 44
0.0
 45
0.0
 46
0.0
 47
0.0
 48
0.0
 49
0.0
140
0.0
141
0.0
142
1.0
143
1.0
 70
  1712
 72
     0
 73
     0
 74
     0
  7

 75
     0
 76
     0
 77
     5
 78
   300
147
1.0
148
0.0
149
0.0
100
AcDbLayout
  1
Model
 70
     1
 71
     0
 10
-6300.0
 20
-4455.0
 11
6300.0
 21
4455.0
 12
0.0
 22
0.0
 32
0.0
 14
-6300.0
 24
-4455.0
 34
0.0
 15
6300.0
 25
4455.0
 35
0.0
146
0.0
 13
0.0
 23
0.0
 33
0.0
 16
1.0
 26
0.0
 36
0.0
 17
0.0
 27
1.0
 37
0.0
 76
     0
330
1F
331
29
  0
MATERIAL
  5
3D
102
{ACAD_REACTORS
330
3B
102
}
330
3B
100
AcDbMaterial
  1
ByBlock
 72
     1
 94
      127
  0
MATERIAL
  5
3C
102
{ACAD_REACTORS
330
3B
102
}
330
3B
100
AcDbMaterial
  1
ByLayer
 72
     1
 94
      127
  0
MATERIAL
  5
3E
102
{ACAD_REACTORS
330
3B
102
}
330
3B
100
AcDbMaterial
  1
Global
 72
     1
 94
      127
  0
MLINESTYLE
  5
18
102
{ACAD_REACTORS
330
17
102
}
330
17
100
AcDbMlineStyle
  2
Standard
 70
     0
  3

 62
   256
 51
90.0
 52
90.0
 71
     2
 49
0.5
 62
   256
  6
BYLAYER
 49
-0.5
 62
   256
  6
BYLAYER
  0
ACDBPLACEHOLDER
  5
F
102
{ACAD_REACTORS
330
E
102
}
330
E
  0
VISUALSTYLE
  5
2F
102
{ACAD_REACTORS
330
2A
102
}
330
2A
100
AcDbVisualStyle
  2
2dWireframe
 70
     4
177
     2
291
     0
 71
     0
176
     1
 72
     2
176
     1
 73
     0
176
     1
 90
        0
176
     1
 40
-0.6
176
     1
 41
-30.0
176
     1
 62
     5
 63
     7
421
 16777215
176
     1
 74
     1
176
     1
 91
        4
176
     1
 64
     7
176
     1
 65
   257
176
     1
 75
     1
176
     1
175
     1
176
     1
 42
1.0
176
     1
 92
        0
176
     1
 66
   257
176
     1
 43
1.0
176
     1
 76
     1
176
     1
 77
     6
176
     1
 78
     2
176
     1
 67
     7
176
     1
 79
     5
176
     1
170
     0
176
     1
171
     0
176
     1
290
     0
176
     1
 93
        1
176
     1
 44
0.0
176
     1
173
     0
176
     1
  0
VISUALSTYLE
  5
31
102
{ACAD_REACTORS
330
2A
102
}
330
2A
100
AcDbVisualStyle
  2
3D Hidden
 70
     6
177
     2
291
     0
 71
     1
176
     1
 72
     2
176
     1
 73
     2
176
     1
 90
        0
176
     1
 40
-0.6
176
     1
 41
-30.0
176
     1
 62
     5
 63
     7
421
 16777215
176
     1
 74
     2
176
     1
 91
        2
176
     1
 64
     7
176
     1
 65
   257
176
     1
 75
     2
176
     1
175
     1
176
     1
 42
40.0
176
     1
 92
        0
176
     1
 66
   257
176
     1
 43
1.0
176
     1
 76
     1
176
     1
 77
     6
176
     1
 78
     2
176
     1
 67
     7
176
     1
 79
     3
176
     1
170
     0
176
     1
171
     0
176
     1
290
     0
176
     1
 93
        1
176
     1
 44
0.0
176
     1
173
     0
176
     1
  0
VISUALSTYLE
  5
30
102
{ACAD_REACTORS
330
2A
102
}
330
2A
100
AcDbVisualStyle
  2
3dWireframe
 70
     5
177
     2
291
     0
 71
     0
176
     1
 72
     2
176
     1
 73
     0
176
     1
 90
        0
176
     1
 40
-0.6
176
     1
 41
-30.0
176
     1
 62
     5
 63
     7
421
 16777215
176
     1
 74
     1
176
     1
 91
        4
176
     1
 64
     7
176
     1
 65
   257
176
     1
 75
     1
176
     1
175
     1
176
     1
 42
1.0
176
     1
 92
        0
176
     1
 66
   257
176
     1
 43
1.0
176
     1
 76
     1
176
     1
 77
     6
176
     1
 78
     2
176
     1
 67
     7
176
     1
 79
     5
176
     1
170
     0
176
     1
171
     0
176
     1
290
     0
176
     1
 93
        1
176
     1
 44
0.0
176
     1
173
     0
176
     1
  0
VISUALSTYLE
  5
32
102
{ACAD_REACTORS
330
2A
102
}
330
2A
100
AcDbVisualStyle
  2
Basic
 70
     7
177
     2
291
     1
 71
     1
176
     1
 72
     0
176
     1
 73
     1
176
     1
 90
        0
176
     1
 40
-0.6
176
     1
 41
-30.0
176
     1
 62
     5
 63
     7
421
 16777215
176
     1
 74
     0
176
     1
 91
        4
176
     1
 64
     7
176
     1
 65
   257
176
     1
 75
     1
176
     1
175
     1
176
     1
 42
1.0
176
     1
 92
        8
176
     1
 66
     7
176
     1
 43
1.0
176
     1
 76
     1
176
     1
 77
     6
176
     1
 78
     2
176
     1
 67
     7
176
     1
 79
     5
176
     1
170
     0
176
     1
171
     0
176
     1
290
     0
176
     1
 93
        1
176
     1
 44
0.0
176
     1
173
     0
176
     1
  0
VISUALSTYLE
  5
36
102
{ACAD_REACTORS
330
2A
102
}
330
2A
100
AcDbVisualStyle
  2
Brighten
 70
    12
177
     2
291
     1
 71
     2
176
     1
 72
     2
176
     1
 73
     0
176
     1
 90
        0
176
     1
 40
-0.6
176
     1
 41
-30.0
176
     1
 62
     5
 63
     7
421
 16777215
176
     1
 74
     1
176
     1
 91
        4
176
     1
 64
     7
176
     1
 65
   257
176
     1
 75
     1
176
     1
175
     1
176
     1
 42
1.0
176
     1
 92
        8
176
     1
 66
     7
176
     1
 43
1.0
176
     1
 76
     1
176
     1
 77
     6
176
     1
 78
     2
176
     1
 67
     7
176
     1
 79
     5
176
     1
170
     0
176
     1
171
     0
176
     1
290
     0
176
     1
 93
        1
176
     1
 44
50.0
176
     1
173
     0
176
     1
  0
VISUALSTYLE
  5
3A
102
{ACAD_REACTORS
330
2A
102
}
330
2A
100
AcDbVisualStyle
  2
ColorChange
 70
    16
177
     2
291
     1
 71
     2
176
     1
 72
     2
176
     1
 73
     3
176
     1
 90
        0
176
     1
 40
-0.6
176
     1
 41
-30.0
176
     1
 62
     5
 63
     8
421
  8421504
176
     1
 74
     1
176
     1
 91
        4
176
     1
 64
     7
176
     1
 65
   257
176
     1
 75
     1
176
     1
175
     1
176
     1
 42
1.0
176
     1
 92
        8
176
     1
 66
     8
424
  8421504
176
     1
 43
1.0
176
     1
 76
     1
176
     1
 77
     6
176
     1
 78
     2
176
     1
 67
     7
176
     1
 79
     5
176
     1
170
     0
176
     1
171
     0
176
     1
290
     0
176
     1
 93
        1
176
     1
 44
0.0
176
     1
173
     0
176
     1
  0
VISUALSTYLE
  5
34
102
{ACAD_REACTORS
330
2A
102
}
330
2A
100
AcDbVisualStyle
  2
Conceptual
 70
     9
177
     2
291
     0
 71
     3
176
     1
 72
     2
176
     1
 73
     0
176
     1
 90
        0
176
     1
 40
-0.6
176
     1
 41
-30.0
176
     1
 62
     5
 63
     7
421
 16777215
176
     1
 74
     2
176
     1
 91
        2
176
     1
 64
     7
176
     1
 65
   257
176
     1
 75
     1
176
     1
175
     1
176
     1
 42
40.0
176
     1
 92
        8
176
     1
 66
     7
176
     1
 43
1.0
176
     1
 76
     1
176
     1
 77
     6
176
     1
 78
     2
176
     1
 67
     7
176
     1
 79
     3
176
     1
170
     0
176
     1
171
     0
176
     1
290
     0
176
     1
 93
        1
176
     1
 44
0.0
176
     1
173
     0
176
     1
  0
VISUALSTYLE
  5
35
102
{ACAD_REACTORS
330
2A
102
}
330
2A
100
AcDbVisualStyle
  2
Dim
 70
    11
177
     2
291
     1
 71
     2
176
     1
 72
     2
176
     1
 73
     0
176
     1
 90
        0
176
     1
 40
-0.6
176
     1
 41
-30.0
176
     1
 62
     5
 63
     7
421
 16777215
176
     1
 74
     1
176
     1
 91
        4
176
     1
 64
     7
176
     1
 65
   257
176
     1
 75
     1
176
     1
175
     1
176
     1
 42
1.0
176
     1
 92
        8
176
     1
 66
     7
176
     1
 43
1.0
176
     1
 76
     1
176
     1
 77
     6
176
     1
 78
     2
176
     1
 67
     7
176
     1
 79
     5
176
     1
170
     0
176
     1
171
     0
176
     1
290
     0
176
     1
 93
        1
176
     1
 44
-50.0
176
     1
173
     0
176
     1
  0
VISUALSTYLE
  5
39
102
{ACAD_REACTORS
330
2A
102
}
330
2A
100
AcDbVisualStyle
  2
Facepattern
 70
    15
177
     2
291
     1
 71
     2
176
     1
 72
     2
176
     1
 73
     0
176
     1
 90
        0
176
     1
 40
-0.6
176
     1
 41
-30.0
176
     1
 62
     5
 63
     7
421
 16777215
176
     1
 74
     1
176
     1
 91
        4
176
     1
 64
     7
176
     1
 65
   257
176
     1
 75
     1
176
     1
175
     1
176
     1
 42
1.0
176
     1
 92
        8
176
     1
 66
     7
176
     1
 43
1.0
176
     1
 76
     1
176
     1
 77
     6
176
     1
 78
     2
176
     1
 67
     7
176
     1
 79
     5
176
     1
170
     0
176
     1
171
     0
176
     1
290
     0
176
     1
 93
        1
176
     1
 44
0.0
176
     1
173
     0
176
     1
  0
VISUALSTYLE
  5
2B
102
{ACAD_REACTORS
330
2A
102
}
330
2A
100
AcDbVisualStyle
  2
Flat
 70
     0
177
     2
291
     1
 71
     2
176
     1
 72
     1
176
     1
 73
     1
176
     1
 90
        2
176
     1
 40
-0.6
176
     1
 41
30.0
176
     1
 62
     5
 63
     7
421
 16777215
176
     1
 74
     0
176
     1
 91
        4
176
     1
 64
     7
176
     1
 65
   257
176
     1
 75
     1
176
     1
175
     1
176
     1
 42
1.0
176
     1
 92
        8
176
     1
 66
     7
176
     1
 43
1.0
176
     1
 76
     1
176
     1
 77
     6
176
     1
 78
     2
176
     1
 67
     7
176
     1
 79
     5
176
     1
170
     0
176
     1
171
     0
176
     1
290
     0
176
     1
 93
       13
176
     1
 44
0.0
176
     1
173
     0
176
     1
  0
VISUALSTYLE
  5
2C
102
{ACAD_REACTORS
330
2A
102
}
330
2A
100
AcDbVisualStyle
  2
FlatWithEdges
 70
     1
177
     2
291
     1
 71
     2
176
     1
 72
     1
176
     1
 73
     1
176
     1
 90
        2
176
     1
 40
-0.6
176
     1
 41
30.0
176
     1
 62
     5
 63
     7
421
 16777215
176
     1
 74
     1
176
     1
 91
        4
176
     1
 64
     7
176
     1
 65
   257
176
     1
 75
     1
176
     1
175
     1
176
     1
 42
1.0
176
     1
 92
        0
176
     1
 66
   257
176
     1
 43
1.0
176
     1
 76
     1
176
     1
 77
     6
176
     1
 78
     2
176
     1
 67
     7
176
     1
 79
     5
176
     1
170
     0
176
     1
171
     0
176
     1
290
     0
176
     1
 93
       13
176
     1
 44
0.0
176
     1
173
     0
176
     1
  0
VISUALSTYLE
  5
2D
102
{ACAD_REACTORS
330
2A
102
}
330
2A
100
AcDbVisualStyle
  2
Gouraud
 70
     2
177
     2
291
     1
 71
     2
176
     1
 72
     2
176
     1
 73
     1
176
     1
 90
        2
176
     1
 40
-0.6
176
     1
 41
30.0
176
     1
 62
     5
 63
     7
421
 16777215
176
     1
 74
     0
176
     1
 91
        4
176
     1
 64
     7
176
     1
 65
   257
176
     1
 75
     1
176
     1
175
     1
176
     1
 42
1.0
176
     1
 92
        0
176
     1
 66
     7
176
     1
 43
1.0
176
     1
 76
     1
176
     1
 77
     6
176
     1
 78
     2
176
     1
 67
     7
176
     1
 79
     5
176
     1
170
     0
176
     1
171
     0
176
     1
290
     0
176
     1
 93
       13
176
     1
 44
0.0
176
     1
173
     0
176
     1
  0
VISUALSTYLE
  5
2E
102
{ACAD_REACTORS
330
2A
102
}
330
2A
100
AcDbVisualStyle
  2
GouraudWithEdges
 70
     3
177
     2
291
     1
 71
     2
176
     1
 72
     2
176
     1
 73
     1
176
     1
 90
        2
176
     1
 40
-0.6
176
     1
 41
30.0
176
     1
 62
     5
 63
     7
421
 16777215
176
     1
 74
     1
176
     1
 91
        4
176
     1
 64
     7
176
     1
 65
   257
176
     1
 75
     1
176
     1
175
     1
176
     1
 42
1.0
176
     1
 92
        0
176
     1
 66
   257
176
     1
 43
1.0
176
     1
 76
     1
176
     1
 77
     6
176
     1
 78
     2
176
     1
 67
     7
176
     1
 79
     5
176
     1
170
     0
176
     1
171
     0
176
     1
290
     0
176
     1
 93
       13
176
     1
 44
0.0
176
     1
173
     0
176
     1
  0
VISUALSTYLE
  5
38
102
{ACAD_REACTORS
330
2A
102
}
330
2A
100
AcDbVisualStyle
  2
Linepattern
 70
    14
177
     2
291
     1
 71
     2
176
     1
 72
     2
176
     1
 73
     0
176
     1
 90
        0
176
     1
 40
-0.6
176
     1
 41
-30.0
176
     1
 62
     5
 63
     7
421
 16777215
176
     1
 74
     1
176
     1
 91
        4
176
     1
 64
     7
176
     1
 65
   257
176
     1
 75
     7
176
     1
175
     7
176
     1
 42
1.0
176
     1
 92
        8
176
     1
 66
     7
176
     1
 43
1.0
176
     1
 76
     1
176
     1
 77
     6
176
     1
 78
     2
176
     1
 67
     7
176
     1
 79
     5
176
     1
170
     0
176
     1
171
     0
176
     1
290
     0
176
     1
 93
        1
176
     1
 44
0.0
176
     1
173
     0
176
     1
  0
VISUALSTYLE
  5
33
102
{ACAD_REACTORS
330
2A
102
}
330
2A
100
AcDbVisualStyle
  2
Realistic
 70
     8
177
     2
291
     0
 71
     2
176
     1
 72
     2
176
     1
 73
     0
176
     1
 90
        0
176
     1
 40
-0.6
176
     1
 41
-30.0
176
     1
 62
     5
 63
     7
421
 16777215
176
     1
 74
     1
176
     1
 91
        0
176
     1
 64
     7
176
     1
 65
   257
176
     1
 75
     1
176
     1
175
     1
176
     1
 42
1.0
176
     1
 92
        8
176
     1
 66
     8
424
  7895160
176
     1
 43
1.0
176
     1
 76
     1
176
     1
 77
     6
176
     1
 78
     2
176
     1
 67
     7
176
     1
 79
     5
176
     1
170
     0
176
     1
171
     0
176
     1
290
     0
176
     1
 93
       13
176
     1
 44
0.0
176
     1
173
     0
176
     1
  0
VISUALSTYLE
  5
37
102
{ACAD_REACTORS
330
2A
102
}
330
2A
100
AcDbVisualStyle
  2
Thicken
 70
    13
177
     2
291
     1
 71
     2
176
     1
 72
     2
176
     1
 73
     0
176
     1
 90
        0
176
     1
 40
-0.6
176
     1
 41
-30.0
176
     1
 62
     5
 63
     7
421
 16777215
176
     1
 74
     1
176
     1
 91
        4
176
     1
 64
     7
176
     1
 65
   257
176
     1
 75
     1
176
     1
175
     1
176
     1
 42
1.0
176
     1
 92
       12
176
     1
 66
     7
176
     1
 43
1.0
176
     1
 76
     1
176
     1
 77
     6
176
     1
 78
     2
176
     1
 67
     7
176
     1
 79
     5
176
     1
170
     0
176
     1
171
     0
176
     1
290
     0
176
     1
 93
        1
176
     1
 44
0.0
176
     1
173
     0
176
     1
  0
ENDSEC
  0
EOF
