  0
SECTION
  2
HEADER
  9
$ACADVER
  1
AC1024
  9
$ACADMAINTVER
 70
     6
  9
$DWGCODEPAGE
  3
ANSI_932
  9
$INSBASE
 10
0.0
 20
0.0
 30
0.0
  9
$EXTMIN
 10
-6300.0
 20
-4455.0
 30
0.0
  9
$EXTMAX
 10
6300.0
 20
4455.0
 30
0.0
  9
$LIMMIN
 10
-6300.0
 20
-4455.0
  9
$LIMMAX
 10
6300.0
 20
4455.0
  9
$ORTHOMODE
 70
     0
  9
$REGENMODE
 70
     1
  9
$FILLMODE
 70
     1
  9
$QTEXTMODE
 70
     0
  9
$MIRRTEXT
 70
     1
  9
$LTSCALE
 40
30.0
  9
$ATTMODE
 70
     1
  9
$TEXTSIZE
 40
2.5
  9
$TRACEWID
 40
1.0
  9
$TEXTSTYLE
  7
Standard
  9
$CLAYER
  8
0
  9
$CELTYPE
  6
ByLayer
  9
$CECOLOR
 62
   256
  9
$CELTSCALE
 40
1.0
  9
$DISPSILH
 70
     0
  9
$DIMSCALE
 40
1.0
  9
$DIMASZ
 40
2.5
  9
$DIMEXO
 40
0.625
  9
$DIMDLI
 40
3.75
  9
$DIMRND
 40
0.0
  9
$DIMDLE
 40
0.0
  9
$DIMEXE
 40
1.25
  9
$DIMTP
 40
0.0
  9
$DIMTM
 40
0.0
  9
$DIMTXT
 40
2.5
  9
$DIMCEN
 40
2.5
  9
$DIMTSZ
 40
0.0
  9
$DIMTOL
 70
     0
  9
$DIMLIM
 70
     0
  9
$DIMTIH
 70
     0
  9
$DIMTOH
 70
     0
  9
$DIMSE1
 70
     0
  9
$DIMSE2
 70
     0
  9
$DIMTAD
 70
     1
  9
$DIMZIN
 70
     8
  9
$DIMBLK
  1

  9
$DIMASO
 70
     1
  9
$DIMSHO
 70
     1
  9
$DIMPOST
  1

  9
$DIMAPOST
  1

  9
$DIMALT
 70
     0
  9
$DIMALTD
 70
     3
  9
$DIMALTF
 40
0.03937007874016
  9
$DIMLFAC
 40
1.0
  9
$DIMTOFL
 70
     1
  9
$DIMTVP
 40
0.0
  9
$DIMTIX
 70
     0
  9
$DIMSOXD
 70
     0
  9
$DIMSAH
 70
     0
  9
$DIMBLK1
  1

  9
$DIMBLK2
  1

  9
$DIMSTYLE
  2
ISO-25
  9
$DIMCLRD
 70
     0
  9
$DIMCLRE
 70
     0
  9
$DIMCLRT
 70
     0
  9
$DIMTFAC
 40
1.0
  9
$DIMGAP
 40
0.625
  9
$DIMJUST
 70
     0
  9
$DIMSD1
 70
     0
  9
$DIMSD2
 70
     0
  9
$DIMTOLJ
 70
     0
  9
$DIMTZIN
 70
     8
  9
$DIMALTZ
 70
     0
  9
$DIMALTTZ
 70
     0
  9
$DIMUPT
 70
     0
  9
$DIMDEC
 70
     2
  9
$DIMTDEC
 70
     2
  9
$DIMALTU
 70
     2
  9
$DIMALTTD
 70
     3
  9
$DIMTXSTY
  7
Standard
  9
$DIMAUNIT
 70
     0
  9
$DIMADEC
 70
     0
  9
$DIMALTRND
 40
0.0
  9
$DIMAZIN
 70
     0
  9
$DIMDSEP
 70
    44
  9
$DIMATFIT
 70
     3
  9
$DIMFRAC
 70
     0
  9
$DIMLDRBLK
  1

  9
$DIMLUNIT
 70
     2
  9
$DIMLWD
 70
    -2
  9
$DIMLWE
 70
    -2
  9
$DIMTMOVE
 70
     0
  9
$DIMFXL
 40
1.0
  9
$DIMFXLON
 70
     0
  9
$DIMJOGANG
 40
0.7853981633974483
  9
$DIMTFILL
 70
     0
  9
$DIMTFILLCLR
 70
     0
  9
$DIMARCSYM
 70
     0
  9
$DIMLTYPE
  6

  9
$DIMLTEX1
  6

  9
$DIMLTEX2
  6

  9
$DIMTXTDIRECTION
 70
     0
  9
$LUNITS
 70
     2
  9
$LUPREC
 70
     4
  9
$SKETCHINC
 40
1.0
  9
$FILLETRAD
 40
10.0
  9
$AUNITS
 70
     0
  9
$AUPREC
 70
     0
  9
$MENU
  1
.
  9
$ELEVATION
 40
0.0
  9
$PELEVATION
 40
0.0
  9
$THICKNESS
 40
0.0
  9
$LIMCHECK
 70
     0
  9
$CHAMFERA
 40
10.0
  9
$CHAMFERB
 40
10.0
  9
$CHAMFERC
 40
20.0
  9
$CHAMFERD
 40
0.0
  9
$SKPOLY
 70
     0
  9
$TDCREATE
 40
2459411.61516375
  9
$TDUCREATE
 40
2459411.24016375
  9
$TDUPDATE
 40
2459411.615163762
  9
$TDUUPDATE
 40
2459411.240163762
  9
$TDINDWG
 40
0.0000000116
  9
$TDUSRTIMER
 40
0.0000000116
  9
$USRTIMER
 70
     1
  9
$ANGBASE
 50
0.0
  9
$ANGDIR
 70
     0
  9
$PDMODE
 70
     0
  9
$PDSIZE
 40
0.0
  9
$PLINEWID
 40
0.0
  9
$SPLFRAME
 70
     0
  9
$SPLINETYPE
 70
     6
  9
$SPLINESEGS
 70
     8
  9
$HANDSEED
  5
1DE
  9
$SURFTAB1
 70
     6
  9
$SURFTAB2
 70
     6
  9
$SURFTYPE
 70
     6
  9
$SURFU
 70
     6
  9
$SURFV
 70
     6
  9
$UCSBASE
  2

  9
$UCSNAME
  2

  9
$UCSORG
 10
0.0
 20
0.0
 30
0.0
  9
$UCSXDIR
 10
1.0
 20
0.0
 30
0.0
  9
$UCSYDIR
 10
0.0
 20
1.0
 30
0.0
  9
$UCSORTHOREF
  2

  9
$UCSORTHOVIEW
 70
     0
  9
$UCSORGTOP
 10
0.0
 20
0.0
 30
0.0
  9
$UCSORGBOTTOM
 10
0.0
 20
0.0
 30
0.0
  9
$UCSORGLEFT
 10
0.0
 20
0.0
 30
0.0
  9
$UCSORGRIGHT
 10
0.0
 20
0.0
 30
0.0
  9
$UCSORGFRONT
 10
0.0
 20
0.0
 30
0.0
  9
$UCSORGBACK
 10
0.0
 20
0.0
 30
0.0
  9
$PUCSBASE
  2

  9
$PUCSNAME
  2

  9
$PUCSORG
 10
0.0
 20
0.0
 30
0.0
  9
$PUCSXDIR
 10
1.0
 20
0.0
 30
0.0
  9
$PUCSYDIR
 10
0.0
 20
1.0
 30
0.0
  9
$PUCSORTHOREF
  2

  9
$PUCSORTHOVIEW
 70
     0
  9
$PUCSORGTOP
 10
0.0
 20
0.0
 30
0.0
  9
$PUCSORGBOTTOM
 10
0.0
 20
0.0
 30
0.0
  9
$PUCSORGLEFT
 10
0.0
 20
0.0
 30
0.0
  9
$PUCSORGRIGHT
 10
0.0
 20
0.0
 30
0.0
  9
$PUCSORGFRONT
 10
0.0
 20
0.0
 30
0.0
  9
$PUCSORGBACK
 10
0.0
 20
0.0
 30
0.0
  9
$USERI1
 70
     0
  9
$USERI2
 70
     0
  9
$USERI3
 70
     0
  9
$USERI4
 70
     0
  9
$USERI5
 70
     0
  9
$USERR1
 40
0.0
  9
$USERR2
 40
0.0
  9
$USERR3
 40
0.0
  9
$USERR4
 40
0.0
  9
$USERR5
 40
0.0
  9
$WORLDVIEW
 70
     1
  9
$SHADEDGE
 70
     3
  9
$SHADEDIF
 70
    70
  9
$TILEMODE
 70
     1
  9
$MAXACTVP
 70
    64
  9
$PINSBASE
 10
0.0
 20
0.0
 30
0.0
  9
$PLIMCHECK
 70
     0
  9
$PEXTMIN
 10
1.000000000000000E+20
 20
1.000000000000000E+20
 30
1.000000000000000E+20
  9
$PEXTMAX
 10
-1.000000000000000E+20
 20
-1.000000000000000E+20
 30
-1.000000000000000E+20
  9
$PLIMMIN
 10
0.0
 20
0.0
  9
$PLIMMAX
 10
420.0
 20
297.0
  9
$UNITMODE
 70
     0
  9
$VISRETAIN
 70
     1
  9
$PLINEGEN
 70
     0
  9
$PSLTSCALE
 70
     1
  9
$TREEDEPTH
 70
  3020
  9
$CMLSTYLE
  2
Standard
  9
$CMLJUST
 70
     0
  9
$CMLSCALE
 40
20.0
  9
$PROXYGRAPHICS
 70
     1
  9
$MEASUREMENT
 70
     1
  9
$CELWEIGHT
370
    -1
  9
$ENDCAPS
280
     0
  9
$JOINSTYLE
280
     0
  9
$LWDISPLAY
290
     0
  9
$INSUNITS
 70
     4
  9
$HYPERLINKBASE
  1

  9
$STYLESHEET
  1

  9
$XEDIT
290
     1
  9
$CEPSNTYPE
380
     0
  9
$PSTYLEMODE
290
     1
  9
$FINGERPRINTGUID
  2
{3A827B92-1F77-4F29-859E-C8D5042878E1}
  9
$VERSIONGUID
  2
{FAEB1C32-E019-11D5-929B-00C0DF256EC4}
  9
$EXTNAMES
290
     1
  9
$PSVPSCALE
 40
0.0
  9
$OLESTARTUP
290
     0
  9
$SORTENTS
280
   127
  9
$INDEXCTL
280
     0
  9
$HIDETEXT
280
     1
  9
$XCLIPFRAME
280
     2
  9
$HALOGAP
280
     0
  9
$OBSCOLOR
 70
   257
  9
$OBSLTYPE
280
     0
  9
$INTERSECTIONDISPLAY
280
     0
  9
$INTERSECTIONCOLOR
 70
   257
  9
$DIMASSOC
280
     2
  9
$PROJECTNAME
  1

  9
$CAMERADISPLAY
290
     0
  9
$LENSLENGTH
 40
50.0
  9
$CAMERAHEIGHT
 40
0.0
  9
$STEPSPERSEC
 40
2.0
  9
$STEPSIZE
 40
6.0
  9
$3DDWFPREC
 40
2.0
  9
$PSOLWIDTH
 40
5.0
  9
$PSOLHEIGHT
 40
80.0
  9
$LOFTANG1
 40
1.570796326794897
  9
$LOFTANG2
 40
1.570796326794897
  9
$LOFTMAG1
 40
0.0
  9
$LOFTMAG2
 40
0.0
  9
$LOFTPARAM
 70
     7
  9
$LOFTNORMALS
280
     1
  9
$LATITUDE
 40
37.795
  9
$LONGITUDE
 40
-122.394
  9
$NORTHDIRECTION
 40
0.0
  9
$TIMEZONE
 70
 -8000
  9
$LIGHTGLYPHDISPLAY
280
     1
  9
$TILEMODELIGHTSYNCH
280
     1
  9
$SOLIDHIST
280
     1
  9
$SHOWHIST
280
     1
  9
$DWFFRAME
280
     2
  9
$DGNFRAME
280
     2
  9
$REALWORLDSCALE
290
     1
  9
$INTERFERECOLOR
 62
   256
  9
$CSHADOW
280
     0
  9
$SHADOWPLANELOCATION
 40
0.0
  0
ENDSEC
  0
SECTION
  2
CLASSES
  0
CLASS
  1
ACDBDICTIONARYWDFLT
  2
AcDbDictionaryWithDefault
  3
ObjectDBX Classes
 90
        0
 91
        4
280
     0
281
     0
  0
CLASS
  1
VISUALSTYLE
  2
AcDbVisualStyle
  3
ObjectDBX Classes
 90
     4095
 91
        4
280
     0
281
     0
  0
CLASS
  1
MATERIAL
  2
AcDbMaterial
  3
ObjectDBX Classes
 90
     1153
 91
        4
280
     0
281
     0
  0
ENDSEC
  0
SECTION
  2
TABLES
  0
TABLE
  2
VPORT
  5
8
330
0
100
AcDbSymbolTable
 70
     1
  0
VPORT
  5
29
330
8
100
AcDbSymbolTableRecord
100
AcDbViewportTableRecord
  2
*Active
 70
     0
 10
0.0
 20
0.0
 11
1.0
 21
1.0
 12
0.0
 22
0.0
 13
0.0
 23
0.0
 14
10.0
 24
10.0
 15
10.0
 25
10.0
 16
0.0
 26
0.0
 36
1.0
 17
0.0
 27
0.0
 37
0.0
 40
9801.0
 41
1.414141414141414
 42
50.0
 43
0.0
 44
0.0
 50
0.0
 51
0.0
 71
     0
 72
 10000
 73
     1
 74
     3
 75
     0
 76
     0
 77
     0
 78
     0
281
     0
 65
     1
110
0.0
120
0.0
130
0.0
111
1.0
121
0.0
131
0.0
112
0.0
122
1.0
132
0.0
 79
     0
146
0.0
 60
     3
 61
     5
292
     1
282
     1
141
0.0
142
0.0
 63
   250
  0
ENDTAB
  0
TABLE
  2
LTYPE
  5
5
330
0
100
AcDbSymbolTable
 70
     3
  0
LTYPE
  5
14
330
5
100
AcDbSymbolTableRecord
100
AcDbLinetypeTableRecord
  2
ByBlock
 70
     0
  3

 72
    65
 73
     0
 40
0.0
  0
LTYPE
  5
15
330
5
100
AcDbSymbolTableRecord
100
AcDbLinetypeTableRecord
  2
ByLayer
 70
     0
  3

 72
    65
 73
     0
 40
0.0
  0
LTYPE
  5
16
330
5
100
AcDbSymbolTableRecord
100
AcDbLinetypeTableRecord
  2
Continuous
 70
     0
  3
Solid line
 72
    65
 73
     0
 40
0.0
  0
LTYPE
  5
3F
330
5
100
AcDbSymbolTableRecord
100
AcDbLinetypeTableRecord
  2
JWW_HOJO
 70
     0
  3
  -   -   -   -   -   -   -   - 
 72
    65
 73
     2
 40
1.693333333333333
 49
-1.27
 74
     0
 49
0.4233333333333333
 74
     0
  0
LTYPE
  5
40
330
5
100
AcDbSymbolTableRecord
100
AcDbLinetypeTableRecord
  2
JWW_CENTER1
 70
     0
  3
-----  --  ----------  --  -----
 72
    65
 73
     4
 40
6.773333333333333
 49
4.233333333333333
 74
     0
 49
-0.8466666666666667
 74
     0
 49
0.8466666666666667
 74
     0
 49
-0.8466666666666667
 74
     0
  0
ENDTAB
  0
TABLE
  2
LAYER
  5
2
330
0
100
AcDbSymbolTable
 70
     7
  0
LAYER
  5
10
330
2
100
AcDbSymbolTableRecord
100
AcDbLayerTableRecord
  2
0
 70
     0
 62
     7
  6
Continuous
370
    -3
390
F
347
3E
  0
LAYER
  5
41
330
2
100
AcDbSymbolTableRecord
100
AcDbLayerTableRecord
  2
F-0
 70
     0
 62
     7
  6
Continuous
370
    -3
390
F
347
3E
  0
LAYER
  5
42
330
2
100
AcDbSymbolTableRecord
100
AcDbLayerTableRecord
  2
F-1
 70
     0
 62
     7
  6
Continuous
370
    -3
390
F
347
3E
  0
LAYER
  5
43
330
2
100
AcDbSymbolTableRecord
100
AcDbLayerTableRecord
  2
2-0
 70
     0
 62
     7
  6
Continuous
370
    -3
390
F
347
3E
  0
LAYER
  5
44
330
2
100
AcDbSymbolTableRecord
100
AcDbLayerTableRecord
  2
2-2
 70
     0
 62
     7
  6
Continuous
370
    -3
390
F
347
3E
  0
LAYER
  5
45
330
2
100
AcDbSymbolTableRecord
100
AcDbLayerTableRecord
  2
2-A
 70
     0
 62
     7
  6
Continuous
370
    -3
390
F
347
3E
  0
LAYER
  5
46
330
2
100
AcDbSymbolTableRecord
100
AcDbLayerTableRecord
  2
F-A
 70
     0
 62
     7
  6
Continuous
370
    -3
390
F
347
3E
  0
ENDTAB
  0
TABLE
  2
STYLE
  5
3
330
0
100
AcDbSymbolTable
 70
     1
  0
STYLE
  5
11
330
3
100
AcDbSymbolTableRecord
100
AcDbTextStyleTableRecord
  2
Standard
 70
     0
 40
0.0
 41
1.0
 50
0.0
 71
     0
 42
2.5
  3
txt
  4

  0
ENDTAB
  0
TABLE
  2
VIEW
  5
6
330
0
100
AcDbSymbolTable
 70
     0
  0
ENDTAB
  0
TABLE
  2
UCS
  5
7
330
0
100
AcDbSymbolTable
 70
     0
  0
ENDTAB
  0
TABLE
  2
APPID
  5
9
330
0
100
AcDbSymbolTable
 70
     1
  0
APPID
  5
12
330
9
100
AcDbSymbolTableRecord
100
AcDbRegAppTableRecord
  2
ACAD
 70
     0
  0
ENDTAB
  0
TABLE
  2
DIMSTYLE
  5
A
330
0
100
AcDbSymbolTable
 70
     1
100
AcDbDimStyleTable
  0
DIMSTYLE
105
27
330
A
100
AcDbSymbolTableRecord
100
AcDbDimStyleTableRecord
  2
ISO-25
 70
     0
 41
2.5
 42
0.625
 43
3.75
 44
1.25
 73
     0
 74
     0
 77
     1
 78
     8
140
2.5
141
2.5
143
0.03937007874016
147
0.625
171
     3
172
     1
178
     0
271
     2
272
     2
274
     3
278
    44
283
     0
284
     8
340
11
  0
ENDTAB
  0
TABLE
  2
BLOCK_RECORD
  5
1
330
0
100
AcDbSymbolTable
 70
     1
  0
BLOCK_RECORD
  5
1F
330
1
100
AcDbSymbolTableRecord
100
AcDbBlockTableRecord
  2
*Model_Space
340
22
 70
     0
280
     1
281
     0
  0
BLOCK_RECORD
  5
1B
330
1
100
AcDbSymbolTableRecord
100
AcDbBlockTableRecord
  2
*Paper_Space
340
1E
 70
     0
280
     1
281
     0
  0
BLOCK_RECORD
  5
23
330
1
100
AcDbSymbolTableRecord
100
AcDbBlockTableRecord
  2
*Paper_Space0
340
26
 70
     0
280
     1
281
     0
  0
ENDTAB
  0
ENDSEC
  0
SECTION
  2
BLOCKS
  0
BLOCK
  5
20
330
1F
100
AcDbEntity
  8
0
100
AcDbBlockBegin
  2
*Model_Space
 70
     0
 10
0.0
 20
0.0
 30
0.0
  3
*Model_Space
  1

  0
ENDBLK
  5
21
330
1F
100
AcDbEntity
  8
0
100
AcDbBlockEnd
  0
BLOCK
  5
1C
330
1B
100
AcDbEntity
 67
     1
  8
0
100
AcDbBlockBegin
  2
*Paper_Space
 70
     0
 10
0.0
 20
0.0
 30
0.0
  3
*Paper_Space
  1

  0
ENDBLK
  5
1D
330
1B
100
AcDbEntity
 67
     1
  8
0
100
AcDbBlockEnd
  0
BLOCK
  5
24
330
23
100
AcDbEntity
  8
0
100
AcDbBlockBegin
  2
*Paper_Space0
 70
     0
 10
0.0
 20
0.0
 30
0.0
  3
*Paper_Space0
  1

  0
ENDBLK
  5
25
330
23
100
AcDbEntity
  8
0
100
AcDbBlockEnd
  0
ENDSEC
  0
SECTION
  2
ENTITIES
  0
LINE
  5
47
330
1F
100
AcDbEntity
  8
F-0
  6
JWW_HOJO
 62
     4
370
     5
100
AcDbLine
 10
-6140.081333436773
 20
-4455.0
 30
0.0
 11
-6140.081333436773
 21
4424.999604096284
 31
0.0
  0
LINE
  5
48
330
1F
100
AcDbEntity
  8
F-0
  6
JWW_HOJO
 62
     4
370
     5
100
AcDbLine
 10
-6140.081333436773
 20
4424.999604096284
 30
0.0
 11
6159.917676803936
 21
4424.999604096284
 31
0.0
  0
LINE
  5
49
330
1F
100
AcDbEntity
  8
F-0
  6
JWW_HOJO
 62
     4
370
     5
100
AcDbLine
 10
6159.917676803936
 20
4424.999604096284
 30
0.0
 11
6159.917676803936
 21
-4455.0
 31
0.0
  0
LINE
  5
4A
330
1F
100
AcDbEntity
  8
F-0
  6
JWW_HOJO
 62
     4
370
     5
100
AcDbLine
 10
6159.917676803936
 20
-4455.0
 30
0.0
 11
-6140.081333436773
 21
-4455.0
 31
0.0
  0
LINE
  5
4B
330
1F
100
AcDbEntity
  8
F-0
  6
JWW_HOJO
 62
     7
370
     9
100
AcDbLine
 10
1009.918254163523
 20
-3795.000003092998
 30
0.0
 11
1009.918254163523
 21
-4195.000008247994
 31
0.0
  0
LINE
  5
4C
330
1F
100
AcDbEntity
  8
F-1
  6
Continuous
 62
   200
370
    20
100
AcDbLine
 10
5859.917429364114
 20
4174.999769056166
 30
0.0
 11
5859.917429364114
 21
-4205.000164959882
 31
0.0
  0
LINE
  5
4D
330
1F
100
AcDbEntity
  8
F-1
  6
Continuous
 62
   200
370
    20
100
AcDbLine
 10
-5840.081317971782
 20
4174.999769056166
 30
0.0
 11
-5840.081317971782
 21
-4205.000164959882
 31
0.0
  0
LINE
  5
4E
330
1F
100
AcDbEntity
  8
F-1
  6
Continuous
 62
   200
370
    20
100
AcDbLine
 10
5859.917429364114
 20
-4205.000002577498
 30
0.0
 11
-5840.081085996952
 21
-4205.000002577498
 31
0.0
  0
LINE
  5
4F
330
1F
100
AcDbEntity
  8
F-1
  6
Continuous
 62
   200
370
    20
100
AcDbLine
 10
-5830.081323642279
 20
4174.999769056166
 30
0.0
 11
-5830.081323642279
 21
-4205.000164959882
 31
0.0
  0
LINE
  5
50
330
1F
100
AcDbEntity
  8
F-1
  6
Continuous
 62
   200
370
    20
100
AcDbLine
 10
-5835.081309208291
 20
4174.999769056166
 30
0.0
 11
-5835.081309208291
 21
-4205.000164959882
 31
0.0
  0
LINE
  5
51
330
1F
100
AcDbEntity
  8
F-1
  6
Continuous
 62
   200
370
    20
100
AcDbLine
 10
5854.917165428304
 20
4174.999769056166
 30
0.0
 11
5854.917165428304
 21
-4205.000164959882
 31
0.0
  0
LINE
  5
52
330
1F
100
AcDbEntity
  8
F-1
  6
Continuous
 62
   200
370
    20
100
AcDbLine
 10
5849.917643811961
 20
4174.999769056166
 30
0.0
 11
5849.917643811961
 21
-4205.000164959882
 31
0.0
  0
LINE
  5
53
330
1F
100
AcDbEntity
  8
F-1
  6
Continuous
 62
   200
370
    20
100
AcDbLine
 10
5859.917429364114
 20
-4199.999993814004
 30
0.0
 11
-5840.081085996952
 21
-4199.999993814004
 31
0.0
  0
LINE
  5
54
330
1F
100
AcDbEntity
  8
F-1
  6
Continuous
 62
   200
370
    20
100
AcDbLine
 10
5859.917429364114
 20
-4195.000008247994
 30
0.0
 11
-5840.081085996952
 21
-4195.000008247994
 31
0.0
  0
LINE
  5
55
330
1F
100
AcDbEntity
  8
F-1
  6
Continuous
 62
   200
370
    20
100
AcDbLine
 10
4349.917891251784
 20
-3795.000003092998
 30
0.0
 11
4349.917891251784
 21
-4195.000008247994
 31
0.0
  0
LINE
  5
56
330
1F
100
AcDbEntity
  8
F-1
  6
Continuous
 62
   200
370
    20
100
AcDbLine
 10
2849.917396372139
 20
-3795.000003092998
 30
0.0
 11
2849.917396372139
 21
-4195.000008247994
 31
0.0
  0
LINE
  5
57
330
1F
100
AcDbEntity
  8
F-1
  6
Continuous
 62
   200
370
    20
100
AcDbLine
 10
9.918542843316231
 20
-3795.000003092998
 30
0.0
 11
9.918542843316231
 21
-4195.000008247994
 31
0.0
  0
LINE
  5
58
330
1F
100
AcDbEntity
  8
F-1
  6
Continuous
 62
   200
370
    20
100
AcDbLine
 10
9.918542843316231
 20
-3994.999936078046
 30
0.0
 11
5849.917643811961
 21
-3995.005364289155
 31
0.0
  0
LINE
  5
59
330
1F
100
AcDbEntity
  8
F-1
  6
Continuous
 62
   200
370
    20
100
AcDbLine
 10
-5840.081085996952
 20
4174.999769056166
 30
0.0
 11
5859.917429364114
 21
4174.999769056166
 31
0.0
  0
LINE
  5
5A
330
1F
100
AcDbEntity
  8
F-1
  6
Continuous
 62
   200
370
    20
100
AcDbLine
 10
-5840.081085996952
 20
4164.999983504013
 30
0.0
 11
5859.917429364114
 21
4164.999983504013
 31
0.0
  0
LINE
  5
5B
330
1F
100
AcDbEntity
  8
F-1
  6
Continuous
 62
   200
370
    20
100
AcDbLine
 10
-5840.081085996952
 20
4169.999505120355
 30
0.0
 11
5859.917429364114
 21
4169.999505120355
 31
0.0
  0
LINE
  5
5C
330
1F
100
AcDbEntity
  8
F-0
  6
JWW_HOJO
 62
     7
370
     9
100
AcDbLine
 10
-5830.081323642279
 20
-3994.99993607839
 30
0.0
 11
9.918542843316231
 21
-3994.99993607839
 31
0.0
  0
LINE
  5
5D
330
1F
100
AcDbEntity
  8
F-0
  6
JWW_HOJO
 62
     7
370
     9
100
AcDbLine
 10
-5830.081323642279
 20
-3904.99993607839
 30
0.0
 11
9.918542843316231
 21
-3904.99993607839
 31
0.0
  0
LINE
  5
5E
330
1F
100
AcDbEntity
  8
F-0
  6
JWW_HOJO
 62
     7
370
     9
100
AcDbLine
 10
-5830.081323642279
 20
-4084.99993607839
 30
0.0
 11
9.918542843316231
 21
-4084.99993607839
 31
0.0
  0
LINE
  5
5F
330
1F
100
AcDbEntity
  8
F-0
  6
JWW_HOJO
 62
     7
370
     9
100
AcDbLine
 10
9.918408067688347
 20
-4139.999739777983
 30
0.0
 11
5849.917509036332
 21
-4140.005167989091
 31
0.0
  0
LINE
  5
60
330
1F
100
AcDbEntity
  8
F-0
  6
JWW_HOJO
 62
     7
370
     9
100
AcDbLine
 10
9.918491721639953
 20
-4049.999739778022
 30
0.0
 11
5849.917592690284
 21
-4050.005167989131
 31
0.0
  0
LINE
  5
61
330
1F
100
AcDbEntity
  8
F-0
  6
JWW_HOJO
 62
     7
370
     9
100
AcDbLine
 10
9.918593965360003
 20
-3939.99973721807
 30
0.0
 11
5849.917694934004
 21
-3940.005165429179
 31
0.0
  0
LINE
  5
62
330
1F
100
AcDbEntity
  8
F-0
  6
JWW_HOJO
 62
     7
370
     9
100
AcDbLine
 10
9.918677619311609
 20
-3849.999737218109
 30
0.0
 11
5849.917778587956
 21
-3850.005165429218
 31
0.0
  0
LINE
  5
63
330
1F
100
AcDbEntity
  8
F-0
  6
JWW_HOJO
 62
     7
370
     9
100
AcDbLine
 10
2939.917396372139
 20
-3795.000003092998
 30
0.0
 11
2939.917396372139
 21
-4195.000008247994
 31
0.0
  0
LINE
  5
64
330
1F
100
AcDbEntity
  8
F-0
  6
JWW_HOJO
 62
     7
370
     9
100
AcDbLine
 10
99.91854284331623
 20
-3795.000003092998
 30
0.0
 11
99.91854284331623
 21
-4195.000008247994
 31
0.0
  0
LINE
  5
65
330
1F
100
AcDbEntity
  8
F-0
  6
JWW_HOJO
 62
     7
370
     9
100
AcDbLine
 10
4439.917891251784
 20
-3795.000003092998
 30
0.0
 11
4439.917891251784
 21
-4195.000008247994
 31
0.0
  0
LINE
  5
66
330
1F
100
AcDbEntity
  8
F-1
  6
Continuous
 62
   200
370
    20
100
AcDbLine
 10
5859.917429364114
 20
-3795.000003092998
 30
0.0
 11
-5840.081085996952
 21
-3795.000003092998
 31
0.0
  0
LINE
  5
67
330
1F
100
AcDbEntity
  8
F-1
  6
Continuous
 62
   200
370
    20
100
AcDbLine
 10
5859.917429364114
 20
-3790.000017526987
 30
0.0
 11
-5840.081085996952
 21
-3790.000017526987
 31
0.0
  0
LINE
  5
68
330
1F
100
AcDbEntity
  8
F-0
  6
JWW_HOJO
 62
     7
370
     9
100
AcDbLine
 10
-5087.628710189611
 20
-3795.000003092999
 30
0.0
 11
-5087.628710189611
 21
-4205.000164959882
 31
0.0
  0
LINE
  5
69
330
1F
100
AcDbEntity
  8
F-0
  6
JWW_HOJO
 62
     7
370
     9
100
AcDbLine
 10
-50.08145715668377
 20
-3795.000003092998
 30
0.0
 11
-50.08145715668377
 21
-4195.000008247994
 31
0.0
  0
LINE
  5
6A
330
1F
100
AcDbEntity
  8
F-0
  6
JWW_HOJO
 62
     7
370
     9
100
AcDbLine
 10
508.9185840832866
 20
-3795.000003092998
 30
0.0
 11
508.9185840832866
 21
-4195.000008247994
 31
0.0
  0
LINE
  5
6B
330
1F
100
AcDbEntity
  8
2-0
  6
JWW_HOJO
 62
     4
370
     5
100
AcDbLine
 10
-5840.081085996952
 20
3924.999983504013
 30
0.0
 11
5859.917429364114
 21
3924.999983504013
 31
0.0
  0
LINE
  5
6C
330
1F
100
AcDbEntity
  8
2-2
  6
Continuous
 62
     7
370
     0
100
AcDbLine
 10
-5840.081085996952
 20
1193.333316493679
 30
0.0
 11
5859.917429364114
 21
1193.333316493679
 31
0.0
  0
LINE
  5
6D
330
1F
100
AcDbEntity
  8
2-2
  6
Continuous
 62
     7
370
     0
100
AcDbLine
 10
-5840.081085996952
 20
-1298.333350516654
 30
0.0
 11
5859.917429364114
 21
-1298.333350516654
 31
0.0
  0
LINE
  5
6E
330
1F
100
AcDbEntity
  8
2-0
  6
JWW_HOJO
 62
     4
370
     5
100
AcDbLine
 10
-5590.081323642279
 20
1390.207714852335
 30
0.0
 11
5849.917643811961
 21
1390.207714852335
 31
0.0
  0
LINE
  5
6F
330
1F
100
AcDbEntity
  8
2-0
  6
JWW_HOJO
 62
     4
370
     5
100
AcDbLine
 10
-5590.081323642279
 20
-1101.458952158012
 30
0.0
 11
5849.917643811961
 21
-1101.458952158012
 31
0.0
  0
LINE
  5
70
330
1F
100
AcDbEntity
  8
2-0
  6
JWW_HOJO
 62
     4
370
     5
100
AcDbLine
 10
-5590.081323642279
 20
-3593.125619168345
 30
0.0
 11
5849.917643811961
 21
-3593.125619168345
 31
0.0
  0
LINE
  5
71
330
1F
100
AcDbEntity
  8
2-A
  6
Continuous
 62
     7
370
     9
100
AcDbLine
 10
-5730.081323642278
 20
4064.999983504013
 30
0.0
 11
-5730.081323642278
 21
3804.999983504013
 31
0.0
  0
LINE
  5
72
330
1F
100
AcDbEntity
  8
2-A
  6
Continuous
 62
     7
370
     9
100
AcDbLine
 10
-5730.081323642278
 20
3804.999983504013
 30
0.0
 11
-3503.694452642495
 21
3804.999983504013
 31
0.0
  0
LINE
  5
73
330
1F
100
AcDbEntity
  8
2-A
  6
Continuous
 62
     7
370
     9
100
AcDbLine
 10
-3503.694452642495
 20
4064.999983504013
 30
0.0
 11
-3503.694452642495
 21
3804.999983504013
 31
0.0
  0
LINE
  5
74
330
1F
100
AcDbEntity
  8
2-A
  6
Continuous
 62
     7
370
     9
100
AcDbLine
 10
-5730.081323642278
 20
4064.999983504013
 30
0.0
 11
-3503.694452642495
 21
4064.999983504013
 31
0.0
  0
LINE
  5
75
330
1F
100
AcDbEntity
  8
2-A
  6
Continuous
 62
     7
370
     9
100
AcDbLine
 10
-5730.081323642278
 20
1093.33331649368
 30
0.0
 11
-5730.081323642278
 21
833.3333164936791
 31
0.0
  0
LINE
  5
76
330
1F
100
AcDbEntity
  8
2-A
  6
Continuous
 62
     7
370
     9
100
AcDbLine
 10
-5730.081323642278
 20
833.3333164936791
 30
0.0
 11
-3503.694452642495
 21
833.3333164936791
 31
0.0
  0
LINE
  5
77
330
1F
100
AcDbEntity
  8
2-A
  6
Continuous
 62
     7
370
     9
100
AcDbLine
 10
-3503.694452642495
 20
1093.33331649368
 30
0.0
 11
-3503.694452642495
 21
833.3333164936791
 31
0.0
  0
LINE
  5
78
330
1F
100
AcDbEntity
  8
2-A
  6
Continuous
 62
     7
370
     9
100
AcDbLine
 10
-5730.081323642278
 20
1093.33331649368
 30
0.0
 11
-3503.694452642495
 21
1093.33331649368
 31
0.0
  0
LINE
  5
79
330
1F
100
AcDbEntity
  8
2-A
  6
Continuous
 62
     7
370
     9
100
AcDbLine
 10
-5730.081323642278
 20
-1398.333350516654
 30
0.0
 11
-5730.081323642278
 21
-1658.333350516654
 31
0.0
  0
LINE
  5
7A
330
1F
100
AcDbEntity
  8
2-A
  6
Continuous
 62
     7
370
     9
100
AcDbLine
 10
-5730.081323642278
 20
-1658.333350516654
 30
0.0
 11
-3503.694452642495
 21
-1658.333350516654
 31
0.0
  0
LINE
  5
7B
330
1F
100
AcDbEntity
  8
2-A
  6
Continuous
 62
     7
370
     9
100
AcDbLine
 10
-3503.694452642495
 20
-1398.333350516654
 30
0.0
 11
-3503.694452642495
 21
-1658.333350516654
 31
0.0
  0
LINE
  5
7C
330
1F
100
AcDbEntity
  8
2-A
  6
Continuous
 62
     7
370
     9
100
AcDbLine
 10
-5730.081323642278
 20
-1398.333350516654
 30
0.0
 11
-3503.694452642495
 21
-1398.333350516654
 31
0.0
  0
LINE
  5
7D
330
1F
100
AcDbEntity
  8
2-0
  6
JWW_HOJO
 62
     4
370
     5
100
AcDbLine
 10
9.918160084839284
 20
4164.999983504013
 30
0.0
 11
9.918160084841581
 21
-3790.000017526987
 31
0.0
  0
LINE
  5
7E
330
1F
100
AcDbEntity
  8
2-0
  6
Continuous
 62
     4
370
     5
100
AcDbLine
 10
-40.08183991515928
 20
1037.474660368634
 30
0.0
 11
1511.918160084841
 21
1037.474660368634
 31
0.0
  0
LINE
  5
7F
330
1F
100
AcDbEntity
  8
2-0
  6
Continuous
 62
     7
370
     9
100
AcDbLine
 10
1611.918160084841
 20
710.5410478419878
 30
0.0
 11
-1592.081839915159
 21
710.5410478419878
 31
0.0
  0
LINE
  5
80
330
1F
100
AcDbEntity
  8
2-0
  6
Continuous
 62
     7
370
     9
100
AcDbLine
 10
-1392.081839915159
 20
706.5410478419881
 30
0.0
 11
-1392.081839915159
 21
-733.458952158012
 31
0.0
  0
LINE
  5
81
330
1F
100
AcDbEntity
  8
2-0
  6
Continuous
 62
     7
370
     9
100
AcDbLine
 10
-1592.081839915159
 20
770.5410478419878
 30
0.0
 11
-1592.081839915159
 21
710.5410478419878
 31
0.0
  0
LINE
  5
82
330
1F
100
AcDbEntity
  8
2-0
  6
Continuous
 62
     7
370
     9
100
AcDbLine
 10
-1592.081839915159
 20
-739.458952158012
 30
0.0
 11
-1592.081839915159
 21
-799.458952158012
 31
0.0
  0
LINE
  5
83
330
1F
100
AcDbEntity
  8
2-0
  6
Continuous
 62
     7
370
     9
100
AcDbLine
 10
1511.918160084841
 20
-733.458952158012
 30
0.0
 11
-1492.081839915159
 21
-733.458952158012
 31
0.0
  0
LINE
  5
84
330
1F
100
AcDbEntity
  8
2-0
  6
Continuous
 62
     7
370
     9
100
AcDbLine
 10
1511.918160084841
 20
706.5410478419881
 30
0.0
 11
-1492.081839915159
 21
706.5410478419881
 31
0.0
  0
LINE
  5
85
330
1F
100
AcDbEntity
  8
2-0
  6
Continuous
 62
     7
370
     9
100
AcDbLine
 10
-1492.081839915159
 20
706.5410478419881
 30
0.0
 11
-1492.081839915159
 21
-733.458952158012
 31
0.0
  0
LINE
  5
86
330
1F
100
AcDbEntity
  8
2-0
  6
Continuous
 62
     7
370
     9
100
AcDbLine
 10
1411.918160084841
 20
706.5410478419881
 30
0.0
 11
1411.918160084841
 21
-733.458952158012
 31
0.0
  0
LINE
  5
87
330
1F
100
AcDbEntity
  8
2-0
  6
Continuous
 62
     7
370
     9
100
AcDbLine
 10
-1592.081839915159
 20
770.5410478419878
 30
0.0
 11
1611.918160084841
 21
770.5410478419878
 31
0.0
  0
LINE
  5
88
330
1F
100
AcDbEntity
  8
2-0
  6
Continuous
 62
     7
370
     9
100
AcDbLine
 10
1611.918160084841
 20
770.5410478419878
 30
0.0
 11
1611.918160084841
 21
710.5410478419878
 31
0.0
  0
LINE
  5
89
330
1F
100
AcDbEntity
  8
2-0
  6
Continuous
 62
     7
370
     9
100
AcDbLine
 10
-1592.081839915159
 20
-799.458952158012
 30
0.0
 11
1611.918160084841
 21
-799.458952158012
 31
0.0
  0
LINE
  5
8A
330
1F
100
AcDbEntity
  8
2-0
  6
Continuous
 62
     7
370
     9
100
AcDbLine
 10
1611.918160084841
 20
-739.458952158012
 30
0.0
 11
1611.918160084841
 21
-799.458952158012
 31
0.0
  0
LINE
  5
8B
330
1F
100
AcDbEntity
  8
2-0
  6
Continuous
 62
     7
370
     9
100
AcDbLine
 10
-1592.081839915159
 20
-739.458952158012
 30
0.0
 11
1611.918160084841
 21
-739.458952158012
 31
0.0
  0
LINE
  5
8C
330
1F
100
AcDbEntity
  8
2-0
  6
Continuous
 62
     7
370
     9
100
AcDbLine
 10
1511.918160084841
 20
706.5410478419881
 30
0.0
 11
1511.918160084841
 21
-733.458952158012
 31
0.0
  0
LINE
  5
8D
330
1F
100
AcDbEntity
  8
2-0
  6
Continuous
 62
     7
370
     9
100
AcDbLine
 10
59.91816008484072
 20
706.5410478419881
 30
0.0
 11
59.91816008484072
 21
-733.458952158012
 31
0.0
  0
LINE
  5
8E
330
1F
100
AcDbEntity
  8
2-0
  6
Continuous
 62
     7
370
     9
100
AcDbLine
 10
-40.08183991515928
 20
706.5410478419881
 30
0.0
 11
-40.08183991515928
 21
-733.458952158012
 31
0.0
  0
LINE
  5
8F
330
1F
100
AcDbEntity
  8
2-0
  6
Continuous
 62
     7
370
     9
100
AcDbLine
 10
-1002.081839915159
 20
-799.458952158012
 30
0.0
 11
-1002.081839915159
 21
-1101.458952158012
 31
0.0
  0
LINE
  5
90
330
1F
100
AcDbEntity
  8
2-0
  6
Continuous
 62
     7
370
     9
100
AcDbLine
 10
-1062.081839915159
 20
-799.458952158012
 30
0.0
 11
-1062.081839915159
 21
-1101.458952158012
 31
0.0
  0
LINE
  5
91
330
1F
100
AcDbEntity
  8
2-0
  6
Continuous
 62
     7
370
     9
100
AcDbLine
 10
1111.918160084841
 20
-799.458952158012
 30
0.0
 11
1111.918160084841
 21
-1101.458952158012
 31
0.0
  0
LINE
  5
92
330
1F
100
AcDbEntity
  8
2-0
  6
Continuous
 62
     7
370
     9
100
AcDbLine
 10
1051.918160084841
 20
-799.458952158012
 30
0.0
 11
1051.918160084841
 21
-1101.458952158012
 31
0.0
  0
LINE
  5
93
330
1F
100
AcDbEntity
  8
2-0
  6
Continuous
 62
     4
370
     5
100
AcDbLine
 10
1863.764737434108
 20
706.5410478419881
 30
0.0
 11
1863.764737434108
 21
-733.458952158012
 31
0.0
  0
LWPOLYLINE
  5
94
330
1F
100
AcDbEntity
  8
2-0
  6
Continuous
 62
     4
370
     5
100
AcDbPolyline
 90
        4
 70
     1
 43
3.0
 10
1865.264737434108
 20
706.5410478419881
 42
0.4142135623731
 10
1863.764737434108
 20
708.0410478419881
 42
0.4142135623731
 10
1862.264737434108
 20
706.5410478419881
 42
0.4142135623731
 10
1863.764737434108
 20
705.0410478419881
 42
0.4142135623731
  0
LWPOLYLINE
  5
95
330
1F
100
AcDbEntity
  8
2-0
  6
Continuous
 62
     4
370
     5
100
AcDbPolyline
 90
        4
 70
     1
 43
3.0
 10
1865.264737434108
 20
-733.458952158012
 42
0.4142135623731
 10
1863.764737434108
 20
-731.958952158012
 42
0.4142135623731
 10
1862.264737434108
 20
-733.458952158012
 42
0.4142135623731
 10
1863.764737434108
 20
-734.958952158012
 42
0.4142135623731
  0
LINE
  5
96
330
1F
100
AcDbEntity
  8
2-0
  6
Continuous
 62
     7
370
     9
100
AcDbLine
 10
1863.764737434108
 20
706.5410478419881
 30
0.0
 11
1721.57205639619
 21
706.5410478419881
 31
0.0
  0
LINE
  5
97
330
1F
100
AcDbEntity
  8
2-0
  6
Continuous
 62
     7
370
     9
100
AcDbLine
 10
1863.764737434108
 20
-733.458952158012
 30
0.0
 11
1721.57205639619
 21
-733.458952158012
 31
0.0
  0
LINE
  5
98
330
1F
100
AcDbEntity
  8
2-0
  6
JWW_CENTER1
 62
     3
370
    13
100
AcDbLine
 10
9.918160084840718
 20
839.548045510587
 30
0.0
 11
9.918160084840718
 21
-775.5909426683543
 31
0.0
  0
LINE
  5
99
330
1F
100
AcDbEntity
  8
2-0
  6
Continuous
 62
     7
370
     9
100
AcDbLine
 10
-1592.081839915159
 20
1037.474660368634
 30
0.0
 11
-1592.081839915159
 21
812.2174378516501
 31
0.0
  0
LINE
  5
9A
330
1F
100
AcDbEntity
  8
2-0
  6
Continuous
 62
     7
370
     9
100
AcDbLine
 10
1611.918160084841
 20
1037.474660368634
 30
0.0
 11
1611.918160084841
 21
812.2174378516501
 31
0.0
  0
LINE
  5
9B
330
1F
100
AcDbEntity
  8
2-0
  6
Continuous
 62
     4
370
     5
100
AcDbLine
 10
-1592.081839915159
 20
1037.474660368634
 30
0.0
 11
1611.918160084841
 21
1037.474660368634
 31
0.0
  0
LWPOLYLINE
  5
9C
330
1F
100
AcDbEntity
  8
2-0
  6
Continuous
 62
     4
370
     5
100
AcDbPolyline
 90
        4
 70
     1
 43
3.0
 10
-1590.581839915159
 20
1037.474660368634
 42
0.4142135623731
 10
-1592.081839915159
 20
1038.974660368633
 42
0.4142135623731
 10
-1593.581839915159
 20
1037.474660368634
 42
0.4142135623731
 10
-1592.081839915159
 20
1035.974660368634
 42
0.4142135623731
  0
LWPOLYLINE
  5
9D
330
1F
100
AcDbEntity
  8
2-0
  6
Continuous
 62
     4
370
     5
100
AcDbPolyline
 90
        4
 70
     1
 43
3.0
 10
1613.418160084841
 20
1037.474660368634
 42
0.4142135623731
 10
1611.918160084841
 20
1038.974660368633
 42
0.4142135623731
 10
1610.418160084841
 20
1037.474660368634
 42
0.4142135623731
 10
1611.918160084841
 20
1035.974660368634
 42
0.4142135623731
  0
LINE
  5
9E
330
1F
100
AcDbEntity
  8
2-0
  6
Continuous
 62
     7
370
     9
100
AcDbLine
 10
-1062.081839915159
 20
-1101.458952158012
 30
0.0
 11
-1002.081839915159
 21
-1101.458952158012
 31
0.0
  0
LINE
  5
9F
330
1F
100
AcDbEntity
  8
2-0
  6
Continuous
 62
     7
370
     9
100
AcDbLine
 10
1051.918160084841
 20
-1101.458952158012
 30
0.0
 11
1111.918160084841
 21
-1101.458952158012
 31
0.0
  0
LINE
  5
A0
330
1F
100
AcDbEntity
  8
2-0
  6
Continuous
 62
     7
370
     9
100
AcDbLine
 10
-1358.081839915161
 20
-3291.125619168345
 30
0.0
 11
-1358.081839915161
 21
-3593.125619168345
 31
0.0
  0
LINE
  5
A1
330
1F
100
AcDbEntity
  8
2-0
  6
Continuous
 62
     7
370
     9
100
AcDbLine
 10
1877.91816008484
 20
-1781.125619168345
 30
0.0
 11
-1858.081839915161
 21
-1781.125619168345
 31
0.0
  0
LINE
  5
A2
330
1F
100
AcDbEntity
  8
2-0
  6
JWW_CENTER1
 62
     3
370
    13
100
AcDbLine
 10
9.918160084839355
 20
-1652.118621499746
 30
0.0
 11
9.918160084839355
 21
-3333.682867309802
 31
0.0
  0
LINE
  5
A3
330
1F
100
AcDbEntity
  8
2-0
  6
Continuous
 62
     7
370
     9
100
AcDbLine
 10
-1858.081839915161
 20
-1721.125619168345
 30
0.0
 11
-1858.081839915161
 21
-1781.125619168345
 31
0.0
  0
LINE
  5
A4
330
1F
100
AcDbEntity
  8
2-0
  6
Continuous
 62
     7
370
     9
100
AcDbLine
 10
-1858.081839915161
 20
-3231.125619168345
 30
0.0
 11
-1858.081839915161
 21
-3291.125619168345
 31
0.0
  0
LINE
  5
A5
330
1F
100
AcDbEntity
  8
2-0
  6
Continuous
 62
     7
370
     9
100
AcDbLine
 10
1777.918160084839
 20
-3225.125619168345
 30
0.0
 11
-1858.081839915161
 21
-3225.125619168345
 31
0.0
  0
LINE
  5
A6
330
1F
100
AcDbEntity
  8
2-0
  6
Continuous
 62
     7
370
     9
100
AcDbLine
 10
1877.91816008484
 20
-1721.125619168345
 30
0.0
 11
1877.91816008484
 21
-1781.125619168345
 31
0.0
  0
LINE
  5
A7
330
1F
100
AcDbEntity
  8
2-0
  6
Continuous
 62
     7
370
     9
100
AcDbLine
 10
1877.91816008484
 20
-3231.125619168345
 30
0.0
 11
1877.91816008484
 21
-3291.125619168345
 31
0.0
  0
LINE
  5
A8
330
1F
100
AcDbEntity
  8
2-0
  6
Continuous
 62
     4
370
     5
100
AcDbLine
 10
2082.932655776941
 20
-1785.125619168344
 30
0.0
 11
2082.932655776941
 21
-3225.125619168345
 31
0.0
  0
LWPOLYLINE
  5
A9
330
1F
100
AcDbEntity
  8
2-0
  6
Continuous
 62
     4
370
     5
100
AcDbPolyline
 90
        4
 70
     1
 43
3.0
 10
2084.432655776941
 20
-1785.125619168344
 42
0.4142135623731
 10
2082.932655776941
 20
-1783.625619168344
 42
0.4142135623731
 10
2081.432655776941
 20
-1785.125619168344
 42
0.4142135623731
 10
2082.932655776941
 20
-1786.625619168344
 42
0.4142135623731
  0
LWPOLYLINE
  5
AA
330
1F
100
AcDbEntity
  8
2-0
  6
Continuous
 62
     4
370
     5
100
AcDbPolyline
 90
        4
 70
     1
 43
3.0
 10
2084.432655776941
 20
-3225.125619168345
 42
0.4142135623731
 10
2082.932655776941
 20
-3223.625619168346
 42
0.4142135623731
 10
2081.432655776941
 20
-3225.125619168345
 42
0.4142135623731
 10
2082.932655776941
 20
-3226.625619168345
 42
0.4142135623731
  0
LINE
  5
AB
330
1F
100
AcDbEntity
  8
2-0
  6
Continuous
 62
     7
370
     9
100
AcDbLine
 10
2082.932655776941
 20
-1785.125619168344
 30
0.0
 11
1940.739974739024
 21
-1785.125619168344
 31
0.0
  0
LINE
  5
AC
330
1F
100
AcDbEntity
  8
2-0
  6
Continuous
 62
     7
370
     9
100
AcDbLine
 10
2082.932655776941
 20
-3225.125619168345
 30
0.0
 11
1940.739974739024
 21
-3225.125619168345
 31
0.0
  0
LINE
  5
AD
330
1F
100
AcDbEntity
  8
2-0
  6
Continuous
 62
     7
370
     9
100
AcDbLine
 10
-1858.081839915161
 20
-1721.125619168345
 30
0.0
 11
1877.91816008484
 21
-1721.125619168345
 31
0.0
  0
LINE
  5
AE
330
1F
100
AcDbEntity
  8
2-0
  6
Continuous
 62
     7
370
     9
100
AcDbLine
 10
-1858.081839915161
 20
-3231.125619168345
 30
0.0
 11
1877.91816008484
 21
-3231.125619168345
 31
0.0
  0
LINE
  5
AF
330
1F
100
AcDbEntity
  8
2-0
  6
Continuous
 62
     7
370
     9
100
AcDbLine
 10
-1858.081839915161
 20
-3291.125619168345
 30
0.0
 11
1877.91816008484
 21
-3291.125619168345
 31
0.0
  0
LINE
  5
B0
330
1F
100
AcDbEntity
  8
2-0
  6
Continuous
 62
     7
370
     9
100
AcDbLine
 10
-40.08183991516065
 20
-1785.125619168344
 30
0.0
 11
-40.08183991516065
 21
-3225.125619168345
 31
0.0
  0
LINE
  5
B1
330
1F
100
AcDbEntity
  8
2-0
  6
Continuous
 62
     7
370
     9
100
AcDbLine
 10
1777.918160084839
 20
-1785.125619168344
 30
0.0
 11
1777.918160084839
 21
-3225.125619168345
 31
0.0
  0
LINE
  5
B2
330
1F
100
AcDbEntity
  8
2-0
  6
Continuous
 62
     7
370
     9
100
AcDbLine
 10
1777.918160084839
 20
-1785.125619168344
 30
0.0
 11
-1758.08183991516
 21
-1785.125619168344
 31
0.0
  0
LINE
  5
B3
330
1F
100
AcDbEntity
  8
2-0
  6
Continuous
 62
     7
370
     9
100
AcDbLine
 10
59.91816008483936
 20
-1785.125619168344
 30
0.0
 11
59.91816008483936
 21
-3225.125619168345
 31
0.0
  0
LINE
  5
B4
330
1F
100
AcDbEntity
  8
2-0
  6
Continuous
 62
     7
370
     9
100
AcDbLine
 10
1677.918160084839
 20
-1785.125619168344
 30
0.0
 11
1677.918160084839
 21
-3225.125619168345
 31
0.0
  0
LINE
  5
B5
330
1F
100
AcDbEntity
  8
2-0
  6
Continuous
 62
     7
370
     9
100
AcDbLine
 10
-1758.08183991516
 20
-1785.125619168344
 30
0.0
 11
-1758.08183991516
 21
-3225.125619168345
 31
0.0
  0
LINE
  5
B6
330
1F
100
AcDbEntity
  8
2-0
  6
Continuous
 62
     7
370
     9
100
AcDbLine
 10
-1658.08183991516
 20
-1785.125619168344
 30
0.0
 11
-1658.08183991516
 21
-3225.125619168345
 31
0.0
  0
LINE
  5
B7
330
1F
100
AcDbEntity
  8
2-0
  6
Continuous
 62
     7
370
     9
100
AcDbLine
 10
-1298.081839915161
 20
-3291.125619168345
 30
0.0
 11
-1298.081839915161
 21
-3593.125619168345
 31
0.0
  0
LINE
  5
B8
330
1F
100
AcDbEntity
  8
2-0
  6
Continuous
 62
     7
370
     9
100
AcDbLine
 10
1377.91816008484
 20
-3291.125619168345
 30
0.0
 11
1377.91816008484
 21
-3593.125619168345
 31
0.0
  0
LINE
  5
B9
330
1F
100
AcDbEntity
  8
2-0
  6
Continuous
 62
     7
370
     9
100
AcDbLine
 10
1317.91816008484
 20
-3291.125619168345
 30
0.0
 11
1317.91816008484
 21
-3593.125619168345
 31
0.0
  0
LINE
  5
BA
330
1F
100
AcDbEntity
  8
2-0
  6
Continuous
 62
     7
370
     9
100
AcDbLine
 10
1877.91816008484
 20
-1454.192006641699
 30
0.0
 11
1877.91816008484
 21
-1679.449229158683
 31
0.0
  0
LINE
  5
BB
330
1F
100
AcDbEntity
  8
2-0
  6
Continuous
 62
     7
370
     9
100
AcDbLine
 10
-1858.081839915161
 20
-1454.192006641699
 30
0.0
 11
-1858.081839915161
 21
-1679.449229158683
 31
0.0
  0
LINE
  5
BC
330
1F
100
AcDbEntity
  8
2-0
  6
Continuous
 62
     4
370
     5
100
AcDbLine
 10
1877.91816008484
 20
-1454.192006641699
 30
0.0
 11
-1858.081839915161
 21
-1454.192006641699
 31
0.0
  0
LWPOLYLINE
  5
BD
330
1F
100
AcDbEntity
  8
2-0
  6
Continuous
 62
     4
370
     5
100
AcDbPolyline
 90
        4
 70
     1
 43
3.0
 10
1879.41816008484
 20
-1454.192006641699
 42
0.4142135623731
 10
1877.91816008484
 20
-1452.6920066417
 42
0.4142135623731
 10
1876.41816008484
 20
-1454.192006641699
 42
0.4142135623731
 10
1877.91816008484
 20
-1455.692006641699
 42
0.4142135623731
  0
LWPOLYLINE
  5
BE
330
1F
100
AcDbEntity
  8
2-0
  6
Continuous
 62
     4
370
     5
100
AcDbPolyline
 90
        4
 70
     1
 43
3.0
 10
-1856.581839915161
 20
-1454.192006641699
 42
0.4142135623731
 10
-1858.081839915161
 20
-1452.6920066417
 42
0.4142135623731
 10
-1859.581839915161
 20
-1454.192006641699
 42
0.4142135623731
 10
-1858.081839915161
 20
-1455.692006641699
 42
0.4142135623731
  0
LINE
  5
BF
330
1F
100
AcDbEntity
  8
2-0
  6
Continuous
 62
     7
370
     9
100
AcDbLine
 10
-1358.081839915161
 20
-3593.125619168345
 30
0.0
 11
-1298.081839915161
 21
-3593.125619168345
 31
0.0
  0
LINE
  5
C0
330
1F
100
AcDbEntity
  8
2-0
  6
Continuous
 62
     7
370
     9
100
AcDbLine
 10
1377.91816008484
 20
-3593.125619168345
 30
0.0
 11
1317.91816008484
 21
-3593.125619168345
 31
0.0
  0
LINE
  5
C1
330
1F
100
AcDbEntity
  8
2-0
  6
Continuous
 62
     7
370
     9
100
AcDbLine
 10
-1192.081839915161
 20
1692.207714852334
 30
0.0
 11
1211.91816008484
 21
1692.207714852334
 31
0.0
  0
LINE
  5
C2
330
1F
100
AcDbEntity
  8
2-0
  6
Continuous
 62
     7
370
     9
100
AcDbLine
 10
1211.91816008484
 20
1752.207714852334
 30
0.0
 11
1211.91816008484
 21
1692.207714852334
 31
0.0
  0
LINE
  5
C3
330
1F
100
AcDbEntity
  8
2-0
  6
Continuous
 62
     7
370
     9
100
AcDbLine
 10
-1192.081839915161
 20
1752.207714852334
 30
0.0
 11
1211.91816008484
 21
1752.207714852334
 31
0.0
  0
LINE
  5
C4
330
1F
100
AcDbEntity
  8
2-0
  6
Continuous
 62
     7
370
     9
100
AcDbLine
 10
1211.91816008484
 20
3262.207714852335
 30
0.0
 11
1211.91816008484
 21
3202.207714852335
 31
0.0
  0
LINE
  5
C5
330
1F
100
AcDbEntity
  8
2-0
  6
Continuous
 62
     7
370
     9
100
AcDbLine
 10
-1192.081839915161
 20
3262.207714852335
 30
0.0
 11
1211.91816008484
 21
3262.207714852335
 31
0.0
  0
LINE
  5
C6
330
1F
100
AcDbEntity
  8
2-0
  6
Continuous
 62
     7
370
     9
100
AcDbLine
 10
-1192.081839915161
 20
1752.207714852334
 30
0.0
 11
-1192.081839915161
 21
1692.207714852334
 31
0.0
  0
LINE
  5
C7
330
1F
100
AcDbEntity
  8
2-0
  6
Continuous
 62
     4
370
     5
100
AcDbLine
 10
1532.932655776941
 20
3198.207714852334
 30
0.0
 11
1532.932655776941
 21
1758.207714852334
 31
0.0
  0
LWPOLYLINE
  5
C8
330
1F
100
AcDbEntity
  8
2-0
  6
Continuous
 62
     4
370
     5
100
AcDbPolyline
 90
        4
 70
     1
 43
3.0
 10
1534.432655776941
 20
3198.207714852334
 42
0.4142135623731
 10
1532.932655776941
 20
3199.707714852334
 42
0.4142135623731
 10
1531.432655776941
 20
3198.207714852334
 42
0.4142135623731
 10
1532.932655776941
 20
3196.707714852334
 42
0.4142135623731
  0
LWPOLYLINE
  5
C9
330
1F
100
AcDbEntity
  8
2-0
  6
Continuous
 62
     4
370
     5
100
AcDbPolyline
 90
        4
 70
     1
 43
3.0
 10
1534.432655776941
 20
1758.207714852334
 42
0.4142135623731
 10
1532.932655776941
 20
1759.707714852334
 42
0.4142135623731
 10
1531.432655776941
 20
1758.207714852334
 42
0.4142135623731
 10
1532.932655776941
 20
1756.707714852334
 42
0.4142135623731
  0
LINE
  5
CA
330
1F
100
AcDbEntity
  8
2-0
  6
Continuous
 62
     7
370
     9
100
AcDbLine
 10
59.91816008483951
 20
3198.207714852334
 30
0.0
 11
59.91816008483951
 21
1758.207714852334
 31
0.0
  0
LINE
  5
CB
330
1F
100
AcDbEntity
  8
2-0
  6
Continuous
 62
     7
370
     9
100
AcDbLine
 10
-40.08183991516034
 20
3198.207714852334
 30
0.0
 11
-40.08183991516034
 21
1758.207714852334
 31
0.0
  0
LINE
  5
CC
330
1F
100
AcDbEntity
  8
2-0
  6
JWW_CENTER1
 62
     3
370
    13
100
AcDbLine
 10
9.918160084839585
 20
3331.214712520934
 30
0.0
 11
9.918160084839585
 21
1649.650466710878
 31
0.0
  0
LINE
  5
CD
330
1F
100
AcDbEntity
  8
2-0
  6
Continuous
 62
     7
370
     9
100
AcDbLine
 10
-40.08183991516034
 20
3198.207714852334
 30
0.0
 11
-40.08183991516034
 21
1758.207714852334
 31
0.0
  0
LINE
  5
CE
330
1F
100
AcDbEntity
  8
2-0
  6
Continuous
 62
     7
370
     9
100
AcDbLine
 10
59.91816008483941
 20
3198.207714852334
 30
0.0
 11
59.91816008483941
 21
1758.207714852334
 31
0.0
  0
LINE
  5
CF
330
1F
100
AcDbEntity
  8
2-0
  6
Continuous
 62
     3
370
    13
100
AcDbLine
 10
-40.08183991516034
 20
3198.207714852334
 30
0.0
 11
-40.08183991516034
 21
1758.207714852334
 31
0.0
  0
LINE
  5
D0
330
1F
100
AcDbEntity
  8
2-0
  6
Continuous
 62
     3
370
    13
100
AcDbLine
 10
59.91816008483951
 20
3198.207714852334
 30
0.0
 11
59.91816008483951
 21
1758.207714852334
 31
0.0
  0
LINE
  5
D1
330
1F
100
AcDbEntity
  8
2-0
  6
Continuous
 62
     4
370
     5
100
AcDbLine
 10
1532.932655776941
 20
1758.207714852334
 30
0.0
 11
1390.739974739023
 21
1758.207714852334
 31
0.0
  0
LINE
  5
D2
330
1F
100
AcDbEntity
  8
2-0
  6
Continuous
 62
     4
370
     5
100
AcDbLine
 10
1532.932655776941
 20
3198.207714852334
 30
0.0
 11
1390.739974739023
 21
3198.207714852334
 31
0.0
  0
LINE
  5
D3
330
1F
100
AcDbEntity
  8
2-0
  6
Continuous
 62
     7
370
     9
100
AcDbLine
 10
-1192.081839915161
 20
3262.207714852335
 30
0.0
 11
-1192.081839915161
 21
3202.207714852335
 31
0.0
  0
LINE
  5
D4
330
1F
100
AcDbEntity
  8
2-0
  6
Continuous
 62
     7
370
     9
100
AcDbLine
 10
-1192.081839915161
 20
3202.207714852335
 30
0.0
 11
1211.91816008484
 21
3202.207714852335
 31
0.0
  0
LINE
  5
D5
330
1F
100
AcDbEntity
  8
2-0
  6
Continuous
 62
     7
370
     9
100
AcDbLine
 10
1111.91816008484
 20
3198.207714852334
 30
0.0
 11
-1092.081839915161
 21
3198.207714852334
 31
0.0
  0
LINE
  5
D6
330
1F
100
AcDbEntity
  8
2-0
  6
Continuous
 62
     7
370
     9
100
AcDbLine
 10
1111.91816008484
 20
1758.207714852334
 30
0.0
 11
-1092.081839915161
 21
1758.207714852334
 31
0.0
  0
LINE
  5
D7
330
1F
100
AcDbEntity
  8
2-0
  6
Continuous
 62
     7
370
     9
100
AcDbLine
 10
-1092.081839915161
 20
3198.207714852334
 30
0.0
 11
-1092.081839915161
 21
1758.207714852334
 31
0.0
  0
LINE
  5
D8
330
1F
100
AcDbEntity
  8
2-0
  6
Continuous
 62
     7
370
     9
100
AcDbLine
 10
-992.0818399151603
 20
3198.207714852334
 30
0.0
 11
-992.0818399151603
 21
1758.207714852334
 31
0.0
  0
LINE
  5
D9
330
1F
100
AcDbEntity
  8
2-0
  6
Continuous
 62
     7
370
     9
100
AcDbLine
 10
1011.91816008484
 20
3202.207714852335
 30
0.0
 11
1011.91816008484
 21
1758.207714852334
 31
0.0
  0
LINE
  5
DA
330
1F
100
AcDbEntity
  8
2-0
  6
Continuous
 62
     7
370
     9
100
AcDbLine
 10
1111.91816008484
 20
3198.207714852334
 30
0.0
 11
1111.91816008484
 21
1758.207714852334
 31
0.0
  0
LINE
  5
DB
330
1F
100
AcDbEntity
  8
2-0
  6
Continuous
 62
     7
370
     9
100
AcDbLine
 10
-692.0818399151611
 20
1692.207714852334
 30
0.0
 11
-692.0818399151611
 21
1390.207714852335
 31
0.0
  0
LINE
  5
DC
330
1F
100
AcDbEntity
  8
2-0
  6
Continuous
 62
     7
370
     9
100
AcDbLine
 10
-632.0818399151611
 20
1692.207714852334
 30
0.0
 11
-632.0818399151611
 21
1390.207714852335
 31
0.0
  0
LINE
  5
DD
330
1F
100
AcDbEntity
  8
2-0
  6
Continuous
 62
     7
370
     9
100
AcDbLine
 10
711.9181600848401
 20
1692.207714852334
 30
0.0
 11
711.9181600848401
 21
1390.207714852335
 31
0.0
  0
LINE
  5
DE
330
1F
100
AcDbEntity
  8
2-0
  6
Continuous
 62
     7
370
     9
100
AcDbLine
 10
651.9181600848401
 20
1692.207714852334
 30
0.0
 11
651.9181600848401
 21
1390.207714852335
 31
0.0
  0
LINE
  5
DF
330
1F
100
AcDbEntity
  8
2-0
  6
Continuous
 62
     7
370
     9
100
AcDbLine
 10
-1192.081839915161
 20
3495.4605225768
 30
0.0
 11
-1192.081839915161
 21
3354.678399671771
 31
0.0
  0
LINE
  5
E0
330
1F
100
AcDbEntity
  8
2-0
  6
Continuous
 62
     7
370
     9
100
AcDbLine
 10
1211.91816008484
 20
3495.4605225768
 30
0.0
 11
1211.91816008484
 21
3354.678399671771
 31
0.0
  0
LINE
  5
E1
330
1F
100
AcDbEntity
  8
2-0
  6
Continuous
 62
     4
370
     5
100
AcDbLine
 10
-1192.081839915161
 20
3495.4605225768
 30
0.0
 11
1211.91816008484
 21
3495.4605225768
 31
0.0
  0
LWPOLYLINE
  5
E2
330
1F
100
AcDbEntity
  8
2-0
  6
Continuous
 62
     4
370
     5
100
AcDbPolyline
 90
        4
 70
     1
 43
3.0
 10
-1190.581839915161
 20
3495.4605225768
 42
0.4142135623731
 10
-1192.081839915161
 20
3496.9605225768
 42
0.4142135623731
 10
-1193.581839915161
 20
3495.4605225768
 42
0.4142135623731
 10
-1192.081839915161
 20
3493.9605225768
 42
0.4142135623731
  0
LWPOLYLINE
  5
E3
330
1F
100
AcDbEntity
  8
2-0
  6
Continuous
 62
     4
370
     5
100
AcDbPolyline
 90
        4
 70
     1
 43
3.0
 10
1213.41816008484
 20
3495.4605225768
 42
0.4142135623731
 10
1211.91816008484
 20
3496.9605225768
 42
0.4142135623731
 10
1210.41816008484
 20
3495.4605225768
 42
0.4142135623731
 10
1211.91816008484
 20
3493.9605225768
 42
0.4142135623731
  0
LINE
  5
E4
330
1F
100
AcDbEntity
  8
2-0
  6
Continuous
 62
     7
370
     9
100
AcDbLine
 10
651.9181600848401
 20
1390.207714852335
 30
0.0
 11
711.9181600848401
 21
1390.207714852335
 31
0.0
  0
LINE
  5
E5
330
1F
100
AcDbEntity
  8
2-0
  6
Continuous
 62
     7
370
     9
100
AcDbLine
 10
-692.0818399151611
 20
1390.207714852335
 30
0.0
 11
-632.0818399151611
 21
1390.207714852335
 31
0.0
  0
MTEXT
  5
E6
330
1F
100
AcDbEntity
  8
2-0
  6
Continuous
 62
     7
370
     0
100
AcDbMText
 10
-155.0818399151604
 20
3475.752522576798
 30
0.0
 40
100.584
 41
330.0
 46
0.0
 71
     7
 72
     1
  1
{\fＭＳ ゴシック|b0|i0|c128|p49;1,202}
 73
     1
 44
1.0
  0
MTEXT
  5
E7
330
1F
100
AcDbEntity
  8
2-0
  6
Continuous
 62
     7
370
     0
100
AcDbMText
 10
1542.932655776941
 20
2282.353623943244
 30
0.0
 40
100.7918181818182
 41
727.5
 46
0.0
 71
     7
 72
     1
  1
{\fＭＳ ゴシック|b0|i0|c128|p49;720(引戸H）}
 11
6.123031769111886E-17
 21
1.0
 31
0.0
 73
     1
 44
1.0
  0
MTEXT
  5
E8
330
1F
100
AcDbEntity
  8
2-0
  6
Continuous
 62
     7
370
   211
100
AcDbMText
 10
-93.21481007421964
 20
1031.281658648967
 30
0.0
 40
100.584
 41
330.0
 46
0.0
 71
     7
 72
     1
  1
{\fＭＳ ゴシック|b0|i0|c128|p49;1,602}
 73
     1
 44
1.0
  0
MTEXT
  5
E9
330
1F
100
AcDbEntity
  8
2-0
  6
Continuous
 62
     7
370
   211
100
AcDbMText
 10
1873.764737434108
 20
-209.3130430671027
 30
0.0
 40
100.7918181818182
 41
727.5
 46
0.0
 71
     7
 72
     1
  1
{\fＭＳ ゴシック|b0|i0|c128|p49;720(引戸H）}
 11
6.123031769111886E-17
 21
1.0
 31
0.0
 73
     1
 44
1.0
  0
MTEXT
  5
EA
330
1F
100
AcDbEntity
  8
2-0
  6
Continuous
 62
     7
370
   211
100
AcDbMText
 10
-155.0818399151607
 20
-1473.9000066417
 30
0.0
 40
100.584
 41
330.0
 46
0.0
 71
     7
 72
     1
  1
{\fＭＳ ゴシック|b0|i0|c128|p49;1,868}
 73
     1
 44
1.0
  0
MTEXT
  5
EB
330
1F
100
AcDbEntity
  8
2-0
  6
Continuous
 62
     7
370
   211
100
AcDbMText
 10
2092.932655776942
 20
-2700.979710077435
 30
0.0
 40
100.7918181818182
 41
727.5
 46
0.0
 71
     7
 72
     1
  1
{\fＭＳ ゴシック|b0|i0|c128|p49;720(引戸H）}
 11
6.123031769111886E-17
 21
1.0
 31
0.0
 73
     1
 44
1.0
  0
MTEXT
  5
EC
330
1F
100
AcDbEntity
  8
2-A
  6
Continuous
 62
     7
370
     9
100
AcDbMText
 10
-5352.857142857144
 20
3865.915438049467
 30
0.0
 40
101.8309090909091
 41
1470.0
 46
0.0
 71
     7
 72
     1
  1
{\fＭＳ ゴシック|b0|i0|c128|p49;舞良戸　Ｗ＝４尺タイプ}
 73
     1
 44
1.0
  0
MTEXT
  5
ED
330
1F
100
AcDbEntity
  8
2-A
  6
Continuous
 62
     7
370
     9
100
AcDbMText
 10
-5352.857142857144
 20
894.248771039134
 30
0.0
 40
101.8309090909091
 41
1470.0
 46
0.0
 71
     7
 72
     1
  1
{\fＭＳ ゴシック|b0|i0|c128|p49;舞良戸　Ｗ＝５尺タイプ}
 73
     1
 44
1.0
  0
MTEXT
  5
EE
330
1F
100
AcDbEntity
  8
2-A
  6
Continuous
 62
     7
370
     9
100
AcDbMText
 10
-5352.857142857144
 20
-1597.417895971199
 30
0.0
 40
101.8309090909091
 41
1470.0
 46
0.0
 71
     7
 72
     1
  1
{\fＭＳ ゴシック|b0|i0|c128|p49;舞良戸　Ｗ＝６尺タイプ}
 73
     1
 44
1.0
  0
MTEXT
  5
EF
330
1F
100
AcDbEntity
  8
F-A
  6
Continuous
 62
     7
370
     0
100
AcDbMText
 10
99.91854284331623
 20
-3887.139820871936
 30
0.0
 40
45.72
 41
180.0
 46
0.0
 71
     7
 72
     1
  1
{\fＭＳ ゴシック|b0|i0|c128|p49;図面名}
 73
     1
 44
1.0
  0
MTEXT
  5
F0
330
1F
100
AcDbEntity
  8
F-A
  6
Continuous
 62
     7
370
     0
100
AcDbMText
 10
2939.917396372139
 20
-3887.142460617774
 30
0.0
 40
45.72
 41
300.0
 46
0.0
 71
     7
 72
     1
  1
{\fＭＳ ゴシック|b0|i0|c128|p49;ＳＣＡＬＥ}
 73
     1
 44
1.0
  0
MTEXT
  5
F1
330
1F
100
AcDbEntity
  8
F-A
  6
Continuous
 62
     7
370
     0
100
AcDbMText
 10
4439.917891251784
 20
-3887.143854850754
 30
0.0
 40
45.72
 41
240.0
 46
0.0
 71
     7
 72
     1
  1
{\fＭＳ ゴシック|b0|i0|c128|p49;ＤＡＴＥ}
 73
     1
 44
1.0
  0
MTEXT
  5
F2
330
1F
100
AcDbEntity
  8
F-A
  6
Continuous
 62
     7
370
     0
100
AcDbMText
 10
1340.336368466946
 20
-3946.138161599839
 30
0.0
 40
77.724
 41
510.0
 46
0.0
 71
     7
 72
     1
  1
{\fＭＳ ゴシック|b0|i0|c128|p49;和風下駄箱}
 73
     1
 44
1.0
  0
MTEXT
  5
F3
330
1F
100
AcDbEntity
  8
F-A
  6
Continuous
 62
     7
370
     0
100
AcDbMText
 10
3412.41764381196
 20
-3946.426865907308
 30
0.0
 40
77.15249999999999
 41
202.5
 46
0.0
 71
     7
 72
     1
  1
{\fＭＳ ゴシック|b0|i0|c128|p49;1/15}
 73
     1
 44
1.0
  0
MTEXT
  5
F4
330
1F
100
AcDbEntity
  8
F-A
  6
Continuous
 62
     7
370
     0
100
AcDbMText
 10
2939.917396372139
 20
-4087.14246317786
 30
0.0
 40
45.72
 41
240.0
 46
0.0
 71
     7
 72
     1
  1
{\fＭＳ ゴシック|b0|i0|c128|p49;ＦＩＬＥ}
 73
     1
 44
1.0
  0
MTEXT
  5
F5
330
1F
100
AcDbEntity
  8
F-A
  6
Continuous
 62
     7
370
     0
100
AcDbMText
 10
4439.917891251784
 20
-4087.143857410839
 30
0.0
 40
45.72
 41
180.0
 46
0.0
 71
     7
 72
     1
  1
{\fＭＳ ゴシック|b0|i0|c128|p49;ＮＯ．}
 73
     1
 44
1.0
  0
MTEXT
  5
F6
330
1F
100
AcDbEntity
  8
F-A
  6
Continuous
 62
     7
370
     0
100
AcDbMText
 10
1394.917396372138
 20
-4096.140669266149
 30
0.0
 40
45.72
 41
120.0
 46
0.0
 71
     7
 72
     1
  1
{\fＭＳ ゴシック|b0|i0|c128|p49;株式}
 73
     1
 44
1.0
  0
MTEXT
  5
F7
330
1F
100
AcDbEntity
  8
F-A
  6
Continuous
 62
     7
370
     9
100
AcDbMText
 10
5096.167700144058
 20
-4147.857012699985
 30
0.0
 40
74.295
 41
97.5
 46
0.0
 71
     7
 72
     1
  1
{\fＭＳ ゴシック|b0|i0|c128|p49;01}
 73
     1
 44
1.0
  0
MTEXT
  5
F8
330
1F
100
AcDbEntity
  8
F-A
  6
Continuous
 62
     7
370
     0
100
AcDbMText
 10
1604.917396372138
 20
-4164.281754523929
 30
0.0
 40
101.44125
 41
1065.0
 46
0.0
 71
     7
 72
     1
  1
{\fＭＳ ゴシック|b0|i0|c128|p49;ウッドワン・・・}
 73
     1
 44
1.0
  0
MTEXT
  5
F9
330
1F
100
AcDbEntity
  8
F-A
  6
Continuous
 62
     7
370
     0
100
AcDbMText
 10
1394.917396372138
 20
-4168.140669266187
 30
0.0
 40
45.72
 41
120.0
 46
0.0
 71
     7
 72
     1
  1
{\fＭＳ ゴシック|b0|i0|c128|p49;会社}
 73
     1
 44
1.0
  0
MTEXT
  5
FA
330
1F
100
AcDbEntity
  8
F-A
  6
Continuous
 62
     7
370
     0
100
AcDbMText
 10
5768.321977672939
 20
-4314.841419020919
 30
0.0
 40
68.58
 41
90.0
 46
0.0
 71
     7
 72
     1
  1
{\fＭＳ ゴシック|b0|i0|c128|p49;）}
 73
     1
 44
1.0
  0
MTEXT
  5
FB
330
1F
100
AcDbEntity
  8
F-A
  6
Continuous
 62
     7
370
     0
100
AcDbMText
 10
5350.114617405298
 20
-4316.235443869856
 30
0.0
 40
68.58
 41
45.0
 46
0.0
 71
     7
 72
     1
  1
{\fＭＳ ゴシック|b0|i0|c128|p49;,}
 73
     1
 44
1.0
  0
MTEXT
  5
FC
330
1F
100
AcDbEntity
  8
F-A
  6
Continuous
 62
     7
370
     0
100
AcDbMText
 10
5083.855928478601
 20
-4314.771967288282
 30
0.0
 40
74.295
 41
97.5
 46
0.0
 71
     7
 72
     1
  1
{\fＭＳ ゴシック|b0|i0|c128|p49;$y}
 73
     1
 44
1.0
  0
MTEXT
  5
FD
330
1F
100
AcDbEntity
  8
F-A
  6
Continuous
 62
     7
370
     0
100
AcDbMText
 10
5238.592649517422
 20
-4314.771967288282
 30
0.0
 40
74.295
 41
97.5
 46
0.0
 71
     7
 72
     1
  1
{\fＭＳ ゴシック|b0|i0|c128|p49;$m}
 73
     1
 44
1.0
  0
MTEXT
  5
FE
330
1F
100
AcDbEntity
  8
F-A
  6
Continuous
 62
     7
370
     0
100
AcDbMText
 10
5393.32938200033
 20
-4314.771967288282
 30
0.0
 40
74.295
 41
97.5
 46
0.0
 71
     7
 72
     1
  1
{\fＭＳ ゴシック|b0|i0|c128|p49;$d}
 73
     1
 44
1.0
  0
MTEXT
  5
FF
330
1F
100
AcDbEntity
  8
F-A
  6
Continuous
 62
     7
370
     0
100
AcDbMText
 10
5548.066114483239
 20
-4314.771967288282
 30
0.0
 40
74.295
 41
195.0
 46
0.0
 71
     7
 72
     1
  1
{\fＭＳ ゴシック|b0|i0|c128|p49;印刷}
 73
     1
 44
1.0
  0
MTEXT
  5
100
330
1F
100
AcDbEntity
  8
F-A
  6
Continuous
 62
     7
370
     0
100
AcDbMText
 10
4943.952040816226
 20
-4319.023493567732
 30
0.0
 40
68.58
 41
90.0
 46
0.0
 71
     7
 72
     1
  1
{\fＭＳ ゴシック|b0|i0|c128|p49;（}
 73
     1
 44
1.0
  0
MTEXT
  5
101
330
1F
100
AcDbEntity
  8
F-A
  6
Continuous
 62
     7
370
     0
100
AcDbMText
 10
5191.195810375571
 20
-4319.023493567732
 30
0.0
 40
68.58
 41
45.0
 46
0.0
 71
     7
 72
     1
  1
{\fＭＳ ゴシック|b0|i0|c128|p49;,}
 73
     1
 44
1.0
  0
LINE
  5
102
330
1F
100
AcDbEntity
  8
2-0
  6
Continuous
 62
     7
370
     9
100
AcDbLine
 10
1677.918160084839
 20
-1885.125619168345
 30
0.0
 11
59.91816008483936
 21
-1885.125619168345
 31
0.0
  0
LINE
  5
103
330
1F
100
AcDbEntity
  8
2-0
  6
Continuous
 62
     3
370
    13
100
AcDbLine
 10
1677.918160084839
 20
-2076.725619168345
 30
0.0
 11
59.91816008483936
 21
-2076.725619168345
 31
0.0
  0
LINE
  5
104
330
1F
100
AcDbEntity
  8
2-0
  6
Continuous
 62
     3
370
    13
100
AcDbLine
 10
1677.918160084839
 20
-2094.725619168345
 30
0.0
 11
59.91816008483936
 21
-2094.725619168345
 31
0.0
  0
LINE
  5
105
330
1F
100
AcDbEntity
  8
2-0
  6
Continuous
 62
     3
370
    13
100
AcDbLine
 10
262.1681600848393
 20
-1885.125619168345
 30
0.0
 11
262.1681600848393
 21
-2076.725619168345
 31
0.0
  0
LINE
  5
106
330
1F
100
AcDbEntity
  8
2-0
  6
Continuous
 62
     3
370
    13
100
AcDbLine
 10
464.4181600848393
 20
-1885.125619168345
 30
0.0
 11
464.4181600848393
 21
-2076.725619168345
 31
0.0
  0
LINE
  5
107
330
1F
100
AcDbEntity
  8
2-0
  6
Continuous
 62
     3
370
    13
100
AcDbLine
 10
666.6681600848391
 20
-1885.125619168345
 30
0.0
 11
666.6681600848391
 21
-2076.725619168345
 31
0.0
  0
LINE
  5
108
330
1F
100
AcDbEntity
  8
2-0
  6
Continuous
 62
     3
370
    13
100
AcDbLine
 10
868.9181600848392
 20
-1885.125619168345
 30
0.0
 11
868.9181600848392
 21
-2076.725619168345
 31
0.0
  0
LINE
  5
109
330
1F
100
AcDbEntity
  8
2-0
  6
Continuous
 62
     3
370
    13
100
AcDbLine
 10
1071.168160084839
 20
-1885.125619168345
 30
0.0
 11
1071.168160084839
 21
-2076.725619168345
 31
0.0
  0
LINE
  5
10A
330
1F
100
AcDbEntity
  8
2-0
  6
Continuous
 62
     3
370
    13
100
AcDbLine
 10
1273.418160084839
 20
-1885.125619168345
 30
0.0
 11
1273.418160084839
 21
-2076.725619168345
 31
0.0
  0
LINE
  5
10B
330
1F
100
AcDbEntity
  8
2-0
  6
Continuous
 62
     3
370
    13
100
AcDbLine
 10
1475.668160084839
 20
-1885.125619168345
 30
0.0
 11
1475.668160084839
 21
-2076.725619168345
 31
0.0
  0
LINE
  5
10C
330
1F
100
AcDbEntity
  8
2-0
  6
Continuous
 62
     3
370
    13
100
AcDbLine
 10
1677.918160084839
 20
-2286.325619168345
 30
0.0
 11
59.91816008483936
 21
-2286.325619168345
 31
0.0
  0
LINE
  5
10D
330
1F
100
AcDbEntity
  8
2-0
  6
Continuous
 62
     3
370
    13
100
AcDbLine
 10
1677.918160084839
 20
-2304.325619168344
 30
0.0
 11
59.91816008483936
 21
-2304.325619168344
 31
0.0
  0
LINE
  5
10E
330
1F
100
AcDbEntity
  8
2-0
  6
Continuous
 62
     3
370
    13
100
AcDbLine
 10
262.1681600848393
 20
-2094.725619168345
 30
0.0
 11
262.1681600848393
 21
-2286.325619168345
 31
0.0
  0
LINE
  5
10F
330
1F
100
AcDbEntity
  8
2-0
  6
Continuous
 62
     3
370
    13
100
AcDbLine
 10
464.4181600848393
 20
-2094.725619168345
 30
0.0
 11
464.4181600848393
 21
-2286.325619168345
 31
0.0
  0
LINE
  5
110
330
1F
100
AcDbEntity
  8
2-0
  6
Continuous
 62
     3
370
    13
100
AcDbLine
 10
666.6681600848391
 20
-2094.725619168345
 30
0.0
 11
666.6681600848391
 21
-2286.325619168345
 31
0.0
  0
LINE
  5
111
330
1F
100
AcDbEntity
  8
2-0
  6
Continuous
 62
     3
370
    13
100
AcDbLine
 10
868.9181600848392
 20
-2094.725619168345
 30
0.0
 11
868.9181600848392
 21
-2286.325619168345
 31
0.0
  0
LINE
  5
112
330
1F
100
AcDbEntity
  8
2-0
  6
Continuous
 62
     3
370
    13
100
AcDbLine
 10
1071.168160084839
 20
-2094.725619168345
 30
0.0
 11
1071.168160084839
 21
-2286.325619168345
 31
0.0
  0
LINE
  5
113
330
1F
100
AcDbEntity
  8
2-0
  6
Continuous
 62
     3
370
    13
100
AcDbLine
 10
1273.418160084839
 20
-2094.725619168345
 30
0.0
 11
1273.418160084839
 21
-2286.325619168345
 31
0.0
  0
LINE
  5
114
330
1F
100
AcDbEntity
  8
2-0
  6
Continuous
 62
     3
370
    13
100
AcDbLine
 10
1475.668160084839
 20
-2094.725619168345
 30
0.0
 11
1475.668160084839
 21
-2286.325619168345
 31
0.0
  0
LINE
  5
115
330
1F
100
AcDbEntity
  8
2-0
  6
Continuous
 62
     3
370
    13
100
AcDbLine
 10
1677.918160084839
 20
-2495.925619168345
 30
0.0
 11
59.91816008483936
 21
-2495.925619168345
 31
0.0
  0
LINE
  5
116
330
1F
100
AcDbEntity
  8
2-0
  6
Continuous
 62
     3
370
    13
100
AcDbLine
 10
1677.918160084839
 20
-2513.925619168344
 30
0.0
 11
59.91816008483936
 21
-2513.925619168344
 31
0.0
  0
LINE
  5
117
330
1F
100
AcDbEntity
  8
2-0
  6
Continuous
 62
     3
370
    13
100
AcDbLine
 10
262.1681600848393
 20
-2304.325619168344
 30
0.0
 11
262.1681600848393
 21
-2495.925619168345
 31
0.0
  0
LINE
  5
118
330
1F
100
AcDbEntity
  8
2-0
  6
Continuous
 62
     3
370
    13
100
AcDbLine
 10
464.4181600848393
 20
-2304.325619168344
 30
0.0
 11
464.4181600848393
 21
-2495.925619168345
 31
0.0
  0
LINE
  5
119
330
1F
100
AcDbEntity
  8
2-0
  6
Continuous
 62
     3
370
    13
100
AcDbLine
 10
666.6681600848391
 20
-2304.325619168344
 30
0.0
 11
666.6681600848391
 21
-2495.925619168345
 31
0.0
  0
LINE
  5
11A
330
1F
100
AcDbEntity
  8
2-0
  6
Continuous
 62
     3
370
    13
100
AcDbLine
 10
868.9181600848392
 20
-2304.325619168344
 30
0.0
 11
868.9181600848392
 21
-2495.925619168345
 31
0.0
  0
LINE
  5
11B
330
1F
100
AcDbEntity
  8
2-0
  6
Continuous
 62
     3
370
    13
100
AcDbLine
 10
1071.168160084839
 20
-2304.325619168344
 30
0.0
 11
1071.168160084839
 21
-2495.925619168345
 31
0.0
  0
LINE
  5
11C
330
1F
100
AcDbEntity
  8
2-0
  6
Continuous
 62
     3
370
    13
100
AcDbLine
 10
1273.418160084839
 20
-2304.325619168344
 30
0.0
 11
1273.418160084839
 21
-2495.925619168345
 31
0.0
  0
LINE
  5
11D
330
1F
100
AcDbEntity
  8
2-0
  6
Continuous
 62
     3
370
    13
100
AcDbLine
 10
1475.668160084839
 20
-2304.325619168344
 30
0.0
 11
1475.668160084839
 21
-2495.925619168345
 31
0.0
  0
LINE
  5
11E
330
1F
100
AcDbEntity
  8
2-0
  6
Continuous
 62
     3
370
    13
100
AcDbLine
 10
1677.918160084839
 20
-2705.525619168345
 30
0.0
 11
59.91816008483936
 21
-2705.525619168345
 31
0.0
  0
LINE
  5
11F
330
1F
100
AcDbEntity
  8
2-0
  6
Continuous
 62
     3
370
    13
100
AcDbLine
 10
1677.918160084839
 20
-2723.525619168345
 30
0.0
 11
59.91816008483936
 21
-2723.525619168345
 31
0.0
  0
LINE
  5
120
330
1F
100
AcDbEntity
  8
2-0
  6
Continuous
 62
     3
370
    13
100
AcDbLine
 10
262.1681600848393
 20
-2513.925619168344
 30
0.0
 11
262.1681600848393
 21
-2705.525619168345
 31
0.0
  0
LINE
  5
121
330
1F
100
AcDbEntity
  8
2-0
  6
Continuous
 62
     3
370
    13
100
AcDbLine
 10
464.4181600848393
 20
-2513.925619168344
 30
0.0
 11
464.4181600848393
 21
-2705.525619168345
 31
0.0
  0
LINE
  5
122
330
1F
100
AcDbEntity
  8
2-0
  6
Continuous
 62
     3
370
    13
100
AcDbLine
 10
666.6681600848391
 20
-2513.925619168344
 30
0.0
 11
666.6681600848391
 21
-2705.525619168345
 31
0.0
  0
LINE
  5
123
330
1F
100
AcDbEntity
  8
2-0
  6
Continuous
 62
     3
370
    13
100
AcDbLine
 10
868.9181600848392
 20
-2513.925619168344
 30
0.0
 11
868.9181600848392
 21
-2705.525619168345
 31
0.0
  0
LINE
  5
124
330
1F
100
AcDbEntity
  8
2-0
  6
Continuous
 62
     3
370
    13
100
AcDbLine
 10
1071.168160084839
 20
-2513.925619168344
 30
0.0
 11
1071.168160084839
 21
-2705.525619168345
 31
0.0
  0
LINE
  5
125
330
1F
100
AcDbEntity
  8
2-0
  6
Continuous
 62
     3
370
    13
100
AcDbLine
 10
1273.418160084839
 20
-2513.925619168344
 30
0.0
 11
1273.418160084839
 21
-2705.525619168345
 31
0.0
  0
LINE
  5
126
330
1F
100
AcDbEntity
  8
2-0
  6
Continuous
 62
     3
370
    13
100
AcDbLine
 10
1475.668160084839
 20
-2513.925619168344
 30
0.0
 11
1475.668160084839
 21
-2705.525619168345
 31
0.0
  0
LINE
  5
127
330
1F
100
AcDbEntity
  8
2-0
  6
Continuous
 62
     3
370
    13
100
AcDbLine
 10
1677.918160084839
 20
-2915.125619168345
 30
0.0
 11
59.91816008483936
 21
-2915.125619168345
 31
0.0
  0
LINE
  5
128
330
1F
100
AcDbEntity
  8
2-0
  6
Continuous
 62
     3
370
    13
100
AcDbLine
 10
1677.918160084839
 20
-2933.125619168345
 30
0.0
 11
59.91816008483936
 21
-2933.125619168345
 31
0.0
  0
LINE
  5
129
330
1F
100
AcDbEntity
  8
2-0
  6
Continuous
 62
     3
370
    13
100
AcDbLine
 10
262.1681600848393
 20
-2723.525619168345
 30
0.0
 11
262.1681600848393
 21
-2915.125619168345
 31
0.0
  0
LINE
  5
12A
330
1F
100
AcDbEntity
  8
2-0
  6
Continuous
 62
     3
370
    13
100
AcDbLine
 10
464.4181600848393
 20
-2723.525619168345
 30
0.0
 11
464.4181600848393
 21
-2915.125619168345
 31
0.0
  0
LINE
  5
12B
330
1F
100
AcDbEntity
  8
2-0
  6
Continuous
 62
     3
370
    13
100
AcDbLine
 10
666.6681600848391
 20
-2723.525619168345
 30
0.0
 11
666.6681600848391
 21
-2915.125619168345
 31
0.0
  0
LINE
  5
12C
330
1F
100
AcDbEntity
  8
2-0
  6
Continuous
 62
     3
370
    13
100
AcDbLine
 10
868.9181600848392
 20
-2723.525619168345
 30
0.0
 11
868.9181600848392
 21
-2915.125619168345
 31
0.0
  0
LINE
  5
12D
330
1F
100
AcDbEntity
  8
2-0
  6
Continuous
 62
     3
370
    13
100
AcDbLine
 10
1071.168160084839
 20
-2723.525619168345
 30
0.0
 11
1071.168160084839
 21
-2915.125619168345
 31
0.0
  0
LINE
  5
12E
330
1F
100
AcDbEntity
  8
2-0
  6
Continuous
 62
     3
370
    13
100
AcDbLine
 10
1273.418160084839
 20
-2723.525619168345
 30
0.0
 11
1273.418160084839
 21
-2915.125619168345
 31
0.0
  0
LINE
  5
12F
330
1F
100
AcDbEntity
  8
2-0
  6
Continuous
 62
     3
370
    13
100
AcDbLine
 10
1475.668160084839
 20
-2723.525619168345
 30
0.0
 11
1475.668160084839
 21
-2915.125619168345
 31
0.0
  0
LINE
  5
130
330
1F
100
AcDbEntity
  8
2-0
  6
Continuous
 62
     3
370
    13
100
AcDbLine
 10
262.1681600848393
 20
-2933.125619168345
 30
0.0
 11
262.1681600848393
 21
-3124.725619168345
 31
0.0
  0
LINE
  5
131
330
1F
100
AcDbEntity
  8
2-0
  6
Continuous
 62
     3
370
    13
100
AcDbLine
 10
464.4181600848393
 20
-2933.125619168345
 30
0.0
 11
464.4181600848393
 21
-3124.725619168345
 31
0.0
  0
LINE
  5
132
330
1F
100
AcDbEntity
  8
2-0
  6
Continuous
 62
     3
370
    13
100
AcDbLine
 10
666.6681600848391
 20
-2933.125619168345
 30
0.0
 11
666.6681600848391
 21
-3124.725619168345
 31
0.0
  0
LINE
  5
133
330
1F
100
AcDbEntity
  8
2-0
  6
Continuous
 62
     3
370
    13
100
AcDbLine
 10
868.9181600848392
 20
-2933.125619168345
 30
0.0
 11
868.9181600848392
 21
-3124.725619168345
 31
0.0
  0
LINE
  5
134
330
1F
100
AcDbEntity
  8
2-0
  6
Continuous
 62
     3
370
    13
100
AcDbLine
 10
1071.168160084839
 20
-2933.125619168345
 30
0.0
 11
1071.168160084839
 21
-3124.725619168345
 31
0.0
  0
LINE
  5
135
330
1F
100
AcDbEntity
  8
2-0
  6
Continuous
 62
     3
370
    13
100
AcDbLine
 10
1273.418160084839
 20
-2933.125619168345
 30
0.0
 11
1273.418160084839
 21
-3124.725619168345
 31
0.0
  0
LINE
  5
136
330
1F
100
AcDbEntity
  8
2-0
  6
Continuous
 62
     3
370
    13
100
AcDbLine
 10
1475.668160084839
 20
-2933.125619168345
 30
0.0
 11
1475.668160084839
 21
-3124.725619168345
 31
0.0
  0
LINE
  5
137
330
1F
100
AcDbEntity
  8
2-0
  6
Continuous
 62
     7
370
     9
100
AcDbLine
 10
1677.918160084839
 20
-3124.725619168345
 30
0.0
 11
59.91816008483936
 21
-3124.725619168345
 31
0.0
  0
LINE
  5
138
330
1F
100
AcDbEntity
  8
2-0
  6
Continuous
 62
     7
370
     9
100
AcDbLine
 10
-40.08183991516065
 20
-1885.125619168345
 30
0.0
 11
-1658.08183991516
 21
-1885.125619168345
 31
0.0
  0
LINE
  5
139
330
1F
100
AcDbEntity
  8
2-0
  6
Continuous
 62
     3
370
    13
100
AcDbLine
 10
-40.08183991516065
 20
-2076.725619168345
 30
0.0
 11
-1658.08183991516
 21
-2076.725619168345
 31
0.0
  0
LINE
  5
13A
330
1F
100
AcDbEntity
  8
2-0
  6
Continuous
 62
     3
370
    13
100
AcDbLine
 10
-40.08183991516065
 20
-2094.725619168345
 30
0.0
 11
-1658.08183991516
 21
-2094.725619168345
 31
0.0
  0
LINE
  5
13B
330
1F
100
AcDbEntity
  8
2-0
  6
Continuous
 62
     3
370
    13
100
AcDbLine
 10
-1455.831839915161
 20
-1885.125619168345
 30
0.0
 11
-1455.831839915161
 21
-2076.725619168345
 31
0.0
  0
LINE
  5
13C
330
1F
100
AcDbEntity
  8
2-0
  6
Continuous
 62
     3
370
    13
100
AcDbLine
 10
-1253.581839915161
 20
-1885.125619168345
 30
0.0
 11
-1253.581839915161
 21
-2076.725619168345
 31
0.0
  0
LINE
  5
13D
330
1F
100
AcDbEntity
  8
2-0
  6
Continuous
 62
     3
370
    13
100
AcDbLine
 10
-1051.331839915161
 20
-1885.125619168345
 30
0.0
 11
-1051.331839915161
 21
-2076.725619168345
 31
0.0
  0
LINE
  5
13E
330
1F
100
AcDbEntity
  8
2-0
  6
Continuous
 62
     3
370
    13
100
AcDbLine
 10
-849.0818399151606
 20
-1885.125619168345
 30
0.0
 11
-849.0818399151606
 21
-2076.725619168345
 31
0.0
  0
LINE
  5
13F
330
1F
100
AcDbEntity
  8
2-0
  6
Continuous
 62
     3
370
    13
100
AcDbLine
 10
-646.831839915161
 20
-1885.125619168345
 30
0.0
 11
-646.831839915161
 21
-2076.725619168345
 31
0.0
  0
LINE
  5
140
330
1F
100
AcDbEntity
  8
2-0
  6
Continuous
 62
     3
370
    13
100
AcDbLine
 10
-444.5818399151608
 20
-1885.125619168345
 30
0.0
 11
-444.5818399151608
 21
-2076.725619168345
 31
0.0
  0
LINE
  5
141
330
1F
100
AcDbEntity
  8
2-0
  6
Continuous
 62
     3
370
    13
100
AcDbLine
 10
-242.3318399151612
 20
-1885.125619168345
 30
0.0
 11
-242.3318399151612
 21
-2076.725619168345
 31
0.0
  0
LINE
  5
142
330
1F
100
AcDbEntity
  8
2-0
  6
Continuous
 62
     3
370
    13
100
AcDbLine
 10
-40.08183991516065
 20
-2286.325619168345
 30
0.0
 11
-1658.08183991516
 21
-2286.325619168345
 31
0.0
  0
LINE
  5
143
330
1F
100
AcDbEntity
  8
2-0
  6
Continuous
 62
     3
370
    13
100
AcDbLine
 10
-40.08183991516065
 20
-2304.325619168344
 30
0.0
 11
-1658.08183991516
 21
-2304.325619168344
 31
0.0
  0
LINE
  5
144
330
1F
100
AcDbEntity
  8
2-0
  6
Continuous
 62
     3
370
    13
100
AcDbLine
 10
-1455.831839915161
 20
-2094.725619168345
 30
0.0
 11
-1455.831839915161
 21
-2286.325619168345
 31
0.0
  0
LINE
  5
145
330
1F
100
AcDbEntity
  8
2-0
  6
Continuous
 62
     3
370
    13
100
AcDbLine
 10
-1253.581839915161
 20
-2094.725619168345
 30
0.0
 11
-1253.581839915161
 21
-2286.325619168345
 31
0.0
  0
LINE
  5
146
330
1F
100
AcDbEntity
  8
2-0
  6
Continuous
 62
     3
370
    13
100
AcDbLine
 10
-1051.331839915161
 20
-2094.725619168345
 30
0.0
 11
-1051.331839915161
 21
-2286.325619168345
 31
0.0
  0
LINE
  5
147
330
1F
100
AcDbEntity
  8
2-0
  6
Continuous
 62
     3
370
    13
100
AcDbLine
 10
-849.0818399151606
 20
-2094.725619168345
 30
0.0
 11
-849.0818399151606
 21
-2286.325619168345
 31
0.0
  0
LINE
  5
148
330
1F
100
AcDbEntity
  8
2-0
  6
Continuous
 62
     3
370
    13
100
AcDbLine
 10
-646.831839915161
 20
-2094.725619168345
 30
0.0
 11
-646.831839915161
 21
-2286.325619168345
 31
0.0
  0
LINE
  5
149
330
1F
100
AcDbEntity
  8
2-0
  6
Continuous
 62
     3
370
    13
100
AcDbLine
 10
-444.5818399151608
 20
-2094.725619168345
 30
0.0
 11
-444.5818399151608
 21
-2286.325619168345
 31
0.0
  0
LINE
  5
14A
330
1F
100
AcDbEntity
  8
2-0
  6
Continuous
 62
     3
370
    13
100
AcDbLine
 10
-242.3318399151612
 20
-2094.725619168345
 30
0.0
 11
-242.3318399151612
 21
-2286.325619168345
 31
0.0
  0
LINE
  5
14B
330
1F
100
AcDbEntity
  8
2-0
  6
Continuous
 62
     3
370
    13
100
AcDbLine
 10
-40.08183991516065
 20
-2495.925619168345
 30
0.0
 11
-1658.08183991516
 21
-2495.925619168345
 31
0.0
  0
LINE
  5
14C
330
1F
100
AcDbEntity
  8
2-0
  6
Continuous
 62
     3
370
    13
100
AcDbLine
 10
-40.08183991516065
 20
-2513.925619168344
 30
0.0
 11
-1658.08183991516
 21
-2513.925619168344
 31
0.0
  0
LINE
  5
14D
330
1F
100
AcDbEntity
  8
2-0
  6
Continuous
 62
     3
370
    13
100
AcDbLine
 10
-1455.831839915161
 20
-2304.325619168344
 30
0.0
 11
-1455.831839915161
 21
-2495.925619168345
 31
0.0
  0
LINE
  5
14E
330
1F
100
AcDbEntity
  8
2-0
  6
Continuous
 62
     3
370
    13
100
AcDbLine
 10
-1253.581839915161
 20
-2304.325619168344
 30
0.0
 11
-1253.581839915161
 21
-2495.925619168345
 31
0.0
  0
LINE
  5
14F
330
1F
100
AcDbEntity
  8
2-0
  6
Continuous
 62
     3
370
    13
100
AcDbLine
 10
-1051.331839915161
 20
-2304.325619168344
 30
0.0
 11
-1051.331839915161
 21
-2495.925619168345
 31
0.0
  0
LINE
  5
150
330
1F
100
AcDbEntity
  8
2-0
  6
Continuous
 62
     3
370
    13
100
AcDbLine
 10
-849.0818399151606
 20
-2304.325619168344
 30
0.0
 11
-849.0818399151606
 21
-2495.925619168345
 31
0.0
  0
LINE
  5
151
330
1F
100
AcDbEntity
  8
2-0
  6
Continuous
 62
     3
370
    13
100
AcDbLine
 10
-646.831839915161
 20
-2304.325619168344
 30
0.0
 11
-646.831839915161
 21
-2495.925619168345
 31
0.0
  0
LINE
  5
152
330
1F
100
AcDbEntity
  8
2-0
  6
Continuous
 62
     3
370
    13
100
AcDbLine
 10
-444.5818399151608
 20
-2304.325619168344
 30
0.0
 11
-444.5818399151608
 21
-2495.925619168345
 31
0.0
  0
LINE
  5
153
330
1F
100
AcDbEntity
  8
2-0
  6
Continuous
 62
     3
370
    13
100
AcDbLine
 10
-242.3318399151612
 20
-2304.325619168344
 30
0.0
 11
-242.3318399151612
 21
-2495.925619168345
 31
0.0
  0
LINE
  5
154
330
1F
100
AcDbEntity
  8
2-0
  6
Continuous
 62
     3
370
    13
100
AcDbLine
 10
-40.08183991516065
 20
-2705.525619168345
 30
0.0
 11
-1658.08183991516
 21
-2705.525619168345
 31
0.0
  0
LINE
  5
155
330
1F
100
AcDbEntity
  8
2-0
  6
Continuous
 62
     3
370
    13
100
AcDbLine
 10
-40.08183991516065
 20
-2723.525619168345
 30
0.0
 11
-1658.08183991516
 21
-2723.525619168345
 31
0.0
  0
LINE
  5
156
330
1F
100
AcDbEntity
  8
2-0
  6
Continuous
 62
     3
370
    13
100
AcDbLine
 10
-1455.831839915161
 20
-2513.925619168344
 30
0.0
 11
-1455.831839915161
 21
-2705.525619168345
 31
0.0
  0
LINE
  5
157
330
1F
100
AcDbEntity
  8
2-0
  6
Continuous
 62
     3
370
    13
100
AcDbLine
 10
-1253.581839915161
 20
-2513.925619168344
 30
0.0
 11
-1253.581839915161
 21
-2705.525619168345
 31
0.0
  0
LINE
  5
158
330
1F
100
AcDbEntity
  8
2-0
  6
Continuous
 62
     3
370
    13
100
AcDbLine
 10
-1051.331839915161
 20
-2513.925619168344
 30
0.0
 11
-1051.331839915161
 21
-2705.525619168345
 31
0.0
  0
LINE
  5
159
330
1F
100
AcDbEntity
  8
2-0
  6
Continuous
 62
     3
370
    13
100
AcDbLine
 10
-849.0818399151606
 20
-2513.925619168344
 30
0.0
 11
-849.0818399151606
 21
-2705.525619168345
 31
0.0
  0
LINE
  5
15A
330
1F
100
AcDbEntity
  8
2-0
  6
Continuous
 62
     3
370
    13
100
AcDbLine
 10
-646.831839915161
 20
-2513.925619168344
 30
0.0
 11
-646.831839915161
 21
-2705.525619168345
 31
0.0
  0
LINE
  5
15B
330
1F
100
AcDbEntity
  8
2-0
  6
Continuous
 62
     3
370
    13
100
AcDbLine
 10
-444.5818399151608
 20
-2513.925619168344
 30
0.0
 11
-444.5818399151608
 21
-2705.525619168345
 31
0.0
  0
LINE
  5
15C
330
1F
100
AcDbEntity
  8
2-0
  6
Continuous
 62
     3
370
    13
100
AcDbLine
 10
-242.3318399151612
 20
-2513.925619168344
 30
0.0
 11
-242.3318399151612
 21
-2705.525619168345
 31
0.0
  0
LINE
  5
15D
330
1F
100
AcDbEntity
  8
2-0
  6
Continuous
 62
     3
370
    13
100
AcDbLine
 10
-40.08183991516065
 20
-2915.125619168345
 30
0.0
 11
-1658.08183991516
 21
-2915.125619168345
 31
0.0
  0
LINE
  5
15E
330
1F
100
AcDbEntity
  8
2-0
  6
Continuous
 62
     3
370
    13
100
AcDbLine
 10
-40.08183991516065
 20
-2933.125619168345
 30
0.0
 11
-1658.08183991516
 21
-2933.125619168345
 31
0.0
  0
LINE
  5
15F
330
1F
100
AcDbEntity
  8
2-0
  6
Continuous
 62
     3
370
    13
100
AcDbLine
 10
-1455.831839915161
 20
-2723.525619168345
 30
0.0
 11
-1455.831839915161
 21
-2915.125619168345
 31
0.0
  0
LINE
  5
160
330
1F
100
AcDbEntity
  8
2-0
  6
Continuous
 62
     3
370
    13
100
AcDbLine
 10
-1253.581839915161
 20
-2723.525619168345
 30
0.0
 11
-1253.581839915161
 21
-2915.125619168345
 31
0.0
  0
LINE
  5
161
330
1F
100
AcDbEntity
  8
2-0
  6
Continuous
 62
     3
370
    13
100
AcDbLine
 10
-1051.331839915161
 20
-2723.525619168345
 30
0.0
 11
-1051.331839915161
 21
-2915.125619168345
 31
0.0
  0
LINE
  5
162
330
1F
100
AcDbEntity
  8
2-0
  6
Continuous
 62
     3
370
    13
100
AcDbLine
 10
-849.0818399151606
 20
-2723.525619168345
 30
0.0
 11
-849.0818399151606
 21
-2915.125619168345
 31
0.0
  0
LINE
  5
163
330
1F
100
AcDbEntity
  8
2-0
  6
Continuous
 62
     3
370
    13
100
AcDbLine
 10
-646.831839915161
 20
-2723.525619168345
 30
0.0
 11
-646.831839915161
 21
-2915.125619168345
 31
0.0
  0
LINE
  5
164
330
1F
100
AcDbEntity
  8
2-0
  6
Continuous
 62
     3
370
    13
100
AcDbLine
 10
-444.5818399151608
 20
-2723.525619168345
 30
0.0
 11
-444.5818399151608
 21
-2915.125619168345
 31
0.0
  0
LINE
  5
165
330
1F
100
AcDbEntity
  8
2-0
  6
Continuous
 62
     3
370
    13
100
AcDbLine
 10
-242.3318399151612
 20
-2723.525619168345
 30
0.0
 11
-242.3318399151612
 21
-2915.125619168345
 31
0.0
  0
LINE
  5
166
330
1F
100
AcDbEntity
  8
2-0
  6
Continuous
 62
     3
370
    13
100
AcDbLine
 10
-1455.831839915161
 20
-2933.125619168345
 30
0.0
 11
-1455.831839915161
 21
-3124.725619168345
 31
0.0
  0
LINE
  5
167
330
1F
100
AcDbEntity
  8
2-0
  6
Continuous
 62
     3
370
    13
100
AcDbLine
 10
-1253.581839915161
 20
-2933.125619168345
 30
0.0
 11
-1253.581839915161
 21
-3124.725619168345
 31
0.0
  0
LINE
  5
168
330
1F
100
AcDbEntity
  8
2-0
  6
Continuous
 62
     3
370
    13
100
AcDbLine
 10
-1051.331839915161
 20
-2933.125619168345
 30
0.0
 11
-1051.331839915161
 21
-3124.725619168345
 31
0.0
  0
LINE
  5
169
330
1F
100
AcDbEntity
  8
2-0
  6
Continuous
 62
     3
370
    13
100
AcDbLine
 10
-849.0818399151606
 20
-2933.125619168345
 30
0.0
 11
-849.0818399151606
 21
-3124.725619168345
 31
0.0
  0
LINE
  5
16A
330
1F
100
AcDbEntity
  8
2-0
  6
Continuous
 62
     3
370
    13
100
AcDbLine
 10
-646.831839915161
 20
-2933.125619168345
 30
0.0
 11
-646.831839915161
 21
-3124.725619168345
 31
0.0
  0
LINE
  5
16B
330
1F
100
AcDbEntity
  8
2-0
  6
Continuous
 62
     3
370
    13
100
AcDbLine
 10
-444.5818399151608
 20
-2933.125619168345
 30
0.0
 11
-444.5818399151608
 21
-3124.725619168345
 31
0.0
  0
LINE
  5
16C
330
1F
100
AcDbEntity
  8
2-0
  6
Continuous
 62
     3
370
    13
100
AcDbLine
 10
-242.3318399151612
 20
-2933.125619168345
 30
0.0
 11
-242.3318399151612
 21
-3124.725619168345
 31
0.0
  0
LINE
  5
16D
330
1F
100
AcDbEntity
  8
2-0
  6
Continuous
 62
     7
370
     9
100
AcDbLine
 10
-40.08183991516065
 20
-3124.725619168345
 30
0.0
 11
-1658.08183991516
 21
-3124.725619168345
 31
0.0
  0
LINE
  5
16E
330
1F
100
AcDbEntity
  8
2-0
  6
Continuous
 62
     7
370
     9
100
AcDbLine
 10
1411.918160084841
 20
606.5410478419881
 30
0.0
 11
59.91816008484027
 21
606.5410478419881
 31
0.0
  0
LINE
  5
16F
330
1F
100
AcDbEntity
  8
2-0
  6
Continuous
 62
     7
370
     9
100
AcDbLine
 10
1411.918160084841
 20
-633.0589521580121
 30
0.0
 11
59.91816008484027
 21
-633.0589521580121
 31
0.0
  0
LINE
  5
170
330
1F
100
AcDbEntity
  8
2-0
  6
Continuous
 62
     7
370
     9
100
AcDbLine
 10
-40.08183991515974
 20
606.5410478419881
 30
0.0
 11
-1392.08183991516
 21
606.5410478419881
 31
0.0
  0
LINE
  5
171
330
1F
100
AcDbEntity
  8
2-0
  6
Continuous
 62
     7
370
     9
100
AcDbLine
 10
-40.08183991515974
 20
-633.0589521580121
 30
0.0
 11
-1392.08183991516
 21
-633.0589521580121
 31
0.0
  0
LINE
  5
172
330
1F
100
AcDbEntity
  8
2-0
  6
Continuous
 62
     3
370
    13
100
AcDbLine
 10
-40.08183991515974
 20
414.9410478419881
 30
0.0
 11
-1392.08183991516
 21
414.9410478419881
 31
0.0
  0
LINE
  5
173
330
1F
100
AcDbEntity
  8
2-0
  6
Continuous
 62
     3
370
    13
100
AcDbLine
 10
-40.08183991515974
 20
396.9410478419881
 30
0.0
 11
-1392.08183991516
 21
396.9410478419881
 31
0.0
  0
LINE
  5
174
330
1F
100
AcDbEntity
  8
2-0
  6
Continuous
 62
     3
370
    13
100
AcDbLine
 10
-40.08183991515974
 20
205.3410478419881
 30
0.0
 11
-1392.08183991516
 21
205.3410478419881
 31
0.0
  0
LINE
  5
175
330
1F
100
AcDbEntity
  8
2-0
  6
Continuous
 62
     3
370
    13
100
AcDbLine
 10
-40.08183991515974
 20
187.341047841988
 30
0.0
 11
-1392.08183991516
 21
187.341047841988
 31
0.0
  0
LINE
  5
176
330
1F
100
AcDbEntity
  8
2-0
  6
Continuous
 62
     3
370
    13
100
AcDbLine
 10
-40.08183991515974
 20
-4.258952158011873
 30
0.0
 11
-1392.08183991516
 21
-4.258952158011873
 31
0.0
  0
LINE
  5
177
330
1F
100
AcDbEntity
  8
2-0
  6
Continuous
 62
     3
370
    13
100
AcDbLine
 10
-40.08183991515974
 20
-22.25895215801192
 30
0.0
 11
-1392.08183991516
 21
-22.25895215801192
 31
0.0
  0
LINE
  5
178
330
1F
100
AcDbEntity
  8
2-0
  6
Continuous
 62
     3
370
    13
100
AcDbLine
 10
-40.08183991515974
 20
-213.8589521580117
 30
0.0
 11
-1392.08183991516
 21
-213.8589521580117
 31
0.0
  0
LINE
  5
179
330
1F
100
AcDbEntity
  8
2-0
  6
Continuous
 62
     3
370
    13
100
AcDbLine
 10
-40.08183991515974
 20
-231.8589521580117
 30
0.0
 11
-1392.08183991516
 21
-231.8589521580117
 31
0.0
  0
LINE
  5
17A
330
1F
100
AcDbEntity
  8
2-0
  6
Continuous
 62
     3
370
    13
100
AcDbLine
 10
-40.08183991515974
 20
-423.4589521580116
 30
0.0
 11
-1392.08183991516
 21
-423.4589521580116
 31
0.0
  0
LINE
  5
17B
330
1F
100
AcDbEntity
  8
2-0
  6
Continuous
 62
     3
370
    13
100
AcDbLine
 10
-40.08183991515974
 20
-441.4589521580117
 30
0.0
 11
-1392.08183991516
 21
-441.4589521580117
 31
0.0
  0
LINE
  5
17C
330
1F
100
AcDbEntity
  8
2-0
  6
Continuous
 62
     3
370
    13
100
AcDbLine
 10
1411.918160084841
 20
414.9410478419881
 30
0.0
 11
59.91816008484027
 21
414.9410478419881
 31
0.0
  0
LINE
  5
17D
330
1F
100
AcDbEntity
  8
2-0
  6
Continuous
 62
     3
370
    13
100
AcDbLine
 10
1411.918160084841
 20
396.9410478419881
 30
0.0
 11
59.91816008484027
 21
396.9410478419881
 31
0.0
  0
LINE
  5
17E
330
1F
100
AcDbEntity
  8
2-0
  6
Continuous
 62
     3
370
    13
100
AcDbLine
 10
1411.918160084841
 20
205.3410478419881
 30
0.0
 11
59.91816008484027
 21
205.3410478419881
 31
0.0
  0
LINE
  5
17F
330
1F
100
AcDbEntity
  8
2-0
  6
Continuous
 62
     3
370
    13
100
AcDbLine
 10
1411.918160084841
 20
187.341047841988
 30
0.0
 11
59.91816008484027
 21
187.341047841988
 31
0.0
  0
LINE
  5
180
330
1F
100
AcDbEntity
  8
2-0
  6
Continuous
 62
     3
370
    13
100
AcDbLine
 10
1411.918160084841
 20
-4.258952158011873
 30
0.0
 11
59.91816008484027
 21
-4.258952158011873
 31
0.0
  0
LINE
  5
181
330
1F
100
AcDbEntity
  8
2-0
  6
Continuous
 62
     3
370
    13
100
AcDbLine
 10
1411.918160084841
 20
-22.25895215801192
 30
0.0
 11
59.91816008484027
 21
-22.25895215801192
 31
0.0
  0
LINE
  5
182
330
1F
100
AcDbEntity
  8
2-0
  6
Continuous
 62
     3
370
    13
100
AcDbLine
 10
1411.918160084841
 20
-213.8589521580117
 30
0.0
 11
59.91816008484027
 21
-213.8589521580117
 31
0.0
  0
LINE
  5
183
330
1F
100
AcDbEntity
  8
2-0
  6
Continuous
 62
     3
370
    13
100
AcDbLine
 10
1411.918160084841
 20
-231.8589521580117
 30
0.0
 11
59.91816008484027
 21
-231.8589521580117
 31
0.0
  0
LINE
  5
184
330
1F
100
AcDbEntity
  8
2-0
  6
Continuous
 62
     3
370
    13
100
AcDbLine
 10
1411.918160084841
 20
-423.4589521580116
 30
0.0
 11
59.91816008484027
 21
-423.4589521580116
 31
0.0
  0
LINE
  5
185
330
1F
100
AcDbEntity
  8
2-0
  6
Continuous
 62
     3
370
    13
100
AcDbLine
 10
1411.918160084841
 20
-441.4589521580117
 30
0.0
 11
59.91816008484027
 21
-441.4589521580117
 31
0.0
  0
LINE
  5
186
330
1F
100
AcDbEntity
  8
2-0
  6
Continuous
 62
     3
370
    13
100
AcDbLine
 10
-1198.94183991516
 20
606.5410478419881
 30
0.0
 11
-1198.94183991516
 21
-633.0589521580121
 31
0.0
  0
LINE
  5
187
330
1F
100
AcDbEntity
  8
2-0
  6
Continuous
 62
     3
370
    13
100
AcDbLine
 10
-233.24183991516
 20
606.5410478419881
 30
0.0
 11
-233.24183991516
 21
-633.0589521580121
 31
0.0
  0
LINE
  5
188
330
1F
100
AcDbEntity
  8
2-0
  6
Continuous
 62
     3
370
    13
100
AcDbLine
 10
-1005.80183991516
 20
606.5410478419881
 30
0.0
 11
-1005.80183991516
 21
-633.0589521580121
 31
0.0
  0
LINE
  5
189
330
1F
100
AcDbEntity
  8
2-0
  6
Continuous
 62
     3
370
    13
100
AcDbLine
 10
-812.6618399151599
 20
606.5410478419881
 30
0.0
 11
-812.6618399151599
 21
-633.0589521580121
 31
0.0
  0
LINE
  5
18A
330
1F
100
AcDbEntity
  8
2-0
  6
Continuous
 62
     3
370
    13
100
AcDbLine
 10
-619.52183991516
 20
606.5410478419881
 30
0.0
 11
-619.52183991516
 21
-633.0589521580121
 31
0.0
  0
LINE
  5
18B
330
1F
100
AcDbEntity
  8
2-0
  6
Continuous
 62
     3
370
    13
100
AcDbLine
 10
-426.38183991516
 20
606.5410478419881
 30
0.0
 11
-426.38183991516
 21
-633.0589521580121
 31
0.0
  0
LINE
  5
18C
330
1F
100
AcDbEntity
  8
2-0
  6
Continuous
 62
     3
370
    13
100
AcDbLine
 10
253.0581600848402
 20
606.5410478419881
 30
0.0
 11
253.0581600848402
 21
-633.0589521580121
 31
0.0
  0
LINE
  5
18D
330
1F
100
AcDbEntity
  8
2-0
  6
Continuous
 62
     3
370
    13
100
AcDbLine
 10
1218.75816008484
 20
606.5410478419881
 30
0.0
 11
1218.75816008484
 21
-633.0589521580121
 31
0.0
  0
LINE
  5
18E
330
1F
100
AcDbEntity
  8
2-0
  6
Continuous
 62
     3
370
    13
100
AcDbLine
 10
446.1981600848402
 20
606.5410478419881
 30
0.0
 11
446.1981600848402
 21
-633.0589521580121
 31
0.0
  0
LINE
  5
18F
330
1F
100
AcDbEntity
  8
2-0
  6
Continuous
 62
     3
370
    13
100
AcDbLine
 10
639.3381600848402
 20
606.5410478419881
 30
0.0
 11
639.3381600848402
 21
-633.0589521580121
 31
0.0
  0
LINE
  5
190
330
1F
100
AcDbEntity
  8
2-0
  6
Continuous
 62
     3
370
    13
100
AcDbLine
 10
832.4781600848402
 20
606.5410478419881
 30
0.0
 11
832.4781600848402
 21
-633.0589521580121
 31
0.0
  0
LINE
  5
191
330
1F
100
AcDbEntity
  8
2-0
  6
Continuous
 62
     3
370
    13
100
AcDbLine
 10
1025.61816008484
 20
606.5410478419881
 30
0.0
 11
1025.61816008484
 21
-633.0589521580121
 31
0.0
  0
LINE
  5
192
330
1F
100
AcDbEntity
  8
2-0
  6
Continuous
 62
     3
370
    13
100
AcDbLine
 10
-992.0818399151606
 20
1858.607714852335
 30
0.0
 11
-40.08183991516042
 21
1858.607714852335
 31
0.0
  0
LINE
  5
193
330
1F
100
AcDbEntity
  8
2-0
  6
Continuous
 62
     3
370
    13
100
AcDbLine
 10
-992.0818399151606
 20
3098.207714852335
 30
0.0
 11
-40.08183991516042
 21
3098.207714852335
 31
0.0
  0
LINE
  5
194
330
1F
100
AcDbEntity
  8
2-0
  6
Continuous
 62
     3
370
    13
100
AcDbLine
 10
-992.0818399151606
 20
2050.207714852335
 30
0.0
 11
-40.08183991516042
 21
2050.207714852335
 31
0.0
  0
LINE
  5
195
330
1F
100
AcDbEntity
  8
2-0
  6
Continuous
 62
     3
370
    13
100
AcDbLine
 10
-992.0818399151606
 20
2906.607714852335
 30
0.0
 11
-40.08183991516042
 21
2906.607714852335
 31
0.0
  0
LINE
  5
196
330
1F
100
AcDbEntity
  8
2-0
  6
Continuous
 62
     3
370
    13
100
AcDbLine
 10
-992.0818399151606
 20
2888.607714852335
 30
0.0
 11
-40.08183991516042
 21
2888.607714852335
 31
0.0
  0
LINE
  5
197
330
1F
100
AcDbEntity
  8
2-0
  6
Continuous
 62
     3
370
    13
100
AcDbLine
 10
-992.0818399151606
 20
2697.007714852335
 30
0.0
 11
-40.08183991516042
 21
2697.007714852335
 31
0.0
  0
LINE
  5
198
330
1F
100
AcDbEntity
  8
2-0
  6
Continuous
 62
     3
370
    13
100
AcDbLine
 10
-992.0818399151606
 20
2679.007714852336
 30
0.0
 11
-40.08183991516042
 21
2679.007714852336
 31
0.0
  0
LINE
  5
199
330
1F
100
AcDbEntity
  8
2-0
  6
Continuous
 62
     3
370
    13
100
AcDbLine
 10
-992.0818399151606
 20
2487.407714852336
 30
0.0
 11
-40.08183991516042
 21
2487.407714852336
 31
0.0
  0
LINE
  5
19A
330
1F
100
AcDbEntity
  8
2-0
  6
Continuous
 62
     3
370
    13
100
AcDbLine
 10
-992.0818399151606
 20
2469.407714852335
 30
0.0
 11
-40.08183991516042
 21
2469.407714852335
 31
0.0
  0
LINE
  5
19B
330
1F
100
AcDbEntity
  8
2-0
  6
Continuous
 62
     3
370
    13
100
AcDbLine
 10
-992.0818399151606
 20
2277.807714852335
 30
0.0
 11
-40.08183991516042
 21
2277.807714852335
 31
0.0
  0
LINE
  5
19C
330
1F
100
AcDbEntity
  8
2-0
  6
Continuous
 62
     3
370
    13
100
AcDbLine
 10
-992.0818399151606
 20
2259.807714852335
 30
0.0
 11
-40.08183991516042
 21
2259.807714852335
 31
0.0
  0
LINE
  5
19D
330
1F
100
AcDbEntity
  8
2-0
  6
Continuous
 62
     3
370
    13
100
AcDbLine
 10
-992.0818399151606
 20
2068.207714852335
 30
0.0
 11
-40.08183991516042
 21
2068.207714852335
 31
0.0
  0
LINE
  5
19E
330
1F
100
AcDbEntity
  8
2-0
  6
Continuous
 62
     3
370
    13
100
AcDbLine
 10
1011.91816008484
 20
3098.207714852335
 30
0.0
 11
59.91816008483958
 21
3098.207714852335
 31
0.0
  0
LINE
  5
19F
330
1F
100
AcDbEntity
  8
2-0
  6
Continuous
 62
     3
370
    13
100
AcDbLine
 10
1011.91816008484
 20
1858.607714852335
 30
0.0
 11
59.91816008483958
 21
1858.607714852335
 31
0.0
  0
LINE
  5
1A0
330
1F
100
AcDbEntity
  8
2-0
  6
Continuous
 62
     3
370
    13
100
AcDbLine
 10
1011.91816008484
 20
2906.607714852335
 30
0.0
 11
59.91816008483958
 21
2906.607714852335
 31
0.0
  0
LINE
  5
1A1
330
1F
100
AcDbEntity
  8
2-0
  6
Continuous
 62
     3
370
    13
100
AcDbLine
 10
1011.91816008484
 20
2888.607714852335
 30
0.0
 11
59.91816008483958
 21
2888.607714852335
 31
0.0
  0
LINE
  5
1A2
330
1F
100
AcDbEntity
  8
2-0
  6
Continuous
 62
     3
370
    13
100
AcDbLine
 10
1011.91816008484
 20
2697.007714852335
 30
0.0
 11
59.91816008483958
 21
2697.007714852335
 31
0.0
  0
LINE
  5
1A3
330
1F
100
AcDbEntity
  8
2-0
  6
Continuous
 62
     3
370
    13
100
AcDbLine
 10
1011.91816008484
 20
2679.007714852336
 30
0.0
 11
59.91816008483958
 21
2679.007714852336
 31
0.0
  0
LINE
  5
1A4
330
1F
100
AcDbEntity
  8
2-0
  6
Continuous
 62
     3
370
    13
100
AcDbLine
 10
1011.91816008484
 20
2487.407714852335
 30
0.0
 11
59.91816008483958
 21
2487.407714852335
 31
0.0
  0
LINE
  5
1A5
330
1F
100
AcDbEntity
  8
2-0
  6
Continuous
 62
     3
370
    13
100
AcDbLine
 10
1011.91816008484
 20
2469.407714852335
 30
0.0
 11
59.91816008483958
 21
2469.407714852335
 31
0.0
  0
LINE
  5
1A6
330
1F
100
AcDbEntity
  8
2-0
  6
Continuous
 62
     3
370
    13
100
AcDbLine
 10
1011.91816008484
 20
2277.807714852335
 30
0.0
 11
59.91816008483958
 21
2277.807714852335
 31
0.0
  0
LINE
  5
1A7
330
1F
100
AcDbEntity
  8
2-0
  6
Continuous
 62
     3
370
    13
100
AcDbLine
 10
1011.91816008484
 20
2259.807714852335
 30
0.0
 11
59.91816008483958
 21
2259.807714852335
 31
0.0
  0
LINE
  5
1A8
330
1F
100
AcDbEntity
  8
2-0
  6
Continuous
 62
     3
370
    13
100
AcDbLine
 10
1011.91816008484
 20
2068.207714852335
 30
0.0
 11
59.91816008483958
 21
2068.207714852335
 31
0.0
  0
LINE
  5
1A9
330
1F
100
AcDbEntity
  8
2-0
  6
Continuous
 62
     3
370
    13
100
AcDbLine
 10
1011.91816008484
 20
2050.207714852335
 30
0.0
 11
59.91816008483958
 21
2050.207714852335
 31
0.0
  0
LINE
  5
1AA
330
1F
100
AcDbEntity
  8
2-0
  6
Continuous
 62
     3
370
    13
100
AcDbLine
 10
821.5181600848397
 20
2050.207714852335
 30
0.0
 11
821.5181600848397
 21
1858.607714852335
 31
0.0
  0
LINE
  5
1AB
330
1F
100
AcDbEntity
  8
2-0
  6
Continuous
 62
     3
370
    13
100
AcDbLine
 10
631.1181600848397
 20
2050.207714852335
 30
0.0
 11
631.1181600848397
 21
1858.607714852335
 31
0.0
  0
LINE
  5
1AC
330
1F
100
AcDbEntity
  8
2-0
  6
Continuous
 62
     3
370
    13
100
AcDbLine
 10
821.5181600848397
 20
2259.807714852335
 30
0.0
 11
821.5181600848397
 21
2068.207714852335
 31
0.0
  0
LINE
  5
1AD
330
1F
100
AcDbEntity
  8
2-0
  6
Continuous
 62
     3
370
    13
100
AcDbLine
 10
631.1181600848397
 20
2259.807714852335
 30
0.0
 11
631.1181600848397
 21
2068.207714852335
 31
0.0
  0
LINE
  5
1AE
330
1F
100
AcDbEntity
  8
2-0
  6
Continuous
 62
     3
370
    13
100
AcDbLine
 10
631.1181600848397
 20
2888.607714852335
 30
0.0
 11
631.1181600848397
 21
2697.007714852335
 31
0.0
  0
LINE
  5
1AF
330
1F
100
AcDbEntity
  8
2-0
  6
Continuous
 62
     3
370
    13
100
AcDbLine
 10
631.1181600848397
 20
3098.207714852335
 30
0.0
 11
631.1181600848397
 21
2906.607714852335
 31
0.0
  0
LINE
  5
1B0
330
1F
100
AcDbEntity
  8
2-0
  6
Continuous
 62
     3
370
    13
100
AcDbLine
 10
631.1181600848397
 20
2679.007714852336
 30
0.0
 11
631.1181600848397
 21
2487.407714852335
 31
0.0
  0
LINE
  5
1B1
330
1F
100
AcDbEntity
  8
2-0
  6
Continuous
 62
     3
370
    13
100
AcDbLine
 10
631.1181600848397
 20
2469.407714852335
 30
0.0
 11
631.1181600848397
 21
2277.807714852335
 31
0.0
  0
LINE
  5
1B2
330
1F
100
AcDbEntity
  8
2-0
  6
Continuous
 62
     3
370
    13
100
AcDbLine
 10
821.5181600848397
 20
2469.407714852335
 30
0.0
 11
821.5181600848397
 21
2277.807714852335
 31
0.0
  0
LINE
  5
1B3
330
1F
100
AcDbEntity
  8
2-0
  6
Continuous
 62
     3
370
    13
100
AcDbLine
 10
821.5181600848397
 20
2679.007714852336
 30
0.0
 11
821.5181600848397
 21
2487.407714852335
 31
0.0
  0
LINE
  5
1B4
330
1F
100
AcDbEntity
  8
2-0
  6
Continuous
 62
     3
370
    13
100
AcDbLine
 10
821.5181600848397
 20
2888.607714852335
 30
0.0
 11
821.5181600848397
 21
2697.007714852335
 31
0.0
  0
LINE
  5
1B5
330
1F
100
AcDbEntity
  8
2-0
  6
Continuous
 62
     3
370
    13
100
AcDbLine
 10
821.5181600848397
 20
3098.207714852335
 30
0.0
 11
821.5181600848397
 21
2906.607714852335
 31
0.0
  0
LINE
  5
1B6
330
1F
100
AcDbEntity
  8
2-0
  6
Continuous
 62
     3
370
    13
100
AcDbLine
 10
250.3181600848398
 20
2888.607714852335
 30
0.0
 11
250.3181600848398
 21
2697.007714852335
 31
0.0
  0
LINE
  5
1B7
330
1F
100
AcDbEntity
  8
2-0
  6
Continuous
 62
     3
370
    13
100
AcDbLine
 10
250.3181600848398
 20
3098.207714852335
 30
0.0
 11
250.3181600848398
 21
2906.607714852335
 31
0.0
  0
LINE
  5
1B8
330
1F
100
AcDbEntity
  8
2-0
  6
Continuous
 62
     3
370
    13
100
AcDbLine
 10
250.3181600848398
 20
2679.007714852336
 30
0.0
 11
250.3181600848398
 21
2487.407714852335
 31
0.0
  0
LINE
  5
1B9
330
1F
100
AcDbEntity
  8
2-0
  6
Continuous
 62
     3
370
    13
100
AcDbLine
 10
250.3181600848398
 20
2469.407714852335
 30
0.0
 11
250.3181600848398
 21
2277.807714852335
 31
0.0
  0
LINE
  5
1BA
330
1F
100
AcDbEntity
  8
2-0
  6
Continuous
 62
     3
370
    13
100
AcDbLine
 10
250.3181600848398
 20
2259.807714852335
 30
0.0
 11
250.3181600848398
 21
2068.207714852335
 31
0.0
  0
LINE
  5
1BB
330
1F
100
AcDbEntity
  8
2-0
  6
Continuous
 62
     3
370
    13
100
AcDbLine
 10
250.3181600848398
 20
2050.207714852335
 30
0.0
 11
250.3181600848398
 21
1858.607714852335
 31
0.0
  0
LINE
  5
1BC
330
1F
100
AcDbEntity
  8
2-0
  6
Continuous
 62
     3
370
    13
100
AcDbLine
 10
440.7181600848397
 20
3098.207714852335
 30
0.0
 11
440.7181600848397
 21
2906.607714852335
 31
0.0
  0
LINE
  5
1BD
330
1F
100
AcDbEntity
  8
2-0
  6
Continuous
 62
     3
370
    13
100
AcDbLine
 10
440.7181600848397
 20
2888.607714852335
 30
0.0
 11
440.7181600848397
 21
2697.007714852335
 31
0.0
  0
LINE
  5
1BE
330
1F
100
AcDbEntity
  8
2-0
  6
Continuous
 62
     3
370
    13
100
AcDbLine
 10
440.7181600848397
 20
2679.007714852336
 30
0.0
 11
440.7181600848397
 21
2487.407714852335
 31
0.0
  0
LINE
  5
1BF
330
1F
100
AcDbEntity
  8
2-0
  6
Continuous
 62
     3
370
    13
100
AcDbLine
 10
440.7181600848397
 20
2469.407714852335
 30
0.0
 11
440.7181600848397
 21
2277.807714852335
 31
0.0
  0
LINE
  5
1C0
330
1F
100
AcDbEntity
  8
2-0
  6
Continuous
 62
     3
370
    13
100
AcDbLine
 10
440.7181600848397
 20
2259.807714852335
 30
0.0
 11
440.7181600848397
 21
2068.207714852335
 31
0.0
  0
LINE
  5
1C1
330
1F
100
AcDbEntity
  8
2-0
  6
Continuous
 62
     3
370
    13
100
AcDbLine
 10
440.7181600848397
 20
2050.207714852335
 30
0.0
 11
440.7181600848397
 21
1858.607714852335
 31
0.0
  0
LINE
  5
1C2
330
1F
100
AcDbEntity
  8
2-0
  6
Continuous
 62
     3
370
    13
100
AcDbLine
 10
-801.6818399151607
 20
3098.207714852335
 30
0.0
 11
-801.6818399151607
 21
2906.607714852335
 31
0.0
  0
LINE
  5
1C3
330
1F
100
AcDbEntity
  8
2-0
  6
Continuous
 62
     3
370
    13
100
AcDbLine
 10
-611.2818399151606
 20
3098.207714852335
 30
0.0
 11
-611.2818399151606
 21
2906.607714852335
 31
0.0
  0
LINE
  5
1C4
330
1F
100
AcDbEntity
  8
2-0
  6
Continuous
 62
     3
370
    13
100
AcDbLine
 10
-420.8818399151608
 20
3098.207714852335
 30
0.0
 11
-420.8818399151608
 21
2906.607714852335
 31
0.0
  0
LINE
  5
1C5
330
1F
100
AcDbEntity
  8
2-0
  6
Continuous
 62
     3
370
    13
100
AcDbLine
 10
-230.4818399151609
 20
3098.207714852335
 30
0.0
 11
-230.4818399151609
 21
2906.607714852335
 31
0.0
  0
LINE
  5
1C6
330
1F
100
AcDbEntity
  8
2-0
  6
Continuous
 62
     3
370
    13
100
AcDbLine
 10
-801.6818399151607
 20
2888.607714852335
 30
0.0
 11
-801.6818399151607
 21
2697.007714852335
 31
0.0
  0
LINE
  5
1C7
330
1F
100
AcDbEntity
  8
2-0
  6
Continuous
 62
     3
370
    13
100
AcDbLine
 10
-611.2818399151606
 20
2888.607714852335
 30
0.0
 11
-611.2818399151606
 21
2697.007714852335
 31
0.0
  0
LINE
  5
1C8
330
1F
100
AcDbEntity
  8
2-0
  6
Continuous
 62
     3
370
    13
100
AcDbLine
 10
-420.8818399151608
 20
2888.607714852335
 30
0.0
 11
-420.8818399151608
 21
2697.007714852335
 31
0.0
  0
LINE
  5
1C9
330
1F
100
AcDbEntity
  8
2-0
  6
Continuous
 62
     3
370
    13
100
AcDbLine
 10
-230.4818399151609
 20
2888.607714852335
 30
0.0
 11
-230.4818399151609
 21
2697.007714852335
 31
0.0
  0
LINE
  5
1CA
330
1F
100
AcDbEntity
  8
2-0
  6
Continuous
 62
     3
370
    13
100
AcDbLine
 10
-801.6818399151607
 20
2679.007714852336
 30
0.0
 11
-801.6818399151607
 21
2487.407714852336
 31
0.0
  0
LINE
  5
1CB
330
1F
100
AcDbEntity
  8
2-0
  6
Continuous
 62
     3
370
    13
100
AcDbLine
 10
-611.2818399151606
 20
2679.007714852336
 30
0.0
 11
-611.2818399151606
 21
2487.407714852336
 31
0.0
  0
LINE
  5
1CC
330
1F
100
AcDbEntity
  8
2-0
  6
Continuous
 62
     3
370
    13
100
AcDbLine
 10
-420.8818399151608
 20
2679.007714852336
 30
0.0
 11
-420.8818399151608
 21
2487.407714852336
 31
0.0
  0
LINE
  5
1CD
330
1F
100
AcDbEntity
  8
2-0
  6
Continuous
 62
     3
370
    13
100
AcDbLine
 10
-230.4818399151609
 20
2679.007714852336
 30
0.0
 11
-230.4818399151609
 21
2487.407714852336
 31
0.0
  0
LINE
  5
1CE
330
1F
100
AcDbEntity
  8
2-0
  6
Continuous
 62
     3
370
    13
100
AcDbLine
 10
-801.6818399151607
 20
2469.407714852335
 30
0.0
 11
-801.6818399151607
 21
2277.807714852335
 31
0.0
  0
LINE
  5
1CF
330
1F
100
AcDbEntity
  8
2-0
  6
Continuous
 62
     3
370
    13
100
AcDbLine
 10
-611.2818399151606
 20
2469.407714852335
 30
0.0
 11
-611.2818399151606
 21
2277.807714852335
 31
0.0
  0
LINE
  5
1D0
330
1F
100
AcDbEntity
  8
2-0
  6
Continuous
 62
     3
370
    13
100
AcDbLine
 10
-420.8818399151608
 20
2469.407714852335
 30
0.0
 11
-420.8818399151608
 21
2277.807714852335
 31
0.0
  0
LINE
  5
1D1
330
1F
100
AcDbEntity
  8
2-0
  6
Continuous
 62
     3
370
    13
100
AcDbLine
 10
-230.4818399151609
 20
2469.407714852335
 30
0.0
 11
-230.4818399151609
 21
2277.807714852335
 31
0.0
  0
LINE
  5
1D2
330
1F
100
AcDbEntity
  8
2-0
  6
Continuous
 62
     3
370
    13
100
AcDbLine
 10
-801.6818399151607
 20
2259.807714852335
 30
0.0
 11
-801.6818399151607
 21
2068.207714852335
 31
0.0
  0
LINE
  5
1D3
330
1F
100
AcDbEntity
  8
2-0
  6
Continuous
 62
     3
370
    13
100
AcDbLine
 10
-611.2818399151606
 20
2259.807714852335
 30
0.0
 11
-611.2818399151606
 21
2068.207714852335
 31
0.0
  0
LINE
  5
1D4
330
1F
100
AcDbEntity
  8
2-0
  6
Continuous
 62
     3
370
    13
100
AcDbLine
 10
-420.8818399151608
 20
2259.807714852335
 30
0.0
 11
-420.8818399151608
 21
2068.207714852335
 31
0.0
  0
LINE
  5
1D5
330
1F
100
AcDbEntity
  8
2-0
  6
Continuous
 62
     3
370
    13
100
AcDbLine
 10
-230.4818399151609
 20
2259.807714852335
 30
0.0
 11
-230.4818399151609
 21
2068.207714852335
 31
0.0
  0
LINE
  5
1D6
330
1F
100
AcDbEntity
  8
2-0
  6
Continuous
 62
     3
370
    13
100
AcDbLine
 10
-230.4818399151609
 20
2050.207714852335
 30
0.0
 11
-230.4818399151609
 21
1858.607714852335
 31
0.0
  0
LINE
  5
1D7
330
1F
100
AcDbEntity
  8
2-0
  6
Continuous
 62
     3
370
    13
100
AcDbLine
 10
-420.8818399151608
 20
2050.207714852335
 30
0.0
 11
-420.8818399151608
 21
1858.607714852335
 31
0.0
  0
LINE
  5
1D8
330
1F
100
AcDbEntity
  8
2-0
  6
Continuous
 62
     3
370
    13
100
AcDbLine
 10
-611.2818399151606
 20
2050.207714852335
 30
0.0
 11
-611.2818399151606
 21
1858.607714852335
 31
0.0
  0
LINE
  5
1D9
330
1F
100
AcDbEntity
  8
2-0
  6
Continuous
 62
     3
370
    13
100
AcDbLine
 10
-801.6818399151607
 20
2050.207714852335
 30
0.0
 11
-801.6818399151607
 21
1858.607714852335
 31
0.0
  0
MTEXT
  5
1DA
330
1F
100
AcDbEntity
  8
F-A
  6
Continuous
 62
     7
370
     0
100
AcDbMText
 10
4886.167793092893
 20
-3938.071010139966
 30
0.0
 40
78.86699999999999
 41
517.5
 46
0.0
 71
     7
 72
     1
  1
{\fＭＳ ゴシック|b0|i0|c128|p49;2021.04.01}
 73
     1
 44
1.0
  0
MTEXT
  5
1DB
330
1F
100
AcDbEntity
  8
F-A
  6
Continuous
 62
     7
370
     0
100
AcDbMText
 10
-5087.628710189611
 20
-4045.31243607839
 30
0.0
 40
79.375
 41
1875.0
 46
0.0
 71
     7
 72
     1
  1
{\fＭＳ ゴシック|b0|i0|c128|p49;和風下駄箱　舞良戸　（置き型タイプ）}
 73
     1
 44
1.0
  0
ENDSEC
  0
SECTION
  2
OBJECTS
  0
DICTIONARY
  5
C
330
0
100
AcDbDictionary
281
     1
  3
ACAD_GROUP
350
D
  3
ACAD_LAYOUT
350
1A
  3
ACAD_MATERIAL
350
3B
  3
ACAD_MLEADERSTYLE
350
1DD
  3
ACAD_MLINESTYLE
350
17
  3
ACAD_PLOTSETTINGS
350
19
  3
ACAD_PLOTSTYLENAME
350
E
  3
ACAD_TABLESTYLE
350
1DC
  3
ACAD_VISUALSTYLE
350
2A
  0
DICTIONARY
  5
D
102
{ACAD_REACTORS
330
C
102
}
330
C
100
AcDbDictionary
281
     1
  0
DICTIONARY
  5
1A
102
{ACAD_REACTORS
330
C
102
}
330
C
100
AcDbDictionary
281
     1
  3
Layout1
350
1E
  3
Layout2
350
26
  3
Model
350
22
  0
DICTIONARY
  5
3B
102
{ACAD_REACTORS
330
C
102
}
330
C
100
AcDbDictionary
281
     1
  3
ByBlock
350
3D
  3
ByLayer
350
3C
  3
Global
350
3E
  0
DICTIONARY
  5
1DD
102
{ACAD_REACTORS
330
C
102
}
330
C
100
AcDbDictionary
281
     1
  0
DICTIONARY
  5
17
102
{ACAD_REACTORS
330
C
102
}
330
C
100
AcDbDictionary
281
     1
  3
Standard
350
18
  0
DICTIONARY
  5
19
102
{ACAD_REACTORS
330
C
102
}
330
C
100
AcDbDictionary
281
     1
  0
ACDBDICTIONARYWDFLT
  5
E
102
{ACAD_REACTORS
330
C
102
}
330
C
100
AcDbDictionary
281
     1
  3
Normal
350
F
100
AcDbDictionaryWithDefault
340
F
  0
DICTIONARY
  5
1DC
102
{ACAD_REACTORS
330
C
102
}
330
C
100
AcDbDictionary
281
     1
  0
DICTIONARY
  5
2A
102
{ACAD_REACTORS
330
C
102
}
330
C
100
AcDbDictionary
281
     1
  3
2dWireframe
350
2F
  3
3D Hidden
350
31
  3
3dWireframe
350
30
  3
Basic
350
32
  3
Brighten
350
36
  3
ColorChange
350
3A
  3
Conceptual
350
34
  3
Dim
350
35
  3
Facepattern
350
39
  3
Flat
350
2B
  3
FlatWithEdges
350
2C
  3
Gouraud
350
2D
  3
GouraudWithEdges
350
2E
  3
Linepattern
350
38
  3
Realistic
350
33
  3
Thicken
350
37
  0
LAYOUT
  5
1E
102
{ACAD_REACTORS
330
1A
102
}
330
1A
100
AcDbPlotSettings
  1

  2
none_device
  4

  6

 40
0.0
 41
0.0
 42
0.0
 43
0.0
 44
0.0
 45
0.0
 46
0.0
 47
0.0
 48
0.0
 49
0.0
140
0.0
141
0.0
142
1.0
143
1.0
 70
   688
 72
     0
 73
     0
 74
     5
  7

 75
    16
 76
     0
 77
     5
 78
   300
147
1.0
148
0.0
149
0.0
100
AcDbLayout
  1
Layout1
 70
     1
 71
     1
 10
0.0
 20
0.0
 11
420.0
 21
297.0
 12
0.0
 22
0.0
 32
0.0
 14
1.000000000000000E+20
 24
1.000000000000000E+20
 34
1.000000000000000E+20
 15
-1.000000000000000E+20
 25
-1.000000000000000E+20
 35
-1.000000000000000E+20
146
0.0
 13
0.0
 23
0.0
 33
0.0
 16
1.0
 26
0.0
 36
0.0
 17
0.0
 27
1.0
 37
0.0
 76
     0
330
1B
  0
LAYOUT
  5
26
102
{ACAD_REACTORS
330
1A
102
}
330
1A
100
AcDbPlotSettings
  1

  2
none_device
  4

  6

 40
0.0
 41
0.0
 42
0.0
 43
0.0
 44
0.0
 45
0.0
 46
0.0
 47
0.0
 48
0.0
 49
0.0
140
0.0
141
0.0
142
1.0
143
1.0
 70
   688
 72
     0
 73
     0
 74
     5
  7

 75
    16
 76
     0
 77
     5
 78
   300
147
1.0
148
0.0
149
0.0
100
AcDbLayout
  1
Layout2
 70
     1
 71
     2
 10
0.0
 20
0.0
 11
0.0
 21
0.0
 12
0.0
 22
0.0
 32
0.0
 14
0.0
 24
0.0
 34
0.0
 15
0.0
 25
0.0
 35
0.0
146
0.0
 13
0.0
 23
0.0
 33
0.0
 16
1.0
 26
0.0
 36
0.0
 17
0.0
 27
1.0
 37
0.0
 76
     0
330
23
  0
LAYOUT
  5
22
102
{ACAD_REACTORS
330
1A
102
}
330
1A
100
AcDbPlotSettings
  1

  2
none_device
  4

  6

 40
0.0
 41
0.0
 42
0.0
 43
0.0
 44
0.0
 45
0.0
 46
0.0
 47
0.0
 48
0.0
 49
0.0
140
0.0
141
0.0
142
1.0
143
1.0
 70
  1712
 72
     0
 73
     0
 74
     0
  7

 75
     0
 76
     0
 77
     5
 78
   300
147
1.0
148
0.0
149
0.0
100
AcDbLayout
  1
Model
 70
     1
 71
     0
 10
-6300.0
 20
-4455.0
 11
6300.0
 21
4455.0
 12
0.0
 22
0.0
 32
0.0
 14
-6300.0
 24
-4455.0
 34
0.0
 15
6300.0
 25
4455.0
 35
0.0
146
0.0
 13
0.0
 23
0.0
 33
0.0
 16
1.0
 26
0.0
 36
0.0
 17
0.0
 27
1.0
 37
0.0
 76
     0
330
1F
331
29
  0
MATERIAL
  5
3D
102
{ACAD_REACTORS
330
3B
102
}
330
3B
100
AcDbMaterial
  1
ByBlock
 72
     1
 94
      127
  0
MATERIAL
  5
3C
102
{ACAD_REACTORS
330
3B
102
}
330
3B
100
AcDbMaterial
  1
ByLayer
 72
     1
 94
      127
  0
MATERIAL
  5
3E
102
{ACAD_REACTORS
330
3B
102
}
330
3B
100
AcDbMaterial
  1
Global
 72
     1
 94
      127
  0
MLINESTYLE
  5
18
102
{ACAD_REACTORS
330
17
102
}
330
17
100
AcDbMlineStyle
  2
Standard
 70
     0
  3

 62
   256
 51
90.0
 52
90.0
 71
     2
 49
0.5
 62
   256
  6
BYLAYER
 49
-0.5
 62
   256
  6
BYLAYER
  0
ACDBPLACEHOLDER
  5
F
102
{ACAD_REACTORS
330
E
102
}
330
E
  0
VISUALSTYLE
  5
2F
102
{ACAD_REACTORS
330
2A
102
}
330
2A
100
AcDbVisualStyle
  2
2dWireframe
 70
     4
177
     2
291
     0
 71
     0
176
     1
 72
     2
176
     1
 73
     0
176
     1
 90
        0
176
     1
 40
-0.6
176
     1
 41
-30.0
176
     1
 62
     5
 63
     7
421
 16777215
176
     1
 74
     1
176
     1
 91
        4
176
     1
 64
     7
176
     1
 65
   257
176
     1
 75
     1
176
     1
175
     1
176
     1
 42
1.0
176
     1
 92
        0
176
     1
 66
   257
176
     1
 43
1.0
176
     1
 76
     1
176
     1
 77
     6
176
     1
 78
     2
176
     1
 67
     7
176
     1
 79
     5
176
     1
170
     0
176
     1
171
     0
176
     1
290
     0
176
     1
 93
        1
176
     1
 44
0.0
176
     1
173
     0
176
     1
  0
VISUALSTYLE
  5
31
102
{ACAD_REACTORS
330
2A
102
}
330
2A
100
AcDbVisualStyle
  2
3D Hidden
 70
     6
177
     2
291
     0
 71
     1
176
     1
 72
     2
176
     1
 73
     2
176
     1
 90
        0
176
     1
 40
-0.6
176
     1
 41
-30.0
176
     1
 62
     5
 63
     7
421
 16777215
176
     1
 74
     2
176
     1
 91
        2
176
     1
 64
     7
176
     1
 65
   257
176
     1
 75
     2
176
     1
175
     1
176
     1
 42
40.0
176
     1
 92
        0
176
     1
 66
   257
176
     1
 43
1.0
176
     1
 76
     1
176
     1
 77
     6
176
     1
 78
     2
176
     1
 67
     7
176
     1
 79
     3
176
     1
170
     0
176
     1
171
     0
176
     1
290
     0
176
     1
 93
        1
176
     1
 44
0.0
176
     1
173
     0
176
     1
  0
VISUALSTYLE
  5
30
102
{ACAD_REACTORS
330
2A
102
}
330
2A
100
AcDbVisualStyle
  2
3dWireframe
 70
     5
177
     2
291
     0
 71
     0
176
     1
 72
     2
176
     1
 73
     0
176
     1
 90
        0
176
     1
 40
-0.6
176
     1
 41
-30.0
176
     1
 62
     5
 63
     7
421
 16777215
176
     1
 74
     1
176
     1
 91
        4
176
     1
 64
     7
176
     1
 65
   257
176
     1
 75
     1
176
     1
175
     1
176
     1
 42
1.0
176
     1
 92
        0
176
     1
 66
   257
176
     1
 43
1.0
176
     1
 76
     1
176
     1
 77
     6
176
     1
 78
     2
176
     1
 67
     7
176
     1
 79
     5
176
     1
170
     0
176
     1
171
     0
176
     1
290
     0
176
     1
 93
        1
176
     1
 44
0.0
176
     1
173
     0
176
     1
  0
VISUALSTYLE
  5
32
102
{ACAD_REACTORS
330
2A
102
}
330
2A
100
AcDbVisualStyle
  2
Basic
 70
     7
177
     2
291
     1
 71
     1
176
     1
 72
     0
176
     1
 73
     1
176
     1
 90
        0
176
     1
 40
-0.6
176
     1
 41
-30.0
176
     1
 62
     5
 63
     7
421
 16777215
176
     1
 74
     0
176
     1
 91
        4
176
     1
 64
     7
176
     1
 65
   257
176
     1
 75
     1
176
     1
175
     1
176
     1
 42
1.0
176
     1
 92
        8
176
     1
 66
     7
176
     1
 43
1.0
176
     1
 76
     1
176
     1
 77
     6
176
     1
 78
     2
176
     1
 67
     7
176
     1
 79
     5
176
     1
170
     0
176
     1
171
     0
176
     1
290
     0
176
     1
 93
        1
176
     1
 44
0.0
176
     1
173
     0
176
     1
  0
VISUALSTYLE
  5
36
102
{ACAD_REACTORS
330
2A
102
}
330
2A
100
AcDbVisualStyle
  2
Brighten
 70
    12
177
     2
291
     1
 71
     2
176
     1
 72
     2
176
     1
 73
     0
176
     1
 90
        0
176
     1
 40
-0.6
176
     1
 41
-30.0
176
     1
 62
     5
 63
     7
421
 16777215
176
     1
 74
     1
176
     1
 91
        4
176
     1
 64
     7
176
     1
 65
   257
176
     1
 75
     1
176
     1
175
     1
176
     1
 42
1.0
176
     1
 92
        8
176
     1
 66
     7
176
     1
 43
1.0
176
     1
 76
     1
176
     1
 77
     6
176
     1
 78
     2
176
     1
 67
     7
176
     1
 79
     5
176
     1
170
     0
176
     1
171
     0
176
     1
290
     0
176
     1
 93
        1
176
     1
 44
50.0
176
     1
173
     0
176
     1
  0
VISUALSTYLE
  5
3A
102
{ACAD_REACTORS
330
2A
102
}
330
2A
100
AcDbVisualStyle
  2
ColorChange
 70
    16
177
     2
291
     1
 71
     2
176
     1
 72
     2
176
     1
 73
     3
176
     1
 90
        0
176
     1
 40
-0.6
176
     1
 41
-30.0
176
     1
 62
     5
 63
     8
421
  8421504
176
     1
 74
     1
176
     1
 91
        4
176
     1
 64
     7
176
     1
 65
   257
176
     1
 75
     1
176
     1
175
     1
176
     1
 42
1.0
176
     1
 92
        8
176
     1
 66
     8
424
  8421504
176
     1
 43
1.0
176
     1
 76
     1
176
     1
 77
     6
176
     1
 78
     2
176
     1
 67
     7
176
     1
 79
     5
176
     1
170
     0
176
     1
171
     0
176
     1
290
     0
176
     1
 93
        1
176
     1
 44
0.0
176
     1
173
     0
176
     1
  0
VISUALSTYLE
  5
34
102
{ACAD_REACTORS
330
2A
102
}
330
2A
100
AcDbVisualStyle
  2
Conceptual
 70
     9
177
     2
291
     0
 71
     3
176
     1
 72
     2
176
     1
 73
     0
176
     1
 90
        0
176
     1
 40
-0.6
176
     1
 41
-30.0
176
     1
 62
     5
 63
     7
421
 16777215
176
     1
 74
     2
176
     1
 91
        2
176
     1
 64
     7
176
     1
 65
   257
176
     1
 75
     1
176
     1
175
     1
176
     1
 42
40.0
176
     1
 92
        8
176
     1
 66
     7
176
     1
 43
1.0
176
     1
 76
     1
176
     1
 77
     6
176
     1
 78
     2
176
     1
 67
     7
176
     1
 79
     3
176
     1
170
     0
176
     1
171
     0
176
     1
290
     0
176
     1
 93
        1
176
     1
 44
0.0
176
     1
173
     0
176
     1
  0
VISUALSTYLE
  5
35
102
{ACAD_REACTORS
330
2A
102
}
330
2A
100
AcDbVisualStyle
  2
Dim
 70
    11
177
     2
291
     1
 71
     2
176
     1
 72
     2
176
     1
 73
     0
176
     1
 90
        0
176
     1
 40
-0.6
176
     1
 41
-30.0
176
     1
 62
     5
 63
     7
421
 16777215
176
     1
 74
     1
176
     1
 91
        4
176
     1
 64
     7
176
     1
 65
   257
176
     1
 75
     1
176
     1
175
     1
176
     1
 42
1.0
176
     1
 92
        8
176
     1
 66
     7
176
     1
 43
1.0
176
     1
 76
     1
176
     1
 77
     6
176
     1
 78
     2
176
     1
 67
     7
176
     1
 79
     5
176
     1
170
     0
176
     1
171
     0
176
     1
290
     0
176
     1
 93
        1
176
     1
 44
-50.0
176
     1
173
     0
176
     1
  0
VISUALSTYLE
  5
39
102
{ACAD_REACTORS
330
2A
102
}
330
2A
100
AcDbVisualStyle
  2
Facepattern
 70
    15
177
     2
291
     1
 71
     2
176
     1
 72
     2
176
     1
 73
     0
176
     1
 90
        0
176
     1
 40
-0.6
176
     1
 41
-30.0
176
     1
 62
     5
 63
     7
421
 16777215
176
     1
 74
     1
176
     1
 91
        4
176
     1
 64
     7
176
     1
 65
   257
176
     1
 75
     1
176
     1
175
     1
176
     1
 42
1.0
176
     1
 92
        8
176
     1
 66
     7
176
     1
 43
1.0
176
     1
 76
     1
176
     1
 77
     6
176
     1
 78
     2
176
     1
 67
     7
176
     1
 79
     5
176
     1
170
     0
176
     1
171
     0
176
     1
290
     0
176
     1
 93
        1
176
     1
 44
0.0
176
     1
173
     0
176
     1
  0
VISUALSTYLE
  5
2B
102
{ACAD_REACTORS
330
2A
102
}
330
2A
100
AcDbVisualStyle
  2
Flat
 70
     0
177
     2
291
     1
 71
     2
176
     1
 72
     1
176
     1
 73
     1
176
     1
 90
        2
176
     1
 40
-0.6
176
     1
 41
30.0
176
     1
 62
     5
 63
     7
421
 16777215
176
     1
 74
     0
176
     1
 91
        4
176
     1
 64
     7
176
     1
 65
   257
176
     1
 75
     1
176
     1
175
     1
176
     1
 42
1.0
176
     1
 92
        8
176
     1
 66
     7
176
     1
 43
1.0
176
     1
 76
     1
176
     1
 77
     6
176
     1
 78
     2
176
     1
 67
     7
176
     1
 79
     5
176
     1
170
     0
176
     1
171
     0
176
     1
290
     0
176
     1
 93
       13
176
     1
 44
0.0
176
     1
173
     0
176
     1
  0
VISUALSTYLE
  5
2C
102
{ACAD_REACTORS
330
2A
102
}
330
2A
100
AcDbVisualStyle
  2
FlatWithEdges
 70
     1
177
     2
291
     1
 71
     2
176
     1
 72
     1
176
     1
 73
     1
176
     1
 90
        2
176
     1
 40
-0.6
176
     1
 41
30.0
176
     1
 62
     5
 63
     7
421
 16777215
176
     1
 74
     1
176
     1
 91
        4
176
     1
 64
     7
176
     1
 65
   257
176
     1
 75
     1
176
     1
175
     1
176
     1
 42
1.0
176
     1
 92
        0
176
     1
 66
   257
176
     1
 43
1.0
176
     1
 76
     1
176
     1
 77
     6
176
     1
 78
     2
176
     1
 67
     7
176
     1
 79
     5
176
     1
170
     0
176
     1
171
     0
176
     1
290
     0
176
     1
 93
       13
176
     1
 44
0.0
176
     1
173
     0
176
     1
  0
VISUALSTYLE
  5
2D
102
{ACAD_REACTORS
330
2A
102
}
330
2A
100
AcDbVisualStyle
  2
Gouraud
 70
     2
177
     2
291
     1
 71
     2
176
     1
 72
     2
176
     1
 73
     1
176
     1
 90
        2
176
     1
 40
-0.6
176
     1
 41
30.0
176
     1
 62
     5
 63
     7
421
 16777215
176
     1
 74
     0
176
     1
 91
        4
176
     1
 64
     7
176
     1
 65
   257
176
     1
 75
     1
176
     1
175
     1
176
     1
 42
1.0
176
     1
 92
        0
176
     1
 66
     7
176
     1
 43
1.0
176
     1
 76
     1
176
     1
 77
     6
176
     1
 78
     2
176
     1
 67
     7
176
     1
 79
     5
176
     1
170
     0
176
     1
171
     0
176
     1
290
     0
176
     1
 93
       13
176
     1
 44
0.0
176
     1
173
     0
176
     1
  0
VISUALSTYLE
  5
2E
102
{ACAD_REACTORS
330
2A
102
}
330
2A
100
AcDbVisualStyle
  2
GouraudWithEdges
 70
     3
177
     2
291
     1
 71
     2
176
     1
 72
     2
176
     1
 73
     1
176
     1
 90
        2
176
     1
 40
-0.6
176
     1
 41
30.0
176
     1
 62
     5
 63
     7
421
 16777215
176
     1
 74
     1
176
     1
 91
        4
176
     1
 64
     7
176
     1
 65
   257
176
     1
 75
     1
176
     1
175
     1
176
     1
 42
1.0
176
     1
 92
        0
176
     1
 66
   257
176
     1
 43
1.0
176
     1
 76
     1
176
     1
 77
     6
176
     1
 78
     2
176
     1
 67
     7
176
     1
 79
     5
176
     1
170
     0
176
     1
171
     0
176
     1
290
     0
176
     1
 93
       13
176
     1
 44
0.0
176
     1
173
     0
176
     1
  0
VISUALSTYLE
  5
38
102
{ACAD_REACTORS
330
2A
102
}
330
2A
100
AcDbVisualStyle
  2
Linepattern
 70
    14
177
     2
291
     1
 71
     2
176
     1
 72
     2
176
     1
 73
     0
176
     1
 90
        0
176
     1
 40
-0.6
176
     1
 41
-30.0
176
     1
 62
     5
 63
     7
421
 16777215
176
     1
 74
     1
176
     1
 91
        4
176
     1
 64
     7
176
     1
 65
   257
176
     1
 75
     7
176
     1
175
     7
176
     1
 42
1.0
176
     1
 92
        8
176
     1
 66
     7
176
     1
 43
1.0
176
     1
 76
     1
176
     1
 77
     6
176
     1
 78
     2
176
     1
 67
     7
176
     1
 79
     5
176
     1
170
     0
176
     1
171
     0
176
     1
290
     0
176
     1
 93
        1
176
     1
 44
0.0
176
     1
173
     0
176
     1
  0
VISUALSTYLE
  5
33
102
{ACAD_REACTORS
330
2A
102
}
330
2A
100
AcDbVisualStyle
  2
Realistic
 70
     8
177
     2
291
     0
 71
     2
176
     1
 72
     2
176
     1
 73
     0
176
     1
 90
        0
176
     1
 40
-0.6
176
     1
 41
-30.0
176
     1
 62
     5
 63
     7
421
 16777215
176
     1
 74
     1
176
     1
 91
        0
176
     1
 64
     7
176
     1
 65
   257
176
     1
 75
     1
176
     1
175
     1
176
     1
 42
1.0
176
     1
 92
        8
176
     1
 66
     8
424
  7895160
176
     1
 43
1.0
176
     1
 76
     1
176
     1
 77
     6
176
     1
 78
     2
176
     1
 67
     7
176
     1
 79
     5
176
     1
170
     0
176
     1
171
     0
176
     1
290
     0
176
     1
 93
       13
176
     1
 44
0.0
176
     1
173
     0
176
     1
  0
VISUALSTYLE
  5
37
102
{ACAD_REACTORS
330
2A
102
}
330
2A
100
AcDbVisualStyle
  2
Thicken
 70
    13
177
     2
291
     1
 71
     2
176
     1
 72
     2
176
     1
 73
     0
176
     1
 90
        0
176
     1
 40
-0.6
176
     1
 41
-30.0
176
     1
 62
     5
 63
     7
421
 16777215
176
     1
 74
     1
176
     1
 91
        4
176
     1
 64
     7
176
     1
 65
   257
176
     1
 75
     1
176
     1
175
     1
176
     1
 42
1.0
176
     1
 92
       12
176
     1
 66
     7
176
     1
 43
1.0
176
     1
 76
     1
176
     1
 77
     6
176
     1
 78
     2
176
     1
 67
     7
176
     1
 79
     5
176
     1
170
     0
176
     1
171
     0
176
     1
290
     0
176
     1
 93
        1
176
     1
 44
0.0
176
     1
173
     0
176
     1
  0
ENDSEC
  0
EOF
