  0
SECTION
  2
HEADER
  9
$ACADVER
  1
AC1024
  9
$ACADMAINTVER
 70
     6
  9
$DWGCODEPAGE
  3
ANSI_932
  9
$INSBASE
 10
0.0
 20
0.0
 30
0.0
  9
$EXTMIN
 10
-4455.0
 20
-3150.0
 30
0.0
  9
$EXTMAX
 10
4455.0
 20
3150.0
 30
0.0
  9
$LIMMIN
 10
-4455.0
 20
-3150.0
  9
$LIMMAX
 10
4455.0
 20
3150.0
  9
$ORTHOMODE
 70
     0
  9
$REGENMODE
 70
     1
  9
$FILLMODE
 70
     1
  9
$QTEXTMODE
 70
     0
  9
$MIRRTEXT
 70
     1
  9
$LTSCALE
 40
30.0
  9
$ATTMODE
 70
     1
  9
$TEXTSIZE
 40
2.5
  9
$TRACEWID
 40
1.0
  9
$TEXTSTYLE
  7
Standard
  9
$CLAYER
  8
0
  9
$CELTYPE
  6
ByLayer
  9
$CECOLOR
 62
   256
  9
$CELTSCALE
 40
1.0
  9
$DISPSILH
 70
     0
  9
$DIMSCALE
 40
1.0
  9
$DIMASZ
 40
2.5
  9
$DIMEXO
 40
0.625
  9
$DIMDLI
 40
3.75
  9
$DIMRND
 40
0.0
  9
$DIMDLE
 40
0.0
  9
$DIMEXE
 40
1.25
  9
$DIMTP
 40
0.0
  9
$DIMTM
 40
0.0
  9
$DIMTXT
 40
2.5
  9
$DIMCEN
 40
2.5
  9
$DIMTSZ
 40
0.0
  9
$DIMTOL
 70
     0
  9
$DIMLIM
 70
     0
  9
$DIMTIH
 70
     0
  9
$DIMTOH
 70
     0
  9
$DIMSE1
 70
     0
  9
$DIMSE2
 70
     0
  9
$DIMTAD
 70
     1
  9
$DIMZIN
 70
     8
  9
$DIMBLK
  1

  9
$DIMASO
 70
     1
  9
$DIMSHO
 70
     1
  9
$DIMPOST
  1

  9
$DIMAPOST
  1

  9
$DIMALT
 70
     0
  9
$DIMALTD
 70
     3
  9
$DIMALTF
 40
0.03937007874016
  9
$DIMLFAC
 40
1.0
  9
$DIMTOFL
 70
     1
  9
$DIMTVP
 40
0.0
  9
$DIMTIX
 70
     0
  9
$DIMSOXD
 70
     0
  9
$DIMSAH
 70
     0
  9
$DIMBLK1
  1

  9
$DIMBLK2
  1

  9
$DIMSTYLE
  2
ISO-25
  9
$DIMCLRD
 70
     0
  9
$DIMCLRE
 70
     0
  9
$DIMCLRT
 70
     0
  9
$DIMTFAC
 40
1.0
  9
$DIMGAP
 40
0.625
  9
$DIMJUST
 70
     0
  9
$DIMSD1
 70
     0
  9
$DIMSD2
 70
     0
  9
$DIMTOLJ
 70
     0
  9
$DIMTZIN
 70
     8
  9
$DIMALTZ
 70
     0
  9
$DIMALTTZ
 70
     0
  9
$DIMUPT
 70
     0
  9
$DIMDEC
 70
     2
  9
$DIMTDEC
 70
     2
  9
$DIMALTU
 70
     2
  9
$DIMALTTD
 70
     3
  9
$DIMTXSTY
  7
Standard
  9
$DIMAUNIT
 70
     0
  9
$DIMADEC
 70
     0
  9
$DIMALTRND
 40
0.0
  9
$DIMAZIN
 70
     0
  9
$DIMDSEP
 70
    44
  9
$DIMATFIT
 70
     3
  9
$DIMFRAC
 70
     0
  9
$DIMLDRBLK
  1

  9
$DIMLUNIT
 70
     2
  9
$DIMLWD
 70
    -2
  9
$DIMLWE
 70
    -2
  9
$DIMTMOVE
 70
     0
  9
$DIMFXL
 40
1.0
  9
$DIMFXLON
 70
     0
  9
$DIMJOGANG
 40
0.7853981633974483
  9
$DIMTFILL
 70
     0
  9
$DIMTFILLCLR
 70
     0
  9
$DIMARCSYM
 70
     0
  9
$DIMLTYPE
  6

  9
$DIMLTEX1
  6

  9
$DIMLTEX2
  6

  9
$DIMTXTDIRECTION
 70
     0
  9
$LUNITS
 70
     2
  9
$LUPREC
 70
     4
  9
$SKETCHINC
 40
1.0
  9
$FILLETRAD
 40
10.0
  9
$AUNITS
 70
     0
  9
$AUPREC
 70
     0
  9
$MENU
  1
.
  9
$ELEVATION
 40
0.0
  9
$PELEVATION
 40
0.0
  9
$THICKNESS
 40
0.0
  9
$LIMCHECK
 70
     0
  9
$CHAMFERA
 40
10.0
  9
$CHAMFERB
 40
10.0
  9
$CHAMFERC
 40
20.0
  9
$CHAMFERD
 40
0.0
  9
$SKPOLY
 70
     0
  9
$TDCREATE
 40
2460012.464637396
  9
$TDUCREATE
 40
2460012.089637396
  9
$TDUPDATE
 40
2460012.464637408
  9
$TDUUPDATE
 40
2460012.089637408
  9
$TDINDWG
 40
0.0000000116
  9
$TDUSRTIMER
 40
0.0000000116
  9
$USRTIMER
 70
     1
  9
$ANGBASE
 50
0.0
  9
$ANGDIR
 70
     0
  9
$PDMODE
 70
     0
  9
$PDSIZE
 40
0.0
  9
$PLINEWID
 40
0.0
  9
$SPLFRAME
 70
     0
  9
$SPLINETYPE
 70
     6
  9
$SPLINESEGS
 70
     8
  9
$HANDSEED
  5
19C
  9
$SURFTAB1
 70
     6
  9
$SURFTAB2
 70
     6
  9
$SURFTYPE
 70
     6
  9
$SURFU
 70
     6
  9
$SURFV
 70
     6
  9
$UCSBASE
  2

  9
$UCSNAME
  2

  9
$UCSORG
 10
0.0
 20
0.0
 30
0.0
  9
$UCSXDIR
 10
1.0
 20
0.0
 30
0.0
  9
$UCSYDIR
 10
0.0
 20
1.0
 30
0.0
  9
$UCSORTHOREF
  2

  9
$UCSORTHOVIEW
 70
     0
  9
$UCSORGTOP
 10
0.0
 20
0.0
 30
0.0
  9
$UCSORGBOTTOM
 10
0.0
 20
0.0
 30
0.0
  9
$UCSORGLEFT
 10
0.0
 20
0.0
 30
0.0
  9
$UCSORGRIGHT
 10
0.0
 20
0.0
 30
0.0
  9
$UCSORGFRONT
 10
0.0
 20
0.0
 30
0.0
  9
$UCSORGBACK
 10
0.0
 20
0.0
 30
0.0
  9
$PUCSBASE
  2

  9
$PUCSNAME
  2

  9
$PUCSORG
 10
0.0
 20
0.0
 30
0.0
  9
$PUCSXDIR
 10
1.0
 20
0.0
 30
0.0
  9
$PUCSYDIR
 10
0.0
 20
1.0
 30
0.0
  9
$PUCSORTHOREF
  2

  9
$PUCSORTHOVIEW
 70
     0
  9
$PUCSORGTOP
 10
0.0
 20
0.0
 30
0.0
  9
$PUCSORGBOTTOM
 10
0.0
 20
0.0
 30
0.0
  9
$PUCSORGLEFT
 10
0.0
 20
0.0
 30
0.0
  9
$PUCSORGRIGHT
 10
0.0
 20
0.0
 30
0.0
  9
$PUCSORGFRONT
 10
0.0
 20
0.0
 30
0.0
  9
$PUCSORGBACK
 10
0.0
 20
0.0
 30
0.0
  9
$USERI1
 70
     0
  9
$USERI2
 70
     0
  9
$USERI3
 70
     0
  9
$USERI4
 70
     0
  9
$USERI5
 70
     0
  9
$USERR1
 40
0.0
  9
$USERR2
 40
0.0
  9
$USERR3
 40
0.0
  9
$USERR4
 40
0.0
  9
$USERR5
 40
0.0
  9
$WORLDVIEW
 70
     1
  9
$SHADEDGE
 70
     3
  9
$SHADEDIF
 70
    70
  9
$TILEMODE
 70
     1
  9
$MAXACTVP
 70
    64
  9
$PINSBASE
 10
0.0
 20
0.0
 30
0.0
  9
$PLIMCHECK
 70
     0
  9
$PEXTMIN
 10
1.000000000000000E+20
 20
1.000000000000000E+20
 30
1.000000000000000E+20
  9
$PEXTMAX
 10
-1.000000000000000E+20
 20
-1.000000000000000E+20
 30
-1.000000000000000E+20
  9
$PLIMMIN
 10
0.0
 20
0.0
  9
$PLIMMAX
 10
420.0
 20
297.0
  9
$UNITMODE
 70
     0
  9
$VISRETAIN
 70
     1
  9
$PLINEGEN
 70
     0
  9
$PSLTSCALE
 70
     1
  9
$TREEDEPTH
 70
  3020
  9
$CMLSTYLE
  2
Standard
  9
$CMLJUST
 70
     0
  9
$CMLSCALE
 40
20.0
  9
$PROXYGRAPHICS
 70
     1
  9
$MEASUREMENT
 70
     1
  9
$CELWEIGHT
370
    -1
  9
$ENDCAPS
280
     0
  9
$JOINSTYLE
280
     0
  9
$LWDISPLAY
290
     0
  9
$INSUNITS
 70
     4
  9
$HYPERLINKBASE
  1

  9
$STYLESHEET
  1

  9
$XEDIT
290
     1
  9
$CEPSNTYPE
380
     0
  9
$PSTYLEMODE
290
     1
  9
$FINGERPRINTGUID
  2
{408EC291-716A-4C2B-B94D-AFDDC7F1180B}
  9
$VERSIONGUID
  2
{FAEB1C32-E019-11D5-929B-00C0DF256EC4}
  9
$EXTNAMES
290
     1
  9
$PSVPSCALE
 40
0.0
  9
$OLESTARTUP
290
     0
  9
$SORTENTS
280
   127
  9
$INDEXCTL
280
     0
  9
$HIDETEXT
280
     1
  9
$XCLIPFRAME
280
     2
  9
$HALOGAP
280
     0
  9
$OBSCOLOR
 70
   257
  9
$OBSLTYPE
280
     0
  9
$INTERSECTIONDISPLAY
280
     0
  9
$INTERSECTIONCOLOR
 70
   257
  9
$DIMASSOC
280
     2
  9
$PROJECTNAME
  1

  9
$CAMERADISPLAY
290
     0
  9
$LENSLENGTH
 40
50.0
  9
$CAMERAHEIGHT
 40
0.0
  9
$STEPSPERSEC
 40
2.0
  9
$STEPSIZE
 40
6.0
  9
$3DDWFPREC
 40
2.0
  9
$PSOLWIDTH
 40
5.0
  9
$PSOLHEIGHT
 40
80.0
  9
$LOFTANG1
 40
1.570796326794897
  9
$LOFTANG2
 40
1.570796326794897
  9
$LOFTMAG1
 40
0.0
  9
$LOFTMAG2
 40
0.0
  9
$LOFTPARAM
 70
     7
  9
$LOFTNORMALS
280
     1
  9
$LATITUDE
 40
37.795
  9
$LONGITUDE
 40
-122.394
  9
$NORTHDIRECTION
 40
0.0
  9
$TIMEZONE
 70
 -8000
  9
$LIGHTGLYPHDISPLAY
280
     1
  9
$TILEMODELIGHTSYNCH
280
     1
  9
$SOLIDHIST
280
     1
  9
$SHOWHIST
280
     1
  9
$DWFFRAME
280
     2
  9
$DGNFRAME
280
     2
  9
$REALWORLDSCALE
290
     1
  9
$INTERFERECOLOR
 62
   256
  9
$CSHADOW
280
     0
  9
$SHADOWPLANELOCATION
 40
0.0
  0
ENDSEC
  0
SECTION
  2
CLASSES
  0
CLASS
  1
ACDBDICTIONARYWDFLT
  2
AcDbDictionaryWithDefault
  3
ObjectDBX Classes
 90
        0
 91
        4
280
     0
281
     0
  0
CLASS
  1
VISUALSTYLE
  2
AcDbVisualStyle
  3
ObjectDBX Classes
 90
     4095
 91
        4
280
     0
281
     0
  0
CLASS
  1
MATERIAL
  2
AcDbMaterial
  3
ObjectDBX Classes
 90
     1153
 91
        4
280
     0
281
     0
  0
ENDSEC
  0
SECTION
  2
TABLES
  0
TABLE
  2
VPORT
  5
8
330
0
100
AcDbSymbolTable
 70
     1
  0
VPORT
  5
29
330
8
100
AcDbSymbolTableRecord
100
AcDbViewportTableRecord
  2
*Active
 70
     0
 10
0.0
 20
0.0
 11
1.0
 21
1.0
 12
0.0
 22
0.0
 13
0.0
 23
0.0
 14
10.0
 24
10.0
 15
10.0
 25
10.0
 16
0.0
 26
0.0
 36
1.0
 17
0.0
 27
0.0
 37
0.0
 40
6930.000000000001
 41
1.414285714285714
 42
50.0
 43
0.0
 44
0.0
 50
0.0
 51
0.0
 71
     0
 72
 10000
 73
     1
 74
     3
 75
     0
 76
     0
 77
     0
 78
     0
281
     0
 65
     1
110
0.0
120
0.0
130
0.0
111
1.0
121
0.0
131
0.0
112
0.0
122
1.0
132
0.0
 79
     0
146
0.0
 60
     3
 61
     5
292
     1
282
     1
141
0.0
142
0.0
 63
   250
  0
ENDTAB
  0
TABLE
  2
LTYPE
  5
5
330
0
100
AcDbSymbolTable
 70
     3
  0
LTYPE
  5
14
330
5
100
AcDbSymbolTableRecord
100
AcDbLinetypeTableRecord
  2
ByBlock
 70
     0
  3

 72
    65
 73
     0
 40
0.0
  0
LTYPE
  5
15
330
5
100
AcDbSymbolTableRecord
100
AcDbLinetypeTableRecord
  2
ByLayer
 70
     0
  3

 72
    65
 73
     0
 40
0.0
  0
LTYPE
  5
16
330
5
100
AcDbSymbolTableRecord
100
AcDbLinetypeTableRecord
  2
Continuous
 70
     0
  3
Solid line
 72
    65
 73
     0
 40
0.0
  0
LTYPE
  5
3F
330
5
100
AcDbSymbolTableRecord
100
AcDbLinetypeTableRecord
  2
JWW_CENTER1
 70
     0
  3
-----  --  ----------  --  -----
 72
    65
 73
     4
 40
6.773333333333333
 49
4.233333333333333
 74
     0
 49
-0.8466666666666667
 74
     0
 49
0.8466666666666667
 74
     0
 49
-0.8466666666666667
 74
     0
  0
LTYPE
  5
40
330
5
100
AcDbSymbolTableRecord
100
AcDbLinetypeTableRecord
  2
JWW_DASHED1
 70
     0
  3
-  --  --  --  --  --  --  --  -
 72
    65
 73
     2
 40
1.693333333333333
 49
0.8466666666666667
 74
     0
 49
-0.8466666666666667
 74
     0
  0
ENDTAB
  0
TABLE
  2
LAYER
  5
2
330
0
100
AcDbSymbolTable
 70
     3
  0
LAYER
  5
10
330
2
100
AcDbSymbolTableRecord
100
AcDbLayerTableRecord
  2
0
 70
     0
 62
     7
  6
Continuous
370
    -3
390
F
347
3E
  0
LAYER
  5
41
330
2
100
AcDbSymbolTableRecord
100
AcDbLayerTableRecord
  2
0-1
 70
     0
 62
     7
  6
Continuous
370
    -3
390
F
347
3E
  0
LAYER
  5
42
330
2
100
AcDbSymbolTableRecord
100
AcDbLayerTableRecord
  2
文字
 70
     0
 62
     7
  6
Continuous
370
    -3
390
F
347
3E
  0
ENDTAB
  0
TABLE
  2
STYLE
  5
3
330
0
100
AcDbSymbolTable
 70
     1
  0
STYLE
  5
11
330
3
100
AcDbSymbolTableRecord
100
AcDbTextStyleTableRecord
  2
Standard
 70
     0
 40
0.0
 41
1.0
 50
0.0
 71
     0
 42
2.5
  3
txt
  4

  0
ENDTAB
  0
TABLE
  2
VIEW
  5
6
330
0
100
AcDbSymbolTable
 70
     0
  0
ENDTAB
  0
TABLE
  2
UCS
  5
7
330
0
100
AcDbSymbolTable
 70
     0
  0
ENDTAB
  0
TABLE
  2
APPID
  5
9
330
0
100
AcDbSymbolTable
 70
     1
  0
APPID
  5
12
330
9
100
AcDbSymbolTableRecord
100
AcDbRegAppTableRecord
  2
ACAD
 70
     0
  0
ENDTAB
  0
TABLE
  2
DIMSTYLE
  5
A
330
0
100
AcDbSymbolTable
 70
     1
100
AcDbDimStyleTable
  0
DIMSTYLE
105
27
330
A
100
AcDbSymbolTableRecord
100
AcDbDimStyleTableRecord
  2
ISO-25
 70
     0
 41
2.5
 42
0.625
 43
3.75
 44
1.25
 73
     0
 74
     0
 77
     1
 78
     8
140
2.5
141
2.5
143
0.03937007874016
147
0.625
171
     3
172
     1
178
     0
271
     2
272
     2
274
     3
278
    44
283
     0
284
     8
340
11
  0
ENDTAB
  0
TABLE
  2
BLOCK_RECORD
  5
1
330
0
100
AcDbSymbolTable
 70
     1
  0
BLOCK_RECORD
  5
1F
330
1
100
AcDbSymbolTableRecord
100
AcDbBlockTableRecord
  2
*Model_Space
340
22
 70
     0
280
     1
281
     0
  0
BLOCK_RECORD
  5
1B
330
1
100
AcDbSymbolTableRecord
100
AcDbBlockTableRecord
  2
*Paper_Space
340
1E
 70
     0
280
     1
281
     0
  0
BLOCK_RECORD
  5
23
330
1
100
AcDbSymbolTableRecord
100
AcDbBlockTableRecord
  2
*Paper_Space0
340
26
 70
     0
280
     1
281
     0
  0
ENDTAB
  0
ENDSEC
  0
SECTION
  2
BLOCKS
  0
BLOCK
  5
20
330
1F
100
AcDbEntity
  8
0
100
AcDbBlockBegin
  2
*Model_Space
 70
     0
 10
0.0
 20
0.0
 30
0.0
  3
*Model_Space
  1

  0
ENDBLK
  5
21
330
1F
100
AcDbEntity
  8
0
100
AcDbBlockEnd
  0
BLOCK
  5
1C
330
1B
100
AcDbEntity
 67
     1
  8
0
100
AcDbBlockBegin
  2
*Paper_Space
 70
     0
 10
0.0
 20
0.0
 30
0.0
  3
*Paper_Space
  1

  0
ENDBLK
  5
1D
330
1B
100
AcDbEntity
 67
     1
  8
0
100
AcDbBlockEnd
  0
BLOCK
  5
24
330
23
100
AcDbEntity
  8
0
100
AcDbBlockBegin
  2
*Paper_Space0
 70
     0
 10
0.0
 20
0.0
 30
0.0
  3
*Paper_Space0
  1

  0
ENDBLK
  5
25
330
23
100
AcDbEntity
  8
0
100
AcDbBlockEnd
  0
ENDSEC
  0
SECTION
  2
ENTITIES
  0
LWPOLYLINE
  5
43
330
1F
100
AcDbEntity
  8
0-1
  6
Continuous
 62
     7
370
     9
100
AcDbPolyline
 90
        4
 70
     1
 43
3.0
 10
-2474.040770064898
 20
1613.411059571381
 42
0.4142135623731
 10
-2475.540770064898
 20
1614.911059571381
 42
0.4142135623731
 10
-2477.040770064898
 20
1613.411059571381
 42
0.4142135623731
 10
-2475.540770064898
 20
1611.911059571381
 42
0.4142135623731
  0
LINE
  5
44
330
1F
100
AcDbEntity
  8
0-1
  6
Continuous
 62
   120
370
     5
100
AcDbLine
 10
-2475.540770064898
 20
1613.411059571381
 30
0.0
 11
-2475.540770064898
 21
1463.411059571381
 31
0.0
  0
LINE
  5
45
330
1F
100
AcDbEntity
  8
0-1
  6
Continuous
 62
   120
370
     5
100
AcDbLine
 10
-2475.540770064898
 20
1613.411059571381
 30
0.0
 11
-1884.540770064897
 21
1613.411059571381
 31
0.0
  0
LWPOLYLINE
  5
46
330
1F
100
AcDbEntity
  8
0-1
  6
Continuous
 62
     7
370
     9
100
AcDbPolyline
 90
        4
 70
     1
 43
3.0
 10
-1883.040770064897
 20
1613.411059571381
 42
0.4142135623731
 10
-1884.540770064897
 20
1614.911059571381
 42
0.4142135623731
 10
-1886.040770064897
 20
1613.411059571381
 42
0.4142135623731
 10
-1884.540770064897
 20
1611.911059571381
 42
0.4142135623731
  0
LINE
  5
47
330
1F
100
AcDbEntity
  8
0-1
  6
Continuous
 62
   120
370
     5
100
AcDbLine
 10
-1884.540770064897
 20
1613.411059571381
 30
0.0
 11
-1884.540770064897
 21
1463.411059571381
 31
0.0
  0
MTEXT
  5
48
330
1F
100
AcDbEntity
  8
0-1
  6
Continuous
 62
     7
370
   211
100
AcDbMText
 10
-2382.540770064898
 20
1617.70105957138
 30
0.0
 40
68.58
 41
405.0
 46
0.0
 71
     7
 72
     1
  1
{\fＭＳ ゴシック|b0|i0|c128|p49;ＤＷ＝394}
 73
     1
 44
1.0
  0
MTEXT
  5
49
330
1F
100
AcDbEntity
  8
0-1
  6
Continuous
 62
     7
370
   211
100
AcDbMText
 10
-2718.540770064899
 20
-496.5489404286197
 30
0.0
 40
68.57999999999998
 41
494.9999999999999
 46
0.0
 71
     7
 72
     1
  1
{\fＭＳ ゴシック|b0|i0|c128|p49;ＤＨ＝2,163}
 11
6.123031769111886E-17
 21
1.0
 31
0.0
 73
     1
 44
1.0
  0
LINE
  5
4A
330
1F
100
AcDbEntity
  8
0-1
  6
Continuous
 62
   120
370
     5
100
AcDbLine
 10
-2703.540770064899
 20
-1860.58894042862
 30
0.0
 11
-2703.540770064899
 21
-1856.088959892414
 31
0.0
  0
LWPOLYLINE
  5
4B
330
1F
100
AcDbEntity
  8
0-1
  6
Continuous
 62
     7
370
     9
100
AcDbPolyline
 90
        4
 70
     1
 43
3.0
 10
-2702.040770064899
 20
-1860.58894042862
 42
0.4142135623731
 10
-2703.540770064899
 20
-1859.088940428621
 42
0.4142135623731
 10
-2705.040770064899
 20
-1860.58894042862
 42
0.4142135623731
 10
-2703.540770064899
 20
-1862.08894042862
 42
0.4142135623731
  0
LINE
  5
4C
330
1F
100
AcDbEntity
  8
0-1
  6
Continuous
 62
   120
370
     5
100
AcDbLine
 10
-2703.540770064899
 20
-1860.58894042862
 30
0.0
 11
-2553.540770064899
 21
-1860.58894042862
 31
0.0
  0
LINE
  5
4D
330
1F
100
AcDbEntity
  8
0-1
  6
Continuous
 62
   120
370
     5
100
AcDbLine
 10
-2703.540770064899
 20
1379.411059571385
 30
0.0
 11
-2703.540770064899
 21
1383.911059571383
 31
0.0
  0
LWPOLYLINE
  5
4E
330
1F
100
AcDbEntity
  8
0-1
  6
Continuous
 62
     7
370
     9
100
AcDbPolyline
 90
        4
 70
     1
 43
3.0
 10
-2702.040770064899
 20
1383.911059571383
 42
0.4142135623731
 10
-2703.540770064899
 20
1385.411059571382
 42
0.4142135623731
 10
-2705.040770064899
 20
1383.911059571383
 42
0.4142135623731
 10
-2703.540770064899
 20
1382.411059571383
 42
0.4142135623731
  0
LINE
  5
4F
330
1F
100
AcDbEntity
  8
0-1
  6
Continuous
 62
   120
370
     5
100
AcDbLine
 10
-2703.540770064899
 20
1383.911059571383
 30
0.0
 11
-2553.540770064899
 21
1383.911059571383
 31
0.0
  0
LINE
  5
50
330
1F
100
AcDbEntity
  8
0-1
  6
Continuous
 62
   120
370
     5
100
AcDbLine
 10
-2703.540770064899
 20
-1856.088959892414
 30
0.0
 11
-2703.540770064899
 21
1379.411059571385
 31
0.0
  0
LWPOLYLINE
  5
51
330
1F
100
AcDbEntity
  8
0-1
  6
Continuous
 62
     7
370
     9
100
AcDbPolyline
 90
        4
 70
     1
 43
3.0
 10
-1142.040770064894
 20
1613.411059571377
 42
0.4142135623731
 10
-1143.540770064894
 20
1614.911059571377
 42
0.4142135623731
 10
-1145.040770064893
 20
1613.411059571377
 42
0.4142135623731
 10
-1143.540770064894
 20
1611.911059571377
 42
0.4142135623731
  0
LINE
  5
52
330
1F
100
AcDbEntity
  8
0-1
  6
Continuous
 62
   120
370
     5
100
AcDbLine
 10
-1143.540770064894
 20
1613.411059571377
 30
0.0
 11
-1143.540770064894
 21
1463.411059571377
 31
0.0
  0
LINE
  5
53
330
1F
100
AcDbEntity
  8
0-1
  6
Continuous
 62
   120
370
     5
100
AcDbLine
 10
-1143.540770064894
 20
1613.411059571377
 30
0.0
 11
-1734.540770064895
 21
1613.411059571377
 31
0.0
  0
LWPOLYLINE
  5
54
330
1F
100
AcDbEntity
  8
0-1
  6
Continuous
 62
     7
370
     9
100
AcDbPolyline
 90
        4
 70
     1
 43
3.0
 10
-1733.040770064895
 20
1613.411059571377
 42
0.4142135623731
 10
-1734.540770064895
 20
1614.911059571377
 42
0.4142135623731
 10
-1736.040770064895
 20
1613.411059571377
 42
0.4142135623731
 10
-1734.540770064895
 20
1611.911059571377
 42
0.4142135623731
  0
LINE
  5
55
330
1F
100
AcDbEntity
  8
0-1
  6
Continuous
 62
   120
370
     5
100
AcDbLine
 10
-1734.540770064895
 20
1613.411059571377
 30
0.0
 11
-1734.540770064895
 21
1463.411059571377
 31
0.0
  0
MTEXT
  5
56
330
1F
100
AcDbEntity
  8
0-1
  6
Continuous
 62
     7
370
   211
100
AcDbMText
 10
-1641.540770064894
 20
1617.701059571377
 30
0.0
 40
68.58
 41
405.0
 46
0.0
 71
     7
 72
     1
  1
{\fＭＳ ゴシック|b0|i0|c128|p49;ＤＷ＝394}
 73
     1
 44
1.0
  0
MTEXT
  5
57
330
1F
100
AcDbEntity
  8
0-1
  6
Continuous
 62
     7
370
   211
100
AcDbMText
 10
-522.5407700648922
 20
1617.701059571383
 30
0.0
 40
68.57999999999998
 41
404.9999999999999
 46
0.0
 71
     7
 72
     1
  1
{\fＭＳ ゴシック|b0|i0|c128|p49;ＤＷ＝394}
 73
     1
 44
1.0
  0
LINE
  5
58
330
1F
100
AcDbEntity
  8
0-1
  6
Continuous
 62
   120
370
     5
100
AcDbLine
 10
-24.54077006489493
 20
1613.411059571383
 30
0.0
 11
-24.54077006489493
 21
1463.411059571383
 31
0.0
  0
LWPOLYLINE
  5
59
330
1F
100
AcDbEntity
  8
0-1
  6
Continuous
 62
     7
370
     9
100
AcDbPolyline
 90
        4
 70
     1
 43
3.0
 10
-23.04077006489493
 20
1613.411059571383
 42
0.4142135623731
 10
-24.54077006489493
 20
1614.911059571382
 42
0.4142135623731
 10
-26.04077006489493
 20
1613.411059571383
 42
0.4142135623731
 10
-24.54077006489493
 20
1611.911059571383
 42
0.4142135623731
  0
LINE
  5
5A
330
1F
100
AcDbEntity
  8
0-1
  6
Continuous
 62
   120
370
     5
100
AcDbLine
 10
-615.5407700648929
 20
1613.411059571383
 30
0.0
 11
-24.54077006489493
 21
1613.411059571383
 31
0.0
  0
LINE
  5
5B
330
1F
100
AcDbEntity
  8
0-1
  6
Continuous
 62
   120
370
     5
100
AcDbLine
 10
-615.5407700648929
 20
1613.411059571383
 30
0.0
 11
-615.5407700648929
 21
1463.411059571383
 31
0.0
  0
LWPOLYLINE
  5
5C
330
1F
100
AcDbEntity
  8
0-1
  6
Continuous
 62
     7
370
     9
100
AcDbPolyline
 90
        4
 70
     1
 43
3.0
 10
-614.0407700648929
 20
1613.411059571383
 42
0.4142135623731
 10
-615.5407700648929
 20
1614.911059571382
 42
0.4142135623731
 10
-617.0407700648929
 20
1613.411059571383
 42
0.4142135623731
 10
-615.5407700648929
 20
1611.911059571383
 42
0.4142135623731
  0
MTEXT
  5
5D
330
1F
100
AcDbEntity
  8
0-1
  6
Continuous
 62
     7
370
   211
100
AcDbMText
 10
218.4592299351075
 20
1617.701059571379
 30
0.0
 40
68.58000000000001
 41
405.0000000000001
 46
0.0
 71
     7
 72
     1
  1
{\fＭＳ ゴシック|b0|i0|c128|p49;ＤＷ＝394}
 73
     1
 44
1.0
  0
LINE
  5
5E
330
1F
100
AcDbEntity
  8
0-1
  6
Continuous
 62
   120
370
     5
100
AcDbLine
 10
716.4592299351082
 20
1613.411059571379
 30
0.0
 11
716.4592299351082
 21
1463.411059571379
 31
0.0
  0
LWPOLYLINE
  5
5F
330
1F
100
AcDbEntity
  8
0-1
  6
Continuous
 62
     7
370
     9
100
AcDbPolyline
 90
        4
 70
     1
 43
3.0
 10
717.9592299351082
 20
1613.411059571379
 42
0.4142135623731
 10
716.4592299351082
 20
1614.911059571379
 42
0.4142135623731
 10
714.9592299351082
 20
1613.411059571379
 42
0.4142135623731
 10
716.4592299351082
 20
1611.911059571379
 42
0.4142135623731
  0
LINE
  5
60
330
1F
100
AcDbEntity
  8
0-1
  6
Continuous
 62
   120
370
     5
100
AcDbLine
 10
125.4592299351068
 20
1613.411059571379
 30
0.0
 11
716.4592299351082
 21
1613.411059571379
 31
0.0
  0
LINE
  5
61
330
1F
100
AcDbEntity
  8
0-1
  6
Continuous
 62
   120
370
     5
100
AcDbLine
 10
125.4592299351068
 20
1613.411059571379
 30
0.0
 11
125.4592299351068
 21
1463.411059571379
 31
0.0
  0
LWPOLYLINE
  5
62
330
1F
100
AcDbEntity
  8
0-1
  6
Continuous
 62
     7
370
     9
100
AcDbPolyline
 90
        4
 70
     1
 43
3.0
 10
126.9592299351068
 20
1613.411059571379
 42
0.4142135623731
 10
125.4592299351068
 20
1614.911059571379
 42
0.4142135623731
 10
123.9592299351068
 20
1613.411059571379
 42
0.4142135623731
 10
125.4592299351068
 20
1611.911059571379
 42
0.4142135623731
  0
MTEXT
  5
63
330
1F
100
AcDbEntity
  8
0-1
  6
Continuous
 62
     7
370
   211
100
AcDbMText
 10
-522.5407700648927
 20
-494.2991566733516
 30
0.0
 40
68.58
 41
405.0
 46
0.0
 71
     7
 72
     1
  1
{\fＭＳ ゴシック|b0|i0|c128|p49;ＤＷ＝394}
 73
     1
 44
1.0
  0
LINE
  5
64
330
1F
100
AcDbEntity
  8
0-1
  6
Continuous
 62
   120
370
     5
100
AcDbLine
 10
-24.54077006489541
 20
-498.5891566733516
 30
0.0
 11
-24.54077006489541
 21
-648.5891566733516
 31
0.0
  0
LWPOLYLINE
  5
65
330
1F
100
AcDbEntity
  8
0-1
  6
Continuous
 62
     7
370
     9
100
AcDbPolyline
 90
        4
 70
     1
 43
3.0
 10
-23.04077006489541
 20
-498.5891566733516
 42
0.4142135623731
 10
-24.54077006489541
 20
-497.0891566733516
 42
0.4142135623731
 10
-26.04077006489541
 20
-498.5891566733516
 42
0.4142135623731
 10
-24.54077006489541
 20
-500.0891566733516
 42
0.4142135623731
  0
LINE
  5
66
330
1F
100
AcDbEntity
  8
0-1
  6
Continuous
 62
   120
370
     5
100
AcDbLine
 10
-615.5407700648934
 20
-498.5891566733516
 30
0.0
 11
-24.54077006489541
 21
-498.5891566733516
 31
0.0
  0
LINE
  5
67
330
1F
100
AcDbEntity
  8
0-1
  6
Continuous
 62
   120
370
     5
100
AcDbLine
 10
-615.5407700648934
 20
-498.5891566733516
 30
0.0
 11
-615.5407700648934
 21
-648.5891566733516
 31
0.0
  0
LWPOLYLINE
  5
68
330
1F
100
AcDbEntity
  8
0-1
  6
Continuous
 62
     7
370
     9
100
AcDbPolyline
 90
        4
 70
     1
 43
3.0
 10
-614.0407700648933
 20
-498.5891566733516
 42
0.4142135623731
 10
-615.5407700648934
 20
-497.0891566733516
 42
0.4142135623731
 10
-617.0407700648934
 20
-498.5891566733516
 42
0.4142135623731
 10
-615.5407700648934
 20
-500.0891566733516
 42
0.4142135623731
  0
LINE
  5
69
330
1F
100
AcDbEntity
  8
0-1
  6
Continuous
 62
   120
370
     5
100
AcDbLine
 10
-843.5407700648941
 20
-1860.58894042862
 30
0.0
 11
-693.5407700648941
 21
-1860.58894042862
 31
0.0
  0
LINE
  5
6A
330
1F
100
AcDbEntity
  8
0-1
  6
Continuous
 62
   120
370
     5
100
AcDbLine
 10
-843.5407700648941
 20
-1860.58894042862
 30
0.0
 11
-843.5407700648941
 21
-728.0889404286204
 31
0.0
  0
LWPOLYLINE
  5
6B
330
1F
100
AcDbEntity
  8
0-1
  6
Continuous
 62
     7
370
     9
100
AcDbPolyline
 90
        4
 70
     1
 43
3.0
 10
-842.040770064894
 20
-1860.58894042862
 42
0.4142135623731
 10
-843.5407700648941
 20
-1859.088940428621
 42
0.4142135623731
 10
-845.0407700648941
 20
-1860.58894042862
 42
0.4142135623731
 10
-843.5407700648941
 20
-1862.08894042862
 42
0.4142135623731
  0
MTEXT
  5
6C
330
1F
100
AcDbEntity
  8
0-1
  6
Continuous
 62
     7
370
   211
100
AcDbMText
 10
-858.5407700648923
 20
-1507.548970121398
 30
0.0
 40
68.58
 41
405.0
 46
0.0
 71
     7
 72
     1
  1
{\fＭＳ ゴシック|b0|i0|c128|p49;ＤＨ＝755}
 11
6.123031769111886E-17
 21
1.0
 31
0.0
 73
     1
 44
1.0
  0
LWPOLYLINE
  5
6D
330
1F
100
AcDbEntity
  8
0-1
  6
Continuous
 62
     7
370
     9
100
AcDbPolyline
 90
        4
 70
     1
 43
3.0
 10
-842.040770064894
 20
-728.0889404286204
 42
0.4142135623731
 10
-843.5407700648941
 20
-726.5889404286204
 42
0.4142135623731
 10
-845.0407700648941
 20
-728.0889404286204
 42
0.4142135623731
 10
-843.5407700648941
 20
-729.5889404286205
 42
0.4142135623731
  0
LINE
  5
6E
330
1F
100
AcDbEntity
  8
0-1
  6
Continuous
 62
   120
370
     5
100
AcDbLine
 10
-843.5407700648941
 20
-728.0889404286204
 30
0.0
 11
-693.5407700648941
 21
-728.0889404286204
 31
0.0
  0
LINE
  5
6F
330
1F
100
AcDbEntity
  8
0-1
  6
Continuous
 62
   120
370
     5
100
AcDbLine
 10
-843.5407700648941
 20
1383.911059571382
 30
0.0
 11
-693.5407700648941
 21
1383.911059571382
 31
0.0
  0
LWPOLYLINE
  5
70
330
1F
100
AcDbEntity
  8
0-1
  6
Continuous
 62
     7
370
     9
100
AcDbPolyline
 90
        4
 70
     1
 43
3.0
 10
-842.040770064894
 20
1383.911059571382
 42
0.4142135623731
 10
-843.5407700648941
 20
1385.411059571382
 42
0.4142135623731
 10
-845.0407700648941
 20
1383.911059571382
 42
0.4142135623731
 10
-843.5407700648941
 20
1382.411059571382
 42
0.4142135623731
  0
MTEXT
  5
71
330
1F
100
AcDbEntity
  8
0-1
  6
Continuous
 62
     7
370
   211
100
AcDbMText
 10
218.459229935107
 20
-494.299156673355
 30
0.0
 40
68.58
 41
405.0
 46
0.0
 71
     7
 72
     1
  1
{\fＭＳ ゴシック|b0|i0|c128|p49;ＤＷ＝394}
 73
     1
 44
1.0
  0
LINE
  5
72
330
1F
100
AcDbEntity
  8
0-1
  6
Continuous
 62
   120
370
     5
100
AcDbLine
 10
125.4592299351097
 20
-498.589156673355
 30
0.0
 11
125.4592299351097
 21
-648.589156673355
 31
0.0
  0
LWPOLYLINE
  5
73
330
1F
100
AcDbEntity
  8
0-1
  6
Continuous
 62
     7
370
     9
100
AcDbPolyline
 90
        4
 70
     1
 43
3.0
 10
126.9592299351097
 20
-498.589156673355
 42
0.4142135623731
 10
125.4592299351097
 20
-497.089156673355
 42
0.4142135623731
 10
123.9592299351097
 20
-498.589156673355
 42
0.4142135623731
 10
125.4592299351097
 20
-500.089156673355
 42
0.4142135623731
  0
LINE
  5
74
330
1F
100
AcDbEntity
  8
0-1
  6
Continuous
 62
   120
370
     5
100
AcDbLine
 10
716.4592299351077
 20
-498.589156673355
 30
0.0
 11
125.4592299351097
 21
-498.589156673355
 31
0.0
  0
LINE
  5
75
330
1F
100
AcDbEntity
  8
0-1
  6
Continuous
 62
   120
370
     5
100
AcDbLine
 10
716.4592299351077
 20
-498.589156673355
 30
0.0
 11
716.4592299351077
 21
-648.589156673355
 31
0.0
  0
LWPOLYLINE
  5
76
330
1F
100
AcDbEntity
  8
0-1
  6
Continuous
 62
     7
370
     9
100
AcDbPolyline
 90
        4
 70
     1
 43
3.0
 10
717.9592299351077
 20
-498.589156673355
 42
0.4142135623731
 10
716.4592299351077
 20
-497.089156673355
 42
0.4142135623731
 10
714.9592299351076
 20
-498.589156673355
 42
0.4142135623731
 10
716.4592299351077
 20
-500.089156673355
 42
0.4142135623731
  0
LINE
  5
77
330
1F
100
AcDbEntity
  8
0-1
  6
Continuous
 62
    92
370
    13
100
AcDbLine
 10
-1884.540770064897
 20
1383.911059571382
 30
0.0
 11
-1884.540770064897
 21
-1860.58894042862
 31
0.0
  0
LINE
  5
78
330
1F
100
AcDbEntity
  8
0-1
  6
Continuous
 62
    92
370
    13
100
AcDbLine
 10
-2475.540770064898
 20
1383.911059571382
 30
0.0
 11
-2475.540770064898
 21
-1860.58894042862
 31
0.0
  0
LINE
  5
79
330
1F
100
AcDbEntity
  8
0-1
  6
Continuous
 62
    92
370
    13
100
AcDbLine
 10
-1884.540770064897
 20
-1860.58894042862
 30
0.0
 11
-2475.540770064898
 21
-1860.58894042862
 31
0.0
  0
LINE
  5
7A
330
1F
100
AcDbEntity
  8
0-1
  6
Continuous
 62
    92
370
    13
100
AcDbLine
 10
-1884.540770064897
 20
1383.911059571382
 30
0.0
 11
-2475.540770064898
 21
1383.911059571382
 31
0.0
  0
LINE
  5
7B
330
1F
100
AcDbEntity
  8
0-1
  6
Continuous
 62
     7
370
     9
100
AcDbLine
 10
-2372.040770064897
 20
1216.983521250684
 30
0.0
 11
-1988.0407700649
 21
1216.983521250684
 31
0.0
  0
LINE
  5
7C
330
1F
100
AcDbEntity
  8
0-1
  6
Continuous
 62
     7
370
     9
100
AcDbLine
 10
-2372.040770064897
 20
211.9835415902401
 30
0.0
 11
-1988.0407700649
 21
211.9835415902401
 31
0.0
  0
LINE
  5
7D
330
1F
100
AcDbEntity
  8
0-1
  6
Continuous
 62
     7
370
     9
100
AcDbLine
 10
-2372.040770064897
 20
262.233521795055
 30
0.0
 11
-1988.0407700649
 21
262.233521795055
 31
0.0
  0
LINE
  5
7E
330
1F
100
AcDbEntity
  8
0-1
  6
Continuous
 62
     7
370
     9
100
AcDbLine
 10
-2372.040770064897
 20
312.4835019998695
 30
0.0
 11
-1988.0407700649
 21
312.4835019998695
 31
0.0
  0
LINE
  5
7F
330
1F
100
AcDbEntity
  8
0-1
  6
Continuous
 62
     7
370
     9
100
AcDbLine
 10
-2372.040770064897
 20
362.7334822046831
 30
0.0
 11
-1988.0407700649
 21
362.7334822046831
 31
0.0
  0
LINE
  5
80
330
1F
100
AcDbEntity
  8
0-1
  6
Continuous
 62
     7
370
     9
100
AcDbLine
 10
-2372.040770064897
 20
412.9834624094976
 30
0.0
 11
-1988.0407700649
 21
412.9834624094976
 31
0.0
  0
LINE
  5
81
330
1F
100
AcDbEntity
  8
0-1
  6
Continuous
 62
     7
370
     9
100
AcDbLine
 10
-2372.040770064897
 20
463.2334426143112
 30
0.0
 11
-1988.0407700649
 21
463.2334426143112
 31
0.0
  0
LINE
  5
82
330
1F
100
AcDbEntity
  8
0-1
  6
Continuous
 62
     7
370
     9
100
AcDbLine
 10
-2372.040770064897
 20
513.4835712830195
 30
0.0
 11
-1988.0407700649
 21
513.4835712830195
 31
0.0
  0
LINE
  5
83
330
1F
100
AcDbEntity
  8
0-1
  6
Continuous
 62
     7
370
     9
100
AcDbLine
 10
-2372.040770064897
 20
563.733551487834
 30
0.0
 11
-1988.0407700649
 21
563.733551487834
 31
0.0
  0
LINE
  5
84
330
1F
100
AcDbEntity
  8
0-1
  6
Continuous
 62
     7
370
     9
100
AcDbLine
 10
-2372.040770064897
 20
613.9835316926481
 30
0.0
 11
-1988.0407700649
 21
613.9835316926481
 31
0.0
  0
LINE
  5
85
330
1F
100
AcDbEntity
  8
0-1
  6
Continuous
 62
     7
370
     9
100
AcDbLine
 10
-2372.040770064897
 20
664.2335118974612
 30
0.0
 11
-1988.0407700649
 21
664.2335118974612
 31
0.0
  0
LINE
  5
86
330
1F
100
AcDbEntity
  8
0-1
  6
Continuous
 62
     7
370
     9
100
AcDbLine
 10
-2372.040770064897
 20
714.4834921022762
 30
0.0
 11
-1988.0407700649
 21
714.4834921022762
 31
0.0
  0
LINE
  5
87
330
1F
100
AcDbEntity
  8
0-1
  6
Continuous
 62
     7
370
     9
100
AcDbLine
 10
-2372.040770064897
 20
764.7334723070902
 30
0.0
 11
-1988.0407700649
 21
764.7334723070902
 31
0.0
  0
LINE
  5
88
330
1F
100
AcDbEntity
  8
0-1
  6
Continuous
 62
     7
370
     9
100
AcDbLine
 10
-2372.040770064897
 20
814.983452511905
 30
0.0
 11
-1988.0407700649
 21
814.983452511905
 31
0.0
  0
LINE
  5
89
330
1F
100
AcDbEntity
  8
0-1
  6
Continuous
 62
     7
370
     9
100
AcDbLine
 10
-2372.040770064897
 20
865.2335811806124
 30
0.0
 11
-1988.0407700649
 21
865.2335811806124
 31
0.0
  0
LINE
  5
8A
330
1F
100
AcDbEntity
  8
0-1
  6
Continuous
 62
     7
370
     9
100
AcDbLine
 10
-2372.040770064897
 20
915.4835613854269
 30
0.0
 11
-1988.0407700649
 21
915.4835613854269
 31
0.0
  0
LINE
  5
8B
330
1F
100
AcDbEntity
  8
0-1
  6
Continuous
 62
     7
370
     9
100
AcDbLine
 10
-2372.040770064897
 20
965.7335415902414
 30
0.0
 11
-1988.0407700649
 21
965.7335415902414
 31
0.0
  0
LINE
  5
8C
330
1F
100
AcDbEntity
  8
0-1
  6
Continuous
 62
     7
370
     9
100
AcDbLine
 10
-2372.040770064897
 20
1015.983521795055
 30
0.0
 11
-1988.0407700649
 21
1015.983521795055
 31
0.0
  0
LINE
  5
8D
330
1F
100
AcDbEntity
  8
0-1
  6
Continuous
 62
     7
370
     9
100
AcDbLine
 10
-2372.040770064897
 20
1066.23350199987
 30
0.0
 11
-1988.0407700649
 21
1066.23350199987
 31
0.0
  0
LINE
  5
8E
330
1F
100
AcDbEntity
  8
0-1
  6
Continuous
 62
     7
370
     9
100
AcDbLine
 10
-2372.040770064897
 20
1116.483482204683
 30
0.0
 11
-1988.0407700649
 21
1116.483482204683
 31
0.0
  0
LINE
  5
8F
330
1F
100
AcDbEntity
  8
0-1
  6
Continuous
 62
     7
370
     9
100
AcDbLine
 10
-2372.040770064897
 20
1166.733536641445
 30
0.0
 11
-1988.0407700649
 21
1166.733536641445
 31
0.0
  0
LINE
  5
90
330
1F
100
AcDbEntity
  8
0-1
  6
Continuous
 62
     7
370
     9
100
AcDbLine
 10
-1988.0407700649
 20
1271.08855957138
 30
0.0
 11
-2372.040770064897
 21
1271.08855957138
 31
0.0
  0
LINE
  5
91
330
1F
100
AcDbEntity
  8
0-1
  6
JWW_CENTER1
 62
     7
370
     9
100
AcDbLine
 10
-1884.540770064897
 20
1383.91105957138
 30
0.0
 11
-2475.540770064897
 21
-238.3389404286216
 31
0.0
  0
LINE
  5
92
330
1F
100
AcDbEntity
  8
0-1
  6
JWW_CENTER1
 62
     7
370
     9
100
AcDbLine
 10
-2475.540770064897
 20
-238.3389404286216
 30
0.0
 11
-1884.540770064897
 21
-1860.588940428623
 31
0.0
  0
LINE
  5
93
330
1F
100
AcDbEntity
  8
0-1
  6
Continuous
 62
    92
370
    13
100
AcDbLine
 10
-2372.040770064897
 20
1274.41105957138
 30
0.0
 11
-1988.0407700649
 21
1274.41105957138
 31
0.0
  0
LINE
  5
94
330
1F
100
AcDbEntity
  8
0-1
  6
Continuous
 62
    92
370
    13
100
AcDbLine
 10
-2372.040770064897
 20
1278.91105957138
 30
0.0
 11
-1988.0407700649
 21
1278.91105957138
 31
0.0
  0
LINE
  5
95
330
1F
100
AcDbEntity
  8
0-1
  6
Continuous
 62
    92
370
    13
100
AcDbLine
 10
-2460.540770064898
 20
-1860.588940428623
 30
0.0
 11
-2460.540770064898
 21
1383.91105957138
 31
0.0
  0
LINE
  5
96
330
1F
100
AcDbEntity
  8
0-1
  6
Continuous
 62
    92
370
    13
100
AcDbLine
 10
-1899.540770064899
 20
-1860.588940428623
 30
0.0
 11
-1899.540770064899
 21
1383.91105957138
 31
0.0
  0
LINE
  5
97
330
1F
100
AcDbEntity
  8
0-1
  6
Continuous
 62
    92
370
    13
100
AcDbLine
 10
-1988.0407700649
 20
-1860.588940428623
 30
0.0
 11
-1988.0407700649
 21
1383.91105957138
 31
0.0
  0
LINE
  5
98
330
1F
100
AcDbEntity
  8
0-1
  6
Continuous
 62
    92
370
    13
100
AcDbLine
 10
-2372.040770064897
 20
-1860.588940428623
 30
0.0
 11
-2372.040770064897
 21
1383.91105957138
 31
0.0
  0
LINE
  5
99
330
1F
100
AcDbEntity
  8
0-1
  6
Continuous
 62
    92
370
    13
100
AcDbLine
 10
-2372.040770064897
 20
-1751.088940428622
 30
0.0
 11
-1988.0407700649
 21
-1751.088940428622
 31
0.0
  0
LINE
  5
9A
330
1F
100
AcDbEntity
  8
0-1
  6
Continuous
 62
    92
370
    13
100
AcDbLine
 10
-2372.040770064897
 20
-1755.588940428623
 30
0.0
 11
-1988.0407700649
 21
-1755.588940428623
 31
0.0
  0
LINE
  5
9B
330
1F
100
AcDbEntity
  8
0-1
  6
Continuous
 62
     7
370
     9
100
AcDbLine
 10
-2372.040770064897
 20
-1747.766725644769
 30
0.0
 11
-1988.0407700649
 21
-1747.766725644769
 31
0.0
  0
LINE
  5
9C
330
1F
100
AcDbEntity
  8
0-1
  6
Continuous
 62
     7
370
     9
100
AcDbLine
 10
-2372.040770064897
 20
-469.0899083887167
 30
0.0
 11
-1988.0407700649
 21
-469.0899083887167
 31
0.0
  0
LINE
  5
9D
330
1F
100
AcDbEntity
  8
0-1
  6
Continuous
 62
     7
370
     9
100
AcDbLine
 10
-2372.040770064897
 20
-450.2145058866052
 30
0.0
 11
-1988.0407700649
 21
-450.2145058866052
 31
0.0
  0
LINE
  5
9E
330
1F
100
AcDbEntity
  8
0-1
  6
Continuous
 62
     7
370
     9
100
AcDbLine
 10
-2372.040770064897
 20
-441.2666464640247
 30
0.0
 11
-1988.0407700649
 21
-441.2666464640247
 31
0.0
  0
LINE
  5
9F
330
1F
100
AcDbEntity
  8
0-1
  6
Continuous
 62
     7
370
     9
100
AcDbLine
 10
-2372.040770064897
 20
-391.0166662592106
 30
0.0
 11
-1988.0407700649
 21
-391.0166662592106
 31
0.0
  0
LINE
  5
A0
330
1F
100
AcDbEntity
  8
0-1
  6
Continuous
 62
     7
370
     9
100
AcDbLine
 10
-2372.040770064897
 20
-340.7666860543966
 30
0.0
 11
-1988.0407700649
 21
-340.7666860543966
 31
0.0
  0
LINE
  5
A1
330
1F
100
AcDbEntity
  8
0-1
  6
Continuous
 62
     7
370
     9
100
AcDbLine
 10
-2372.040770064897
 20
-290.5167058495812
 30
0.0
 11
-1988.0407700649
 21
-290.5167058495812
 31
0.0
  0
LINE
  5
A2
330
1F
100
AcDbEntity
  8
0-1
  6
Continuous
 62
     7
370
     9
100
AcDbLine
 10
-2372.040770064897
 20
-240.2667256447672
 30
0.0
 11
-1988.0407700649
 21
-240.2667256447672
 31
0.0
  0
LINE
  5
A3
330
1F
100
AcDbEntity
  8
0-1
  6
Continuous
 62
     7
370
     9
100
AcDbLine
 10
-2372.040770064897
 20
-190.0167454399531
 30
0.0
 11
-1988.0407700649
 21
-190.0167454399531
 31
0.0
  0
LINE
  5
A4
330
1F
100
AcDbEntity
  8
0-1
  6
Continuous
 62
     7
370
     9
100
AcDbLine
 10
-2372.040770064897
 20
-139.7667652351397
 30
0.0
 11
-1988.0407700649
 21
-139.7667652351397
 31
0.0
  0
LINE
  5
A5
330
1F
100
AcDbEntity
  8
0-1
  6
Continuous
 62
     7
370
     9
100
AcDbLine
 10
-2372.040770064897
 20
-89.51648810253815
 30
0.0
 11
-1988.0407700649
 21
-89.51648810253815
 31
0.0
  0
LINE
  5
A6
330
1F
100
AcDbEntity
  8
0-1
  6
Continuous
 62
     7
370
     9
100
AcDbLine
 10
-2372.040770064897
 20
-39.2665078977241
 30
0.0
 11
-1988.0407700649
 21
-39.2665078977241
 31
0.0
  0
LINE
  5
A7
330
1F
100
AcDbEntity
  8
0-1
  6
Continuous
 62
     7
370
     9
100
AcDbLine
 10
-2372.040770064897
 20
10.98347230709059
 30
0.0
 11
-1988.0407700649
 21
10.98347230709059
 31
0.0
  0
LINE
  5
A8
330
1F
100
AcDbEntity
  8
0-1
  6
Continuous
 62
     7
370
     9
100
AcDbLine
 10
-2372.040770064897
 20
61.23345251190464
 30
0.0
 11
-1988.0407700649
 21
61.23345251190464
 31
0.0
  0
LINE
  5
A9
330
1F
100
AcDbEntity
  8
0-1
  6
Continuous
 62
     7
370
     9
100
AcDbLine
 10
-2372.040770064897
 20
111.4835811806125
 30
0.0
 11
-1988.0407700649
 21
111.4835811806125
 31
0.0
  0
LINE
  5
AA
330
1F
100
AcDbEntity
  8
0-1
  6
Continuous
 62
     7
370
     9
100
AcDbLine
 10
-2372.040770064897
 20
161.7335613854265
 30
0.0
 11
-1988.0407700649
 21
161.7335613854265
 31
0.0
  0
LINE
  5
AB
330
1F
100
AcDbEntity
  8
0-1
  6
Continuous
 62
     7
370
     9
100
AcDbLine
 10
-2372.040770064897
 20
-491.3386290173636
 30
0.0
 11
-1988.0407700649
 21
-491.3386290173636
 31
0.0
  0
LINE
  5
AC
330
1F
100
AcDbEntity
  8
0-1
  6
Continuous
 62
     7
370
     9
100
AcDbLine
 10
-2372.040770064897
 20
-524.3337137778635
 30
0.0
 11
-1988.0407700649
 21
-524.3337137778635
 31
0.0
  0
LINE
  5
AD
330
1F
100
AcDbEntity
  8
0-1
  6
Continuous
 62
     7
370
     9
100
AcDbLine
 10
-2372.040770064897
 20
-537.9114745258233
 30
0.0
 11
-1988.0407700649
 21
-537.9114745258233
 31
0.0
  0
LINE
  5
AE
330
1F
100
AcDbEntity
  8
0-1
  6
Continuous
 62
     7
370
     9
100
AcDbLine
 10
-2372.040770064897
 20
-537.2143475251194
 30
0.0
 11
-1988.0407700649
 21
-537.2143475251194
 31
0.0
  0
LINE
  5
AF
330
1F
100
AcDbEntity
  8
0-1
  6
Continuous
 62
     7
370
     9
100
AcDbLine
 10
-2372.040770064897
 20
-592.0165870784673
 30
0.0
 11
-1988.0407700649
 21
-592.0165870784673
 31
0.0
  0
LINE
  5
B0
330
1F
100
AcDbEntity
  8
0-1
  6
Continuous
 62
     7
370
     9
100
AcDbLine
 10
-2372.040770064897
 20
-642.2665672832819
 30
0.0
 11
-1988.0407700649
 21
-642.2665672832819
 31
0.0
  0
LINE
  5
B1
330
1F
100
AcDbEntity
  8
0-1
  6
Continuous
 62
     7
370
     9
100
AcDbLine
 10
-2372.040770064897
 20
-692.5165474880957
 30
0.0
 11
-1988.0407700649
 21
-692.5165474880957
 31
0.0
  0
LINE
  5
B2
330
1F
100
AcDbEntity
  8
0-1
  6
Continuous
 62
     7
370
     9
100
AcDbLine
 10
-2372.040770064897
 20
-742.7665276929107
 30
0.0
 11
-1988.0407700649
 21
-742.7665276929107
 31
0.0
  0
LINE
  5
B3
330
1F
100
AcDbEntity
  8
0-1
  6
Continuous
 62
     7
370
     9
100
AcDbLine
 10
-2372.040770064897
 20
-793.0165078977238
 30
0.0
 11
-1988.0407700649
 21
-793.0165078977238
 31
0.0
  0
LINE
  5
B4
330
1F
100
AcDbEntity
  8
0-1
  6
Continuous
 62
     7
370
     9
100
AcDbLine
 10
-2372.040770064897
 20
-843.2664881025388
 30
0.0
 11
-1988.0407700649
 21
-843.2664881025388
 31
0.0
  0
LINE
  5
B5
330
1F
100
AcDbEntity
  8
0-1
  6
Continuous
 62
     7
370
     9
100
AcDbLine
 10
-2372.040770064897
 20
-893.5167652351395
 30
0.0
 11
-1988.0407700649
 21
-893.5167652351395
 31
0.0
  0
LINE
  5
B6
330
1F
100
AcDbEntity
  8
0-1
  6
Continuous
 62
     7
370
     9
100
AcDbLine
 10
-2372.040770064897
 20
-943.7667454399544
 30
0.0
 11
-1988.0407700649
 21
-943.7667454399544
 31
0.0
  0
LINE
  5
B7
330
1F
100
AcDbEntity
  8
0-1
  6
Continuous
 62
     7
370
     9
100
AcDbLine
 10
-2372.040770064897
 20
-994.0167256447676
 30
0.0
 11
-1988.0407700649
 21
-994.0167256447676
 31
0.0
  0
LINE
  5
B8
330
1F
100
AcDbEntity
  8
0-1
  6
Continuous
 62
     7
370
     9
100
AcDbLine
 10
-2372.040770064897
 20
-1044.266705849583
 30
0.0
 11
-1988.0407700649
 21
-1044.266705849583
 31
0.0
  0
LINE
  5
B9
330
1F
100
AcDbEntity
  8
0-1
  6
Continuous
 62
     7
370
     9
100
AcDbLine
 10
-2372.040770064897
 20
-1094.516686054396
 30
0.0
 11
-1988.0407700649
 21
-1094.516686054396
 31
0.0
  0
LINE
  5
BA
330
1F
100
AcDbEntity
  8
0-1
  6
Continuous
 62
     7
370
     9
100
AcDbLine
 10
-2372.040770064897
 20
-1144.766666259211
 30
0.0
 11
-1988.0407700649
 21
-1144.766666259211
 31
0.0
  0
LINE
  5
BB
330
1F
100
AcDbEntity
  8
0-1
  6
Continuous
 62
     7
370
     9
100
AcDbLine
 10
-2372.040770064897
 20
-1195.016646464025
 30
0.0
 11
-1988.0407700649
 21
-1195.016646464025
 31
0.0
  0
LINE
  5
BC
330
1F
100
AcDbEntity
  8
0-1
  6
Continuous
 62
     7
370
     9
100
AcDbLine
 10
-2372.040770064897
 20
-1245.266626668839
 30
0.0
 11
-1988.0407700649
 21
-1245.266626668839
 31
0.0
  0
LINE
  5
BD
330
1F
100
AcDbEntity
  8
0-1
  6
Continuous
 62
     7
370
     9
100
AcDbLine
 10
-2372.040770064897
 20
-1295.516606873653
 30
0.0
 11
-1988.0407700649
 21
-1295.516606873653
 31
0.0
  0
LINE
  5
BE
330
1F
100
AcDbEntity
  8
0-1
  6
Continuous
 62
     7
370
     9
100
AcDbLine
 10
-2372.040770064897
 20
-1345.766587078467
 30
0.0
 11
-1988.0407700649
 21
-1345.766587078467
 31
0.0
  0
LINE
  5
BF
330
1F
100
AcDbEntity
  8
0-1
  6
Continuous
 62
     7
370
     9
100
AcDbLine
 10
-2372.040770064897
 20
-1396.016567283282
 30
0.0
 11
-1988.0407700649
 21
-1396.016567283282
 31
0.0
  0
LINE
  5
C0
330
1F
100
AcDbEntity
  8
0-1
  6
Continuous
 62
     7
370
     9
100
AcDbLine
 10
-2372.040770064897
 20
-1446.266547488096
 30
0.0
 11
-1988.0407700649
 21
-1446.266547488096
 31
0.0
  0
LINE
  5
C1
330
1F
100
AcDbEntity
  8
0-1
  6
Continuous
 62
     7
370
     9
100
AcDbLine
 10
-2372.040770064897
 20
-1496.516527692911
 30
0.0
 11
-1988.0407700649
 21
-1496.516527692911
 31
0.0
  0
LINE
  5
C2
330
1F
100
AcDbEntity
  8
0-1
  6
Continuous
 62
     7
370
     9
100
AcDbLine
 10
-2372.040770064897
 20
-1546.766507897724
 30
0.0
 11
-1988.0407700649
 21
-1546.766507897724
 31
0.0
  0
LINE
  5
C3
330
1F
100
AcDbEntity
  8
0-1
  6
Continuous
 62
     7
370
     9
100
AcDbLine
 10
-2372.040770064897
 20
-1597.016488102539
 30
0.0
 11
-1988.0407700649
 21
-1597.016488102539
 31
0.0
  0
LINE
  5
C4
330
1F
100
AcDbEntity
  8
0-1
  6
Continuous
 62
     7
370
     9
100
AcDbLine
 10
-2372.040770064897
 20
-1647.266765235139
 30
0.0
 11
-1988.0407700649
 21
-1647.266765235139
 31
0.0
  0
LINE
  5
C5
330
1F
100
AcDbEntity
  8
0-1
  6
Continuous
 62
     7
370
     9
100
AcDbLine
 10
-2372.040770064897
 20
-1697.516745439954
 30
0.0
 11
-1988.0407700649
 21
-1697.516745439954
 31
0.0
  0
LINE
  5
C6
330
1F
100
AcDbEntity
  8
0-1
  6
JWW_DASHED1
 62
     7
370
     9
100
AcDbLine
 10
-2372.040770064897
 20
-435.2139404286203
 30
0.0
 11
-1988.0407700649
 21
-435.2139404286203
 31
0.0
  0
LINE
  5
C7
330
1F
100
AcDbEntity
  8
0-1
  6
JWW_DASHED1
 62
     7
370
     9
100
AcDbLine
 10
-2372.040770064897
 20
-540.2139404286221
 30
0.0
 11
-1988.0407700649
 21
-540.2139404286221
 31
0.0
  0
LINE
  5
C8
330
1F
100
AcDbEntity
  8
0-1
  6
Continuous
 62
     7
370
     9
100
AcDbLine
 10
612.959229935105
 20
-1697.516749428623
 30
0.0
 11
228.9592299351077
 21
-1697.516749428623
 31
0.0
  0
LINE
  5
C9
330
1F
100
AcDbEntity
  8
0-1
  6
Continuous
 62
     7
370
     9
100
AcDbLine
 10
612.959229935105
 20
-1647.266769223809
 30
0.0
 11
228.9592299351077
 21
-1647.266769223809
 31
0.0
  0
LINE
  5
CA
330
1F
100
AcDbEntity
  8
0-1
  6
Continuous
 62
     7
370
     9
100
AcDbLine
 10
612.959229935105
 20
-1597.016492091207
 30
0.0
 11
228.9592299351077
 21
-1597.016492091207
 31
0.0
  0
LINE
  5
CB
330
1F
100
AcDbEntity
  8
0-1
  6
Continuous
 62
     7
370
     9
100
AcDbLine
 10
612.959229935105
 20
-1546.766511886393
 30
0.0
 11
228.9592299351077
 21
-1546.766511886393
 31
0.0
  0
LINE
  5
CC
330
1F
100
AcDbEntity
  8
0-1
  6
Continuous
 62
     7
370
     9
100
AcDbLine
 10
612.959229935105
 20
-1496.516531681579
 30
0.0
 11
228.9592299351077
 21
-1496.516531681579
 31
0.0
  0
LINE
  5
CD
330
1F
100
AcDbEntity
  8
0-1
  6
Continuous
 62
     7
370
     9
100
AcDbLine
 10
612.959229935105
 20
-1446.266551476765
 30
0.0
 11
228.9592299351077
 21
-1446.266551476765
 31
0.0
  0
LINE
  5
CE
330
1F
100
AcDbEntity
  8
0-1
  6
Continuous
 62
     7
370
     9
100
AcDbLine
 10
612.959229935105
 20
-1396.016571271951
 30
0.0
 11
228.9592299351077
 21
-1396.016571271951
 31
0.0
  0
LINE
  5
CF
330
1F
100
AcDbEntity
  8
0-1
  6
Continuous
 62
     7
370
     9
100
AcDbLine
 10
612.959229935105
 20
-1345.766591067137
 30
0.0
 11
228.9592299351077
 21
-1345.766591067137
 31
0.0
  0
LINE
  5
D0
330
1F
100
AcDbEntity
  8
0-1
  6
Continuous
 62
     7
370
     9
100
AcDbLine
 10
612.959229935105
 20
-1295.516610862322
 30
0.0
 11
228.9592299351077
 21
-1295.516610862322
 31
0.0
  0
LINE
  5
D1
330
1F
100
AcDbEntity
  8
0-1
  6
Continuous
 62
     7
370
     9
100
AcDbLine
 10
612.959229935105
 20
-1245.266630657509
 30
0.0
 11
228.9592299351077
 21
-1245.266630657509
 31
0.0
  0
LINE
  5
D2
330
1F
100
AcDbEntity
  8
0-1
  6
Continuous
 62
     7
370
     9
100
AcDbLine
 10
612.959229935105
 20
-1195.016650452693
 30
0.0
 11
228.9592299351077
 21
-1195.016650452693
 31
0.0
  0
LINE
  5
D3
330
1F
100
AcDbEntity
  8
0-1
  6
Continuous
 62
     7
370
     9
100
AcDbLine
 10
612.959229935105
 20
-1144.766670247879
 30
0.0
 11
228.9592299351077
 21
-1144.766670247879
 31
0.0
  0
LINE
  5
D4
330
1F
100
AcDbEntity
  8
0-1
  6
Continuous
 62
     7
370
     9
100
AcDbLine
 10
612.959229935105
 20
-1094.516690043064
 30
0.0
 11
228.9592299351077
 21
-1094.516690043064
 31
0.0
  0
LINE
  5
D5
330
1F
100
AcDbEntity
  8
0-1
  6
Continuous
 62
     7
370
     9
100
AcDbLine
 10
612.959229935105
 20
-1044.266709838251
 30
0.0
 11
228.9592299351077
 21
-1044.266709838251
 31
0.0
  0
LINE
  5
D6
330
1F
100
AcDbEntity
  8
0-1
  6
Continuous
 62
     7
370
     9
100
AcDbLine
 10
612.959229935105
 20
-994.0167296334362
 30
0.0
 11
228.9592299351077
 21
-994.0167296334362
 31
0.0
  0
LINE
  5
D7
330
1F
100
AcDbEntity
  8
0-1
  6
Continuous
 62
     7
370
     9
100
AcDbLine
 10
612.959229935105
 20
-943.7667494286221
 30
0.0
 11
228.9592299351077
 21
-943.7667494286221
 31
0.0
  0
LINE
  5
D8
330
1F
100
AcDbEntity
  8
0-1
  6
Continuous
 62
     7
370
     9
100
AcDbLine
 10
612.959229935105
 20
-893.5167692238081
 30
0.0
 11
228.9592299351077
 21
-893.5167692238081
 31
0.0
  0
LINE
  5
D9
330
1F
100
AcDbEntity
  8
0-1
  6
Continuous
 62
     7
370
     9
100
AcDbLine
 10
612.959229935105
 20
-1747.766729633438
 30
0.0
 11
228.9592299351077
 21
-1747.766729633438
 31
0.0
  0
LINE
  5
DA
330
1F
100
AcDbEntity
  8
0-1
  6
Continuous
 62
     7
370
     9
100
AcDbLine
 10
612.959229935105
 20
-839.4116566733528
 30
0.0
 11
228.9592299351077
 21
-839.4116566733528
 31
0.0
  0
LINE
  5
DB
330
1F
100
AcDbEntity
  8
0-1
  6
JWW_CENTER1
 62
     7
370
     9
100
AcDbLine
 10
125.4592299351046
 20
-728.0891566733528
 30
0.0
 11
716.4592299351043
 21
-1294.339048550988
 31
0.0
  0
LINE
  5
DC
330
1F
100
AcDbEntity
  8
0-1
  6
JWW_CENTER1
 62
     7
370
     9
100
AcDbLine
 10
716.4592299351043
 20
-1294.339048550988
 30
0.0
 11
125.4592299351046
 21
-1860.588940428622
 31
0.0
  0
LINE
  5
DD
330
1F
100
AcDbEntity
  8
0-1
  6
Continuous
 62
    92
370
    13
100
AcDbLine
 10
612.959229935105
 20
-837.5891566733528
 30
0.0
 11
228.9592299351077
 21
-837.5891566733528
 31
0.0
  0
LINE
  5
DE
330
1F
100
AcDbEntity
  8
0-1
  6
Continuous
 62
    92
370
    13
100
AcDbLine
 10
612.959229935105
 20
-834.5892952396545
 30
0.0
 11
228.9592299351077
 21
-834.5892952396545
 31
0.0
  0
LINE
  5
DF
330
1F
100
AcDbEntity
  8
0-1
  6
Continuous
 62
    92
370
    13
100
AcDbLine
 10
612.959229935105
 20
-821.7086614923991
 30
0.0
 11
228.9592299351077
 21
-821.7086614923991
 31
0.0
  0
LINE
  5
E0
330
1F
100
AcDbEntity
  8
0-1
  6
Continuous
 62
    92
370
    13
100
AcDbLine
 10
701.4592299351064
 20
-1860.588940428622
 30
0.0
 11
701.4592299351064
 21
-728.0891566733528
 31
0.0
  0
LINE
  5
E1
330
1F
100
AcDbEntity
  8
0-1
  6
Continuous
 62
    92
370
    13
100
AcDbLine
 10
140.4592299351063
 20
-1860.588940428622
 30
0.0
 11
140.4592299351063
 21
-728.0891566733528
 31
0.0
  0
LINE
  5
E2
330
1F
100
AcDbEntity
  8
0-1
  6
Continuous
 62
    92
370
    13
100
AcDbLine
 10
228.9592299351077
 20
-1860.588940428622
 30
0.0
 11
228.9592299351077
 21
-728.0891566733528
 31
0.0
  0
LINE
  5
E3
330
1F
100
AcDbEntity
  8
0-1
  6
Continuous
 62
    92
370
    13
100
AcDbLine
 10
612.959229935105
 20
-1860.588940428622
 30
0.0
 11
612.959229935105
 21
-728.0891566733528
 31
0.0
  0
LINE
  5
E4
330
1F
100
AcDbEntity
  8
0-1
  6
Continuous
 62
    92
370
    13
100
AcDbLine
 10
612.959229935105
 20
-1751.088940428622
 30
0.0
 11
228.9592299351077
 21
-1751.088940428622
 31
0.0
  0
LINE
  5
E5
330
1F
100
AcDbEntity
  8
0-1
  6
Continuous
 62
    92
370
    13
100
AcDbLine
 10
612.959229935105
 20
-1755.588940428623
 30
0.0
 11
228.9592299351077
 21
-1755.588940428623
 31
0.0
  0
LINE
  5
E6
330
1F
100
AcDbEntity
  8
0-1
  6
JWW_CENTER1
 62
     7
370
     9
100
AcDbLine
 10
716.4592297954928
 20
942.9110595713784
 30
0.0
 11
125.4592297954915
 21
501.9110595713792
 31
0.0
  0
LINE
  5
E7
330
1F
100
AcDbEntity
  8
0-1
  6
JWW_CENTER1
 62
     7
370
     9
100
AcDbLine
 10
125.4592297954915
 20
1383.911059571379
 30
0.0
 11
716.4592297954928
 21
942.9110595713784
 31
0.0
  0
LINE
  5
E8
330
1F
100
AcDbEntity
  8
0-1
  6
Continuous
 62
     7
370
     9
100
AcDbLine
 10
228.9592297954928
 20
664.2340872530367
 30
0.0
 11
612.9592297954885
 21
664.2340872530367
 31
0.0
  0
LINE
  5
E9
330
1F
100
AcDbEntity
  8
0-1
  6
Continuous
 62
     7
370
     9
100
AcDbLine
 10
228.9592297954928
 20
714.484067457852
 30
0.0
 11
612.9592297954885
 21
714.484067457852
 31
0.0
  0
LINE
  5
EA
330
1F
100
AcDbEntity
  8
0-1
  6
Continuous
 62
     7
370
     9
100
AcDbLine
 10
228.9592297954928
 20
764.7340476626656
 30
0.0
 11
612.9592297954885
 21
764.7340476626656
 31
0.0
  0
LINE
  5
EB
330
1F
100
AcDbEntity
  8
0-1
  6
Continuous
 62
     7
370
     9
100
AcDbLine
 10
228.9592297954928
 20
814.9840278674806
 30
0.0
 11
612.9592297954885
 21
814.9840278674806
 31
0.0
  0
LINE
  5
EC
330
1F
100
AcDbEntity
  8
0-1
  6
Continuous
 62
     7
370
     9
100
AcDbLine
 10
228.9592297954928
 20
865.2341565361875
 30
0.0
 11
612.9592297954885
 21
865.2341565361875
 31
0.0
  0
LINE
  5
ED
330
1F
100
AcDbEntity
  8
0-1
  6
Continuous
 62
     7
370
     9
100
AcDbLine
 10
228.9592297954928
 20
915.4841367410024
 30
0.0
 11
612.9592297954885
 21
915.4841367410024
 31
0.0
  0
LINE
  5
EE
330
1F
100
AcDbEntity
  8
0-1
  6
Continuous
 62
     7
370
     9
100
AcDbLine
 10
228.9592297954928
 20
965.7341169458168
 30
0.0
 11
612.9592297954885
 21
965.7341169458168
 31
0.0
  0
LINE
  5
EF
330
1F
100
AcDbEntity
  8
0-1
  6
Continuous
 62
     7
370
     9
100
AcDbLine
 10
228.9592297954928
 20
1015.984097150631
 30
0.0
 11
612.9592297954885
 21
1015.984097150631
 31
0.0
  0
LINE
  5
F0
330
1F
100
AcDbEntity
  8
0-1
  6
Continuous
 62
     7
370
     9
100
AcDbLine
 10
228.9592297954928
 20
1066.234077355445
 30
0.0
 11
612.9592297954885
 21
1066.234077355445
 31
0.0
  0
LINE
  5
F1
330
1F
100
AcDbEntity
  8
0-1
  6
Continuous
 62
     7
370
     9
100
AcDbLine
 10
228.9592297954928
 20
1116.484057560259
 30
0.0
 11
612.9592297954885
 21
1116.484057560259
 31
0.0
  0
LINE
  5
F2
330
1F
100
AcDbEntity
  8
0-1
  6
Continuous
 62
     7
370
     9
100
AcDbLine
 10
228.9592297954928
 20
1166.73411199702
 30
0.0
 11
612.9592297954885
 21
1166.73411199702
 31
0.0
  0
LINE
  5
F3
330
1F
100
AcDbEntity
  8
0-1
  6
Continuous
 62
     7
370
     9
100
AcDbLine
 10
228.9592297954928
 20
1216.984096606259
 30
0.0
 11
612.9592297954885
 21
1216.984096606259
 31
0.0
  0
LINE
  5
F4
330
1F
100
AcDbEntity
  8
0-1
  6
Continuous
 62
     7
370
     9
100
AcDbLine
 10
228.9592297954928
 20
1271.088559571379
 30
0.0
 11
612.9592297954885
 21
1271.088559571379
 31
0.0
  0
LINE
  5
F5
330
1F
100
AcDbEntity
  8
0-1
  6
Continuous
 62
    92
370
    13
100
AcDbLine
 10
228.9592297954928
 20
606.9110595713792
 30
0.0
 11
612.9592297954885
 21
606.9110595713792
 31
0.0
  0
LINE
  5
F6
330
1F
100
AcDbEntity
  8
0-1
  6
Continuous
 62
    92
370
    13
100
AcDbLine
 10
228.9592297954928
 20
611.4110595713789
 30
0.0
 11
612.9592297954885
 21
611.4110595713789
 31
0.0
  0
LINE
  5
F7
330
1F
100
AcDbEntity
  8
0-1
  6
Continuous
 62
    92
370
    13
100
AcDbLine
 10
228.9592297954928
 20
1278.911059571379
 30
0.0
 11
612.9592297954885
 21
1278.911059571379
 31
0.0
  0
LINE
  5
F8
330
1F
100
AcDbEntity
  8
0-1
  6
Continuous
 62
    92
370
    13
100
AcDbLine
 10
228.9592297954928
 20
1274.411059571379
 30
0.0
 11
612.9592297954885
 21
1274.411059571379
 31
0.0
  0
LINE
  5
F9
330
1F
100
AcDbEntity
  8
0-1
  6
Continuous
 62
    92
370
    13
100
AcDbLine
 10
228.9592297954928
 20
501.9110595713792
 30
0.0
 11
228.9592297954928
 21
1383.911059571379
 31
0.0
  0
LINE
  5
FA
330
1F
100
AcDbEntity
  8
0-1
  6
Continuous
 62
    92
370
    13
100
AcDbLine
 10
612.9592297954885
 20
501.9110595713792
 30
0.0
 11
612.9592297954885
 21
1383.911059571379
 31
0.0
  0
LINE
  5
FB
330
1F
100
AcDbEntity
  8
0-1
  6
Continuous
 62
    92
370
    13
100
AcDbLine
 10
701.4592297954898
 20
501.9110595713792
 30
0.0
 11
701.4592297954898
 21
1383.911059571379
 31
0.0
  0
LINE
  5
FC
330
1F
100
AcDbEntity
  8
0-1
  6
Continuous
 62
    92
370
    13
100
AcDbLine
 10
140.4592297954915
 20
501.9110595713792
 30
0.0
 11
140.4592297954915
 21
1383.911059571379
 31
0.0
  0
LINE
  5
FD
330
1F
100
AcDbEntity
  8
0-1
  6
Continuous
 62
    92
370
    13
100
AcDbLine
 10
716.4592297954928
 20
1383.911059571379
 30
0.0
 11
716.4592297954928
 21
501.9110595713792
 31
0.0
  0
LINE
  5
FE
330
1F
100
AcDbEntity
  8
0-1
  6
Continuous
 62
    92
370
    13
100
AcDbLine
 10
125.4592297954915
 20
501.9110595713792
 30
0.0
 11
125.4592297954915
 21
1383.911059571379
 31
0.0
  0
LINE
  5
FF
330
1F
100
AcDbEntity
  8
0-1
  6
Continuous
 62
    92
370
    13
100
AcDbLine
 10
716.4592297954928
 20
501.9110595713792
 30
0.0
 11
125.4592297954915
 21
501.9110595713792
 31
0.0
  0
LINE
  5
100
330
1F
100
AcDbEntity
  8
0-1
  6
Continuous
 62
    92
370
    13
100
AcDbLine
 10
125.4592297954915
 20
1383.911059571379
 30
0.0
 11
716.4592297954928
 21
1383.911059571379
 31
0.0
  0
LINE
  5
101
330
1F
100
AcDbEntity
  8
0-1
  6
Continuous
 62
    92
370
    13
100
AcDbLine
 10
125.4592299351063
 20
-728.0891566733535
 30
0.0
 11
716.4592299351077
 21
-728.0891566733535
 31
0.0
  0
LINE
  5
102
330
1F
100
AcDbEntity
  8
0-1
  6
Continuous
 62
    92
370
    13
100
AcDbLine
 10
125.4592299351063
 20
-728.0891566733535
 30
0.0
 11
125.4592299351063
 21
-1860.588940428623
 31
0.0
  0
LINE
  5
103
330
1F
100
AcDbEntity
  8
0-1
  6
Continuous
 62
    92
370
    13
100
AcDbLine
 10
716.4592299351077
 20
-728.0891566733535
 30
0.0
 11
716.4592299351077
 21
-1860.588940428623
 31
0.0
  0
LINE
  5
104
330
1F
100
AcDbEntity
  8
0-1
  6
Continuous
 62
    92
370
    13
100
AcDbLine
 10
125.4592299351063
 20
-1860.588940428623
 30
0.0
 11
716.4592299351077
 21
-1860.588940428623
 31
0.0
  0
LINE
  5
105
330
1F
100
AcDbEntity
  8
0-1
  6
Continuous
 62
    92
370
    13
100
AcDbLine
 10
-24.54077006489541
 20
-1860.58894042862
 30
0.0
 11
-615.5407700648934
 21
-1860.58894042862
 31
0.0
  0
LINE
  5
106
330
1F
100
AcDbEntity
  8
0-1
  6
Continuous
 62
    92
370
    13
100
AcDbLine
 10
-615.5407700648934
 20
-728.0891566733509
 30
0.0
 11
-615.5407700648934
 21
-1860.58894042862
 31
0.0
  0
LINE
  5
107
330
1F
100
AcDbEntity
  8
0-1
  6
Continuous
 62
    92
370
    13
100
AcDbLine
 10
-24.54077006489541
 20
-728.0891566733509
 30
0.0
 11
-24.54077006489541
 21
-1860.58894042862
 31
0.0
  0
LINE
  5
108
330
1F
100
AcDbEntity
  8
0-1
  6
Continuous
 62
    92
370
    13
100
AcDbLine
 10
-24.54077006489541
 20
-728.0891566733509
 30
0.0
 11
-615.5407700648934
 21
-728.0891566733509
 31
0.0
  0
LINE
  5
109
330
1F
100
AcDbEntity
  8
0-1
  6
Continuous
 62
    92
370
    13
100
AcDbLine
 10
-615.5407702045081
 20
1383.911059571382
 30
0.0
 11
-24.54077020450853
 21
1383.911059571382
 31
0.0
  0
LINE
  5
10A
330
1F
100
AcDbEntity
  8
0-1
  6
Continuous
 62
    92
370
    13
100
AcDbLine
 10
-24.54077020450853
 20
501.9110595713813
 30
0.0
 11
-615.5407702045081
 21
501.9110595713813
 31
0.0
  0
LINE
  5
10B
330
1F
100
AcDbEntity
  8
0-1
  6
Continuous
 62
    92
370
    13
100
AcDbLine
 10
-615.5407702045081
 20
501.9110595713813
 30
0.0
 11
-615.5407702045081
 21
1383.911059571382
 31
0.0
  0
LINE
  5
10C
330
1F
100
AcDbEntity
  8
0-1
  6
Continuous
 62
    92
370
    13
100
AcDbLine
 10
-24.54077020450853
 20
1383.911059571382
 30
0.0
 11
-24.54077020450853
 21
501.9110595713813
 31
0.0
  0
LINE
  5
10D
330
1F
100
AcDbEntity
  8
0-1
  6
Continuous
 62
    92
370
    13
100
AcDbLine
 10
-600.54077020451
 20
501.9110595713813
 30
0.0
 11
-600.54077020451
 21
1383.911059571382
 31
0.0
  0
LINE
  5
10E
330
1F
100
AcDbEntity
  8
0-1
  6
Continuous
 62
    92
370
    13
100
AcDbLine
 10
-39.54077020451024
 20
501.9110595713813
 30
0.0
 11
-39.54077020451024
 21
1383.911059571382
 31
0.0
  0
LINE
  5
10F
330
1F
100
AcDbEntity
  8
0-1
  6
Continuous
 62
    92
370
    13
100
AcDbLine
 10
-128.0407702045116
 20
501.9110595713813
 30
0.0
 11
-128.0407702045116
 21
1383.911059571382
 31
0.0
  0
LINE
  5
110
330
1F
100
AcDbEntity
  8
0-1
  6
Continuous
 62
    92
370
    13
100
AcDbLine
 10
-512.0407702045086
 20
501.9110595713813
 30
0.0
 11
-512.0407702045086
 21
1383.911059571382
 31
0.0
  0
LINE
  5
111
330
1F
100
AcDbEntity
  8
0-1
  6
Continuous
 62
    92
370
    13
100
AcDbLine
 10
-512.0407702045086
 20
1274.411059571381
 30
0.0
 11
-128.0407702045116
 21
1274.411059571381
 31
0.0
  0
LINE
  5
112
330
1F
100
AcDbEntity
  8
0-1
  6
Continuous
 62
    92
370
    13
100
AcDbLine
 10
-512.0407702045086
 20
1278.911059571382
 30
0.0
 11
-128.0407702045116
 21
1278.911059571382
 31
0.0
  0
LINE
  5
113
330
1F
100
AcDbEntity
  8
0-1
  6
Continuous
 62
    92
370
    13
100
AcDbLine
 10
-512.0407702045086
 20
611.4110595713819
 30
0.0
 11
-128.0407702045116
 21
611.4110595713819
 31
0.0
  0
LINE
  5
114
330
1F
100
AcDbEntity
  8
0-1
  6
Continuous
 62
    92
370
    13
100
AcDbLine
 10
-512.0407702045086
 20
606.9110595713813
 30
0.0
 11
-128.0407702045116
 21
606.9110595713813
 31
0.0
  0
LINE
  5
115
330
1F
100
AcDbEntity
  8
0-1
  6
Continuous
 62
     7
370
     9
100
AcDbLine
 10
-512.0407702045086
 20
1271.088559571381
 30
0.0
 11
-128.0407702045116
 21
1271.088559571381
 31
0.0
  0
LINE
  5
116
330
1F
100
AcDbEntity
  8
0-1
  6
Continuous
 62
     7
370
     9
100
AcDbLine
 10
-512.0407702045086
 20
1216.984096606261
 30
0.0
 11
-128.0407702045116
 21
1216.984096606261
 31
0.0
  0
LINE
  5
117
330
1F
100
AcDbEntity
  8
0-1
  6
Continuous
 62
     7
370
     9
100
AcDbLine
 10
-512.0407702045086
 20
1166.734111997023
 30
0.0
 11
-128.0407702045116
 21
1166.734111997023
 31
0.0
  0
LINE
  5
118
330
1F
100
AcDbEntity
  8
0-1
  6
Continuous
 62
     7
370
     9
100
AcDbLine
 10
-512.0407702045086
 20
1116.484057560262
 30
0.0
 11
-128.0407702045116
 21
1116.484057560262
 31
0.0
  0
LINE
  5
119
330
1F
100
AcDbEntity
  8
0-1
  6
Continuous
 62
     7
370
     9
100
AcDbLine
 10
-512.0407702045086
 20
1066.234077355448
 30
0.0
 11
-128.0407702045116
 21
1066.234077355448
 31
0.0
  0
LINE
  5
11A
330
1F
100
AcDbEntity
  8
0-1
  6
Continuous
 62
     7
370
     9
100
AcDbLine
 10
-512.0407702045086
 20
1015.984097150634
 30
0.0
 11
-128.0407702045116
 21
1015.984097150634
 31
0.0
  0
LINE
  5
11B
330
1F
100
AcDbEntity
  8
0-1
  6
Continuous
 62
     7
370
     9
100
AcDbLine
 10
-512.0407702045086
 20
965.7341169458199
 30
0.0
 11
-128.0407702045116
 21
965.7341169458199
 31
0.0
  0
LINE
  5
11C
330
1F
100
AcDbEntity
  8
0-1
  6
Continuous
 62
     7
370
     9
100
AcDbLine
 10
-512.0407702045086
 20
915.4841367410054
 30
0.0
 11
-128.0407702045116
 21
915.4841367410054
 31
0.0
  0
LINE
  5
11D
330
1F
100
AcDbEntity
  8
0-1
  6
Continuous
 62
     7
370
     9
100
AcDbLine
 10
-512.0407702045086
 20
865.2341565361901
 30
0.0
 11
-128.0407702045116
 21
865.2341565361901
 31
0.0
  0
LINE
  5
11E
330
1F
100
AcDbEntity
  8
0-1
  6
Continuous
 62
     7
370
     9
100
AcDbLine
 10
-512.0407702045086
 20
814.9840278674835
 30
0.0
 11
-128.0407702045116
 21
814.9840278674835
 31
0.0
  0
LINE
  5
11F
330
1F
100
AcDbEntity
  8
0-1
  6
Continuous
 62
     7
370
     9
100
AcDbLine
 10
-512.0407702045086
 20
764.7340476626682
 30
0.0
 11
-128.0407702045116
 21
764.7340476626682
 31
0.0
  0
LINE
  5
120
330
1F
100
AcDbEntity
  8
0-1
  6
Continuous
 62
     7
370
     9
100
AcDbLine
 10
-512.0407702045086
 20
714.4840674578542
 30
0.0
 11
-128.0407702045116
 21
714.4840674578542
 31
0.0
  0
LINE
  5
121
330
1F
100
AcDbEntity
  8
0-1
  6
Continuous
 62
     7
370
     9
100
AcDbLine
 10
-512.0407702045086
 20
664.2340872530397
 30
0.0
 11
-128.0407702045116
 21
664.2340872530397
 31
0.0
  0
LINE
  5
122
330
1F
100
AcDbEntity
  8
0-1
  6
Continuous
 62
    92
370
    13
100
AcDbLine
 10
-512.0407700648955
 20
-1755.58894042862
 30
0.0
 11
-128.0407700648985
 21
-1755.58894042862
 31
0.0
  0
LINE
  5
123
330
1F
100
AcDbEntity
  8
0-1
  6
Continuous
 62
    92
370
    13
100
AcDbLine
 10
-512.0407700648955
 20
-1751.08894042862
 30
0.0
 11
-128.0407700648985
 21
-1751.08894042862
 31
0.0
  0
LINE
  5
124
330
1F
100
AcDbEntity
  8
0-1
  6
Continuous
 62
    92
370
    13
100
AcDbLine
 10
-512.0407700648955
 20
-1860.588940428619
 30
0.0
 11
-512.0407700648955
 21
-728.0891566733505
 31
0.0
  0
LINE
  5
125
330
1F
100
AcDbEntity
  8
0-1
  6
Continuous
 62
    92
370
    13
100
AcDbLine
 10
-128.0407700648985
 20
-1860.588940428619
 30
0.0
 11
-128.0407700648985
 21
-728.0891566733505
 31
0.0
  0
LINE
  5
126
330
1F
100
AcDbEntity
  8
0-1
  6
Continuous
 62
    92
370
    13
100
AcDbLine
 10
-39.54077006489712
 20
-1860.588940428619
 30
0.0
 11
-39.54077006489712
 21
-728.0891566733505
 31
0.0
  0
LINE
  5
127
330
1F
100
AcDbEntity
  8
0-1
  6
Continuous
 62
    92
370
    13
100
AcDbLine
 10
-600.5407700648968
 20
-1860.588940428619
 30
0.0
 11
-600.5407700648968
 21
-728.0891566733505
 31
0.0
  0
LINE
  5
128
330
1F
100
AcDbEntity
  8
0-1
  6
Continuous
 62
    92
370
    13
100
AcDbLine
 10
-512.0407700648955
 20
-821.7086614923965
 30
0.0
 11
-128.0407700648985
 21
-821.7086614923965
 31
0.0
  0
LINE
  5
129
330
1F
100
AcDbEntity
  8
0-1
  6
Continuous
 62
    92
370
    13
100
AcDbLine
 10
-512.0407700648955
 20
-834.5892952396518
 30
0.0
 11
-128.0407700648985
 21
-834.5892952396518
 31
0.0
  0
LINE
  5
12A
330
1F
100
AcDbEntity
  8
0-1
  6
Continuous
 62
    92
370
    13
100
AcDbLine
 10
-512.0407700648955
 20
-837.5891566733502
 30
0.0
 11
-128.0407700648985
 21
-837.5891566733502
 31
0.0
  0
LINE
  5
12B
330
1F
100
AcDbEntity
  8
0-1
  6
Continuous
 62
     7
370
     9
100
AcDbLine
 10
-512.0407700648955
 20
-839.41165667335
 30
0.0
 11
-128.0407700648985
 21
-839.41165667335
 31
0.0
  0
LINE
  5
12C
330
1F
100
AcDbEntity
  8
0-1
  6
Continuous
 62
     7
370
     9
100
AcDbLine
 10
-512.0407700648955
 20
-1747.766729633435
 30
0.0
 11
-128.0407700648985
 21
-1747.766729633435
 31
0.0
  0
LINE
  5
12D
330
1F
100
AcDbEntity
  8
0-1
  6
Continuous
 62
     7
370
     9
100
AcDbLine
 10
-512.0407700648955
 20
-893.5167692238056
 30
0.0
 11
-128.0407700648985
 21
-893.5167692238056
 31
0.0
  0
LINE
  5
12E
330
1F
100
AcDbEntity
  8
0-1
  6
Continuous
 62
     7
370
     9
100
AcDbLine
 10
-512.0407700648955
 20
-943.7667494286196
 30
0.0
 11
-128.0407700648985
 21
-943.7667494286196
 31
0.0
  0
LINE
  5
12F
330
1F
100
AcDbEntity
  8
0-1
  6
Continuous
 62
     7
370
     9
100
AcDbLine
 10
-512.0407700648955
 20
-994.0167296334337
 30
0.0
 11
-128.0407700648985
 21
-994.0167296334337
 31
0.0
  0
LINE
  5
130
330
1F
100
AcDbEntity
  8
0-1
  6
Continuous
 62
     7
370
     9
100
AcDbLine
 10
-512.0407700648955
 20
-1044.266709838249
 30
0.0
 11
-128.0407700648985
 21
-1044.266709838249
 31
0.0
  0
LINE
  5
131
330
1F
100
AcDbEntity
  8
0-1
  6
Continuous
 62
     7
370
     9
100
AcDbLine
 10
-512.0407700648955
 20
-1094.516690043062
 30
0.0
 11
-128.0407700648985
 21
-1094.516690043062
 31
0.0
  0
LINE
  5
132
330
1F
100
AcDbEntity
  8
0-1
  6
Continuous
 62
     7
370
     9
100
AcDbLine
 10
-512.0407700648955
 20
-1144.766670247877
 30
0.0
 11
-128.0407700648985
 21
-1144.766670247877
 31
0.0
  0
LINE
  5
133
330
1F
100
AcDbEntity
  8
0-1
  6
Continuous
 62
     7
370
     9
100
AcDbLine
 10
-512.0407700648955
 20
-1195.016650452691
 30
0.0
 11
-128.0407700648985
 21
-1195.016650452691
 31
0.0
  0
LINE
  5
134
330
1F
100
AcDbEntity
  8
0-1
  6
Continuous
 62
     7
370
     9
100
AcDbLine
 10
-512.0407700648955
 20
-1245.266630657506
 30
0.0
 11
-128.0407700648985
 21
-1245.266630657506
 31
0.0
  0
LINE
  5
135
330
1F
100
AcDbEntity
  8
0-1
  6
Continuous
 62
     7
370
     9
100
AcDbLine
 10
-512.0407700648955
 20
-1295.516610862319
 30
0.0
 11
-128.0407700648985
 21
-1295.516610862319
 31
0.0
  0
LINE
  5
136
330
1F
100
AcDbEntity
  8
0-1
  6
Continuous
 62
     7
370
     9
100
AcDbLine
 10
-512.0407700648955
 20
-1345.766591067134
 30
0.0
 11
-128.0407700648985
 21
-1345.766591067134
 31
0.0
  0
LINE
  5
137
330
1F
100
AcDbEntity
  8
0-1
  6
Continuous
 62
     7
370
     9
100
AcDbLine
 10
-512.0407700648955
 20
-1396.016571271948
 30
0.0
 11
-128.0407700648985
 21
-1396.016571271948
 31
0.0
  0
LINE
  5
138
330
1F
100
AcDbEntity
  8
0-1
  6
Continuous
 62
     7
370
     9
100
AcDbLine
 10
-512.0407700648955
 20
-1446.266551476762
 30
0.0
 11
-128.0407700648985
 21
-1446.266551476762
 31
0.0
  0
LINE
  5
139
330
1F
100
AcDbEntity
  8
0-1
  6
Continuous
 62
     7
370
     9
100
AcDbLine
 10
-512.0407700648955
 20
-1496.516531681576
 30
0.0
 11
-128.0407700648985
 21
-1496.516531681576
 31
0.0
  0
LINE
  5
13A
330
1F
100
AcDbEntity
  8
0-1
  6
Continuous
 62
     7
370
     9
100
AcDbLine
 10
-512.0407700648955
 20
-1546.76651188639
 30
0.0
 11
-128.0407700648985
 21
-1546.76651188639
 31
0.0
  0
LINE
  5
13B
330
1F
100
AcDbEntity
  8
0-1
  6
Continuous
 62
     7
370
     9
100
AcDbLine
 10
-512.0407700648955
 20
-1597.016492091204
 30
0.0
 11
-128.0407700648985
 21
-1597.016492091204
 31
0.0
  0
LINE
  5
13C
330
1F
100
AcDbEntity
  8
0-1
  6
Continuous
 62
     7
370
     9
100
AcDbLine
 10
-512.0407700648955
 20
-1647.266769223806
 30
0.0
 11
-128.0407700648985
 21
-1647.266769223806
 31
0.0
  0
LINE
  5
13D
330
1F
100
AcDbEntity
  8
0-1
  6
Continuous
 62
     7
370
     9
100
AcDbLine
 10
-512.0407700648955
 20
-1697.51674942862
 30
0.0
 11
-128.0407700648985
 21
-1697.51674942862
 31
0.0
  0
LINE
  5
13E
330
1F
100
AcDbEntity
  8
0-1
  6
JWW_CENTER1
 62
     7
370
     9
100
AcDbLine
 10
-24.54077020450853
 20
1383.911059571382
 30
0.0
 11
-615.5407702045081
 21
942.911059571381
 31
0.0
  0
LINE
  5
13F
330
1F
100
AcDbEntity
  8
0-1
  6
JWW_CENTER1
 62
     7
370
     9
100
AcDbLine
 10
-615.5407702045081
 20
942.911059571381
 30
0.0
 11
-24.54077020450853
 21
501.9110595713813
 31
0.0
  0
LINE
  5
140
330
1F
100
AcDbEntity
  8
0-1
  6
JWW_CENTER1
 62
     7
370
     9
100
AcDbLine
 10
-615.5407700648968
 20
-1294.339048550985
 30
0.0
 11
-24.54077006489541
 21
-1860.588940428619
 31
0.0
  0
LINE
  5
141
330
1F
100
AcDbEntity
  8
0-1
  6
JWW_CENTER1
 62
     7
370
     9
100
AcDbLine
 10
-24.54077006489541
 20
-728.0891566733505
 30
0.0
 11
-615.5407700648968
 21
-1294.339048550985
 31
0.0
  0
LINE
  5
142
330
1F
100
AcDbEntity
  8
0-1
  6
Continuous
 62
    92
370
    13
100
AcDbLine
 10
-1734.540770064897
 20
1383.911059571386
 30
0.0
 11
-1734.540770064897
 21
-1860.588940428617
 31
0.0
  0
LINE
  5
143
330
1F
100
AcDbEntity
  8
0-1
  6
Continuous
 62
    92
370
    13
100
AcDbLine
 10
-1143.540770064896
 20
1383.911059571386
 30
0.0
 11
-1143.540770064896
 21
-1860.588940428617
 31
0.0
  0
LINE
  5
144
330
1F
100
AcDbEntity
  8
0-1
  6
Continuous
 62
    92
370
    13
100
AcDbLine
 10
-1734.540770064897
 20
-1860.588940428617
 30
0.0
 11
-1143.540770064896
 21
-1860.588940428617
 31
0.0
  0
LINE
  5
145
330
1F
100
AcDbEntity
  8
0-1
  6
Continuous
 62
    92
370
    13
100
AcDbLine
 10
-1734.540770064897
 20
1383.911059571386
 30
0.0
 11
-1143.540770064896
 21
1383.911059571386
 31
0.0
  0
LINE
  5
146
330
1F
100
AcDbEntity
  8
0-1
  6
Continuous
 62
     7
370
     9
100
AcDbLine
 10
-1247.040770064897
 20
1216.983521250687
 30
0.0
 11
-1631.040770064894
 21
1216.983521250687
 31
0.0
  0
LINE
  5
147
330
1F
100
AcDbEntity
  8
0-1
  6
Continuous
 62
     7
370
     9
100
AcDbLine
 10
-1247.040770064897
 20
211.983541590244
 30
0.0
 11
-1631.040770064894
 21
211.983541590244
 31
0.0
  0
LINE
  5
148
330
1F
100
AcDbEntity
  8
0-1
  6
Continuous
 62
     7
370
     9
100
AcDbLine
 10
-1247.040770064897
 20
262.2335217950589
 30
0.0
 11
-1631.040770064894
 21
262.2335217950589
 31
0.0
  0
LINE
  5
149
330
1F
100
AcDbEntity
  8
0-1
  6
Continuous
 62
     7
370
     9
100
AcDbLine
 10
-1247.040770064897
 20
312.4835019998729
 30
0.0
 11
-1631.040770064894
 21
312.4835019998729
 31
0.0
  0
LINE
  5
14A
330
1F
100
AcDbEntity
  8
0-1
  6
Continuous
 62
     7
370
     9
100
AcDbLine
 10
-1247.040770064897
 20
362.7334822046865
 30
0.0
 11
-1631.040770064894
 21
362.7334822046865
 31
0.0
  0
LINE
  5
14B
330
1F
100
AcDbEntity
  8
0-1
  6
Continuous
 62
     7
370
     9
100
AcDbLine
 10
-1247.040770064897
 20
412.983462409501
 30
0.0
 11
-1631.040770064894
 21
412.983462409501
 31
0.0
  0
LINE
  5
14C
330
1F
100
AcDbEntity
  8
0-1
  6
Continuous
 62
     7
370
     9
100
AcDbLine
 10
-1247.040770064897
 20
463.2334426143146
 30
0.0
 11
-1631.040770064894
 21
463.2334426143146
 31
0.0
  0
LINE
  5
14D
330
1F
100
AcDbEntity
  8
0-1
  6
Continuous
 62
     7
370
     9
100
AcDbLine
 10
-1247.040770064897
 20
513.4835712830229
 30
0.0
 11
-1631.040770064894
 21
513.4835712830229
 31
0.0
  0
LINE
  5
14E
330
1F
100
AcDbEntity
  8
0-1
  6
Continuous
 62
     7
370
     9
100
AcDbLine
 10
-1247.040770064897
 20
563.7335514878374
 30
0.0
 11
-1631.040770064894
 21
563.7335514878374
 31
0.0
  0
LINE
  5
14F
330
1F
100
AcDbEntity
  8
0-1
  6
Continuous
 62
     7
370
     9
100
AcDbLine
 10
-1247.040770064897
 20
613.9835316926515
 30
0.0
 11
-1631.040770064894
 21
613.9835316926515
 31
0.0
  0
LINE
  5
150
330
1F
100
AcDbEntity
  8
0-1
  6
Continuous
 62
     7
370
     9
100
AcDbLine
 10
-1247.040770064897
 20
664.2335118974646
 30
0.0
 11
-1631.040770064894
 21
664.2335118974646
 31
0.0
  0
LINE
  5
151
330
1F
100
AcDbEntity
  8
0-1
  6
Continuous
 62
     7
370
     9
100
AcDbLine
 10
-1247.040770064897
 20
714.4834921022796
 30
0.0
 11
-1631.040770064894
 21
714.4834921022796
 31
0.0
  0
LINE
  5
152
330
1F
100
AcDbEntity
  8
0-1
  6
Continuous
 62
     7
370
     9
100
AcDbLine
 10
-1247.040770064897
 20
764.7334723070936
 30
0.0
 11
-1631.040770064894
 21
764.7334723070936
 31
0.0
  0
LINE
  5
153
330
1F
100
AcDbEntity
  8
0-1
  6
Continuous
 62
     7
370
     9
100
AcDbLine
 10
-1247.040770064897
 20
814.9834525119085
 30
0.0
 11
-1631.040770064894
 21
814.9834525119085
 31
0.0
  0
LINE
  5
154
330
1F
100
AcDbEntity
  8
0-1
  6
Continuous
 62
     7
370
     9
100
AcDbLine
 10
-1247.040770064897
 20
865.2335811806158
 30
0.0
 11
-1631.040770064894
 21
865.2335811806158
 31
0.0
  0
LINE
  5
155
330
1F
100
AcDbEntity
  8
0-1
  6
Continuous
 62
     7
370
     9
100
AcDbLine
 10
-1247.040770064897
 20
915.4835613854303
 30
0.0
 11
-1631.040770064894
 21
915.4835613854303
 31
0.0
  0
LINE
  5
156
330
1F
100
AcDbEntity
  8
0-1
  6
Continuous
 62
     7
370
     9
100
AcDbLine
 10
-1247.040770064897
 20
965.7335415902448
 30
0.0
 11
-1631.040770064894
 21
965.7335415902448
 31
0.0
  0
LINE
  5
157
330
1F
100
AcDbEntity
  8
0-1
  6
Continuous
 62
     7
370
     9
100
AcDbLine
 10
-1247.040770064897
 20
1015.983521795058
 30
0.0
 11
-1631.040770064894
 21
1015.983521795058
 31
0.0
  0
LINE
  5
158
330
1F
100
AcDbEntity
  8
0-1
  6
Continuous
 62
     7
370
     9
100
AcDbLine
 10
-1247.040770064897
 20
1066.233501999873
 30
0.0
 11
-1631.040770064894
 21
1066.233501999873
 31
0.0
  0
LINE
  5
159
330
1F
100
AcDbEntity
  8
0-1
  6
Continuous
 62
     7
370
     9
100
AcDbLine
 10
-1247.040770064897
 20
1116.483482204687
 30
0.0
 11
-1631.040770064894
 21
1116.483482204687
 31
0.0
  0
LINE
  5
15A
330
1F
100
AcDbEntity
  8
0-1
  6
Continuous
 62
     7
370
     9
100
AcDbLine
 10
-1247.040770064897
 20
1166.733536641448
 30
0.0
 11
-1631.040770064894
 21
1166.733536641448
 31
0.0
  0
LINE
  5
15B
330
1F
100
AcDbEntity
  8
0-1
  6
Continuous
 62
     7
370
     9
100
AcDbLine
 10
-1631.040770064894
 20
1271.088559571383
 30
0.0
 11
-1247.040770064897
 21
1271.088559571383
 31
0.0
  0
LINE
  5
15C
330
1F
100
AcDbEntity
  8
0-1
  6
JWW_CENTER1
 62
     7
370
     9
100
AcDbLine
 10
-1734.540770064897
 20
1383.911059571383
 30
0.0
 11
-1143.540770064898
 21
-238.3389404286182
 31
0.0
  0
LINE
  5
15D
330
1F
100
AcDbEntity
  8
0-1
  6
JWW_CENTER1
 62
     7
370
     9
100
AcDbLine
 10
-1143.540770064898
 20
-238.3389404286182
 30
0.0
 11
-1734.540770064897
 21
-1860.58894042862
 31
0.0
  0
LINE
  5
15E
330
1F
100
AcDbEntity
  8
0-1
  6
Continuous
 62
    92
370
    13
100
AcDbLine
 10
-1247.040770064897
 20
1274.411059571383
 30
0.0
 11
-1631.040770064894
 21
1274.411059571383
 31
0.0
  0
LINE
  5
15F
330
1F
100
AcDbEntity
  8
0-1
  6
Continuous
 62
    92
370
    13
100
AcDbLine
 10
-1247.040770064897
 20
1278.911059571383
 30
0.0
 11
-1631.040770064894
 21
1278.911059571383
 31
0.0
  0
LINE
  5
160
330
1F
100
AcDbEntity
  8
0-1
  6
Continuous
 62
    92
370
    13
100
AcDbLine
 10
-1158.540770064896
 20
-1860.58894042862
 30
0.0
 11
-1158.540770064896
 21
1383.911059571383
 31
0.0
  0
LINE
  5
161
330
1F
100
AcDbEntity
  8
0-1
  6
Continuous
 62
    92
370
    13
100
AcDbLine
 10
-1719.540770064897
 20
-1860.58894042862
 30
0.0
 11
-1719.540770064897
 21
1383.911059571383
 31
0.0
  0
LINE
  5
162
330
1F
100
AcDbEntity
  8
0-1
  6
Continuous
 62
    92
370
    13
100
AcDbLine
 10
-1631.040770064894
 20
-1860.58894042862
 30
0.0
 11
-1631.040770064894
 21
1383.911059571383
 31
0.0
  0
LINE
  5
163
330
1F
100
AcDbEntity
  8
0-1
  6
Continuous
 62
    92
370
    13
100
AcDbLine
 10
-1247.040770064897
 20
-1860.58894042862
 30
0.0
 11
-1247.040770064897
 21
1383.911059571383
 31
0.0
  0
LINE
  5
164
330
1F
100
AcDbEntity
  8
0-1
  6
Continuous
 62
    92
370
    13
100
AcDbLine
 10
-1247.040770064897
 20
-1751.088940428619
 30
0.0
 11
-1631.040770064894
 21
-1751.088940428619
 31
0.0
  0
LINE
  5
165
330
1F
100
AcDbEntity
  8
0-1
  6
Continuous
 62
    92
370
    13
100
AcDbLine
 10
-1247.040770064897
 20
-1755.58894042862
 30
0.0
 11
-1631.040770064894
 21
-1755.58894042862
 31
0.0
  0
LINE
  5
166
330
1F
100
AcDbEntity
  8
0-1
  6
Continuous
 62
     7
370
     9
100
AcDbLine
 10
-1247.040770064897
 20
-1747.766725644766
 30
0.0
 11
-1631.040770064894
 21
-1747.766725644766
 31
0.0
  0
LINE
  5
167
330
1F
100
AcDbEntity
  8
0-1
  6
Continuous
 62
     7
370
     9
100
AcDbLine
 10
-1247.040770064897
 20
-469.0899083887133
 30
0.0
 11
-1631.040770064894
 21
-469.0899083887133
 31
0.0
  0
LINE
  5
168
330
1F
100
AcDbEntity
  8
0-1
  6
Continuous
 62
     7
370
     9
100
AcDbLine
 10
-1247.040770064897
 20
-450.2145058866018
 30
0.0
 11
-1631.040770064894
 21
-450.2145058866018
 31
0.0
  0
LINE
  5
169
330
1F
100
AcDbEntity
  8
0-1
  6
Continuous
 62
     7
370
     9
100
AcDbLine
 10
-1247.040770064897
 20
-441.2666464640206
 30
0.0
 11
-1631.040770064894
 21
-441.2666464640206
 31
0.0
  0
LINE
  5
16A
330
1F
100
AcDbEntity
  8
0-1
  6
Continuous
 62
     7
370
     9
100
AcDbLine
 10
-1247.040770064897
 20
-391.0166662592065
 30
0.0
 11
-1631.040770064894
 21
-391.0166662592065
 31
0.0
  0
LINE
  5
16B
330
1F
100
AcDbEntity
  8
0-1
  6
Continuous
 62
     7
370
     9
100
AcDbLine
 10
-1247.040770064897
 20
-340.7666860543925
 30
0.0
 11
-1631.040770064894
 21
-340.7666860543925
 31
0.0
  0
LINE
  5
16C
330
1F
100
AcDbEntity
  8
0-1
  6
Continuous
 62
     7
370
     9
100
AcDbLine
 10
-1247.040770064897
 20
-290.5167058495784
 30
0.0
 11
-1631.040770064894
 21
-290.5167058495784
 31
0.0
  0
LINE
  5
16D
330
1F
100
AcDbEntity
  8
0-1
  6
Continuous
 62
     7
370
     9
100
AcDbLine
 10
-1247.040770064897
 20
-240.2667256447644
 30
0.0
 11
-1631.040770064894
 21
-240.2667256447644
 31
0.0
  0
LINE
  5
16E
330
1F
100
AcDbEntity
  8
0-1
  6
Continuous
 62
     7
370
     9
100
AcDbLine
 10
-1247.040770064897
 20
-190.0167454399504
 30
0.0
 11
-1631.040770064894
 21
-190.0167454399504
 31
0.0
  0
LINE
  5
16F
330
1F
100
AcDbEntity
  8
0-1
  6
Continuous
 62
     7
370
     9
100
AcDbLine
 10
-1247.040770064897
 20
-139.7667652351363
 30
0.0
 11
-1631.040770064894
 21
-139.7667652351363
 31
0.0
  0
LINE
  5
170
330
1F
100
AcDbEntity
  8
0-1
  6
Continuous
 62
     7
370
     9
100
AcDbLine
 10
-1247.040770064897
 20
-89.51648810253474
 30
0.0
 11
-1631.040770064894
 21
-89.51648810253474
 31
0.0
  0
LINE
  5
171
330
1F
100
AcDbEntity
  8
0-1
  6
Continuous
 62
     7
370
     9
100
AcDbLine
 10
-1247.040770064897
 20
-39.26650789772069
 30
0.0
 11
-1631.040770064894
 21
-39.26650789772069
 31
0.0
  0
LINE
  5
172
330
1F
100
AcDbEntity
  8
0-1
  6
Continuous
 62
     7
370
     9
100
AcDbLine
 10
-1247.040770064897
 20
10.98347230709336
 30
0.0
 11
-1631.040770064894
 21
10.98347230709336
 31
0.0
  0
LINE
  5
173
330
1F
100
AcDbEntity
  8
0-1
  6
Continuous
 62
     7
370
     9
100
AcDbLine
 10
-1247.040770064897
 20
61.2334525119072
 30
0.0
 11
-1631.040770064894
 21
61.2334525119072
 31
0.0
  0
LINE
  5
174
330
1F
100
AcDbEntity
  8
0-1
  6
Continuous
 62
     7
370
     9
100
AcDbLine
 10
-1247.040770064897
 20
111.483581180615
 30
0.0
 11
-1631.040770064894
 21
111.483581180615
 31
0.0
  0
LINE
  5
175
330
1F
100
AcDbEntity
  8
0-1
  6
Continuous
 62
     7
370
     9
100
AcDbLine
 10
-1247.040770064897
 20
161.7335613854299
 30
0.0
 11
-1631.040770064894
 21
161.7335613854299
 31
0.0
  0
LINE
  5
176
330
1F
100
AcDbEntity
  8
0-1
  6
Continuous
 62
     7
370
     9
100
AcDbLine
 10
-1247.040770064897
 20
-491.3386290173602
 30
0.0
 11
-1631.040770064894
 21
-491.3386290173602
 31
0.0
  0
LINE
  5
177
330
1F
100
AcDbEntity
  8
0-1
  6
Continuous
 62
     7
370
     9
100
AcDbLine
 10
-1247.040770064897
 20
-524.3337137778601
 30
0.0
 11
-1631.040770064894
 21
-524.3337137778601
 31
0.0
  0
LINE
  5
178
330
1F
100
AcDbEntity
  8
0-1
  6
Continuous
 62
     7
370
     9
100
AcDbLine
 10
-1247.040770064897
 20
-537.9114745258211
 30
0.0
 11
-1631.040770064894
 21
-537.9114745258211
 31
0.0
  0
LINE
  5
179
330
1F
100
AcDbEntity
  8
0-1
  6
Continuous
 62
     7
370
     9
100
AcDbLine
 10
-1247.040770064897
 20
-537.214347525116
 30
0.0
 11
-1631.040770064894
 21
-537.214347525116
 31
0.0
  0
LINE
  5
17A
330
1F
100
AcDbEntity
  8
0-1
  6
Continuous
 62
     7
370
     9
100
AcDbLine
 10
-1247.040770064897
 20
-592.0165870784645
 30
0.0
 11
-1631.040770064894
 21
-592.0165870784645
 31
0.0
  0
LINE
  5
17B
330
1F
100
AcDbEntity
  8
0-1
  6
Continuous
 62
     7
370
     9
100
AcDbLine
 10
-1247.040770064897
 20
-642.2665672832785
 30
0.0
 11
-1631.040770064894
 21
-642.2665672832785
 31
0.0
  0
LINE
  5
17C
330
1F
100
AcDbEntity
  8
0-1
  6
Continuous
 62
     7
370
     9
100
AcDbLine
 10
-1247.040770064897
 20
-692.5165474880926
 30
0.0
 11
-1631.040770064894
 21
-692.5165474880926
 31
0.0
  0
LINE
  5
17D
330
1F
100
AcDbEntity
  8
0-1
  6
Continuous
 62
     7
370
     9
100
AcDbLine
 10
-1247.040770064897
 20
-742.7665276929073
 30
0.0
 11
-1631.040770064894
 21
-742.7665276929073
 31
0.0
  0
LINE
  5
17E
330
1F
100
AcDbEntity
  8
0-1
  6
Continuous
 62
     7
370
     9
100
AcDbLine
 10
-1247.040770064897
 20
-793.0165078977207
 30
0.0
 11
-1631.040770064894
 21
-793.0165078977207
 31
0.0
  0
LINE
  5
17F
330
1F
100
AcDbEntity
  8
0-1
  6
Continuous
 62
     7
370
     9
100
AcDbLine
 10
-1247.040770064897
 20
-843.2664881025354
 30
0.0
 11
-1631.040770064894
 21
-843.2664881025354
 31
0.0
  0
LINE
  5
180
330
1F
100
AcDbEntity
  8
0-1
  6
Continuous
 62
     7
370
     9
100
AcDbLine
 10
-1247.040770064897
 20
-893.5167652351363
 30
0.0
 11
-1631.040770064894
 21
-893.5167652351363
 31
0.0
  0
LINE
  5
181
330
1F
100
AcDbEntity
  8
0-1
  6
Continuous
 62
     7
370
     9
100
AcDbLine
 10
-1247.040770064897
 20
-943.766745439951
 30
0.0
 11
-1631.040770064894
 21
-943.766745439951
 31
0.0
  0
LINE
  5
182
330
1F
100
AcDbEntity
  8
0-1
  6
Continuous
 62
     7
370
     9
100
AcDbLine
 10
-1247.040770064897
 20
-994.0167256447644
 30
0.0
 11
-1631.040770064894
 21
-994.0167256447644
 31
0.0
  0
LINE
  5
183
330
1F
100
AcDbEntity
  8
0-1
  6
Continuous
 62
     7
370
     9
100
AcDbLine
 10
-1247.040770064897
 20
-1044.266705849579
 30
0.0
 11
-1631.040770064894
 21
-1044.266705849579
 31
0.0
  0
LINE
  5
184
330
1F
100
AcDbEntity
  8
0-1
  6
Continuous
 62
     7
370
     9
100
AcDbLine
 10
-1247.040770064897
 20
-1094.516686054393
 30
0.0
 11
-1631.040770064894
 21
-1094.516686054393
 31
0.0
  0
LINE
  5
185
330
1F
100
AcDbEntity
  8
0-1
  6
Continuous
 62
     7
370
     9
100
AcDbLine
 10
-1247.040770064897
 20
-1144.766666259208
 30
0.0
 11
-1631.040770064894
 21
-1144.766666259208
 31
0.0
  0
LINE
  5
186
330
1F
100
AcDbEntity
  8
0-1
  6
Continuous
 62
     7
370
     9
100
AcDbLine
 10
-1247.040770064897
 20
-1195.016646464022
 30
0.0
 11
-1631.040770064894
 21
-1195.016646464022
 31
0.0
  0
LINE
  5
187
330
1F
100
AcDbEntity
  8
0-1
  6
Continuous
 62
     7
370
     9
100
AcDbLine
 10
-1247.040770064897
 20
-1245.266626668837
 30
0.0
 11
-1631.040770064894
 21
-1245.266626668837
 31
0.0
  0
LINE
  5
188
330
1F
100
AcDbEntity
  8
0-1
  6
Continuous
 62
     7
370
     9
100
AcDbLine
 10
-1247.040770064897
 20
-1295.51660687365
 30
0.0
 11
-1631.040770064894
 21
-1295.51660687365
 31
0.0
  0
LINE
  5
189
330
1F
100
AcDbEntity
  8
0-1
  6
Continuous
 62
     7
370
     9
100
AcDbLine
 10
-1247.040770064897
 20
-1345.766587078465
 30
0.0
 11
-1631.040770064894
 21
-1345.766587078465
 31
0.0
  0
LINE
  5
18A
330
1F
100
AcDbEntity
  8
0-1
  6
Continuous
 62
     7
370
     9
100
AcDbLine
 10
-1247.040770064897
 20
-1396.016567283279
 30
0.0
 11
-1631.040770064894
 21
-1396.016567283279
 31
0.0
  0
LINE
  5
18B
330
1F
100
AcDbEntity
  8
0-1
  6
Continuous
 62
     7
370
     9
100
AcDbLine
 10
-1247.040770064897
 20
-1446.266547488093
 30
0.0
 11
-1631.040770064894
 21
-1446.266547488093
 31
0.0
  0
LINE
  5
18C
330
1F
100
AcDbEntity
  8
0-1
  6
Continuous
 62
     7
370
     9
100
AcDbLine
 10
-1247.040770064897
 20
-1496.516527692907
 30
0.0
 11
-1631.040770064894
 21
-1496.516527692907
 31
0.0
  0
LINE
  5
18D
330
1F
100
AcDbEntity
  8
0-1
  6
Continuous
 62
     7
370
     9
100
AcDbLine
 10
-1247.040770064897
 20
-1546.766507897721
 30
0.0
 11
-1631.040770064894
 21
-1546.766507897721
 31
0.0
  0
LINE
  5
18E
330
1F
100
AcDbEntity
  8
0-1
  6
Continuous
 62
     7
370
     9
100
AcDbLine
 10
-1247.040770064897
 20
-1597.016488102535
 30
0.0
 11
-1631.040770064894
 21
-1597.016488102535
 31
0.0
  0
LINE
  5
18F
330
1F
100
AcDbEntity
  8
0-1
  6
Continuous
 62
     7
370
     9
100
AcDbLine
 10
-1247.040770064897
 20
-1647.266765235137
 30
0.0
 11
-1631.040770064894
 21
-1647.266765235137
 31
0.0
  0
LINE
  5
190
330
1F
100
AcDbEntity
  8
0-1
  6
Continuous
 62
     7
370
     9
100
AcDbLine
 10
-1247.040770064897
 20
-1697.516745439951
 30
0.0
 11
-1631.040770064894
 21
-1697.516745439951
 31
0.0
  0
LINE
  5
191
330
1F
100
AcDbEntity
  8
0-1
  6
JWW_DASHED1
 62
     7
370
     9
100
AcDbLine
 10
-1247.040770064897
 20
-435.2139404286169
 30
0.0
 11
-1631.040770064894
 21
-435.2139404286169
 31
0.0
  0
LINE
  5
192
330
1F
100
AcDbEntity
  8
0-1
  6
JWW_DASHED1
 62
     7
370
     9
100
AcDbLine
 10
-1247.040770064897
 20
-540.2139404286187
 30
0.0
 11
-1631.040770064894
 21
-540.2139404286187
 31
0.0
  0
MTEXT
  5
193
330
1F
100
AcDbEntity
  8
文字
  6
Continuous
 62
     7
370
     9
100
AcDbMText
 10
-2707.34693877551
 20
-2211.169897959184
 30
0.0
 40
57.15000000000001
 41
975.0
 46
0.0
 71
     7
 72
     1
  1
{\fＭＳ ゴシック|b0|i0|c128|p49;ピノアース　ルーバータイプ}
 73
     1
 44
1.0
  0
LINE
  5
194
330
1F
100
AcDbEntity
  8
0-1
  6
Continuous
 62
   120
370
     5
100
AcDbLine
 10
-843.5407700648941
 20
501.9110595713813
 30
0.0
 11
-693.5407700648941
 21
501.9110595713813
 31
0.0
  0
LWPOLYLINE
  5
195
330
1F
100
AcDbEntity
  8
0-1
  6
Continuous
 62
     7
370
     9
100
AcDbPolyline
 90
        4
 70
     1
 43
3.0
 10
-842.040770064894
 20
501.9110595713813
 42
0.4142135623731
 10
-843.5407700648941
 20
503.4110595713813
 42
0.4142135623731
 10
-845.0407700648941
 20
501.9110595713813
 42
0.4142135623731
 10
-843.5407700648941
 20
500.4110595713813
 42
0.4142135623731
  0
LINE
  5
196
330
1F
100
AcDbEntity
  8
0-1
  6
Continuous
 62
   120
370
     5
100
AcDbLine
 10
-843.5407700648941
 20
501.9110595713813
 30
0.0
 11
-843.5407700648941
 21
506.4110401075874
 31
0.0
  0
LINE
  5
197
330
1F
100
AcDbEntity
  8
0-1
  6
Continuous
 62
   120
370
     5
100
AcDbLine
 10
-843.5407700648941
 20
501.9110595713813
 30
0.0
 11
-843.5407700648941
 21
1383.911059571382
 31
0.0
  0
LWPOLYLINE
  5
198
330
1F
100
AcDbEntity
  8
0-1
  6
Continuous
 62
     7
370
     9
100
AcDbPolyline
 90
        4
 70
     1
 43
3.0
 10
-842.040770064894
 20
501.9110595713813
 42
0.4142135623731
 10
-843.5407700648941
 20
503.4110595713813
 42
0.4142135623731
 10
-845.0407700648941
 20
501.9110595713813
 42
0.4142135623731
 10
-843.5407700648941
 20
500.4110595713813
 42
0.4142135623731
  0
MTEXT
  5
199
330
1F
100
AcDbEntity
  8
0-1
  6
Continuous
 62
     7
370
   211
100
AcDbMText
 10
-858.5407700648957
 20
748.4510595713826
 30
0.0
 40
68.58
 41
405.0
 46
0.0
 71
     7
 72
     1
  1
{\fＭＳ ゴシック|b0|i0|c128|p49;ＤＨ＝588}
 11
6.123031769111886E-17
 21
1.0
 31
0.0
 73
     1
 44
1.0
  0
ENDSEC
  0
SECTION
  2
OBJECTS
  0
DICTIONARY
  5
C
330
0
100
AcDbDictionary
281
     1
  3
ACAD_GROUP
350
D
  3
ACAD_LAYOUT
350
1A
  3
ACAD_MATERIAL
350
3B
  3
ACAD_MLEADERSTYLE
350
19B
  3
ACAD_MLINESTYLE
350
17
  3
ACAD_PLOTSETTINGS
350
19
  3
ACAD_PLOTSTYLENAME
350
E
  3
ACAD_TABLESTYLE
350
19A
  3
ACAD_VISUALSTYLE
350
2A
  0
DICTIONARY
  5
D
102
{ACAD_REACTORS
330
C
102
}
330
C
100
AcDbDictionary
281
     1
  0
DICTIONARY
  5
1A
102
{ACAD_REACTORS
330
C
102
}
330
C
100
AcDbDictionary
281
     1
  3
Layout1
350
1E
  3
Layout2
350
26
  3
Model
350
22
  0
DICTIONARY
  5
3B
102
{ACAD_REACTORS
330
C
102
}
330
C
100
AcDbDictionary
281
     1
  3
ByBlock
350
3D
  3
ByLayer
350
3C
  3
Global
350
3E
  0
DICTIONARY
  5
19B
102
{ACAD_REACTORS
330
C
102
}
330
C
100
AcDbDictionary
281
     1
  0
DICTIONARY
  5
17
102
{ACAD_REACTORS
330
C
102
}
330
C
100
AcDbDictionary
281
     1
  3
Standard
350
18
  0
DICTIONARY
  5
19
102
{ACAD_REACTORS
330
C
102
}
330
C
100
AcDbDictionary
281
     1
  0
ACDBDICTIONARYWDFLT
  5
E
102
{ACAD_REACTORS
330
C
102
}
330
C
100
AcDbDictionary
281
     1
  3
Normal
350
F
100
AcDbDictionaryWithDefault
340
F
  0
DICTIONARY
  5
19A
102
{ACAD_REACTORS
330
C
102
}
330
C
100
AcDbDictionary
281
     1
  0
DICTIONARY
  5
2A
102
{ACAD_REACTORS
330
C
102
}
330
C
100
AcDbDictionary
281
     1
  3
2dWireframe
350
2F
  3
3D Hidden
350
31
  3
3dWireframe
350
30
  3
Basic
350
32
  3
Brighten
350
36
  3
ColorChange
350
3A
  3
Conceptual
350
34
  3
Dim
350
35
  3
Facepattern
350
39
  3
Flat
350
2B
  3
FlatWithEdges
350
2C
  3
Gouraud
350
2D
  3
GouraudWithEdges
350
2E
  3
Linepattern
350
38
  3
Realistic
350
33
  3
Thicken
350
37
  0
LAYOUT
  5
1E
102
{ACAD_REACTORS
330
1A
102
}
330
1A
100
AcDbPlotSettings
  1

  2
none_device
  4

  6

 40
0.0
 41
0.0
 42
0.0
 43
0.0
 44
0.0
 45
0.0
 46
0.0
 47
0.0
 48
0.0
 49
0.0
140
0.0
141
0.0
142
1.0
143
1.0
 70
   688
 72
     0
 73
     0
 74
     5
  7

 75
    16
 76
     0
 77
     5
 78
   300
147
1.0
148
0.0
149
0.0
100
AcDbLayout
  1
Layout1
 70
     1
 71
     1
 10
0.0
 20
0.0
 11
420.0
 21
297.0
 12
0.0
 22
0.0
 32
0.0
 14
1.000000000000000E+20
 24
1.000000000000000E+20
 34
1.000000000000000E+20
 15
-1.000000000000000E+20
 25
-1.000000000000000E+20
 35
-1.000000000000000E+20
146
0.0
 13
0.0
 23
0.0
 33
0.0
 16
1.0
 26
0.0
 36
0.0
 17
0.0
 27
1.0
 37
0.0
 76
     0
330
1B
  0
LAYOUT
  5
26
102
{ACAD_REACTORS
330
1A
102
}
330
1A
100
AcDbPlotSettings
  1

  2
none_device
  4

  6

 40
0.0
 41
0.0
 42
0.0
 43
0.0
 44
0.0
 45
0.0
 46
0.0
 47
0.0
 48
0.0
 49
0.0
140
0.0
141
0.0
142
1.0
143
1.0
 70
   688
 72
     0
 73
     0
 74
     5
  7

 75
    16
 76
     0
 77
     5
 78
   300
147
1.0
148
0.0
149
0.0
100
AcDbLayout
  1
Layout2
 70
     1
 71
     2
 10
0.0
 20
0.0
 11
0.0
 21
0.0
 12
0.0
 22
0.0
 32
0.0
 14
0.0
 24
0.0
 34
0.0
 15
0.0
 25
0.0
 35
0.0
146
0.0
 13
0.0
 23
0.0
 33
0.0
 16
1.0
 26
0.0
 36
0.0
 17
0.0
 27
1.0
 37
0.0
 76
     0
330
23
  0
LAYOUT
  5
22
102
{ACAD_REACTORS
330
1A
102
}
330
1A
100
AcDbPlotSettings
  1

  2
none_device
  4

  6

 40
0.0
 41
0.0
 42
0.0
 43
0.0
 44
0.0
 45
0.0
 46
0.0
 47
0.0
 48
0.0
 49
0.0
140
0.0
141
0.0
142
1.0
143
1.0
 70
  1712
 72
     0
 73
     0
 74
     0
  7

 75
     0
 76
     0
 77
     5
 78
   300
147
1.0
148
0.0
149
0.0
100
AcDbLayout
  1
Model
 70
     1
 71
     0
 10
-4455.0
 20
-3150.0
 11
4455.0
 21
3150.0
 12
0.0
 22
0.0
 32
0.0
 14
-4455.0
 24
-3150.0
 34
0.0
 15
4455.0
 25
3150.0
 35
0.0
146
0.0
 13
0.0
 23
0.0
 33
0.0
 16
1.0
 26
0.0
 36
0.0
 17
0.0
 27
1.0
 37
0.0
 76
     0
330
1F
331
29
  0
MATERIAL
  5
3D
102
{ACAD_REACTORS
330
3B
102
}
330
3B
100
AcDbMaterial
  1
ByBlock
 72
     1
 94
      127
  0
MATERIAL
  5
3C
102
{ACAD_REACTORS
330
3B
102
}
330
3B
100
AcDbMaterial
  1
ByLayer
 72
     1
 94
      127
  0
MATERIAL
  5
3E
102
{ACAD_REACTORS
330
3B
102
}
330
3B
100
AcDbMaterial
  1
Global
 72
     1
 94
      127
  0
MLINESTYLE
  5
18
102
{ACAD_REACTORS
330
17
102
}
330
17
100
AcDbMlineStyle
  2
Standard
 70
     0
  3

 62
   256
 51
90.0
 52
90.0
 71
     2
 49
0.5
 62
   256
  6
BYLAYER
 49
-0.5
 62
   256
  6
BYLAYER
  0
ACDBPLACEHOLDER
  5
F
102
{ACAD_REACTORS
330
E
102
}
330
E
  0
VISUALSTYLE
  5
2F
102
{ACAD_REACTORS
330
2A
102
}
330
2A
100
AcDbVisualStyle
  2
2dWireframe
 70
     4
177
     2
291
     0
 71
     0
176
     1
 72
     2
176
     1
 73
     0
176
     1
 90
        0
176
     1
 40
-0.6
176
     1
 41
-30.0
176
     1
 62
     5
 63
     7
421
 16777215
176
     1
 74
     1
176
     1
 91
        4
176
     1
 64
     7
176
     1
 65
   257
176
     1
 75
     1
176
     1
175
     1
176
     1
 42
1.0
176
     1
 92
        0
176
     1
 66
   257
176
     1
 43
1.0
176
     1
 76
     1
176
     1
 77
     6
176
     1
 78
     2
176
     1
 67
     7
176
     1
 79
     5
176
     1
170
     0
176
     1
171
     0
176
     1
290
     0
176
     1
 93
        1
176
     1
 44
0.0
176
     1
173
     0
176
     1
  0
VISUALSTYLE
  5
31
102
{ACAD_REACTORS
330
2A
102
}
330
2A
100
AcDbVisualStyle
  2
3D Hidden
 70
     6
177
     2
291
     0
 71
     1
176
     1
 72
     2
176
     1
 73
     2
176
     1
 90
        0
176
     1
 40
-0.6
176
     1
 41
-30.0
176
     1
 62
     5
 63
     7
421
 16777215
176
     1
 74
     2
176
     1
 91
        2
176
     1
 64
     7
176
     1
 65
   257
176
     1
 75
     2
176
     1
175
     1
176
     1
 42
40.0
176
     1
 92
        0
176
     1
 66
   257
176
     1
 43
1.0
176
     1
 76
     1
176
     1
 77
     6
176
     1
 78
     2
176
     1
 67
     7
176
     1
 79
     3
176
     1
170
     0
176
     1
171
     0
176
     1
290
     0
176
     1
 93
        1
176
     1
 44
0.0
176
     1
173
     0
176
     1
  0
VISUALSTYLE
  5
30
102
{ACAD_REACTORS
330
2A
102
}
330
2A
100
AcDbVisualStyle
  2
3dWireframe
 70
     5
177
     2
291
     0
 71
     0
176
     1
 72
     2
176
     1
 73
     0
176
     1
 90
        0
176
     1
 40
-0.6
176
     1
 41
-30.0
176
     1
 62
     5
 63
     7
421
 16777215
176
     1
 74
     1
176
     1
 91
        4
176
     1
 64
     7
176
     1
 65
   257
176
     1
 75
     1
176
     1
175
     1
176
     1
 42
1.0
176
     1
 92
        0
176
     1
 66
   257
176
     1
 43
1.0
176
     1
 76
     1
176
     1
 77
     6
176
     1
 78
     2
176
     1
 67
     7
176
     1
 79
     5
176
     1
170
     0
176
     1
171
     0
176
     1
290
     0
176
     1
 93
        1
176
     1
 44
0.0
176
     1
173
     0
176
     1
  0
VISUALSTYLE
  5
32
102
{ACAD_REACTORS
330
2A
102
}
330
2A
100
AcDbVisualStyle
  2
Basic
 70
     7
177
     2
291
     1
 71
     1
176
     1
 72
     0
176
     1
 73
     1
176
     1
 90
        0
176
     1
 40
-0.6
176
     1
 41
-30.0
176
     1
 62
     5
 63
     7
421
 16777215
176
     1
 74
     0
176
     1
 91
        4
176
     1
 64
     7
176
     1
 65
   257
176
     1
 75
     1
176
     1
175
     1
176
     1
 42
1.0
176
     1
 92
        8
176
     1
 66
     7
176
     1
 43
1.0
176
     1
 76
     1
176
     1
 77
     6
176
     1
 78
     2
176
     1
 67
     7
176
     1
 79
     5
176
     1
170
     0
176
     1
171
     0
176
     1
290
     0
176
     1
 93
        1
176
     1
 44
0.0
176
     1
173
     0
176
     1
  0
VISUALSTYLE
  5
36
102
{ACAD_REACTORS
330
2A
102
}
330
2A
100
AcDbVisualStyle
  2
Brighten
 70
    12
177
     2
291
     1
 71
     2
176
     1
 72
     2
176
     1
 73
     0
176
     1
 90
        0
176
     1
 40
-0.6
176
     1
 41
-30.0
176
     1
 62
     5
 63
     7
421
 16777215
176
     1
 74
     1
176
     1
 91
        4
176
     1
 64
     7
176
     1
 65
   257
176
     1
 75
     1
176
     1
175
     1
176
     1
 42
1.0
176
     1
 92
        8
176
     1
 66
     7
176
     1
 43
1.0
176
     1
 76
     1
176
     1
 77
     6
176
     1
 78
     2
176
     1
 67
     7
176
     1
 79
     5
176
     1
170
     0
176
     1
171
     0
176
     1
290
     0
176
     1
 93
        1
176
     1
 44
50.0
176
     1
173
     0
176
     1
  0
VISUALSTYLE
  5
3A
102
{ACAD_REACTORS
330
2A
102
}
330
2A
100
AcDbVisualStyle
  2
ColorChange
 70
    16
177
     2
291
     1
 71
     2
176
     1
 72
     2
176
     1
 73
     3
176
     1
 90
        0
176
     1
 40
-0.6
176
     1
 41
-30.0
176
     1
 62
     5
 63
     8
421
  8421504
176
     1
 74
     1
176
     1
 91
        4
176
     1
 64
     7
176
     1
 65
   257
176
     1
 75
     1
176
     1
175
     1
176
     1
 42
1.0
176
     1
 92
        8
176
     1
 66
     8
424
  8421504
176
     1
 43
1.0
176
     1
 76
     1
176
     1
 77
     6
176
     1
 78
     2
176
     1
 67
     7
176
     1
 79
     5
176
     1
170
     0
176
     1
171
     0
176
     1
290
     0
176
     1
 93
        1
176
     1
 44
0.0
176
     1
173
     0
176
     1
  0
VISUALSTYLE
  5
34
102
{ACAD_REACTORS
330
2A
102
}
330
2A
100
AcDbVisualStyle
  2
Conceptual
 70
     9
177
     2
291
     0
 71
     3
176
     1
 72
     2
176
     1
 73
     0
176
     1
 90
        0
176
     1
 40
-0.6
176
     1
 41
-30.0
176
     1
 62
     5
 63
     7
421
 16777215
176
     1
 74
     2
176
     1
 91
        2
176
     1
 64
     7
176
     1
 65
   257
176
     1
 75
     1
176
     1
175
     1
176
     1
 42
40.0
176
     1
 92
        8
176
     1
 66
     7
176
     1
 43
1.0
176
     1
 76
     1
176
     1
 77
     6
176
     1
 78
     2
176
     1
 67
     7
176
     1
 79
     3
176
     1
170
     0
176
     1
171
     0
176
     1
290
     0
176
     1
 93
        1
176
     1
 44
0.0
176
     1
173
     0
176
     1
  0
VISUALSTYLE
  5
35
102
{ACAD_REACTORS
330
2A
102
}
330
2A
100
AcDbVisualStyle
  2
Dim
 70
    11
177
     2
291
     1
 71
     2
176
     1
 72
     2
176
     1
 73
     0
176
     1
 90
        0
176
     1
 40
-0.6
176
     1
 41
-30.0
176
     1
 62
     5
 63
     7
421
 16777215
176
     1
 74
     1
176
     1
 91
        4
176
     1
 64
     7
176
     1
 65
   257
176
     1
 75
     1
176
     1
175
     1
176
     1
 42
1.0
176
     1
 92
        8
176
     1
 66
     7
176
     1
 43
1.0
176
     1
 76
     1
176
     1
 77
     6
176
     1
 78
     2
176
     1
 67
     7
176
     1
 79
     5
176
     1
170
     0
176
     1
171
     0
176
     1
290
     0
176
     1
 93
        1
176
     1
 44
-50.0
176
     1
173
     0
176
     1
  0
VISUALSTYLE
  5
39
102
{ACAD_REACTORS
330
2A
102
}
330
2A
100
AcDbVisualStyle
  2
Facepattern
 70
    15
177
     2
291
     1
 71
     2
176
     1
 72
     2
176
     1
 73
     0
176
     1
 90
        0
176
     1
 40
-0.6
176
     1
 41
-30.0
176
     1
 62
     5
 63
     7
421
 16777215
176
     1
 74
     1
176
     1
 91
        4
176
     1
 64
     7
176
     1
 65
   257
176
     1
 75
     1
176
     1
175
     1
176
     1
 42
1.0
176
     1
 92
        8
176
     1
 66
     7
176
     1
 43
1.0
176
     1
 76
     1
176
     1
 77
     6
176
     1
 78
     2
176
     1
 67
     7
176
     1
 79
     5
176
     1
170
     0
176
     1
171
     0
176
     1
290
     0
176
     1
 93
        1
176
     1
 44
0.0
176
     1
173
     0
176
     1
  0
VISUALSTYLE
  5
2B
102
{ACAD_REACTORS
330
2A
102
}
330
2A
100
AcDbVisualStyle
  2
Flat
 70
     0
177
     2
291
     1
 71
     2
176
     1
 72
     1
176
     1
 73
     1
176
     1
 90
        2
176
     1
 40
-0.6
176
     1
 41
30.0
176
     1
 62
     5
 63
     7
421
 16777215
176
     1
 74
     0
176
     1
 91
        4
176
     1
 64
     7
176
     1
 65
   257
176
     1
 75
     1
176
     1
175
     1
176
     1
 42
1.0
176
     1
 92
        8
176
     1
 66
     7
176
     1
 43
1.0
176
     1
 76
     1
176
     1
 77
     6
176
     1
 78
     2
176
     1
 67
     7
176
     1
 79
     5
176
     1
170
     0
176
     1
171
     0
176
     1
290
     0
176
     1
 93
       13
176
     1
 44
0.0
176
     1
173
     0
176
     1
  0
VISUALSTYLE
  5
2C
102
{ACAD_REACTORS
330
2A
102
}
330
2A
100
AcDbVisualStyle
  2
FlatWithEdges
 70
     1
177
     2
291
     1
 71
     2
176
     1
 72
     1
176
     1
 73
     1
176
     1
 90
        2
176
     1
 40
-0.6
176
     1
 41
30.0
176
     1
 62
     5
 63
     7
421
 16777215
176
     1
 74
     1
176
     1
 91
        4
176
     1
 64
     7
176
     1
 65
   257
176
     1
 75
     1
176
     1
175
     1
176
     1
 42
1.0
176
     1
 92
        0
176
     1
 66
   257
176
     1
 43
1.0
176
     1
 76
     1
176
     1
 77
     6
176
     1
 78
     2
176
     1
 67
     7
176
     1
 79
     5
176
     1
170
     0
176
     1
171
     0
176
     1
290
     0
176
     1
 93
       13
176
     1
 44
0.0
176
     1
173
     0
176
     1
  0
VISUALSTYLE
  5
2D
102
{ACAD_REACTORS
330
2A
102
}
330
2A
100
AcDbVisualStyle
  2
Gouraud
 70
     2
177
     2
291
     1
 71
     2
176
     1
 72
     2
176
     1
 73
     1
176
     1
 90
        2
176
     1
 40
-0.6
176
     1
 41
30.0
176
     1
 62
     5
 63
     7
421
 16777215
176
     1
 74
     0
176
     1
 91
        4
176
     1
 64
     7
176
     1
 65
   257
176
     1
 75
     1
176
     1
175
     1
176
     1
 42
1.0
176
     1
 92
        0
176
     1
 66
     7
176
     1
 43
1.0
176
     1
 76
     1
176
     1
 77
     6
176
     1
 78
     2
176
     1
 67
     7
176
     1
 79
     5
176
     1
170
     0
176
     1
171
     0
176
     1
290
     0
176
     1
 93
       13
176
     1
 44
0.0
176
     1
173
     0
176
     1
  0
VISUALSTYLE
  5
2E
102
{ACAD_REACTORS
330
2A
102
}
330
2A
100
AcDbVisualStyle
  2
GouraudWithEdges
 70
     3
177
     2
291
     1
 71
     2
176
     1
 72
     2
176
     1
 73
     1
176
     1
 90
        2
176
     1
 40
-0.6
176
     1
 41
30.0
176
     1
 62
     5
 63
     7
421
 16777215
176
     1
 74
     1
176
     1
 91
        4
176
     1
 64
     7
176
     1
 65
   257
176
     1
 75
     1
176
     1
175
     1
176
     1
 42
1.0
176
     1
 92
        0
176
     1
 66
   257
176
     1
 43
1.0
176
     1
 76
     1
176
     1
 77
     6
176
     1
 78
     2
176
     1
 67
     7
176
     1
 79
     5
176
     1
170
     0
176
     1
171
     0
176
     1
290
     0
176
     1
 93
       13
176
     1
 44
0.0
176
     1
173
     0
176
     1
  0
VISUALSTYLE
  5
38
102
{ACAD_REACTORS
330
2A
102
}
330
2A
100
AcDbVisualStyle
  2
Linepattern
 70
    14
177
     2
291
     1
 71
     2
176
     1
 72
     2
176
     1
 73
     0
176
     1
 90
        0
176
     1
 40
-0.6
176
     1
 41
-30.0
176
     1
 62
     5
 63
     7
421
 16777215
176
     1
 74
     1
176
     1
 91
        4
176
     1
 64
     7
176
     1
 65
   257
176
     1
 75
     7
176
     1
175
     7
176
     1
 42
1.0
176
     1
 92
        8
176
     1
 66
     7
176
     1
 43
1.0
176
     1
 76
     1
176
     1
 77
     6
176
     1
 78
     2
176
     1
 67
     7
176
     1
 79
     5
176
     1
170
     0
176
     1
171
     0
176
     1
290
     0
176
     1
 93
        1
176
     1
 44
0.0
176
     1
173
     0
176
     1
  0
VISUALSTYLE
  5
33
102
{ACAD_REACTORS
330
2A
102
}
330
2A
100
AcDbVisualStyle
  2
Realistic
 70
     8
177
     2
291
     0
 71
     2
176
     1
 72
     2
176
     1
 73
     0
176
     1
 90
        0
176
     1
 40
-0.6
176
     1
 41
-30.0
176
     1
 62
     5
 63
     7
421
 16777215
176
     1
 74
     1
176
     1
 91
        0
176
     1
 64
     7
176
     1
 65
   257
176
     1
 75
     1
176
     1
175
     1
176
     1
 42
1.0
176
     1
 92
        8
176
     1
 66
     8
424
  7895160
176
     1
 43
1.0
176
     1
 76
     1
176
     1
 77
     6
176
     1
 78
     2
176
     1
 67
     7
176
     1
 79
     5
176
     1
170
     0
176
     1
171
     0
176
     1
290
     0
176
     1
 93
       13
176
     1
 44
0.0
176
     1
173
     0
176
     1
  0
VISUALSTYLE
  5
37
102
{ACAD_REACTORS
330
2A
102
}
330
2A
100
AcDbVisualStyle
  2
Thicken
 70
    13
177
     2
291
     1
 71
     2
176
     1
 72
     2
176
     1
 73
     0
176
     1
 90
        0
176
     1
 40
-0.6
176
     1
 41
-30.0
176
     1
 62
     5
 63
     7
421
 16777215
176
     1
 74
     1
176
     1
 91
        4
176
     1
 64
     7
176
     1
 65
   257
176
     1
 75
     1
176
     1
175
     1
176
     1
 42
1.0
176
     1
 92
       12
176
     1
 66
     7
176
     1
 43
1.0
176
     1
 76
     1
176
     1
 77
     6
176
     1
 78
     2
176
     1
 67
     7
176
     1
 79
     5
176
     1
170
     0
176
     1
171
     0
176
     1
290
     0
176
     1
 93
        1
176
     1
 44
0.0
176
     1
173
     0
176
     1
  0
ENDSEC
  0
EOF
