  0
SECTION
  2
HEADER
  9
$ACADVER
  1
AC1024
  9
$ACADMAINTVER
 70
     6
  9
$DWGCODEPAGE
  3
ANSI_932
  9
$INSBASE
 10
0.0
 20
0.0
 30
0.0
  9
$EXTMIN
 10
-4200.0
 20
-2970.0
 30
0.0
  9
$EXTMAX
 10
4200.0
 20
2970.0
 30
0.0
  9
$LIMMIN
 10
-4200.0
 20
-2970.0
  9
$LIMMAX
 10
4200.0
 20
2970.0
  9
$ORTHOMODE
 70
     0
  9
$REGENMODE
 70
     1
  9
$FILLMODE
 70
     1
  9
$QTEXTMODE
 70
     0
  9
$MIRRTEXT
 70
     1
  9
$LTSCALE
 40
20.0
  9
$ATTMODE
 70
     1
  9
$TEXTSIZE
 40
2.5
  9
$TRACEWID
 40
1.0
  9
$TEXTSTYLE
  7
Standard
  9
$CLAYER
  8
0
  9
$CELTYPE
  6
ByLayer
  9
$CECOLOR
 62
   256
  9
$CELTSCALE
 40
1.0
  9
$DISPSILH
 70
     0
  9
$DIMSCALE
 40
1.0
  9
$DIMASZ
 40
2.5
  9
$DIMEXO
 40
0.625
  9
$DIMDLI
 40
3.75
  9
$DIMRND
 40
0.0
  9
$DIMDLE
 40
0.0
  9
$DIMEXE
 40
1.25
  9
$DIMTP
 40
0.0
  9
$DIMTM
 40
0.0
  9
$DIMTXT
 40
2.5
  9
$DIMCEN
 40
2.5
  9
$DIMTSZ
 40
0.0
  9
$DIMTOL
 70
     0
  9
$DIMLIM
 70
     0
  9
$DIMTIH
 70
     0
  9
$DIMTOH
 70
     0
  9
$DIMSE1
 70
     0
  9
$DIMSE2
 70
     0
  9
$DIMTAD
 70
     1
  9
$DIMZIN
 70
     8
  9
$DIMBLK
  1

  9
$DIMASO
 70
     1
  9
$DIMSHO
 70
     1
  9
$DIMPOST
  1

  9
$DIMAPOST
  1

  9
$DIMALT
 70
     0
  9
$DIMALTD
 70
     3
  9
$DIMALTF
 40
0.03937007874016
  9
$DIMLFAC
 40
1.0
  9
$DIMTOFL
 70
     1
  9
$DIMTVP
 40
0.0
  9
$DIMTIX
 70
     0
  9
$DIMSOXD
 70
     0
  9
$DIMSAH
 70
     0
  9
$DIMBLK1
  1

  9
$DIMBLK2
  1

  9
$DIMSTYLE
  2
ISO-25
  9
$DIMCLRD
 70
     0
  9
$DIMCLRE
 70
     0
  9
$DIMCLRT
 70
     0
  9
$DIMTFAC
 40
1.0
  9
$DIMGAP
 40
0.625
  9
$DIMJUST
 70
     0
  9
$DIMSD1
 70
     0
  9
$DIMSD2
 70
     0
  9
$DIMTOLJ
 70
     0
  9
$DIMTZIN
 70
     8
  9
$DIMALTZ
 70
     0
  9
$DIMALTTZ
 70
     0
  9
$DIMUPT
 70
     0
  9
$DIMDEC
 70
     2
  9
$DIMTDEC
 70
     2
  9
$DIMALTU
 70
     2
  9
$DIMALTTD
 70
     3
  9
$DIMTXSTY
  7
Standard
  9
$DIMAUNIT
 70
     0
  9
$DIMADEC
 70
     0
  9
$DIMALTRND
 40
0.0
  9
$DIMAZIN
 70
     0
  9
$DIMDSEP
 70
    44
  9
$DIMATFIT
 70
     3
  9
$DIMFRAC
 70
     0
  9
$DIMLDRBLK
  1

  9
$DIMLUNIT
 70
     2
  9
$DIMLWD
 70
    -2
  9
$DIMLWE
 70
    -2
  9
$DIMTMOVE
 70
     0
  9
$DIMFXL
 40
1.0
  9
$DIMFXLON
 70
     0
  9
$DIMJOGANG
 40
0.7853981633974483
  9
$DIMTFILL
 70
     0
  9
$DIMTFILLCLR
 70
     0
  9
$DIMARCSYM
 70
     0
  9
$DIMLTYPE
  6

  9
$DIMLTEX1
  6

  9
$DIMLTEX2
  6

  9
$DIMTXTDIRECTION
 70
     0
  9
$LUNITS
 70
     2
  9
$LUPREC
 70
     4
  9
$SKETCHINC
 40
1.0
  9
$FILLETRAD
 40
10.0
  9
$AUNITS
 70
     0
  9
$AUPREC
 70
     0
  9
$MENU
  1
.
  9
$ELEVATION
 40
0.0
  9
$PELEVATION
 40
0.0
  9
$THICKNESS
 40
0.0
  9
$LIMCHECK
 70
     0
  9
$CHAMFERA
 40
10.0
  9
$CHAMFERB
 40
10.0
  9
$CHAMFERC
 40
20.0
  9
$CHAMFERD
 40
0.0
  9
$SKPOLY
 70
     0
  9
$TDCREATE
 40
2459411.61266456
  9
$TDUCREATE
 40
2459411.23766456
  9
$TDUPDATE
 40
2459411.612664572
  9
$TDUUPDATE
 40
2459411.237664572
  9
$TDINDWG
 40
0.0000000116
  9
$TDUSRTIMER
 40
0.0000000116
  9
$USRTIMER
 70
     1
  9
$ANGBASE
 50
0.0
  9
$ANGDIR
 70
     0
  9
$PDMODE
 70
     0
  9
$PDSIZE
 40
0.0
  9
$PLINEWID
 40
0.0
  9
$SPLFRAME
 70
     0
  9
$SPLINETYPE
 70
     6
  9
$SPLINESEGS
 70
     8
  9
$HANDSEED
  5
48C
  9
$SURFTAB1
 70
     6
  9
$SURFTAB2
 70
     6
  9
$SURFTYPE
 70
     6
  9
$SURFU
 70
     6
  9
$SURFV
 70
     6
  9
$UCSBASE
  2

  9
$UCSNAME
  2

  9
$UCSORG
 10
0.0
 20
0.0
 30
0.0
  9
$UCSXDIR
 10
1.0
 20
0.0
 30
0.0
  9
$UCSYDIR
 10
0.0
 20
1.0
 30
0.0
  9
$UCSORTHOREF
  2

  9
$UCSORTHOVIEW
 70
     0
  9
$UCSORGTOP
 10
0.0
 20
0.0
 30
0.0
  9
$UCSORGBOTTOM
 10
0.0
 20
0.0
 30
0.0
  9
$UCSORGLEFT
 10
0.0
 20
0.0
 30
0.0
  9
$UCSORGRIGHT
 10
0.0
 20
0.0
 30
0.0
  9
$UCSORGFRONT
 10
0.0
 20
0.0
 30
0.0
  9
$UCSORGBACK
 10
0.0
 20
0.0
 30
0.0
  9
$PUCSBASE
  2

  9
$PUCSNAME
  2

  9
$PUCSORG
 10
0.0
 20
0.0
 30
0.0
  9
$PUCSXDIR
 10
1.0
 20
0.0
 30
0.0
  9
$PUCSYDIR
 10
0.0
 20
1.0
 30
0.0
  9
$PUCSORTHOREF
  2

  9
$PUCSORTHOVIEW
 70
     0
  9
$PUCSORGTOP
 10
0.0
 20
0.0
 30
0.0
  9
$PUCSORGBOTTOM
 10
0.0
 20
0.0
 30
0.0
  9
$PUCSORGLEFT
 10
0.0
 20
0.0
 30
0.0
  9
$PUCSORGRIGHT
 10
0.0
 20
0.0
 30
0.0
  9
$PUCSORGFRONT
 10
0.0
 20
0.0
 30
0.0
  9
$PUCSORGBACK
 10
0.0
 20
0.0
 30
0.0
  9
$USERI1
 70
     0
  9
$USERI2
 70
     0
  9
$USERI3
 70
     0
  9
$USERI4
 70
     0
  9
$USERI5
 70
     0
  9
$USERR1
 40
0.0
  9
$USERR2
 40
0.0
  9
$USERR3
 40
0.0
  9
$USERR4
 40
0.0
  9
$USERR5
 40
0.0
  9
$WORLDVIEW
 70
     1
  9
$SHADEDGE
 70
     3
  9
$SHADEDIF
 70
    70
  9
$TILEMODE
 70
     1
  9
$MAXACTVP
 70
    64
  9
$PINSBASE
 10
0.0
 20
0.0
 30
0.0
  9
$PLIMCHECK
 70
     0
  9
$PEXTMIN
 10
1.000000000000000E+20
 20
1.000000000000000E+20
 30
1.000000000000000E+20
  9
$PEXTMAX
 10
-1.000000000000000E+20
 20
-1.000000000000000E+20
 30
-1.000000000000000E+20
  9
$PLIMMIN
 10
0.0
 20
0.0
  9
$PLIMMAX
 10
420.0
 20
297.0
  9
$UNITMODE
 70
     0
  9
$VISRETAIN
 70
     1
  9
$PLINEGEN
 70
     0
  9
$PSLTSCALE
 70
     1
  9
$TREEDEPTH
 70
  3020
  9
$CMLSTYLE
  2
Standard
  9
$CMLJUST
 70
     0
  9
$CMLSCALE
 40
20.0
  9
$PROXYGRAPHICS
 70
     1
  9
$MEASUREMENT
 70
     1
  9
$CELWEIGHT
370
    -1
  9
$ENDCAPS
280
     0
  9
$JOINSTYLE
280
     0
  9
$LWDISPLAY
290
     0
  9
$INSUNITS
 70
     4
  9
$HYPERLINKBASE
  1

  9
$STYLESHEET
  1

  9
$XEDIT
290
     1
  9
$CEPSNTYPE
380
     0
  9
$PSTYLEMODE
290
     1
  9
$FINGERPRINTGUID
  2
{39A5D398-4B94-4905-8999-512527B518DD}
  9
$VERSIONGUID
  2
{FAEB1C32-E019-11D5-929B-00C0DF256EC4}
  9
$EXTNAMES
290
     1
  9
$PSVPSCALE
 40
0.0
  9
$OLESTARTUP
290
     0
  9
$SORTENTS
280
   127
  9
$INDEXCTL
280
     0
  9
$HIDETEXT
280
     1
  9
$XCLIPFRAME
280
     2
  9
$HALOGAP
280
     0
  9
$OBSCOLOR
 70
   257
  9
$OBSLTYPE
280
     0
  9
$INTERSECTIONDISPLAY
280
     0
  9
$INTERSECTIONCOLOR
 70
   257
  9
$DIMASSOC
280
     2
  9
$PROJECTNAME
  1

  9
$CAMERADISPLAY
290
     0
  9
$LENSLENGTH
 40
50.0
  9
$CAMERAHEIGHT
 40
0.0
  9
$STEPSPERSEC
 40
2.0
  9
$STEPSIZE
 40
6.0
  9
$3DDWFPREC
 40
2.0
  9
$PSOLWIDTH
 40
5.0
  9
$PSOLHEIGHT
 40
80.0
  9
$LOFTANG1
 40
1.570796326794897
  9
$LOFTANG2
 40
1.570796326794897
  9
$LOFTMAG1
 40
0.0
  9
$LOFTMAG2
 40
0.0
  9
$LOFTPARAM
 70
     7
  9
$LOFTNORMALS
280
     1
  9
$LATITUDE
 40
37.795
  9
$LONGITUDE
 40
-122.394
  9
$NORTHDIRECTION
 40
0.0
  9
$TIMEZONE
 70
 -8000
  9
$LIGHTGLYPHDISPLAY
280
     1
  9
$TILEMODELIGHTSYNCH
280
     1
  9
$SOLIDHIST
280
     1
  9
$SHOWHIST
280
     1
  9
$DWFFRAME
280
     2
  9
$DGNFRAME
280
     2
  9
$REALWORLDSCALE
290
     1
  9
$INTERFERECOLOR
 62
   256
  9
$CSHADOW
280
     0
  9
$SHADOWPLANELOCATION
 40
0.0
  0
ENDSEC
  0
SECTION
  2
CLASSES
  0
CLASS
  1
ACDBDICTIONARYWDFLT
  2
AcDbDictionaryWithDefault
  3
ObjectDBX Classes
 90
        0
 91
        4
280
     0
281
     0
  0
CLASS
  1
VISUALSTYLE
  2
AcDbVisualStyle
  3
ObjectDBX Classes
 90
     4095
 91
        4
280
     0
281
     0
  0
CLASS
  1
MATERIAL
  2
AcDbMaterial
  3
ObjectDBX Classes
 90
     1153
 91
        4
280
     0
281
     0
  0
ENDSEC
  0
SECTION
  2
TABLES
  0
TABLE
  2
VPORT
  5
8
330
0
100
AcDbSymbolTable
 70
     1
  0
VPORT
  5
29
330
8
100
AcDbSymbolTableRecord
100
AcDbViewportTableRecord
  2
*Active
 70
     0
 10
0.0
 20
0.0
 11
1.0
 21
1.0
 12
0.0
 22
0.0
 13
0.0
 23
0.0
 14
10.0
 24
10.0
 15
10.0
 25
10.0
 16
0.0
 26
0.0
 36
1.0
 17
0.0
 27
0.0
 37
0.0
 40
6534.000000000001
 41
1.414141414141414
 42
50.0
 43
0.0
 44
0.0
 50
0.0
 51
0.0
 71
     0
 72
 10000
 73
     1
 74
     3
 75
     0
 76
     0
 77
     0
 78
     0
281
     0
 65
     1
110
0.0
120
0.0
130
0.0
111
1.0
121
0.0
131
0.0
112
0.0
122
1.0
132
0.0
 79
     0
146
0.0
 60
     3
 61
     5
292
     1
282
     1
141
0.0
142
0.0
 63
   250
  0
ENDTAB
  0
TABLE
  2
LTYPE
  5
5
330
0
100
AcDbSymbolTable
 70
     5
  0
LTYPE
  5
14
330
5
100
AcDbSymbolTableRecord
100
AcDbLinetypeTableRecord
  2
ByBlock
 70
     0
  3

 72
    65
 73
     0
 40
0.0
  0
LTYPE
  5
15
330
5
100
AcDbSymbolTableRecord
100
AcDbLinetypeTableRecord
  2
ByLayer
 70
     0
  3

 72
    65
 73
     0
 40
0.0
  0
LTYPE
  5
16
330
5
100
AcDbSymbolTableRecord
100
AcDbLinetypeTableRecord
  2
Continuous
 70
     0
  3
Solid line
 72
    65
 73
     0
 40
0.0
  0
LTYPE
  5
3F
330
5
100
AcDbSymbolTableRecord
100
AcDbLinetypeTableRecord
  2
JWW_HOJO
 70
     0
  3
  -   -   -   -   -   -   -   - 
 72
    65
 73
     2
 40
1.693333333333333
 49
-1.27
 74
     0
 49
0.4233333333333333
 74
     0
  0
LTYPE
  5
40
330
5
100
AcDbSymbolTableRecord
100
AcDbLinetypeTableRecord
  2
JWW_CENTER1
 70
     0
  3
-----  --  ----------  --  -----
 72
    65
 73
     4
 40
3.386666666666667
 49
2.116666666666667
 74
     0
 49
-0.4233333333333333
 74
     0
 49
0.4233333333333333
 74
     0
 49
-0.4233333333333333
 74
     0
  0
LTYPE
  5
41
330
5
100
AcDbSymbolTableRecord
100
AcDbLinetypeTableRecord
  2
JWW_DASHED2
 70
     0
  3
--    ----    ----    ----    --
 72
    65
 73
     2
 40
1.693333333333333
 49
0.8466666666666667
 74
     0
 49
-0.8466666666666667
 74
     0
  0
LTYPE
  5
42
330
5
100
AcDbSymbolTableRecord
100
AcDbLinetypeTableRecord
  2
JWW_DASHED1
 70
     0
  3
-  --  --  --  --  --  --  --  -
 72
    65
 73
     2
 40
0.3386666666666667
 49
0.1693333333333333
 74
     0
 49
-0.1693333333333333
 74
     0
  0
ENDTAB
  0
TABLE
  2
LAYER
  5
2
330
0
100
AcDbSymbolTable
 70
    15
  0
LAYER
  5
10
330
2
100
AcDbSymbolTableRecord
100
AcDbLayerTableRecord
  2
0
 70
     0
 62
     7
  6
Continuous
370
    -3
390
F
347
3E
  0
LAYER
  5
43
330
2
100
AcDbSymbolTableRecord
100
AcDbLayerTableRecord
  2
F-A_文字
 70
     0
 62
     7
  6
Continuous
370
    -3
390
F
347
3E
  0
LAYER
  5
44
330
2
100
AcDbSymbolTableRecord
100
AcDbLayerTableRecord
  2
F-0_補助線
 70
     0
 62
     7
  6
Continuous
370
    -3
390
F
347
3E
  0
LAYER
  5
45
330
2
100
AcDbSymbolTableRecord
100
AcDbLayerTableRecord
  2
F-1_枠
 70
     0
 62
     7
  6
Continuous
370
    -3
390
F
347
3E
  0
LAYER
  5
46
330
2
100
AcDbSymbolTableRecord
100
AcDbLayerTableRecord
  2
0-9__
 70
     0
 62
     7
  6
Continuous
370
    -3
390
F
347
3E
  0
LAYER
  5
47
330
2
100
AcDbSymbolTableRecord
100
AcDbLayerTableRecord
  2
0-0_補助線
 70
     0
 62
     7
  6
Continuous
370
    -3
390
F
347
3E
  0
LAYER
  5
48
330
2
100
AcDbSymbolTableRecord
100
AcDbLayerTableRecord
  2
0-A_文字
 70
     0
 62
     7
  6
Continuous
370
    -3
390
F
347
3E
  0
LAYER
  5
49
330
2
100
AcDbSymbolTableRecord
100
AcDbLayerTableRecord
  2
0-B_寸法
 70
     0
 62
     7
  6
Continuous
370
    -3
390
F
347
3E
  0
LAYER
  5
4A
330
2
100
AcDbSymbolTableRecord
100
AcDbLayerTableRecord
  2
0-1_本体
 70
     0
 62
     7
  6
Continuous
370
    -3
390
F
347
3E
  0
LAYER
  5
4B
330
2
100
AcDbSymbolTableRecord
100
AcDbLayerTableRecord
  2
0-5_ダボ
 70
     0
 62
     7
  6
Continuous
370
    -3
390
F
347
3E
  0
LAYER
  5
4C
330
2
100
AcDbSymbolTableRecord
100
AcDbLayerTableRecord
  2
0-4_棚
 70
     0
 62
     7
  6
Continuous
370
    -3
390
F
347
3E
  0
LAYER
  5
4D
330
2
100
AcDbSymbolTableRecord
100
AcDbLayerTableRecord
  2
0-6_桟木
 70
     0
 62
     7
  6
Continuous
370
    -3
390
F
347
3E
  0
LAYER
  5
4E
330
2
100
AcDbSymbolTableRecord
100
AcDbLayerTableRecord
  2
0-2_扉
 70
     0
 62
     7
  6
Continuous
370
    -3
390
F
347
3E
  0
LAYER
  5
4F
330
2
100
AcDbSymbolTableRecord
100
AcDbLayerTableRecord
  2
0-3_扉仕上
 70
     0
 62
     7
  6
Continuous
370
    -3
390
F
347
3E
  0
LAYER
  5
50
330
2
100
AcDbSymbolTableRecord
100
AcDbLayerTableRecord
  2
0-7__
 70
     0
 62
     7
  6
Continuous
370
    -3
390
F
347
3E
  0
ENDTAB
  0
TABLE
  2
STYLE
  5
3
330
0
100
AcDbSymbolTable
 70
     1
  0
STYLE
  5
11
330
3
100
AcDbSymbolTableRecord
100
AcDbTextStyleTableRecord
  2
Standard
 70
     0
 40
0.0
 41
1.0
 50
0.0
 71
     0
 42
2.5
  3
txt
  4

  0
ENDTAB
  0
TABLE
  2
VIEW
  5
6
330
0
100
AcDbSymbolTable
 70
     0
  0
ENDTAB
  0
TABLE
  2
UCS
  5
7
330
0
100
AcDbSymbolTable
 70
     0
  0
ENDTAB
  0
TABLE
  2
APPID
  5
9
330
0
100
AcDbSymbolTable
 70
     1
  0
APPID
  5
12
330
9
100
AcDbSymbolTableRecord
100
AcDbRegAppTableRecord
  2
ACAD
 70
     0
  0
ENDTAB
  0
TABLE
  2
DIMSTYLE
  5
A
330
0
100
AcDbSymbolTable
 70
     1
100
AcDbDimStyleTable
  0
DIMSTYLE
105
27
330
A
100
AcDbSymbolTableRecord
100
AcDbDimStyleTableRecord
  2
ISO-25
 70
     0
 41
2.5
 42
0.625
 43
3.75
 44
1.25
 73
     0
 74
     0
 77
     1
 78
     8
140
2.5
141
2.5
143
0.03937007874016
147
0.625
171
     3
172
     1
178
     0
271
     2
272
     2
274
     3
278
    44
283
     0
284
     8
340
11
  0
ENDTAB
  0
TABLE
  2
BLOCK_RECORD
  5
1
330
0
100
AcDbSymbolTable
 70
     1
  0
BLOCK_RECORD
  5
1F
330
1
100
AcDbSymbolTableRecord
100
AcDbBlockTableRecord
  2
*Model_Space
340
22
 70
     0
280
     1
281
     0
  0
BLOCK_RECORD
  5
1B
330
1
100
AcDbSymbolTableRecord
100
AcDbBlockTableRecord
  2
*Paper_Space
340
1E
 70
     0
280
     1
281
     0
  0
BLOCK_RECORD
  5
23
330
1
100
AcDbSymbolTableRecord
100
AcDbBlockTableRecord
  2
*Paper_Space0
340
26
 70
     0
280
     1
281
     0
  0
ENDTAB
  0
ENDSEC
  0
SECTION
  2
BLOCKS
  0
BLOCK
  5
20
330
1F
100
AcDbEntity
  8
0
100
AcDbBlockBegin
  2
*Model_Space
 70
     0
 10
0.0
 20
0.0
 30
0.0
  3
*Model_Space
  1

  0
ENDBLK
  5
21
330
1F
100
AcDbEntity
  8
0
100
AcDbBlockEnd
  0
BLOCK
  5
1C
330
1B
100
AcDbEntity
 67
     1
  8
0
100
AcDbBlockBegin
  2
*Paper_Space
 70
     0
 10
0.0
 20
0.0
 30
0.0
  3
*Paper_Space
  1

  0
ENDBLK
  5
1D
330
1B
100
AcDbEntity
 67
     1
  8
0
100
AcDbBlockEnd
  0
BLOCK
  5
24
330
23
100
AcDbEntity
  8
0
100
AcDbBlockBegin
  2
*Paper_Space0
 70
     0
 10
0.0
 20
0.0
 30
0.0
  3
*Paper_Space0
  1

  0
ENDBLK
  5
25
330
23
100
AcDbEntity
  8
0
100
AcDbBlockEnd
  0
ENDSEC
  0
SECTION
  2
ENTITIES
  0
MTEXT
  5
51
330
1F
100
AcDbEntity
  8
F-A_文字
  6
Continuous
 62
     7
370
     0
100
AcDbMText
 10
66.61236189554415
 20
-2591.426547247957
 30
0.0
 40
30.48
 41
120.0
 46
0.0
 71
     7
 72
     1
  1
{\fＭＳ ゴシック|b0|i0|c128|p49;図面名}
 73
     1
 44
1.0
  0
LINE
  5
52
330
1F
100
AcDbEntity
  8
F-0_補助線
  6
JWW_HOJO
 62
   120
370
     5
100
AcDbLine
 10
-4093.387555624515
 20
-2970.0
 30
0.0
 11
-4093.387555624515
 21
2949.99973606419
 31
0.0
  0
LINE
  5
53
330
1F
100
AcDbEntity
  8
F-0_補助線
  6
JWW_HOJO
 62
   120
370
     5
100
AcDbLine
 10
-4093.387555624515
 20
2949.99973606419
 30
0.0
 11
4106.611784535958
 21
2949.99973606419
 31
0.0
  0
LINE
  5
54
330
1F
100
AcDbEntity
  8
F-0_補助線
  6
JWW_HOJO
 62
   120
370
     5
100
AcDbLine
 10
4106.611784535958
 20
2949.99973606419
 30
0.0
 11
4106.611784535958
 21
-2970.0
 31
0.0
  0
LINE
  5
55
330
1F
100
AcDbEntity
  8
F-0_補助線
  6
JWW_HOJO
 62
   120
370
     5
100
AcDbLine
 10
4106.611784535958
 20
-2970.0
 30
0.0
 11
-4093.387555624515
 21
-2970.0
 31
0.0
  0
LINE
  5
56
330
1F
100
AcDbEntity
  8
F-0_補助線
  6
JWW_HOJO
 62
     7
370
     9
100
AcDbLine
 10
673.2788361090155
 20
-2530.000002061998
 30
0.0
 11
673.2788361090155
 21
-2796.666672165329
 31
0.0
  0
LINE
  5
57
330
1F
100
AcDbEntity
  8
F-0_補助線
  6
JWW_HOJO
 62
     7
370
     9
100
AcDbLine
 10
339.945722722191
 20
-2530.000002061998
 30
0.0
 11
339.945722722191
 21
-2796.666672165329
 31
0.0
  0
LINE
  5
58
330
1F
100
AcDbEntity
  8
F-1_枠
  6
Continuous
 62
   200
370
    20
100
AcDbLine
 10
3906.611619576076
 20
2783.333179370777
 30
0.0
 11
3906.611619576076
 21
-2803.333443306588
 31
0.0
  0
LINE
  5
59
330
1F
100
AcDbEntity
  8
F-1_枠
  6
Continuous
 62
   200
370
    20
100
AcDbLine
 10
-3893.387545314522
 20
2783.333179370777
 30
0.0
 11
-3893.387545314522
 21
-2803.333443306588
 31
0.0
  0
LINE
  5
5A
330
1F
100
AcDbEntity
  8
F-1_枠
  6
Continuous
 62
   200
370
    20
100
AcDbLine
 10
3906.611619576076
 20
-2803.333335051665
 30
0.0
 11
-3893.387390664634
 21
-2803.333335051665
 31
0.0
  0
LINE
  5
5B
330
1F
100
AcDbEntity
  8
F-1_枠
  6
Continuous
 62
   200
370
    20
100
AcDbLine
 10
-3886.720882428186
 20
2783.333179370777
 30
0.0
 11
-3886.720882428186
 21
-2803.333443306588
 31
0.0
  0
LINE
  5
5C
330
1F
100
AcDbEntity
  8
F-1_枠
  6
Continuous
 62
   200
370
    20
100
AcDbLine
 10
-3890.054206138861
 20
2783.333179370777
 30
0.0
 11
-3890.054206138861
 21
-2803.333443306588
 31
0.0
  0
LINE
  5
5D
330
1F
100
AcDbEntity
  8
F-1_枠
  6
Continuous
 62
   200
370
    20
100
AcDbLine
 10
3903.278110285536
 20
2783.333179370777
 30
0.0
 11
3903.278110285536
 21
-2803.333443306588
 31
0.0
  0
LINE
  5
5E
330
1F
100
AcDbEntity
  8
F-1_枠
  6
Continuous
 62
   200
370
    20
100
AcDbLine
 10
3899.945095874641
 20
2783.333179370777
 30
0.0
 11
3899.945095874641
 21
-2803.333443306588
 31
0.0
  0
LINE
  5
5F
330
1F
100
AcDbEntity
  8
F-1_枠
  6
Continuous
 62
   200
370
    20
100
AcDbLine
 10
3906.611619576076
 20
-2799.999995876003
 30
0.0
 11
-3893.387390664634
 21
-2799.999995876003
 31
0.0
  0
LINE
  5
60
330
1F
100
AcDbEntity
  8
F-1_枠
  6
Continuous
 62
   200
370
    20
100
AcDbLine
 10
3906.611619576076
 20
-2796.666672165329
 30
0.0
 11
-3893.387390664634
 21
-2796.666672165329
 31
0.0
  0
LINE
  5
61
330
1F
100
AcDbEntity
  8
F-1_枠
  6
Continuous
 62
   200
370
    20
100
AcDbLine
 10
2899.945260834522
 20
-2530.000002061998
 30
0.0
 11
2899.945260834522
 21
-2796.666672165329
 31
0.0
  0
LINE
  5
62
330
1F
100
AcDbEntity
  8
F-1_枠
  6
Continuous
 62
   200
370
    20
100
AcDbLine
 10
1899.944930914759
 20
-2530.000002061998
 30
0.0
 11
1899.944930914759
 21
-2796.666672165329
 31
0.0
  0
LINE
  5
63
330
1F
100
AcDbEntity
  8
F-1_枠
  6
Continuous
 62
   200
370
    20
100
AcDbLine
 10
6.612361895544154
 20
-2530.000002061998
 30
0.0
 11
6.612361895544154
 21
-2796.666672165329
 31
0.0
  0
LINE
  5
64
330
1F
100
AcDbEntity
  8
F-1_枠
  6
Continuous
 62
   200
370
    20
100
AcDbLine
 10
6.612361895544154
 20
-2663.333290718697
 30
0.0
 11
3899.945095874641
 21
-2663.336909526103
 31
0.0
  0
LINE
  5
65
330
1F
100
AcDbEntity
  8
F-1_枠
  6
Continuous
 62
   200
370
    20
100
AcDbLine
 10
-3893.387390664634
 20
2783.333179370777
 30
0.0
 11
3906.611619576076
 21
2783.333179370777
 31
0.0
  0
LINE
  5
66
330
1F
100
AcDbEntity
  8
F-1_枠
  6
Continuous
 62
   200
370
    20
100
AcDbLine
 10
-3893.387390664634
 20
2776.666655669342
 30
0.0
 11
3906.611619576076
 21
2776.666655669342
 31
0.0
  0
LINE
  5
67
330
1F
100
AcDbEntity
  8
F-1_枠
  6
Continuous
 62
   200
370
    20
100
AcDbLine
 10
-3893.387390664634
 20
2779.999670080237
 30
0.0
 11
3906.611619576076
 21
2779.999670080237
 31
0.0
  0
LINE
  5
68
330
1F
100
AcDbEntity
  8
F-0_補助線
  6
JWW_HOJO
 62
     7
370
     9
100
AcDbLine
 10
-3886.720882428186
 20
-2663.333290718927
 30
0.0
 11
6.612361895544154
 21
-2663.333290718927
 31
0.0
  0
LINE
  5
69
330
1F
100
AcDbEntity
  8
F-0_補助線
  6
JWW_HOJO
 62
     7
370
     9
100
AcDbLine
 10
-3886.720882428186
 20
-2603.333290718927
 30
0.0
 11
6.612361895544154
 21
-2603.333290718927
 31
0.0
  0
LINE
  5
6A
330
1F
100
AcDbEntity
  8
F-0_補助線
  6
JWW_HOJO
 62
     7
370
     9
100
AcDbLine
 10
-3886.720882428186
 20
-2723.333290718927
 30
0.0
 11
6.612361895544154
 21
-2723.333290718927
 31
0.0
  0
LINE
  5
6B
330
1F
100
AcDbEntity
  8
F-0_補助線
  6
JWW_HOJO
 62
     7
370
     9
100
AcDbLine
 10
6.612272045125565
 20
-2759.999826518655
 30
0.0
 11
3899.945006024222
 21
-2760.003445326061
 31
0.0
  0
LINE
  5
6C
330
1F
100
AcDbEntity
  8
F-0_補助線
  6
JWW_HOJO
 62
     7
370
     9
100
AcDbLine
 10
6.612327814426635
 20
-2699.999826518681
 30
0.0
 11
3899.945061793523
 21
-2700.003445326087
 31
0.0
  0
LINE
  5
6D
330
1F
100
AcDbEntity
  8
F-0_補助線
  6
JWW_HOJO
 62
     7
370
     9
100
AcDbLine
 10
6.612395976906669
 20
-2626.666491478713
 30
0.0
 11
3899.945129956002
 21
-2626.670110286119
 31
0.0
  0
LINE
  5
6E
330
1F
100
AcDbEntity
  8
F-0_補助線
  6
JWW_HOJO
 62
     7
370
     9
100
AcDbLine
 10
6.612451746207739
 20
-2566.66649147874
 30
0.0
 11
3899.945185725303
 21
-2566.670110286145
 31
0.0
  0
LINE
  5
6F
330
1F
100
AcDbEntity
  8
F-0_補助線
  6
JWW_HOJO
 62
     7
370
     9
100
AcDbLine
 10
1959.944930914759
 20
-2530.000002061998
 30
0.0
 11
1959.944930914759
 21
-2796.666672165329
 31
0.0
  0
LINE
  5
70
330
1F
100
AcDbEntity
  8
F-0_補助線
  6
JWW_HOJO
 62
     7
370
     9
100
AcDbLine
 10
66.61236189554415
 20
-2530.000002061998
 30
0.0
 11
66.61236189554415
 21
-2796.666672165329
 31
0.0
  0
LINE
  5
71
330
1F
100
AcDbEntity
  8
F-0_補助線
  6
JWW_HOJO
 62
     7
370
     9
100
AcDbLine
 10
2959.945260834522
 20
-2530.000002061998
 30
0.0
 11
2959.945260834522
 21
-2796.666672165329
 31
0.0
  0
MTEXT
  5
72
330
1F
100
AcDbEntity
  8
F-A_文字
  6
Continuous
 62
     7
370
     0
100
AcDbMText
 10
1959.944930914759
 20
-2591.428307078516
 30
0.0
 40
30.48
 41
200.0
 46
0.0
 71
     7
 72
     1
  1
{\fＭＳ ゴシック|b0|i0|c128|p49;ＳＣＡＬＥ}
 73
     1
 44
1.0
  0
MTEXT
  5
73
330
1F
100
AcDbEntity
  8
F-A_文字
  6
Continuous
 62
     7
370
     0
100
AcDbMText
 10
2959.945260834522
 20
-2591.429236567169
 30
0.0
 40
30.48
 41
160.0
 46
0.0
 71
     7
 72
     1
  1
{\fＭＳ ゴシック|b0|i0|c128|p49;ＤＡＴＥ}
 73
     1
 44
1.0
  0
MTEXT
  5
74
330
1F
100
AcDbEntity
  8
F-A_文字
  6
Continuous
 62
     7
370
     0
100
AcDbMText
 10
893.5575789779642
 20
-2630.949274399892
 30
0.0
 40
51.435
 41
270.0
 46
0.0
 71
     7
 72
     1
  1
{\fＭＳ ゴシック|b0|i0|c128|p49;玄関収納}
 73
     1
 44
1.0
  0
MTEXT
  5
75
330
1F
100
AcDbEntity
  8
F-A_文字
  6
Continuous
 62
     7
370
     0
100
AcDbMText
 10
2362.44509587464
 20
-2630.951243938205
 30
0.0
 40
51.435
 41
135.0
 46
0.0
 71
     7
 72
     1
  1
{\fＭＳ ゴシック|b0|i0|c128|p49;1/20}
 73
     1
 44
1.0
  0
MTEXT
  5
76
330
1F
100
AcDbEntity
  8
F-A_文字
  6
Continuous
 62
     7
370
     0
100
AcDbMText
 10
1959.944930914759
 20
-2724.761642118573
 30
0.0
 40
30.48
 41
160.0
 46
0.0
 71
     7
 72
     1
  1
{\fＭＳ ゴシック|b0|i0|c128|p49;ＦＩＬＥ}
 73
     1
 44
1.0
  0
LINE
  5
77
330
1F
100
AcDbEntity
  8
F-1_枠
  6
Continuous
 62
   200
370
    20
100
AcDbLine
 10
3906.611619576076
 20
-2530.000002061998
 30
0.0
 11
-3893.387390664634
 21
-2530.000002061998
 31
0.0
  0
LINE
  5
78
330
1F
100
AcDbEntity
  8
F-1_枠
  6
Continuous
 62
   200
370
    20
100
AcDbLine
 10
3906.611619576076
 20
-2526.666678351325
 30
0.0
 11
-3893.387390664634
 21
-2526.666678351325
 31
0.0
  0
LINE
  5
79
330
1F
100
AcDbEntity
  8
F-0_補助線
  6
JWW_HOJO
 62
     7
370
     9
100
AcDbLine
 10
-3391.752473459741
 20
-2530.000002061999
 30
0.0
 11
-3391.752473459741
 21
-2803.333443306588
 31
0.0
  0
LINE
  5
7A
330
1F
100
AcDbEntity
  8
F-0_補助線
  6
JWW_HOJO
 62
     7
370
     9
100
AcDbLine
 10
-33.38763810445585
 20
-2530.000002061998
 30
0.0
 11
-33.38763810445585
 21
-2796.666672165329
 31
0.0
  0
MTEXT
  5
7B
330
1F
100
AcDbEntity
  8
F-A_文字
  6
Continuous
 62
     7
370
     0
100
AcDbMText
 10
2959.945260834522
 20
-2724.762571607227
 30
0.0
 40
30.48
 41
120.0
 46
0.0
 71
     7
 72
     1
  1
{\fＭＳ ゴシック|b0|i0|c128|p49;ＮＯ．}
 73
     1
 44
1.0
  0
MTEXT
  5
7C
330
1F
100
AcDbEntity
  8
F-A_文字
  6
Continuous
 62
     7
370
     0
100
AcDbMText
 10
929.9449309147587
 20
-2730.760446177432
 30
0.0
 40
30.48
 41
80.0
 46
0.0
 71
     7
 72
     1
  1
{\fＭＳ ゴシック|b0|i0|c128|p49;株式}
 73
     1
 44
1.0
  0
MTEXT
  5
7D
330
1F
100
AcDbEntity
  8
F-A_文字
  6
Continuous
 62
     7
370
     9
100
AcDbMText
 10
3397.445133429372
 20
-2765.238008466657
 30
0.0
 40
49.53
 41
65.0
 46
0.0
 71
     7
 72
     1
  1
{\fＭＳ ゴシック|b0|i0|c128|p49;01}
 73
     1
 44
1.0
  0
MTEXT
  5
7E
330
1F
100
AcDbEntity
  8
F-A_文字
  6
Continuous
 62
     7
370
     0
100
AcDbMText
 10
1069.944930914759
 20
-2776.187836349286
 30
0.0
 40
67.62750000000003
 41
710.0000000000002
 46
0.0
 71
     7
 72
     1
  1
{\fＭＳ ゴシック|b0|i0|c128|p49;ウッドワン・・・}
 73
     1
 44
1.0
  0
MTEXT
  5
7F
330
1F
100
AcDbEntity
  8
F-A_文字
  6
Continuous
 62
     7
370
     0
100
AcDbMText
 10
929.9449309147587
 20
-2778.760446177458
 30
0.0
 40
30.48
 41
80.0
 46
0.0
 71
     7
 72
     1
  1
{\fＭＳ ゴシック|b0|i0|c128|p49;会社}
 73
     1
 44
1.0
  0
MTEXT
  5
80
330
1F
100
AcDbEntity
  8
F-A_文字
  6
Continuous
 62
     7
370
     0
100
AcDbMText
 10
3845.547985115293
 20
-2876.560946013945
 30
0.0
 40
45.72
 41
60.0
 46
0.0
 71
     7
 72
     1
  1
{\fＭＳ ゴシック|b0|i0|c128|p49;）}
 73
     1
 44
1.0
  0
MTEXT
  5
81
330
1F
100
AcDbEntity
  8
F-A_文字
  6
Continuous
 62
     7
370
     0
100
AcDbMText
 10
3566.743078270199
 20
-2877.490295913237
 30
0.0
 40
45.72
 41
30.0
 46
0.0
 71
     7
 72
     1
  1
{\fＭＳ ゴシック|b0|i0|c128|p49;,}
 73
     1
 44
1.0
  0
MTEXT
  5
82
330
1F
100
AcDbEntity
  8
F-A_文字
  6
Continuous
 62
     7
370
     0
100
AcDbMText
 10
3389.2372856524
 20
-2876.514644858855
 30
0.0
 40
49.53
 41
65.0
 46
0.0
 71
     7
 72
     1
  1
{\fＭＳ ゴシック|b0|i0|c128|p49;$y}
 73
     1
 44
1.0
  0
MTEXT
  5
83
330
1F
100
AcDbEntity
  8
F-A_文字
  6
Continuous
 62
     7
370
     0
100
AcDbMText
 10
3492.395099678281
 20
-2876.514644858855
 30
0.0
 40
49.53
 41
65.0
 46
0.0
 71
     7
 72
     1
  1
{\fＭＳ ゴシック|b0|i0|c128|p49;$m}
 73
     1
 44
1.0
  0
MTEXT
  5
84
330
1F
100
AcDbEntity
  8
F-A_文字
  6
Continuous
 62
     7
370
     0
100
AcDbMText
 10
3595.552921333554
 20
-2876.514644858855
 30
0.0
 40
49.53
 41
65.0
 46
0.0
 71
     7
 72
     1
  1
{\fＭＳ ゴシック|b0|i0|c128|p49;$d}
 73
     1
 44
1.0
  0
MTEXT
  5
85
330
1F
100
AcDbEntity
  8
F-A_文字
  6
Continuous
 62
     7
370
     0
100
AcDbMText
 10
3698.710742988826
 20
-2876.514644858855
 30
0.0
 40
49.53
 41
130.0
 46
0.0
 71
     7
 72
     1
  1
{\fＭＳ ゴシック|b0|i0|c128|p49;印刷}
 73
     1
 44
1.0
  0
MTEXT
  5
86
330
1F
100
AcDbEntity
  8
F-A_文字
  6
Continuous
 62
     7
370
     0
100
AcDbMText
 10
3295.968027210818
 20
-2879.348995711821
 30
0.0
 40
45.72
 41
60.0
 46
0.0
 71
     7
 72
     1
  1
{\fＭＳ ゴシック|b0|i0|c128|p49;（}
 73
     1
 44
1.0
  0
MTEXT
  5
87
330
1F
100
AcDbEntity
  8
F-A_文字
  6
Continuous
 62
     7
370
     0
100
AcDbMText
 10
3460.797206917048
 20
-2879.348995711821
 30
0.0
 40
45.72
 41
30.0
 46
0.0
 71
     7
 72
     1
  1
{\fＭＳ ゴシック|b0|i0|c128|p49;,}
 73
     1
 44
1.0
  0
LINE
  5
88
330
1F
100
AcDbEntity
  8
0-9__
  6
Continuous
 62
     7
370
     9
100
AcDbLine
 10
2766.490034461465
 20
-1456.666546383418
 30
0.0
 11
2766.490034478471
 21
-1520.66654638342
 31
0.0
  0
LINE
  5
89
330
1F
100
AcDbEntity
  8
0-0_補助線
  6
JWW_HOJO
 62
     7
370
     9
100
AcDbLine
 10
2766.490034461465
 20
-1851.166546383425
 30
0.0
 11
2766.490034601082
 21
862.3334536165817
 31
0.0
  0
LINE
  5
8A
330
1F
100
AcDbEntity
  8
0-0_補助線
  6
JWW_HOJO
 62
   120
370
     5
100
AcDbLine
 10
2816.490034461465
 20
-1851.166546383425
 30
0.0
 11
2816.490034601082
 21
1062.333453616582
 31
0.0
  0
LINE
  5
8B
330
1F
100
AcDbEntity
  8
0-0_補助線
  6
JWW_HOJO
 62
   120
370
     5
100
AcDbLine
 10
2349.49003455454
 20
-1851.166546383425
 30
0.0
 11
2349.490034601084
 21
1062.333453616582
 31
0.0
  0
LINE
  5
8C
330
1F
100
AcDbEntity
  8
0-0_補助線
  6
JWW_HOJO
 62
     7
370
     9
100
AcDbLine
 10
2421.490034461465
 20
-1851.166546383425
 30
0.0
 11
2421.490034601082
 21
1056.833453616582
 31
0.0
  0
LINE
  5
8D
330
1F
100
AcDbEntity
  8
0-A_文字
  6
Continuous
 62
     7
370
     9
100
AcDbLine
 10
-3743.332919558964
 20
2486.666787637248
 30
0.0
 11
-3743.332919558964
 21
2636.666787637248
 31
0.0
  0
LINE
  5
8E
330
1F
100
AcDbEntity
  8
0-A_文字
  6
Continuous
 62
     7
370
     9
100
AcDbLine
 10
-3743.332919558964
 20
2636.666787637248
 30
0.0
 11
-2563.109199698325
 21
2636.666787637248
 31
0.0
  0
LINE
  5
8F
330
1F
100
AcDbEntity
  8
0-A_文字
  6
Continuous
 62
     7
370
     9
100
AcDbLine
 10
-3743.332919558964
 20
2486.666787637248
 30
0.0
 11
-2563.109199698325
 21
2486.666787637248
 31
0.0
  0
LINE
  5
90
330
1F
100
AcDbEntity
  8
0-A_文字
  6
Continuous
 62
     7
370
     9
100
AcDbLine
 10
-2563.109199698325
 20
2486.666787637248
 30
0.0
 11
-2563.109199698325
 21
2636.666787637248
 31
0.0
  0
LINE
  5
91
330
1F
100
AcDbEntity
  8
0-A_文字
  6
Continuous
 62
     7
370
     9
100
AcDbLine
 10
-122.5099653989139
 20
-2070.666546383419
 30
0.0
 11
-122.5099653989139
 21
-1920.666546383419
 31
0.0
  0
LINE
  5
92
330
1F
100
AcDbEntity
  8
0-A_文字
  6
Continuous
 62
     7
370
     9
100
AcDbLine
 10
727.4900346010827
 20
-2070.666546383419
 30
0.0
 11
-122.5099653989139
 21
-2070.666546383419
 31
0.0
  0
LINE
  5
93
330
1F
100
AcDbEntity
  8
0-A_文字
  6
Continuous
 62
     7
370
     9
100
AcDbLine
 10
727.4900346010827
 20
-1920.666546383419
 30
0.0
 11
727.4900346010827
 21
-2070.666546383419
 31
0.0
  0
LINE
  5
94
330
1F
100
AcDbEntity
  8
0-A_文字
  6
Continuous
 62
     7
370
     9
100
AcDbLine
 10
-122.5099653989139
 20
-1920.666546383419
 30
0.0
 11
727.4900346010827
 21
-1920.666546383419
 31
0.0
  0
MTEXT
  5
95
330
1F
100
AcDbEntity
  8
0-A_文字
  6
Continuous
 62
     7
370
     9
100
AcDbMText
 10
-2.509965398911618
 20
-2064.019879716752
 30
0.0
 40
103.2933333333334
 41
610.0
 46
0.0
 71
     7
 72
     1
  1
{\fＭＳ ゴシック|b0|i0|c128|p49;ｷｬﾋﾞﾈｯﾄ図}
 73
     1
 44
1.0
  0
MTEXT
  5
96
330
1F
100
AcDbEntity
  8
0-B_寸法
  6
Continuous
 62
     7
370
   211
100
AcDbMText
 10
-454.5099653989138
 20
-769.277253352758
 30
0.0
 40
45.72
 41
60.0
 46
0.0
 71
     7
 72
     1
  1
{\fＭＳ ゴシック|b0|i0|c128|p49;15}
 11
6.123031769111886E-17
 21
1.0
 31
0.0
 73
     1
 44
1.0
  0
LINE
  5
97
330
1F
100
AcDbEntity
  8
0-B_寸法
  6
Continuous
 62
   120
370
     5
100
AcDbLine
 10
-544.5099653989138
 20
-1456.666546383426
 30
0.0
 11
-444.5099653989138
 21
-1456.666546383426
 31
0.0
  0
LWPOLYLINE
  5
98
330
1F
100
AcDbEntity
  8
0-B_寸法
  6
Continuous
 62
     7
370
     9
100
AcDbPolyline
 90
        4
 70
     1
 43
2.0
 10
-543.5099653989138
 20
-1456.666546383426
 42
0.4142135623731
 10
-544.5099653989138
 20
-1455.666546383426
 42
0.4142135623731
 10
-545.5099653989138
 20
-1456.666546383426
 42
0.4142135623731
 10
-544.5099653989138
 20
-1457.666546383426
 42
0.4142135623731
  0
LINE
  5
99
330
1F
100
AcDbEntity
  8
0-B_寸法
  6
Continuous
 62
   120
370
     5
100
AcDbLine
 10
-544.5099653989138
 20
-695.6665463834253
 30
0.0
 11
-344.5099652592972
 21
-695.6665463834247
 31
0.0
  0
LWPOLYLINE
  5
9A
330
1F
100
AcDbEntity
  8
0-B_寸法
  6
Continuous
 62
     7
370
     9
100
AcDbPolyline
 90
        4
 70
     1
 43
2.0
 10
-543.5099653989138
 20
-695.6665463834253
 42
0.4142135623731
 10
-544.5099653989138
 20
-694.6665463834254
 42
0.4142135623731
 10
-545.5099653989138
 20
-695.6665463834253
 42
0.4142135623731
 10
-544.5099653989138
 20
-696.6665463834252
 42
0.4142135623731
  0
LINE
  5
9B
330
1F
100
AcDbEntity
  8
0-B_寸法
  6
Continuous
 62
   120
370
     5
100
AcDbLine
 10
-544.5099653989138
 20
-695.6665463834253
 30
0.0
 11
-544.5099653989138
 21
-1456.666546383426
 31
0.0
  0
MTEXT
  5
9C
330
1F
100
AcDbEntity
  8
0-B_寸法
  6
Continuous
 62
     7
370
   211
100
AcDbMText
 10
-554.5099653989138
 20
-1128.306566178611
 30
0.0
 40
45.72
 41
90.0
 46
0.0
 71
     7
 72
     1
  1
{\fＭＳ ゴシック|b0|i0|c128|p49;761}
 11
6.123031769111886E-17
 21
1.0
 31
0.0
 73
     1
 44
1.0
  0
LINE
  5
9D
330
1F
100
AcDbEntity
  8
0-B_寸法
  6
Continuous
 62
   120
370
     5
100
AcDbLine
 10
-444.5099653989138
 20
-1456.666546383426
 30
0.0
 11
-444.5099653989138
 21
-1441.666546383426
 31
0.0
  0
LWPOLYLINE
  5
9E
330
1F
100
AcDbEntity
  8
0-B_寸法
  6
Continuous
 62
     7
370
     9
100
AcDbPolyline
 90
        4
 70
     1
 43
2.0
 10
-443.5099653989138
 20
-1456.666546383426
 42
0.4142135623731
 10
-444.5099653989138
 20
-1455.666546383426
 42
0.4142135623731
 10
-445.5099653989138
 20
-1456.666546383426
 42
0.4142135623731
 10
-444.5099653989138
 20
-1457.666546383426
 42
0.4142135623731
  0
LWPOLYLINE
  5
9F
330
1F
100
AcDbEntity
  8
0-B_寸法
  6
Continuous
 62
     7
370
     9
100
AcDbPolyline
 90
        4
 70
     1
 43
2.0
 10
-443.5099653989138
 20
-1441.666546383426
 42
0.4142135623731
 10
-444.5099653989138
 20
-1440.666546383426
 42
0.4142135623731
 10
-445.5099653989138
 20
-1441.666546383426
 42
0.4142135623731
 10
-444.5099653989138
 20
-1442.666546383426
 42
0.4142135623731
  0
LINE
  5
A0
330
1F
100
AcDbEntity
  8
0-B_寸法
  6
Continuous
 62
   120
370
     5
100
AcDbLine
 10
-444.5099653989138
 20
-1456.666546383426
 30
0.0
 11
-344.5099653989138
 21
-1456.666546383426
 31
0.0
  0
LINE
  5
A1
330
1F
100
AcDbEntity
  8
0-B_寸法
  6
Continuous
 62
   120
370
     5
100
AcDbLine
 10
-444.5099653989138
 20
-1441.666546383426
 30
0.0
 11
-344.5099653989138
 21
-1441.666546383426
 31
0.0
  0
LINE
  5
A2
330
1F
100
AcDbEntity
  8
0-B_寸法
  6
Continuous
 62
   120
370
     5
100
AcDbLine
 10
-444.5099653989138
 20
-1441.666546383426
 30
0.0
 11
-444.5099653989138
 21
-710.6665463834253
 31
0.0
  0
LWPOLYLINE
  5
A3
330
1F
100
AcDbEntity
  8
0-B_寸法
  6
Continuous
 62
     7
370
     9
100
AcDbPolyline
 90
        4
 70
     1
 43
2.0
 10
-443.5099653989138
 20
-710.6665463834253
 42
0.4142135623731
 10
-444.5099653989138
 20
-709.6665463834254
 42
0.4142135623731
 10
-445.5099653989138
 20
-710.6665463834253
 42
0.4142135623731
 10
-444.5099653989138
 20
-711.6665463834252
 42
0.4142135623731
  0
LINE
  5
A4
330
1F
100
AcDbEntity
  8
0-B_寸法
  6
Continuous
 62
   120
370
     5
100
AcDbLine
 10
-444.5099653989138
 20
-710.6665463834253
 30
0.0
 11
-344.5099653989138
 21
-710.6665463834253
 31
0.0
  0
MTEXT
  5
A5
330
1F
100
AcDbEntity
  8
0-B_寸法
  6
Continuous
 62
     7
370
   211
100
AcDbMText
 10
-454.5099653989138
 20
-1128.306546383425
 30
0.0
 40
45.72
 41
90.0
 46
0.0
 71
     7
 72
     1
  1
{\fＭＳ ゴシック|b0|i0|c128|p49;731}
 11
6.123031769111886E-17
 21
1.0
 31
0.0
 73
     1
 44
1.0
  0
LINE
  5
A6
330
1F
100
AcDbEntity
  8
0-B_寸法
  6
Continuous
 62
   120
370
     5
100
AcDbLine
 10
-444.5099653989138
 20
-710.6665463834253
 30
0.0
 11
-444.5099653989138
 21
-695.6665463834253
 31
0.0
  0
LWPOLYLINE
  5
A7
330
1F
100
AcDbEntity
  8
0-B_寸法
  6
Continuous
 62
     7
370
     9
100
AcDbPolyline
 90
        4
 70
     1
 43
2.0
 10
-443.5099653989138
 20
-695.6665463834253
 42
0.4142135623731
 10
-444.5099653989138
 20
-694.6665463834254
 42
0.4142135623731
 10
-445.5099653989138
 20
-695.6665463834253
 42
0.4142135623731
 10
-444.5099653989138
 20
-696.6665463834252
 42
0.4142135623731
  0
MTEXT
  5
A8
330
1F
100
AcDbEntity
  8
0-B_寸法
  6
Continuous
 62
     7
370
   211
100
AcDbMText
 10
-454.5099653989138
 20
-1457.188260393381
 30
0.0
 40
45.72
 41
60.0
 46
0.0
 71
     7
 72
     1
  1
{\fＭＳ ゴシック|b0|i0|c128|p49;15}
 11
6.123031769111886E-17
 21
1.0
 31
0.0
 73
     1
 44
1.0
  0
LINE
  5
A9
330
1F
100
AcDbEntity
  8
0-0_補助線
  6
JWW_HOJO
 62
   120
370
     5
100
AcDbLine
 10
2916.490034461465
 20
-613.6665463834252
 30
0.0
 11
-2938.509965398912
 21
-613.6665463834252
 31
0.0
  0
LINE
  5
AA
330
1F
100
AcDbEntity
  8
0-0_補助線
  6
JWW_HOJO
 62
   120
370
     5
100
AcDbLine
 10
-2938.509965398912
 20
-513.6665463834252
 30
0.0
 11
2916.490034461465
 21
-513.6665463834252
 31
0.0
  0
LINE
  5
AB
330
1F
100
AcDbEntity
  8
0-0_補助線
  6
JWW_HOJO
 62
   120
370
     5
100
AcDbLine
 10
949.4900346010849
 20
1460.063391718313
 30
0.0
 11
949.4900346010849
 21
2133.063391718313
 31
0.0
  0
LINE
  5
AC
330
1F
100
AcDbEntity
  8
0-0_補助線
  6
JWW_HOJO
 62
     7
370
     9
100
AcDbLine
 10
899.4900346010849
 20
-1851.166546383425
 30
0.0
 11
899.4900346010849
 21
2133.063391718313
 31
0.0
  0
LINE
  5
AD
330
1F
100
AcDbEntity
  8
0-0_補助線
  6
JWW_HOJO
 62
     7
370
     9
100
AcDbLine
 10
-294.5099653989166
 20
2133.063391718313
 30
0.0
 11
-294.5099653989166
 21
-1851.166546383425
 31
0.0
  0
LINE
  5
AE
330
1F
100
AcDbEntity
  8
0-0_補助線
  6
JWW_HOJO
 62
   120
370
     5
100
AcDbLine
 10
-544.5099653989166
 20
2133.063391718313
 30
0.0
 11
-544.5099653989166
 21
1460.063391718313
 31
0.0
  0
LINE
  5
AF
330
1F
100
AcDbEntity
  8
0-0_補助線
  6
JWW_HOJO
 62
   120
370
     5
100
AcDbLine
 10
-344.5099653989166
 20
2133.063391718313
 30
0.0
 11
-344.5099653989166
 21
1460.063391718313
 31
0.0
  0
LINE
  5
B0
330
1F
100
AcDbEntity
  8
0-0_補助線
  6
JWW_HOJO
 62
   120
370
     5
100
AcDbLine
 10
-444.5099653989166
 20
2133.063391718313
 30
0.0
 11
-444.5099653989166
 21
1460.063391718313
 31
0.0
  0
LINE
  5
B1
330
1F
100
AcDbEntity
  8
0-0_補助線
  6
JWW_HOJO
 62
   120
370
     5
100
AcDbLine
 10
-544.5099653989166
 20
2133.063391718313
 30
0.0
 11
949.4900346010849
 21
2133.063391718313
 31
0.0
  0
LINE
  5
B2
330
1F
100
AcDbEntity
  8
0-0_補助線
  6
JWW_HOJO
 62
   120
370
     5
100
AcDbLine
 10
-544.5099653989166
 20
1460.063391718313
 30
0.0
 11
949.4900346010849
 21
1460.063391718313
 31
0.0
  0
LINE
  5
B3
330
1F
100
AcDbEntity
  8
0-0_補助線
  6
JWW_HOJO
 62
     7
370
     9
100
AcDbLine
 10
-544.5099653989166
 20
2083.063391718313
 30
0.0
 11
949.4900346010849
 21
2083.063391718313
 31
0.0
  0
LINE
  5
B4
330
1F
100
AcDbEntity
  8
0-0_補助線
  6
JWW_HOJO
 62
     7
370
     9
100
AcDbLine
 10
-544.5099653989166
 20
1738.063391718312
 30
0.0
 11
949.4900346010849
 21
1738.063391718312
 31
0.0
  0
LINE
  5
B5
330
1F
100
AcDbEntity
  8
0-0_補助線
  6
JWW_HOJO
 62
   120
370
     5
100
AcDbLine
 10
-544.5099653989166
 20
1560.063391718313
 30
0.0
 11
949.4900346010849
 21
1560.063391718313
 31
0.0
  0
MTEXT
  5
B6
330
1F
100
AcDbEntity
  8
0-A_文字
  6
Continuous
 62
     7
370
     9
100
AcDbMText
 10
136.8471774582275
 20
1165.863391718313
 30
0.0
 40
101.6
 41
400.0
 46
0.0
 71
     7
 72
     1
  1
{\fＭＳ ゴシック|b0|i0|c128|p49;平面図}
 73
     1
 44
1.0
  0
LINE
  5
B7
330
1F
100
AcDbEntity
  8
0-A_文字
  6
Continuous
 62
     7
370
     9
100
AcDbLine
 10
-88.15282254177248
 20
1160.063391718313
 30
0.0
 11
-88.15282254177248
 21
1310.063391718313
 31
0.0
  0
LINE
  5
B8
330
1F
100
AcDbEntity
  8
0-A_文字
  6
Continuous
 62
     7
370
     9
100
AcDbLine
 10
761.8471774582275
 20
1160.063391718313
 30
0.0
 11
-88.15282254177248
 21
1160.063391718313
 31
0.0
  0
LINE
  5
B9
330
1F
100
AcDbEntity
  8
0-A_文字
  6
Continuous
 62
     7
370
     9
100
AcDbLine
 10
761.8471774582275
 20
1310.063391718313
 30
0.0
 11
761.8471774582275
 21
1160.063391718313
 31
0.0
  0
LINE
  5
BA
330
1F
100
AcDbEntity
  8
0-A_文字
  6
Continuous
 62
     7
370
     9
100
AcDbLine
 10
-88.15282254177248
 20
1310.063391718313
 30
0.0
 11
761.8471774582275
 21
1310.063391718313
 31
0.0
  0
LINE
  5
BB
330
1F
100
AcDbEntity
  8
0-B_寸法
  6
Continuous
 62
   120
370
     5
100
AcDbLine
 10
-544.5099653989166
 20
712.3334536165811
 30
0.0
 11
-544.5099653989166
 21
143.3333216486744
 31
0.0
  0
LWPOLYLINE
  5
BC
330
1F
100
AcDbEntity
  8
0-B_寸法
  6
Continuous
 62
     7
370
     9
100
AcDbPolyline
 90
        4
 70
     1
 43
2.0
 10
-543.5099653989166
 20
712.3334536165811
 42
0.4142135623731
 10
-544.5099653989166
 20
713.333453616581
 42
0.4142135623731
 10
-545.5099653989166
 20
712.3334536165811
 42
0.4142135623731
 10
-544.5099653989166
 20
711.3334536165812
 42
0.4142135623731
  0
LWPOLYLINE
  5
BD
330
1F
100
AcDbEntity
  8
0-B_寸法
  6
Continuous
 62
     7
370
     9
100
AcDbPolyline
 90
        4
 70
     1
 43
2.0
 10
-543.5099653989166
 20
143.3333216486744
 42
0.4142135623731
 10
-544.5099653989166
 20
144.3333216486744
 42
0.4142135623731
 10
-545.5099653989166
 20
143.3333216486744
 42
0.4142135623731
 10
-544.5099653989166
 20
142.3333216486744
 42
0.4142135623731
  0
LINE
  5
BE
330
1F
100
AcDbEntity
  8
0-B_寸法
  6
Continuous
 62
   120
370
     5
100
AcDbLine
 10
-544.5099653989166
 20
712.3334536165811
 30
0.0
 11
-344.5099653989183
 21
712.3334536165811
 31
0.0
  0
LINE
  5
BF
330
1F
100
AcDbEntity
  8
0-B_寸法
  6
Continuous
 62
   120
370
     5
100
AcDbLine
 10
-544.5099653989166
 20
143.3333216486744
 30
0.0
 11
-344.5099653989183
 21
143.3333216486744
 31
0.0
  0
MTEXT
  5
C0
330
1F
100
AcDbEntity
  8
0-B_寸法
  6
Continuous
 62
     7
370
   211
100
AcDbMText
 10
-549.3004560121773
 20
375.6933876326286
 30
0.0
 40
45.72
 41
90.0
 46
0.0
 71
     7
 72
     1
  1
{\fＭＳ ゴシック|b0|i0|c128|p49;569}
 11
6.123031769111886E-17
 21
1.0
 31
0.0
 73
     1
 44
1.0
  0
LINE
  5
C1
330
1F
100
AcDbEntity
  8
0-B_寸法
  6
Continuous
 62
   120
370
     5
100
AcDbLine
 10
-444.5099653989166
 20
712.3334536165811
 30
0.0
 11
-444.5099653989166
 21
143.3334536165808
 31
0.0
  0
LWPOLYLINE
  5
C2
330
1F
100
AcDbEntity
  8
0-B_寸法
  6
Continuous
 62
     7
370
     9
100
AcDbPolyline
 90
        4
 70
     1
 43
2.0
 10
-443.5099653989166
 20
712.3334536165811
 42
0.4142135623731
 10
-444.5099653989166
 20
713.333453616581
 42
0.4142135623731
 10
-445.5099653989166
 20
712.3334536165811
 42
0.4142135623731
 10
-444.5099653989166
 20
711.3334536165812
 42
0.4142135623731
  0
LWPOLYLINE
  5
C3
330
1F
100
AcDbEntity
  8
0-B_寸法
  6
Continuous
 62
     7
370
     9
100
AcDbPolyline
 90
        4
 70
     1
 43
2.0
 10
-443.5099653989166
 20
697.3334536165811
 42
0.4142135623731
 10
-444.5099653989166
 20
698.333453616581
 42
0.4142135623731
 10
-445.5099653989166
 20
697.3334536165811
 42
0.4142135623731
 10
-444.5099653989166
 20
696.3334536165812
 42
0.4142135623731
  0
LINE
  5
C4
330
1F
100
AcDbEntity
  8
0-B_寸法
  6
Continuous
 62
   120
370
     5
100
AcDbLine
 10
-444.5099653989166
 20
697.3334536165811
 30
0.0
 11
-344.5099653989183
 21
697.3334536165811
 31
0.0
  0
LWPOLYLINE
  5
C5
330
1F
100
AcDbEntity
  8
0-B_寸法
  6
Continuous
 62
     7
370
     9
100
AcDbPolyline
 90
        4
 70
     1
 43
2.0
 10
-443.5099653989166
 20
158.3334536165808
 42
0.4142135623731
 10
-444.5099653989166
 20
159.3334536165808
 42
0.4142135623731
 10
-445.5099653989166
 20
158.3334536165808
 42
0.4142135623731
 10
-444.5099653989166
 20
157.3334536165808
 42
0.4142135623731
  0
LINE
  5
C6
330
1F
100
AcDbEntity
  8
0-B_寸法
  6
Continuous
 62
   120
370
     5
100
AcDbLine
 10
-444.5099653989166
 20
158.3334536165808
 30
0.0
 11
-344.5099653989183
 21
158.3334536165808
 31
0.0
  0
MTEXT
  5
C7
330
1F
100
AcDbEntity
  8
0-B_寸法
  6
Continuous
 62
     7
370
   211
100
AcDbMText
 10
-454.5099653989166
 20
375.6934536165818
 30
0.0
 40
45.72
 41
90.0
 46
0.0
 71
     7
 72
     1
  1
{\fＭＳ ゴシック|b0|i0|c128|p49;539}
 11
6.123031769111886E-17
 21
1.0
 31
0.0
 73
     1
 44
1.0
  0
LWPOLYLINE
  5
C8
330
1F
100
AcDbEntity
  8
0-B_寸法
  6
Continuous
 62
     7
370
     9
100
AcDbPolyline
 90
        4
 70
     1
 43
2.0
 10
-443.5099653989166
 20
143.3334536165808
 42
0.4142135623731
 10
-444.5099653989166
 20
144.3334536165808
 42
0.4142135623731
 10
-445.5099653989166
 20
143.3334536165808
 42
0.4142135623731
 10
-444.5099653989166
 20
142.3334536165808
 42
0.4142135623731
  0
LINE
  5
C9
330
1F
100
AcDbEntity
  8
0-B_寸法
  6
Continuous
 62
   120
370
     5
100
AcDbLine
 10
-444.5099653989166
 20
143.3334536165808
 30
0.0
 11
-344.5099653989183
 21
143.3334536165808
 31
0.0
  0
MTEXT
  5
CA
330
1F
100
AcDbEntity
  8
0-B_寸法
  6
Continuous
 62
     7
370
   211
100
AcDbMText
 10
-454.5099653989166
 20
113.6934536165808
 30
0.0
 40
45.72
 41
60.0
 46
0.0
 71
     7
 72
     1
  1
{\fＭＳ ゴシック|b0|i0|c128|p49;15}
 11
6.123031769111886E-17
 21
1.0
 31
0.0
 73
     1
 44
1.0
  0
MTEXT
  5
CB
330
1F
100
AcDbEntity
  8
0-B_寸法
  6
Continuous
 62
     7
370
   211
100
AcDbMText
 10
-454.5099653989166
 20
637.4144775128514
 30
0.0
 40
45.72
 41
60.0
 46
0.0
 71
     7
 72
     1
  1
{\fＭＳ ゴシック|b0|i0|c128|p49;15}
 11
6.123031769111886E-17
 21
1.0
 31
0.0
 73
     1
 44
1.0
  0
LINE
  5
CC
330
1F
100
AcDbEntity
  8
0-0_補助線
  6
JWW_HOJO
 62
   120
370
     5
100
AcDbLine
 10
-444.5099653989138
 20
-1851.166546383425
 30
0.0
 11
-444.5099653989138
 21
862.3334536165817
 31
0.0
  0
LINE
  5
CD
330
1F
100
AcDbEntity
  8
0-0_補助線
  6
JWW_HOJO
 62
   120
370
     5
100
AcDbLine
 10
949.4900346010849
 20
-1851.166546383425
 30
0.0
 11
949.4900346010849
 21
862.3334536165817
 31
0.0
  0
MTEXT
  5
CE
330
1F
100
AcDbEntity
  8
0-B_寸法
  6
Continuous
 62
     7
370
   211
100
AcDbMText
 10
-2948.509965398912
 20
-1453.899373177176
 30
0.0
 40
45.72
 41
30.0
 46
0.0
 71
     7
 72
     1
  1
{\fＭＳ ゴシック|b0|i0|c128|p49;3}
 11
6.123031769111886E-17
 21
1.0
 31
0.0
 73
     1
 44
1.0
  0
LINE
  5
CF
330
1F
100
AcDbEntity
  8
0-B_寸法
  6
Continuous
 62
   120
370
     5
100
AcDbLine
 10
-2938.509965398912
 20
-1453.666546383425
 30
0.0
 11
-2838.509965398912
 21
-1453.666546383425
 31
0.0
  0
LINE
  5
D0
330
1F
100
AcDbEntity
  8
0-B_寸法
  6
Continuous
 62
   120
370
     5
100
AcDbLine
 10
-3038.509965398915
 20
-1456.666546383426
 30
0.0
 11
-2838.509965398912
 21
-1456.666546383426
 31
0.0
  0
LWPOLYLINE
  5
D1
330
1F
100
AcDbEntity
  8
0-B_寸法
  6
Continuous
 62
     7
370
     9
100
AcDbPolyline
 90
        4
 70
     1
 43
2.0
 10
-2937.509965398912
 20
-1453.666546383425
 42
0.4142135623731
 10
-2938.509965398912
 20
-1452.666546383425
 42
0.4142135623731
 10
-2939.509965398913
 20
-1453.666546383425
 42
0.4142135623731
 10
-2938.509965398912
 20
-1454.666546383425
 42
0.4142135623731
  0
LWPOLYLINE
  5
D2
330
1F
100
AcDbEntity
  8
0-B_寸法
  6
Continuous
 62
     7
370
     9
100
AcDbPolyline
 90
        4
 70
     1
 43
2.0
 10
-2937.509965398912
 20
-1456.666546383426
 42
0.4142135623731
 10
-2938.509965398912
 20
-1455.666546383426
 42
0.4142135623731
 10
-2939.509965398913
 20
-1456.666546383426
 42
0.4142135623731
 10
-2938.509965398912
 20
-1457.666546383426
 42
0.4142135623731
  0
LINE
  5
D3
330
1F
100
AcDbEntity
  8
0-B_寸法
  6
Continuous
 62
   120
370
     5
100
AcDbLine
 10
-2938.509965398912
 20
-1456.666546383426
 30
0.0
 11
-2938.509965398912
 21
-1453.666546383425
 31
0.0
  0
MTEXT
  5
D4
330
1F
100
AcDbEntity
  8
0-B_寸法
  6
Continuous
 62
     7
370
   211
100
AcDbMText
 10
-2948.509965398912
 20
-737.2432190585238
 30
0.0
 40
45.72
 41
30.0
 46
0.0
 71
     7
 72
     1
  1
{\fＭＳ ゴシック|b0|i0|c128|p49;3}
 11
6.123031769111886E-17
 21
1.0
 31
0.0
 73
     1
 44
1.0
  0
LINE
  5
D5
330
1F
100
AcDbEntity
  8
0-B_寸法
  6
Continuous
 62
   120
370
     5
100
AcDbLine
 10
-2938.509965398912
 20
-698.6665463834248
 30
0.0
 11
-2838.509965398912
 21
-698.6665463834248
 31
0.0
  0
LWPOLYLINE
  5
D6
330
1F
100
AcDbEntity
  8
0-B_寸法
  6
Continuous
 62
     7
370
     9
100
AcDbPolyline
 90
        4
 70
     1
 43
2.0
 10
-2937.509965398912
 20
-698.6665463834248
 42
0.4142135623731
 10
-2938.509965398912
 20
-697.6665463834249
 42
0.4142135623731
 10
-2939.509965398913
 20
-698.6665463834248
 42
0.4142135623731
 10
-2938.509965398912
 20
-699.6665463834247
 42
0.4142135623731
  0
LINE
  5
D7
330
1F
100
AcDbEntity
  8
0-B_寸法
  6
Continuous
 62
   120
370
     5
100
AcDbLine
 10
-2938.509965398912
 20
-1453.666546383425
 30
0.0
 11
-2938.509965398912
 21
-698.6665463834248
 31
0.0
  0
LINE
  5
D8
330
1F
100
AcDbEntity
  8
0-B_寸法
  6
Continuous
 62
   120
370
     5
100
AcDbLine
 10
-2938.509965398912
 20
-695.6665463834253
 30
0.0
 11
-2838.509965398912
 21
-695.6665463834253
 31
0.0
  0
LWPOLYLINE
  5
D9
330
1F
100
AcDbEntity
  8
0-B_寸法
  6
Continuous
 62
     7
370
     9
100
AcDbPolyline
 90
        4
 70
     1
 43
2.0
 10
-2937.509965398912
 20
-695.6665463834253
 42
0.4142135623731
 10
-2938.509965398912
 20
-694.6665463834254
 42
0.4142135623731
 10
-2939.509965398913
 20
-695.6665463834253
 42
0.4142135623731
 10
-2938.509965398912
 20
-696.6665463834252
 42
0.4142135623731
  0
LINE
  5
DA
330
1F
100
AcDbEntity
  8
0-B_寸法
  6
Continuous
 62
   120
370
     5
100
AcDbLine
 10
-2938.509965398912
 20
-698.6665463834248
 30
0.0
 11
-2938.509965398912
 21
-695.6665463834253
 31
0.0
  0
MTEXT
  5
DB
330
1F
100
AcDbEntity
  8
0-B_寸法
  6
Continuous
 62
     7
370
   211
100
AcDbMText
 10
-2948.509965398912
 20
-1218.306566178611
 30
0.0
 40
45.71999999999999
 41
270.0
 46
0.0
 71
     7
 72
     1
  1
{\fＭＳ ゴシック|b0|i0|c128|p49;ＤＨ＝755}
 11
6.123031769111886E-17
 21
1.0
 31
0.0
 73
     1
 44
1.0
  0
LINE
  5
DC
330
1F
100
AcDbEntity
  8
0-B_寸法
  6
Continuous
 62
   120
370
     5
100
AcDbLine
 10
-2938.509965305838
 20
-695.666538135431
 30
0.0
 11
-2838.509965305838
 21
-695.666538135431
 31
0.0
  0
LWPOLYLINE
  5
DD
330
1F
100
AcDbEntity
  8
0-B_寸法
  6
Continuous
 62
     7
370
     9
100
AcDbPolyline
 90
        4
 70
     1
 43
2.0
 10
-2937.509965305837
 20
-695.666538135431
 42
0.4142135623731
 10
-2938.509965305838
 20
-694.666538135431
 42
0.4142135623731
 10
-2939.509965305838
 20
-695.666538135431
 42
0.4142135623731
 10
-2938.509965305838
 20
-696.666538135431
 42
0.4142135623731
  0
LINE
  5
DE
330
1F
100
AcDbEntity
  8
0-B_寸法
  6
Continuous
 62
   120
370
     5
100
AcDbLine
 10
-2938.509965398915
 20
143.3334536165808
 30
0.0
 11
-2938.509965398915
 21
146.3334536165803
 31
0.0
  0
LWPOLYLINE
  5
DF
330
1F
100
AcDbEntity
  8
0-B_寸法
  6
Continuous
 62
     7
370
     9
100
AcDbPolyline
 90
        4
 70
     1
 43
2.0
 10
-2937.509965398915
 20
143.3334536165808
 42
0.4142135623731
 10
-2938.509965398915
 20
144.3334536165808
 42
0.4142135623731
 10
-2939.509965398915
 20
143.3334536165808
 42
0.4142135623731
 10
-2938.509965398915
 20
142.3334536165808
 42
0.4142135623731
  0
LWPOLYLINE
  5
E0
330
1F
100
AcDbEntity
  8
0-B_寸法
  6
Continuous
 62
     7
370
     9
100
AcDbPolyline
 90
        4
 70
     1
 43
2.0
 10
-2937.509965398915
 20
146.3334536165803
 42
0.4142135623731
 10
-2938.509965398915
 20
147.3334536165803
 42
0.4142135623731
 10
-2939.509965398915
 20
146.3334536165803
 42
0.4142135623731
 10
-2938.509965398915
 20
145.3334536165803
 42
0.4142135623731
  0
LINE
  5
E1
330
1F
100
AcDbEntity
  8
0-B_寸法
  6
Continuous
 62
   120
370
     5
100
AcDbLine
 10
-3038.509965398915
 20
143.3334536165825
 30
0.0
 11
-2838.509965398912
 21
143.3334536165825
 31
0.0
  0
LINE
  5
E2
330
1F
100
AcDbEntity
  8
0-B_寸法
  6
Continuous
 62
   120
370
     5
100
AcDbLine
 10
-2938.509965398915
 20
146.3334536165803
 30
0.0
 11
-2838.509965398915
 21
146.3334536165803
 31
0.0
  0
LINE
  5
E3
330
1F
100
AcDbEntity
  8
0-B_寸法
  6
Continuous
 62
   120
370
     5
100
AcDbLine
 10
-2938.509965398915
 20
146.3334536165803
 30
0.0
 11
-2938.509965398915
 21
709.3334536165816
 31
0.0
  0
LWPOLYLINE
  5
E4
330
1F
100
AcDbEntity
  8
0-B_寸法
  6
Continuous
 62
     7
370
     9
100
AcDbPolyline
 90
        4
 70
     1
 43
2.0
 10
-2937.509965398915
 20
709.3334536165816
 42
0.4142135623731
 10
-2938.509965398915
 20
710.3334536165814
 42
0.4142135623731
 10
-2939.509965398915
 20
709.3334536165816
 42
0.4142135623731
 10
-2938.509965398915
 20
708.3334536165817
 42
0.4142135623731
  0
LINE
  5
E5
330
1F
100
AcDbEntity
  8
0-B_寸法
  6
Continuous
 62
   120
370
     5
100
AcDbLine
 10
-2938.509965398915
 20
709.3334536165816
 30
0.0
 11
-2838.509965398915
 21
709.3334536165816
 31
0.0
  0
LINE
  5
E6
330
1F
100
AcDbEntity
  8
0-B_寸法
  6
Continuous
 62
   120
370
     5
100
AcDbLine
 10
-2938.509965398915
 20
709.3334536165816
 30
0.0
 11
-2938.509965398915
 21
712.3334536165811
 31
0.0
  0
LWPOLYLINE
  5
E7
330
1F
100
AcDbEntity
  8
0-B_寸法
  6
Continuous
 62
     7
370
     9
100
AcDbPolyline
 90
        4
 70
     1
 43
2.0
 10
-2937.509965398915
 20
712.3334536165811
 42
0.4142135623731
 10
-2938.509965398915
 20
713.333453616581
 42
0.4142135623731
 10
-2939.509965398915
 20
712.3334536165811
 42
0.4142135623731
 10
-2938.509965398915
 20
711.3334536165812
 42
0.4142135623731
  0
LINE
  5
E8
330
1F
100
AcDbEntity
  8
0-B_寸法
  6
Continuous
 62
   120
370
     5
100
AcDbLine
 10
-3038.509965398915
 20
712.3334536165811
 30
0.0
 11
-2838.509965398915
 21
712.3334536165811
 31
0.0
  0
MTEXT
  5
E9
330
1F
100
AcDbEntity
  8
0-B_寸法
  6
Continuous
 62
     7
370
   211
100
AcDbMText
 10
-2948.509965398915
 20
285.6934536165812
 30
0.0
 40
45.71999999999999
 41
270.0
 46
0.0
 71
     7
 72
     1
  1
{\fＭＳ ゴシック|b0|i0|c128|p49;ＤＨ＝563}
 11
6.123031769111886E-17
 21
1.0
 31
0.0
 73
     1
 44
1.0
  0
MTEXT
  5
EA
330
1F
100
AcDbEntity
  8
0-B_寸法
  6
Continuous
 62
     7
370
   211
100
AcDbMText
 10
-2948.509965398915
 20
669.7138053103998
 30
0.0
 40
45.72
 41
30.0
 46
0.0
 71
     7
 72
     1
  1
{\fＭＳ ゴシック|b0|i0|c128|p49;3}
 11
6.123031769111886E-17
 21
1.0
 31
0.0
 73
     1
 44
1.0
  0
MTEXT
  5
EB
330
1F
100
AcDbEntity
  8
0-B_寸法
  6
Continuous
 62
     7
370
   211
100
AcDbMText
 10
-2948.509965398915
 20
140.7080498515
 30
0.0
 40
45.72
 41
30.0
 46
0.0
 71
     7
 72
     1
  1
{\fＭＳ ゴシック|b0|i0|c128|p49;3}
 11
6.123031769111886E-17
 21
1.0
 31
0.0
 73
     1
 44
1.0
  0
LINE
  5
EC
330
1F
100
AcDbEntity
  8
0-0_補助線
  6
JWW_HOJO
 62
   120
370
     5
100
AcDbLine
 10
-2938.509965398912
 20
-1851.166546383425
 30
0.0
 11
-2938.509965398915
 21
862.3334536165817
 31
0.0
  0
LINE
  5
ED
330
1F
100
AcDbEntity
  8
0-0_補助線
  6
JWW_HOJO
 62
   120
370
     5
100
AcDbLine
 10
-2838.509965398912
 20
-1851.166546383425
 30
0.0
 11
-2838.509965398915
 21
862.3334536165817
 31
0.0
  0
LINE
  5
EE
330
1F
100
AcDbEntity
  8
0-0_補助線
  6
JWW_HOJO
 62
   120
370
     5
100
AcDbLine
 10
-1544.509965398913
 20
-1851.166546383425
 30
0.0
 11
-1544.509965398913
 21
862.3334536165817
 31
0.0
  0
LINE
  5
EF
330
1F
100
AcDbEntity
  8
0-B_寸法
  6
Continuous
 62
   120
370
     5
100
AcDbLine
 10
-3038.509965398912
 20
-1456.666533407557
 30
0.0
 11
-2838.509965398912
 21
-1456.666533407557
 31
0.0
  0
LWPOLYLINE
  5
F0
330
1F
100
AcDbEntity
  8
0-B_寸法
  6
Continuous
 62
     7
370
     9
100
AcDbPolyline
 90
        4
 70
     1
 43
2.0
 10
-3037.509965398912
 20
-1456.666533407557
 42
0.4142135623731
 10
-3038.509965398912
 20
-1455.666533407557
 42
0.4142135623731
 10
-3039.509965398913
 20
-1456.666533407557
 42
0.4142135623731
 10
-3038.509965398912
 20
-1457.666533407557
 42
0.4142135623731
  0
LINE
  5
F1
330
1F
100
AcDbEntity
  8
0-B_寸法
  6
Continuous
 62
   120
370
     5
100
AcDbLine
 10
-3138.509965398913
 20
-1520.666546383419
 30
0.0
 11
-3038.509965398912
 21
-1520.666546383419
 31
0.0
  0
LWPOLYLINE
  5
F2
330
1F
100
AcDbEntity
  8
0-B_寸法
  6
Continuous
 62
     7
370
     9
100
AcDbPolyline
 90
        4
 70
     1
 43
2.0
 10
-3137.509965398913
 20
712.3334536165811
 42
0.4142135623731
 10
-3138.509965398913
 20
713.333453616581
 42
0.4142135623731
 10
-3139.509965398913
 20
712.3334536165811
 42
0.4142135623731
 10
-3138.509965398913
 20
711.3334536165812
 42
0.4142135623731
  0
LWPOLYLINE
  5
F3
330
1F
100
AcDbEntity
  8
0-B_寸法
  6
Continuous
 62
     7
370
     9
100
AcDbPolyline
 90
        4
 70
     1
 43
2.0
 10
-3137.509965398913
 20
-1520.666546383419
 42
0.4142135623731
 10
-3138.509965398913
 20
-1519.666546383419
 42
0.4142135623731
 10
-3139.509965398913
 20
-1520.666546383419
 42
0.4142135623731
 10
-3138.509965398913
 20
-1521.666546383419
 42
0.4142135623731
  0
LINE
  5
F4
330
1F
100
AcDbEntity
  8
0-B_寸法
  6
Continuous
 62
   120
370
     5
100
AcDbLine
 10
-3138.509965398913
 20
-1520.666546383419
 30
0.0
 11
-3138.509965398913
 21
712.3334536165811
 31
0.0
  0
LINE
  5
F5
330
1F
100
AcDbEntity
  8
0-B_寸法
  6
Continuous
 62
   120
370
     5
100
AcDbLine
 10
-3038.509965398912
 20
-1520.666546383419
 30
0.0
 11
-2838.509965398912
 21
-1520.666546383419
 31
0.0
  0
LWPOLYLINE
  5
F6
330
1F
100
AcDbEntity
  8
0-B_寸法
  6
Continuous
 62
     7
370
     9
100
AcDbPolyline
 90
        4
 70
     1
 43
2.0
 10
-3037.509965398912
 20
-1520.666546383419
 42
0.4142135623731
 10
-3038.509965398912
 20
-1519.666546383419
 42
0.4142135623731
 10
-3039.509965398913
 20
-1520.666546383419
 42
0.4142135623731
 10
-3038.509965398912
 20
-1521.666546383419
 42
0.4142135623731
  0
LINE
  5
F7
330
1F
100
AcDbEntity
  8
0-B_寸法
  6
Continuous
 62
   120
370
     5
100
AcDbLine
 10
-3038.509965398912
 20
-1520.666546383419
 30
0.0
 11
-3038.509965398912
 21
-1456.666546383419
 31
0.0
  0
LINE
  5
F8
330
1F
100
AcDbEntity
  8
0-A_文字
  6
Continuous
 62
     7
370
     9
100
AcDbLine
 10
-2616.509965398914
 20
-2070.666546383419
 30
0.0
 11
-2616.509965398914
 21
-1920.666546383419
 31
0.0
  0
LINE
  5
F9
330
1F
100
AcDbEntity
  8
0-A_文字
  6
Continuous
 62
     7
370
     9
100
AcDbLine
 10
-1766.509965398914
 20
-2070.666546383419
 30
0.0
 11
-2616.509965398914
 21
-2070.666546383419
 31
0.0
  0
LINE
  5
FA
330
1F
100
AcDbEntity
  8
0-A_文字
  6
Continuous
 62
     7
370
     9
100
AcDbLine
 10
-1766.509965398914
 20
-1920.666546383419
 30
0.0
 11
-1766.509965398914
 21
-2070.666546383419
 31
0.0
  0
LINE
  5
FB
330
1F
100
AcDbEntity
  8
0-A_文字
  6
Continuous
 62
     7
370
     9
100
AcDbLine
 10
-2616.509965398914
 20
-1920.666546383419
 30
0.0
 11
-1766.509965398914
 21
-1920.666546383419
 31
0.0
  0
MTEXT
  5
FC
330
1F
100
AcDbEntity
  8
0-B_寸法
  6
Continuous
 62
     7
370
   211
100
AcDbMText
 10
-3148.509965398913
 20
-454.3065463834188
 30
0.0
 40
45.72
 41
150.0
 46
0.0
 71
     7
 72
     1
  1
{\fＭＳ ゴシック|b0|i0|c128|p49;2,233}
 11
6.123031769111886E-17
 21
1.0
 31
0.0
 73
     1
 44
1.0
  0
MTEXT
  5
FD
330
1F
100
AcDbEntity
  8
0-B_寸法
  6
Continuous
 62
     7
370
   211
100
AcDbMText
 10
-3048.509965398913
 20
-1525.80654638342
 30
0.0
 40
45.72
 41
60.0
 46
0.0
 71
     7
 72
     1
  1
{\fＭＳ ゴシック|b0|i0|c128|p49;64}
 11
6.123031769111886E-17
 21
1.0
 31
0.0
 73
     1
 44
1.0
  0
LINE
  5
FE
330
1F
100
AcDbEntity
  8
0-B_寸法
  6
Continuous
 62
   120
370
     5
100
AcDbLine
 10
-3138.509965398913
 20
712.3334536165811
 30
0.0
 11
-2838.509965398917
 21
712.3334536165811
 31
0.0
  0
LINE
  5
FF
330
1F
100
AcDbEntity
  8
0-B_寸法
  6
Continuous
 62
   120
370
     5
100
AcDbLine
 10
-3038.509965398915
 20
712.3334536165811
 30
0.0
 11
-3038.509965398915
 21
143.3334536165825
 31
0.0
  0
LWPOLYLINE
  5
100
330
1F
100
AcDbEntity
  8
0-B_寸法
  6
Continuous
 62
     7
370
     9
100
AcDbPolyline
 90
        4
 70
     1
 43
2.0
 10
-3037.509965398915
 20
712.3334536165811
 42
0.4142135623731
 10
-3038.509965398915
 20
713.333453616581
 42
0.4142135623731
 10
-3039.509965398915
 20
712.3334536165811
 42
0.4142135623731
 10
-3038.509965398915
 20
711.3334536165812
 42
0.4142135623731
  0
LWPOLYLINE
  5
101
330
1F
100
AcDbEntity
  8
0-B_寸法
  6
Continuous
 62
     7
370
     9
100
AcDbPolyline
 90
        4
 70
     1
 43
2.0
 10
-3037.509965398915
 20
143.3334536165825
 42
0.4142135623731
 10
-3038.509965398915
 20
144.3334536165825
 42
0.4142135623731
 10
-3039.509965398915
 20
143.3334536165825
 42
0.4142135623731
 10
-3038.509965398915
 20
142.3334536165825
 42
0.4142135623731
  0
MTEXT
  5
102
330
1F
100
AcDbEntity
  8
0-B_寸法
  6
Continuous
 62
     7
370
   211
100
AcDbMText
 10
-3048.509965398915
 20
375.6934536165818
 30
0.0
 40
45.72
 41
90.0
 46
0.0
 71
     7
 72
     1
  1
{\fＭＳ ゴシック|b0|i0|c128|p49;569}
 11
6.123031769111886E-17
 21
1.0
 31
0.0
 73
     1
 44
1.0
  0
LINE
  5
103
330
1F
100
AcDbEntity
  8
0-1_本体
  6
Continuous
 62
    40
370
    15
100
AcDbLine
 10
2763.490034461463
 20
-1448.666546383425
 30
0.0
 11
2766.490034461465
 21
-1448.666546383425
 31
0.0
  0
LINE
  5
104
330
1F
100
AcDbEntity
  8
0-1_本体
  6
Continuous
 62
    40
370
    15
100
AcDbLine
 10
2421.490034461465
 20
-1441.666546383426
 30
0.0
 11
2421.490034461465
 21
-1456.666546383426
 31
0.0
  0
CIRCLE
  5
105
330
1F
100
AcDbEntity
  8
0-5_ダボ
  6
Continuous
 62
     7
370
     9
100
AcDbCircle
 10
2458.490034461463
 20
-1320.666546383425
 30
0.0
 40
2.5
  0
CIRCLE
  5
106
330
1F
100
AcDbEntity
  8
0-5_ダボ
  6
Continuous
 62
     7
370
     9
100
AcDbCircle
 10
2458.490034461463
 20
-1352.666546383426
 30
0.0
 40
2.5
  0
LINE
  5
107
330
1F
100
AcDbEntity
  8
0-1_本体
  6
Continuous
 62
    40
370
    15
100
AcDbLine
 10
2421.490034461465
 20
-1441.666546383426
 30
0.0
 11
2763.490034461463
 21
-1441.666546383426
 31
0.0
  0
LINE
  5
108
330
1F
100
AcDbEntity
  8
0-1_本体
  6
Continuous
 62
    40
370
    15
100
AcDbLine
 10
2766.490034461465
 20
-1456.666546383426
 30
0.0
 11
2421.490034461465
 21
-1456.666546383426
 31
0.0
  0
LINE
  5
109
330
1F
100
AcDbEntity
  8
0-B_寸法
  6
Continuous
 62
   120
370
     5
100
AcDbLine
 10
2149.490034554542
 20
-1456.666546383426
 30
0.0
 11
2249.49003455454
 21
-1456.666546383426
 31
0.0
  0
LWPOLYLINE
  5
10A
330
1F
100
AcDbEntity
  8
0-B_寸法
  6
Continuous
 62
     7
370
     9
100
AcDbPolyline
 90
        4
 70
     1
 43
2.0
 10
2150.490034554542
 20
-1456.666546383426
 42
0.4142135623731
 10
2149.490034554542
 20
-1455.666546383426
 42
0.4142135623731
 10
2148.490034554542
 20
-1456.666546383426
 42
0.4142135623731
 10
2149.490034554542
 20
-1457.666546383426
 42
0.4142135623731
  0
MTEXT
  5
10B
330
1F
100
AcDbEntity
  8
0-B_寸法
  6
Continuous
 62
     7
370
   211
100
AcDbMText
 10
2239.49003455454
 20
-1448.806546383426
 30
0.0
 40
45.72
 41
90.0
 46
0.0
 71
     7
 72
     1
  1
{\fＭＳ ゴシック|b0|i0|c128|p49;120}
 11
6.123031769111886E-17
 21
1.0
 31
0.0
 73
     1
 44
1.0
  0
LINE
  5
10C
330
1F
100
AcDbEntity
  8
0-B_寸法
  6
Continuous
 62
   120
370
     5
100
AcDbLine
 10
2249.49003455454
 20
-1456.666546383426
 30
0.0
 11
2349.490034461463
 21
-1456.666546383426
 31
0.0
  0
LWPOLYLINE
  5
10D
330
1F
100
AcDbEntity
  8
0-B_寸法
  6
Continuous
 62
     7
370
     9
100
AcDbPolyline
 90
        4
 70
     1
 43
2.0
 10
2250.49003455454
 20
-1456.666546383426
 42
0.4142135623731
 10
2249.49003455454
 20
-1455.666546383426
 42
0.4142135623731
 10
2248.49003455454
 20
-1456.666546383426
 42
0.4142135623731
 10
2249.49003455454
 20
-1457.666546383426
 42
0.4142135623731
  0
LINE
  5
10E
330
1F
100
AcDbEntity
  8
0-B_寸法
  6
Continuous
 62
   120
370
     5
100
AcDbLine
 10
2249.49003455454
 20
-1336.666546383426
 30
0.0
 11
2249.49003455454
 21
-1456.666546383426
 31
0.0
  0
LINE
  5
10F
330
1F
100
AcDbEntity
  8
0-B_寸法
  6
Continuous
 62
   120
370
     5
100
AcDbLine
 10
2249.49003455454
 20
-1336.666546383426
 30
0.0
 11
2349.490034461463
 21
-1336.666546383426
 31
0.0
  0
LWPOLYLINE
  5
110
330
1F
100
AcDbEntity
  8
0-B_寸法
  6
Continuous
 62
     7
370
     9
100
AcDbPolyline
 90
        4
 70
     1
 43
2.0
 10
2250.49003455454
 20
-1336.666546383426
 42
0.4142135623731
 10
2249.49003455454
 20
-1335.666546383426
 42
0.4142135623731
 10
2248.49003455454
 20
-1336.666546383426
 42
0.4142135623731
 10
2249.49003455454
 20
-1337.666546383426
 42
0.4142135623731
  0
LINE
  5
111
330
1F
100
AcDbEntity
  8
0-B_寸法
  6
Continuous
 62
   120
370
     5
100
AcDbLine
 10
2049.490034554542
 20
-1453.666564941412
 30
0.0
 11
2149.490034554542
 21
-1453.666564941412
 31
0.0
  0
LWPOLYLINE
  5
112
330
1F
100
AcDbEntity
  8
0-B_寸法
  6
Continuous
 62
     7
370
     9
100
AcDbPolyline
 90
        4
 70
     1
 43
2.0
 10
2050.490034554542
 20
-1453.666564941412
 42
0.4142135623731
 10
2049.490034554542
 20
-1452.666564941412
 42
0.4142135623731
 10
2048.490034554542
 20
-1453.666564941412
 42
0.4142135623731
 10
2049.490034554542
 20
-1454.666564941412
 42
0.4142135623731
  0
LINE
  5
113
330
1F
100
AcDbEntity
  8
0-B_寸法
  6
Continuous
 62
   120
370
     5
100
AcDbLine
 10
2049.490034554542
 20
-1456.666564941412
 30
0.0
 11
2049.490034554542
 21
-1453.666564941412
 31
0.0
  0
MTEXT
  5
114
330
1F
100
AcDbEntity
  8
0-B_寸法
  6
Continuous
 62
     7
370
   211
100
AcDbMText
 10
2039.490034554542
 20
-1460.081154228911
 30
0.0
 40
45.72
 41
30.0
 46
0.0
 71
     7
 72
     1
  1
{\fＭＳ ゴシック|b0|i0|c128|p49;3}
 11
6.123031769111886E-17
 21
1.0
 31
0.0
 73
     1
 44
1.0
  0
LINE
  5
115
330
1F
100
AcDbEntity
  8
0-B_寸法
  6
Continuous
 62
   120
370
     5
100
AcDbLine
 10
2049.490034554542
 20
-1456.666564941412
 30
0.0
 11
2149.490034554542
 21
-1456.666564941412
 31
0.0
  0
LWPOLYLINE
  5
116
330
1F
100
AcDbEntity
  8
0-B_寸法
  6
Continuous
 62
     7
370
     9
100
AcDbPolyline
 90
        4
 70
     1
 43
2.0
 10
2050.490034554542
 20
-1456.666564941412
 42
0.4142135623731
 10
2049.490034554542
 20
-1455.666564941412
 42
0.4142135623731
 10
2048.490034554542
 20
-1456.666564941412
 42
0.4142135623731
 10
2049.490034554542
 20
-1457.666564941412
 42
0.4142135623731
  0
LINE
  5
117
330
1F
100
AcDbEntity
  8
0-B_寸法
  6
Continuous
 62
   120
370
     5
100
AcDbLine
 10
1949.490034554542
 20
-1456.666546383426
 30
0.0
 11
2049.490034554542
 21
-1456.666546383426
 31
0.0
  0
LWPOLYLINE
  5
118
330
1F
100
AcDbEntity
  8
0-B_寸法
  6
Continuous
 62
     7
370
     9
100
AcDbPolyline
 90
        4
 70
     1
 43
2.0
 10
1950.490034554541
 20
-1456.666546383426
 42
0.4142135623731
 10
1949.490034554542
 20
-1455.666546383426
 42
0.4142135623731
 10
1948.490034554542
 20
-1456.666546383426
 42
0.4142135623731
 10
1949.490034554542
 20
-1457.666546383426
 42
0.4142135623731
  0
LINE
  5
119
330
1F
100
AcDbEntity
  8
0-B_寸法
  6
Continuous
 62
   120
370
     5
100
AcDbLine
 10
2049.490034554542
 20
-1456.666546383426
 30
0.0
 11
2149.490034554542
 21
-1456.666546383426
 31
0.0
  0
CIRCLE
  5
11A
330
1F
100
AcDbEntity
  8
0-5_ダボ
  6
Continuous
 62
     7
370
     9
100
AcDbCircle
 10
2744.490034461463
 20
-852.1881553056807
 30
0.0
 40
2.5
  0
CIRCLE
  5
11B
330
1F
100
AcDbEntity
  8
0-5_ダボ
  6
Continuous
 62
     7
370
     9
100
AcDbCircle
 10
2744.490034461463
 20
-884.1881553056811
 30
0.0
 40
2.5
  0
CIRCLE
  5
11C
330
1F
100
AcDbEntity
  8
0-5_ダボ
  6
Continuous
 62
     7
370
     9
100
AcDbCircle
 10
2744.490034461463
 20
-916.1881553056816
 30
0.0
 40
2.5
  0
CIRCLE
  5
11D
330
1F
100
AcDbEntity
  8
0-5_ダボ
  6
Continuous
 62
     7
370
     9
100
AcDbCircle
 10
2744.490034461463
 20
-948.188155305682
 30
0.0
 40
2.5
  0
CIRCLE
  5
11E
330
1F
100
AcDbEntity
  8
0-5_ダボ
  6
Continuous
 62
     7
370
     9
100
AcDbCircle
 10
2744.490034461463
 20
-980.1881553056819
 30
0.0
 40
2.5
  0
CIRCLE
  5
11F
330
1F
100
AcDbEntity
  8
0-5_ダボ
  6
Continuous
 62
     7
370
     9
100
AcDbCircle
 10
2744.490034461463
 20
-1012.188155305682
 30
0.0
 40
2.5
  0
CIRCLE
  5
120
330
1F
100
AcDbEntity
  8
0-5_ダボ
  6
Continuous
 62
     7
370
     9
100
AcDbCircle
 10
2744.490034461463
 20
-1044.188155305681
 30
0.0
 40
2.5
  0
CIRCLE
  5
121
330
1F
100
AcDbEntity
  8
0-5_ダボ
  6
Continuous
 62
     7
370
     9
100
AcDbCircle
 10
2744.490034461463
 20
-1076.188155305681
 30
0.0
 40
2.5
  0
CIRCLE
  5
122
330
1F
100
AcDbEntity
  8
0-5_ダボ
  6
Continuous
 62
     7
370
     9
100
AcDbCircle
 10
2744.490034461463
 20
-1108.188155305682
 30
0.0
 40
2.5
  0
CIRCLE
  5
123
330
1F
100
AcDbEntity
  8
0-5_ダボ
  6
Continuous
 62
     7
370
     9
100
AcDbCircle
 10
2744.490034461463
 20
-1140.188155305682
 30
0.0
 40
2.5
  0
CIRCLE
  5
124
330
1F
100
AcDbEntity
  8
0-5_ダボ
  6
Continuous
 62
     7
370
     9
100
AcDbCircle
 10
2744.490034461463
 20
-1172.188155305683
 30
0.0
 40
2.5
  0
CIRCLE
  5
125
330
1F
100
AcDbEntity
  8
0-5_ダボ
  6
Continuous
 62
     7
370
     9
100
AcDbCircle
 10
2744.490034461463
 20
-1204.188155305681
 30
0.0
 40
2.5
  0
CIRCLE
  5
126
330
1F
100
AcDbEntity
  8
0-5_ダボ
  6
Continuous
 62
     7
370
     9
100
AcDbCircle
 10
2744.490034461463
 20
-1236.188155305682
 30
0.0
 40
2.5
  0
CIRCLE
  5
127
330
1F
100
AcDbEntity
  8
0-5_ダボ
  6
Continuous
 62
     7
370
     9
100
AcDbCircle
 10
2744.490034461463
 20
-1268.188155305682
 30
0.0
 40
2.5
  0
CIRCLE
  5
128
330
1F
100
AcDbEntity
  8
0-5_ダボ
  6
Continuous
 62
     7
370
     9
100
AcDbCircle
 10
2744.490034461463
 20
-1300.188155305682
 30
0.0
 40
2.5
  0
LINE
  5
129
330
1F
100
AcDbEntity
  8
0-4_棚
  6
Continuous
 62
    40
370
    15
100
AcDbLine
 10
2763.490034461463
 20
-837.6881553056802
 30
0.0
 11
2763.490034461463
 21
-849.6881553056807
 31
0.0
  0
LINE
  5
12A
330
1F
100
AcDbEntity
  8
0-4_棚
  6
Continuous
 62
    40
370
    15
100
AcDbLine
 10
2473.490034461463
 20
-837.6881553056802
 30
0.0
 11
2473.490034461463
 21
-849.6881553056807
 31
0.0
  0
LINE
  5
12B
330
1F
100
AcDbEntity
  8
0-4_棚
  6
Continuous
 62
    40
370
    15
100
AcDbLine
 10
2473.490034461463
 20
-849.6881553056807
 30
0.0
 11
2763.490034461463
 21
-849.6881553056807
 31
0.0
  0
LINE
  5
12C
330
1F
100
AcDbEntity
  8
0-4_棚
  6
Continuous
 62
    40
370
    15
100
AcDbLine
 10
2473.490034461463
 20
-837.6881553056802
 30
0.0
 11
2763.490034461463
 21
-837.6881553056802
 31
0.0
  0
LINE
  5
12D
330
1F
100
AcDbEntity
  8
0-4_棚
  6
Continuous
 62
    40
370
    15
100
AcDbLine
 10
2763.490034461463
 20
-1029.688155305682
 30
0.0
 11
2763.490034461463
 21
-1041.688155305681
 31
0.0
  0
LINE
  5
12E
330
1F
100
AcDbEntity
  8
0-4_棚
  6
Continuous
 62
    40
370
    15
100
AcDbLine
 10
2473.490034461463
 20
-1029.688155305682
 30
0.0
 11
2473.490034461463
 21
-1041.688155305681
 31
0.0
  0
LINE
  5
12F
330
1F
100
AcDbEntity
  8
0-4_棚
  6
Continuous
 62
    40
370
    15
100
AcDbLine
 10
2473.490034461463
 20
-1041.688155305681
 30
0.0
 11
2763.490034461463
 21
-1041.688155305681
 31
0.0
  0
LINE
  5
130
330
1F
100
AcDbEntity
  8
0-4_棚
  6
Continuous
 62
    40
370
    15
100
AcDbLine
 10
2473.490034461463
 20
-1029.688155305682
 30
0.0
 11
2763.490034461463
 21
-1029.688155305682
 31
0.0
  0
LINE
  5
131
330
1F
100
AcDbEntity
  8
0-4_棚
  6
Continuous
 62
    40
370
    15
100
AcDbLine
 10
2473.490034461463
 20
-1221.689054349241
 30
0.0
 11
2473.490034461463
 21
-1233.68905434924
 31
0.0
  0
LINE
  5
132
330
1F
100
AcDbEntity
  8
0-4_棚
  6
Continuous
 62
    40
370
    15
100
AcDbLine
 10
2473.490034461463
 20
-1221.689054349241
 30
0.0
 11
2763.490034461463
 21
-1221.689054349241
 31
0.0
  0
LINE
  5
133
330
1F
100
AcDbEntity
  8
0-4_棚
  6
Continuous
 62
    40
370
    15
100
AcDbLine
 10
2473.490034461463
 20
-1233.68905434924
 30
0.0
 11
2763.490034461463
 21
-1233.68905434924
 31
0.0
  0
LINE
  5
134
330
1F
100
AcDbEntity
  8
0-4_棚
  6
Continuous
 62
    40
370
    15
100
AcDbLine
 10
2763.490034461463
 20
-1221.689054349241
 30
0.0
 11
2763.490034461463
 21
-1233.68905434924
 31
0.0
  0
LINE
  5
135
330
1F
100
AcDbEntity
  8
0-0_補助線
  6
JWW_HOJO
 62
     7
370
     9
100
AcDbLine
 10
2409.204319543181
 20
-1044.166546383424
 30
0.0
 11
2766.490034434872
 21
-1044.166546383424
 31
0.0
  0
LINE
  5
136
330
1F
100
AcDbEntity
  8
0-0_補助線
  6
JWW_HOJO
 62
     7
370
     9
100
AcDbLine
 10
2406.918605355138
 20
-1012.166546383426
 30
0.0
 11
2766.490034431547
 21
-1012.166546383426
 31
0.0
  0
LINE
  5
137
330
1F
100
AcDbEntity
  8
0-0_補助線
  6
JWW_HOJO
 62
     7
370
     9
100
AcDbLine
 10
2404.632891167096
 20
-980.1665463834252
 30
0.0
 11
2766.490034428223
 21
-980.1665463834252
 31
0.0
  0
LINE
  5
138
330
1F
100
AcDbEntity
  8
0-0_補助線
  6
JWW_HOJO
 62
     7
370
     9
100
AcDbLine
 10
2402.347176979054
 20
-948.1665463834253
 30
0.0
 11
2766.490034424899
 21
-948.1665463834253
 31
0.0
  0
LINE
  5
139
330
1F
100
AcDbEntity
  8
0-0_補助線
  6
JWW_HOJO
 62
     7
370
     9
100
AcDbLine
 10
2400.061462791012
 20
-916.1665463834248
 30
0.0
 11
2766.490034421575
 21
-916.1665463834248
 31
0.0
  0
LINE
  5
13A
330
1F
100
AcDbEntity
  8
0-0_補助線
  6
JWW_HOJO
 62
     7
370
     9
100
AcDbLine
 10
2397.77574860297
 20
-884.1665463834244
 30
0.0
 11
2766.490034418251
 21
-884.1665463834244
 31
0.0
  0
LINE
  5
13B
330
1F
100
AcDbEntity
  8
0-0_補助線
  6
JWW_HOJO
 62
     7
370
     9
100
AcDbLine
 10
2419.204318859482
 20
-1268.166546383426
 30
0.0
 11
2766.490034458141
 21
-1268.166546383426
 31
0.0
  0
LINE
  5
13C
330
1F
100
AcDbEntity
  8
0-0_補助線
  6
JWW_HOJO
 62
     7
370
     9
100
AcDbLine
 10
2416.918604671439
 20
-1236.166546383425
 30
0.0
 11
2766.490034454817
 21
-1236.166546383425
 31
0.0
  0
LINE
  5
13D
330
1F
100
AcDbEntity
  8
0-0_補助線
  6
JWW_HOJO
 62
     7
370
     9
100
AcDbLine
 10
2414.632890483397
 20
-1204.166546383426
 30
0.0
 11
2766.490034451493
 21
-1204.166546383426
 31
0.0
  0
LINE
  5
13E
330
1F
100
AcDbEntity
  8
0-0_補助線
  6
JWW_HOJO
 62
     7
370
     9
100
AcDbLine
 10
2412.347176295355
 20
-1172.166546383426
 30
0.0
 11
2766.490034448168
 21
-1172.166546383426
 31
0.0
  0
LINE
  5
13F
330
1F
100
AcDbEntity
  8
0-0_補助線
  6
JWW_HOJO
 62
     7
370
     9
100
AcDbLine
 10
2410.061462107313
 20
-1140.166546383425
 30
0.0
 11
2766.490034444844
 21
-1140.166546383425
 31
0.0
  0
LINE
  5
140
330
1F
100
AcDbEntity
  8
0-0_補助線
  6
JWW_HOJO
 62
     7
370
     9
100
AcDbLine
 10
2407.775747919271
 20
-1108.166546383425
 30
0.0
 11
2766.49003444152
 21
-1108.166546383425
 31
0.0
  0
LINE
  5
141
330
1F
100
AcDbEntity
  8
0-0_補助線
  6
JWW_HOJO
 62
     7
370
     9
100
AcDbLine
 10
2405.490033731224
 20
-1076.166546383425
 30
0.0
 11
2766.490034438196
 21
-1076.166546383425
 31
0.0
  0
MTEXT
  5
142
330
1F
100
AcDbEntity
  8
0-B_寸法
  6
Continuous
 62
     7
370
   211
100
AcDbMText
 10
2139.490034554542
 20
-1128.306546383425
 30
0.0
 40
45.72
 41
90.0
 46
0.0
 71
     7
 72
     1
  1
{\fＭＳ ゴシック|b0|i0|c128|p49;448}
 11
6.123031769111886E-17
 21
1.0
 31
0.0
 73
     1
 44
1.0
  0
LINE
  5
143
330
1F
100
AcDbEntity
  8
0-B_寸法
  6
Continuous
 62
   120
370
     5
100
AcDbLine
 10
2149.490034554542
 20
-852.1665463834256
 30
0.0
 11
2249.49003455454
 21
-852.1665463834256
 31
0.0
  0
LWPOLYLINE
  5
144
330
1F
100
AcDbEntity
  8
0-B_寸法
  6
Continuous
 62
     7
370
     9
100
AcDbPolyline
 90
        4
 70
     1
 43
2.0
 10
2150.490034554542
 20
-852.1665463834256
 42
0.4142135623731
 10
2149.490034554542
 20
-851.1665463834256
 42
0.4142135623731
 10
2148.490034554542
 20
-852.1665463834256
 42
0.4142135623731
 10
2149.490034554542
 20
-853.1665463834256
 42
0.4142135623731
  0
LINE
  5
145
330
1F
100
AcDbEntity
  8
0-B_寸法
  6
Continuous
 62
   120
370
     5
100
AcDbLine
 10
2149.490034554542
 20
-1300.166546383426
 30
0.0
 11
2149.490034554542
 21
-852.1665463834256
 31
0.0
  0
LINE
  5
146
330
1F
100
AcDbEntity
  8
0-B_寸法
  6
Continuous
 62
   120
370
     5
100
AcDbLine
 10
2149.490034554542
 20
-1300.166546383426
 30
0.0
 11
2249.49003455454
 21
-1300.166546383426
 31
0.0
  0
LWPOLYLINE
  5
147
330
1F
100
AcDbEntity
  8
0-B_寸法
  6
Continuous
 62
     7
370
     9
100
AcDbPolyline
 90
        4
 70
     1
 43
2.0
 10
2150.490034554542
 20
-1300.166546383426
 42
0.4142135623731
 10
2149.490034554542
 20
-1299.166546383426
 42
0.4142135623731
 10
2148.490034554542
 20
-1300.166546383426
 42
0.4142135623731
 10
2149.490034554542
 20
-1301.166546383426
 42
0.4142135623731
  0
LINE
  5
148
330
1F
100
AcDbEntity
  8
0-B_寸法
  6
Continuous
 62
   120
370
     5
100
AcDbLine
 10
2149.490034554542
 20
-1456.666546383426
 30
0.0
 11
2149.490034554542
 21
-1300.166546383426
 31
0.0
  0
LINE
  5
149
330
1F
100
AcDbEntity
  8
0-0_補助線
  6
JWW_HOJO
 62
     7
370
     9
100
AcDbLine
 10
2259.737476005096
 20
-852.1665463834256
 30
0.0
 11
2766.490034414926
 21
-852.1665463834256
 31
0.0
  0
LINE
  5
14A
330
1F
100
AcDbEntity
  8
0-0_補助線
  6
JWW_HOJO
 62
     7
370
     9
100
AcDbLine
 10
2766.490034461465
 20
-1300.166566178611
 30
0.0
 11
2177.424953394978
 21
-1300.166566178611
 31
0.0
  0
CIRCLE
  5
14B
330
1F
100
AcDbEntity
  8
0-5_ダボ
  6
Continuous
 62
     7
370
     9
100
AcDbCircle
 10
2458.490034461463
 20
-799.6665463834239
 30
0.0
 40
2.5
  0
CIRCLE
  5
14C
330
1F
100
AcDbEntity
  8
0-5_ダボ
  6
Continuous
 62
     7
370
     9
100
AcDbCircle
 10
2458.490034461463
 20
-831.6665463834261
 30
0.0
 40
2.5
  0
LINE
  5
14D
330
1F
100
AcDbEntity
  8
0-0_補助線
  6
JWW_HOJO
 62
     7
370
     9
100
AcDbLine
 10
2744.490034461463
 20
-1448.666546383425
 30
0.0
 11
2744.490034461463
 21
-695.6665463834247
 31
0.0
  0
LINE
  5
14E
330
1F
100
AcDbEntity
  8
0-B_寸法
  6
Continuous
 62
   120
370
     5
100
AcDbLine
 10
1949.490034554542
 20
-695.6665463834247
 30
0.0
 11
2349.490034574309
 21
-695.6665463834247
 31
0.0
  0
LWPOLYLINE
  5
14F
330
1F
100
AcDbEntity
  8
0-B_寸法
  6
Continuous
 62
     7
370
     9
100
AcDbPolyline
 90
        4
 70
     1
 43
2.0
 10
2150.490034554542
 20
-695.6665463834247
 42
0.4142135623731
 10
2149.490034554542
 20
-694.6665463834247
 42
0.4142135623731
 10
2148.490034554542
 20
-695.6665463834247
 42
0.4142135623731
 10
2149.490034554542
 20
-696.6665463834247
 42
0.4142135623731
  0
LINE
  5
150
330
1F
100
AcDbEntity
  8
0-B_寸法
  6
Continuous
 62
   120
370
     5
100
AcDbLine
 10
2149.490034554542
 20
-852.1665463834256
 30
0.0
 11
2149.490034554542
 21
-695.6665463834247
 31
0.0
  0
LINE
  5
151
330
1F
100
AcDbEntity
  8
0-B_寸法
  6
Continuous
 62
   120
370
     5
100
AcDbLine
 10
2249.49003455454
 20
-815.6665463834253
 30
0.0
 11
2249.49003455454
 21
-1336.666546383426
 31
0.0
  0
MTEXT
  5
152
330
1F
100
AcDbEntity
  8
0-B_寸法
  6
Continuous
 62
     7
370
   211
100
AcDbMText
 10
2239.49003455454
 20
-807.8065463834247
 30
0.0
 40
45.72
 41
90.0
 46
0.0
 71
     7
 72
     1
  1
{\fＭＳ ゴシック|b0|i0|c128|p49;120}
 11
6.123031769111886E-17
 21
1.0
 31
0.0
 73
     1
 44
1.0
  0
LINE
  5
153
330
1F
100
AcDbEntity
  8
0-B_寸法
  6
Continuous
 62
   120
370
     5
100
AcDbLine
 10
2249.49003455454
 20
-815.6665463834253
 30
0.0
 11
2349.490034461463
 21
-815.6665463834253
 31
0.0
  0
LWPOLYLINE
  5
154
330
1F
100
AcDbEntity
  8
0-B_寸法
  6
Continuous
 62
     7
370
     9
100
AcDbPolyline
 90
        4
 70
     1
 43
2.0
 10
2250.49003455454
 20
-815.6665463834253
 42
0.4142135623731
 10
2249.49003455454
 20
-814.6665463834254
 42
0.4142135623731
 10
2248.49003455454
 20
-815.6665463834253
 42
0.4142135623731
 10
2249.49003455454
 20
-816.6665463834252
 42
0.4142135623731
  0
LWPOLYLINE
  5
155
330
1F
100
AcDbEntity
  8
0-B_寸法
  6
Continuous
 62
     7
370
     9
100
AcDbPolyline
 90
        4
 70
     1
 43
2.0
 10
2250.49003455454
 20
-695.6665463834247
 42
0.4142135623731
 10
2249.49003455454
 20
-694.6665463834247
 42
0.4142135623731
 10
2248.49003455454
 20
-695.6665463834247
 42
0.4142135623731
 10
2249.49003455454
 20
-696.6665463834247
 42
0.4142135623731
  0
LINE
  5
156
330
1F
100
AcDbEntity
  8
0-B_寸法
  6
Continuous
 62
   120
370
     5
100
AcDbLine
 10
2249.49003455454
 20
-695.6665463834247
 30
0.0
 11
2249.49003455454
 21
-815.6665463834253
 31
0.0
  0
LINE
  5
157
330
1F
100
AcDbEntity
  8
0-B_寸法
  6
Continuous
 62
   120
370
     5
100
AcDbLine
 10
2049.490034554542
 20
-1453.666564941412
 30
0.0
 11
2049.490034554542
 21
-698.6665265882402
 31
0.0
  0
LINE
  5
158
330
1F
100
AcDbEntity
  8
0-B_寸法
  6
Continuous
 62
   120
370
     5
100
AcDbLine
 10
2049.490034554542
 20
-698.6665265882402
 30
0.0
 11
2049.490034554542
 21
-695.666526588239
 31
0.0
  0
LINE
  5
159
330
1F
100
AcDbEntity
  8
0-B_寸法
  6
Continuous
 62
   120
370
     5
100
AcDbLine
 10
2049.490034554542
 20
-698.6665265882402
 30
0.0
 11
2149.490034554542
 21
-698.6665265882402
 31
0.0
  0
LWPOLYLINE
  5
15A
330
1F
100
AcDbEntity
  8
0-B_寸法
  6
Continuous
 62
     7
370
     9
100
AcDbPolyline
 90
        4
 70
     1
 43
2.0
 10
2050.490034554542
 20
-698.6665265882402
 42
0.4142135623731
 10
2049.490034554542
 20
-697.6665265882402
 42
0.4142135623731
 10
2048.490034554542
 20
-698.6665265882402
 42
0.4142135623731
 10
2049.490034554542
 20
-699.6665265882402
 42
0.4142135623731
  0
MTEXT
  5
15B
330
1F
100
AcDbEntity
  8
0-B_寸法
  6
Continuous
 62
     7
370
   211
100
AcDbMText
 10
2039.490034554542
 20
-736.0574893622027
 30
0.0
 40
45.72
 41
30.0
 46
0.0
 71
     7
 72
     1
  1
{\fＭＳ ゴシック|b0|i0|c128|p49;3}
 11
6.123031769111886E-17
 21
1.0
 31
0.0
 73
     1
 44
1.0
  0
LINE
  5
15C
330
1F
100
AcDbEntity
  8
0-B_寸法
  6
Continuous
 62
   120
370
     5
100
AcDbLine
 10
2049.490034554542
 20
-695.666526588239
 30
0.0
 11
2149.490034554542
 21
-695.666526588239
 31
0.0
  0
LWPOLYLINE
  5
15D
330
1F
100
AcDbEntity
  8
0-B_寸法
  6
Continuous
 62
     7
370
     9
100
AcDbPolyline
 90
        4
 70
     1
 43
2.0
 10
2050.490034554542
 20
-695.666526588239
 42
0.4142135623731
 10
2049.490034554542
 20
-694.6665265882391
 42
0.4142135623731
 10
2048.490034554542
 20
-695.666526588239
 42
0.4142135623731
 10
2049.490034554542
 20
-696.6665265882389
 42
0.4142135623731
  0
LINE
  5
15E
330
1F
100
AcDbEntity
  8
0-B_寸法
  6
Continuous
 62
   120
370
     5
100
AcDbLine
 10
1949.490034554542
 20
-1456.666546383426
 30
0.0
 11
1949.490034554542
 21
-665.666566178611
 31
0.0
  0
LINE
  5
15F
330
1F
100
AcDbEntity
  8
0-B_寸法
  6
Continuous
 62
   120
370
     5
100
AcDbLine
 10
1949.490034554542
 20
-695.666526588239
 30
0.0
 11
2049.490034554542
 21
-695.666526588239
 31
0.0
  0
LWPOLYLINE
  5
160
330
1F
100
AcDbEntity
  8
0-B_寸法
  6
Continuous
 62
     7
370
     9
100
AcDbPolyline
 90
        4
 70
     1
 43
2.0
 10
1950.490034554541
 20
-695.666526588239
 42
0.4142135623731
 10
1949.490034554542
 20
-694.6665265882391
 42
0.4142135623731
 10
1948.490034554542
 20
-695.666526588239
 42
0.4142135623731
 10
1949.490034554542
 20
-696.6665265882389
 42
0.4142135623731
  0
MTEXT
  5
161
330
1F
100
AcDbEntity
  8
0-B_寸法
  6
Continuous
 62
     7
370
   211
100
AcDbMText
 10
2139.490034554542
 20
-867.8065463834247
 30
0.0
 40
45.72
 41
150.0
 46
0.0
 71
     7
 72
     1
  1
{\fＭＳ ゴシック|b0|i0|c128|p49;156.5}
 11
6.123031769111886E-17
 21
1.0
 31
0.0
 73
     1
 44
1.0
  0
MTEXT
  5
162
330
1F
100
AcDbEntity
  8
0-B_寸法
  6
Continuous
 62
     7
370
   211
100
AcDbMText
 10
2139.490034554542
 20
-1448.806546383426
 30
0.0
 40
45.72
 41
150.0
 46
0.0
 71
     7
 72
     1
  1
{\fＭＳ ゴシック|b0|i0|c128|p49;156.5}
 11
6.123031769111886E-17
 21
1.0
 31
0.0
 73
     1
 44
1.0
  0
MTEXT
  5
163
330
1F
100
AcDbEntity
  8
0-B_寸法
  6
Continuous
 62
     7
370
   211
100
AcDbMText
 10
2039.490034554542
 20
-1218.306468204224
 30
0.0
 40
45.71999999999999
 41
270.0
 46
0.0
 71
     7
 72
     1
  1
{\fＭＳ ゴシック|b0|i0|c128|p49;ＤＨ＝755}
 11
6.123031769111886E-17
 21
1.0
 31
0.0
 73
     1
 44
1.0
  0
MTEXT
  5
164
330
1F
100
AcDbEntity
  8
0-B_寸法
  6
Continuous
 62
     7
370
   211
100
AcDbMText
 10
1939.490034554542
 20
-1128.306556281019
 30
0.0
 40
45.72
 41
90.0
 46
0.0
 71
     7
 72
     1
  1
{\fＭＳ ゴシック|b0|i0|c128|p49;761}
 11
6.123031769111886E-17
 21
1.0
 31
0.0
 73
     1
 44
1.0
  0
LINE
  5
165
330
1F
100
AcDbEntity
  8
0-6_桟木
  6
Continuous
 62
    92
370
    13
100
AcDbLine
 10
2763.490034461463
 20
-1441.666546383426
 30
0.0
 11
2763.490034461463
 21
-1377.666546383426
 31
0.0
  0
LINE
  5
166
330
1F
100
AcDbEntity
  8
0-6_桟木
  6
Continuous
 62
    92
370
    13
100
AcDbLine
 10
2763.490034461463
 20
-1377.666546383426
 30
0.0
 11
2748.490034461463
 21
-1377.666546383426
 31
0.0
  0
LINE
  5
167
330
1F
100
AcDbEntity
  8
0-6_桟木
  6
Continuous
 62
    92
370
    13
100
AcDbLine
 10
2748.490034461463
 20
-1377.666546383426
 30
0.0
 11
2748.490034461463
 21
-1441.666546383426
 31
0.0
  0
LINE
  5
168
330
1F
100
AcDbEntity
  8
0-6_桟木
  6
Continuous
 62
    92
370
    13
100
AcDbLine
 10
2748.490034461463
 20
-1441.666546383426
 30
0.0
 11
2763.490034461463
 21
-1441.666546383426
 31
0.0
  0
CIRCLE
  5
169
330
1F
100
AcDbEntity
  8
0-6_桟木
  6
Continuous
 62
     7
370
     9
100
AcDbCircle
 10
2755.990034461463
 20
-1393.666546383427
 30
0.0
 40
4.0
  0
CIRCLE
  5
16A
330
1F
100
AcDbEntity
  8
0-6_桟木
  6
Continuous
 62
     7
370
     9
100
AcDbCircle
 10
2755.990034461463
 20
-1425.666546383426
 30
0.0
 40
4.0
  0
LINE
  5
16B
330
1F
100
AcDbEntity
  8
0-6_桟木
  6
Continuous
 62
    92
370
    13
100
AcDbLine
 10
2763.490034461463
 20
-774.6665463834256
 30
0.0
 11
2763.490034461463
 21
-710.6665463834253
 31
0.0
  0
LINE
  5
16C
330
1F
100
AcDbEntity
  8
0-6_桟木
  6
Continuous
 62
    92
370
    13
100
AcDbLine
 10
2763.490034461463
 20
-710.6665463834253
 30
0.0
 11
2748.490034461463
 21
-710.6665463834253
 31
0.0
  0
LINE
  5
16D
330
1F
100
AcDbEntity
  8
0-6_桟木
  6
Continuous
 62
    92
370
    13
100
AcDbLine
 10
2748.490034461463
 20
-710.6665463834253
 30
0.0
 11
2748.490034461463
 21
-774.6665463834256
 31
0.0
  0
LINE
  5
16E
330
1F
100
AcDbEntity
  8
0-6_桟木
  6
Continuous
 62
    92
370
    13
100
AcDbLine
 10
2748.490034461463
 20
-774.6665463834256
 30
0.0
 11
2763.490034461463
 21
-774.6665463834256
 31
0.0
  0
CIRCLE
  5
16F
330
1F
100
AcDbEntity
  8
0-6_桟木
  6
Continuous
 62
     7
370
     9
100
AcDbCircle
 10
2755.990034461463
 20
-726.6665463834244
 30
0.0
 40
4.0
  0
CIRCLE
  5
170
330
1F
100
AcDbEntity
  8
0-6_桟木
  6
Continuous
 62
     7
370
     9
100
AcDbCircle
 10
2755.990034461463
 20
-758.6665463834248
 30
0.0
 40
4.0
  0
MTEXT
  5
171
330
1F
100
AcDbEntity
  8
0-B_寸法
  6
Continuous
 62
     7
370
   211
100
AcDbMText
 10
2572.742167262388
 20
-970.1594886700411
 30
0.0
 40
45.72
 41
90.0
 46
0.0
 71
     7
 72
     1
  1
{\fＭＳ ゴシック|b0|i0|c128|p49;P32}
 73
     1
 44
1.0
  0
LWPOLYLINE
  5
172
330
1F
100
AcDbEntity
  8
0-B_寸法
  6
Continuous
 62
     7
370
     9
100
AcDbPolyline
 90
        4
 70
     1
 43
2.0
 10
2557.490034461465
 20
-948.166546383423
 42
0.4142135623731
 10
2556.490034461465
 20
-947.1665463834231
 42
0.4142135623731
 10
2555.490034461465
 20
-948.166546383423
 42
0.4142135623731
 10
2556.490034461465
 20
-949.1665463834229
 42
0.4142135623731
  0
LWPOLYLINE
  5
173
330
1F
100
AcDbEntity
  8
0-B_寸法
  6
Continuous
 62
     7
370
     9
100
AcDbPolyline
 90
        4
 70
     1
 43
2.0
 10
2557.490034461465
 20
-916.1665463834242
 42
0.4142135623731
 10
2556.490034461465
 20
-915.1665463834242
 42
0.4142135623731
 10
2555.490034461465
 20
-916.1665463834242
 42
0.4142135623731
 10
2556.490034461465
 20
-917.1665463834242
 42
0.4142135623731
  0
LINE
  5
174
330
1F
100
AcDbEntity
  8
0-B_寸法
  6
Continuous
 62
   120
370
     5
100
AcDbLine
 10
2556.490034461465
 20
-916.1665463834242
 30
0.0
 11
2556.490034461465
 21
-948.166546383423
 31
0.0
  0
LINE
  5
175
330
1F
100
AcDbEntity
  8
0-B_寸法
  6
Continuous
 62
   120
370
     5
100
AcDbLine
 10
2556.490034461465
 20
-948.166546383423
 30
0.0
 11
2506.490034461465
 21
-948.166546383423
 31
0.0
  0
LINE
  5
176
330
1F
100
AcDbEntity
  8
0-B_寸法
  6
Continuous
 62
   120
370
     5
100
AcDbLine
 10
2556.490034461465
 20
-916.1665463834242
 30
0.0
 11
2506.490034461465
 21
-916.1665463834242
 31
0.0
  0
CIRCLE
  5
177
330
1F
100
AcDbEntity
  8
0-5_ダボ
  6
Continuous
 62
     7
370
     9
100
AcDbCircle
 10
2488.490034461463
 20
-852.1881553056807
 30
0.0
 40
2.5
  0
CIRCLE
  5
178
330
1F
100
AcDbEntity
  8
0-5_ダボ
  6
Continuous
 62
     7
370
     9
100
AcDbCircle
 10
2488.490034461463
 20
-884.1881553056811
 30
0.0
 40
2.5
  0
CIRCLE
  5
179
330
1F
100
AcDbEntity
  8
0-5_ダボ
  6
Continuous
 62
     7
370
     9
100
AcDbCircle
 10
2488.490034461463
 20
-916.1881553056816
 30
0.0
 40
2.5
  0
CIRCLE
  5
17A
330
1F
100
AcDbEntity
  8
0-5_ダボ
  6
Continuous
 62
     7
370
     9
100
AcDbCircle
 10
2488.490034461463
 20
-948.188155305682
 30
0.0
 40
2.5
  0
CIRCLE
  5
17B
330
1F
100
AcDbEntity
  8
0-5_ダボ
  6
Continuous
 62
     7
370
     9
100
AcDbCircle
 10
2488.490034461463
 20
-980.1881553056819
 30
0.0
 40
2.5
  0
CIRCLE
  5
17C
330
1F
100
AcDbEntity
  8
0-5_ダボ
  6
Continuous
 62
     7
370
     9
100
AcDbCircle
 10
2488.490034461463
 20
-1012.188155305682
 30
0.0
 40
2.5
  0
CIRCLE
  5
17D
330
1F
100
AcDbEntity
  8
0-5_ダボ
  6
Continuous
 62
     7
370
     9
100
AcDbCircle
 10
2488.490034461463
 20
-1044.188155305681
 30
0.0
 40
2.5
  0
CIRCLE
  5
17E
330
1F
100
AcDbEntity
  8
0-5_ダボ
  6
Continuous
 62
     7
370
     9
100
AcDbCircle
 10
2488.490034461463
 20
-1076.188155305681
 30
0.0
 40
2.5
  0
CIRCLE
  5
17F
330
1F
100
AcDbEntity
  8
0-5_ダボ
  6
Continuous
 62
     7
370
     9
100
AcDbCircle
 10
2488.490034461463
 20
-1108.188155305682
 30
0.0
 40
2.5
  0
CIRCLE
  5
180
330
1F
100
AcDbEntity
  8
0-5_ダボ
  6
Continuous
 62
     7
370
     9
100
AcDbCircle
 10
2488.490034461463
 20
-1140.188155305682
 30
0.0
 40
2.5
  0
CIRCLE
  5
181
330
1F
100
AcDbEntity
  8
0-5_ダボ
  6
Continuous
 62
     7
370
     9
100
AcDbCircle
 10
2488.490034461463
 20
-1172.188155305683
 30
0.0
 40
2.5
  0
CIRCLE
  5
182
330
1F
100
AcDbEntity
  8
0-5_ダボ
  6
Continuous
 62
     7
370
     9
100
AcDbCircle
 10
2488.490034461463
 20
-1204.188155305681
 30
0.0
 40
2.5
  0
CIRCLE
  5
183
330
1F
100
AcDbEntity
  8
0-5_ダボ
  6
Continuous
 62
     7
370
     9
100
AcDbCircle
 10
2488.490034461463
 20
-1236.188155305682
 30
0.0
 40
2.5
  0
CIRCLE
  5
184
330
1F
100
AcDbEntity
  8
0-5_ダボ
  6
Continuous
 62
     7
370
     9
100
AcDbCircle
 10
2488.490034461463
 20
-1268.188155305682
 30
0.0
 40
2.5
  0
CIRCLE
  5
185
330
1F
100
AcDbEntity
  8
0-5_ダボ
  6
Continuous
 62
     7
370
     9
100
AcDbCircle
 10
2488.490034461463
 20
-1300.188155305682
 30
0.0
 40
2.5
  0
LINE
  5
186
330
1F
100
AcDbEntity
  8
0-0_補助線
  6
JWW_HOJO
 62
     7
370
     9
100
AcDbLine
 10
2488.490034461463
 20
-697.6665463834252
 30
0.0
 11
2488.490034461463
 21
-1456.666546383426
 31
0.0
  0
LINE
  5
187
330
1F
100
AcDbEntity
  8
0-1_本体
  6
Continuous
 62
    40
370
    15
100
AcDbLine
 10
2763.490034461463
 20
-710.6665463834253
 30
0.0
 11
2421.490034461465
 21
-710.6665463834253
 31
0.0
  0
LINE
  5
188
330
1F
100
AcDbEntity
  8
0-1_本体
  6
Continuous
 62
    40
370
    15
100
AcDbLine
 10
2421.490034461465
 20
-710.6665463834253
 30
0.0
 11
2421.490034461465
 21
-695.666526588239
 31
0.0
  0
MTEXT
  5
189
330
1F
100
AcDbEntity
  8
0-B_寸法
  6
Continuous
 62
     7
370
   211
100
AcDbMText
 10
2239.49003455454
 20
-1128.306566178611
 30
0.0
 40
45.72
 41
90.0
 46
0.0
 71
     7
 72
     1
  1
{\fＭＳ ゴシック|b0|i0|c128|p49;521}
 11
6.123031769111886E-17
 21
1.0
 31
0.0
 73
     1
 44
1.0
  0
LINE
  5
18A
330
1F
100
AcDbEntity
  8
0-1_本体
  6
Continuous
 62
    40
370
    15
100
AcDbLine
 10
2763.490034461463
 20
-1448.666546383425
 30
0.0
 11
2763.490034461463
 21
-703.6665463834265
 31
0.0
  0
LINE
  5
18B
330
1F
100
AcDbEntity
  8
0-1_本体
  6
Continuous
 62
    40
370
    15
100
AcDbLine
 10
2764.990034461469
 20
-1448.666546383425
 30
0.0
 11
2764.990034461469
 21
-703.6665463834265
 31
0.0
  0
LINE
  5
18C
330
1F
100
AcDbEntity
  8
0-1_本体
  6
Continuous
 62
    40
370
    15
100
AcDbLine
 10
2763.490034461463
 20
-703.6665463834265
 30
0.0
 11
2766.490034461465
 21
-703.6665463834265
 31
0.0
  0
LINE
  5
18D
330
1F
100
AcDbEntity
  8
0-1_本体
  6
Continuous
 62
     7
370
     9
100
AcDbLine
 10
2766.490034461465
 20
-1456.666546383426
 30
0.0
 11
2766.490034461465
 21
-695.6665463834247
 31
0.0
  0
LINE
  5
18E
330
1F
100
AcDbEntity
  8
0-1_本体
  6
Continuous
 62
    40
370
    15
100
AcDbLine
 10
2421.490034461465
 20
-695.6665463834253
 30
0.0
 11
2766.490034461465
 21
-695.6665463834253
 31
0.0
  0
MTEXT
  5
18F
330
1F
100
AcDbEntity
  8
0-B_寸法
  6
Continuous
 62
     7
370
   211
100
AcDbMText
 10
2428.990034461465
 20
-210.8065463834243
 30
0.0
 40
45.71999999999999
 41
300.0
 46
0.0
 71
     7
 72
     1
  1
{\fＭＳ ゴシック|b0|i0|c128|p49;ｶｳﾝﾀｰ＝375}
 73
     1
 44
1.0
  0
LINE
  5
190
330
1F
100
AcDbEntity
  8
0-B_寸法
  6
Continuous
 62
   120
370
     5
100
AcDbLine
 10
2391.490034461465
 20
-213.6665463834242
 30
0.0
 11
2391.490034461465
 21
-613.6665463834242
 31
0.0
  0
LINE
  5
191
330
1F
100
AcDbEntity
  8
0-B_寸法
  6
Continuous
 62
   120
370
     5
100
AcDbLine
 10
2766.490034461465
 20
-213.6665463834242
 30
0.0
 11
2391.490034461465
 21
-213.6665463834242
 31
0.0
  0
LWPOLYLINE
  5
192
330
1F
100
AcDbEntity
  8
0-B_寸法
  6
Continuous
 62
     7
370
     9
100
AcDbPolyline
 90
        4
 70
     1
 43
2.0
 10
2392.490034461465
 20
-213.6665463834242
 42
0.4142135623731
 10
2391.490034461465
 20
-212.6665463834242
 42
0.4142135623731
 10
2390.490034461465
 20
-213.6665463834242
 42
0.4142135623731
 10
2391.490034461465
 20
-214.6665463834242
 42
0.4142135623731
  0
LINE
  5
193
330
1F
100
AcDbEntity
  8
0-B_寸法
  6
Continuous
 62
   120
370
     5
100
AcDbLine
 10
2420.490034601083
 20
-413.6665463834242
 30
0.0
 11
2420.490034601083
 21
-613.6665463834242
 31
0.0
  0
LINE
  5
194
330
1F
100
AcDbEntity
  8
0-B_寸法
  6
Continuous
 62
   120
370
     5
100
AcDbLine
 10
2766.490034601082
 20
-413.6665463834242
 30
0.0
 11
2421.490034601082
 21
-413.6665463834242
 31
0.0
  0
LWPOLYLINE
  5
195
330
1F
100
AcDbEntity
  8
0-B_寸法
  6
Continuous
 62
     7
370
     9
100
AcDbPolyline
 90
        4
 70
     1
 43
2.0
 10
2767.490034601082
 20
-413.6665463834242
 42
0.4142135623731
 10
2766.490034601082
 20
-412.6665463834242
 42
0.4142135623731
 10
2765.490034601082
 20
-413.6665463834242
 42
0.4142135623731
 10
2766.490034601082
 20
-414.6665463834242
 42
0.4142135623731
  0
LWPOLYLINE
  5
196
330
1F
100
AcDbEntity
  8
0-B_寸法
  6
Continuous
 62
     7
370
     9
100
AcDbPolyline
 90
        4
 70
     1
 43
2.0
 10
2422.490034601082
 20
-413.6665463834242
 42
0.4142135623731
 10
2421.490034601082
 20
-412.6665463834242
 42
0.4142135623731
 10
2420.490034601082
 20
-413.6665463834242
 42
0.4142135623731
 10
2421.490034601082
 20
-414.6665463834242
 42
0.4142135623731
  0
LINE
  5
197
330
1F
100
AcDbEntity
  8
0-B_寸法
  6
Continuous
 62
   120
370
     5
100
AcDbLine
 10
2766.490034601082
 20
-413.6665463834242
 30
0.0
 11
2766.490034601082
 21
-513.6665463834242
 31
0.0
  0
LINE
  5
198
330
1F
100
AcDbEntity
  8
0-B_寸法
  6
Continuous
 62
   120
370
     5
100
AcDbLine
 10
2421.490034601082
 20
-413.6665463834242
 30
0.0
 11
2421.490034601082
 21
-513.6665463834242
 31
0.0
  0
MTEXT
  5
199
330
1F
100
AcDbEntity
  8
0-B_寸法
  6
Continuous
 62
     7
370
   211
100
AcDbMText
 10
2548.990034601082
 20
-410.8065463834243
 30
0.0
 40
45.71999999999986
 41
89.99999999999972
 46
0.0
 71
     7
 72
     1
  1
{\fＭＳ ゴシック|b0|i0|c128|p49;345}
 73
     1
 44
1.0
  0
LINE
  5
19A
330
1F
100
AcDbEntity
  8
0-B_寸法
  6
Continuous
 62
   120
370
     5
100
AcDbLine
 10
2421.490034601082
 20
-413.6665463834242
 30
0.0
 11
2420.490034601083
 21
-413.6665463834242
 31
0.0
  0
LWPOLYLINE
  5
19B
330
1F
100
AcDbEntity
  8
0-B_寸法
  6
Continuous
 62
     7
370
     9
100
AcDbPolyline
 90
        4
 70
     1
 43
2.0
 10
2421.490034601083
 20
-413.6665463834242
 42
0.4142135623731
 10
2420.490034601083
 20
-412.6665463834242
 42
0.4142135623731
 10
2419.490034601083
 20
-413.6665463834242
 42
0.4142135623731
 10
2420.490034601083
 20
-414.6665463834242
 42
0.4142135623731
  0
LWPOLYLINE
  5
19C
330
1F
100
AcDbEntity
  8
0-B_寸法
  6
Continuous
 62
     7
370
     9
100
AcDbPolyline
 90
        4
 70
     1
 43
2.0
 10
2767.490034461466
 20
-213.6665463834242
 42
0.4142135623731
 10
2766.490034461465
 20
-212.6665463834242
 42
0.4142135623731
 10
2765.490034461465
 20
-213.6665463834242
 42
0.4142135623731
 10
2766.490034461465
 20
-214.6665463834242
 42
0.4142135623731
  0
LINE
  5
19D
330
1F
100
AcDbEntity
  8
0-B_寸法
  6
Continuous
 62
   120
370
     5
100
AcDbLine
 10
2766.490034461465
 20
-213.6665463834242
 30
0.0
 11
2766.490034554543
 21
-413.6665463834242
 31
0.0
  0
MTEXT
  5
19E
330
1F
100
AcDbEntity
  8
0-B_寸法
  6
Continuous
 62
     7
370
   211
100
AcDbMText
 10
2405.99003460108
 20
-410.8065463834242
 30
0.0
 40
45.72
 41
30.0
 46
0.0
 71
     7
 72
     1
  1
{\fＭＳ ゴシック|b0|i0|c128|p49;1}
 73
     1
 44
1.0
  0
MTEXT
  5
19F
330
1F
100
AcDbEntity
  8
0-B_寸法
  6
Continuous
 62
     7
370
   211
100
AcDbMText
 10
2591.054363876362
 20
-510.8065463834251
 30
0.0
 40
45.72
 41
90.0
 46
0.0
 71
     7
 72
     1
  1
{\fＭＳ ゴシック|b0|i0|c128|p49;256}
 73
     1
 44
1.0
  0
MTEXT
  5
1A0
330
1F
100
AcDbEntity
  8
0-B_寸法
  6
Continuous
 62
     7
370
   211
100
AcDbMText
 10
2506.643136310907
 20
-510.8065463834252
 30
0.0
 40
45.71999999999978
 41
59.99999999999972
 46
0.0
 71
     7
 72
     1
  1
{\fＭＳ ゴシック|b0|i0|c128|p49;30}
 73
     1
 44
1.0
  0
LWPOLYLINE
  5
1A1
330
1F
100
AcDbEntity
  8
0-B_寸法
  6
Continuous
 62
     7
370
     9
100
AcDbPolyline
 90
        4
 70
     1
 43
2.0
 10
2489.490034461463
 20
-513.6665463834252
 42
0.4142135623731
 10
2488.490034461463
 20
-512.666546383425
 42
0.4142135623731
 10
2487.490034461463
 20
-513.6665463834252
 42
0.4142135623731
 10
2488.490034461463
 20
-514.6665463834252
 42
0.4142135623731
  0
LINE
  5
1A2
330
1F
100
AcDbEntity
  8
0-B_寸法
  6
Continuous
 62
   120
370
     5
100
AcDbLine
 10
2488.490034461463
 20
-513.6665463834252
 30
0.0
 11
2488.490034461463
 21
-613.6665463834252
 31
0.0
  0
LINE
  5
1A3
330
1F
100
AcDbEntity
  8
0-B_寸法
  6
Continuous
 62
   120
370
     5
100
AcDbLine
 10
2488.490034461463
 20
-513.6665463834252
 30
0.0
 11
2458.490034461463
 21
-513.6665463834252
 31
0.0
  0
LINE
  5
1A4
330
1F
100
AcDbEntity
  8
0-B_寸法
  6
Continuous
 62
   120
370
     5
100
AcDbLine
 10
2744.490034461463
 20
-513.6665463834252
 30
0.0
 11
2488.490034461463
 21
-513.6665463834252
 31
0.0
  0
LWPOLYLINE
  5
1A5
330
1F
100
AcDbEntity
  8
0-B_寸法
  6
Continuous
 62
     7
370
     9
100
AcDbPolyline
 90
        4
 70
     1
 43
2.0
 10
2767.490034414927
 20
-513.6665463834252
 42
0.4142135623731
 10
2766.490034414926
 20
-512.666546383425
 42
0.4142135623731
 10
2765.490034414926
 20
-513.6665463834252
 42
0.4142135623731
 10
2766.490034414926
 20
-514.6665463834252
 42
0.4142135623731
  0
LINE
  5
1A6
330
1F
100
AcDbEntity
  8
0-B_寸法
  6
Continuous
 62
   120
370
     5
100
AcDbLine
 10
2766.490034414926
 20
-513.6665463834252
 30
0.0
 11
2766.490034414926
 21
-613.6665463834252
 31
0.0
  0
LWPOLYLINE
  5
1A7
330
1F
100
AcDbEntity
  8
0-B_寸法
  6
Continuous
 62
     7
370
     9
100
AcDbPolyline
 90
        4
 70
     1
 43
2.0
 10
2459.490034461463
 20
-513.6665463834252
 42
0.4142135623731
 10
2458.490034461463
 20
-512.666546383425
 42
0.4142135623731
 10
2457.490034461463
 20
-513.6665463834252
 42
0.4142135623731
 10
2458.490034461463
 20
-514.6665463834252
 42
0.4142135623731
  0
LINE
  5
1A8
330
1F
100
AcDbEntity
  8
0-B_寸法
  6
Continuous
 62
   120
370
     5
100
AcDbLine
 10
2458.490034461463
 20
-513.6665463834252
 30
0.0
 11
2458.490034461463
 21
-613.6665463834252
 31
0.0
  0
LINE
  5
1A9
330
1F
100
AcDbEntity
  8
0-B_寸法
  6
Continuous
 62
   120
370
     5
100
AcDbLine
 10
2458.490034461463
 20
-513.6665463834252
 30
0.0
 11
2421.490034461465
 21
-513.6665463834252
 31
0.0
  0
LWPOLYLINE
  5
1AA
330
1F
100
AcDbEntity
  8
0-B_寸法
  6
Continuous
 62
     7
370
     9
100
AcDbPolyline
 90
        4
 70
     1
 43
2.0
 10
2422.490034461465
 20
-513.6665463834252
 42
0.4142135623731
 10
2421.490034461465
 20
-512.666546383425
 42
0.4142135623731
 10
2420.490034461465
 20
-513.6665463834252
 42
0.4142135623731
 10
2421.490034461465
 20
-514.6665463834252
 42
0.4142135623731
  0
LINE
  5
1AB
330
1F
100
AcDbEntity
  8
0-B_寸法
  6
Continuous
 62
   120
370
     5
100
AcDbLine
 10
2421.490034461465
 20
-513.6665463834252
 30
0.0
 11
2421.490034461465
 21
-613.6665463834252
 31
0.0
  0
LINE
  5
1AC
330
1F
100
AcDbEntity
  8
0-B_寸法
  6
Continuous
 62
   120
370
     5
100
AcDbLine
 10
2766.490034414926
 20
-513.6665463834252
 30
0.0
 11
2744.490034461463
 21
-513.6665463834252
 31
0.0
  0
LWPOLYLINE
  5
1AD
330
1F
100
AcDbEntity
  8
0-B_寸法
  6
Continuous
 62
     7
370
     9
100
AcDbPolyline
 90
        4
 70
     1
 43
2.0
 10
2745.490034461463
 20
-513.6665463834252
 42
0.4142135623731
 10
2744.490034461463
 20
-512.666546383425
 42
0.4142135623731
 10
2743.490034461463
 20
-513.6665463834252
 42
0.4142135623731
 10
2744.490034461463
 20
-514.6665463834252
 42
0.4142135623731
  0
LINE
  5
1AE
330
1F
100
AcDbEntity
  8
0-B_寸法
  6
Continuous
 62
   120
370
     5
100
AcDbLine
 10
2744.490034461463
 20
-513.6665463834252
 30
0.0
 11
2744.490034461463
 21
-613.6665463834252
 31
0.0
  0
MTEXT
  5
1AF
330
1F
100
AcDbEntity
  8
0-B_寸法
  6
Continuous
 62
     7
370
   211
100
AcDbMText
 10
2427.1100818822
 20
-510.8065463834251
 30
0.0
 40
45.72
 41
60.0
 46
0.0
 71
     7
 72
     1
  1
{\fＭＳ ゴシック|b0|i0|c128|p49;37}
 73
     1
 44
1.0
  0
MTEXT
  5
1B0
330
1F
100
AcDbEntity
  8
0-B_寸法
  6
Continuous
 62
     7
370
   211
100
AcDbMText
 10
2703.02757341119
 20
-510.8065463834251
 30
0.0
 40
45.72
 41
60.0
 46
0.0
 71
     7
 72
     1
  1
{\fＭＳ ゴシック|b0|i0|c128|p49;22}
 73
     1
 44
1.0
  0
LINE
  5
1B1
330
1F
100
AcDbEntity
  8
0-0_補助線
  6
JWW_HOJO
 62
     7
370
     9
100
AcDbLine
 10
2766.490034601082
 20
539.8334536165811
 30
0.0
 11
2421.490034601082
 21
539.8334536165811
 31
0.0
  0
LINE
  5
1B2
330
1F
100
AcDbEntity
  8
0-0_補助線
  6
JWW_HOJO
 62
     7
370
     9
100
AcDbLine
 10
2766.490034601082
 20
507.8334536165812
 30
0.0
 11
2421.490034601082
 21
507.8334536165812
 31
0.0
  0
LINE
  5
1B3
330
1F
100
AcDbEntity
  8
0-0_補助線
  6
JWW_HOJO
 62
     7
370
     9
100
AcDbLine
 10
2766.490034601082
 20
475.8334536165808
 30
0.0
 11
2421.490034601082
 21
475.8334536165808
 31
0.0
  0
LINE
  5
1B4
330
1F
100
AcDbEntity
  8
0-0_補助線
  6
JWW_HOJO
 62
     7
370
     9
100
AcDbLine
 10
2766.490034601082
 20
443.8334536165803
 30
0.0
 11
2421.490034601082
 21
443.8334536165803
 31
0.0
  0
LINE
  5
1B5
330
1F
100
AcDbEntity
  8
0-0_補助線
  6
JWW_HOJO
 62
     7
370
     9
100
AcDbLine
 10
2766.490034601082
 20
411.8334536165798
 30
0.0
 11
2421.490034601082
 21
411.8334536165798
 31
0.0
  0
LINE
  5
1B6
330
1F
100
AcDbEntity
  8
0-0_補助線
  6
JWW_HOJO
 62
     7
370
     9
100
AcDbLine
 10
2766.490034601082
 20
379.8334536165805
 30
0.0
 11
2421.490034601082
 21
379.8334536165805
 31
0.0
  0
LINE
  5
1B7
330
1F
100
AcDbEntity
  8
0-0_補助線
  6
JWW_HOJO
 62
     7
370
     9
100
AcDbLine
 10
2766.490034601082
 20
347.8334536165806
 30
0.0
 11
2421.490034601082
 21
347.8334536165806
 31
0.0
  0
LINE
  5
1B8
330
1F
100
AcDbEntity
  8
0-0_補助線
  6
JWW_HOJO
 62
     7
370
     9
100
AcDbLine
 10
2766.490034601082
 20
315.8334536165796
 30
0.0
 11
2421.490034601082
 21
315.8334536165796
 31
0.0
  0
LINE
  5
1B9
330
1F
100
AcDbEntity
  8
0-6_桟木
  6
Continuous
 62
    92
370
    13
100
AcDbLine
 10
2763.49003460108
 20
633.3334536165808
 30
0.0
 11
2763.49003460108
 21
697.3334536165811
 31
0.0
  0
LINE
  5
1BA
330
1F
100
AcDbEntity
  8
0-6_桟木
  6
Continuous
 62
    92
370
    13
100
AcDbLine
 10
2763.49003460108
 20
222.3334536165817
 30
0.0
 11
2763.49003460108
 21
158.3334536165808
 31
0.0
  0
LINE
  5
1BB
330
1F
100
AcDbEntity
  8
0-1_本体
  6
Continuous
 62
    40
370
    15
100
AcDbLine
 10
2766.490034601082
 20
712.3334536165811
 30
0.0
 11
2421.490034601082
 21
712.3334536165811
 31
0.0
  0
LINE
  5
1BC
330
1F
100
AcDbEntity
  8
0-1_本体
  6
Continuous
 62
    40
370
    15
100
AcDbLine
 10
2421.490034601082
 20
712.3334536165811
 30
0.0
 11
2421.490034601082
 21
697.3334536165811
 31
0.0
  0
LINE
  5
1BD
330
1F
100
AcDbEntity
  8
0-1_本体
  6
Continuous
 62
    40
370
    15
100
AcDbLine
 10
2763.49003460108
 20
704.3334536165816
 30
0.0
 11
2766.490034601082
 21
704.3334536165816
 31
0.0
  0
LINE
  5
1BE
330
1F
100
AcDbEntity
  8
0-1_本体
  6
Continuous
 62
    40
370
    15
100
AcDbLine
 10
2763.49003460108
 20
151.3334536165803
 30
0.0
 11
2763.49003460108
 21
704.3334536165816
 31
0.0
  0
LINE
  5
1BF
330
1F
100
AcDbEntity
  8
0-1_本体
  6
Continuous
 62
    40
370
    15
100
AcDbLine
 10
2764.990034601081
 20
151.3334536165803
 30
0.0
 11
2764.990034601081
 21
704.3334536165816
 31
0.0
  0
LINE
  5
1C0
330
1F
100
AcDbEntity
  8
0-1_本体
  6
Continuous
 62
    40
370
    15
100
AcDbLine
 10
2421.490034601082
 20
697.3334536165811
 30
0.0
 11
2763.49003460108
 21
697.3334536165811
 31
0.0
  0
LINE
  5
1C1
330
1F
100
AcDbEntity
  8
0-1_本体
  6
Continuous
 62
    40
370
    15
100
AcDbLine
 10
2766.490034601082
 20
143.3334536165808
 30
0.0
 11
2421.490034601082
 21
143.3334536165808
 31
0.0
  0
LINE
  5
1C2
330
1F
100
AcDbEntity
  8
0-1_本体
  6
Continuous
 62
    40
370
    15
100
AcDbLine
 10
2421.490034601082
 20
143.3334536165808
 30
0.0
 11
2421.490034601082
 21
158.3334536165808
 31
0.0
  0
LINE
  5
1C3
330
1F
100
AcDbEntity
  8
0-1_本体
  6
Continuous
 62
    40
370
    15
100
AcDbLine
 10
2421.490034601082
 20
158.3334536165808
 30
0.0
 11
2763.49003460108
 21
158.3334536165808
 31
0.0
  0
LINE
  5
1C4
330
1F
100
AcDbEntity
  8
0-1_本体
  6
Continuous
 62
    40
370
    15
100
AcDbLine
 10
2763.49003460108
 20
151.3334536165803
 30
0.0
 11
2766.490034601082
 21
151.3334536165803
 31
0.0
  0
LINE
  5
1C5
330
1F
100
AcDbEntity
  8
0-1_本体
  6
Continuous
 62
    40
370
    15
100
AcDbLine
 10
2766.490034601082
 20
154.3334536165821
 30
0.0
 11
2766.490034601082
 21
146.3334536165814
 31
0.0
  0
LINE
  5
1C6
330
1F
100
AcDbEntity
  8
0-1_本体
  6
Continuous
 62
    40
370
    15
100
AcDbLine
 10
2766.490034601082
 20
701.8334536165838
 30
0.0
 11
2766.490034601082
 21
709.8334536165834
 31
0.0
  0
LINE
  5
1C7
330
1F
100
AcDbEntity
  8
0-1_本体
  6
Continuous
 62
     7
370
     9
100
AcDbLine
 10
2766.490034601082
 20
707.3334536165817
 30
0.0
 11
2766.490034601082
 21
143.3334536165808
 31
0.0
  0
LINE
  5
1C8
330
1F
100
AcDbEntity
  8
0-4_棚
  6
Continuous
 62
    40
370
    15
100
AcDbLine
 10
2473.49003460108
 20
426.3334536165803
 30
0.0
 11
2473.49003460108
 21
414.3334536165816
 31
0.0
  0
LINE
  5
1C9
330
1F
100
AcDbEntity
  8
0-4_棚
  6
Continuous
 62
    40
370
    15
100
AcDbLine
 10
2473.49003460108
 20
426.3334536165803
 30
0.0
 11
2763.49003460108
 21
426.3334536165803
 31
0.0
  0
LINE
  5
1CA
330
1F
100
AcDbEntity
  8
0-4_棚
  6
Continuous
 62
    40
370
    15
100
AcDbLine
 10
2473.49003460108
 20
414.3334536165816
 30
0.0
 11
2763.49003460108
 21
414.3334536165816
 31
0.0
  0
LINE
  5
1CB
330
1F
100
AcDbEntity
  8
0-B_寸法
  6
JWW_HOJO
 62
     7
370
     9
100
AcDbLine
 10
2744.490034601084
 20
707.3334536165817
 30
0.0
 11
2744.490034601084
 21
143.3334536165808
 31
0.0
  0
CIRCLE
  5
1CC
330
1F
100
AcDbEntity
  8
0-5_ダボ
  6
Continuous
 62
     7
370
     9
100
AcDbCircle
 10
2744.490034601084
 20
539.8334536165811
 30
0.0
 40
2.5
  0
CIRCLE
  5
1CD
330
1F
100
AcDbEntity
  8
0-5_ダボ
  6
Continuous
 62
     7
370
     9
100
AcDbCircle
 10
2744.490034601084
 20
507.8334536165812
 30
0.0
 40
2.5
  0
CIRCLE
  5
1CE
330
1F
100
AcDbEntity
  8
0-5_ダボ
  6
Continuous
 62
     7
370
     9
100
AcDbCircle
 10
2744.490034601084
 20
475.8334536165808
 30
0.0
 40
2.5
  0
CIRCLE
  5
1CF
330
1F
100
AcDbEntity
  8
0-5_ダボ
  6
Continuous
 62
     7
370
     9
100
AcDbCircle
 10
2744.490034601084
 20
443.833453616582
 30
0.0
 40
2.5
  0
CIRCLE
  5
1D0
330
1F
100
AcDbEntity
  8
0-5_ダボ
  6
Continuous
 62
     7
370
     9
100
AcDbCircle
 10
2744.490034601084
 20
411.8334536165816
 30
0.0
 40
2.5
  0
CIRCLE
  5
1D1
330
1F
100
AcDbEntity
  8
0-5_ダボ
  6
Continuous
 62
     7
370
     9
100
AcDbCircle
 10
2744.490034601084
 20
379.8334536165805
 30
0.0
 40
2.5
  0
CIRCLE
  5
1D2
330
1F
100
AcDbEntity
  8
0-5_ダボ
  6
Continuous
 62
     7
370
     9
100
AcDbCircle
 10
2744.490034601084
 20
347.8334536165812
 30
0.0
 40
2.5
  0
CIRCLE
  5
1D3
330
1F
100
AcDbEntity
  8
0-5_ダボ
  6
Continuous
 62
     7
370
     9
100
AcDbCircle
 10
2744.490034601084
 20
315.8334536165808
 30
0.0
 40
2.5
  0
LINE
  5
1D4
330
1F
100
AcDbEntity
  8
0-B_寸法
  6
Continuous
 62
   120
370
     5
100
AcDbLine
 10
2766.490034601082
 20
862.3334536165817
 30
0.0
 11
2744.490034601084
 21
862.3334536165817
 31
0.0
  0
LWPOLYLINE
  5
1D5
330
1F
100
AcDbEntity
  8
0-B_寸法
  6
Continuous
 62
     7
370
     9
100
AcDbPolyline
 90
        4
 70
     1
 43
2.0
 10
2767.490034601082
 20
862.3334536165817
 42
0.4142135623731
 10
2766.490034601082
 20
863.3334536165817
 42
0.4142135623731
 10
2765.490034601082
 20
862.3334536165817
 42
0.4142135623731
 10
2766.490034601082
 20
861.3334536165817
 42
0.4142135623731
  0
LWPOLYLINE
  5
1D6
330
1F
100
AcDbEntity
  8
0-B_寸法
  6
Continuous
 62
     7
370
     9
100
AcDbPolyline
 90
        4
 70
     1
 43
2.0
 10
2745.490034601084
 20
862.3334536165817
 42
0.4142135623731
 10
2744.490034601084
 20
863.3334536165817
 42
0.4142135623731
 10
2743.490034601084
 20
862.3334536165817
 42
0.4142135623731
 10
2744.490034601084
 20
861.3334536165817
 42
0.4142135623731
  0
LINE
  5
1D7
330
1F
100
AcDbEntity
  8
0-B_寸法
  6
Continuous
 62
   120
370
     5
100
AcDbLine
 10
2766.490034601082
 20
862.3334536165817
 30
0.0
 11
2766.490034601082
 21
762.3334536165817
 31
0.0
  0
LINE
  5
1D8
330
1F
100
AcDbEntity
  8
0-B_寸法
  6
Continuous
 62
   120
370
     5
100
AcDbLine
 10
2744.490034601084
 20
862.3334536165817
 30
0.0
 11
2744.490034601084
 21
762.3334536165817
 31
0.0
  0
LWPOLYLINE
  5
1D9
330
1F
100
AcDbEntity
  8
0-B_寸法
  6
Continuous
 62
     7
370
     9
100
AcDbPolyline
 90
        4
 70
     1
 43
2.0
 10
2422.490034601082
 20
862.3334536165817
 42
0.4142135623731
 10
2421.490034601082
 20
863.3334536165817
 42
0.4142135623731
 10
2420.490034601082
 20
862.3334536165817
 42
0.4142135623731
 10
2421.490034601082
 20
861.3334536165817
 42
0.4142135623731
  0
LINE
  5
1DA
330
1F
100
AcDbEntity
  8
0-B_寸法
  6
Continuous
 62
   120
370
     5
100
AcDbLine
 10
2421.490034601082
 20
862.3334536165817
 30
0.0
 11
2421.490034601082
 21
762.3334536165817
 31
0.0
  0
LINE
  5
1DB
330
1F
100
AcDbEntity
  8
0-6_桟木
  6
Continuous
 62
    92
370
    13
100
AcDbLine
 10
2766.490034601082
 20
712.3334536165811
 30
0.0
 11
2766.490034601082
 21
607.3334536165811
 31
0.0
  0
LINE
  5
1DC
330
1F
100
AcDbEntity
  8
0-6_桟木
  6
Continuous
 62
    92
370
    13
100
AcDbLine
 10
2796.490034601082
 20
712.3334536165811
 30
0.0
 11
2766.490034601082
 21
712.3334536165811
 31
0.0
  0
LINE
  5
1DD
330
1F
100
AcDbEntity
  8
0-6_桟木
  6
Continuous
 62
    92
370
    13
100
AcDbLine
 10
2796.490034601082
 20
607.3334536165811
 30
0.0
 11
2796.490034601082
 21
712.3334536165811
 31
0.0
  0
LINE
  5
1DE
330
1F
100
AcDbEntity
  8
0-6_桟木
  6
Continuous
 62
     7
370
     9
100
AcDbLine
 10
2766.490034601082
 20
607.3334536165811
 30
0.0
 11
2796.490034601082
 21
712.3334536165811
 31
0.0
  0
LINE
  5
1DF
330
1F
100
AcDbEntity
  8
0-6_桟木
  6
Continuous
 62
     7
370
     9
100
AcDbLine
 10
2766.490034601082
 20
712.3334536165811
 30
0.0
 11
2796.490034601082
 21
607.3334536165811
 31
0.0
  0
MTEXT
  5
1E0
330
1F
100
AcDbEntity
  8
0-A_文字
  6
Continuous
 62
     7
370
     9
100
AcDbMText
 10
2861.943600264139
 20
1004.376108245539
 30
0.0
 40
45.72
 41
180.0
 46
0.0
 71
     7
 72
     1
  1
{\fＭＳ ゴシック|b0|i0|c128|p49;補強材}
 73
     1
 44
1.0
  0
MTEXT
  5
1E1
330
1F
100
AcDbEntity
  8
0-A_文字
  6
Continuous
 62
     7
370
     9
100
AcDbMText
 10
2861.943600264137
 20
927.7630559253311
 30
0.0
 40
45.72
 41
240.0
 46
0.0
 71
     7
 72
     1
  1
{\fＭＳ ゴシック|b0|i0|c128|p49;下地位置}
 73
     1
 44
1.0
  0
MTEXT
  5
1E2
330
1F
100
AcDbEntity
  8
0-A_文字
  6
Continuous
 62
     7
370
     9
100
AcDbMText
 10
2861.943600264134
 20
853.2206266408059
 30
0.0
 40
45.72
 41
330.0
 46
0.0
 71
     7
 72
     1
  1
{\fＭＳ ゴシック|b0|i0|c128|p49;30×105程度}
 73
     1
 44
1.0
  0
LINE
  5
1E3
330
1F
100
AcDbEntity
  8
0-A_文字
  6
Continuous
 62
     7
370
     9
100
AcDbLine
 10
2858.715029093553
 20
832.1129864974409
 30
0.0
 11
3151.734689190002
 21
832.1129864974409
 31
0.0
  0
LINE
  5
1E4
330
1F
100
AcDbEntity
  8
0-A_文字
  6
Continuous
 62
     7
370
     9
100
AcDbLine
 10
2781.681935039126
 20
698.6877537309437
 30
0.0
 11
2858.715029093553
 21
832.1129864974409
 31
0.0
  0
LINE
  5
1E5
330
1F
100
AcDbEntity
  8
0-6_桟木
  6
Continuous
 62
    92
370
    13
100
AcDbLine
 10
2766.490034601082
 20
248.3334536165808
 30
0.0
 11
2766.490034601082
 21
143.3334536165808
 31
0.0
  0
LINE
  5
1E6
330
1F
100
AcDbEntity
  8
0-6_桟木
  6
Continuous
 62
    92
370
    13
100
AcDbLine
 10
2796.490034601082
 20
248.3334536165808
 30
0.0
 11
2766.490034601082
 21
248.3334536165808
 31
0.0
  0
LINE
  5
1E7
330
1F
100
AcDbEntity
  8
0-6_桟木
  6
Continuous
 62
    92
370
    13
100
AcDbLine
 10
2766.490034601082
 20
143.3334536165808
 30
0.0
 11
2796.490034601082
 21
143.3334536165808
 31
0.0
  0
LINE
  5
1E8
330
1F
100
AcDbEntity
  8
0-6_桟木
  6
Continuous
 62
    92
370
    13
100
AcDbLine
 10
2796.490034601082
 20
143.3334536165808
 30
0.0
 11
2796.490034601082
 21
248.3334536165808
 31
0.0
  0
LINE
  5
1E9
330
1F
100
AcDbEntity
  8
0-6_桟木
  6
Continuous
 62
     7
370
     9
100
AcDbLine
 10
2766.490034601082
 20
143.3334536165808
 30
0.0
 11
2796.490034601082
 21
248.3334536165808
 31
0.0
  0
LINE
  5
1EA
330
1F
100
AcDbEntity
  8
0-6_桟木
  6
Continuous
 62
     7
370
     9
100
AcDbLine
 10
2766.490034601082
 20
248.3334536165808
 30
0.0
 11
2796.490034601082
 21
143.3334536165808
 31
0.0
  0
LINE
  5
1EB
330
1F
100
AcDbEntity
  8
0-6_桟木
  6
Continuous
 62
    92
370
    13
100
AcDbLine
 10
2766.490034601082
 20
607.3334536165811
 30
0.0
 11
2796.490034601082
 21
607.3334536165811
 31
0.0
  0
LINE
  5
1EC
330
1F
100
AcDbEntity
  8
0-B_寸法
  6
Continuous
 62
   120
370
     5
100
AcDbLine
 10
2916.490226001081
 20
712.3334536165811
 30
0.0
 11
2916.490226001081
 21
607.3334536165811
 31
0.0
  0
LWPOLYLINE
  5
1ED
330
1F
100
AcDbEntity
  8
0-B_寸法
  6
Continuous
 62
     7
370
     9
100
AcDbPolyline
 90
        4
 70
     1
 43
2.0
 10
2917.490226001082
 20
712.3334536165811
 42
0.4142135623731
 10
2916.490226001081
 20
713.333453616581
 42
0.4142135623731
 10
2915.490226001081
 20
712.3334536165811
 42
0.4142135623731
 10
2916.490226001081
 20
711.3334536165812
 42
0.4142135623731
  0
LWPOLYLINE
  5
1EE
330
1F
100
AcDbEntity
  8
0-B_寸法
  6
Continuous
 62
     7
370
     9
100
AcDbPolyline
 90
        4
 70
     1
 43
2.0
 10
2917.490226001082
 20
607.3334536165811
 42
0.4142135623731
 10
2916.490226001081
 20
608.3334536165811
 42
0.4142135623731
 10
2915.490226001081
 20
607.3334536165811
 42
0.4142135623731
 10
2916.490226001081
 20
606.3334536165811
 42
0.4142135623731
  0
LINE
  5
1EF
330
1F
100
AcDbEntity
  8
0-B_寸法
  6
Continuous
 62
   120
370
     5
100
AcDbLine
 10
2916.490226001081
 20
712.3334536165811
 30
0.0
 11
2816.490226001081
 21
712.3334536165811
 31
0.0
  0
LINE
  5
1F0
330
1F
100
AcDbEntity
  8
0-B_寸法
  6
Continuous
 62
   120
370
     5
100
AcDbLine
 10
2916.490226001081
 20
607.3334536165811
 30
0.0
 11
2816.490226001081
 21
607.3334536165811
 31
0.0
  0
MTEXT
  5
1F1
330
1F
100
AcDbEntity
  8
0-B_寸法
  6
Continuous
 62
     7
370
   211
100
AcDbMText
 10
2906.490226001081
 20
607.6934536165811
 30
0.0
 40
45.72
 41
90.0
 46
0.0
 71
     7
 72
     1
  1
{\fＭＳ ゴシック|b0|i0|c128|p49;105}
 11
6.123031769111886E-17
 21
1.0
 31
0.0
 73
     1
 44
1.0
  0
LINE
  5
1F2
330
1F
100
AcDbEntity
  8
0-B_寸法
  6
Continuous
 62
   120
370
     5
100
AcDbLine
 10
2916.490226001081
 20
607.3334536165811
 30
0.0
 11
2916.490226001081
 21
248.3334536165808
 31
0.0
  0
LWPOLYLINE
  5
1F3
330
1F
100
AcDbEntity
  8
0-B_寸法
  6
Continuous
 62
     7
370
     9
100
AcDbPolyline
 90
        4
 70
     1
 43
2.0
 10
2917.490226001082
 20
248.3334536165808
 42
0.4142135623731
 10
2916.490226001081
 20
249.3334536165808
 42
0.4142135623731
 10
2915.490226001081
 20
248.3334536165808
 42
0.4142135623731
 10
2916.490226001081
 20
247.3334536165808
 42
0.4142135623731
  0
LINE
  5
1F4
330
1F
100
AcDbEntity
  8
0-B_寸法
  6
Continuous
 62
   120
370
     5
100
AcDbLine
 10
2916.490226001081
 20
248.3334536165808
 30
0.0
 11
2816.490226001081
 21
248.3334536165808
 31
0.0
  0
MTEXT
  5
1F5
330
1F
100
AcDbEntity
  8
0-B_寸法
  6
Continuous
 62
     7
370
   211
100
AcDbMText
 10
2906.490226001081
 20
375.6934536165818
 30
0.0
 40
45.72
 41
90.0
 46
0.0
 71
     7
 72
     1
  1
{\fＭＳ ゴシック|b0|i0|c128|p49;359}
 11
6.123031769111886E-17
 21
1.0
 31
0.0
 73
     1
 44
1.0
  0
LINE
  5
1F6
330
1F
100
AcDbEntity
  8
0-B_寸法
  6
Continuous
 62
   120
370
     5
100
AcDbLine
 10
2916.490226001081
 20
248.3334536165808
 30
0.0
 11
2916.490226001081
 21
143.3334536165808
 31
0.0
  0
LWPOLYLINE
  5
1F7
330
1F
100
AcDbEntity
  8
0-B_寸法
  6
Continuous
 62
     7
370
     9
100
AcDbPolyline
 90
        4
 70
     1
 43
2.0
 10
2917.490226001082
 20
143.3334536165808
 42
0.4142135623731
 10
2916.490226001081
 20
144.3334536165808
 42
0.4142135623731
 10
2915.490226001081
 20
143.3334536165808
 42
0.4142135623731
 10
2916.490226001081
 20
142.3334536165808
 42
0.4142135623731
  0
LINE
  5
1F8
330
1F
100
AcDbEntity
  8
0-B_寸法
  6
Continuous
 62
   120
370
     5
100
AcDbLine
 10
2916.490226001081
 20
143.3334536165808
 30
0.0
 11
2816.490226001081
 21
143.3334536165808
 31
0.0
  0
MTEXT
  5
1F9
330
1F
100
AcDbEntity
  8
0-B_寸法
  6
Continuous
 62
     7
370
   211
100
AcDbMText
 10
2906.490226001081
 20
143.6934536165808
 30
0.0
 40
45.72
 41
90.0
 46
0.0
 71
     7
 72
     1
  1
{\fＭＳ ゴシック|b0|i0|c128|p49;105}
 11
6.123031769111886E-17
 21
1.0
 31
0.0
 73
     1
 44
1.0
  0
MTEXT
  5
1FA
330
1F
100
AcDbEntity
  8
0-B_寸法
  6
Continuous
 62
     7
370
   211
100
AcDbMText
 10
2697.782070586126
 20
865.1934536165817
 30
0.0
 40
45.72
 41
60.0
 46
0.0
 71
     7
 72
     1
  1
{\fＭＳ ゴシック|b0|i0|c128|p49;22}
 73
     1
 44
1.0
  0
LINE
  5
1FB
330
1F
100
AcDbEntity
  8
0-6_桟木
  6
Continuous
 62
    92
370
    13
100
AcDbLine
 10
2763.49003460108
 20
697.3334536165811
 30
0.0
 11
2748.49003460108
 21
697.3334536165811
 31
0.0
  0
LINE
  5
1FC
330
1F
100
AcDbEntity
  8
0-6_桟木
  6
Continuous
 62
    92
370
    13
100
AcDbLine
 10
2748.49003460108
 20
697.3334536165811
 30
0.0
 11
2748.49003460108
 21
633.3334536165808
 31
0.0
  0
LINE
  5
1FD
330
1F
100
AcDbEntity
  8
0-6_桟木
  6
Continuous
 62
    92
370
    13
100
AcDbLine
 10
2748.49003460108
 20
633.3334536165808
 30
0.0
 11
2763.49003460108
 21
633.3334536165808
 31
0.0
  0
LINE
  5
1FE
330
1F
100
AcDbEntity
  8
0-6_桟木
  6
Continuous
 62
    92
370
    13
100
AcDbLine
 10
2763.49003460108
 20
158.3334536165808
 30
0.0
 11
2748.49003460108
 21
158.3334536165808
 31
0.0
  0
LINE
  5
1FF
330
1F
100
AcDbEntity
  8
0-6_桟木
  6
Continuous
 62
    92
370
    13
100
AcDbLine
 10
2748.49003460108
 20
158.3334536165808
 30
0.0
 11
2748.49003460108
 21
222.3334536165817
 31
0.0
  0
LINE
  5
200
330
1F
100
AcDbEntity
  8
0-6_桟木
  6
Continuous
 62
    92
370
    13
100
AcDbLine
 10
2748.49003460108
 20
222.3334536165817
 30
0.0
 11
2763.49003460108
 21
222.3334536165817
 31
0.0
  0
LINE
  5
201
330
1F
100
AcDbEntity
  8
0-B_寸法
  6
Continuous
 62
   120
370
     5
100
AcDbLine
 10
2249.490034601084
 20
712.3334536165811
 30
0.0
 11
2249.490034601084
 21
539.8334536165817
 31
0.0
  0
LWPOLYLINE
  5
202
330
1F
100
AcDbEntity
  8
0-B_寸法
  6
Continuous
 62
     7
370
     9
100
AcDbPolyline
 90
        4
 70
     1
 43
2.0
 10
2250.490034601084
 20
712.3334536165811
 42
0.4142135623731
 10
2249.490034601084
 20
713.333453616581
 42
0.4142135623731
 10
2248.490034601084
 20
712.3334536165811
 42
0.4142135623731
 10
2249.490034601084
 20
711.3334536165812
 42
0.4142135623731
  0
LWPOLYLINE
  5
203
330
1F
100
AcDbEntity
  8
0-B_寸法
  6
Continuous
 62
     7
370
     9
100
AcDbPolyline
 90
        4
 70
     1
 43
2.0
 10
2250.490034601084
 20
539.8334536165817
 42
0.4142135623731
 10
2249.490034601084
 20
540.8334536165817
 42
0.4142135623731
 10
2248.490034601084
 20
539.8334536165817
 42
0.4142135623731
 10
2249.490034601084
 20
538.8334536165817
 42
0.4142135623731
  0
LINE
  5
204
330
1F
100
AcDbEntity
  8
0-B_寸法
  6
Continuous
 62
   120
370
     5
100
AcDbLine
 10
2249.490034601084
 20
712.3334536165811
 30
0.0
 11
2349.490034601084
 21
712.3334536165811
 31
0.0
  0
LINE
  5
205
330
1F
100
AcDbEntity
  8
0-B_寸法
  6
Continuous
 62
   120
370
     5
100
AcDbLine
 10
2249.490034601084
 20
539.8334536165817
 30
0.0
 11
2349.490034601084
 21
539.8334536165817
 31
0.0
  0
LINE
  5
206
330
1F
100
AcDbEntity
  8
0-B_寸法
  6
Continuous
 62
   120
370
     5
100
AcDbLine
 10
2249.490034601084
 20
539.8334536165817
 30
0.0
 11
2249.490034601084
 21
315.8334536165808
 31
0.0
  0
LWPOLYLINE
  5
207
330
1F
100
AcDbEntity
  8
0-B_寸法
  6
Continuous
 62
     7
370
     9
100
AcDbPolyline
 90
        4
 70
     1
 43
2.0
 10
2250.490034601084
 20
315.8334536165808
 42
0.4142135623731
 10
2249.490034601084
 20
316.8334536165808
 42
0.4142135623731
 10
2248.490034601084
 20
315.8334536165808
 42
0.4142135623731
 10
2249.490034601084
 20
314.8334536165808
 42
0.4142135623731
  0
LINE
  5
208
330
1F
100
AcDbEntity
  8
0-B_寸法
  6
Continuous
 62
   120
370
     5
100
AcDbLine
 10
2249.490034601084
 20
315.8334536165808
 30
0.0
 11
2349.490034601084
 21
315.8334536165808
 31
0.0
  0
LINE
  5
209
330
1F
100
AcDbEntity
  8
0-B_寸法
  6
Continuous
 62
   120
370
     5
100
AcDbLine
 10
2249.490034601084
 20
315.8334536165808
 30
0.0
 11
2249.490034601084
 21
143.3334536165808
 31
0.0
  0
LWPOLYLINE
  5
20A
330
1F
100
AcDbEntity
  8
0-B_寸法
  6
Continuous
 62
     7
370
     9
100
AcDbPolyline
 90
        4
 70
     1
 43
2.0
 10
2250.490034601084
 20
143.3334536165808
 42
0.4142135623731
 10
2249.490034601084
 20
144.3334536165808
 42
0.4142135623731
 10
2248.490034601084
 20
143.3334536165808
 42
0.4142135623731
 10
2249.490034601084
 20
142.3334536165808
 42
0.4142135623731
  0
LINE
  5
20B
330
1F
100
AcDbEntity
  8
0-B_寸法
  6
Continuous
 62
   120
370
     5
100
AcDbLine
 10
2249.490034601084
 20
143.3334536165808
 30
0.0
 11
2349.490034601084
 21
143.3334536165808
 31
0.0
  0
MTEXT
  5
20C
330
1F
100
AcDbEntity
  8
0-B_寸法
  6
Continuous
 62
     7
370
   211
100
AcDbMText
 10
2239.490034601084
 20
147.4434536165808
 30
0.0
 40
45.72
 41
150.0
 46
0.0
 71
     7
 72
     1
  1
{\fＭＳ ゴシック|b0|i0|c128|p49;172.5}
 11
6.123031769111886E-17
 21
1.0
 31
0.0
 73
     1
 44
1.0
  0
LINE
  5
20D
330
1F
100
AcDbEntity
  8
0-B_寸法
  6
Continuous
 62
   120
370
     5
100
AcDbLine
 10
2149.490034601085
 20
712.3334536165811
 30
0.0
 11
2149.490034601085
 21
143.3334536165808
 31
0.0
  0
LWPOLYLINE
  5
20E
330
1F
100
AcDbEntity
  8
0-B_寸法
  6
Continuous
 62
     7
370
     9
100
AcDbPolyline
 90
        4
 70
     1
 43
2.0
 10
2150.490034601085
 20
712.3334536165811
 42
0.4142135623731
 10
2149.490034601085
 20
713.333453616581
 42
0.4142135623731
 10
2148.490034601085
 20
712.3334536165811
 42
0.4142135623731
 10
2149.490034601085
 20
711.3334536165812
 42
0.4142135623731
  0
LWPOLYLINE
  5
20F
330
1F
100
AcDbEntity
  8
0-B_寸法
  6
Continuous
 62
     7
370
     9
100
AcDbPolyline
 90
        4
 70
     1
 43
2.0
 10
2150.490034601085
 20
709.3334536165816
 42
0.4142135623731
 10
2149.490034601085
 20
710.3334536165814
 42
0.4142135623731
 10
2148.490034601085
 20
709.3334536165816
 42
0.4142135623731
 10
2149.490034601085
 20
708.3334536165817
 42
0.4142135623731
  0
LINE
  5
210
330
1F
100
AcDbEntity
  8
0-B_寸法
  6
Continuous
 62
   120
370
     5
100
AcDbLine
 10
2049.490034601085
 20
712.3334536165811
 30
0.0
 11
2249.490034601084
 21
712.3334536165811
 31
0.0
  0
LINE
  5
211
330
1F
100
AcDbEntity
  8
0-B_寸法
  6
Continuous
 62
   120
370
     5
100
AcDbLine
 10
2149.490034601085
 20
709.3334536165816
 30
0.0
 11
2249.490034601084
 21
709.3334536165816
 31
0.0
  0
LWPOLYLINE
  5
212
330
1F
100
AcDbEntity
  8
0-B_寸法
  6
Continuous
 62
     7
370
     9
100
AcDbPolyline
 90
        4
 70
     1
 43
2.0
 10
2150.490034601085
 20
146.3334536165803
 42
0.4142135623731
 10
2149.490034601085
 20
147.3334536165803
 42
0.4142135623731
 10
2148.490034601085
 20
146.3334536165803
 42
0.4142135623731
 10
2149.490034601085
 20
145.3334536165803
 42
0.4142135623731
  0
LINE
  5
213
330
1F
100
AcDbEntity
  8
0-B_寸法
  6
Continuous
 62
   120
370
     5
100
AcDbLine
 10
2149.490034601085
 20
146.3334536165803
 30
0.0
 11
2249.490034601084
 21
146.3334536165803
 31
0.0
  0
LWPOLYLINE
  5
214
330
1F
100
AcDbEntity
  8
0-B_寸法
  6
Continuous
 62
     7
370
     9
100
AcDbPolyline
 90
        4
 70
     1
 43
2.0
 10
2150.490034601085
 20
143.3334536165808
 42
0.4142135623731
 10
2149.490034601085
 20
144.3334536165808
 42
0.4142135623731
 10
2148.490034601085
 20
143.3334536165808
 42
0.4142135623731
 10
2149.490034601085
 20
142.3334536165808
 42
0.4142135623731
  0
LWPOLYLINE
  5
215
330
1F
100
AcDbEntity
  8
0-B_寸法
  6
Continuous
 62
     7
370
     9
100
AcDbPolyline
 90
        4
 70
     1
 43
2.0
 10
2050.490034601085
 20
712.3334536165811
 42
0.4142135623731
 10
2049.490034601085
 20
713.333453616581
 42
0.4142135623731
 10
2048.490034601085
 20
712.3334536165811
 42
0.4142135623731
 10
2049.490034601085
 20
711.3334536165812
 42
0.4142135623731
  0
LWPOLYLINE
  5
216
330
1F
100
AcDbEntity
  8
0-B_寸法
  6
Continuous
 62
     7
370
     9
100
AcDbPolyline
 90
        4
 70
     1
 43
2.0
 10
2050.490034601085
 20
143.3334536165808
 42
0.4142135623731
 10
2049.490034601085
 20
144.3334536165808
 42
0.4142135623731
 10
2048.490034601085
 20
143.3334536165808
 42
0.4142135623731
 10
2049.490034601085
 20
142.3334536165808
 42
0.4142135623731
  0
LINE
  5
217
330
1F
100
AcDbEntity
  8
0-B_寸法
  6
Continuous
 62
   120
370
     5
100
AcDbLine
 10
2249.490034601084
 20
143.3334536165808
 30
0.0
 11
2049.490034601085
 21
143.3334536165808
 31
0.0
  0
LINE
  5
218
330
1F
100
AcDbEntity
  8
0-B_寸法
  6
Continuous
 62
   120
370
     5
100
AcDbLine
 10
2049.490034601085
 20
712.3334536165811
 30
0.0
 11
2049.490034601085
 21
143.3334536165808
 31
0.0
  0
MTEXT
  5
219
330
1F
100
AcDbEntity
  8
0-B_寸法
  6
Continuous
 62
     7
370
   211
100
AcDbMText
 10
2139.490034601085
 20
141.5196232543479
 30
0.0
 40
45.72
 41
30.0
 46
0.0
 71
     7
 72
     1
  1
{\fＭＳ ゴシック|b0|i0|c128|p49;3}
 11
6.123031769111886E-17
 21
1.0
 31
0.0
 73
     1
 44
1.0
  0
MTEXT
  5
21A
330
1F
100
AcDbEntity
  8
0-B_寸法
  6
Continuous
 62
     7
370
   211
100
AcDbMText
 10
2139.490034601085
 20
669.127763884764
 30
0.0
 40
45.72
 41
30.0
 46
0.0
 71
     7
 72
     1
  1
{\fＭＳ ゴシック|b0|i0|c128|p49;3}
 11
6.123031769111886E-17
 21
1.0
 31
0.0
 73
     1
 44
1.0
  0
MTEXT
  5
21B
330
1F
100
AcDbEntity
  8
0-B_寸法
  6
Continuous
 62
     7
370
   211
100
AcDbMText
 10
2239.490034601084
 20
543.9434536165817
 30
0.0
 40
45.72
 41
150.0
 46
0.0
 71
     7
 72
     1
  1
{\fＭＳ ゴシック|b0|i0|c128|p49;172.5}
 11
6.123031769111886E-17
 21
1.0
 31
0.0
 73
     1
 44
1.0
  0
MTEXT
  5
21C
330
1F
100
AcDbEntity
  8
0-B_寸法
  6
Continuous
 62
     7
370
   211
100
AcDbMText
 10
2039.490034601085
 20
375.6934536165818
 30
0.0
 40
45.72
 41
90.0
 46
0.0
 71
     7
 72
     1
  1
{\fＭＳ ゴシック|b0|i0|c128|p49;569}
 11
6.123031769111886E-17
 21
1.0
 31
0.0
 73
     1
 44
1.0
  0
MTEXT
  5
21D
330
1F
100
AcDbEntity
  8
0-B_寸法
  6
Continuous
 62
     7
370
   211
100
AcDbMText
 10
2239.490034601084
 20
375.6934536165818
 30
0.0
 40
45.72
 41
90.0
 46
0.0
 71
     7
 72
     1
  1
{\fＭＳ ゴシック|b0|i0|c128|p49;224}
 11
6.123031769111886E-17
 21
1.0
 31
0.0
 73
     1
 44
1.0
  0
MTEXT
  5
21E
330
1F
100
AcDbEntity
  8
0-B_寸法
  6
Continuous
 62
     7
370
   211
100
AcDbMText
 10
2139.490034601085
 20
285.6934536165812
 30
0.0
 40
45.71999999999999
 41
270.0
 46
0.0
 71
     7
 72
     1
  1
{\fＭＳ ゴシック|b0|i0|c128|p49;ＤＨ＝563}
 11
6.123031769111886E-17
 21
1.0
 31
0.0
 73
     1
 44
1.0
  0
LINE
  5
21F
330
1F
100
AcDbEntity
  8
0-0_補助線
  6
JWW_HOJO
 62
   120
370
     5
100
AcDbLine
 10
2049.490034554542
 20
862.3334536165817
 30
0.0
 11
2049.490034554542
 21
-1851.166546383425
 31
0.0
  0
LINE
  5
220
330
1F
100
AcDbEntity
  8
0-0_補助線
  6
JWW_HOJO
 62
   120
370
     5
100
AcDbLine
 10
2149.490034554542
 20
862.3334536165817
 30
0.0
 11
2149.490034554542
 21
-1456.666564941412
 31
0.0
  0
LINE
  5
221
330
1F
100
AcDbEntity
  8
0-0_補助線
  6
JWW_HOJO
 62
   120
370
     5
100
AcDbLine
 10
2249.49003455454
 20
-1456.666546383426
 30
0.0
 11
2249.49003455454
 21
862.3334536165817
 31
0.0
  0
LINE
  5
222
330
1F
100
AcDbEntity
  8
0-0_補助線
  6
JWW_HOJO
 62
   120
370
     5
100
AcDbLine
 10
2816.490034601082
 20
1062.333453616582
 30
0.0
 11
2349.490034601084
 21
1062.333453616582
 31
0.0
  0
LINE
  5
223
330
1F
100
AcDbEntity
  8
0-0_補助線
  6
JWW_HOJO
 62
   120
370
     5
100
AcDbLine
 10
2816.490034601082
 20
962.3334536165817
 30
0.0
 11
2349.490034601084
 21
962.3334536165817
 31
0.0
  0
CIRCLE
  5
224
330
1F
100
AcDbEntity
  8
0-5_ダボ
  6
Continuous
 62
     7
370
     9
100
AcDbCircle
 10
2488.49003460108
 20
539.8334536165811
 30
0.0
 40
2.5
  0
CIRCLE
  5
225
330
1F
100
AcDbEntity
  8
0-5_ダボ
  6
Continuous
 62
     7
370
     9
100
AcDbCircle
 10
2488.49003460108
 20
507.8334536165812
 30
0.0
 40
2.5
  0
CIRCLE
  5
226
330
1F
100
AcDbEntity
  8
0-5_ダボ
  6
Continuous
 62
     7
370
     9
100
AcDbCircle
 10
2488.49003460108
 20
475.8334536165808
 30
0.0
 40
2.5
  0
CIRCLE
  5
227
330
1F
100
AcDbEntity
  8
0-5_ダボ
  6
Continuous
 62
     7
370
     9
100
AcDbCircle
 10
2488.49003460108
 20
443.833453616582
 30
0.0
 40
2.5
  0
CIRCLE
  5
228
330
1F
100
AcDbEntity
  8
0-5_ダボ
  6
Continuous
 62
     7
370
     9
100
AcDbCircle
 10
2488.49003460108
 20
411.8334536165816
 30
0.0
 40
2.5
  0
CIRCLE
  5
229
330
1F
100
AcDbEntity
  8
0-5_ダボ
  6
Continuous
 62
     7
370
     9
100
AcDbCircle
 10
2488.49003460108
 20
379.8334536165805
 30
0.0
 40
2.5
  0
CIRCLE
  5
22A
330
1F
100
AcDbEntity
  8
0-5_ダボ
  6
Continuous
 62
     7
370
     9
100
AcDbCircle
 10
2488.49003460108
 20
347.8334536165812
 30
0.0
 40
2.5
  0
CIRCLE
  5
22B
330
1F
100
AcDbEntity
  8
0-5_ダボ
  6
Continuous
 62
     7
370
     9
100
AcDbCircle
 10
2488.49003460108
 20
315.8334536165808
 30
0.0
 40
2.5
  0
LINE
  5
22C
330
1F
100
AcDbEntity
  8
0-B_寸法
  6
Continuous
 62
   120
370
     5
100
AcDbLine
 10
2555.490034601083
 20
539.8334536165817
 30
0.0
 11
2505.490034601083
 21
539.8334536165817
 31
0.0
  0
LINE
  5
22D
330
1F
100
AcDbEntity
  8
0-B_寸法
  6
Continuous
 62
   120
370
     5
100
AcDbLine
 10
2555.490034601083
 20
507.8334536165829
 30
0.0
 11
2505.490034601083
 21
507.8334536165829
 31
0.0
  0
LINE
  5
22E
330
1F
100
AcDbEntity
  8
0-B_寸法
  6
Continuous
 62
   120
370
     5
100
AcDbLine
 10
2555.490034601083
 20
539.8334536165817
 30
0.0
 11
2555.490034601083
 21
507.8334536165829
 31
0.0
  0
LWPOLYLINE
  5
22F
330
1F
100
AcDbEntity
  8
0-B_寸法
  6
Continuous
 62
     7
370
     9
100
AcDbPolyline
 90
        4
 70
     1
 43
2.0
 10
2556.490034601083
 20
539.8334536165817
 42
0.4142135623731
 10
2555.490034601083
 20
540.8334536165817
 42
0.4142135623731
 10
2554.490034601083
 20
539.8334536165817
 42
0.4142135623731
 10
2555.490034601083
 20
538.8334536165817
 42
0.4142135623731
  0
LWPOLYLINE
  5
230
330
1F
100
AcDbEntity
  8
0-B_寸法
  6
Continuous
 62
     7
370
     9
100
AcDbPolyline
 90
        4
 70
     1
 43
2.0
 10
2556.490034601083
 20
507.8334536165829
 42
0.4142135623731
 10
2555.490034601083
 20
508.8334536165829
 42
0.4142135623731
 10
2554.490034601083
 20
507.8334536165829
 42
0.4142135623731
 10
2555.490034601083
 20
506.8334536165829
 42
0.4142135623731
  0
MTEXT
  5
231
330
1F
100
AcDbEntity
  8
0-B_寸法
  6
Continuous
 62
     7
370
   211
100
AcDbMText
 10
2571.742167402006
 20
485.8405113299654
 30
0.0
 40
45.72
 41
90.0
 46
0.0
 71
     7
 72
     1
  1
{\fＭＳ ゴシック|b0|i0|c128|p49;P32}
 73
     1
 44
1.0
  0
LINE
  5
232
330
1F
100
AcDbEntity
  8
0-B_寸法
  6
JWW_HOJO
 62
     7
370
     9
100
AcDbLine
 10
2488.49003460108
 20
707.3334536165817
 30
0.0
 11
2488.49003460108
 21
143.3334536165808
 31
0.0
  0
LINE
  5
233
330
1F
100
AcDbEntity
  8
0-B_寸法
  6
Continuous
 62
   120
370
     5
100
AcDbLine
 10
2744.490034601084
 20
862.3334536165817
 30
0.0
 11
2488.49003460108
 21
862.3334536165817
 31
0.0
  0
LWPOLYLINE
  5
234
330
1F
100
AcDbEntity
  8
0-B_寸法
  6
Continuous
 62
     7
370
     9
100
AcDbPolyline
 90
        4
 70
     1
 43
2.0
 10
2489.49003460108
 20
862.3334536165817
 42
0.4142135623731
 10
2488.49003460108
 20
863.3334536165817
 42
0.4142135623731
 10
2487.49003460108
 20
862.3334536165817
 42
0.4142135623731
 10
2488.49003460108
 20
861.3334536165817
 42
0.4142135623731
  0
LINE
  5
235
330
1F
100
AcDbEntity
  8
0-B_寸法
  6
Continuous
 62
   120
370
     5
100
AcDbLine
 10
2488.49003460108
 20
862.3334536165817
 30
0.0
 11
2488.49003460108
 21
762.3334536165817
 31
0.0
  0
LINE
  5
236
330
1F
100
AcDbEntity
  8
0-B_寸法
  6
Continuous
 62
   120
370
     5
100
AcDbLine
 10
2488.49003460108
 20
862.3334536165817
 30
0.0
 11
2421.490034601082
 21
862.3334536165817
 31
0.0
  0
MTEXT
  5
237
330
1F
100
AcDbEntity
  8
0-B_寸法
  6
Continuous
 62
     7
370
   211
100
AcDbMText
 10
2424.490034601084
 20
865.1934536165817
 30
0.0
 40
45.72
 41
60.0
 46
0.0
 71
     7
 72
     1
  1
{\fＭＳ ゴシック|b0|i0|c128|p49;67}
 73
     1
 44
1.0
  0
MTEXT
  5
238
330
1F
100
AcDbEntity
  8
0-B_寸法
  6
Continuous
 62
     7
370
   211
100
AcDbMText
 10
2570.99003460108
 20
865.1934536165817
 30
0.0
 40
45.72
 41
90.0
 46
0.0
 71
     7
 72
     1
  1
{\fＭＳ ゴシック|b0|i0|c128|p49;256}
 73
     1
 44
1.0
  0
CIRCLE
  5
239
330
1F
100
AcDbEntity
  8
0-6_桟木
  6
Continuous
 62
     7
370
     9
100
AcDbCircle
 10
2755.99003460108
 20
206.3334536165814
 30
0.0
 40
4.0
  0
CIRCLE
  5
23A
330
1F
100
AcDbEntity
  8
0-6_桟木
  6
Continuous
 62
     7
370
     9
100
AcDbCircle
 10
2755.99003460108
 20
174.3334536165816
 30
0.0
 40
4.0
  0
CIRCLE
  5
23B
330
1F
100
AcDbEntity
  8
0-6_桟木
  6
Continuous
 62
     7
370
     9
100
AcDbCircle
 10
2755.99003460108
 20
681.333453616582
 30
0.0
 40
4.0
  0
CIRCLE
  5
23C
330
1F
100
AcDbEntity
  8
0-6_桟木
  6
Continuous
 62
     7
370
     9
100
AcDbCircle
 10
2755.99003460108
 20
649.3334536165816
 30
0.0
 40
4.0
  0
LINE
  5
23D
330
1F
100
AcDbEntity
  8
0-B_寸法
  6
Continuous
 62
   120
370
     5
100
AcDbLine
 10
2766.490034461465
 20
-1770.666546383418
 30
0.0
 11
2766.490034461465
 21
-1570.666546383418
 31
0.0
  0
LWPOLYLINE
  5
23E
330
1F
100
AcDbEntity
  8
0-B_寸法
  6
Continuous
 62
     7
370
     9
100
AcDbPolyline
 90
        4
 70
     1
 43
2.0
 10
2767.490034461466
 20
-1670.666546383418
 42
0.4142135623731
 10
2766.490034461465
 20
-1669.666546383418
 42
0.4142135623731
 10
2765.490034461465
 20
-1670.666546383418
 42
0.4142135623731
 10
2766.490034461465
 20
-1671.666546383418
 42
0.4142135623731
  0
LINE
  5
23F
330
1F
100
AcDbEntity
  8
0-A_文字
  6
Continuous
 62
     7
370
     9
100
AcDbLine
 10
3052.989938761464
 20
-2070.666546383418
 30
0.0
 11
2012.989938761466
 21
-2070.666546383418
 31
0.0
  0
LINE
  5
240
330
1F
100
AcDbEntity
  8
0-A_文字
  6
Continuous
 62
     7
370
     9
100
AcDbLine
 10
2012.989938761466
 20
-1920.666546383418
 30
0.0
 11
3052.989938761464
 21
-1920.666546383418
 31
0.0
  0
LINE
  5
241
330
1F
100
AcDbEntity
  8
0-A_文字
  6
Continuous
 62
     7
370
     9
100
AcDbLine
 10
2012.989938761466
 20
-1920.666546383418
 30
0.0
 11
2012.989938761466
 21
-2070.666546383418
 31
0.0
  0
LINE
  5
242
330
1F
100
AcDbEntity
  8
0-A_文字
  6
Continuous
 62
     7
370
     9
100
AcDbLine
 10
3052.989938761464
 20
-1920.666546383418
 30
0.0
 11
3052.989938761464
 21
-2070.666546383418
 31
0.0
  0
MTEXT
  5
243
330
1F
100
AcDbEntity
  8
0-B_寸法
  6
Continuous
 62
     7
370
   211
100
AcDbMText
 10
2548.990034461465
 20
-1767.806546383418
 30
0.0
 40
45.71999999999986
 41
89.99999999999972
 46
0.0
 71
     7
 72
     1
  1
{\fＭＳ ゴシック|b0|i0|c128|p49;345}
 73
     1
 44
1.0
  0
LINE
  5
244
330
1F
100
AcDbEntity
  8
0-B_寸法
  6
Continuous
 62
   120
370
     5
100
AcDbLine
 10
2421.490034461465
 20
-1770.666546383418
 30
0.0
 11
2421.490034461465
 21
-1570.666546383418
 31
0.0
  0
LWPOLYLINE
  5
245
330
1F
100
AcDbEntity
  8
0-B_寸法
  6
Continuous
 62
     7
370
     9
100
AcDbPolyline
 90
        4
 70
     1
 43
2.0
 10
2422.490034461465
 20
-1770.666546383418
 42
0.4142135623731
 10
2421.490034461465
 20
-1769.666546383418
 42
0.4142135623731
 10
2420.490034461465
 20
-1770.666546383418
 42
0.4142135623731
 10
2421.490034461465
 20
-1771.666546383418
 42
0.4142135623731
  0
LWPOLYLINE
  5
246
330
1F
100
AcDbEntity
  8
0-B_寸法
  6
Continuous
 62
     7
370
     9
100
AcDbPolyline
 90
        4
 70
     1
 43
2.0
 10
2767.490034461466
 20
-1770.666546383418
 42
0.4142135623731
 10
2766.490034461465
 20
-1769.666546383418
 42
0.4142135623731
 10
2765.490034461465
 20
-1770.666546383418
 42
0.4142135623731
 10
2766.490034461465
 20
-1771.666546383418
 42
0.4142135623731
  0
LINE
  5
247
330
1F
100
AcDbEntity
  8
0-B_寸法
  6
Continuous
 62
   120
370
     5
100
AcDbLine
 10
2766.490034461465
 20
-1770.666546383418
 30
0.0
 11
2421.490034461465
 21
-1770.666546383418
 31
0.0
  0
MTEXT
  5
248
330
1F
100
AcDbEntity
  8
0-B_寸法
  6
Continuous
 62
     7
370
   211
100
AcDbMText
 10
2043.490034461465
 20
-1525.80654638342
 30
0.0
 40
45.72
 41
60.0
 46
0.0
 71
     7
 72
     1
  1
{\fＭＳ ゴシック|b0|i0|c128|p49;64}
 11
6.123031769111886E-17
 21
1.0
 31
0.0
 73
     1
 44
1.0
  0
LINE
  5
249
330
1F
100
AcDbEntity
  8
0-B_寸法
  6
Continuous
 62
   120
370
     5
100
AcDbLine
 10
2049.490034461468
 20
-1520.666546383418
 30
0.0
 11
2349.490034461467
 21
-1520.666546383418
 31
0.0
  0
LINE
  5
24A
330
1F
100
AcDbEntity
  8
0-B_寸法
  6
Continuous
 62
   120
370
     5
100
AcDbLine
 10
2049.490034461468
 20
-1456.666546383418
 30
0.0
 11
2349.490034461467
 21
-1456.666546383418
 31
0.0
  0
LWPOLYLINE
  5
24B
330
1F
100
AcDbEntity
  8
0-B_寸法
  6
Continuous
 62
     7
370
     9
100
AcDbPolyline
 90
        4
 70
     1
 43
2.0
 10
2050.490034461468
 20
-1520.666546383418
 42
0.4142135623731
 10
2049.490034461468
 20
-1519.666546383418
 42
0.4142135623731
 10
2048.490034461468
 20
-1520.666546383418
 42
0.4142135623731
 10
2049.490034461468
 20
-1521.666546383418
 42
0.4142135623731
  0
LWPOLYLINE
  5
24C
330
1F
100
AcDbEntity
  8
0-B_寸法
  6
Continuous
 62
     7
370
     9
100
AcDbPolyline
 90
        4
 70
     1
 43
2.0
 10
2050.490034461468
 20
-1456.666546383418
 42
0.4142135623731
 10
2049.490034461468
 20
-1455.666546383418
 42
0.4142135623731
 10
2048.490034461468
 20
-1456.666546383418
 42
0.4142135623731
 10
2049.490034461468
 20
-1457.666546383418
 42
0.4142135623731
  0
LINE
  5
24D
330
1F
100
AcDbEntity
  8
0-B_寸法
  6
Continuous
 62
   120
370
     5
100
AcDbLine
 10
2049.490034461468
 20
-1456.666546383418
 30
0.0
 11
2049.490034461468
 21
-1520.666546383418
 31
0.0
  0
LINE
  5
24E
330
1F
100
AcDbEntity
  8
0-9__
  6
Continuous
 62
     7
370
     9
100
AcDbLine
 10
2751.490034461465
 20
-1456.666546383418
 30
0.0
 11
2751.490034461465
 21
-1520.666546383418
 31
0.0
  0
LINE
  5
24F
330
1F
100
AcDbEntity
  8
0-1_本体
  6
Continuous
 62
    40
370
    15
100
AcDbLine
 10
2766.490034461465
 20
704.3334536165838
 30
0.0
 11
2766.490034461465
 21
712.3334536165834
 31
0.0
  0
MTEXT
  5
250
330
1F
100
AcDbEntity
  8
0-B_寸法
  6
Continuous
 62
     7
370
   211
100
AcDbMText
 10
2906.490034461465
 20
607.6934536165834
 30
0.0
 40
45.72
 41
90.0
 46
0.0
 71
     7
 72
     1
  1
{\fＭＳ ゴシック|b0|i0|c128|p49;105}
 11
6.123031769111886E-17
 21
1.0
 31
0.0
 73
     1
 44
1.0
  0
LINE
  5
251
330
1F
100
AcDbEntity
  8
0-B_寸法
  6
Continuous
 62
   120
370
     5
100
AcDbLine
 10
2916.490034461465
 20
712.3334536165834
 30
0.0
 11
2816.490034461465
 21
712.3334536165834
 31
0.0
  0
LWPOLYLINE
  5
252
330
1F
100
AcDbEntity
  8
0-B_寸法
  6
Continuous
 62
     7
370
     9
100
AcDbPolyline
 90
        4
 70
     1
 43
2.0
 10
2917.490034461466
 20
712.3334536165834
 42
0.4142135623731
 10
2916.490034461465
 20
713.3334536165833
 42
0.4142135623731
 10
2915.490034461465
 20
712.3334536165834
 42
0.4142135623731
 10
2916.490034461465
 20
711.3334536165835
 42
0.4142135623731
  0
LINE
  5
253
330
1F
100
AcDbEntity
  8
0-B_寸法
  6
Continuous
 62
   120
370
     5
100
AcDbLine
 10
2916.490034461465
 20
607.3334536165834
 30
0.0
 11
2916.490034461465
 21
712.3334536165834
 31
0.0
  0
MTEXT
  5
254
330
1F
100
AcDbEntity
  8
0-B_寸法
  6
Continuous
 62
     7
370
   211
100
AcDbMText
 10
2906.490034461465
 20
375.6934536165874
 30
0.0
 40
45.71999999999076
 41
89.99999999998181
 46
0.0
 71
     7
 72
     1
  1
{\fＭＳ ゴシック|b0|i0|c128|p49;359}
 11
6.123031769111886E-17
 21
1.0
 31
0.0
 73
     1
 44
1.0
  0
LINE
  5
255
330
1F
100
AcDbEntity
  8
0-B_寸法
  6
Continuous
 62
   120
370
     5
100
AcDbLine
 10
2916.490034461465
 20
607.3334536165834
 30
0.0
 11
2816.490034461465
 21
607.3334536165834
 31
0.0
  0
LWPOLYLINE
  5
256
330
1F
100
AcDbEntity
  8
0-B_寸法
  6
Continuous
 62
     7
370
     9
100
AcDbPolyline
 90
        4
 70
     1
 43
2.0
 10
2917.490034461466
 20
607.3334536165834
 42
0.4142135623731
 10
2916.490034461465
 20
608.3334536165834
 42
0.4142135623731
 10
2915.490034461465
 20
607.3334536165834
 42
0.4142135623731
 10
2916.490034461465
 20
606.3334536165834
 42
0.4142135623731
  0
LINE
  5
257
330
1F
100
AcDbEntity
  8
0-B_寸法
  6
Continuous
 62
   120
370
     5
100
AcDbLine
 10
2916.490034461465
 20
248.3334536165825
 30
0.0
 11
2916.490034461465
 21
607.3334536165834
 31
0.0
  0
MTEXT
  5
258
330
1F
100
AcDbEntity
  8
0-B_寸法
  6
Continuous
 62
     7
370
   211
100
AcDbMText
 10
2906.490034461465
 20
143.6934536165825
 30
0.0
 40
45.72
 41
90.0
 46
0.0
 71
     7
 72
     1
  1
{\fＭＳ ゴシック|b0|i0|c128|p49;105}
 11
6.123031769111886E-17
 21
1.0
 31
0.0
 73
     1
 44
1.0
  0
LINE
  5
259
330
1F
100
AcDbEntity
  8
0-B_寸法
  6
Continuous
 62
   120
370
     5
100
AcDbLine
 10
2916.490034461465
 20
248.3334536165825
 30
0.0
 11
2816.490034461465
 21
248.3334536165825
 31
0.0
  0
LWPOLYLINE
  5
25A
330
1F
100
AcDbEntity
  8
0-B_寸法
  6
Continuous
 62
     7
370
     9
100
AcDbPolyline
 90
        4
 70
     1
 43
2.0
 10
2917.490034461466
 20
248.3334536165825
 42
0.4142135623731
 10
2916.490034461465
 20
249.3334536165825
 42
0.4142135623731
 10
2915.490034461465
 20
248.3334536165825
 42
0.4142135623731
 10
2916.490034461465
 20
247.3334536165825
 42
0.4142135623731
  0
LINE
  5
25B
330
1F
100
AcDbEntity
  8
0-B_寸法
  6
Continuous
 62
   120
370
     5
100
AcDbLine
 10
2916.490034461465
 20
143.3334536165825
 30
0.0
 11
2916.490034461465
 21
248.3334536165825
 31
0.0
  0
LINE
  5
25C
330
1F
100
AcDbEntity
  8
0-B_寸法
  6
Continuous
 62
   120
370
     5
100
AcDbLine
 10
2916.490034461465
 20
143.3334536165825
 30
0.0
 11
2816.490034461465
 21
143.3334536165825
 31
0.0
  0
LWPOLYLINE
  5
25D
330
1F
100
AcDbEntity
  8
0-B_寸法
  6
Continuous
 62
     7
370
     9
100
AcDbPolyline
 90
        4
 70
     1
 43
2.0
 10
2917.490034461466
 20
143.3334536165825
 42
0.4142135623731
 10
2916.490034461465
 20
144.3334536165825
 42
0.4142135623731
 10
2915.490034461465
 20
143.3334536165825
 42
0.4142135623731
 10
2916.490034461465
 20
142.3334536165825
 42
0.4142135623731
  0
LINE
  5
25E
330
1F
100
AcDbEntity
  8
0-6_桟木
  6
Continuous
 62
     7
370
     9
100
AcDbLine
 10
2766.490034461465
 20
248.3334536165825
 30
0.0
 11
2796.490034461465
 21
143.3334536165825
 31
0.0
  0
LINE
  5
25F
330
1F
100
AcDbEntity
  8
0-6_桟木
  6
Continuous
 62
     7
370
     9
100
AcDbLine
 10
2766.490034461465
 20
143.3334536165825
 30
0.0
 11
2796.490034461465
 21
248.3334536165825
 31
0.0
  0
LINE
  5
260
330
1F
100
AcDbEntity
  8
0-6_桟木
  6
Continuous
 62
    92
370
    13
100
AcDbLine
 10
2796.490034461465
 20
143.3334536165825
 30
0.0
 11
2796.490034461465
 21
248.3334536165825
 31
0.0
  0
LINE
  5
261
330
1F
100
AcDbEntity
  8
0-6_桟木
  6
Continuous
 62
    92
370
    13
100
AcDbLine
 10
2766.490034461465
 20
143.3334536165825
 30
0.0
 11
2796.490034461465
 21
143.3334536165825
 31
0.0
  0
LINE
  5
262
330
1F
100
AcDbEntity
  8
0-6_桟木
  6
Continuous
 62
    92
370
    13
100
AcDbLine
 10
2796.490034461465
 20
248.3334536165825
 30
0.0
 11
2766.490034461465
 21
248.3334536165825
 31
0.0
  0
LINE
  5
263
330
1F
100
AcDbEntity
  8
0-6_桟木
  6
Continuous
 62
    92
370
    13
100
AcDbLine
 10
2766.490034461465
 20
248.3334536165825
 30
0.0
 11
2766.490034461465
 21
143.3334536165825
 31
0.0
  0
LINE
  5
264
330
1F
100
AcDbEntity
  8
0-6_桟木
  6
Continuous
 62
     7
370
     9
100
AcDbLine
 10
2766.490034461465
 20
712.3334536165834
 30
0.0
 11
2796.490034461465
 21
607.3334536165834
 31
0.0
  0
LINE
  5
265
330
1F
100
AcDbEntity
  8
0-6_桟木
  6
Continuous
 62
     7
370
     9
100
AcDbLine
 10
2766.490034461465
 20
607.3334536165834
 30
0.0
 11
2796.490034461465
 21
712.3334536165834
 31
0.0
  0
LINE
  5
266
330
1F
100
AcDbEntity
  8
0-6_桟木
  6
Continuous
 62
    92
370
    13
100
AcDbLine
 10
2796.490034461465
 20
607.3334536165834
 30
0.0
 11
2796.490034461465
 21
712.3334536165834
 31
0.0
  0
LINE
  5
267
330
1F
100
AcDbEntity
  8
0-6_桟木
  6
Continuous
 62
    92
370
    13
100
AcDbLine
 10
2796.490034461465
 20
712.3334536165834
 30
0.0
 11
2766.490034461465
 21
712.3334536165834
 31
0.0
  0
LINE
  5
268
330
1F
100
AcDbEntity
  8
0-6_桟木
  6
Continuous
 62
    92
370
    13
100
AcDbLine
 10
2766.490034461465
 20
712.3334536165834
 30
0.0
 11
2766.490034461465
 21
607.3334536165834
 31
0.0
  0
LINE
  5
269
330
1F
100
AcDbEntity
  8
0-6_桟木
  6
Continuous
 62
    92
370
    13
100
AcDbLine
 10
2766.490034461465
 20
607.3334536165834
 30
0.0
 11
2796.490034461465
 21
607.3334536165834
 31
0.0
  0
LINE
  5
26A
330
1F
100
AcDbEntity
  8
0-9__
  6
Continuous
 62
     7
370
     9
100
AcDbLine
 10
2766.490034461465
 20
-1520.666546383418
 30
0.0
 11
2461.490034461465
 21
-1520.666546383418
 31
0.0
  0
LINE
  5
26B
330
1F
100
AcDbEntity
  8
0-9__
  6
Continuous
 62
     7
370
     9
100
AcDbLine
 10
2461.490034461465
 20
-1520.666546383418
 30
0.0
 11
2461.490034461465
 21
-1456.666546383418
 31
0.0
  0
LINE
  5
26C
330
1F
100
AcDbEntity
  8
0-9__
  6
Continuous
 62
     7
370
     9
100
AcDbLine
 10
2461.490034461465
 20
-1456.666546383418
 30
0.0
 11
2766.490034461465
 21
-1456.666546383418
 31
0.0
  0
LINE
  5
26D
330
1F
100
AcDbEntity
  8
0-9__
  6
Continuous
 62
     7
370
     9
100
AcDbLine
 10
2476.490034461465
 20
-1520.666546383418
 30
0.0
 11
2476.490034461465
 21
-1456.666546383418
 31
0.0
  0
LINE
  5
26E
330
1F
100
AcDbEntity
  8
0-B_寸法
  6
Continuous
 62
   120
370
     5
100
AcDbLine
 10
2461.490034461465
 20
-1670.666546383418
 30
0.0
 11
2461.490034461465
 21
-1570.666546383418
 31
0.0
  0
LWPOLYLINE
  5
26F
330
1F
100
AcDbEntity
  8
0-B_寸法
  6
Continuous
 62
     7
370
     9
100
AcDbPolyline
 90
        4
 70
     1
 43
2.0
 10
2462.490034461465
 20
-1670.666546383418
 42
0.4142135623731
 10
2461.490034461465
 20
-1669.666546383418
 42
0.4142135623731
 10
2460.490034461465
 20
-1670.666546383418
 42
0.4142135623731
 10
2461.490034461465
 20
-1671.666546383418
 42
0.4142135623731
  0
LINE
  5
270
330
1F
100
AcDbEntity
  8
0-B_寸法
  6
Continuous
 62
   120
370
     5
100
AcDbLine
 10
2766.490034461465
 20
-1670.666546383418
 30
0.0
 11
2461.490034461465
 21
-1670.666546383418
 31
0.0
  0
MTEXT
  5
271
330
1F
100
AcDbEntity
  8
0-B_寸法
  6
Continuous
 62
     7
370
   211
100
AcDbMText
 10
2478.990034461466
 20
-1667.806546383418
 30
0.0
 40
45.72000000000004
 41
270.0000000000003
 46
0.0
 71
     7
 72
     1
  1
{\fＭＳ ゴシック|b0|i0|c128|p49;台輪＝305}
 73
     1
 44
1.0
  0
LINE
  5
272
330
1F
100
AcDbEntity
  8
0-A_文字
  6
JWW_HOJO
 62
     7
370
     9
100
AcDbLine
 10
3016.490034461461
 20
-1520.666546383418
 30
0.0
 11
-3038.50996539891
 21
-1520.666546383418
 31
0.0
  0
LINE
  5
273
330
1F
100
AcDbEntity
  8
0-A_文字
  6
JWW_CENTER1
 62
     7
370
     9
100
AcDbLine
 10
-2788.50996539891
 20
712.3334536165817
 30
0.0
 11
2766.490034461465
 21
712.3334536165817
 31
0.0
  0
LINE
  5
274
330
1F
100
AcDbEntity
  8
0-0_補助線
  6
JWW_HOJO
 62
   120
370
     5
100
AcDbLine
 10
3016.490034461461
 20
-1570.666546383418
 30
0.0
 11
-3038.50996539891
 21
-1570.666546383418
 31
0.0
  0
LINE
  5
275
330
1F
100
AcDbEntity
  8
0-0_補助線
  6
JWW_HOJO
 62
   120
370
     5
100
AcDbLine
 10
3016.490034461461
 20
-1670.666546383418
 30
0.0
 11
-3038.50996539891
 21
-1670.666546383418
 31
0.0
  0
LINE
  5
276
330
1F
100
AcDbEntity
  8
0-0_補助線
  6
JWW_HOJO
 62
   120
370
     5
100
AcDbLine
 10
3016.490034461461
 20
-1770.666546383418
 30
0.0
 11
-3038.50996539891
 21
-1770.666546383418
 31
0.0
  0
LINE
  5
277
330
1F
100
AcDbEntity
  8
0-B_寸法
  6
JWW_DASHED2
 62
   120
370
     5
100
AcDbLine
 10
2766.490034368388
 20
-1520.666546383416
 30
0.0
 11
-2577.290492746736
 21
-1520.666546383416
 31
0.0
  0
LINE
  5
278
330
1F
100
AcDbEntity
  8
0-B_寸法
  6
JWW_DASHED2
 62
   120
370
     5
100
AcDbLine
 10
2766.490034368388
 20
-1377.666546383418
 30
0.0
 11
-2788.50996539891
 21
-1377.666546383418
 31
0.0
  0
LINE
  5
279
330
1F
100
AcDbEntity
  8
0-B_寸法
  6
JWW_DASHED2
 62
   120
370
     5
100
AcDbLine
 10
2766.490034461465
 20
712.3334536165834
 30
0.0
 11
-2788.509965398908
 21
712.3334536165834
 31
0.0
  0
LINE
  5
27A
330
1F
100
AcDbEntity
  8
0-B_寸法
  6
JWW_DASHED2
 62
   120
370
     5
100
AcDbLine
 10
2766.490034461465
 20
607.3334536165834
 30
0.0
 11
-2788.509965398908
 21
607.3334536165834
 31
0.0
  0
LINE
  5
27B
330
1F
100
AcDbEntity
  8
0-B_寸法
  6
JWW_DASHED2
 62
   120
370
     5
100
AcDbLine
 10
2766.490034461465
 20
248.3334536165825
 30
0.0
 11
-2788.509965398908
 21
248.3334536165825
 31
0.0
  0
LINE
  5
27C
330
1F
100
AcDbEntity
  8
0-B_寸法
  6
JWW_DASHED2
 62
   120
370
     5
100
AcDbLine
 10
2766.490034461465
 20
143.3334536165825
 30
0.0
 11
-2788.509965398908
 21
143.3334536165825
 31
0.0
  0
LINE
  5
27D
330
1F
100
AcDbEntity
  8
0-A_文字
  6
JWW_CENTER1
 62
     7
370
     9
100
AcDbLine
 10
-2788.50996539891
 20
-1520.666546383418
 30
0.0
 11
2766.490034461465
 21
-1520.666546383418
 31
0.0
  0
LINE
  5
27E
330
1F
100
AcDbEntity
  8
0-A_文字
  6
JWW_HOJO
 62
     7
370
     9
100
AcDbLine
 10
3016.490034461461
 20
712.3334536165817
 30
0.0
 11
-2838.509965398915
 21
712.3334536165817
 31
0.0
  0
LINE
  5
27F
330
1F
100
AcDbEntity
  8
0-0_補助線
  6
JWW_HOJO
 62
   120
370
     5
100
AcDbLine
 10
-1444.509965398913
 20
-1851.166546383425
 30
0.0
 11
-1444.509965398913
 21
862.3334536165817
 31
0.0
  0
LINE
  5
280
330
1F
100
AcDbEntity
  8
0-0_補助線
  6
JWW_HOJO
 62
   120
370
     5
100
AcDbLine
 10
1049.490034601085
 20
-1851.166546383425
 30
0.0
 11
1049.490034601085
 21
862.3334536165817
 31
0.0
  0
LINE
  5
281
330
1F
100
AcDbEntity
  8
0-0_補助線
  6
JWW_HOJO
 62
   120
370
     5
100
AcDbLine
 10
1849.490034554542
 20
-1851.166546383425
 30
0.0
 11
1849.490034554542
 21
862.3334536165817
 31
0.0
  0
LINE
  5
282
330
1F
100
AcDbEntity
  8
0-0_補助線
  6
JWW_HOJO
 62
   120
370
     5
100
AcDbLine
 10
1949.490034554542
 20
-1851.166546383425
 30
0.0
 11
1949.490034554542
 21
862.3334536165817
 31
0.0
  0
LINE
  5
283
330
1F
100
AcDbEntity
  8
0-0_補助線
  6
JWW_HOJO
 62
   120
370
     5
100
AcDbLine
 10
2916.490034461465
 20
-1851.166546383425
 30
0.0
 11
2916.490034601082
 21
862.3334536165817
 31
0.0
  0
LINE
  5
284
330
1F
100
AcDbEntity
  8
0-0_補助線
  6
JWW_HOJO
 62
   120
370
     5
100
AcDbLine
 10
3016.490034601082
 20
862.3334536165817
 30
0.0
 11
-2938.509965398915
 21
862.3334536165817
 31
0.0
  0
LINE
  5
285
330
1F
100
AcDbEntity
  8
0-0_補助線
  6
JWW_HOJO
 62
   120
370
     5
100
AcDbLine
 10
-2938.509965398915
 20
762.3334536165817
 30
0.0
 11
3016.490034601082
 21
762.3334536165817
 31
0.0
  0
LINE
  5
286
330
1F
100
AcDbEntity
  8
0-0_補助線
  6
JWW_HOJO
 62
   120
370
     5
100
AcDbLine
 10
-544.5099653989138
 20
862.3334536165817
 30
0.0
 11
-544.5099653989138
 21
-1851.166546383425
 31
0.0
  0
LINE
  5
287
330
1F
100
AcDbEntity
  8
0-0_補助線
  6
JWW_HOJO
 62
   120
370
     5
100
AcDbLine
 10
-344.5099653989138
 20
-1851.166546383425
 30
0.0
 11
-344.5099653989138
 21
862.3334536165817
 31
0.0
  0
LINE
  5
288
330
1F
100
AcDbEntity
  8
0-0_補助線
  6
JWW_HOJO
 62
   120
370
     5
100
AcDbLine
 10
-2938.509965398912
 20
-413.6665463834251
 30
0.0
 11
2916.490034461465
 21
-413.6665463834251
 31
0.0
  0
LINE
  5
289
330
1F
100
AcDbEntity
  8
0-1_本体
  6
Continuous
 62
     7
370
     9
100
AcDbLine
 10
-1594.509965398915
 20
-1456.666546383426
 30
0.0
 11
-2390.509965398915
 21
-1456.666546383426
 31
0.0
  0
LINE
  5
28A
330
1F
100
AcDbEntity
  8
0-2_扉
  6
Continuous
 62
    92
370
    13
100
AcDbLine
 10
-1990.509965398915
 20
-1453.666546383427
 30
0.0
 11
-1596.509965398914
 21
-1453.666546383427
 31
0.0
  0
LINE
  5
28B
330
1F
100
AcDbEntity
  8
0-2_扉
  6
Continuous
 62
    92
370
    13
100
AcDbLine
 10
-1994.509965398916
 20
-1453.666546383427
 30
0.0
 11
-2388.509965398917
 21
-1453.666546383427
 31
0.0
  0
LINE
  5
28C
330
1F
100
AcDbEntity
  8
0-1_本体
  6
Continuous
 62
     7
370
     9
100
AcDbLine
 10
-1594.509965398915
 20
-695.6665463834253
 30
0.0
 11
-1594.509965398915
 21
-1456.666546383426
 31
0.0
  0
LINE
  5
28D
330
1F
100
AcDbEntity
  8
0-2_扉
  6
Continuous
 62
    92
370
    13
100
AcDbLine
 10
-1596.509965398914
 20
-698.6666905465796
 30
0.0
 11
-1596.509965398914
 21
-1453.666546383427
 31
0.0
  0
LINE
  5
28E
330
1F
100
AcDbEntity
  8
0-2_扉
  6
Continuous
 62
    92
370
    13
100
AcDbLine
 10
-2388.509965398917
 20
-698.6666905465796
 30
0.0
 11
-2388.509965398917
 21
-1453.666546383427
 31
0.0
  0
LINE
  5
28F
330
1F
100
AcDbEntity
  8
0-2_扉
  6
Continuous
 62
    92
370
    13
100
AcDbLine
 10
-1994.509965398916
 20
-698.6666905465796
 30
0.0
 11
-1994.509965398916
 21
-1453.666546383427
 31
0.0
  0
LINE
  5
290
330
1F
100
AcDbEntity
  8
0-2_扉
  6
Continuous
 62
    92
370
    13
100
AcDbLine
 10
-1990.509965398915
 20
-698.6666905465796
 30
0.0
 11
-1990.509965398915
 21
-1453.666546383427
 31
0.0
  0
LINE
  5
291
330
1F
100
AcDbEntity
  8
0-2_扉
  6
Continuous
 62
    92
370
    13
100
AcDbLine
 10
-1994.509965398916
 20
-698.6666905465796
 30
0.0
 11
-2388.509965398917
 21
-698.6666905465796
 31
0.0
  0
LINE
  5
292
330
1F
100
AcDbEntity
  8
0-2_扉
  6
Continuous
 62
    92
370
    13
100
AcDbLine
 10
-1990.509965398915
 20
-698.6666905465796
 30
0.0
 11
-1596.509965398914
 21
-698.6666905465796
 31
0.0
  0
LINE
  5
293
330
1F
100
AcDbEntity
  8
0-1_本体
  6
Continuous
 62
     7
370
     9
100
AcDbLine
 10
-2390.509965398915
 20
-1456.666546383426
 30
0.0
 11
-2788.509965398914
 21
-1456.666546383426
 31
0.0
  0
LINE
  5
294
330
1F
100
AcDbEntity
  8
0-2_扉
  6
Continuous
 62
    92
370
    13
100
AcDbLine
 10
-2786.509965398914
 20
-1453.666546383427
 30
0.0
 11
-2392.509965398914
 21
-1453.666546383427
 31
0.0
  0
LINE
  5
295
330
1F
100
AcDbEntity
  8
0-1_本体
  6
Continuous
 62
     7
370
     9
100
AcDbLine
 10
-2788.509965398914
 20
-1456.666546383426
 30
0.0
 11
-2788.509965398914
 21
-695.6665463834253
 31
0.0
  0
LINE
  5
296
330
1F
100
AcDbEntity
  8
0-2_扉
  6
Continuous
 62
    92
370
    13
100
AcDbLine
 10
-2786.509965398914
 20
-698.6665265882402
 30
0.0
 11
-2786.509965398914
 21
-1453.666546383427
 31
0.0
  0
LINE
  5
297
330
1F
100
AcDbEntity
  8
0-2_扉
  6
Continuous
 62
    92
370
    13
100
AcDbLine
 10
-2392.509965398914
 20
-698.6665265882402
 30
0.0
 11
-2392.509965398914
 21
-1453.666546383427
 31
0.0
  0
LINE
  5
298
330
1F
100
AcDbEntity
  8
0-2_扉
  6
Continuous
 62
    92
370
    13
100
AcDbLine
 10
-2786.509965398914
 20
-698.6665265882402
 30
0.0
 11
-2392.509965398914
 21
-698.6665265882402
 31
0.0
  0
LINE
  5
299
330
1F
100
AcDbEntity
  8
0-1_本体
  6
Continuous
 62
     7
370
     9
100
AcDbLine
 10
-2390.509965398915
 20
-1456.666546383426
 30
0.0
 11
-2390.509965398915
 21
-695.6665463834253
 31
0.0
  0
LINE
  5
29A
330
1F
100
AcDbEntity
  8
0-1_本体
  6
Continuous
 62
     7
370
     9
100
AcDbLine
 10
-1594.509965398915
 20
712.3334536165811
 30
0.0
 11
-2390.509965398915
 21
712.3334536165811
 31
0.0
  0
LINE
  5
29B
330
1F
100
AcDbEntity
  8
0-1_本体
  6
Continuous
 62
     7
370
     9
100
AcDbLine
 10
-2390.509965398915
 20
712.3334536165811
 30
0.0
 11
-2390.509965398915
 21
143.3334536165808
 31
0.0
  0
LINE
  5
29C
330
1F
100
AcDbEntity
  8
0-1_本体
  6
Continuous
 62
     7
370
     9
100
AcDbLine
 10
-2390.509965398915
 20
143.3334536165808
 30
0.0
 11
-1594.509965398915
 21
143.3334536165808
 31
0.0
  0
LINE
  5
29D
330
1F
100
AcDbEntity
  8
0-1_本体
  6
Continuous
 62
     7
370
     9
100
AcDbLine
 10
-1594.509965398915
 20
143.3334536165808
 30
0.0
 11
-1594.509965398915
 21
712.3334536165811
 31
0.0
  0
LINE
  5
29E
330
1F
100
AcDbEntity
  8
0-2_扉
  6
Continuous
 62
    92
370
    13
100
AcDbLine
 10
-1994.509965398916
 20
709.3334536165816
 30
0.0
 11
-1994.509965398916
 21
146.3334536165803
 31
0.0
  0
LINE
  5
29F
330
1F
100
AcDbEntity
  8
0-2_扉
  6
Continuous
 62
    92
370
    13
100
AcDbLine
 10
-1990.509965398915
 20
709.3334536165816
 30
0.0
 11
-1990.509965398915
 21
146.3334536165803
 31
0.0
  0
LINE
  5
2A0
330
1F
100
AcDbEntity
  8
0-2_扉
  6
Continuous
 62
    92
370
    13
100
AcDbLine
 10
-1994.509965398916
 20
146.3334536165803
 30
0.0
 11
-2388.509965398917
 21
146.3334536165803
 31
0.0
  0
LINE
  5
2A1
330
1F
100
AcDbEntity
  8
0-2_扉
  6
Continuous
 62
    92
370
    13
100
AcDbLine
 10
-1994.509965398916
 20
709.3334536165816
 30
0.0
 11
-2388.509965398917
 21
709.3334536165816
 31
0.0
  0
LINE
  5
2A2
330
1F
100
AcDbEntity
  8
0-2_扉
  6
Continuous
 62
    92
370
    13
100
AcDbLine
 10
-2388.509965398917
 20
146.3334536165803
 30
0.0
 11
-2388.509965398917
 21
709.3334536165816
 31
0.0
  0
LINE
  5
2A3
330
1F
100
AcDbEntity
  8
0-2_扉
  6
Continuous
 62
    92
370
    13
100
AcDbLine
 10
-1990.509965398915
 20
709.3334536165816
 30
0.0
 11
-1596.509965398916
 21
709.3334536165816
 31
0.0
  0
LINE
  5
2A4
330
1F
100
AcDbEntity
  8
0-2_扉
  6
Continuous
 62
    92
370
    13
100
AcDbLine
 10
-1990.509965398915
 20
146.3334536165803
 30
0.0
 11
-1596.509965398916
 21
146.3334536165803
 31
0.0
  0
LINE
  5
2A5
330
1F
100
AcDbEntity
  8
0-2_扉
  6
Continuous
 62
    92
370
    13
100
AcDbLine
 10
-1596.509965398916
 20
709.3334536165816
 30
0.0
 11
-1596.509965398916
 21
146.3334536165803
 31
0.0
  0
LINE
  5
2A6
330
1F
100
AcDbEntity
  8
0-0_補助線
  6
JWW_HOJO
 62
     7
370
     9
100
AcDbLine
 10
-1594.509965398915
 20
-1851.166546383425
 30
0.0
 11
-1594.509965398915
 21
862.3334536165817
 31
0.0
  0
LINE
  5
2A7
330
1F
100
AcDbEntity
  8
0-0_補助線
  6
JWW_HOJO
 62
     7
370
     9
100
AcDbLine
 10
-2390.509965398915
 20
-1851.166546383425
 30
0.0
 11
-2390.509965398915
 21
862.3334536165817
 31
0.0
  0
LINE
  5
2A8
330
1F
100
AcDbEntity
  8
0-1_本体
  6
Continuous
 62
     7
370
     9
100
AcDbLine
 10
-2788.509965398912
 20
712.3334536165811
 30
0.0
 11
-2788.509965398912
 21
143.3334536165808
 31
0.0
  0
LINE
  5
2A9
330
1F
100
AcDbEntity
  8
0-1_本体
  6
Continuous
 62
     7
370
     9
100
AcDbLine
 10
-2390.509965398915
 20
712.3334536165811
 30
0.0
 11
-2788.509965398912
 21
712.3334536165811
 31
0.0
  0
LINE
  5
2AA
330
1F
100
AcDbEntity
  8
0-1_本体
  6
Continuous
 62
     7
370
     9
100
AcDbLine
 10
-2788.509965398912
 20
143.3334536165808
 30
0.0
 11
-2390.509965398915
 21
143.3334536165808
 31
0.0
  0
LINE
  5
2AB
330
1F
100
AcDbEntity
  8
0-2_扉
  6
Continuous
 62
    92
370
    13
100
AcDbLine
 10
-2786.509965398914
 20
709.3334536165816
 30
0.0
 11
-2786.509965398914
 21
146.3334536165803
 31
0.0
  0
LINE
  5
2AC
330
1F
100
AcDbEntity
  8
0-2_扉
  6
Continuous
 62
    92
370
    13
100
AcDbLine
 10
-2786.509965398914
 20
709.3334536165816
 30
0.0
 11
-2392.509965398914
 21
709.3334536165816
 31
0.0
  0
LINE
  5
2AD
330
1F
100
AcDbEntity
  8
0-2_扉
  6
Continuous
 62
    92
370
    13
100
AcDbLine
 10
-2786.509965398914
 20
146.3334536165803
 30
0.0
 11
-2392.509965398914
 21
146.3334536165803
 31
0.0
  0
LINE
  5
2AE
330
1F
100
AcDbEntity
  8
0-2_扉
  6
Continuous
 62
    92
370
    13
100
AcDbLine
 10
-2392.509965398914
 20
709.3334536165816
 30
0.0
 11
-2392.509965398914
 21
146.3334536165803
 31
0.0
  0
LINE
  5
2AF
330
1F
100
AcDbEntity
  8
0-0_補助線
  6
JWW_HOJO
 62
     7
370
     9
100
AcDbLine
 10
-2788.509965398914
 20
-1851.166546383425
 30
0.0
 11
-2788.509965398914
 21
862.3334536165817
 31
0.0
  0
MTEXT
  5
2B0
330
1F
100
AcDbEntity
  8
0-B_寸法
  6
Continuous
 62
     7
370
   211
100
AcDbMText
 10
-1610.509965398915
 20
865.1934536165811
 30
0.0
 40
45.72
 41
30.0
 46
0.0
 71
     7
 72
     1
  1
{\fＭＳ ゴシック|b0|i0|c128|p49;2}
 73
     1
 44
1.0
  0
MTEXT
  5
2B1
330
1F
100
AcDbEntity
  8
0-B_寸法
  6
Continuous
 62
     7
370
   211
100
AcDbMText
 10
-1928.509965398914
 20
865.1934536165811
 30
0.0
 40
45.71999999999999
 41
270.0
 46
0.0
 71
     7
 72
     1
  1
{\fＭＳ ゴシック|b0|i0|c128|p49;ＤＷ＝394}
 73
     1
 44
1.0
  0
MTEXT
  5
2B2
330
1F
100
AcDbEntity
  8
0-B_寸法
  6
Continuous
 62
     7
370
   211
100
AcDbMText
 10
-2007.509965398915
 20
865.1934536165811
 30
0.0
 40
45.72
 41
30.0
 46
0.0
 71
     7
 72
     1
  1
{\fＭＳ ゴシック|b0|i0|c128|p49;4}
 73
     1
 44
1.0
  0
MTEXT
  5
2B3
330
1F
100
AcDbEntity
  8
0-B_寸法
  6
Continuous
 62
     7
370
   211
100
AcDbMText
 10
-2326.509965398914
 20
865.1934536165811
 30
0.0
 40
45.71999999999999
 41
270.0
 46
0.0
 71
     7
 72
     1
  1
{\fＭＳ ゴシック|b0|i0|c128|p49;ＤＷ＝394}
 73
     1
 44
1.0
  0
MTEXT
  5
2B4
330
1F
100
AcDbEntity
  8
0-B_寸法
  6
Continuous
 62
     7
370
   211
100
AcDbMText
 10
-2383.509965398914
 20
865.1934536165811
 30
0.0
 40
45.72
 41
30.0
 46
0.0
 71
     7
 72
     1
  1
{\fＭＳ ゴシック|b0|i0|c128|p49;2}
 73
     1
 44
1.0
  0
MTEXT
  5
2B5
330
1F
100
AcDbEntity
  8
0-B_寸法
  6
Continuous
 62
     7
370
   211
100
AcDbMText
 10
-2425.509965398917
 20
865.1934536165862
 30
0.0
 40
45.72
 41
30.0
 46
0.0
 71
     7
 72
     1
  1
{\fＭＳ ゴシック|b0|i0|c128|p49;2}
 73
     1
 44
1.0
  0
MTEXT
  5
2B6
330
1F
100
AcDbEntity
  8
0-B_寸法
  6
Continuous
 62
     7
370
   211
100
AcDbMText
 10
-2724.509965398915
 20
865.1934536165862
 30
0.0
 40
45.71999999999995
 41
269.9999999999997
 46
0.0
 71
     7
 72
     1
  1
{\fＭＳ ゴシック|b0|i0|c128|p49;ＤＷ＝394}
 73
     1
 44
1.0
  0
MTEXT
  5
2B7
330
1F
100
AcDbEntity
  8
0-B_寸法
  6
Continuous
 62
     7
370
   211
100
AcDbMText
 10
-2802.509965398915
 20
865.1934536165862
 30
0.0
 40
45.72
 41
30.0
 46
0.0
 71
     7
 72
     1
  1
{\fＭＳ ゴシック|b0|i0|c128|p49;2}
 73
     1
 44
1.0
  0
LINE
  5
2B8
330
1F
100
AcDbEntity
  8
0-B_寸法
  6
Continuous
 62
   120
370
     5
100
AcDbLine
 10
-2390.509965398915
 20
862.3334536165862
 30
0.0
 11
-2390.509965398912
 21
762.3334536165811
 31
0.0
  0
LWPOLYLINE
  5
2B9
330
1F
100
AcDbEntity
  8
0-B_寸法
  6
Continuous
 62
     7
370
     9
100
AcDbPolyline
 90
        4
 70
     1
 43
2.0
 10
-2389.509965398916
 20
862.3334536165862
 42
0.4142135623731
 10
-2390.509965398915
 20
863.3334536165862
 42
0.4142135623731
 10
-2391.509965398915
 20
862.3334536165862
 42
0.4142135623731
 10
-2390.509965398915
 20
861.3334536165862
 42
0.4142135623731
  0
LINE
  5
2BA
330
1F
100
AcDbEntity
  8
0-B_寸法
  6
Continuous
 62
   120
370
     5
100
AcDbLine
 10
-2392.509965398914
 20
862.3334536165862
 30
0.0
 11
-2390.509965398915
 21
862.3334536165862
 31
0.0
  0
LINE
  5
2BB
330
1F
100
AcDbEntity
  8
0-B_寸法
  6
Continuous
 62
   120
370
     5
100
AcDbLine
 10
-2392.509965398914
 20
862.3334536165862
 30
0.0
 11
-2392.509965398914
 21
762.3334536165862
 31
0.0
  0
LWPOLYLINE
  5
2BC
330
1F
100
AcDbEntity
  8
0-B_寸法
  6
Continuous
 62
     7
370
     9
100
AcDbPolyline
 90
        4
 70
     1
 43
2.0
 10
-2391.509965398914
 20
862.3334536165862
 42
0.4142135623731
 10
-2392.509965398914
 20
863.3334536165862
 42
0.4142135623731
 10
-2393.509965398914
 20
862.3334536165862
 42
0.4142135623731
 10
-2392.509965398914
 20
861.3334536165862
 42
0.4142135623731
  0
LINE
  5
2BD
330
1F
100
AcDbEntity
  8
0-B_寸法
  6
Continuous
 62
   120
370
     5
100
AcDbLine
 10
-2786.509965398916
 20
862.3334536165862
 30
0.0
 11
-2392.509965398914
 21
862.3334536165862
 31
0.0
  0
LINE
  5
2BE
330
1F
100
AcDbEntity
  8
0-B_寸法
  6
Continuous
 62
   120
370
     5
100
AcDbLine
 10
-2786.509965398916
 20
862.3334536165862
 30
0.0
 11
-2786.509965398916
 21
762.3334536165862
 31
0.0
  0
LINE
  5
2BF
330
1F
100
AcDbEntity
  8
0-B_寸法
  6
Continuous
 62
   120
370
     5
100
AcDbLine
 10
-2788.509965398914
 20
862.3334536165862
 30
0.0
 11
-2788.509965398914
 21
762.3334536165862
 31
0.0
  0
LWPOLYLINE
  5
2C0
330
1F
100
AcDbEntity
  8
0-B_寸法
  6
Continuous
 62
     7
370
     9
100
AcDbPolyline
 90
        4
 70
     1
 43
2.0
 10
-2785.509965398915
 20
862.3334536165862
 42
0.4142135623731
 10
-2786.509965398916
 20
863.3334536165862
 42
0.4142135623731
 10
-2787.509965398916
 20
862.3334536165862
 42
0.4142135623731
 10
-2786.509965398916
 20
861.3334536165862
 42
0.4142135623731
  0
LWPOLYLINE
  5
2C1
330
1F
100
AcDbEntity
  8
0-B_寸法
  6
Continuous
 62
     7
370
     9
100
AcDbPolyline
 90
        4
 70
     1
 43
2.0
 10
-2787.509965398914
 20
862.3334536165862
 42
0.4142135623731
 10
-2788.509965398914
 20
863.3334536165862
 42
0.4142135623731
 10
-2789.509965398915
 20
862.3334536165862
 42
0.4142135623731
 10
-2788.509965398914
 20
861.3334536165862
 42
0.4142135623731
  0
LINE
  5
2C2
330
1F
100
AcDbEntity
  8
0-B_寸法
  6
Continuous
 62
   120
370
     5
100
AcDbLine
 10
-2788.509965398914
 20
862.3334536165862
 30
0.0
 11
-2786.509965398916
 21
862.3334536165862
 31
0.0
  0
LINE
  5
2C3
330
1F
100
AcDbEntity
  8
0-B_寸法
  6
Continuous
 62
   120
370
     5
100
AcDbLine
 10
-2390.509965398912
 20
862.3334536165811
 30
0.0
 11
-2388.509965398914
 21
862.3334536165811
 31
0.0
  0
LWPOLYLINE
  5
2C4
330
1F
100
AcDbEntity
  8
0-B_寸法
  6
Continuous
 62
     7
370
     9
100
AcDbPolyline
 90
        4
 70
     1
 43
2.0
 10
-2387.509965398914
 20
862.3334536165811
 42
0.4142135623731
 10
-2388.509965398914
 20
863.333453616581
 42
0.4142135623731
 10
-2389.509965398914
 20
862.3334536165811
 42
0.4142135623731
 10
-2388.509965398914
 20
861.3334536165812
 42
0.4142135623731
  0
LINE
  5
2C5
330
1F
100
AcDbEntity
  8
0-B_寸法
  6
Continuous
 62
   120
370
     5
100
AcDbLine
 10
-2388.509965398914
 20
862.3334536165811
 30
0.0
 11
-2388.509965398914
 21
762.3334536165811
 31
0.0
  0
LINE
  5
2C6
330
1F
100
AcDbEntity
  8
0-B_寸法
  6
Continuous
 62
   120
370
     5
100
AcDbLine
 10
-2388.509965398914
 20
862.3334536165811
 30
0.0
 11
-1994.509965398916
 21
862.3334536165811
 31
0.0
  0
LWPOLYLINE
  5
2C7
330
1F
100
AcDbEntity
  8
0-B_寸法
  6
Continuous
 62
     7
370
     9
100
AcDbPolyline
 90
        4
 70
     1
 43
2.0
 10
-1993.509965398916
 20
862.3334536165811
 42
0.4142135623731
 10
-1994.509965398916
 20
863.333453616581
 42
0.4142135623731
 10
-1995.509965398916
 20
862.3334536165811
 42
0.4142135623731
 10
-1994.509965398916
 20
861.3334536165812
 42
0.4142135623731
  0
LINE
  5
2C8
330
1F
100
AcDbEntity
  8
0-B_寸法
  6
Continuous
 62
   120
370
     5
100
AcDbLine
 10
-1994.509965398916
 20
862.3334536165811
 30
0.0
 11
-1994.509965398916
 21
762.3334536165811
 31
0.0
  0
LINE
  5
2C9
330
1F
100
AcDbEntity
  8
0-B_寸法
  6
Continuous
 62
   120
370
     5
100
AcDbLine
 10
-1994.509965398916
 20
862.3334536165811
 30
0.0
 11
-1990.509965398912
 21
862.3334536165811
 31
0.0
  0
LWPOLYLINE
  5
2CA
330
1F
100
AcDbEntity
  8
0-B_寸法
  6
Continuous
 62
     7
370
     9
100
AcDbPolyline
 90
        4
 70
     1
 43
2.0
 10
-1989.509965398912
 20
862.3334536165811
 42
0.4142135623731
 10
-1990.509965398912
 20
863.333453616581
 42
0.4142135623731
 10
-1991.509965398912
 20
862.3334536165811
 42
0.4142135623731
 10
-1990.509965398912
 20
861.3334536165812
 42
0.4142135623731
  0
LINE
  5
2CB
330
1F
100
AcDbEntity
  8
0-B_寸法
  6
Continuous
 62
   120
370
     5
100
AcDbLine
 10
-1990.509965398912
 20
862.3334536165811
 30
0.0
 11
-1990.509965398912
 21
762.3334536165811
 31
0.0
  0
LINE
  5
2CC
330
1F
100
AcDbEntity
  8
0-B_寸法
  6
Continuous
 62
   120
370
     5
100
AcDbLine
 10
-1990.509965398912
 20
862.3334536165811
 30
0.0
 11
-1596.509965398914
 21
862.3334536165811
 31
0.0
  0
LWPOLYLINE
  5
2CD
330
1F
100
AcDbEntity
  8
0-B_寸法
  6
Continuous
 62
     7
370
     9
100
AcDbPolyline
 90
        4
 70
     1
 43
2.0
 10
-1595.509965398914
 20
862.3334536165811
 42
0.4142135623731
 10
-1596.509965398914
 20
863.333453616581
 42
0.4142135623731
 10
-1597.509965398914
 20
862.3334536165811
 42
0.4142135623731
 10
-1596.509965398914
 20
861.3334536165812
 42
0.4142135623731
  0
LINE
  5
2CE
330
1F
100
AcDbEntity
  8
0-B_寸法
  6
Continuous
 62
   120
370
     5
100
AcDbLine
 10
-1596.509965398914
 20
862.3334536165811
 30
0.0
 11
-1596.509965398914
 21
762.3334536165811
 31
0.0
  0
LINE
  5
2CF
330
1F
100
AcDbEntity
  8
0-B_寸法
  6
Continuous
 62
   120
370
     5
100
AcDbLine
 10
-1596.509965398914
 20
862.3334536165811
 30
0.0
 11
-1594.509965398915
 21
862.3334536165811
 31
0.0
  0
LWPOLYLINE
  5
2D0
330
1F
100
AcDbEntity
  8
0-B_寸法
  6
Continuous
 62
     7
370
     9
100
AcDbPolyline
 90
        4
 70
     1
 43
2.0
 10
-1593.509965398915
 20
862.3334536165811
 42
0.4142135623731
 10
-1594.509965398915
 20
863.333453616581
 42
0.4142135623731
 10
-1595.509965398915
 20
862.3334536165811
 42
0.4142135623731
 10
-1594.509965398915
 20
861.3334536165812
 42
0.4142135623731
  0
LINE
  5
2D1
330
1F
100
AcDbEntity
  8
0-B_寸法
  6
Continuous
 62
   120
370
     5
100
AcDbLine
 10
-1594.509965398915
 20
862.3334536165811
 30
0.0
 11
-1594.509965398915
 21
762.3334536165811
 31
0.0
  0
LINE
  5
2D2
330
1F
100
AcDbEntity
  8
0-1_本体
  6
Continuous
 62
    40
370
    15
100
AcDbLine
 10
-279.5099653989183
 20
1738.063391718312
 30
0.0
 11
-294.5099653989183
 21
1738.063391718312
 31
0.0
  0
LINE
  5
2D3
330
1F
100
AcDbEntity
  8
0-1_本体
  6
Continuous
 62
    40
370
    15
100
AcDbLine
 10
-294.5099653989183
 20
1738.063391718312
 30
0.0
 11
-294.5099653989183
 21
2083.063391718313
 31
0.0
  0
LINE
  5
2D4
330
1F
100
AcDbEntity
  8
0-1_本体
  6
Continuous
 62
    40
370
    15
100
AcDbLine
 10
-279.5099653989183
 20
2080.063391718313
 30
0.0
 11
-279.5099653989183
 21
1738.063391718312
 31
0.0
  0
LINE
  5
2D5
330
1F
100
AcDbEntity
  8
0-1_本体
  6
Continuous
 62
    40
370
    15
100
AcDbLine
 10
-294.5099653989183
 20
2083.063391718313
 30
0.0
 11
-286.5099653989188
 21
2083.063391718313
 31
0.0
  0
LINE
  5
2D6
330
1F
100
AcDbEntity
  8
0-1_本体
  6
Continuous
 62
    40
370
    15
100
AcDbLine
 10
-286.5099653989188
 20
2083.063391718313
 30
0.0
 11
-286.5099653989188
 21
2080.063391718313
 31
0.0
  0
LINE
  5
2D7
330
1F
100
AcDbEntity
  8
0-1_本体
  6
Continuous
 62
    40
370
    15
100
AcDbLine
 10
88.49003460108122
 20
1738.063391718312
 30
0.0
 11
103.4900346010812
 21
1738.063391718312
 31
0.0
  0
LINE
  5
2D8
330
1F
100
AcDbEntity
  8
0-1_本体
  6
Continuous
 62
    40
370
    15
100
AcDbLine
 10
103.4900346010812
 20
1738.063391718312
 30
0.0
 11
103.4900346010812
 21
2083.063391718313
 31
0.0
  0
LINE
  5
2D9
330
1F
100
AcDbEntity
  8
0-1_本体
  6
Continuous
 62
    40
370
    15
100
AcDbLine
 10
88.49003460108122
 20
2080.063391718313
 30
0.0
 11
88.49003460108122
 21
1738.063391718312
 31
0.0
  0
LINE
  5
2DA
330
1F
100
AcDbEntity
  8
0-1_本体
  6
Continuous
 62
    40
370
    15
100
AcDbLine
 10
103.4900346010812
 20
2083.063391718313
 30
0.0
 11
95.4900346010794
 21
2083.063391718313
 31
0.0
  0
LINE
  5
2DB
330
1F
100
AcDbEntity
  8
0-1_本体
  6
Continuous
 62
    40
370
    15
100
AcDbLine
 10
95.4900346010794
 20
2080.063391718313
 30
0.0
 11
-286.5099653989188
 21
2080.063391718313
 31
0.0
  0
LINE
  5
2DC
330
1F
100
AcDbEntity
  8
0-1_本体
  6
Continuous
 62
    40
370
    15
100
AcDbLine
 10
95.4900346010794
 20
2081.563391718314
 30
0.0
 11
-286.5099653989188
 21
2081.563391718314
 31
0.0
  0
LINE
  5
2DD
330
1F
100
AcDbEntity
  8
0-1_本体
  6
Continuous
 62
     7
370
     9
100
AcDbLine
 10
95.4900346010794
 20
2083.063391718313
 30
0.0
 11
-286.5099653989188
 21
2083.063391718313
 31
0.0
  0
LINE
  5
2DE
330
1F
100
AcDbEntity
  8
0-1_本体
  6
Continuous
 62
    40
370
    15
100
AcDbLine
 10
95.4900346010794
 20
2083.063391718313
 30
0.0
 11
95.4900346010794
 21
2080.063391718313
 31
0.0
  0
LINE
  5
2DF
330
1F
100
AcDbEntity
  8
0-4_棚
  6
Continuous
 62
    92
370
    13
100
AcDbLine
 10
88.49003460108122
 20
1790.063391718313
 30
0.0
 11
-279.5099653989183
 21
1790.063391718313
 31
0.0
  0
LINE
  5
2E0
330
1F
100
AcDbEntity
  8
0-4_棚
  6
Continuous
 62
    92
370
    13
100
AcDbLine
 10
884.4900346010832
 20
1790.063391718311
 30
0.0
 11
118.4900346010812
 21
1790.063391718311
 31
0.0
  0
LINE
  5
2E1
330
1F
100
AcDbEntity
  8
0-1_本体
  6
Continuous
 62
    40
370
    15
100
AcDbLine
 10
118.4900346010812
 20
2080.063391718313
 30
0.0
 11
118.4900346010812
 21
1738.063391718312
 31
0.0
  0
LINE
  5
2E2
330
1F
100
AcDbEntity
  8
0-1_本体
  6
Continuous
 62
    40
370
    15
100
AcDbLine
 10
884.4900346010832
 20
2080.063391718313
 30
0.0
 11
884.4900346010832
 21
1738.063391718312
 31
0.0
  0
LINE
  5
2E3
330
1F
100
AcDbEntity
  8
0-1_本体
  6
Continuous
 62
    40
370
    15
100
AcDbLine
 10
118.4900346010812
 20
1738.063391718312
 30
0.0
 11
103.4900346010812
 21
1738.063391718312
 31
0.0
  0
LINE
  5
2E4
330
1F
100
AcDbEntity
  8
0-1_本体
  6
Continuous
 62
    40
370
    15
100
AcDbLine
 10
899.4900346010832
 20
1738.063391718312
 30
0.0
 11
899.4900346010832
 21
2083.063391718313
 31
0.0
  0
LINE
  5
2E5
330
1F
100
AcDbEntity
  8
0-1_本体
  6
Continuous
 62
    40
370
    15
100
AcDbLine
 10
884.4900346010832
 20
1738.063391718312
 30
0.0
 11
899.4900346010832
 21
1738.063391718312
 31
0.0
  0
LINE
  5
2E6
330
1F
100
AcDbEntity
  8
0-B_寸法
  6
Continuous
 62
   120
370
     5
100
AcDbLine
 10
899.4900346010832
 20
1460.063391718313
 30
0.0
 11
-294.5099653989183
 21
1460.063391718313
 31
0.0
  0
LWPOLYLINE
  5
2E7
330
1F
100
AcDbEntity
  8
0-B_寸法
  6
Continuous
 62
     7
370
     9
100
AcDbPolyline
 90
        4
 70
     1
 43
2.0
 10
900.4900346010832
 20
1460.063391718313
 42
0.4142135623731
 10
899.4900346010832
 20
1461.063391718313
 42
0.4142135623731
 10
898.4900346010832
 20
1460.063391718313
 42
0.4142135623731
 10
899.4900346010832
 20
1459.063391718313
 42
0.4142135623731
  0
LWPOLYLINE
  5
2E8
330
1F
100
AcDbEntity
  8
0-B_寸法
  6
Continuous
 62
     7
370
     9
100
AcDbPolyline
 90
        4
 70
     1
 43
2.0
 10
-293.5099653989183
 20
1460.063391718313
 42
0.4142135623731
 10
-294.5099653989183
 20
1461.063391718313
 42
0.4142135623731
 10
-295.5099653989183
 20
1460.063391718313
 42
0.4142135623731
 10
-294.5099653989183
 20
1459.063391718313
 42
0.4142135623731
  0
LINE
  5
2E9
330
1F
100
AcDbEntity
  8
0-B_寸法
  6
Continuous
 62
   120
370
     5
100
AcDbLine
 10
899.4900346010832
 20
1460.063391718313
 30
0.0
 11
899.4900346010832
 21
1560.063391718313
 31
0.0
  0
LINE
  5
2EA
330
1F
100
AcDbEntity
  8
0-B_寸法
  6
Continuous
 62
   120
370
     5
100
AcDbLine
 10
-294.5099653989183
 20
1460.063391718313
 30
0.0
 11
-294.5099653989183
 21
1560.063391718313
 31
0.0
  0
MTEXT
  5
2EB
330
1F
100
AcDbEntity
  8
0-B_寸法
  6
Continuous
 62
     7
370
   211
100
AcDbMText
 10
227.4900346010821
 20
1462.923391718313
 30
0.0
 40
45.72
 41
150.0
 46
0.0
 71
     7
 72
     1
  1
{\fＭＳ ゴシック|b0|i0|c128|p49;1,194}
 73
     1
 44
1.0
  0
LINE
  5
2EC
330
1F
100
AcDbEntity
  8
0-1_本体
  6
Continuous
 62
    92
370
    13
100
AcDbLine
 10
88.49003460108122
 20
-1456.666546383426
 30
0.0
 11
103.4900346010812
 21
-1456.666546383426
 31
0.0
  0
LINE
  5
2ED
330
1F
100
AcDbEntity
  8
0-1_本体
  6
Continuous
 62
    92
370
    13
100
AcDbLine
 10
88.49003460108122
 20
-1441.666546383426
 30
0.0
 11
-279.5099653989183
 21
-1441.666546383426
 31
0.0
  0
LINE
  5
2EE
330
1F
100
AcDbEntity
  8
0-6_桟木
  6
JWW_DASHED2
 62
     7
370
     9
100
AcDbLine
 10
-279.5099653989183
 20
-1377.666546383426
 30
0.0
 11
88.49003460108122
 21
-1377.666546383426
 31
0.0
  0
LINE
  5
2EF
330
1F
100
AcDbEntity
  8
0-4_棚
  6
Continuous
 62
    92
370
    13
100
AcDbLine
 10
88.49003460108122
 20
-837.6881553056819
 30
0.0
 11
-279.5099653989183
 21
-837.6881553056819
 31
0.0
  0
LINE
  5
2F0
330
1F
100
AcDbEntity
  8
0-4_棚
  6
Continuous
 62
    92
370
    13
100
AcDbLine
 10
88.49003460108122
 20
-849.6881553056807
 30
0.0
 11
-279.5099653989183
 21
-849.6881553056807
 31
0.0
  0
LINE
  5
2F1
330
1F
100
AcDbEntity
  8
0-4_棚
  6
Continuous
 62
    92
370
    13
100
AcDbLine
 10
88.49003460108122
 20
-1029.688155305682
 30
0.0
 11
-279.5099653989183
 21
-1029.688155305682
 31
0.0
  0
LINE
  5
2F2
330
1F
100
AcDbEntity
  8
0-4_棚
  6
Continuous
 62
    92
370
    13
100
AcDbLine
 10
88.49003460108122
 20
-1041.688155305681
 30
0.0
 11
-279.5099653989183
 21
-1041.688155305681
 31
0.0
  0
LINE
  5
2F3
330
1F
100
AcDbEntity
  8
0-4_棚
  6
Continuous
 62
    92
370
    13
100
AcDbLine
 10
88.49003460108122
 20
-1221.689054349241
 30
0.0
 11
-279.5099653989183
 21
-1221.689054349241
 31
0.0
  0
LINE
  5
2F4
330
1F
100
AcDbEntity
  8
0-4_棚
  6
Continuous
 62
    92
370
    13
100
AcDbLine
 10
88.49003460108122
 20
-1233.68905434924
 30
0.0
 11
-279.5099653989183
 21
-1233.68905434924
 31
0.0
  0
LINE
  5
2F5
330
1F
100
AcDbEntity
  8
0-1_本体
  6
Continuous
 62
    92
370
    13
100
AcDbLine
 10
88.49003460108122
 20
-695.6665463834253
 30
0.0
 11
88.49003460108122
 21
-1456.666546383426
 31
0.0
  0
LINE
  5
2F6
330
1F
100
AcDbEntity
  8
0-1_本体
  6
Continuous
 62
    92
370
    13
100
AcDbLine
 10
-279.5099653989183
 20
-1456.666546383426
 30
0.0
 11
-279.5099653989183
 21
-695.6665463834253
 31
0.0
  0
LINE
  5
2F7
330
1F
100
AcDbEntity
  8
0-1_本体
  6
Continuous
 62
    92
370
    13
100
AcDbLine
 10
-294.5099653989183
 20
-1456.666546383426
 30
0.0
 11
-294.5099653989183
 21
-695.6665463834253
 31
0.0
  0
LINE
  5
2F8
330
1F
100
AcDbEntity
  8
0-6_桟木
  6
JWW_DASHED2
 62
     7
370
     9
100
AcDbLine
 10
-279.5099653989183
 20
-774.6665463834262
 30
0.0
 11
88.49003460108122
 21
-774.6665463834262
 31
0.0
  0
LINE
  5
2F9
330
1F
100
AcDbEntity
  8
0-1_本体
  6
Continuous
 62
    92
370
    13
100
AcDbLine
 10
88.49003460108122
 20
-710.6665463834253
 30
0.0
 11
-279.5099653989183
 21
-710.6665463834253
 31
0.0
  0
LINE
  5
2FA
330
1F
100
AcDbEntity
  8
0-1_本体
  6
Continuous
 62
    92
370
    13
100
AcDbLine
 10
899.4900346010803
 20
-1456.666546383426
 30
0.0
 11
103.4900346010812
 21
-1456.666546383426
 31
0.0
  0
LINE
  5
2FB
330
1F
100
AcDbEntity
  8
0-1_本体
  6
Continuous
 62
    92
370
    13
100
AcDbLine
 10
884.4900346010803
 20
-1441.666546383426
 30
0.0
 11
118.4900346010812
 21
-1441.666546383426
 31
0.0
  0
LINE
  5
2FC
330
1F
100
AcDbEntity
  8
0-6_桟木
  6
JWW_DASHED2
 62
     7
370
     9
100
AcDbLine
 10
118.4900346010812
 20
-1377.666546383425
 30
0.0
 11
884.4900346010803
 21
-1377.666546383425
 31
0.0
  0
LINE
  5
2FD
330
1F
100
AcDbEntity
  8
0-4_棚
  6
Continuous
 62
    92
370
    13
100
AcDbLine
 10
884.4900346010803
 20
-837.6881553056819
 30
0.0
 11
118.4900346010812
 21
-837.6881553056819
 31
0.0
  0
LINE
  5
2FE
330
1F
100
AcDbEntity
  8
0-4_棚
  6
Continuous
 62
    92
370
    13
100
AcDbLine
 10
884.4900346010803
 20
-849.6881553056807
 30
0.0
 11
118.4900346010812
 21
-849.6881553056807
 31
0.0
  0
LINE
  5
2FF
330
1F
100
AcDbEntity
  8
0-4_棚
  6
Continuous
 62
    92
370
    13
100
AcDbLine
 10
884.4900346010803
 20
-1029.688155305682
 30
0.0
 11
118.4900346010812
 21
-1029.688155305682
 31
0.0
  0
LINE
  5
300
330
1F
100
AcDbEntity
  8
0-4_棚
  6
Continuous
 62
    92
370
    13
100
AcDbLine
 10
884.4900346010803
 20
-1041.688155305681
 30
0.0
 11
118.4900346010812
 21
-1041.688155305681
 31
0.0
  0
LINE
  5
301
330
1F
100
AcDbEntity
  8
0-4_棚
  6
Continuous
 62
    92
370
    13
100
AcDbLine
 10
884.4900346010803
 20
-1221.689054349241
 30
0.0
 11
118.4900346010812
 21
-1221.689054349241
 31
0.0
  0
LINE
  5
302
330
1F
100
AcDbEntity
  8
0-4_棚
  6
Continuous
 62
    92
370
    13
100
AcDbLine
 10
884.4900346010803
 20
-1233.68905434924
 30
0.0
 11
118.4900346010812
 21
-1233.68905434924
 31
0.0
  0
LINE
  5
303
330
1F
100
AcDbEntity
  8
0-1_本体
  6
Continuous
 62
    92
370
    13
100
AcDbLine
 10
899.4900346010803
 20
-695.6665463834253
 30
0.0
 11
899.4900346010803
 21
-1456.666546383426
 31
0.0
  0
LINE
  5
304
330
1F
100
AcDbEntity
  8
0-1_本体
  6
Continuous
 62
    92
370
    13
100
AcDbLine
 10
118.4900346010812
 20
-1456.666546383426
 30
0.0
 11
118.4900346010812
 21
-695.6665463834253
 31
0.0
  0
LINE
  5
305
330
1F
100
AcDbEntity
  8
0-1_本体
  6
Continuous
 62
    92
370
    13
100
AcDbLine
 10
884.4900346010803
 20
-695.6665463834253
 30
0.0
 11
884.4900346010803
 21
-1456.666546383426
 31
0.0
  0
LINE
  5
306
330
1F
100
AcDbEntity
  8
0-6_桟木
  6
JWW_DASHED2
 62
     7
370
     9
100
AcDbLine
 10
118.4900346010812
 20
-774.6665463834256
 30
0.0
 11
884.4900346010803
 21
-774.6665463834256
 31
0.0
  0
LINE
  5
307
330
1F
100
AcDbEntity
  8
0-1_本体
  6
Continuous
 62
    92
370
    13
100
AcDbLine
 10
884.4900346010803
 20
-710.6665463834253
 30
0.0
 11
118.4900346010812
 21
-710.6665463834253
 31
0.0
  0
LINE
  5
308
330
1F
100
AcDbEntity
  8
0-1_本体
  6
Continuous
 62
    92
370
    13
100
AcDbLine
 10
103.4900346010812
 20
-1456.666546383426
 30
0.0
 11
103.4900346010812
 21
-695.6665463834253
 31
0.0
  0
LINE
  5
309
330
1F
100
AcDbEntity
  8
0-B_寸法
  6
Continuous
 62
   120
370
     5
100
AcDbLine
 10
900.4900345080046
 20
-513.6665463834248
 30
0.0
 11
-295.5099654919951
 21
-513.6665463834248
 31
0.0
  0
LWPOLYLINE
  5
30A
330
1F
100
AcDbEntity
  8
0-B_寸法
  6
Continuous
 62
     7
370
     9
100
AcDbPolyline
 90
        4
 70
     1
 43
2.0
 10
901.4900345080046
 20
-513.6665463834248
 42
0.4142135623731
 10
900.4900345080046
 20
-512.6665463834248
 42
0.4142135623731
 10
899.4900345080046
 20
-513.6665463834248
 42
0.4142135623731
 10
900.4900345080046
 20
-514.6665463834248
 42
0.4142135623731
  0
LWPOLYLINE
  5
30B
330
1F
100
AcDbEntity
  8
0-B_寸法
  6
Continuous
 62
     7
370
     9
100
AcDbPolyline
 90
        4
 70
     1
 43
2.0
 10
-294.5099654919951
 20
-513.6665463834248
 42
0.4142135623731
 10
-295.5099654919951
 20
-512.6665463834248
 42
0.4142135623731
 10
-296.5099654919951
 20
-513.6665463834248
 42
0.4142135623731
 10
-295.5099654919951
 20
-514.6665463834248
 42
0.4142135623731
  0
LINE
  5
30C
330
1F
100
AcDbEntity
  8
0-B_寸法
  6
Continuous
 62
   120
370
     5
100
AcDbLine
 10
900.4900345080046
 20
-513.6665463834248
 30
0.0
 11
900.4900345080046
 21
-613.6665463834248
 31
0.0
  0
LINE
  5
30D
330
1F
100
AcDbEntity
  8
0-B_寸法
  6
Continuous
 62
   120
370
     5
100
AcDbLine
 10
-295.5099654919951
 20
-513.6665463834248
 30
0.0
 11
-295.5099654919951
 21
-613.6665463834248
 31
0.0
  0
MTEXT
  5
30E
330
1F
100
AcDbEntity
  8
0-B_寸法
  6
Continuous
 62
     7
370
   211
100
AcDbMText
 10
122.490034508005
 20
-510.8065463834248
 30
0.0
 40
45.71999999999998
 41
360.0
 46
0.0
 71
     7
 72
     1
  1
{\fＭＳ ゴシック|b0|i0|c128|p49;ｶｳﾝﾀｰ＝1,196}
 73
     1
 44
1.0
  0
LINE
  5
30F
330
1F
100
AcDbEntity
  8
0-1_本体
  6
Continuous
 62
    92
370
    13
100
AcDbLine
 10
-294.5099653989183
 20
712.3334536165811
 30
0.0
 11
-294.5099653989183
 21
143.3334536165808
 31
0.0
  0
LINE
  5
310
330
1F
100
AcDbEntity
  8
0-1_本体
  6
Continuous
 62
    92
370
    13
100
AcDbLine
 10
-279.5099653989183
 20
712.3334536165811
 30
0.0
 11
-279.5099653989183
 21
143.3334536165808
 31
0.0
  0
LINE
  5
311
330
1F
100
AcDbEntity
  8
0-1_本体
  6
Continuous
 62
    92
370
    13
100
AcDbLine
 10
103.4900346010812
 20
712.3334536165811
 30
0.0
 11
-294.5099653989183
 21
712.3334536165811
 31
0.0
  0
LINE
  5
312
330
1F
100
AcDbEntity
  8
0-1_本体
  6
Continuous
 62
    92
370
    13
100
AcDbLine
 10
-294.5099653989183
 20
143.3334536165808
 30
0.0
 11
103.4900346010812
 21
143.3334536165808
 31
0.0
  0
LINE
  5
313
330
1F
100
AcDbEntity
  8
0-1_本体
  6
Continuous
 62
    92
370
    13
100
AcDbLine
 10
103.4900346010812
 20
143.3334536165808
 30
0.0
 11
103.4900346010812
 21
712.3334536165811
 31
0.0
  0
LINE
  5
314
330
1F
100
AcDbEntity
  8
0-1_本体
  6
Continuous
 62
    92
370
    13
100
AcDbLine
 10
88.49003460108122
 20
143.3334536165808
 30
0.0
 11
88.49003460108122
 21
712.3334536165811
 31
0.0
  0
LINE
  5
315
330
1F
100
AcDbEntity
  8
0-1_本体
  6
Continuous
 62
    92
370
    13
100
AcDbLine
 10
-279.5099653989183
 20
158.3334536165808
 30
0.0
 11
88.49003460108122
 21
158.3334536165808
 31
0.0
  0
LINE
  5
316
330
1F
100
AcDbEntity
  8
0-1_本体
  6
Continuous
 62
    92
370
    13
100
AcDbLine
 10
88.49003460108122
 20
697.3334536165811
 30
0.0
 11
-279.5099653989183
 21
697.3334536165811
 31
0.0
  0
LINE
  5
317
330
1F
100
AcDbEntity
  8
0-6_桟木
  6
JWW_DASHED2
 62
     7
370
     9
100
AcDbLine
 10
-279.5099653989183
 20
633.3334536165808
 30
0.0
 11
88.49003460108122
 21
633.3334536165808
 31
0.0
  0
LINE
  5
318
330
1F
100
AcDbEntity
  8
0-6_桟木
  6
JWW_DASHED2
 62
     7
370
     9
100
AcDbLine
 10
-279.5099653989183
 20
222.3334536165817
 30
0.0
 11
88.49003460108122
 21
222.3334536165817
 31
0.0
  0
LINE
  5
319
330
1F
100
AcDbEntity
  8
0-4_棚
  6
Continuous
 62
    92
370
    13
100
AcDbLine
 10
88.49003460108122
 20
414.3334536165816
 30
0.0
 11
-279.5099653989183
 21
414.3334536165816
 31
0.0
  0
LINE
  5
31A
330
1F
100
AcDbEntity
  8
0-4_棚
  6
Continuous
 62
    92
370
    13
100
AcDbLine
 10
88.49003460108122
 20
426.3334536165803
 30
0.0
 11
-279.5099653989183
 21
426.3334536165803
 31
0.0
  0
LINE
  5
31B
330
1F
100
AcDbEntity
  8
0-1_本体
  6
Continuous
 62
    92
370
    13
100
AcDbLine
 10
899.4900346010849
 20
712.3334536165811
 30
0.0
 11
103.4900346010812
 21
712.3334536165811
 31
0.0
  0
LINE
  5
31C
330
1F
100
AcDbEntity
  8
0-1_本体
  6
Continuous
 62
    92
370
    13
100
AcDbLine
 10
103.4900346010812
 20
143.3334536165808
 30
0.0
 11
899.4900346010849
 21
143.3334536165808
 31
0.0
  0
LINE
  5
31D
330
1F
100
AcDbEntity
  8
0-1_本体
  6
Continuous
 62
    92
370
    13
100
AcDbLine
 10
899.4900346010849
 20
143.3334536165808
 30
0.0
 11
899.4900346010849
 21
712.3334536165811
 31
0.0
  0
LINE
  5
31E
330
1F
100
AcDbEntity
  8
0-1_本体
  6
Continuous
 62
    92
370
    13
100
AcDbLine
 10
884.4900346010849
 20
143.3334536165808
 30
0.0
 11
884.4900346010849
 21
712.3334536165811
 31
0.0
  0
LINE
  5
31F
330
1F
100
AcDbEntity
  8
0-1_本体
  6
Continuous
 62
    92
370
    13
100
AcDbLine
 10
118.4900346010812
 20
712.3334536165811
 30
0.0
 11
118.4900346010812
 21
143.3334536165808
 31
0.0
  0
LINE
  5
320
330
1F
100
AcDbEntity
  8
0-1_本体
  6
Continuous
 62
    92
370
    13
100
AcDbLine
 10
118.4900346010812
 20
158.3334536165808
 30
0.0
 11
884.4900346010849
 21
158.3334536165808
 31
0.0
  0
LINE
  5
321
330
1F
100
AcDbEntity
  8
0-1_本体
  6
Continuous
 62
    92
370
    13
100
AcDbLine
 10
884.4900346010849
 20
697.3334536165811
 30
0.0
 11
118.4900346010812
 21
697.3334536165811
 31
0.0
  0
LINE
  5
322
330
1F
100
AcDbEntity
  8
0-6_桟木
  6
JWW_DASHED2
 62
     7
370
     9
100
AcDbLine
 10
118.4900346010812
 20
633.3334536165808
 30
0.0
 11
884.4900346010849
 21
633.3334536165808
 31
0.0
  0
LINE
  5
323
330
1F
100
AcDbEntity
  8
0-6_桟木
  6
JWW_DASHED2
 62
     7
370
     9
100
AcDbLine
 10
118.4900346010812
 20
222.3334536165805
 30
0.0
 11
884.4900346010849
 21
222.3334536165805
 31
0.0
  0
LINE
  5
324
330
1F
100
AcDbEntity
  8
0-4_棚
  6
Continuous
 62
    92
370
    13
100
AcDbLine
 10
884.4900346010849
 20
414.3334536165816
 30
0.0
 11
118.4900346010812
 21
414.3334536165816
 31
0.0
  0
LINE
  5
325
330
1F
100
AcDbEntity
  8
0-4_棚
  6
Continuous
 62
    92
370
    13
100
AcDbLine
 10
884.4900346010849
 20
426.3334536165803
 30
0.0
 11
118.4900346010812
 21
426.3334536165803
 31
0.0
  0
LINE
  5
326
330
1F
100
AcDbEntity
  8
0-B_寸法
  6
Continuous
 62
   120
370
     5
100
AcDbLine
 10
899.4900346010849
 20
862.3334536165817
 30
0.0
 11
-294.5099653989183
 21
862.3334536165817
 31
0.0
  0
LWPOLYLINE
  5
327
330
1F
100
AcDbEntity
  8
0-B_寸法
  6
Continuous
 62
     7
370
     9
100
AcDbPolyline
 90
        4
 70
     1
 43
2.0
 10
900.4900346010847
 20
862.3334536165817
 42
0.4142135623731
 10
899.4900346010849
 20
863.3334536165817
 42
0.4142135623731
 10
898.490034601085
 20
862.3334536165817
 42
0.4142135623731
 10
899.4900346010849
 20
861.3334536165817
 42
0.4142135623731
  0
LWPOLYLINE
  5
328
330
1F
100
AcDbEntity
  8
0-B_寸法
  6
Continuous
 62
     7
370
     9
100
AcDbPolyline
 90
        4
 70
     1
 43
2.0
 10
-293.5099653989183
 20
862.3334536165817
 42
0.4142135623731
 10
-294.5099653989183
 20
863.3334536165817
 42
0.4142135623731
 10
-295.5099653989183
 20
862.3334536165817
 42
0.4142135623731
 10
-294.5099653989183
 20
861.3334536165817
 42
0.4142135623731
  0
LINE
  5
329
330
1F
100
AcDbEntity
  8
0-B_寸法
  6
Continuous
 62
   120
370
     5
100
AcDbLine
 10
899.4900346010849
 20
862.3334536165817
 30
0.0
 11
899.4900346010849
 21
762.3334536165817
 31
0.0
  0
LINE
  5
32A
330
1F
100
AcDbEntity
  8
0-B_寸法
  6
Continuous
 62
   120
370
     5
100
AcDbLine
 10
-294.5099653989183
 20
862.3334536165817
 30
0.0
 11
-294.5099653989183
 21
762.3334536165817
 31
0.0
  0
MTEXT
  5
32B
330
1F
100
AcDbEntity
  8
0-B_寸法
  6
Continuous
 62
     7
370
   211
100
AcDbMText
 10
227.4900346010838
 20
865.1934536165817
 30
0.0
 40
45.72
 41
150.0
 46
0.0
 71
     7
 72
     1
  1
{\fＭＳ ゴシック|b0|i0|c128|p49;1,194}
 73
     1
 44
1.0
  0
MTEXT
  5
32C
330
1F
100
AcDbEntity
  8
0-B_寸法
  6
Continuous
 62
     7
370
   211
100
AcDbMText
 10
689.3093036384312
 20
-1446.806546383426
 30
0.0
 40
45.72
 41
60.0
 46
0.0
 71
     7
 72
     1
  1
{\fＭＳ ゴシック|b0|i0|c128|p49;64}
 11
6.123031769111886E-17
 21
1.0
 31
0.0
 73
     1
 44
1.0
  0
LINE
  5
32D
330
1F
100
AcDbEntity
  8
0-B_寸法
  6
Continuous
 62
   120
370
     5
100
AcDbLine
 10
699.3093036384312
 20
-1377.666546383426
 30
0.0
 11
696.3249543689631
 21
-1377.666546383426
 31
0.0
  0
LINE
  5
32E
330
1F
100
AcDbEntity
  8
0-B_寸法
  6
Continuous
 62
   120
370
     5
100
AcDbLine
 10
699.3093036384312
 20
-1441.666546383426
 30
0.0
 11
696.3249543689631
 21
-1441.666546383426
 31
0.0
  0
LWPOLYLINE
  5
32F
330
1F
100
AcDbEntity
  8
0-B_寸法
  6
Continuous
 62
     7
370
     9
100
AcDbPolyline
 90
        4
 70
     1
 43
2.0
 10
700.3093036384312
 20
-1377.666546383426
 42
0.4142135623731
 10
699.3093036384312
 20
-1376.666546383426
 42
0.4142135623731
 10
698.3093036384312
 20
-1377.666546383426
 42
0.4142135623731
 10
699.3093036384312
 20
-1378.666546383426
 42
0.4142135623731
  0
LWPOLYLINE
  5
330
330
1F
100
AcDbEntity
  8
0-B_寸法
  6
Continuous
 62
     7
370
     9
100
AcDbPolyline
 90
        4
 70
     1
 43
2.0
 10
700.3093036384312
 20
-1441.666546383426
 42
0.4142135623731
 10
699.3093036384312
 20
-1440.666546383426
 42
0.4142135623731
 10
698.3093036384312
 20
-1441.666546383426
 42
0.4142135623731
 10
699.3093036384312
 20
-1442.666546383426
 42
0.4142135623731
  0
LINE
  5
331
330
1F
100
AcDbEntity
  8
0-B_寸法
  6
Continuous
 62
   120
370
     5
100
AcDbLine
 10
699.3093036384312
 20
-1441.666546383426
 30
0.0
 11
699.3093036384312
 21
-1377.666546383426
 31
0.0
  0
MTEXT
  5
332
330
1F
100
AcDbEntity
  8
0-B_寸法
  6
Continuous
 62
     7
370
   211
100
AcDbMText
 10
689.3093036384312
 20
-779.8065463834257
 30
0.0
 40
45.72
 41
60.0
 46
0.0
 71
     7
 72
     1
  1
{\fＭＳ ゴシック|b0|i0|c128|p49;64}
 11
6.123031769111886E-17
 21
1.0
 31
0.0
 73
     1
 44
1.0
  0
LINE
  5
333
330
1F
100
AcDbEntity
  8
0-B_寸法
  6
Continuous
 62
   120
370
     5
100
AcDbLine
 10
699.3093036384312
 20
-710.6665463834264
 30
0.0
 11
696.3249543689631
 21
-710.6665463834264
 31
0.0
  0
LINE
  5
334
330
1F
100
AcDbEntity
  8
0-B_寸法
  6
Continuous
 62
   120
370
     5
100
AcDbLine
 10
699.3093036384312
 20
-774.666546383425
 30
0.0
 11
696.3249543689631
 21
-774.666546383425
 31
0.0
  0
LWPOLYLINE
  5
335
330
1F
100
AcDbEntity
  8
0-B_寸法
  6
Continuous
 62
     7
370
     9
100
AcDbPolyline
 90
        4
 70
     1
 43
2.0
 10
700.3093036384312
 20
-710.6665463834264
 42
0.4142135623731
 10
699.3093036384312
 20
-709.6665463834265
 42
0.4142135623731
 10
698.3093036384312
 20
-710.6665463834264
 42
0.4142135623731
 10
699.3093036384312
 20
-711.6665463834263
 42
0.4142135623731
  0
LWPOLYLINE
  5
336
330
1F
100
AcDbEntity
  8
0-B_寸法
  6
Continuous
 62
     7
370
     9
100
AcDbPolyline
 90
        4
 70
     1
 43
2.0
 10
700.3093036384312
 20
-774.666546383425
 42
0.4142135623731
 10
699.3093036384312
 20
-773.6665463834252
 42
0.4142135623731
 10
698.3093036384312
 20
-774.666546383425
 42
0.4142135623731
 10
699.3093036384312
 20
-775.6665463834249
 42
0.4142135623731
  0
LINE
  5
337
330
1F
100
AcDbEntity
  8
0-B_寸法
  6
Continuous
 62
   120
370
     5
100
AcDbLine
 10
699.3093036384312
 20
-774.666546383425
 30
0.0
 11
699.3093036384312
 21
-710.6665463834264
 31
0.0
  0
LINE
  5
338
330
1F
100
AcDbEntity
  8
0-B_寸法
  6
Continuous
 62
   120
370
     5
100
AcDbLine
 10
699.3093036384312
 20
697.3334536165811
 30
0.0
 11
699.3093036384312
 21
633.3334536165808
 31
0.0
  0
LWPOLYLINE
  5
339
330
1F
100
AcDbEntity
  8
0-B_寸法
  6
Continuous
 62
     7
370
     9
100
AcDbPolyline
 90
        4
 70
     1
 43
2.0
 10
700.3093036384312
 20
697.3334536165811
 42
0.4142135623731
 10
699.3093036384312
 20
698.333453616581
 42
0.4142135623731
 10
698.3093036384312
 20
697.3334536165811
 42
0.4142135623731
 10
699.3093036384312
 20
696.3334536165812
 42
0.4142135623731
  0
LWPOLYLINE
  5
33A
330
1F
100
AcDbEntity
  8
0-B_寸法
  6
Continuous
 62
     7
370
     9
100
AcDbPolyline
 90
        4
 70
     1
 43
2.0
 10
700.3093036384312
 20
633.3334536165808
 42
0.4142135623731
 10
699.3093036384312
 20
634.3334536165808
 42
0.4142135623731
 10
698.3093036384312
 20
633.3334536165808
 42
0.4142135623731
 10
699.3093036384312
 20
632.3334536165808
 42
0.4142135623731
  0
LINE
  5
33B
330
1F
100
AcDbEntity
  8
0-B_寸法
  6
Continuous
 62
   120
370
     5
100
AcDbLine
 10
699.3093036384312
 20
697.3334536165811
 30
0.0
 11
696.3249543689631
 21
697.3334536165811
 31
0.0
  0
LINE
  5
33C
330
1F
100
AcDbEntity
  8
0-B_寸法
  6
Continuous
 62
   120
370
     5
100
AcDbLine
 10
699.3093036384312
 20
633.3334536165808
 30
0.0
 11
696.3249543689631
 21
633.3334536165808
 31
0.0
  0
MTEXT
  5
33D
330
1F
100
AcDbEntity
  8
0-B_寸法
  6
Continuous
 62
     7
370
   211
100
AcDbMText
 10
689.3093036384312
 20
628.1934536165818
 30
0.0
 40
45.72
 41
60.0
 46
0.0
 71
     7
 72
     1
  1
{\fＭＳ ゴシック|b0|i0|c128|p49;64}
 11
6.123031769111886E-17
 21
1.0
 31
0.0
 73
     1
 44
1.0
  0
LINE
  5
33E
330
1F
100
AcDbEntity
  8
0-B_寸法
  6
Continuous
 62
   120
370
     5
100
AcDbLine
 10
699.3093036384312
 20
222.3334536165805
 30
0.0
 11
699.3093036384312
 21
158.3334536165808
 31
0.0
  0
LWPOLYLINE
  5
33F
330
1F
100
AcDbEntity
  8
0-B_寸法
  6
Continuous
 62
     7
370
     9
100
AcDbPolyline
 90
        4
 70
     1
 43
2.0
 10
700.3093036384312
 20
222.3334536165805
 42
0.4142135623731
 10
699.3093036384312
 20
223.3334536165805
 42
0.4142135623731
 10
698.3093036384312
 20
222.3334536165805
 42
0.4142135623731
 10
699.3093036384312
 20
221.3334536165805
 42
0.4142135623731
  0
LWPOLYLINE
  5
340
330
1F
100
AcDbEntity
  8
0-B_寸法
  6
Continuous
 62
     7
370
     9
100
AcDbPolyline
 90
        4
 70
     1
 43
2.0
 10
700.3093036384312
 20
158.3334536165808
 42
0.4142135623731
 10
699.3093036384312
 20
159.3334536165808
 42
0.4142135623731
 10
698.3093036384312
 20
158.3334536165808
 42
0.4142135623731
 10
699.3093036384312
 20
157.3334536165808
 42
0.4142135623731
  0
LINE
  5
341
330
1F
100
AcDbEntity
  8
0-B_寸法
  6
Continuous
 62
   120
370
     5
100
AcDbLine
 10
699.3093036384312
 20
222.3334536165805
 30
0.0
 11
696.3249543689631
 21
222.3334536165805
 31
0.0
  0
LINE
  5
342
330
1F
100
AcDbEntity
  8
0-B_寸法
  6
Continuous
 62
   120
370
     5
100
AcDbLine
 10
699.3093036384312
 20
158.3334536165808
 30
0.0
 11
696.3249543689631
 21
158.3334536165808
 31
0.0
  0
MTEXT
  5
343
330
1F
100
AcDbEntity
  8
0-B_寸法
  6
Continuous
 62
     7
370
   211
100
AcDbMText
 10
689.3093036384312
 20
153.1934536165812
 30
0.0
 40
45.72
 41
60.0
 46
0.0
 71
     7
 72
     1
  1
{\fＭＳ ゴシック|b0|i0|c128|p49;64}
 11
6.123031769111886E-17
 21
1.0
 31
0.0
 73
     1
 44
1.0
  0
MTEXT
  5
344
330
1F
100
AcDbEntity
  8
0-B_寸法
  6
Continuous
 62
     7
370
   211
100
AcDbMText
 10
-132.8195743095381
 20
-1446.806546383426
 30
0.0
 40
45.72
 41
60.0
 46
0.0
 71
     7
 72
     1
  1
{\fＭＳ ゴシック|b0|i0|c128|p49;64}
 11
6.123031769111886E-17
 21
1.0
 31
0.0
 73
     1
 44
1.0
  0
LINE
  5
345
330
1F
100
AcDbEntity
  8
0-B_寸法
  6
Continuous
 62
   120
370
     5
100
AcDbLine
 10
-122.8195743095381
 20
-1441.666546383426
 30
0.0
 11
-122.8195743095381
 21
-1377.666546383426
 31
0.0
  0
LWPOLYLINE
  5
346
330
1F
100
AcDbEntity
  8
0-B_寸法
  6
Continuous
 62
     7
370
     9
100
AcDbPolyline
 90
        4
 70
     1
 43
2.0
 10
-121.8195743095381
 20
-1377.666546383426
 42
0.4142135623731
 10
-122.8195743095381
 20
-1376.666546383426
 42
0.4142135623731
 10
-123.8195743095381
 20
-1377.666546383426
 42
0.4142135623731
 10
-122.8195743095381
 20
-1378.666546383426
 42
0.4142135623731
  0
LINE
  5
347
330
1F
100
AcDbEntity
  8
0-B_寸法
  6
Continuous
 62
   120
370
     5
100
AcDbLine
 10
-122.8195743095381
 20
-1377.666546383426
 30
0.0
 11
-125.8039235790062
 21
-1377.666546383426
 31
0.0
  0
LWPOLYLINE
  5
348
330
1F
100
AcDbEntity
  8
0-B_寸法
  6
Continuous
 62
     7
370
     9
100
AcDbPolyline
 90
        4
 70
     1
 43
2.0
 10
-121.8195743095381
 20
-1441.666546383426
 42
0.4142135623731
 10
-122.8195743095381
 20
-1440.666546383426
 42
0.4142135623731
 10
-123.8195743095381
 20
-1441.666546383426
 42
0.4142135623731
 10
-122.8195743095381
 20
-1442.666546383426
 42
0.4142135623731
  0
LINE
  5
349
330
1F
100
AcDbEntity
  8
0-B_寸法
  6
Continuous
 62
   120
370
     5
100
AcDbLine
 10
-122.8195743095381
 20
-1441.666546383426
 30
0.0
 11
-125.8039235790062
 21
-1441.666546383426
 31
0.0
  0
MTEXT
  5
34A
330
1F
100
AcDbEntity
  8
0-B_寸法
  6
Continuous
 62
     7
370
   211
100
AcDbMText
 10
-132.8195743095381
 20
-779.8065463834257
 30
0.0
 40
45.72
 41
60.0
 46
0.0
 71
     7
 72
     1
  1
{\fＭＳ ゴシック|b0|i0|c128|p49;64}
 11
6.123031769111886E-17
 21
1.0
 31
0.0
 73
     1
 44
1.0
  0
LINE
  5
34B
330
1F
100
AcDbEntity
  8
0-B_寸法
  6
Continuous
 62
   120
370
     5
100
AcDbLine
 10
-122.8195743095381
 20
-774.6665463834262
 30
0.0
 11
-122.8195743095381
 21
-710.6665463834264
 31
0.0
  0
LWPOLYLINE
  5
34C
330
1F
100
AcDbEntity
  8
0-B_寸法
  6
Continuous
 62
     7
370
     9
100
AcDbPolyline
 90
        4
 70
     1
 43
2.0
 10
-121.8195743095381
 20
-710.6665463834264
 42
0.4142135623731
 10
-122.8195743095381
 20
-709.6665463834265
 42
0.4142135623731
 10
-123.8195743095381
 20
-710.6665463834264
 42
0.4142135623731
 10
-122.8195743095381
 20
-711.6665463834263
 42
0.4142135623731
  0
LINE
  5
34D
330
1F
100
AcDbEntity
  8
0-B_寸法
  6
Continuous
 62
   120
370
     5
100
AcDbLine
 10
-122.8195743095381
 20
-710.6665463834264
 30
0.0
 11
-125.8039235790062
 21
-710.6665463834264
 31
0.0
  0
LWPOLYLINE
  5
34E
330
1F
100
AcDbEntity
  8
0-B_寸法
  6
Continuous
 62
     7
370
     9
100
AcDbPolyline
 90
        4
 70
     1
 43
2.0
 10
-121.8195743095381
 20
-774.6665463834262
 42
0.4142135623731
 10
-122.8195743095381
 20
-773.6665463834263
 42
0.4142135623731
 10
-123.8195743095381
 20
-774.6665463834262
 42
0.4142135623731
 10
-122.8195743095381
 20
-775.6665463834261
 42
0.4142135623731
  0
LINE
  5
34F
330
1F
100
AcDbEntity
  8
0-B_寸法
  6
Continuous
 62
   120
370
     5
100
AcDbLine
 10
-122.8195743095381
 20
-774.6665463834262
 30
0.0
 11
-125.8039235790062
 21
-774.6665463834262
 31
0.0
  0
LINE
  5
350
330
1F
100
AcDbEntity
  8
0-B_寸法
  6
Continuous
 62
   120
370
     5
100
AcDbLine
 10
-122.8195743095381
 20
697.3334536165811
 30
0.0
 11
-122.8195743095381
 21
633.3334536165808
 31
0.0
  0
LWPOLYLINE
  5
351
330
1F
100
AcDbEntity
  8
0-B_寸法
  6
Continuous
 62
     7
370
     9
100
AcDbPolyline
 90
        4
 70
     1
 43
2.0
 10
-121.8195743095381
 20
697.3334536165811
 42
0.4142135623731
 10
-122.8195743095381
 20
698.333453616581
 42
0.4142135623731
 10
-123.8195743095381
 20
697.3334536165811
 42
0.4142135623731
 10
-122.8195743095381
 20
696.3334536165812
 42
0.4142135623731
  0
LWPOLYLINE
  5
352
330
1F
100
AcDbEntity
  8
0-B_寸法
  6
Continuous
 62
     7
370
     9
100
AcDbPolyline
 90
        4
 70
     1
 43
2.0
 10
-121.8195743095381
 20
633.3334536165808
 42
0.4142135623731
 10
-122.8195743095381
 20
634.3334536165808
 42
0.4142135623731
 10
-123.8195743095381
 20
633.3334536165808
 42
0.4142135623731
 10
-122.8195743095381
 20
632.3334536165808
 42
0.4142135623731
  0
LINE
  5
353
330
1F
100
AcDbEntity
  8
0-B_寸法
  6
Continuous
 62
   120
370
     5
100
AcDbLine
 10
-122.8195743095381
 20
697.3334536165811
 30
0.0
 11
-125.8039235790062
 21
697.3334536165811
 31
0.0
  0
LINE
  5
354
330
1F
100
AcDbEntity
  8
0-B_寸法
  6
Continuous
 62
   120
370
     5
100
AcDbLine
 10
-122.8195743095381
 20
633.3334536165808
 30
0.0
 11
-125.8039235790062
 21
633.3334536165808
 31
0.0
  0
MTEXT
  5
355
330
1F
100
AcDbEntity
  8
0-B_寸法
  6
Continuous
 62
     7
370
   211
100
AcDbMText
 10
-132.8195743095404
 20
628.1934536165818
 30
0.0
 40
45.72
 41
60.0
 46
0.0
 71
     7
 72
     1
  1
{\fＭＳ ゴシック|b0|i0|c128|p49;64}
 11
6.123031769111886E-17
 21
1.0
 31
0.0
 73
     1
 44
1.0
  0
LINE
  5
356
330
1F
100
AcDbEntity
  8
0-B_寸法
  6
Continuous
 62
   120
370
     5
100
AcDbLine
 10
-122.8195743095381
 20
222.3334536165817
 30
0.0
 11
-122.8195743095381
 21
158.3334536165808
 31
0.0
  0
LWPOLYLINE
  5
357
330
1F
100
AcDbEntity
  8
0-B_寸法
  6
Continuous
 62
     7
370
     9
100
AcDbPolyline
 90
        4
 70
     1
 43
2.0
 10
-121.8195743095381
 20
222.3334536165817
 42
0.4142135623731
 10
-122.8195743095381
 20
223.3334536165817
 42
0.4142135623731
 10
-123.8195743095381
 20
222.3334536165817
 42
0.4142135623731
 10
-122.8195743095381
 20
221.3334536165817
 42
0.4142135623731
  0
LWPOLYLINE
  5
358
330
1F
100
AcDbEntity
  8
0-B_寸法
  6
Continuous
 62
     7
370
     9
100
AcDbPolyline
 90
        4
 70
     1
 43
2.0
 10
-121.8195743095381
 20
158.3334536165808
 42
0.4142135623731
 10
-122.8195743095381
 20
159.3334536165808
 42
0.4142135623731
 10
-123.8195743095381
 20
158.3334536165808
 42
0.4142135623731
 10
-122.8195743095381
 20
157.3334536165808
 42
0.4142135623731
  0
LINE
  5
359
330
1F
100
AcDbEntity
  8
0-B_寸法
  6
Continuous
 62
   120
370
     5
100
AcDbLine
 10
-122.8195743095381
 20
222.3334536165817
 30
0.0
 11
-125.8039235790062
 21
222.3334536165817
 31
0.0
  0
LINE
  5
35A
330
1F
100
AcDbEntity
  8
0-B_寸法
  6
Continuous
 62
   120
370
     5
100
AcDbLine
 10
-122.8195743095381
 20
158.3334536165808
 30
0.0
 11
-125.8039235790062
 21
158.3334536165808
 31
0.0
  0
MTEXT
  5
35B
330
1F
100
AcDbEntity
  8
0-B_寸法
  6
Continuous
 62
     7
370
   211
100
AcDbMText
 10
-132.8195743095404
 20
153.1934536165812
 30
0.0
 40
45.72
 41
60.0
 46
0.0
 71
     7
 72
     1
  1
{\fＭＳ ゴシック|b0|i0|c128|p49;64}
 11
6.123031769111886E-17
 21
1.0
 31
0.0
 73
     1
 44
1.0
  0
LINE
  5
35C
330
1F
100
AcDbEntity
  8
0-0_補助線
  6
JWW_HOJO
 62
     7
370
     9
100
AcDbLine
 10
103.4900346010829
 20
2133.063391718313
 30
0.0
 11
103.4900346010829
 21
-1851.166546383425
 31
0.0
  0
MTEXT
  5
35D
330
1F
100
AcDbEntity
  8
0-B_寸法
  6
Continuous
 62
     7
370
   211
100
AcDbMText
 10
-454.5099653989189
 20
1643.507590687765
 30
0.0
 40
45.72
 41
60.0
 46
0.0
 71
     7
 72
     1
  1
{\fＭＳ ゴシック|b0|i0|c128|p49;24}
 11
6.123031769111886E-17
 21
1.0
 31
0.0
 73
     1
 44
1.0
  0
MTEXT
  5
35E
330
1F
100
AcDbEntity
  8
0-B_寸法
  6
Continuous
 62
     7
370
   211
100
AcDbMText
 10
-554.5099653989189
 20
1845.923536883008
 30
0.0
 40
45.72
 41
90.0
 46
0.0
 71
     7
 72
     1
  1
{\fＭＳ ゴシック|b0|i0|c128|p49;370}
 11
6.123031769111886E-17
 21
1.0
 31
0.0
 73
     1
 44
1.0
  0
LINE
  5
35F
330
1F
100
AcDbEntity
  8
0-B_寸法
  6
Continuous
 62
   120
370
     5
100
AcDbLine
 10
-444.5099653989189
 20
2083.063391718312
 30
0.0
 11
-444.5099653989189
 21
1713.063682047705
 31
0.0
  0
LWPOLYLINE
  5
360
330
1F
100
AcDbEntity
  8
0-B_寸法
  6
Continuous
 62
     7
370
     9
100
AcDbPolyline
 90
        4
 70
     1
 43
2.0
 10
-443.5099653989189
 20
1713.063682047705
 42
0.4142135623731
 10
-444.5099653989189
 20
1714.063682047705
 42
0.4142135623731
 10
-445.5099653989189
 20
1713.063682047705
 42
0.4142135623731
 10
-444.5099653989189
 20
1712.063682047705
 42
0.4142135623731
  0
LINE
  5
361
330
1F
100
AcDbEntity
  8
0-B_寸法
  6
Continuous
 62
   120
370
     5
100
AcDbLine
 10
-544.5099653989189
 20
1713.063682047705
 30
0.0
 11
-344.5099653989189
 21
1713.063682047705
 31
0.0
  0
LINE
  5
362
330
1F
100
AcDbEntity
  8
0-B_寸法
  6
Continuous
 62
   120
370
     5
100
AcDbLine
 10
-544.5099653989189
 20
2083.063391718312
 30
0.0
 11
-544.5099653989189
 21
1713.063682047705
 31
0.0
  0
LWPOLYLINE
  5
363
330
1F
100
AcDbEntity
  8
0-B_寸法
  6
Continuous
 62
     7
370
     9
100
AcDbPolyline
 90
        4
 70
     1
 43
2.0
 10
-543.5099653989189
 20
1713.063682047705
 42
0.4142135623731
 10
-544.5099653989189
 20
1714.063682047705
 42
0.4142135623731
 10
-545.5099653989189
 20
1713.063682047705
 42
0.4142135623731
 10
-544.5099653989189
 20
1712.063682047705
 42
0.4142135623731
  0
LINE
  5
364
330
1F
100
AcDbEntity
  8
0-B_寸法
  6
Continuous
 62
   120
370
     5
100
AcDbLine
 10
-444.5099653989189
 20
1737.063682047705
 30
0.0
 11
-344.5099653989189
 21
1737.063682047705
 31
0.0
  0
LWPOLYLINE
  5
365
330
1F
100
AcDbEntity
  8
0-B_寸法
  6
Continuous
 62
     7
370
     9
100
AcDbPolyline
 90
        4
 70
     1
 43
2.0
 10
-443.5099653989189
 20
1737.063682047705
 42
0.4142135623731
 10
-444.5099653989189
 20
1738.063682047705
 42
0.4142135623731
 10
-445.5099653989189
 20
1737.063682047705
 42
0.4142135623731
 10
-444.5099653989189
 20
1736.063682047705
 42
0.4142135623731
  0
LWPOLYLINE
  5
366
330
1F
100
AcDbEntity
  8
0-B_寸法
  6
Continuous
 62
     7
370
     9
100
AcDbPolyline
 90
        4
 70
     1
 43
2.0
 10
-543.5099653989189
 20
2083.063391718312
 42
0.4142135623731
 10
-544.5099653989189
 20
2084.063391718312
 42
0.4142135623731
 10
-545.5099653989189
 20
2083.063391718312
 42
0.4142135623731
 10
-544.5099653989189
 20
2082.063391718312
 42
0.4142135623731
  0
MTEXT
  5
367
330
1F
100
AcDbEntity
  8
0-B_寸法
  6
Continuous
 62
     7
370
   211
100
AcDbMText
 10
-454.5099653989189
 20
1715.423358726335
 30
0.0
 40
45.72
 41
30.0
 46
0.0
 71
     7
 72
     1
  1
{\fＭＳ ゴシック|b0|i0|c128|p49;1}
 11
6.123031769111886E-17
 21
1.0
 31
0.0
 73
     1
 44
1.0
  0
MTEXT
  5
368
330
1F
100
AcDbEntity
  8
0-B_寸法
  6
Continuous
 62
     7
370
   211
100
AcDbMText
 10
-454.5099653989189
 20
1858.423536883008
 30
0.0
 40
45.72
 41
90.0
 46
0.0
 71
     7
 72
     1
  1
{\fＭＳ ゴシック|b0|i0|c128|p49;345}
 11
6.123031769111886E-17
 21
1.0
 31
0.0
 73
     1
 44
1.0
  0
LINE
  5
369
330
1F
100
AcDbEntity
  8
0-B_寸法
  6
Continuous
 62
   120
370
     5
100
AcDbLine
 10
-444.5099653989189
 20
1738.063682047704
 30
0.0
 11
-344.5099653989189
 21
1738.063682047704
 31
0.0
  0
LINE
  5
36A
330
1F
100
AcDbEntity
  8
0-B_寸法
  6
Continuous
 62
   120
370
     5
100
AcDbLine
 10
-544.5099653989189
 20
2083.063391718312
 30
0.0
 11
-344.5099653989189
 21
2083.063391718312
 31
0.0
  0
LWPOLYLINE
  5
36B
330
1F
100
AcDbEntity
  8
0-B_寸法
  6
Continuous
 62
     7
370
     9
100
AcDbPolyline
 90
        4
 70
     1
 43
2.0
 10
-443.5099653989189
 20
1738.063682047704
 42
0.4142135623731
 10
-444.5099653989189
 20
1739.063682047704
 42
0.4142135623731
 10
-445.5099653989189
 20
1738.063682047704
 42
0.4142135623731
 10
-444.5099653989189
 20
1737.063682047704
 42
0.4142135623731
  0
LWPOLYLINE
  5
36C
330
1F
100
AcDbEntity
  8
0-B_寸法
  6
Continuous
 62
     7
370
     9
100
AcDbPolyline
 90
        4
 70
     1
 43
2.0
 10
-443.5099653989189
 20
2083.063391718312
 42
0.4142135623731
 10
-444.5099653989189
 20
2084.063391718312
 42
0.4142135623731
 10
-445.5099653989189
 20
2083.063391718312
 42
0.4142135623731
 10
-444.5099653989189
 20
2082.063391718312
 42
0.4142135623731
  0
LINE
  5
36D
330
1F
100
AcDbEntity
  8
0-3_扉仕上
  6
JWW_CENTER1
 62
     7
370
     9
100
AcDbLine
 10
-1990.509794274184
 20
-698.6665265882402
 30
0.0
 11
-1596.509794274186
 21
-1076.166536485833
 31
0.0
  0
LINE
  5
36E
330
1F
100
AcDbEntity
  8
0-3_扉仕上
  6
JWW_CENTER1
 62
     7
370
     9
100
AcDbLine
 10
-1596.509794274186
 20
-1076.166536485833
 30
0.0
 11
-1990.509794274184
 21
-1453.666546383426
 31
0.0
  0
LINE
  5
36F
330
1F
100
AcDbEntity
  8
0-3_扉仕上
  6
JWW_CENTER1
 62
     7
370
     9
100
AcDbLine
 10
-1994.50979427419
 20
-698.6665265882402
 30
0.0
 11
-2388.509794274188
 21
-1076.166536485833
 31
0.0
  0
LINE
  5
370
330
1F
100
AcDbEntity
  8
0-3_扉仕上
  6
JWW_CENTER1
 62
     7
370
     9
100
AcDbLine
 10
-2388.509794274188
 20
-1076.166536485833
 30
0.0
 11
-1994.50979427419
 21
-1453.666546383426
 31
0.0
  0
LINE
  5
371
330
1F
100
AcDbEntity
  8
0-3_扉仕上
  6
JWW_CENTER1
 62
     7
370
     9
100
AcDbLine
 10
-2392.509965398914
 20
-698.6665265882402
 30
0.0
 11
-2786.509965398911
 21
-1076.166536485833
 31
0.0
  0
LINE
  5
372
330
1F
100
AcDbEntity
  8
0-3_扉仕上
  6
JWW_CENTER1
 62
     7
370
     9
100
AcDbLine
 10
-2786.509965398911
 20
-1076.166536485833
 30
0.0
 11
-2392.509965398914
 21
-1453.666546383426
 31
0.0
  0
LINE
  5
373
330
1F
100
AcDbEntity
  8
0-B_寸法
  6
Continuous
 62
   120
370
     5
100
AcDbLine
 10
2766.490034414926
 20
-313.6665463834248
 30
0.0
 11
2766.490034414926
 21
-613.6665265882385
 31
0.0
  0
MTEXT
  5
374
330
1F
100
AcDbEntity
  8
0-B_寸法
  6
Continuous
 62
     7
370
   211
100
AcDbMText
 10
2536.490133059159
 20
-310.8065463834247
 30
0.0
 40
45.72000000000014
 41
90.00000000000028
 46
0.0
 71
     7
 72
     1
  1
{\fＭＳ ゴシック|b0|i0|c128|p49;370}
 73
     1
 44
1.0
  0
LINE
  5
375
330
1F
100
AcDbEntity
  8
0-B_寸法
  6
Continuous
 62
   120
370
     5
100
AcDbLine
 10
2420.490034414928
 20
-413.6665463834248
 30
0.0
 11
2420.490034414928
 21
-613.6665463834248
 31
0.0
  0
MTEXT
  5
376
330
1F
100
AcDbEntity
  8
0-B_寸法
  6
Continuous
 62
     7
370
   211
100
AcDbMText
 10
2325.69804433098
 20
-410.8065463834248
 30
0.0
 40
45.72
 41
60.0
 46
0.0
 71
     7
 72
     1
  1
{\fＭＳ ゴシック|b0|i0|c128|p49;24}
 73
     1
 44
1.0
  0
LINE
  5
377
330
1F
100
AcDbEntity
  8
0-B_寸法
  6
Continuous
 62
   120
370
     5
100
AcDbLine
 10
2420.490034414928
 20
-413.6665463834248
 30
0.0
 11
2396.490231703391
 21
-413.6665463834248
 31
0.0
  0
LWPOLYLINE
  5
378
330
1F
100
AcDbEntity
  8
0-B_寸法
  6
Continuous
 62
     7
370
     9
100
AcDbPolyline
 90
        4
 70
     1
 43
2.0
 10
2397.490231703391
 20
-413.6665463834248
 42
0.4142135623731
 10
2396.490231703391
 20
-412.6665463834248
 42
0.4142135623731
 10
2395.490231703391
 20
-413.6665463834248
 42
0.4142135623731
 10
2396.490231703391
 20
-414.6665463834248
 42
0.4142135623731
  0
LINE
  5
379
330
1F
100
AcDbEntity
  8
0-B_寸法
  6
Continuous
 62
   120
370
     5
100
AcDbLine
 10
2396.490231703391
 20
-413.6665463834248
 30
0.0
 11
2396.490231703391
 21
-613.6665463834248
 31
0.0
  0
LINE
  5
37A
330
1F
100
AcDbEntity
  8
0-B_寸法
  6
Continuous
 62
   120
370
     5
100
AcDbLine
 10
2766.490034414926
 20
-313.6665463834248
 30
0.0
 11
2396.490231703391
 21
-313.6665463834248
 31
0.0
  0
LWPOLYLINE
  5
37B
330
1F
100
AcDbEntity
  8
0-B_寸法
  6
Continuous
 62
     7
370
     9
100
AcDbPolyline
 90
        4
 70
     1
 43
2.0
 10
2397.490231703391
 20
-313.6665463834248
 42
0.4142135623731
 10
2396.490231703391
 20
-312.6665463834248
 42
0.4142135623731
 10
2395.490231703391
 20
-313.6665463834248
 42
0.4142135623731
 10
2396.490231703391
 20
-314.6665463834248
 42
0.4142135623731
  0
LINE
  5
37C
330
1F
100
AcDbEntity
  8
0-B_寸法
  6
Continuous
 62
   120
370
     5
100
AcDbLine
 10
2396.490231703391
 20
-313.6665463834248
 30
0.0
 11
2396.490231703391
 21
-413.6665463834248
 31
0.0
  0
MTEXT
  5
37D
330
1F
100
AcDbEntity
  8
0-B_寸法
  6
Continuous
 62
     7
370
   211
100
AcDbMText
 10
2548.990034414927
 20
-410.8065463834247
 30
0.0
 40
45.72000000000014
 41
90.00000000000028
 46
0.0
 71
     7
 72
     1
  1
{\fＭＳ ゴシック|b0|i0|c128|p49;345}
 73
     1
 44
1.0
  0
LWPOLYLINE
  5
37E
330
1F
100
AcDbEntity
  8
0-B_寸法
  6
Continuous
 62
     7
370
     9
100
AcDbPolyline
 90
        4
 70
     1
 43
2.0
 10
2421.490034414928
 20
-413.6665463834248
 42
0.4142135623731
 10
2420.490034414928
 20
-412.6665463834248
 42
0.4142135623731
 10
2419.490034414928
 20
-413.6665463834248
 42
0.4142135623731
 10
2420.490034414928
 20
-414.6665463834248
 42
0.4142135623731
  0
LWPOLYLINE
  5
37F
330
1F
100
AcDbEntity
  8
0-B_寸法
  6
Continuous
 62
     7
370
     9
100
AcDbPolyline
 90
        4
 70
     1
 43
2.0
 10
2767.490034414927
 20
-313.6665463834248
 42
0.4142135623731
 10
2766.490034414926
 20
-312.6665463834248
 42
0.4142135623731
 10
2765.490034414926
 20
-313.6665463834248
 42
0.4142135623731
 10
2766.490034414926
 20
-314.6665463834248
 42
0.4142135623731
  0
LINE
  5
380
330
1F
100
AcDbEntity
  8
0-2_扉
  6
Continuous
 62
    40
370
    15
100
AcDbLine
 10
2396.490040349926
 20
-698.6665750452056
 30
0.0
 11
2396.490040349926
 21
-1453.666719208359
 31
0.0
  0
LINE
  5
381
330
1F
100
AcDbEntity
  8
0-2_扉
  6
Continuous
 62
    40
370
    15
100
AcDbLine
 10
2396.490040349926
 20
-698.6665750452056
 30
0.0
 11
2420.490040349927
 21
-698.6665750452056
 31
0.0
  0
LINE
  5
382
330
1F
100
AcDbEntity
  8
0-2_扉
  6
Continuous
 62
    40
370
    15
100
AcDbLine
 10
2420.490040349927
 20
-698.6665750452056
 30
0.0
 11
2420.490040349927
 21
-1453.666719208359
 31
0.0
  0
LINE
  5
383
330
1F
100
AcDbEntity
  8
0-2_扉
  6
Continuous
 62
    40
370
    15
100
AcDbLine
 10
2396.490040349926
 20
-1453.666719208359
 30
0.0
 11
2420.490040349927
 21
-1453.666719208359
 31
0.0
  0
LINE
  5
384
330
1F
100
AcDbEntity
  8
0-4_棚
  6
Continuous
 62
     7
370
     9
100
AcDbLine
 10
2766.490034368388
 20
-695.6665463834247
 30
0.0
 11
2389.490034368388
 21
-695.6665463834247
 31
0.0
  0
LINE
  5
385
330
1F
100
AcDbEntity
  8
0-4_棚
  6
Continuous
 62
     7
370
     9
100
AcDbLine
 10
2766.490034368388
 20
-695.6665463834247
 30
0.0
 11
2766.490034368388
 21
-665.6665463834247
 31
0.0
  0
LINE
  5
386
330
1F
100
AcDbEntity
  8
0-4_棚
  6
Continuous
 62
     7
370
     9
100
AcDbLine
 10
2389.490034368388
 20
-666.6565156722718
 30
0.0
 11
2389.490034368388
 21
-695.6665463834247
 31
0.0
  0
LINE
  5
387
330
1F
100
AcDbEntity
  8
0-4_棚
  6
Continuous
 62
     7
370
     9
100
AcDbLine
 10
2390.479983862048
 20
-665.666566178611
 30
0.0
 11
2766.490034368388
 21
-665.666566178611
 31
0.0
  0
LINE
  5
388
330
1F
100
AcDbEntity
  8
0-4_棚
  6
Continuous
 62
     7
370
     9
100
AcDbLine
 10
2389.490034368388
 20
-666.6565156722718
 30
0.0
 11
2390.479983862048
 21
-665.666566178611
 31
0.0
  0
LINE
  5
389
330
1F
100
AcDbEntity
  8
0-4_棚
  6
Continuous
 62
    92
370
    13
100
AcDbLine
 10
900.49003460108
 20
-695.6665463834253
 30
0.0
 11
900.49003460108
 21
-665.6665463834253
 31
0.0
  0
LINE
  5
38A
330
1F
100
AcDbEntity
  8
0-4_棚
  6
Continuous
 62
    92
370
    13
100
AcDbLine
 10
-295.5099653989196
 20
-695.6665463834253
 30
0.0
 11
900.49003460108
 21
-695.6665463834253
 31
0.0
  0
LINE
  5
38B
330
1F
100
AcDbEntity
  8
0-4_棚
  6
Continuous
 62
    92
370
    13
100
AcDbLine
 10
900.49003460108
 20
-665.6665463834253
 30
0.0
 11
-295.5099653989196
 21
-665.6665463834253
 31
0.0
  0
LINE
  5
38C
330
1F
100
AcDbEntity
  8
0-4_棚
  6
Continuous
 62
    92
370
    13
100
AcDbLine
 10
-295.5099653989196
 20
-665.6665463834253
 30
0.0
 11
-295.5099653989196
 21
-695.6665463834253
 31
0.0
  0
LINE
  5
38D
330
1F
100
AcDbEntity
  8
0-4_棚
  6
Continuous
 62
    92
370
    13
100
AcDbLine
 10
-1593.50996539892
 20
-695.6665463834253
 30
0.0
 11
-1593.50996539892
 21
-665.6665463834253
 31
0.0
  0
LINE
  5
38E
330
1F
100
AcDbEntity
  8
0-4_棚
  6
Continuous
 62
    92
370
    13
100
AcDbLine
 10
-2789.50996539892
 20
-695.6665463834253
 30
0.0
 11
-1593.50996539892
 21
-695.6665463834253
 31
0.0
  0
LINE
  5
38F
330
1F
100
AcDbEntity
  8
0-4_棚
  6
Continuous
 62
    92
370
    13
100
AcDbLine
 10
-1593.50996539892
 20
-665.6665463834253
 30
0.0
 11
-2789.50996539892
 21
-665.6665463834253
 31
0.0
  0
LINE
  5
390
330
1F
100
AcDbEntity
  8
0-4_棚
  6
Continuous
 62
    92
370
    13
100
AcDbLine
 10
-2789.50996539892
 20
-665.6665463834253
 30
0.0
 11
-2789.50996539892
 21
-695.6665463834253
 31
0.0
  0
LWPOLYLINE
  5
391
330
1F
100
AcDbEntity
  8
0-B_寸法
  6
Continuous
 62
     7
370
     9
100
AcDbPolyline
 90
        4
 70
     1
 43
2.0
 10
1950.490034554541
 20
-665.666566178611
 42
0.4142135623731
 10
1949.490034554542
 20
-664.666566178611
 42
0.4142135623731
 10
1948.490034554542
 20
-665.666566178611
 42
0.4142135623731
 10
1949.490034554542
 20
-666.666566178611
 42
0.4142135623731
  0
LWPOLYLINE
  5
392
330
1F
100
AcDbEntity
  8
0-B_寸法
  6
Continuous
 62
     7
370
     9
100
AcDbPolyline
 90
        4
 70
     1
 43
2.0
 10
1950.490034554541
 20
-695.6665463834247
 42
0.4142135623731
 10
1949.490034554542
 20
-694.6665463834247
 42
0.4142135623731
 10
1948.490034554542
 20
-695.6665463834247
 42
0.4142135623731
 10
1949.490034554542
 20
-696.6665463834247
 42
0.4142135623731
  0
LINE
  5
393
330
1F
100
AcDbEntity
  8
0-B_寸法
  6
Continuous
 62
   120
370
     5
100
AcDbLine
 10
1949.490034554542
 20
-665.666566178611
 30
0.0
 11
2349.490034574309
 21
-665.666566178611
 31
0.0
  0
MTEXT
  5
394
330
1F
100
AcDbEntity
  8
0-B_寸法
  6
Continuous
 62
     7
370
   211
100
AcDbMText
 10
1939.490034554542
 20
-717.8065562810176
 30
0.0
 40
45.72
 41
60.0
 46
0.0
 71
     7
 72
     1
  1
{\fＭＳ ゴシック|b0|i0|c128|p49;30}
 11
6.123031769111886E-17
 21
1.0
 31
0.0
 73
     1
 44
1.0
  0
LINE
  5
395
330
1F
100
AcDbEntity
  8
0-B_寸法
  6
Continuous
 62
   120
370
     5
100
AcDbLine
 10
-544.5099653989138
 20
-695.6665463834253
 30
0.0
 11
-544.5099653989138
 21
-665.6665463834253
 31
0.0
  0
LWPOLYLINE
  5
396
330
1F
100
AcDbEntity
  8
0-B_寸法
  6
Continuous
 62
     7
370
     9
100
AcDbPolyline
 90
        4
 70
     1
 43
2.0
 10
-543.5099653989138
 20
-665.6665463834253
 42
0.4142135623731
 10
-544.5099653989138
 20
-664.6665463834254
 42
0.4142135623731
 10
-545.5099653989138
 20
-665.6665463834253
 42
0.4142135623731
 10
-544.5099653989138
 20
-666.6665463834252
 42
0.4142135623731
  0
LINE
  5
397
330
1F
100
AcDbEntity
  8
0-B_寸法
  6
Continuous
 62
   120
370
     5
100
AcDbLine
 10
-544.5099653989138
 20
-665.6665463834253
 30
0.0
 11
-344.5099652592972
 21
-665.6665463834253
 31
0.0
  0
MTEXT
  5
398
330
1F
100
AcDbEntity
  8
0-B_寸法
  6
Continuous
 62
     7
370
   211
100
AcDbMText
 10
-554.5099653989138
 20
-717.8065463834253
 30
0.0
 40
45.72
 41
60.0
 46
0.0
 71
     7
 72
     1
  1
{\fＭＳ ゴシック|b0|i0|c128|p49;30}
 11
6.123031769111886E-17
 21
1.0
 31
0.0
 73
     1
 44
1.0
  0
LINE
  5
399
330
1F
100
AcDbEntity
  8
0-B_寸法
  6
Continuous
 62
   120
370
     5
100
AcDbLine
 10
-2938.509965398912
 20
-665.6665463834253
 30
0.0
 11
-2938.509965398912
 21
-695.6665463834253
 31
0.0
  0
LWPOLYLINE
  5
39A
330
1F
100
AcDbEntity
  8
0-B_寸法
  6
Continuous
 62
     7
370
     9
100
AcDbPolyline
 90
        4
 70
     1
 43
2.0
 10
-2937.509965398912
 20
-665.6665463834253
 42
0.4142135623731
 10
-2938.509965398912
 20
-664.6665463834254
 42
0.4142135623731
 10
-2939.509965398913
 20
-665.6665463834253
 42
0.4142135623731
 10
-2938.509965398912
 20
-666.6665463834252
 42
0.4142135623731
  0
LINE
  5
39B
330
1F
100
AcDbEntity
  8
0-B_寸法
  6
Continuous
 62
   120
370
     5
100
AcDbLine
 10
-3038.509965398915
 20
-665.6665463834253
 30
0.0
 11
-2838.509965398912
 21
-665.6665463834253
 31
0.0
  0
MTEXT
  5
39C
330
1F
100
AcDbEntity
  8
0-B_寸法
  6
Continuous
 62
     7
370
   211
100
AcDbMText
 10
-2948.509965398912
 20
-698.7929536658885
 30
0.0
 40
45.72
 41
60.0
 46
0.0
 71
     7
 72
     1
  1
{\fＭＳ ゴシック|b0|i0|c128|p49;30}
 11
6.123031769111886E-17
 21
1.0
 31
0.0
 73
     1
 44
1.0
  0
LINE
  5
39D
330
1F
100
AcDbEntity
  8
0-3_扉仕上
  6
JWW_CENTER1
 62
     7
370
     9
100
AcDbLine
 10
-1990.509965398913
 20
709.3334536165816
 30
0.0
 11
-1596.509965398914
 21
427.8334536165823
 31
0.0
  0
LINE
  5
39E
330
1F
100
AcDbEntity
  8
0-3_扉仕上
  6
JWW_CENTER1
 62
     7
370
     9
100
AcDbLine
 10
-1596.509965398914
 20
427.8334536165823
 30
0.0
 11
-1990.509965398913
 21
146.333453616582
 31
0.0
  0
LINE
  5
39F
330
1F
100
AcDbEntity
  8
0-3_扉仕上
  6
JWW_CENTER1
 62
     7
370
     9
100
AcDbLine
 10
-1994.509965398918
 20
709.3334536165816
 30
0.0
 11
-2388.509965398917
 21
427.8334536165823
 31
0.0
  0
LINE
  5
3A0
330
1F
100
AcDbEntity
  8
0-3_扉仕上
  6
JWW_CENTER1
 62
     7
370
     9
100
AcDbLine
 10
-2388.509965398917
 20
427.8334536165823
 30
0.0
 11
-1994.509965398918
 21
146.333453616582
 31
0.0
  0
LINE
  5
3A1
330
1F
100
AcDbEntity
  8
0-3_扉仕上
  6
JWW_CENTER1
 62
     7
370
     9
100
AcDbLine
 10
-2392.509965398916
 20
709.3334536165816
 30
0.0
 11
-2786.509965398915
 21
427.8334536165823
 31
0.0
  0
LINE
  5
3A2
330
1F
100
AcDbEntity
  8
0-3_扉仕上
  6
JWW_CENTER1
 62
     7
370
     9
100
AcDbLine
 10
-2786.509965398915
 20
427.8334536165823
 30
0.0
 11
-2392.509965398916
 21
146.333453616582
 31
0.0
  0
LINE
  5
3A3
330
1F
100
AcDbEntity
  8
0-2_扉
  6
Continuous
 62
    40
370
    15
100
AcDbLine
 10
2420.490034601084
 20
146.3334536168139
 30
0.0
 11
2420.490034601084
 21
709.3334536168152
 31
0.0
  0
LINE
  5
3A4
330
1F
100
AcDbEntity
  8
0-2_扉
  6
Continuous
 62
    40
370
    15
100
AcDbLine
 10
2396.490034601085
 20
146.3334536168139
 30
0.0
 11
2420.490034601084
 21
146.3334536168139
 31
0.0
  0
LINE
  5
3A5
330
1F
100
AcDbEntity
  8
0-2_扉
  6
Continuous
 62
    40
370
    15
100
AcDbLine
 10
2396.490034601085
 20
709.3334536168152
 30
0.0
 11
2420.490034601084
 21
709.3334536168152
 31
0.0
  0
LINE
  5
3A6
330
1F
100
AcDbEntity
  8
0-2_扉
  6
Continuous
 62
    40
370
    15
100
AcDbLine
 10
2396.490034601085
 20
146.3334536168139
 30
0.0
 11
2396.490034601085
 21
709.3334536168152
 31
0.0
  0
LWPOLYLINE
  5
3A7
330
1F
100
AcDbEntity
  8
0-B_寸法
  6
Continuous
 62
     7
370
     9
100
AcDbPolyline
 90
        4
 70
     1
 43
2.0
 10
2421.490034601084
 20
962.3334536168153
 42
0.4142135623731
 10
2420.490034601084
 20
963.3334536168152
 42
0.4142135623731
 10
2419.490034601084
 20
962.3334536168153
 42
0.4142135623731
 10
2420.490034601084
 20
961.3334536168154
 42
0.4142135623731
  0
LWPOLYLINE
  5
3A8
330
1F
100
AcDbEntity
  8
0-B_寸法
  6
Continuous
 62
     7
370
     9
100
AcDbPolyline
 90
        4
 70
     1
 43
2.0
 10
2422.490034601083
 20
962.3334536168153
 42
0.4142135623731
 10
2421.490034601083
 20
963.3334536168152
 42
0.4142135623731
 10
2420.490034601083
 20
962.3334536168153
 42
0.4142135623731
 10
2421.490034601083
 20
961.3334536168154
 42
0.4142135623731
  0
LINE
  5
3A9
330
1F
100
AcDbEntity
  8
0-B_寸法
  6
Continuous
 62
   120
370
     5
100
AcDbLine
 10
2421.490034601083
 20
962.3334536168153
 30
0.0
 11
2421.490034601083
 21
862.3334536168153
 31
0.0
  0
LWPOLYLINE
  5
3AA
330
1F
100
AcDbEntity
  8
0-B_寸法
  6
Continuous
 62
     7
370
     9
100
AcDbPolyline
 90
        4
 70
     1
 43
2.0
 10
2767.490034601083
 20
962.3334536168153
 42
0.4142135623731
 10
2766.490034601083
 20
963.3334536168152
 42
0.4142135623731
 10
2765.490034601083
 20
962.3334536168153
 42
0.4142135623731
 10
2766.490034601083
 20
961.3334536168154
 42
0.4142135623731
  0
LINE
  5
3AB
330
1F
100
AcDbEntity
  8
0-B_寸法
  6
Continuous
 62
   120
370
     5
100
AcDbLine
 10
2766.490034601083
 20
1062.333453616815
 30
0.0
 11
2766.490034601083
 21
862.3334536168153
 31
0.0
  0
MTEXT
  5
3AC
330
1F
100
AcDbEntity
  8
0-B_寸法
  6
Continuous
 62
     7
370
   211
100
AcDbMText
 10
2548.990034601083
 20
965.1934536168153
 30
0.0
 40
45.72
 41
90.0
 46
0.0
 71
     7
 72
     1
  1
{\fＭＳ ゴシック|b0|i0|c128|p49;345}
 73
     1
 44
1.0
  0
LWPOLYLINE
  5
3AD
330
1F
100
AcDbEntity
  8
0-B_寸法
  6
Continuous
 62
     7
370
     9
100
AcDbPolyline
 90
        4
 70
     1
 43
2.0
 10
2767.490034601083
 20
1062.333453616815
 42
0.4142135623731
 10
2766.490034601083
 20
1063.333453616815
 42
0.4142135623731
 10
2765.490034601083
 20
1062.333453616815
 42
0.4142135623731
 10
2766.490034601083
 20
1061.333453616815
 42
0.4142135623731
  0
MTEXT
  5
3AE
330
1F
100
AcDbEntity
  8
0-B_寸法
  6
Continuous
 62
     7
370
   211
100
AcDbMText
 10
2405.990034601084
 20
965.1934536168153
 30
0.0
 40
45.72
 41
30.0
 46
0.0
 71
     7
 72
     1
  1
{\fＭＳ ゴシック|b0|i0|c128|p49;1}
 73
     1
 44
1.0
  0
LINE
  5
3AF
330
1F
100
AcDbEntity
  8
0-B_寸法
  6
Continuous
 62
   120
370
     5
100
AcDbLine
 10
2396.489843201086
 20
962.3334536168153
 30
0.0
 11
2766.490034601083
 21
962.3334536168153
 31
0.0
  0
LWPOLYLINE
  5
3B0
330
1F
100
AcDbEntity
  8
0-B_寸法
  6
Continuous
 62
     7
370
     9
100
AcDbPolyline
 90
        4
 70
     1
 43
2.0
 10
2397.489843201086
 20
962.3334536168153
 42
0.4142135623731
 10
2396.489843201086
 20
963.3334536168152
 42
0.4142135623731
 10
2395.489843201086
 20
962.3334536168153
 42
0.4142135623731
 10
2396.489843201086
 20
961.3334536168154
 42
0.4142135623731
  0
LINE
  5
3B1
330
1F
100
AcDbEntity
  8
0-B_寸法
  6
Continuous
 62
   120
370
     5
100
AcDbLine
 10
2396.489843201086
 20
1062.333453616815
 30
0.0
 11
2766.490034601083
 21
1062.333453616815
 31
0.0
  0
LWPOLYLINE
  5
3B2
330
1F
100
AcDbEntity
  8
0-B_寸法
  6
Continuous
 62
     7
370
     9
100
AcDbPolyline
 90
        4
 70
     1
 43
2.0
 10
2397.489843201086
 20
1062.333453616815
 42
0.4142135623731
 10
2396.489843201086
 20
1063.333453616815
 42
0.4142135623731
 10
2395.489843201086
 20
1062.333453616815
 42
0.4142135623731
 10
2396.489843201086
 20
1061.333453616815
 42
0.4142135623731
  0
MTEXT
  5
3B3
330
1F
100
AcDbEntity
  8
0-B_寸法
  6
Continuous
 62
     7
370
   211
100
AcDbMText
 10
2534.989938901085
 20
1065.193453616815
 30
0.0
 40
45.72
 41
90.0
 46
0.0
 71
     7
 72
     1
  1
{\fＭＳ ゴシック|b0|i0|c128|p49;370}
 73
     1
 44
1.0
  0
MTEXT
  5
3B4
330
1F
100
AcDbEntity
  8
0-B_寸法
  6
Continuous
 62
     7
370
   211
100
AcDbMText
 10
2333.083709285372
 20
965.1934536168153
 30
0.0
 40
45.72
 41
60.0
 46
0.0
 71
     7
 72
     1
  1
{\fＭＳ ゴシック|b0|i0|c128|p49;24}
 73
     1
 44
1.0
  0
LINE
  5
3B5
330
1F
100
AcDbEntity
  8
0-B_寸法
  6
Continuous
 62
   120
370
     5
100
AcDbLine
 10
2396.489843201086
 20
1062.333453616815
 30
0.0
 11
2396.489843201086
 21
762.3334536168142
 31
0.0
  0
LINE
  5
3B6
330
1F
100
AcDbEntity
  8
0-B_寸法
  6
Continuous
 62
   120
370
     5
100
AcDbLine
 10
2420.490034601084
 20
962.3334536168153
 30
0.0
 11
2420.490034601084
 21
762.3334536168142
 31
0.0
  0
MTEXT
  5
3B7
330
1F
100
AcDbEntity
  8
0-B_寸法
  6
Continuous
 62
     7
370
   211
100
AcDbMText
 10
2906.490034478472
 20
-1501.306546383418
 30
0.0
 40
45.72
 41
90.0
 46
0.0
 71
     7
 72
     1
  1
{\fＭＳ ゴシック|b0|i0|c128|p49;143}
 11
6.123031769111886E-17
 21
1.0
 31
0.0
 73
     1
 44
1.0
  0
LINE
  5
3B8
330
1F
100
AcDbEntity
  8
0-6_桟木
  6
Continuous
 62
    92
370
    13
100
AcDbLine
 10
2766.490034478471
 20
-1520.666546383418
 30
0.0
 11
2796.490034478471
 21
-1520.666546383418
 31
0.0
  0
LINE
  5
3B9
330
1F
100
AcDbEntity
  8
0-6_桟木
  6
Continuous
 62
    40
370
    15
100
AcDbLine
 10
2766.490034385393
 20
-1377.666526588233
 30
0.0
 11
2766.490034385393
 21
-1451.666546383419
 31
0.0
  0
LINE
  5
3BA
330
1F
100
AcDbEntity
  8
0-6_桟木
  6
Continuous
 62
     7
370
     9
100
AcDbLine
 10
2766.490034385393
 20
-1451.666526588234
 30
0.0
 11
2766.490034385393
 21
-1377.666526588233
 31
0.0
  0
LINE
  5
3BB
330
1F
100
AcDbEntity
  8
0-6_桟木
  6
Continuous
 62
    92
370
    13
100
AcDbLine
 10
2766.490034478471
 20
-1377.666546383417
 30
0.0
 11
2766.490034478471
 21
-1520.666546383418
 31
0.0
  0
LINE
  5
3BC
330
1F
100
AcDbEntity
  8
0-6_桟木
  6
Continuous
 62
    92
370
    13
100
AcDbLine
 10
2796.490034478471
 20
-1377.666546383417
 30
0.0
 11
2766.490034478471
 21
-1377.666546383417
 31
0.0
  0
LINE
  5
3BD
330
1F
100
AcDbEntity
  8
0-6_桟木
  6
Continuous
 62
    92
370
    13
100
AcDbLine
 10
2796.490034478471
 20
-1520.666546383418
 30
0.0
 11
2796.490034478471
 21
-1377.666546383417
 31
0.0
  0
LINE
  5
3BE
330
1F
100
AcDbEntity
  8
0-6_桟木
  6
Continuous
 62
     7
370
     9
100
AcDbLine
 10
2766.490034478471
 20
-1520.666546383418
 30
0.0
 11
2796.490034478471
 21
-1377.666546383417
 31
0.0
  0
LINE
  5
3BF
330
1F
100
AcDbEntity
  8
0-6_桟木
  6
Continuous
 62
     7
370
     9
100
AcDbLine
 10
2766.490034478471
 20
-1377.666546383417
 30
0.0
 11
2796.490034478471
 21
-1520.666546383418
 31
0.0
  0
LINE
  5
3C0
330
1F
100
AcDbEntity
  8
0-B_寸法
  6
Continuous
 62
   120
370
     5
100
AcDbLine
 10
2916.490034478472
 20
-1520.666546383418
 30
0.0
 11
2916.490034478472
 21
-1377.666546383417
 31
0.0
  0
LWPOLYLINE
  5
3C1
330
1F
100
AcDbEntity
  8
0-B_寸法
  6
Continuous
 62
     7
370
     9
100
AcDbPolyline
 90
        4
 70
     1
 43
2.0
 10
2917.490034478472
 20
-1520.666546383418
 42
0.4142135623731
 10
2916.490034478472
 20
-1519.666546383418
 42
0.4142135623731
 10
2915.490034478471
 20
-1520.666546383418
 42
0.4142135623731
 10
2916.490034478472
 20
-1521.666546383418
 42
0.4142135623731
  0
LINE
  5
3C2
330
1F
100
AcDbEntity
  8
0-B_寸法
  6
Continuous
 62
   120
370
     5
100
AcDbLine
 10
2916.490034478472
 20
-1520.666546383418
 30
0.0
 11
2816.490034478471
 21
-1520.666546383418
 31
0.0
  0
LINE
  5
3C3
330
1F
100
AcDbEntity
  8
0-B_寸法
  6
Continuous
 62
   120
370
     5
100
AcDbLine
 10
2916.490034478472
 20
-1377.666546383417
 30
0.0
 11
2816.490034478471
 21
-1377.666546383417
 31
0.0
  0
LWPOLYLINE
  5
3C4
330
1F
100
AcDbEntity
  8
0-B_寸法
  6
Continuous
 62
     7
370
     9
100
AcDbPolyline
 90
        4
 70
     1
 43
2.0
 10
2917.490034385398
 20
-1377.666546383417
 42
0.4142135623731
 10
2916.490034385397
 20
-1376.666546383417
 42
0.4142135623731
 10
2915.490034385397
 20
-1377.666546383417
 42
0.4142135623731
 10
2916.490034385397
 20
-1378.666546383417
 42
0.4142135623731
  0
LINE
  5
3C5
330
1F
100
AcDbEntity
  8
0-6_桟木
  6
Continuous
 62
    92
370
    13
100
AcDbLine
 10
2766.490034478475
 20
-665.6665661786059
 30
0.0
 11
2766.490034478475
 21
-770.6665661786059
 31
0.0
  0
LINE
  5
3C6
330
1F
100
AcDbEntity
  8
0-6_桟木
  6
Continuous
 62
    92
370
    13
100
AcDbLine
 10
2796.490034478475
 20
-665.6665661786059
 30
0.0
 11
2766.490034478475
 21
-665.6665661786059
 31
0.0
  0
LINE
  5
3C7
330
1F
100
AcDbEntity
  8
0-6_桟木
  6
Continuous
 62
    92
370
    13
100
AcDbLine
 10
2766.490034478475
 20
-770.6665661786059
 30
0.0
 11
2796.490034478475
 21
-770.6665661786059
 31
0.0
  0
LINE
  5
3C8
330
1F
100
AcDbEntity
  8
0-6_桟木
  6
Continuous
 62
    92
370
    13
100
AcDbLine
 10
2796.490034478475
 20
-770.6665661786059
 30
0.0
 11
2796.490034478475
 21
-665.6665661786059
 31
0.0
  0
LINE
  5
3C9
330
1F
100
AcDbEntity
  8
0-6_桟木
  6
Continuous
 62
     7
370
     9
100
AcDbLine
 10
2766.490034478475
 20
-770.6665661786059
 30
0.0
 11
2796.490034478475
 21
-665.6665661786059
 31
0.0
  0
LINE
  5
3CA
330
1F
100
AcDbEntity
  8
0-6_桟木
  6
Continuous
 62
     7
370
     9
100
AcDbLine
 10
2766.490034478475
 20
-665.6665661786059
 30
0.0
 11
2796.490034478475
 21
-770.6665661786059
 31
0.0
  0
LINE
  5
3CB
330
1F
100
AcDbEntity
  8
0-B_寸法
  6
Continuous
 62
   120
370
     5
100
AcDbLine
 10
2916.490034385397
 20
-1377.666546383417
 30
0.0
 11
2916.490034385397
 21
-770.6665661786059
 31
0.0
  0
LWPOLYLINE
  5
3CC
330
1F
100
AcDbEntity
  8
0-B_寸法
  6
Continuous
 62
     7
370
     9
100
AcDbPolyline
 90
        4
 70
     1
 43
2.0
 10
2917.490034385398
 20
-770.6665661786059
 42
0.4142135623731
 10
2916.490034385397
 20
-769.666566178606
 42
0.4142135623731
 10
2915.490034385397
 20
-770.6665661786059
 42
0.4142135623731
 10
2916.490034385397
 20
-771.6665661786058
 42
0.4142135623731
  0
LINE
  5
3CD
330
1F
100
AcDbEntity
  8
0-B_寸法
  6
Continuous
 62
   120
370
     5
100
AcDbLine
 10
2916.490034385397
 20
-770.6665661786059
 30
0.0
 11
2816.490034478471
 21
-770.6665661786059
 31
0.0
  0
MTEXT
  5
3CE
330
1F
100
AcDbEntity
  8
0-B_寸法
  6
Continuous
 62
     7
370
   211
100
AcDbMText
 10
2906.490034385397
 20
-1126.306556281012
 30
0.0
 40
45.72
 41
90.0
 46
0.0
 71
     7
 72
     1
  1
{\fＭＳ ゴシック|b0|i0|c128|p49;607}
 11
6.123031769111886E-17
 21
1.0
 31
0.0
 73
     1
 44
1.0
  0
LINE
  5
3CF
330
1F
100
AcDbEntity
  8
0-B_寸法
  6
Continuous
 62
   120
370
     5
100
AcDbLine
 10
2916.490034385397
 20
-770.6665661786059
 30
0.0
 11
2916.490034385397
 21
-665.6665661786059
 31
0.0
  0
LWPOLYLINE
  5
3D0
330
1F
100
AcDbEntity
  8
0-B_寸法
  6
Continuous
 62
     7
370
     9
100
AcDbPolyline
 90
        4
 70
     1
 43
2.0
 10
2917.490034385398
 20
-665.6665661786059
 42
0.4142135623731
 10
2916.490034385397
 20
-664.666566178606
 42
0.4142135623731
 10
2915.490034385397
 20
-665.6665661786059
 42
0.4142135623731
 10
2916.490034385397
 20
-666.6665661786058
 42
0.4142135623731
  0
LINE
  5
3D1
330
1F
100
AcDbEntity
  8
0-B_寸法
  6
Continuous
 62
   120
370
     5
100
AcDbLine
 10
2916.490034385397
 20
-665.6665661786059
 30
0.0
 11
2816.490034478471
 21
-665.6665661786059
 31
0.0
  0
MTEXT
  5
3D2
330
1F
100
AcDbEntity
  8
0-B_寸法
  6
Continuous
 62
     7
370
   211
100
AcDbMText
 10
2906.490034385397
 20
-770.3065661786059
 30
0.0
 40
45.72
 41
90.0
 46
0.0
 71
     7
 72
     1
  1
{\fＭＳ ゴシック|b0|i0|c128|p49;105}
 11
6.123031769111886E-17
 21
1.0
 31
0.0
 73
     1
 44
1.0
  0
LINE
  5
3D3
330
1F
100
AcDbEntity
  8
0-B_寸法
  6
JWW_DASHED2
 62
   120
370
     5
100
AcDbLine
 10
2766.490034461464
 20
-665.666566178611
 30
0.0
 11
-2788.509965398914
 21
-665.666566178611
 31
0.0
  0
LINE
  5
3D4
330
1F
100
AcDbEntity
  8
0-B_寸法
  6
JWW_DASHED2
 62
   120
370
     5
100
AcDbLine
 10
2766.490034461464
 20
-770.666566178611
 30
0.0
 11
-2788.509965398914
 21
-770.666566178611
 31
0.0
  0
LINE
  5
3D5
330
1F
100
AcDbEntity
  8
0-B_寸法
  6
Continuous
 62
   120
370
     5
100
AcDbLine
 10
-3038.509965398915
 20
-1456.666546383426
 30
0.0
 11
-3038.509965398915
 21
-665.6665463834253
 31
0.0
  0
LWPOLYLINE
  5
3D6
330
1F
100
AcDbEntity
  8
0-B_寸法
  6
Continuous
 62
     7
370
     9
100
AcDbPolyline
 90
        4
 70
     1
 43
2.0
 10
-3037.509965398915
 20
-1456.666546383426
 42
0.4142135623731
 10
-3038.509965398915
 20
-1455.666546383426
 42
0.4142135623731
 10
-3039.509965398915
 20
-1456.666546383426
 42
0.4142135623731
 10
-3038.509965398915
 20
-1457.666546383426
 42
0.4142135623731
  0
LWPOLYLINE
  5
3D7
330
1F
100
AcDbEntity
  8
0-B_寸法
  6
Continuous
 62
     7
370
     9
100
AcDbPolyline
 90
        4
 70
     1
 43
2.0
 10
-3037.509965398915
 20
-665.6665463834253
 42
0.4142135623731
 10
-3038.509965398915
 20
-664.6665463834254
 42
0.4142135623731
 10
-3039.509965398915
 20
-665.6665463834253
 42
0.4142135623731
 10
-3038.509965398915
 20
-666.6665463834252
 42
0.4142135623731
  0
MTEXT
  5
3D8
330
1F
100
AcDbEntity
  8
0-B_寸法
  6
Continuous
 62
     7
370
   211
100
AcDbMText
 10
-3048.509965398915
 20
-1113.306546383426
 30
0.0
 40
45.72
 41
90.0
 46
0.0
 71
     7
 72
     1
  1
{\fＭＳ ゴシック|b0|i0|c128|p49;791}
 11
6.123031769111886E-17
 21
1.0
 31
0.0
 73
     1
 44
1.0
  0
LINE
  5
3D9
330
1F
100
AcDbEntity
  8
0-B_寸法
  6
Continuous
 62
   120
370
     5
100
AcDbLine
 10
-3038.509965398915
 20
-665.6665463834253
 30
0.0
 11
-3038.509965398915
 21
143.3334536165825
 31
0.0
  0
MTEXT
  5
3DA
330
1F
100
AcDbEntity
  8
0-B_寸法
  6
Continuous
 62
     7
370
   211
100
AcDbMText
 10
-3048.509965398915
 20
-313.3065463834214
 30
0.0
 40
45.72
 41
90.0
 46
0.0
 71
     7
 72
     1
  1
{\fＭＳ ゴシック|b0|i0|c128|p49;809}
 11
6.123031769111886E-17
 21
1.0
 31
0.0
 73
     1
 44
1.0
  0
MTEXT
  5
3DB
330
1F
100
AcDbEntity
  8
0-A_文字
  6
Continuous
 62
     7
370
     9
100
AcDbMText
 10
2082.989938761465
 20
-2066.680832097703
 30
0.0
 40
97.97142857142858
 41
900.0
 46
0.0
 71
     7
 72
     1
  1
{\fＭＳ ゴシック|b0|i0|c128|p49;Ａ－Ａ’断面図}
 73
     1
 44
1.0
  0
MTEXT
  5
3DC
330
1F
100
AcDbEntity
  8
0-A_文字
  6
Continuous
 62
     7
370
   211
100
AcDbMText
 10
1587.989938668386
 20
-2181.620953508247
 30
0.0
 40
45.71999999999997
 41
1050.0
 46
0.0
 71
     7
 72
     1
  1
{\fＭＳ ゴシック|b0|i0|c128|p49;※棚板は可動式32m/mピッチで調整可能}
 73
     1
 44
1.0
  0
MTEXT
  5
3DD
330
1F
100
AcDbEntity
  8
0-A_文字
  6
Continuous
 62
     7
370
   211
100
AcDbMText
 10
1587.989938668389
 20
-2255.756403422416
 30
0.0
 40
45.72000000000001
 41
1890.0
 46
0.0
 71
     7
 72
     1
  1
{\fＭＳ ゴシック|b0|i0|c128|p49;※下地用の木桟木は105m/m×30m/m以上の堅い木を使用してください。}
 73
     1
 44
1.0
  0
LINE
  5
3DE
330
1F
100
AcDbEntity
  8
0-B_寸法
  6
Continuous
 62
   120
370
     5
100
AcDbLine
 10
-544.5099653989166
 20
-1520.666546383411
 30
0.0
 11
-544.5099653989166
 21
-1456.666533407549
 31
0.0
  0
LWPOLYLINE
  5
3DF
330
1F
100
AcDbEntity
  8
0-B_寸法
  6
Continuous
 62
     7
370
     9
100
AcDbPolyline
 90
        4
 70
     1
 43
2.0
 10
-543.5099653989166
 20
-1520.666546383411
 42
0.4142135623731
 10
-544.5099653989166
 20
-1519.666546383411
 42
0.4142135623731
 10
-545.5099653989166
 20
-1520.666546383411
 42
0.4142135623731
 10
-544.5099653989166
 20
-1521.666546383411
 42
0.4142135623731
  0
LINE
  5
3E0
330
1F
100
AcDbEntity
  8
0-B_寸法
  6
Continuous
 62
   120
370
     5
100
AcDbLine
 10
-544.5099653989166
 20
-1520.666546383411
 30
0.0
 11
-344.5099653989166
 21
-1520.666546383411
 31
0.0
  0
LWPOLYLINE
  5
3E1
330
1F
100
AcDbEntity
  8
0-B_寸法
  6
Continuous
 62
     7
370
     9
100
AcDbPolyline
 90
        4
 70
     1
 43
2.0
 10
-543.5099653989166
 20
-1456.666533407549
 42
0.4142135623731
 10
-544.5099653989166
 20
-1455.666533407549
 42
0.4142135623731
 10
-545.5099653989166
 20
-1456.666533407549
 42
0.4142135623731
 10
-544.5099653989166
 20
-1457.666533407549
 42
0.4142135623731
  0
LINE
  5
3E2
330
1F
100
AcDbEntity
  8
0-B_寸法
  6
Continuous
 62
   120
370
     5
100
AcDbLine
 10
-544.5099653989166
 20
-1456.666533407549
 30
0.0
 11
-344.5099653989166
 21
-1456.666533407549
 31
0.0
  0
MTEXT
  5
3E3
330
1F
100
AcDbEntity
  8
0-B_寸法
  6
Continuous
 62
     7
370
   211
100
AcDbMText
 10
-554.5099653989166
 20
-1525.80653989548
 30
0.0
 40
45.72
 41
60.0
 46
0.0
 71
     7
 72
     1
  1
{\fＭＳ ゴシック|b0|i0|c128|p49;64}
 11
6.123031769111886E-17
 21
1.0
 31
0.0
 73
     1
 44
1.0
  0
LINE
  5
3E4
330
1F
100
AcDbEntity
  8
0-3_扉仕上
  6
Continuous
 62
     7
370
     9
100
AcDbLine
 10
-2788.509965398912
 20
-1520.66654638342
 30
0.0
 11
-1394.509965398911
 21
-1520.66654638342
 31
0.0
  0
MTEXT
  5
3E5
330
1F
100
AcDbEntity
  8
0-A_文字
  6
Continuous
 62
     7
370
     9
100
AcDbMText
 10
-1574.509965398911
 20
-1527.80654638342
 30
0.0
 40
45.72
 41
180.0
 46
0.0
 71
     7
 72
     1
  1
{\fＭＳ ゴシック|b0|i0|c128|p49;▽床面}
 73
     1
 44
1.0
  0
MTEXT
  5
3E6
330
1F
100
AcDbEntity
  8
0-B_寸法
  6
Continuous
 62
     7
370
   211
100
AcDbMText
 10
911.2390905259008
 20
-1667.806546383411
 30
0.0
 40
45.72
 41
60.0
 46
0.0
 71
     7
 72
     1
  1
{\fＭＳ ゴシック|b0|i0|c128|p49;15}
 73
     1
 44
1.0
  0
MTEXT
  5
3E7
330
1F
100
AcDbEntity
  8
0-B_寸法
  6
Continuous
 62
     7
370
   211
100
AcDbMText
 10
456.4900346010859
 20
-1667.806546383411
 30
0.0
 40
45.72
 41
90.0
 46
0.0
 71
     7
 72
     1
  1
{\fＭＳ ゴシック|b0|i0|c128|p49;766}
 73
     1
 44
1.0
  0
MTEXT
  5
3E8
330
1F
100
AcDbEntity
  8
0-B_寸法
  6
Continuous
 62
     7
370
   211
100
AcDbMText
 10
123.4900346010841
 20
-1667.806546383411
 30
0.0
 40
45.72
 41
60.0
 46
0.0
 71
     7
 72
     1
  1
{\fＭＳ ゴシック|b0|i0|c128|p49;15}
 73
     1
 44
1.0
  0
MTEXT
  5
3E9
330
1F
100
AcDbEntity
  8
0-B_寸法
  6
Continuous
 62
     7
370
   211
100
AcDbMText
 10
23.49003460108179
 20
-1667.806546383411
 30
0.0
 40
45.72
 41
60.0
 46
0.0
 71
     7
 72
     1
  1
{\fＭＳ ゴシック|b0|i0|c128|p49;15}
 73
     1
 44
1.0
  0
MTEXT
  5
3EA
330
1F
100
AcDbEntity
  8
0-B_寸法
  6
Continuous
 62
     7
370
   211
100
AcDbMText
 10
-140.5099653989191
 20
-1667.806546383411
 30
0.0
 40
45.72
 41
90.0
 46
0.0
 71
     7
 72
     1
  1
{\fＭＳ ゴシック|b0|i0|c128|p49;368}
 73
     1
 44
1.0
  0
MTEXT
  5
3EB
330
1F
100
AcDbEntity
  8
0-B_寸法
  6
Continuous
 62
     7
370
   211
100
AcDbMText
 10
-354.1667158739787
 20
-1667.806546383411
 30
0.0
 40
45.72
 41
60.0
 46
0.0
 71
     7
 72
     1
  1
{\fＭＳ ゴシック|b0|i0|c128|p49;15}
 73
     1
 44
1.0
  0
MTEXT
  5
3EC
330
1F
100
AcDbEntity
  8
0-B_寸法
  6
Continuous
 62
     7
370
   211
100
AcDbMText
 10
456.4900346010859
 20
-1767.806546383411
 30
0.0
 40
45.72
 41
90.0
 46
0.0
 71
     7
 72
     1
  1
{\fＭＳ ゴシック|b0|i0|c128|p49;796}
 73
     1
 44
1.0
  0
MTEXT
  5
3ED
330
1F
100
AcDbEntity
  8
0-B_寸法
  6
Continuous
 62
     7
370
   211
100
AcDbMText
 10
-140.5099653989191
 20
-1767.806546383411
 30
0.0
 40
45.72
 41
90.0
 46
0.0
 71
     7
 72
     1
  1
{\fＭＳ ゴシック|b0|i0|c128|p49;398}
 73
     1
 44
1.0
  0
LINE
  5
3EE
330
1F
100
AcDbEntity
  8
0-B_寸法
  6
Continuous
 62
   120
370
     5
100
AcDbLine
 10
103.4900346010835
 20
-1670.666546383411
 30
0.0
 11
899.4900346010832
 21
-1670.666546383411
 31
0.0
  0
LWPOLYLINE
  5
3EF
330
1F
100
AcDbEntity
  8
0-B_寸法
  6
Continuous
 62
     7
370
     9
100
AcDbPolyline
 90
        4
 70
     1
 43
2.0
 10
119.4900346010835
 20
-1670.666546383411
 42
0.4142135623731
 10
118.4900346010835
 20
-1669.666546383411
 42
0.4142135623731
 10
117.4900346010835
 20
-1670.666546383411
 42
0.4142135623731
 10
118.4900346010835
 20
-1671.666546383411
 42
0.4142135623731
  0
LINE
  5
3F0
330
1F
100
AcDbEntity
  8
0-B_寸法
  6
Continuous
 62
   120
370
     5
100
AcDbLine
 10
118.4900346010835
 20
-1670.666546383411
 30
0.0
 11
118.4900346010835
 21
-1570.666546383411
 31
0.0
  0
LWPOLYLINE
  5
3F1
330
1F
100
AcDbEntity
  8
0-B_寸法
  6
Continuous
 62
     7
370
     9
100
AcDbPolyline
 90
        4
 70
     1
 43
2.0
 10
885.4900346010832
 20
-1670.666546383411
 42
0.4142135623731
 10
884.4900346010832
 20
-1669.666546383411
 42
0.4142135623731
 10
883.4900346010832
 20
-1670.666546383411
 42
0.4142135623731
 10
884.4900346010832
 20
-1671.666546383411
 42
0.4142135623731
  0
LINE
  5
3F2
330
1F
100
AcDbEntity
  8
0-B_寸法
  6
Continuous
 62
   120
370
     5
100
AcDbLine
 10
884.4900346010832
 20
-1670.666546383411
 30
0.0
 11
884.4900346010832
 21
-1570.666546383411
 31
0.0
  0
LWPOLYLINE
  5
3F3
330
1F
100
AcDbEntity
  8
0-B_寸法
  6
Continuous
 62
     7
370
     9
100
AcDbPolyline
 90
        4
 70
     1
 43
2.0
 10
900.4900346010832
 20
-1670.666546383411
 42
0.4142135623731
 10
899.4900346010832
 20
-1669.666546383411
 42
0.4142135623731
 10
898.4900346010832
 20
-1670.666546383411
 42
0.4142135623731
 10
899.4900346010832
 20
-1671.666546383411
 42
0.4142135623731
  0
LINE
  5
3F4
330
1F
100
AcDbEntity
  8
0-B_寸法
  6
Continuous
 62
   120
370
     5
100
AcDbLine
 10
899.4900346010832
 20
-1770.666546383411
 30
0.0
 11
899.4900346010832
 21
-1570.666546383411
 31
0.0
  0
LINE
  5
3F5
330
1F
100
AcDbEntity
  8
0-B_寸法
  6
Continuous
 62
   120
370
     5
100
AcDbLine
 10
103.4900346010835
 20
-1770.666546383411
 30
0.0
 11
899.4900346010832
 21
-1770.666546383411
 31
0.0
  0
LWPOLYLINE
  5
3F6
330
1F
100
AcDbEntity
  8
0-B_寸法
  6
Continuous
 62
     7
370
     9
100
AcDbPolyline
 90
        4
 70
     1
 43
2.0
 10
900.4900346010832
 20
-1770.666546383411
 42
0.4142135623731
 10
899.4900346010832
 20
-1769.666546383411
 42
0.4142135623731
 10
898.4900346010832
 20
-1770.666546383411
 42
0.4142135623731
 10
899.4900346010832
 20
-1771.666546383411
 42
0.4142135623731
  0
LINE
  5
3F7
330
1F
100
AcDbEntity
  8
0-B_寸法
  6
Continuous
 62
   120
370
     5
100
AcDbLine
 10
-294.509965398918
 20
-1670.666546383411
 30
0.0
 11
-279.509965398918
 21
-1670.666546383411
 31
0.0
  0
LWPOLYLINE
  5
3F8
330
1F
100
AcDbEntity
  8
0-B_寸法
  6
Continuous
 62
     7
370
     9
100
AcDbPolyline
 90
        4
 70
     1
 43
2.0
 10
-293.509965398918
 20
-1670.666546383411
 42
0.4142135623731
 10
-294.509965398918
 20
-1669.666546383411
 42
0.4142135623731
 10
-295.509965398918
 20
-1670.666546383411
 42
0.4142135623731
 10
-294.509965398918
 20
-1671.666546383411
 42
0.4142135623731
  0
LWPOLYLINE
  5
3F9
330
1F
100
AcDbEntity
  8
0-B_寸法
  6
Continuous
 62
     7
370
     9
100
AcDbPolyline
 90
        4
 70
     1
 43
2.0
 10
-278.509965398918
 20
-1670.666546383411
 42
0.4142135623731
 10
-279.509965398918
 20
-1669.666546383411
 42
0.4142135623731
 10
-280.509965398918
 20
-1670.666546383411
 42
0.4142135623731
 10
-279.509965398918
 20
-1671.666546383411
 42
0.4142135623731
  0
LINE
  5
3FA
330
1F
100
AcDbEntity
  8
0-B_寸法
  6
Continuous
 62
   120
370
     5
100
AcDbLine
 10
-279.509965398918
 20
-1670.666546383411
 30
0.0
 11
-279.509965398918
 21
-1570.666546383411
 31
0.0
  0
LINE
  5
3FB
330
1F
100
AcDbEntity
  8
0-B_寸法
  6
Continuous
 62
   120
370
     5
100
AcDbLine
 10
-279.509965398918
 20
-1670.666546383411
 30
0.0
 11
88.49003460108122
 21
-1670.666546383411
 31
0.0
  0
LWPOLYLINE
  5
3FC
330
1F
100
AcDbEntity
  8
0-B_寸法
  6
Continuous
 62
     7
370
     9
100
AcDbPolyline
 90
        4
 70
     1
 43
2.0
 10
89.49003460108122
 20
-1670.666546383411
 42
0.4142135623731
 10
88.49003460108122
 20
-1669.666546383411
 42
0.4142135623731
 10
87.49003460108122
 20
-1670.666546383411
 42
0.4142135623731
 10
88.49003460108122
 20
-1671.666546383411
 42
0.4142135623731
  0
LINE
  5
3FD
330
1F
100
AcDbEntity
  8
0-B_寸法
  6
Continuous
 62
   120
370
     5
100
AcDbLine
 10
88.49003460108122
 20
-1670.666546383411
 30
0.0
 11
88.49003460108122
 21
-1570.666546383411
 31
0.0
  0
LINE
  5
3FE
330
1F
100
AcDbEntity
  8
0-B_寸法
  6
Continuous
 62
   120
370
     5
100
AcDbLine
 10
88.49003460108122
 20
-1670.666546383411
 30
0.0
 11
103.4900346010812
 21
-1670.666546383411
 31
0.0
  0
LWPOLYLINE
  5
3FF
330
1F
100
AcDbEntity
  8
0-B_寸法
  6
Continuous
 62
     7
370
     9
100
AcDbPolyline
 90
        4
 70
     1
 43
2.0
 10
104.4900346010812
 20
-1670.666546383411
 42
0.4142135623731
 10
103.4900346010812
 20
-1669.666546383411
 42
0.4142135623731
 10
102.4900346010812
 20
-1670.666546383411
 42
0.4142135623731
 10
103.4900346010812
 20
-1671.666546383411
 42
0.4142135623731
  0
LINE
  5
400
330
1F
100
AcDbEntity
  8
0-B_寸法
  6
Continuous
 62
   120
370
     5
100
AcDbLine
 10
103.4900346010812
 20
-1770.666546383411
 30
0.0
 11
103.4900346010812
 21
-1570.666546383411
 31
0.0
  0
LINE
  5
401
330
1F
100
AcDbEntity
  8
0-B_寸法
  6
Continuous
 62
   120
370
     5
100
AcDbLine
 10
-294.509965398918
 20
-1770.666546383411
 30
0.0
 11
103.4900346010812
 21
-1770.666546383411
 31
0.0
  0
LWPOLYLINE
  5
402
330
1F
100
AcDbEntity
  8
0-B_寸法
  6
Continuous
 62
     7
370
     9
100
AcDbPolyline
 90
        4
 70
     1
 43
2.0
 10
-293.509965398918
 20
-1770.666546383411
 42
0.4142135623731
 10
-294.509965398918
 20
-1769.666546383411
 42
0.4142135623731
 10
-295.509965398918
 20
-1770.666546383411
 42
0.4142135623731
 10
-294.509965398918
 20
-1771.666546383411
 42
0.4142135623731
  0
LWPOLYLINE
  5
403
330
1F
100
AcDbEntity
  8
0-B_寸法
  6
Continuous
 62
     7
370
     9
100
AcDbPolyline
 90
        4
 70
     1
 43
2.0
 10
104.4900346010812
 20
-1770.666546383411
 42
0.4142135623731
 10
103.4900346010812
 20
-1769.666546383411
 42
0.4142135623731
 10
102.4900346010812
 20
-1770.666546383411
 42
0.4142135623731
 10
103.4900346010812
 20
-1771.666546383411
 42
0.4142135623731
  0
LINE
  5
404
330
1F
100
AcDbEntity
  8
0-B_寸法
  6
Continuous
 62
   120
370
     5
100
AcDbLine
 10
-294.509965398918
 20
-1770.666546383411
 30
0.0
 11
-294.509965398918
 21
-1570.666546383411
 31
0.0
  0
LINE
  5
405
330
1F
100
AcDbEntity
  8
0-B_寸法
  6
Continuous
 62
   120
370
     5
100
AcDbLine
 10
-2788.509965491991
 20
-1770.66656617862
 30
0.0
 11
-2390.509965398915
 21
-1770.66656617862
 31
0.0
  0
LWPOLYLINE
  5
406
330
1F
100
AcDbEntity
  8
0-B_寸法
  6
Continuous
 62
     7
370
     9
100
AcDbPolyline
 90
        4
 70
     1
 43
2.0
 10
-2787.509965491991
 20
-1770.66656617862
 42
0.4142135623731
 10
-2788.509965491991
 20
-1769.666566178621
 42
0.4142135623731
 10
-2789.509965491991
 20
-1770.66656617862
 42
0.4142135623731
 10
-2788.509965491991
 20
-1771.66656617862
 42
0.4142135623731
  0
LWPOLYLINE
  5
407
330
1F
100
AcDbEntity
  8
0-B_寸法
  6
Continuous
 62
     7
370
     9
100
AcDbPolyline
 90
        4
 70
     1
 43
2.0
 10
-2389.509965398916
 20
-1770.66656617862
 42
0.4142135623731
 10
-2390.509965398915
 20
-1769.666566178621
 42
0.4142135623731
 10
-2391.509965398915
 20
-1770.66656617862
 42
0.4142135623731
 10
-2390.509965398915
 20
-1771.66656617862
 42
0.4142135623731
  0
LINE
  5
408
330
1F
100
AcDbEntity
  8
0-B_寸法
  6
Continuous
 62
   120
370
     5
100
AcDbLine
 10
-2390.509965398915
 20
-1770.66656617862
 30
0.0
 11
-1594.509965398915
 21
-1770.66656617862
 31
0.0
  0
LWPOLYLINE
  5
409
330
1F
100
AcDbEntity
  8
0-B_寸法
  6
Continuous
 62
     7
370
     9
100
AcDbPolyline
 90
        4
 70
     1
 43
2.0
 10
-1593.509965398915
 20
-1770.66656617862
 42
0.4142135623731
 10
-1594.509965398915
 20
-1769.666566178621
 42
0.4142135623731
 10
-1595.509965398915
 20
-1770.66656617862
 42
0.4142135623731
 10
-1594.509965398915
 20
-1771.66656617862
 42
0.4142135623731
  0
LINE
  5
40A
330
1F
100
AcDbEntity
  8
0-B_寸法
  6
Continuous
 62
   120
370
     5
100
AcDbLine
 10
-2788.509965491991
 20
-1770.66656617862
 30
0.0
 11
-2788.509965491991
 21
-1670.66656617862
 31
0.0
  0
LINE
  5
40B
330
1F
100
AcDbEntity
  8
0-B_寸法
  6
Continuous
 62
   120
370
     5
100
AcDbLine
 10
-1594.509965398915
 20
-1770.66656617862
 30
0.0
 11
-1594.509965398915
 21
-1670.66656617862
 31
0.0
  0
LINE
  5
40C
330
1F
100
AcDbEntity
  8
0-B_寸法
  6
Continuous
 62
   120
370
     5
100
AcDbLine
 10
-2390.509965398915
 20
-1770.66656617862
 30
0.0
 11
-2390.509965398915
 21
-1670.66656617862
 31
0.0
  0
MTEXT
  5
40D
330
1F
100
AcDbEntity
  8
0-B_寸法
  6
Continuous
 62
     7
370
   211
100
AcDbMText
 10
-2634.509965445454
 20
-1767.80656617862
 30
0.0
 40
45.71999999999986
 41
89.99999999999972
 46
0.0
 71
     7
 72
     1
  1
{\fＭＳ ゴシック|b0|i0|c128|p49;398}
 73
     1
 44
1.0
  0
MTEXT
  5
40E
330
1F
100
AcDbEntity
  8
0-B_寸法
  6
Continuous
 62
     7
370
   211
100
AcDbMText
 10
-2037.509965398913
 20
-1767.80656617862
 30
0.0
 40
45.72
 41
90.0
 46
0.0
 71
     7
 72
     1
  1
{\fＭＳ ゴシック|b0|i0|c128|p49;796}
 73
     1
 44
1.0
  0
LINE
  5
40F
330
1F
100
AcDbEntity
  8
0-9__
  6
Continuous
 62
     7
370
     9
100
AcDbLine
 10
-2405.509965398915
 20
-1456.666566178621
 30
0.0
 11
-2405.509965398915
 21
-1520.66656617862
 31
0.0
  0
LINE
  5
410
330
1F
100
AcDbEntity
  8
0-9__
  6
Continuous
 62
     7
370
     9
100
AcDbLine
 10
-2375.509965398915
 20
-1520.66656617862
 30
0.0
 11
-2375.509965398915
 21
-1456.666566178621
 31
0.0
  0
LINE
  5
411
330
1F
100
AcDbEntity
  8
0-9__
  6
Continuous
 62
     7
370
     9
100
AcDbLine
 10
-2390.509965398915
 20
-1520.66656617862
 30
0.0
 11
-2390.509965398915
 21
-1456.666566178621
 31
0.0
  0
LWPOLYLINE
  5
412
330
1F
100
AcDbEntity
  8
0-B_寸法
  6
Continuous
 62
     7
370
     9
100
AcDbPolyline
 90
        4
 70
     1
 43
2.0
 10
-2787.509965398914
 20
-1670.666546383426
 42
0.4142135623731
 10
-2788.509965398914
 20
-1669.666546383426
 42
0.4142135623731
 10
-2789.509965398915
 20
-1670.666546383426
 42
0.4142135623731
 10
-2788.509965398914
 20
-1671.666546383426
 42
0.4142135623731
  0
LINE
  5
413
330
1F
100
AcDbEntity
  8
0-B_寸法
  6
Continuous
 62
   120
370
     5
100
AcDbLine
 10
-2788.509965398914
 20
-1670.666546383426
 30
0.0
 11
-2788.509965398914
 21
-1570.666546383426
 31
0.0
  0
LWPOLYLINE
  5
414
330
1F
100
AcDbEntity
  8
0-B_寸法
  6
Continuous
 62
     7
370
     9
100
AcDbPolyline
 90
        4
 70
     1
 43
2.0
 10
-2389.509965398915
 20
-1670.666546383426
 42
0.4142135623731
 10
-2390.509965398915
 20
-1669.666546383426
 42
0.4142135623731
 10
-2391.509965398915
 20
-1670.666546383426
 42
0.4142135623731
 10
-2390.509965398915
 20
-1671.666546383426
 42
0.4142135623731
  0
LINE
  5
415
330
1F
100
AcDbEntity
  8
0-B_寸法
  6
Continuous
 62
   120
370
     5
100
AcDbLine
 10
-2390.509965398915
 20
-1670.666546383426
 30
0.0
 11
-2390.509965398915
 21
-1570.666546383426
 31
0.0
  0
LWPOLYLINE
  5
416
330
1F
100
AcDbEntity
  8
0-B_寸法
  6
Continuous
 62
     7
370
     9
100
AcDbPolyline
 90
        4
 70
     1
 43
2.0
 10
-1593.509965398917
 20
-1670.666546383426
 42
0.4142135623731
 10
-1594.509965398917
 20
-1669.666546383426
 42
0.4142135623731
 10
-1595.509965398917
 20
-1670.666546383426
 42
0.4142135623731
 10
-1594.509965398917
 20
-1671.666546383426
 42
0.4142135623731
  0
LINE
  5
417
330
1F
100
AcDbEntity
  8
0-B_寸法
  6
Continuous
 62
   120
370
     5
100
AcDbLine
 10
-1594.509965398917
 20
-1670.666546383426
 30
0.0
 11
-1594.509965398917
 21
-1570.666546383426
 31
0.0
  0
LINE
  5
418
330
1F
100
AcDbEntity
  8
0-9__
  6
Continuous
 62
     7
370
     9
100
AcDbLine
 10
88.49003460108236
 20
-1456.666566178621
 30
0.0
 11
88.49003460108236
 21
-1520.66656617862
 31
0.0
  0
LINE
  5
419
330
1F
100
AcDbEntity
  8
0-9__
  6
Continuous
 62
     7
370
     9
100
AcDbLine
 10
118.4900346010824
 20
-1520.66656617862
 30
0.0
 11
118.4900346010824
 21
-1456.666566178621
 31
0.0
  0
LINE
  5
41A
330
1F
100
AcDbEntity
  8
0-9__
  6
Continuous
 62
     7
370
     9
100
AcDbLine
 10
103.4900346010824
 20
-1520.66656617862
 30
0.0
 11
103.4900346010824
 21
-1456.666566178621
 31
0.0
  0
MTEXT
  5
41B
330
1F
100
AcDbEntity
  8
0-A_文字
  6
Continuous
 62
     7
370
     9
100
AcDbMText
 10
-2486.989705360313
 20
2499.766787637248
 30
0.0
 40
76.2
 41
1800.0
 46
0.0
 71
     7
 72
     1
  1
{\fＭＳ ゴシック|b0|i0|c128|p49;（フロアー・ウォールキャビネット左）}
 73
     1
 44
1.0
  0
MTEXT
  5
41C
330
1F
100
AcDbEntity
  8
0-A_文字
  6
Continuous
 62
     7
370
     9
100
AcDbMText
 10
-3403.221059628644
 20
2499.766787637248
 30
0.0
 40
76.2
 41
500.0
 46
0.0
 71
     7
 72
     1
  1
{\fＭＳ ゴシック|b0|i0|c128|p49;Ｓ－４０１}
 73
     1
 44
1.0
  0
LINE
  5
41D
330
1F
100
AcDbEntity
  8
0-7__
  6
Continuous
 62
     7
370
     9
100
AcDbLine
 10
487.4900346010816
 20
414.3335022029777
 30
0.0
 11
487.4900346010816
 21
158.3335022029854
 31
0.0
  0
LINE
  5
41E
330
1F
100
AcDbEntity
  8
0-7__
  6
Continuous
 62
     7
370
     9
100
AcDbLine
 10
515.4900346010817
 20
414.3335022029777
 30
0.0
 11
515.4900346010817
 21
158.3335022029854
 31
0.0
  0
LINE
  5
41F
330
1F
100
AcDbEntity
  8
0-7__
  6
JWW_DASHED1
 62
     7
370
     9
100
AcDbLine
 10
487.4900346010816
 20
414.3335022029777
 30
0.0
 11
487.4900346010816
 21
426.3335022029787
 31
0.0
  0
LINE
  5
420
330
1F
100
AcDbEntity
  8
0-7__
  6
JWW_DASHED1
 62
     7
370
     9
100
AcDbLine
 10
515.4900346010817
 20
414.3335022029777
 30
0.0
 11
515.4900346010817
 21
426.3335022029787
 31
0.0
  0
LINE
  5
421
330
1F
100
AcDbEntity
  8
0-7__
  6
Continuous
 62
     7
370
     9
100
AcDbLine
 10
487.4900346010816
 20
697.3335022029772
 30
0.0
 11
487.4900346010816
 21
426.3335022029787
 31
0.0
  0
LINE
  5
422
330
1F
100
AcDbEntity
  8
0-7__
  6
Continuous
 62
     7
370
     9
100
AcDbLine
 10
515.4900346010817
 20
697.3335022029772
 30
0.0
 11
515.4900346010817
 21
426.3335022029787
 31
0.0
  0
LINE
  5
423
330
1F
100
AcDbEntity
  8
0-A_文字
  6
Continuous
 62
     7
370
     9
100
AcDbLine
 10
499.4788895559998
 20
683.7871704421207
 30
0.0
 11
536.3403962261384
 21
747.6331728383383
 31
0.0
  0
LINE
  5
424
330
1F
100
AcDbEntity
  8
0-A_文字
  6
Continuous
 62
     7
370
     9
100
AcDbLine
 10
536.3403962261384
 20
747.6331728383383
 30
0.0
 11
909.4793562125443
 21
747.6331728383383
 31
0.0
  0
MTEXT
  5
425
330
1F
100
AcDbEntity
  8
0-A_文字
  6
Continuous
 62
     7
370
     9
100
AcDbMText
 10
549.4793562125478
 20
2142.418333231514
 30
0.0
 40
45.71999999999999
 41
359.9999999999999
 46
0.0
 71
     7
 72
     1
  1
{\fＭＳ ゴシック|b0|i0|c128|p49;背板連結樹脂}
 73
     1
 44
1.0
  0
LINE
  5
426
330
1F
100
AcDbEntity
  8
0-1_本体
  6
Continuous
 62
    40
370
    15
100
AcDbLine
 10
103.4900346010829
 20
2083.063391718313
 30
0.0
 11
111.490034601083
 21
2083.063391718313
 31
0.0
  0
LINE
  5
427
330
1F
100
AcDbEntity
  8
0-1_本体
  6
Continuous
 62
    40
370
    15
100
AcDbLine
 10
111.490034601083
 20
2083.063391718313
 30
0.0
 11
111.490034601083
 21
2080.063391718313
 31
0.0
  0
LINE
  5
428
330
1F
100
AcDbEntity
  8
0-1_本体
  6
Continuous
 62
    40
370
    15
100
AcDbLine
 10
111.490034601083
 20
2080.063391718313
 30
0.0
 11
495.9900346010826
 21
2080.063391718313
 31
0.0
  0
LINE
  5
429
330
1F
100
AcDbEntity
  8
0-1_本体
  6
Continuous
 62
    40
370
    15
100
AcDbLine
 10
111.490034601083
 20
2081.563391718312
 30
0.0
 11
495.9900346010826
 21
2081.563391718312
 31
0.0
  0
LINE
  5
42A
330
1F
100
AcDbEntity
  8
0-1_本体
  6
Continuous
 62
     7
370
     9
100
AcDbLine
 10
111.490034601083
 20
2083.063391718313
 30
0.0
 11
495.9900346010826
 21
2083.063391718313
 31
0.0
  0
LINE
  5
42B
330
1F
100
AcDbEntity
  8
0-1_本体
  6
Continuous
 62
    40
370
    15
100
AcDbLine
 10
891.4900346010825
 20
2083.063391718313
 30
0.0
 11
891.4900346010825
 21
2080.063391718313
 31
0.0
  0
LINE
  5
42C
330
1F
100
AcDbEntity
  8
0-1_本体
  6
Continuous
 62
    40
370
    15
100
AcDbLine
 10
891.4900346010825
 20
2080.063391718313
 30
0.0
 11
506.9900346010829
 21
2080.063391718313
 31
0.0
  0
LINE
  5
42D
330
1F
100
AcDbEntity
  8
0-1_本体
  6
Continuous
 62
    40
370
    15
100
AcDbLine
 10
891.4900346010825
 20
2081.563391718312
 30
0.0
 11
506.9900346010829
 21
2081.563391718312
 31
0.0
  0
LINE
  5
42E
330
1F
100
AcDbEntity
  8
0-1_本体
  6
Continuous
 62
     7
370
     9
100
AcDbLine
 10
891.4900346010825
 20
2083.063391718313
 30
0.0
 11
506.9900346010829
 21
2083.063391718313
 31
0.0
  0
LINE
  5
42F
330
1F
100
AcDbEntity
  8
0-1_本体
  6
Continuous
 62
    40
370
    15
100
AcDbLine
 10
891.4900346010825
 20
2083.063391718313
 30
0.0
 11
899.4900346010826
 21
2083.063391718313
 31
0.0
  0
LINE
  5
430
330
1F
100
AcDbEntity
  8
0-7__
  6
Continuous
 62
     7
370
     9
100
AcDbLine
 10
496.9900346010826
 20
2083.063391718313
 30
0.0
 11
505.9900346010826
 21
2083.063391718313
 31
0.0
  0
LINE
  5
431
330
1F
100
AcDbEntity
  8
0-7__
  6
Continuous
 62
     7
370
     9
100
AcDbLine
 10
485.4900346010828
 20
2083.563391718312
 30
0.0
 11
485.4900346010828
 21
2083.063391718313
 31
0.0
  0
ARC
  5
432
330
1F
100
AcDbEntity
  8
0-7__
  6
Continuous
 62
     7
370
     9
100
AcDbCircle
 10
485.9900346010826
 20
2083.563391718312
 30
0.0
 40
0.5
100
AcDbArc
 50
90.0
 51
180.0
  0
LINE
  5
433
330
1F
100
AcDbEntity
  8
0-7__
  6
Continuous
 62
     7
370
     9
100
AcDbLine
 10
517.4900346010827
 20
2083.563391718312
 30
0.0
 11
517.4900346010827
 21
2083.063391718313
 31
0.0
  0
LINE
  5
434
330
1F
100
AcDbEntity
  8
0-7__
  6
Continuous
 62
     7
370
     9
100
AcDbLine
 10
516.9900346010829
 20
2084.063391718312
 30
0.0
 11
485.9900346010826
 21
2084.063391718312
 31
0.0
  0
ARC
  5
435
330
1F
100
AcDbEntity
  8
0-7__
  6
Continuous
 62
     7
370
     9
100
AcDbCircle
 10
516.9900346010829
 20
2083.563391718312
 30
0.0
 40
0.5
100
AcDbArc
 50
0.0
 51
90.00000000000001
  0
LINE
  5
436
330
1F
100
AcDbEntity
  8
0-7__
  6
Continuous
 62
     7
370
     9
100
AcDbLine
 10
487.4900346010827
 20
2080.063391718313
 30
0.0
 11
495.9900346010826
 21
2080.063391718313
 31
0.0
  0
LINE
  5
437
330
1F
100
AcDbEntity
  8
0-7__
  6
Continuous
 62
     7
370
     9
100
AcDbLine
 10
487.4900346010827
 20
2079.563391718312
 30
0.0
 11
487.4900346010827
 21
2080.063391718313
 31
0.0
  0
ARC
  5
438
330
1F
100
AcDbEntity
  8
0-7__
  6
Continuous
 62
     7
370
     9
100
AcDbCircle
 10
487.9900346010828
 20
2079.563391718312
 30
0.0
 40
0.5
100
AcDbArc
 50
180.0
 51
270.0
  0
LINE
  5
439
330
1F
100
AcDbEntity
  8
0-7__
  6
Continuous
 62
     7
370
     9
100
AcDbLine
 10
514.9900346010827
 20
2079.063391718312
 30
0.0
 11
487.9900346010828
 21
2079.063391718312
 31
0.0
  0
LINE
  5
43A
330
1F
100
AcDbEntity
  8
0-7__
  6
Continuous
 62
     7
370
     9
100
AcDbLine
 10
515.4900346010828
 20
2079.563391718312
 30
0.0
 11
515.4900346010828
 21
2080.063391718313
 31
0.0
  0
ARC
  5
43B
330
1F
100
AcDbEntity
  8
0-7__
  6
Continuous
 62
     7
370
     9
100
AcDbCircle
 10
514.9900346010827
 20
2079.563391718312
 30
0.0
 40
0.5
100
AcDbArc
 50
270.0
 51
0.0
  0
LINE
  5
43C
330
1F
100
AcDbEntity
  8
0-7__
  6
Continuous
 62
     7
370
     9
100
AcDbLine
 10
495.9900346010826
 20
2080.063391718313
 30
0.0
 11
495.9900346010826
 21
2083.063391718313
 31
0.0
  0
LINE
  5
43D
330
1F
100
AcDbEntity
  8
0-7__
  6
Continuous
 62
     7
370
     9
100
AcDbLine
 10
496.9900346010826
 20
2080.063391718313
 30
0.0
 11
496.9900346010826
 21
2083.063391718313
 31
0.0
  0
LINE
  5
43E
330
1F
100
AcDbEntity
  8
0-7__
  6
Continuous
 62
     7
370
     9
100
AcDbLine
 10
505.9900346010826
 20
2080.063391718313
 30
0.0
 11
505.9900346010826
 21
2083.063391718313
 31
0.0
  0
LINE
  5
43F
330
1F
100
AcDbEntity
  8
0-7__
  6
Continuous
 62
     7
370
     9
100
AcDbLine
 10
496.9900346010826
 20
2080.063391718313
 30
0.0
 11
505.9900346010826
 21
2080.063391718313
 31
0.0
  0
LINE
  5
440
330
1F
100
AcDbEntity
  8
0-7__
  6
Continuous
 62
     7
370
     9
100
AcDbLine
 10
506.9900346010826
 20
2080.063391718313
 30
0.0
 11
506.9900346010826
 21
2083.063391718313
 31
0.0
  0
LINE
  5
441
330
1F
100
AcDbEntity
  8
0-7__
  6
Continuous
 62
     7
370
     9
100
AcDbLine
 10
506.9900346010826
 20
2080.063391718313
 30
0.0
 11
515.4900346010828
 21
2080.063391718313
 31
0.0
  0
LINE
  5
442
330
1F
100
AcDbEntity
  8
0-7__
  6
Continuous
 62
     7
370
     9
100
AcDbLine
 10
485.4900346010828
 20
2083.063391718313
 30
0.0
 11
495.9900346010826
 21
2083.063391718313
 31
0.0
  0
LINE
  5
443
330
1F
100
AcDbEntity
  8
0-7__
  6
Continuous
 62
     7
370
     9
100
AcDbLine
 10
506.9900346010826
 20
2083.063391718313
 30
0.0
 11
517.4900346010827
 21
2083.063391718313
 31
0.0
  0
LINE
  5
444
330
1F
100
AcDbEntity
  8
0-A_文字
  6
Continuous
 62
     7
370
     9
100
AcDbLine
 10
536.3403962261418
 20
2147.428291835005
 30
0.0
 11
909.4793562125477
 21
2147.428291835005
 31
0.0
  0
MTEXT
  5
445
330
1F
100
AcDbEntity
  8
0-A_文字
  6
Continuous
 62
     7
370
     9
100
AcDbMText
 10
181.1795390697696
 20
2129.48670332093
 30
0.0
 40
45.72
 41
90.0
 46
0.0
 71
     7
 72
     1
  1
{\fＭＳ ゴシック|b0|i0|c128|p49;Ａ }
 73
     1
 44
1.0
  0
LINE
  5
446
330
1F
100
AcDbEntity
  8
0-A_文字
  6
Continuous
 62
     7
370
     9
100
AcDbLine
 10
499.4788895560032
 20
2083.582289438788
 30
0.0
 11
536.3403962261418
 21
2147.428291835005
 31
0.0
  0
LINE
  5
447
330
1F
100
AcDbEntity
  8
0-7__
  6
Continuous
 62
     7
370
     9
100
AcDbLine
 10
487.4900346010827
 20
-1233.688985967663
 30
0.0
 11
487.4900346010827
 21
-1441.666478001846
 31
0.0
  0
LINE
  5
448
330
1F
100
AcDbEntity
  8
0-7__
  6
Continuous
 62
     7
370
     9
100
AcDbLine
 10
515.4900346010828
 20
-1233.688985967663
 30
0.0
 11
515.4900346010828
 21
-1441.666478001846
 31
0.0
  0
LINE
  5
449
330
1F
100
AcDbEntity
  8
0-7__
  6
JWW_DASHED1
 62
     7
370
     9
100
AcDbLine
 10
487.4900346010827
 20
-1233.688985967663
 30
0.0
 11
487.4900346010827
 21
-1221.68898596766
 31
0.0
  0
LINE
  5
44A
330
1F
100
AcDbEntity
  8
0-7__
  6
JWW_DASHED1
 62
     7
370
     9
100
AcDbLine
 10
515.4900346010828
 20
-1233.688985967663
 30
0.0
 11
515.4900346010828
 21
-1221.68898596766
 31
0.0
  0
LINE
  5
44B
330
1F
100
AcDbEntity
  8
0-7__
  6
JWW_DASHED1
 62
     7
370
     9
100
AcDbLine
 10
487.4900346010827
 20
-1041.688086924103
 30
0.0
 11
487.4900346010827
 21
-1029.688086924101
 31
0.0
  0
LINE
  5
44C
330
1F
100
AcDbEntity
  8
0-7__
  6
JWW_DASHED1
 62
     7
370
     9
100
AcDbLine
 10
515.4900346010828
 20
-1041.688086924103
 30
0.0
 11
515.4900346010828
 21
-1029.688086924101
 31
0.0
  0
LINE
  5
44D
330
1F
100
AcDbEntity
  8
0-7__
  6
Continuous
 62
     7
370
     9
100
AcDbLine
 10
515.4900346010828
 20
-1041.688086924103
 30
0.0
 11
515.4900346010828
 21
-1221.68898596766
 31
0.0
  0
LINE
  5
44E
330
1F
100
AcDbEntity
  8
0-7__
  6
Continuous
 62
     7
370
     9
100
AcDbLine
 10
487.4900346010827
 20
-1041.688086924103
 30
0.0
 11
487.4900346010827
 21
-1221.68898596766
 31
0.0
  0
LINE
  5
44F
330
1F
100
AcDbEntity
  8
0-7__
  6
JWW_DASHED1
 62
     7
370
     9
100
AcDbLine
 10
487.4900346010827
 20
-849.6880869241022
 30
0.0
 11
487.4900346010827
 21
-837.6880869241012
 31
0.0
  0
LINE
  5
450
330
1F
100
AcDbEntity
  8
0-7__
  6
JWW_DASHED1
 62
     7
370
     9
100
AcDbLine
 10
515.4900346010828
 20
-849.6880869241022
 30
0.0
 11
515.4900346010828
 21
-837.6880869241012
 31
0.0
  0
LINE
  5
451
330
1F
100
AcDbEntity
  8
0-7__
  6
Continuous
 62
     7
370
     9
100
AcDbLine
 10
515.4900346010828
 20
-849.6880869241039
 30
0.0
 11
515.4900346010828
 21
-1029.688086924102
 31
0.0
  0
LINE
  5
452
330
1F
100
AcDbEntity
  8
0-7__
  6
Continuous
 62
     7
370
     9
100
AcDbLine
 10
487.4900346010827
 20
-849.6880869241039
 30
0.0
 11
487.4900346010827
 21
-1029.688086924102
 31
0.0
  0
LINE
  5
453
330
1F
100
AcDbEntity
  8
0-7__
  6
Continuous
 62
     7
370
     9
100
AcDbLine
 10
487.4900346010827
 20
-710.6664780018468
 30
0.0
 11
487.4900346010827
 21
-837.6880869241023
 31
0.0
  0
LINE
  5
454
330
1F
100
AcDbEntity
  8
0-7__
  6
Continuous
 62
     7
370
     9
100
AcDbLine
 10
515.4900346010828
 20
-710.6664780018468
 30
0.0
 11
515.4900346010828
 21
-837.6880869241023
 31
0.0
  0
MTEXT
  5
455
330
1F
100
AcDbEntity
  8
0-A_文字
  6
Continuous
 62
     7
370
     9
100
AcDbMText
 10
181.1795390697696
 20
1601.360080115695
 30
0.0
 40
45.72
 41
90.0
 46
0.0
 71
     7
 72
     1
  1
{\fＭＳ ゴシック|b0|i0|c128|p49;Ａ'}
 73
     1
 44
1.0
  0
MTEXT
  5
456
330
1F
100
AcDbEntity
  8
0-A_文字
  6
Continuous
 62
     7
370
     9
100
AcDbMText
 10
549.4793562125444
 20
742.6232142348465
 30
0.0
 40
45.71999999999999
 41
359.9999999999999
 46
0.0
 71
     7
 72
     1
  1
{\fＭＳ ゴシック|b0|i0|c128|p49;背板連結樹脂}
 73
     1
 44
1.0
  0
LINE
  5
457
330
1F
100
AcDbEntity
  8
0-A_文字
  6
Continuous
 62
     7
370
     9
100
AcDbLine
 10
374.0476965338755
 20
2160.62670332093
 30
0.0
 11
374.0476965338755
 21
1638.500080115694
 31
0.0
  0
LINE
  5
458
330
1F
100
AcDbEntity
  8
0-A_文字
  6
Continuous
 62
     7
370
     9
100
AcDbLine
 10
271.1795390697696
 20
1638.500080115694
 30
0.0
 11
374.0476965338755
 21
1666.063391718312
 31
0.0
  0
LINE
  5
459
330
1F
100
AcDbEntity
  8
0-A_文字
  6
Continuous
 62
     7
370
     9
100
AcDbLine
 10
374.0476965338755
 20
1638.500080115694
 30
0.0
 11
271.1795390697696
 21
1638.500080115694
 31
0.0
  0
LINE
  5
45A
330
1F
100
AcDbEntity
  8
0-A_文字
  6
Continuous
 62
     7
370
     9
100
AcDbLine
 10
271.1795390697696
 20
2160.62670332093
 30
0.0
 11
374.0476965338755
 21
2133.063391718313
 31
0.0
  0
LINE
  5
45B
330
1F
100
AcDbEntity
  8
0-A_文字
  6
Continuous
 62
     7
370
     9
100
AcDbLine
 10
374.0476965338755
 20
2160.62670332093
 30
0.0
 11
271.1795390697696
 21
2160.62670332093
 31
0.0
  0
LINE
  5
45C
330
1F
100
AcDbEntity
  8
0-2_扉
  6
Continuous
 62
    40
370
    15
100
AcDbLine
 10
-292.5099653989168
 20
1737.063391718312
 30
0.0
 11
101.4900346010833
 21
1737.063391718312
 31
0.0
  0
LINE
  5
45D
330
1F
100
AcDbEntity
  8
0-2_扉
  6
Continuous
 62
    40
370
    15
100
AcDbLine
 10
101.4900346010833
 20
1737.063391718312
 30
0.0
 11
101.4900346010833
 21
1713.063391718312
 31
0.0
  0
LINE
  5
45E
330
1F
100
AcDbEntity
  8
0-2_扉
  6
Continuous
 62
    40
370
    15
100
AcDbLine
 10
101.4900346010833
 20
1713.063391718312
 30
0.0
 11
-292.5099653989168
 21
1713.063391718312
 31
0.0
  0
LINE
  5
45F
330
1F
100
AcDbEntity
  8
0-2_扉
  6
Continuous
 62
    40
370
    15
100
AcDbLine
 10
-292.5099653989168
 20
1713.063391718312
 30
0.0
 11
-292.5099653989168
 21
1737.063391718312
 31
0.0
  0
LINE
  5
460
330
1F
100
AcDbEntity
  8
0-2_扉
  6
Continuous
 62
    40
370
    15
100
AcDbLine
 10
105.4900346010822
 20
1737.063391718312
 30
0.0
 11
499.4900346010823
 21
1737.063391718312
 31
0.0
  0
LINE
  5
461
330
1F
100
AcDbEntity
  8
0-2_扉
  6
Continuous
 62
    40
370
    15
100
AcDbLine
 10
499.4900346010823
 20
1737.063391718312
 30
0.0
 11
499.4900346010823
 21
1713.063391718312
 31
0.0
  0
LINE
  5
462
330
1F
100
AcDbEntity
  8
0-2_扉
  6
Continuous
 62
    40
370
    15
100
AcDbLine
 10
499.4900346010823
 20
1713.063391718312
 30
0.0
 11
105.4900346010822
 21
1713.063391718312
 31
0.0
  0
LINE
  5
463
330
1F
100
AcDbEntity
  8
0-2_扉
  6
Continuous
 62
    40
370
    15
100
AcDbLine
 10
105.4900346010822
 20
1713.063391718312
 30
0.0
 11
105.4900346010822
 21
1737.063391718312
 31
0.0
  0
LINE
  5
464
330
1F
100
AcDbEntity
  8
0-2_扉
  6
Continuous
 62
    40
370
    15
100
AcDbLine
 10
503.4900346010841
 20
1737.063391718312
 30
0.0
 11
897.4900346010841
 21
1737.063391718312
 31
0.0
  0
LINE
  5
465
330
1F
100
AcDbEntity
  8
0-2_扉
  6
Continuous
 62
    40
370
    15
100
AcDbLine
 10
897.4900346010841
 20
1737.063391718312
 30
0.0
 11
897.4900346010841
 21
1713.063391718312
 31
0.0
  0
LINE
  5
466
330
1F
100
AcDbEntity
  8
0-2_扉
  6
Continuous
 62
    40
370
    15
100
AcDbLine
 10
897.4900346010841
 20
1713.063391718312
 30
0.0
 11
503.4900346010841
 21
1713.063391718312
 31
0.0
  0
LINE
  5
467
330
1F
100
AcDbEntity
  8
0-2_扉
  6
Continuous
 62
    40
370
    15
100
AcDbLine
 10
503.4900346010841
 20
1713.063391718312
 30
0.0
 11
503.4900346010841
 21
1737.063391718312
 31
0.0
  0
MTEXT
  5
468
330
1F
100
AcDbEntity
  8
0-A_文字
  6
Continuous
 62
     7
370
     9
100
AcDbMText
 10
-2461.509965398914
 20
-2064.231546383419
 30
0.0
 40
102.87
 41
540.0
 46
0.0
 71
     7
 72
     1
  1
{\fＭＳ ゴシック|b0|i0|c128|p49;扉配置図}
 73
     1
 44
1.0
  0
MTEXT
  5
469
330
1F
100
AcDbEntity
  8
F-A_文字
  6
Continuous
 62
     7
370
     0
100
AcDbMText
 10
-3386.720882428186
 20
-2696.7924432613
 30
0.0
 40
53.08169491525423
 41
2055.0
 46
0.0
 71
     7
 72
     1
  1
{\fＭＳ ゴシック|b0|i0|c128|p49;ピノアース　玄関収納　組合せプラン　床置きタイプ　Ｓ-４０１}
 73
     1
 44
1.0
  0
MTEXT
  5
46A
330
1F
100
AcDbEntity
  8
F-A_文字
  6
Continuous
 62
     7
370
     0
100
AcDbMText
 10
339.945722722191
 20
-2646.608194581668
 30
0.0
 40
21.16666666666666
 41
250.0
 46
0.0
 71
     7
 72
     1
  1
{\fＭＳ ゴシック|b0|i0|c128|p49;ＰＩＮＯＥＡＲＴＨ}
 73
     1
 44
1.0
  0
MTEXT
  5
46B
330
1F
100
AcDbEntity
  8
F-A_文字
  6
Continuous
 62
     7
370
     0
100
AcDbMText
 10
3257.445178354582
 20
-2625.380673426644
 30
0.0
 40
52.57799999999999
 41
345.0
 46
0.0
 71
     7
 72
     1
  1
{\fＭＳ ゴシック|b0|i0|c128|p49;2021.04.01}
 73
     1
 44
1.0
  0
MTEXT
  5
46C
330
1F
100
AcDbEntity
  8
0-B_寸法
  6
Continuous
 62
     7
370
   211
100
AcDbMText
 10
-2822.509965398915
 20
-1667.806546383426
 30
0.0
 40
45.72
 41
30.0
 46
0.0
 71
     7
 72
     1
  1
{\fＭＳ ゴシック|b0|i0|c128|p49;1}
 73
     1
 44
1.0
  0
MTEXT
  5
46D
330
1F
100
AcDbEntity
  8
0-B_寸法
  6
Continuous
 62
     7
370
   211
100
AcDbMText
 10
-1590.509965398916
 20
-1667.806546383426
 30
0.0
 40
45.72
 41
30.0
 46
0.0
 71
     7
 72
     1
  1
{\fＭＳ ゴシック|b0|i0|c128|p49;1}
 73
     1
 44
1.0
  0
MTEXT
  5
46E
330
1F
100
AcDbEntity
  8
0-B_寸法
  6
Continuous
 62
     7
370
   211
100
AcDbMText
 10
-2128.509965398915
 20
-1667.806546383426
 30
0.0
 40
45.71999999999999
 41
270.0
 46
0.0
 71
     7
 72
     1
  1
{\fＭＳ ゴシック|b0|i0|c128|p49;台輪＝795}
 73
     1
 44
1.0
  0
MTEXT
  5
46F
330
1F
100
AcDbEntity
  8
0-B_寸法
  6
Continuous
 62
     7
370
   211
100
AcDbMText
 10
-2723.509965398915
 20
-1667.806546383426
 30
0.0
 40
45.71999999999999
 41
270.0
 46
0.0
 71
     7
 72
     1
  1
{\fＭＳ ゴシック|b0|i0|c128|p49;台輪＝397}
 73
     1
 44
1.0
  0
LINE
  5
470
330
1F
100
AcDbEntity
  8
0-9__
  6
Continuous
 62
     7
370
     9
100
AcDbLine
 10
-2772.509965398915
 20
-1520.66656617862
 30
0.0
 11
-2772.509965398915
 21
-1456.666566178621
 31
0.0
  0
LINE
  5
471
330
1F
100
AcDbEntity
  8
0-9__
  6
Continuous
 62
     7
370
     9
100
AcDbLine
 10
-2787.509965398915
 20
-1520.66656617862
 30
0.0
 11
-2787.509965398915
 21
-1456.666566178621
 31
0.0
  0
LINE
  5
472
330
1F
100
AcDbEntity
  8
0-9__
  6
Continuous
 62
     7
370
     9
100
AcDbLine
 10
-2390.509965398915
 20
-1520.66656617862
 30
0.0
 11
-2787.509965398915
 21
-1520.66656617862
 31
0.0
  0
LINE
  5
473
330
1F
100
AcDbEntity
  8
0-9__
  6
Continuous
 62
     7
370
     9
100
AcDbLine
 10
-2787.509965398915
 20
-1456.666566178621
 30
0.0
 11
-2390.509965398915
 21
-1456.666566178621
 31
0.0
  0
LINE
  5
474
330
1F
100
AcDbEntity
  8
0-B_寸法
  6
Continuous
 62
   120
370
     5
100
AcDbLine
 10
-2788.509965398914
 20
-1670.666546383426
 30
0.0
 11
-2787.509965398915
 21
-1670.666546383426
 31
0.0
  0
LWPOLYLINE
  5
475
330
1F
100
AcDbEntity
  8
0-B_寸法
  6
Continuous
 62
     7
370
     9
100
AcDbPolyline
 90
        4
 70
     1
 43
2.0
 10
-2786.509965398915
 20
-1670.666546383426
 42
0.4142135623731
 10
-2787.509965398915
 20
-1669.666546383426
 42
0.4142135623731
 10
-2788.509965398916
 20
-1670.666546383426
 42
0.4142135623731
 10
-2787.509965398915
 20
-1671.666546383426
 42
0.4142135623731
  0
LINE
  5
476
330
1F
100
AcDbEntity
  8
0-B_寸法
  6
Continuous
 62
   120
370
     5
100
AcDbLine
 10
-2787.509965398915
 20
-1670.666546383426
 30
0.0
 11
-2787.509965398915
 21
-1570.666546383426
 31
0.0
  0
LINE
  5
477
330
1F
100
AcDbEntity
  8
0-B_寸法
  6
Continuous
 62
   120
370
     5
100
AcDbLine
 10
-2787.509965398915
 20
-1670.666546383426
 30
0.0
 11
-2390.509965398915
 21
-1670.666546383426
 31
0.0
  0
LINE
  5
478
330
1F
100
AcDbEntity
  8
0-9__
  6
Continuous
 62
     7
370
     9
100
AcDbLine
 10
-1595.509965398915
 20
-1520.66656617862
 30
0.0
 11
-2390.509965398915
 21
-1520.66656617862
 31
0.0
  0
LINE
  5
479
330
1F
100
AcDbEntity
  8
0-9__
  6
Continuous
 62
     7
370
     9
100
AcDbLine
 10
-2390.509965398915
 20
-1456.666566178621
 30
0.0
 11
-1595.509965398915
 21
-1456.666566178621
 31
0.0
  0
LINE
  5
47A
330
1F
100
AcDbEntity
  8
0-9__
  6
Continuous
 62
     7
370
     9
100
AcDbLine
 10
-1610.509965398915
 20
-1456.666566178621
 30
0.0
 11
-1610.509965398915
 21
-1520.66656617862
 31
0.0
  0
LINE
  5
47B
330
1F
100
AcDbEntity
  8
0-9__
  6
Continuous
 62
     7
370
     9
100
AcDbLine
 10
-1595.509965398915
 20
-1456.666566178621
 30
0.0
 11
-1595.509965398915
 21
-1520.66656617862
 31
0.0
  0
LINE
  5
47C
330
1F
100
AcDbEntity
  8
0-B_寸法
  6
Continuous
 62
   120
370
     5
100
AcDbLine
 10
-2390.509965398915
 20
-1670.666546383426
 30
0.0
 11
-1595.509965398915
 21
-1670.666546383426
 31
0.0
  0
LWPOLYLINE
  5
47D
330
1F
100
AcDbEntity
  8
0-B_寸法
  6
Continuous
 62
     7
370
     9
100
AcDbPolyline
 90
        4
 70
     1
 43
2.0
 10
-1594.509965398915
 20
-1670.666546383426
 42
0.4142135623731
 10
-1595.509965398915
 20
-1669.666546383426
 42
0.4142135623731
 10
-1596.509965398915
 20
-1670.666546383426
 42
0.4142135623731
 10
-1595.509965398915
 20
-1671.666546383426
 42
0.4142135623731
  0
LINE
  5
47E
330
1F
100
AcDbEntity
  8
0-B_寸法
  6
Continuous
 62
   120
370
     5
100
AcDbLine
 10
-1595.509965398915
 20
-1670.666546383426
 30
0.0
 11
-1595.509965398915
 21
-1570.666546383426
 31
0.0
  0
LINE
  5
47F
330
1F
100
AcDbEntity
  8
0-B_寸法
  6
Continuous
 62
   120
370
     5
100
AcDbLine
 10
-1595.509965398915
 20
-1670.666546383426
 30
0.0
 11
-1594.509965398917
 21
-1670.666546383426
 31
0.0
  0
LINE
  5
480
330
1F
100
AcDbEntity
  8
0-1_本体
  6
Continuous
 62
    92
370
    13
100
AcDbLine
 10
-280.5099653989183
 20
-1456.666546383426
 30
0.0
 11
-294.5099653989183
 21
-1456.666546383426
 31
0.0
  0
LINE
  5
481
330
1F
100
AcDbEntity
  8
0-1_本体
  6
Continuous
 62
    92
370
    13
100
AcDbLine
 10
88.49003460108122
 20
-1456.666546383426
 30
0.0
 11
-280.5099653989183
 21
-1456.666546383426
 31
0.0
  0
LINE
  5
482
330
1F
100
AcDbEntity
  8
0-9__
  6
Continuous
 62
     7
370
     9
100
AcDbLine
 10
-278.5099653989176
 20
-1520.66656617862
 30
0.0
 11
-278.5099653989176
 21
-1456.666566178621
 31
0.0
  0
LINE
  5
483
330
1F
100
AcDbEntity
  8
0-9__
  6
Continuous
 62
     7
370
     9
100
AcDbLine
 10
-293.5099653989176
 20
-1520.66656617862
 30
0.0
 11
-293.5099653989176
 21
-1456.666566178621
 31
0.0
  0
LINE
  5
484
330
1F
100
AcDbEntity
  8
0-9__
  6
Continuous
 62
     7
370
     9
100
AcDbLine
 10
103.4900346010824
 20
-1520.66656617862
 30
0.0
 11
-293.5099653989176
 21
-1520.66656617862
 31
0.0
  0
LINE
  5
485
330
1F
100
AcDbEntity
  8
0-9__
  6
Continuous
 62
     7
370
     9
100
AcDbLine
 10
-293.5099653989176
 20
-1456.666566178621
 30
0.0
 11
103.4900346010824
 21
-1456.666566178621
 31
0.0
  0
LINE
  5
486
330
1F
100
AcDbEntity
  8
0-9__
  6
Continuous
 62
     7
370
     9
100
AcDbLine
 10
898.4900346010827
 20
-1520.66656617862
 30
0.0
 11
103.4900346010824
 21
-1520.66656617862
 31
0.0
  0
LINE
  5
487
330
1F
100
AcDbEntity
  8
0-9__
  6
Continuous
 62
     7
370
     9
100
AcDbLine
 10
103.4900346010824
 20
-1456.666566178621
 30
0.0
 11
898.4900346010827
 21
-1456.666566178621
 31
0.0
  0
LINE
  5
488
330
1F
100
AcDbEntity
  8
0-9__
  6
Continuous
 62
     7
370
     9
100
AcDbLine
 10
883.4900346010827
 20
-1456.666566178621
 30
0.0
 11
883.4900346010827
 21
-1520.66656617862
 31
0.0
  0
LINE
  5
489
330
1F
100
AcDbEntity
  8
0-9__
  6
Continuous
 62
     7
370
     9
100
AcDbLine
 10
898.4900346010827
 20
-1456.666566178621
 30
0.0
 11
898.4900346010827
 21
-1520.66656617862
 31
0.0
  0
ENDSEC
  0
SECTION
  2
OBJECTS
  0
DICTIONARY
  5
C
330
0
100
AcDbDictionary
281
     1
  3
ACAD_GROUP
350
D
  3
ACAD_LAYOUT
350
1A
  3
ACAD_MATERIAL
350
3B
  3
ACAD_MLEADERSTYLE
350
48B
  3
ACAD_MLINESTYLE
350
17
  3
ACAD_PLOTSETTINGS
350
19
  3
ACAD_PLOTSTYLENAME
350
E
  3
ACAD_TABLESTYLE
350
48A
  3
ACAD_VISUALSTYLE
350
2A
  0
DICTIONARY
  5
D
102
{ACAD_REACTORS
330
C
102
}
330
C
100
AcDbDictionary
281
     1
  0
DICTIONARY
  5
1A
102
{ACAD_REACTORS
330
C
102
}
330
C
100
AcDbDictionary
281
     1
  3
Layout1
350
1E
  3
Layout2
350
26
  3
Model
350
22
  0
DICTIONARY
  5
3B
102
{ACAD_REACTORS
330
C
102
}
330
C
100
AcDbDictionary
281
     1
  3
ByBlock
350
3D
  3
ByLayer
350
3C
  3
Global
350
3E
  0
DICTIONARY
  5
48B
102
{ACAD_REACTORS
330
C
102
}
330
C
100
AcDbDictionary
281
     1
  0
DICTIONARY
  5
17
102
{ACAD_REACTORS
330
C
102
}
330
C
100
AcDbDictionary
281
     1
  3
Standard
350
18
  0
DICTIONARY
  5
19
102
{ACAD_REACTORS
330
C
102
}
330
C
100
AcDbDictionary
281
     1
  0
ACDBDICTIONARYWDFLT
  5
E
102
{ACAD_REACTORS
330
C
102
}
330
C
100
AcDbDictionary
281
     1
  3
Normal
350
F
100
AcDbDictionaryWithDefault
340
F
  0
DICTIONARY
  5
48A
102
{ACAD_REACTORS
330
C
102
}
330
C
100
AcDbDictionary
281
     1
  0
DICTIONARY
  5
2A
102
{ACAD_REACTORS
330
C
102
}
330
C
100
AcDbDictionary
281
     1
  3
2dWireframe
350
2F
  3
3D Hidden
350
31
  3
3dWireframe
350
30
  3
Basic
350
32
  3
Brighten
350
36
  3
ColorChange
350
3A
  3
Conceptual
350
34
  3
Dim
350
35
  3
Facepattern
350
39
  3
Flat
350
2B
  3
FlatWithEdges
350
2C
  3
Gouraud
350
2D
  3
GouraudWithEdges
350
2E
  3
Linepattern
350
38
  3
Realistic
350
33
  3
Thicken
350
37
  0
LAYOUT
  5
1E
102
{ACAD_REACTORS
330
1A
102
}
330
1A
100
AcDbPlotSettings
  1

  2
none_device
  4

  6

 40
0.0
 41
0.0
 42
0.0
 43
0.0
 44
0.0
 45
0.0
 46
0.0
 47
0.0
 48
0.0
 49
0.0
140
0.0
141
0.0
142
1.0
143
1.0
 70
   688
 72
     0
 73
     0
 74
     5
  7

 75
    16
 76
     0
 77
     5
 78
   300
147
1.0
148
0.0
149
0.0
100
AcDbLayout
  1
Layout1
 70
     1
 71
     1
 10
0.0
 20
0.0
 11
420.0
 21
297.0
 12
0.0
 22
0.0
 32
0.0
 14
1.000000000000000E+20
 24
1.000000000000000E+20
 34
1.000000000000000E+20
 15
-1.000000000000000E+20
 25
-1.000000000000000E+20
 35
-1.000000000000000E+20
146
0.0
 13
0.0
 23
0.0
 33
0.0
 16
1.0
 26
0.0
 36
0.0
 17
0.0
 27
1.0
 37
0.0
 76
     0
330
1B
  0
LAYOUT
  5
26
102
{ACAD_REACTORS
330
1A
102
}
330
1A
100
AcDbPlotSettings
  1

  2
none_device
  4

  6

 40
0.0
 41
0.0
 42
0.0
 43
0.0
 44
0.0
 45
0.0
 46
0.0
 47
0.0
 48
0.0
 49
0.0
140
0.0
141
0.0
142
1.0
143
1.0
 70
   688
 72
     0
 73
     0
 74
     5
  7

 75
    16
 76
     0
 77
     5
 78
   300
147
1.0
148
0.0
149
0.0
100
AcDbLayout
  1
Layout2
 70
     1
 71
     2
 10
0.0
 20
0.0
 11
0.0
 21
0.0
 12
0.0
 22
0.0
 32
0.0
 14
0.0
 24
0.0
 34
0.0
 15
0.0
 25
0.0
 35
0.0
146
0.0
 13
0.0
 23
0.0
 33
0.0
 16
1.0
 26
0.0
 36
0.0
 17
0.0
 27
1.0
 37
0.0
 76
     0
330
23
  0
LAYOUT
  5
22
102
{ACAD_REACTORS
330
1A
102
}
330
1A
100
AcDbPlotSettings
  1

  2
none_device
  4

  6

 40
0.0
 41
0.0
 42
0.0
 43
0.0
 44
0.0
 45
0.0
 46
0.0
 47
0.0
 48
0.0
 49
0.0
140
0.0
141
0.0
142
1.0
143
1.0
 70
  1712
 72
     0
 73
     0
 74
     0
  7

 75
     0
 76
     0
 77
     5
 78
   300
147
1.0
148
0.0
149
0.0
100
AcDbLayout
  1
Model
 70
     1
 71
     0
 10
-4200.0
 20
-2970.0
 11
4200.0
 21
2970.0
 12
0.0
 22
0.0
 32
0.0
 14
-4200.0
 24
-2970.0
 34
0.0
 15
4200.0
 25
2970.0
 35
0.0
146
0.0
 13
0.0
 23
0.0
 33
0.0
 16
1.0
 26
0.0
 36
0.0
 17
0.0
 27
1.0
 37
0.0
 76
     0
330
1F
331
29
  0
MATERIAL
  5
3D
102
{ACAD_REACTORS
330
3B
102
}
330
3B
100
AcDbMaterial
  1
ByBlock
 72
     1
 94
      127
  0
MATERIAL
  5
3C
102
{ACAD_REACTORS
330
3B
102
}
330
3B
100
AcDbMaterial
  1
ByLayer
 72
     1
 94
      127
  0
MATERIAL
  5
3E
102
{ACAD_REACTORS
330
3B
102
}
330
3B
100
AcDbMaterial
  1
Global
 72
     1
 94
      127
  0
MLINESTYLE
  5
18
102
{ACAD_REACTORS
330
17
102
}
330
17
100
AcDbMlineStyle
  2
Standard
 70
     0
  3

 62
   256
 51
90.0
 52
90.0
 71
     2
 49
0.5
 62
   256
  6
BYLAYER
 49
-0.5
 62
   256
  6
BYLAYER
  0
ACDBPLACEHOLDER
  5
F
102
{ACAD_REACTORS
330
E
102
}
330
E
  0
VISUALSTYLE
  5
2F
102
{ACAD_REACTORS
330
2A
102
}
330
2A
100
AcDbVisualStyle
  2
2dWireframe
 70
     4
177
     2
291
     0
 71
     0
176
     1
 72
     2
176
     1
 73
     0
176
     1
 90
        0
176
     1
 40
-0.6
176
     1
 41
-30.0
176
     1
 62
     5
 63
     7
421
 16777215
176
     1
 74
     1
176
     1
 91
        4
176
     1
 64
     7
176
     1
 65
   257
176
     1
 75
     1
176
     1
175
     1
176
     1
 42
1.0
176
     1
 92
        0
176
     1
 66
   257
176
     1
 43
1.0
176
     1
 76
     1
176
     1
 77
     6
176
     1
 78
     2
176
     1
 67
     7
176
     1
 79
     5
176
     1
170
     0
176
     1
171
     0
176
     1
290
     0
176
     1
 93
        1
176
     1
 44
0.0
176
     1
173
     0
176
     1
  0
VISUALSTYLE
  5
31
102
{ACAD_REACTORS
330
2A
102
}
330
2A
100
AcDbVisualStyle
  2
3D Hidden
 70
     6
177
     2
291
     0
 71
     1
176
     1
 72
     2
176
     1
 73
     2
176
     1
 90
        0
176
     1
 40
-0.6
176
     1
 41
-30.0
176
     1
 62
     5
 63
     7
421
 16777215
176
     1
 74
     2
176
     1
 91
        2
176
     1
 64
     7
176
     1
 65
   257
176
     1
 75
     2
176
     1
175
     1
176
     1
 42
40.0
176
     1
 92
        0
176
     1
 66
   257
176
     1
 43
1.0
176
     1
 76
     1
176
     1
 77
     6
176
     1
 78
     2
176
     1
 67
     7
176
     1
 79
     3
176
     1
170
     0
176
     1
171
     0
176
     1
290
     0
176
     1
 93
        1
176
     1
 44
0.0
176
     1
173
     0
176
     1
  0
VISUALSTYLE
  5
30
102
{ACAD_REACTORS
330
2A
102
}
330
2A
100
AcDbVisualStyle
  2
3dWireframe
 70
     5
177
     2
291
     0
 71
     0
176
     1
 72
     2
176
     1
 73
     0
176
     1
 90
        0
176
     1
 40
-0.6
176
     1
 41
-30.0
176
     1
 62
     5
 63
     7
421
 16777215
176
     1
 74
     1
176
     1
 91
        4
176
     1
 64
     7
176
     1
 65
   257
176
     1
 75
     1
176
     1
175
     1
176
     1
 42
1.0
176
     1
 92
        0
176
     1
 66
   257
176
     1
 43
1.0
176
     1
 76
     1
176
     1
 77
     6
176
     1
 78
     2
176
     1
 67
     7
176
     1
 79
     5
176
     1
170
     0
176
     1
171
     0
176
     1
290
     0
176
     1
 93
        1
176
     1
 44
0.0
176
     1
173
     0
176
     1
  0
VISUALSTYLE
  5
32
102
{ACAD_REACTORS
330
2A
102
}
330
2A
100
AcDbVisualStyle
  2
Basic
 70
     7
177
     2
291
     1
 71
     1
176
     1
 72
     0
176
     1
 73
     1
176
     1
 90
        0
176
     1
 40
-0.6
176
     1
 41
-30.0
176
     1
 62
     5
 63
     7
421
 16777215
176
     1
 74
     0
176
     1
 91
        4
176
     1
 64
     7
176
     1
 65
   257
176
     1
 75
     1
176
     1
175
     1
176
     1
 42
1.0
176
     1
 92
        8
176
     1
 66
     7
176
     1
 43
1.0
176
     1
 76
     1
176
     1
 77
     6
176
     1
 78
     2
176
     1
 67
     7
176
     1
 79
     5
176
     1
170
     0
176
     1
171
     0
176
     1
290
     0
176
     1
 93
        1
176
     1
 44
0.0
176
     1
173
     0
176
     1
  0
VISUALSTYLE
  5
36
102
{ACAD_REACTORS
330
2A
102
}
330
2A
100
AcDbVisualStyle
  2
Brighten
 70
    12
177
     2
291
     1
 71
     2
176
     1
 72
     2
176
     1
 73
     0
176
     1
 90
        0
176
     1
 40
-0.6
176
     1
 41
-30.0
176
     1
 62
     5
 63
     7
421
 16777215
176
     1
 74
     1
176
     1
 91
        4
176
     1
 64
     7
176
     1
 65
   257
176
     1
 75
     1
176
     1
175
     1
176
     1
 42
1.0
176
     1
 92
        8
176
     1
 66
     7
176
     1
 43
1.0
176
     1
 76
     1
176
     1
 77
     6
176
     1
 78
     2
176
     1
 67
     7
176
     1
 79
     5
176
     1
170
     0
176
     1
171
     0
176
     1
290
     0
176
     1
 93
        1
176
     1
 44
50.0
176
     1
173
     0
176
     1
  0
VISUALSTYLE
  5
3A
102
{ACAD_REACTORS
330
2A
102
}
330
2A
100
AcDbVisualStyle
  2
ColorChange
 70
    16
177
     2
291
     1
 71
     2
176
     1
 72
     2
176
     1
 73
     3
176
     1
 90
        0
176
     1
 40
-0.6
176
     1
 41
-30.0
176
     1
 62
     5
 63
     8
421
  8421504
176
     1
 74
     1
176
     1
 91
        4
176
     1
 64
     7
176
     1
 65
   257
176
     1
 75
     1
176
     1
175
     1
176
     1
 42
1.0
176
     1
 92
        8
176
     1
 66
     8
424
  8421504
176
     1
 43
1.0
176
     1
 76
     1
176
     1
 77
     6
176
     1
 78
     2
176
     1
 67
     7
176
     1
 79
     5
176
     1
170
     0
176
     1
171
     0
176
     1
290
     0
176
     1
 93
        1
176
     1
 44
0.0
176
     1
173
     0
176
     1
  0
VISUALSTYLE
  5
34
102
{ACAD_REACTORS
330
2A
102
}
330
2A
100
AcDbVisualStyle
  2
Conceptual
 70
     9
177
     2
291
     0
 71
     3
176
     1
 72
     2
176
     1
 73
     0
176
     1
 90
        0
176
     1
 40
-0.6
176
     1
 41
-30.0
176
     1
 62
     5
 63
     7
421
 16777215
176
     1
 74
     2
176
     1
 91
        2
176
     1
 64
     7
176
     1
 65
   257
176
     1
 75
     1
176
     1
175
     1
176
     1
 42
40.0
176
     1
 92
        8
176
     1
 66
     7
176
     1
 43
1.0
176
     1
 76
     1
176
     1
 77
     6
176
     1
 78
     2
176
     1
 67
     7
176
     1
 79
     3
176
     1
170
     0
176
     1
171
     0
176
     1
290
     0
176
     1
 93
        1
176
     1
 44
0.0
176
     1
173
     0
176
     1
  0
VISUALSTYLE
  5
35
102
{ACAD_REACTORS
330
2A
102
}
330
2A
100
AcDbVisualStyle
  2
Dim
 70
    11
177
     2
291
     1
 71
     2
176
     1
 72
     2
176
     1
 73
     0
176
     1
 90
        0
176
     1
 40
-0.6
176
     1
 41
-30.0
176
     1
 62
     5
 63
     7
421
 16777215
176
     1
 74
     1
176
     1
 91
        4
176
     1
 64
     7
176
     1
 65
   257
176
     1
 75
     1
176
     1
175
     1
176
     1
 42
1.0
176
     1
 92
        8
176
     1
 66
     7
176
     1
 43
1.0
176
     1
 76
     1
176
     1
 77
     6
176
     1
 78
     2
176
     1
 67
     7
176
     1
 79
     5
176
     1
170
     0
176
     1
171
     0
176
     1
290
     0
176
     1
 93
        1
176
     1
 44
-50.0
176
     1
173
     0
176
     1
  0
VISUALSTYLE
  5
39
102
{ACAD_REACTORS
330
2A
102
}
330
2A
100
AcDbVisualStyle
  2
Facepattern
 70
    15
177
     2
291
     1
 71
     2
176
     1
 72
     2
176
     1
 73
     0
176
     1
 90
        0
176
     1
 40
-0.6
176
     1
 41
-30.0
176
     1
 62
     5
 63
     7
421
 16777215
176
     1
 74
     1
176
     1
 91
        4
176
     1
 64
     7
176
     1
 65
   257
176
     1
 75
     1
176
     1
175
     1
176
     1
 42
1.0
176
     1
 92
        8
176
     1
 66
     7
176
     1
 43
1.0
176
     1
 76
     1
176
     1
 77
     6
176
     1
 78
     2
176
     1
 67
     7
176
     1
 79
     5
176
     1
170
     0
176
     1
171
     0
176
     1
290
     0
176
     1
 93
        1
176
     1
 44
0.0
176
     1
173
     0
176
     1
  0
VISUALSTYLE
  5
2B
102
{ACAD_REACTORS
330
2A
102
}
330
2A
100
AcDbVisualStyle
  2
Flat
 70
     0
177
     2
291
     1
 71
     2
176
     1
 72
     1
176
     1
 73
     1
176
     1
 90
        2
176
     1
 40
-0.6
176
     1
 41
30.0
176
     1
 62
     5
 63
     7
421
 16777215
176
     1
 74
     0
176
     1
 91
        4
176
     1
 64
     7
176
     1
 65
   257
176
     1
 75
     1
176
     1
175
     1
176
     1
 42
1.0
176
     1
 92
        8
176
     1
 66
     7
176
     1
 43
1.0
176
     1
 76
     1
176
     1
 77
     6
176
     1
 78
     2
176
     1
 67
     7
176
     1
 79
     5
176
     1
170
     0
176
     1
171
     0
176
     1
290
     0
176
     1
 93
       13
176
     1
 44
0.0
176
     1
173
     0
176
     1
  0
VISUALSTYLE
  5
2C
102
{ACAD_REACTORS
330
2A
102
}
330
2A
100
AcDbVisualStyle
  2
FlatWithEdges
 70
     1
177
     2
291
     1
 71
     2
176
     1
 72
     1
176
     1
 73
     1
176
     1
 90
        2
176
     1
 40
-0.6
176
     1
 41
30.0
176
     1
 62
     5
 63
     7
421
 16777215
176
     1
 74
     1
176
     1
 91
        4
176
     1
 64
     7
176
     1
 65
   257
176
     1
 75
     1
176
     1
175
     1
176
     1
 42
1.0
176
     1
 92
        0
176
     1
 66
   257
176
     1
 43
1.0
176
     1
 76
     1
176
     1
 77
     6
176
     1
 78
     2
176
     1
 67
     7
176
     1
 79
     5
176
     1
170
     0
176
     1
171
     0
176
     1
290
     0
176
     1
 93
       13
176
     1
 44
0.0
176
     1
173
     0
176
     1
  0
VISUALSTYLE
  5
2D
102
{ACAD_REACTORS
330
2A
102
}
330
2A
100
AcDbVisualStyle
  2
Gouraud
 70
     2
177
     2
291
     1
 71
     2
176
     1
 72
     2
176
     1
 73
     1
176
     1
 90
        2
176
     1
 40
-0.6
176
     1
 41
30.0
176
     1
 62
     5
 63
     7
421
 16777215
176
     1
 74
     0
176
     1
 91
        4
176
     1
 64
     7
176
     1
 65
   257
176
     1
 75
     1
176
     1
175
     1
176
     1
 42
1.0
176
     1
 92
        0
176
     1
 66
     7
176
     1
 43
1.0
176
     1
 76
     1
176
     1
 77
     6
176
     1
 78
     2
176
     1
 67
     7
176
     1
 79
     5
176
     1
170
     0
176
     1
171
     0
176
     1
290
     0
176
     1
 93
       13
176
     1
 44
0.0
176
     1
173
     0
176
     1
  0
VISUALSTYLE
  5
2E
102
{ACAD_REACTORS
330
2A
102
}
330
2A
100
AcDbVisualStyle
  2
GouraudWithEdges
 70
     3
177
     2
291
     1
 71
     2
176
     1
 72
     2
176
     1
 73
     1
176
     1
 90
        2
176
     1
 40
-0.6
176
     1
 41
30.0
176
     1
 62
     5
 63
     7
421
 16777215
176
     1
 74
     1
176
     1
 91
        4
176
     1
 64
     7
176
     1
 65
   257
176
     1
 75
     1
176
     1
175
     1
176
     1
 42
1.0
176
     1
 92
        0
176
     1
 66
   257
176
     1
 43
1.0
176
     1
 76
     1
176
     1
 77
     6
176
     1
 78
     2
176
     1
 67
     7
176
     1
 79
     5
176
     1
170
     0
176
     1
171
     0
176
     1
290
     0
176
     1
 93
       13
176
     1
 44
0.0
176
     1
173
     0
176
     1
  0
VISUALSTYLE
  5
38
102
{ACAD_REACTORS
330
2A
102
}
330
2A
100
AcDbVisualStyle
  2
Linepattern
 70
    14
177
     2
291
     1
 71
     2
176
     1
 72
     2
176
     1
 73
     0
176
     1
 90
        0
176
     1
 40
-0.6
176
     1
 41
-30.0
176
     1
 62
     5
 63
     7
421
 16777215
176
     1
 74
     1
176
     1
 91
        4
176
     1
 64
     7
176
     1
 65
   257
176
     1
 75
     7
176
     1
175
     7
176
     1
 42
1.0
176
     1
 92
        8
176
     1
 66
     7
176
     1
 43
1.0
176
     1
 76
     1
176
     1
 77
     6
176
     1
 78
     2
176
     1
 67
     7
176
     1
 79
     5
176
     1
170
     0
176
     1
171
     0
176
     1
290
     0
176
     1
 93
        1
176
     1
 44
0.0
176
     1
173
     0
176
     1
  0
VISUALSTYLE
  5
33
102
{ACAD_REACTORS
330
2A
102
}
330
2A
100
AcDbVisualStyle
  2
Realistic
 70
     8
177
     2
291
     0
 71
     2
176
     1
 72
     2
176
     1
 73
     0
176
     1
 90
        0
176
     1
 40
-0.6
176
     1
 41
-30.0
176
     1
 62
     5
 63
     7
421
 16777215
176
     1
 74
     1
176
     1
 91
        0
176
     1
 64
     7
176
     1
 65
   257
176
     1
 75
     1
176
     1
175
     1
176
     1
 42
1.0
176
     1
 92
        8
176
     1
 66
     8
424
  7895160
176
     1
 43
1.0
176
     1
 76
     1
176
     1
 77
     6
176
     1
 78
     2
176
     1
 67
     7
176
     1
 79
     5
176
     1
170
     0
176
     1
171
     0
176
     1
290
     0
176
     1
 93
       13
176
     1
 44
0.0
176
     1
173
     0
176
     1
  0
VISUALSTYLE
  5
37
102
{ACAD_REACTORS
330
2A
102
}
330
2A
100
AcDbVisualStyle
  2
Thicken
 70
    13
177
     2
291
     1
 71
     2
176
     1
 72
     2
176
     1
 73
     0
176
     1
 90
        0
176
     1
 40
-0.6
176
     1
 41
-30.0
176
     1
 62
     5
 63
     7
421
 16777215
176
     1
 74
     1
176
     1
 91
        4
176
     1
 64
     7
176
     1
 65
   257
176
     1
 75
     1
176
     1
175
     1
176
     1
 42
1.0
176
     1
 92
       12
176
     1
 66
     7
176
     1
 43
1.0
176
     1
 76
     1
176
     1
 77
     6
176
     1
 78
     2
176
     1
 67
     7
176
     1
 79
     5
176
     1
170
     0
176
     1
171
     0
176
     1
290
     0
176
     1
 93
        1
176
     1
 44
0.0
176
     1
173
     0
176
     1
  0
ENDSEC
  0
EOF
