  0
SECTION
  2
HEADER
  9
$ACADVER
  1
AC1024
  9
$ACADMAINTVER
 70
     6
  9
$DWGCODEPAGE
  3
ANSI_932
  9
$INSBASE
 10
0.0
 20
0.0
 30
0.0
  9
$EXTMIN
 10
-4200.0
 20
-2970.0
 30
0.0
  9
$EXTMAX
 10
4200.0
 20
2970.0
 30
0.0
  9
$LIMMIN
 10
-4200.0
 20
-2970.0
  9
$LIMMAX
 10
4200.0
 20
2970.0
  9
$ORTHOMODE
 70
     0
  9
$REGENMODE
 70
     1
  9
$FILLMODE
 70
     1
  9
$QTEXTMODE
 70
     0
  9
$MIRRTEXT
 70
     1
  9
$LTSCALE
 40
20.0
  9
$ATTMODE
 70
     1
  9
$TEXTSIZE
 40
2.5
  9
$TRACEWID
 40
1.0
  9
$TEXTSTYLE
  7
Standard
  9
$CLAYER
  8
0
  9
$CELTYPE
  6
ByLayer
  9
$CECOLOR
 62
   256
  9
$CELTSCALE
 40
1.0
  9
$DISPSILH
 70
     0
  9
$DIMSCALE
 40
1.0
  9
$DIMASZ
 40
2.5
  9
$DIMEXO
 40
0.625
  9
$DIMDLI
 40
3.75
  9
$DIMRND
 40
0.0
  9
$DIMDLE
 40
0.0
  9
$DIMEXE
 40
1.25
  9
$DIMTP
 40
0.0
  9
$DIMTM
 40
0.0
  9
$DIMTXT
 40
2.5
  9
$DIMCEN
 40
2.5
  9
$DIMTSZ
 40
0.0
  9
$DIMTOL
 70
     0
  9
$DIMLIM
 70
     0
  9
$DIMTIH
 70
     0
  9
$DIMTOH
 70
     0
  9
$DIMSE1
 70
     0
  9
$DIMSE2
 70
     0
  9
$DIMTAD
 70
     1
  9
$DIMZIN
 70
     8
  9
$DIMBLK
  1

  9
$DIMASO
 70
     1
  9
$DIMSHO
 70
     1
  9
$DIMPOST
  1

  9
$DIMAPOST
  1

  9
$DIMALT
 70
     0
  9
$DIMALTD
 70
     3
  9
$DIMALTF
 40
0.03937007874016
  9
$DIMLFAC
 40
1.0
  9
$DIMTOFL
 70
     1
  9
$DIMTVP
 40
0.0
  9
$DIMTIX
 70
     0
  9
$DIMSOXD
 70
     0
  9
$DIMSAH
 70
     0
  9
$DIMBLK1
  1

  9
$DIMBLK2
  1

  9
$DIMSTYLE
  2
ISO-25
  9
$DIMCLRD
 70
     0
  9
$DIMCLRE
 70
     0
  9
$DIMCLRT
 70
     0
  9
$DIMTFAC
 40
1.0
  9
$DIMGAP
 40
0.625
  9
$DIMJUST
 70
     0
  9
$DIMSD1
 70
     0
  9
$DIMSD2
 70
     0
  9
$DIMTOLJ
 70
     0
  9
$DIMTZIN
 70
     8
  9
$DIMALTZ
 70
     0
  9
$DIMALTTZ
 70
     0
  9
$DIMUPT
 70
     0
  9
$DIMDEC
 70
     2
  9
$DIMTDEC
 70
     2
  9
$DIMALTU
 70
     2
  9
$DIMALTTD
 70
     3
  9
$DIMTXSTY
  7
Standard
  9
$DIMAUNIT
 70
     0
  9
$DIMADEC
 70
     0
  9
$DIMALTRND
 40
0.0
  9
$DIMAZIN
 70
     0
  9
$DIMDSEP
 70
    44
  9
$DIMATFIT
 70
     3
  9
$DIMFRAC
 70
     0
  9
$DIMLDRBLK
  1

  9
$DIMLUNIT
 70
     2
  9
$DIMLWD
 70
    -2
  9
$DIMLWE
 70
    -2
  9
$DIMTMOVE
 70
     0
  9
$DIMFXL
 40
1.0
  9
$DIMFXLON
 70
     0
  9
$DIMJOGANG
 40
0.7853981633974483
  9
$DIMTFILL
 70
     0
  9
$DIMTFILLCLR
 70
     0
  9
$DIMARCSYM
 70
     0
  9
$DIMLTYPE
  6

  9
$DIMLTEX1
  6

  9
$DIMLTEX2
  6

  9
$DIMTXTDIRECTION
 70
     0
  9
$LUNITS
 70
     2
  9
$LUPREC
 70
     4
  9
$SKETCHINC
 40
1.0
  9
$FILLETRAD
 40
10.0
  9
$AUNITS
 70
     0
  9
$AUPREC
 70
     0
  9
$MENU
  1
.
  9
$ELEVATION
 40
0.0
  9
$PELEVATION
 40
0.0
  9
$THICKNESS
 40
0.0
  9
$LIMCHECK
 70
     0
  9
$CHAMFERA
 40
10.0
  9
$CHAMFERB
 40
10.0
  9
$CHAMFERC
 40
20.0
  9
$CHAMFERD
 40
0.0
  9
$SKPOLY
 70
     0
  9
$TDCREATE
 40
2459411.612653576
  9
$TDUCREATE
 40
2459411.237653576
  9
$TDUPDATE
 40
2459411.612653588
  9
$TDUUPDATE
 40
2459411.237653588
  9
$TDINDWG
 40
0.0000000116
  9
$TDUSRTIMER
 40
0.0000000116
  9
$USRTIMER
 70
     1
  9
$ANGBASE
 50
0.0
  9
$ANGDIR
 70
     0
  9
$PDMODE
 70
     0
  9
$PDSIZE
 40
0.0
  9
$PLINEWID
 40
0.0
  9
$SPLFRAME
 70
     0
  9
$SPLINETYPE
 70
     6
  9
$SPLINESEGS
 70
     8
  9
$HANDSEED
  5
42D
  9
$SURFTAB1
 70
     6
  9
$SURFTAB2
 70
     6
  9
$SURFTYPE
 70
     6
  9
$SURFU
 70
     6
  9
$SURFV
 70
     6
  9
$UCSBASE
  2

  9
$UCSNAME
  2

  9
$UCSORG
 10
0.0
 20
0.0
 30
0.0
  9
$UCSXDIR
 10
1.0
 20
0.0
 30
0.0
  9
$UCSYDIR
 10
0.0
 20
1.0
 30
0.0
  9
$UCSORTHOREF
  2

  9
$UCSORTHOVIEW
 70
     0
  9
$UCSORGTOP
 10
0.0
 20
0.0
 30
0.0
  9
$UCSORGBOTTOM
 10
0.0
 20
0.0
 30
0.0
  9
$UCSORGLEFT
 10
0.0
 20
0.0
 30
0.0
  9
$UCSORGRIGHT
 10
0.0
 20
0.0
 30
0.0
  9
$UCSORGFRONT
 10
0.0
 20
0.0
 30
0.0
  9
$UCSORGBACK
 10
0.0
 20
0.0
 30
0.0
  9
$PUCSBASE
  2

  9
$PUCSNAME
  2

  9
$PUCSORG
 10
0.0
 20
0.0
 30
0.0
  9
$PUCSXDIR
 10
1.0
 20
0.0
 30
0.0
  9
$PUCSYDIR
 10
0.0
 20
1.0
 30
0.0
  9
$PUCSORTHOREF
  2

  9
$PUCSORTHOVIEW
 70
     0
  9
$PUCSORGTOP
 10
0.0
 20
0.0
 30
0.0
  9
$PUCSORGBOTTOM
 10
0.0
 20
0.0
 30
0.0
  9
$PUCSORGLEFT
 10
0.0
 20
0.0
 30
0.0
  9
$PUCSORGRIGHT
 10
0.0
 20
0.0
 30
0.0
  9
$PUCSORGFRONT
 10
0.0
 20
0.0
 30
0.0
  9
$PUCSORGBACK
 10
0.0
 20
0.0
 30
0.0
  9
$USERI1
 70
     0
  9
$USERI2
 70
     0
  9
$USERI3
 70
     0
  9
$USERI4
 70
     0
  9
$USERI5
 70
     0
  9
$USERR1
 40
0.0
  9
$USERR2
 40
0.0
  9
$USERR3
 40
0.0
  9
$USERR4
 40
0.0
  9
$USERR5
 40
0.0
  9
$WORLDVIEW
 70
     1
  9
$SHADEDGE
 70
     3
  9
$SHADEDIF
 70
    70
  9
$TILEMODE
 70
     1
  9
$MAXACTVP
 70
    64
  9
$PINSBASE
 10
0.0
 20
0.0
 30
0.0
  9
$PLIMCHECK
 70
     0
  9
$PEXTMIN
 10
1.000000000000000E+20
 20
1.000000000000000E+20
 30
1.000000000000000E+20
  9
$PEXTMAX
 10
-1.000000000000000E+20
 20
-1.000000000000000E+20
 30
-1.000000000000000E+20
  9
$PLIMMIN
 10
0.0
 20
0.0
  9
$PLIMMAX
 10
420.0
 20
297.0
  9
$UNITMODE
 70
     0
  9
$VISRETAIN
 70
     1
  9
$PLINEGEN
 70
     0
  9
$PSLTSCALE
 70
     1
  9
$TREEDEPTH
 70
  3020
  9
$CMLSTYLE
  2
Standard
  9
$CMLJUST
 70
     0
  9
$CMLSCALE
 40
20.0
  9
$PROXYGRAPHICS
 70
     1
  9
$MEASUREMENT
 70
     1
  9
$CELWEIGHT
370
    -1
  9
$ENDCAPS
280
     0
  9
$JOINSTYLE
280
     0
  9
$LWDISPLAY
290
     0
  9
$INSUNITS
 70
     4
  9
$HYPERLINKBASE
  1

  9
$STYLESHEET
  1

  9
$XEDIT
290
     1
  9
$CEPSNTYPE
380
     0
  9
$PSTYLEMODE
290
     1
  9
$FINGERPRINTGUID
  2
{2D6175F3-49E1-43CC-B4A2-0CF663BAE8FC}
  9
$VERSIONGUID
  2
{FAEB1C32-E019-11D5-929B-00C0DF256EC4}
  9
$EXTNAMES
290
     1
  9
$PSVPSCALE
 40
0.0
  9
$OLESTARTUP
290
     0
  9
$SORTENTS
280
   127
  9
$INDEXCTL
280
     0
  9
$HIDETEXT
280
     1
  9
$XCLIPFRAME
280
     2
  9
$HALOGAP
280
     0
  9
$OBSCOLOR
 70
   257
  9
$OBSLTYPE
280
     0
  9
$INTERSECTIONDISPLAY
280
     0
  9
$INTERSECTIONCOLOR
 70
   257
  9
$DIMASSOC
280
     2
  9
$PROJECTNAME
  1

  9
$CAMERADISPLAY
290
     0
  9
$LENSLENGTH
 40
50.0
  9
$CAMERAHEIGHT
 40
0.0
  9
$STEPSPERSEC
 40
2.0
  9
$STEPSIZE
 40
6.0
  9
$3DDWFPREC
 40
2.0
  9
$PSOLWIDTH
 40
5.0
  9
$PSOLHEIGHT
 40
80.0
  9
$LOFTANG1
 40
1.570796326794897
  9
$LOFTANG2
 40
1.570796326794897
  9
$LOFTMAG1
 40
0.0
  9
$LOFTMAG2
 40
0.0
  9
$LOFTPARAM
 70
     7
  9
$LOFTNORMALS
280
     1
  9
$LATITUDE
 40
37.795
  9
$LONGITUDE
 40
-122.394
  9
$NORTHDIRECTION
 40
0.0
  9
$TIMEZONE
 70
 -8000
  9
$LIGHTGLYPHDISPLAY
280
     1
  9
$TILEMODELIGHTSYNCH
280
     1
  9
$SOLIDHIST
280
     1
  9
$SHOWHIST
280
     1
  9
$DWFFRAME
280
     2
  9
$DGNFRAME
280
     2
  9
$REALWORLDSCALE
290
     1
  9
$INTERFERECOLOR
 62
   256
  9
$CSHADOW
280
     0
  9
$SHADOWPLANELOCATION
 40
0.0
  0
ENDSEC
  0
SECTION
  2
CLASSES
  0
CLASS
  1
ACDBDICTIONARYWDFLT
  2
AcDbDictionaryWithDefault
  3
ObjectDBX Classes
 90
        0
 91
        4
280
     0
281
     0
  0
CLASS
  1
VISUALSTYLE
  2
AcDbVisualStyle
  3
ObjectDBX Classes
 90
     4095
 91
        4
280
     0
281
     0
  0
CLASS
  1
MATERIAL
  2
AcDbMaterial
  3
ObjectDBX Classes
 90
     1153
 91
        4
280
     0
281
     0
  0
ENDSEC
  0
SECTION
  2
TABLES
  0
TABLE
  2
VPORT
  5
8
330
0
100
AcDbSymbolTable
 70
     1
  0
VPORT
  5
29
330
8
100
AcDbSymbolTableRecord
100
AcDbViewportTableRecord
  2
*Active
 70
     0
 10
0.0
 20
0.0
 11
1.0
 21
1.0
 12
0.0
 22
0.0
 13
0.0
 23
0.0
 14
10.0
 24
10.0
 15
10.0
 25
10.0
 16
0.0
 26
0.0
 36
1.0
 17
0.0
 27
0.0
 37
0.0
 40
6534.000000000001
 41
1.414141414141414
 42
50.0
 43
0.0
 44
0.0
 50
0.0
 51
0.0
 71
     0
 72
 10000
 73
     1
 74
     3
 75
     0
 76
     0
 77
     0
 78
     0
281
     0
 65
     1
110
0.0
120
0.0
130
0.0
111
1.0
121
0.0
131
0.0
112
0.0
122
1.0
132
0.0
 79
     0
146
0.0
 60
     3
 61
     5
292
     1
282
     1
141
0.0
142
0.0
 63
   250
  0
ENDTAB
  0
TABLE
  2
LTYPE
  5
5
330
0
100
AcDbSymbolTable
 70
     5
  0
LTYPE
  5
14
330
5
100
AcDbSymbolTableRecord
100
AcDbLinetypeTableRecord
  2
ByBlock
 70
     0
  3

 72
    65
 73
     0
 40
0.0
  0
LTYPE
  5
15
330
5
100
AcDbSymbolTableRecord
100
AcDbLinetypeTableRecord
  2
ByLayer
 70
     0
  3

 72
    65
 73
     0
 40
0.0
  0
LTYPE
  5
16
330
5
100
AcDbSymbolTableRecord
100
AcDbLinetypeTableRecord
  2
Continuous
 70
     0
  3
Solid line
 72
    65
 73
     0
 40
0.0
  0
LTYPE
  5
3F
330
5
100
AcDbSymbolTableRecord
100
AcDbLinetypeTableRecord
  2
JWW_HOJO
 70
     0
  3
  -   -   -   -   -   -   -   - 
 72
    65
 73
     2
 40
1.693333333333333
 49
-1.27
 74
     0
 49
0.4233333333333333
 74
     0
  0
LTYPE
  5
40
330
5
100
AcDbSymbolTableRecord
100
AcDbLinetypeTableRecord
  2
JWW_CENTER1
 70
     0
  3
-----  --  ----------  --  -----
 72
    65
 73
     4
 40
3.386666666666667
 49
2.116666666666667
 74
     0
 49
-0.4233333333333333
 74
     0
 49
0.4233333333333333
 74
     0
 49
-0.4233333333333333
 74
     0
  0
LTYPE
  5
41
330
5
100
AcDbSymbolTableRecord
100
AcDbLinetypeTableRecord
  2
JWW_DASHED2
 70
     0
  3
--    ----    ----    ----    --
 72
    65
 73
     2
 40
1.693333333333333
 49
0.8466666666666667
 74
     0
 49
-0.8466666666666667
 74
     0
  0
LTYPE
  5
42
330
5
100
AcDbSymbolTableRecord
100
AcDbLinetypeTableRecord
  2
JWW_DASHED1
 70
     0
  3
-  --  --  --  --  --  --  --  -
 72
    65
 73
     2
 40
0.3386666666666667
 49
0.1693333333333333
 74
     0
 49
-0.1693333333333333
 74
     0
  0
ENDTAB
  0
TABLE
  2
LAYER
  5
2
330
0
100
AcDbSymbolTable
 70
    15
  0
LAYER
  5
10
330
2
100
AcDbSymbolTableRecord
100
AcDbLayerTableRecord
  2
0
 70
     0
 62
     7
  6
Continuous
370
    -3
390
F
347
3E
  0
LAYER
  5
43
330
2
100
AcDbSymbolTableRecord
100
AcDbLayerTableRecord
  2
F-0_補助線
 70
     0
 62
     7
  6
Continuous
370
    -3
390
F
347
3E
  0
LAYER
  5
44
330
2
100
AcDbSymbolTableRecord
100
AcDbLayerTableRecord
  2
F-1_枠
 70
     0
 62
     7
  6
Continuous
370
    -3
390
F
347
3E
  0
LAYER
  5
45
330
2
100
AcDbSymbolTableRecord
100
AcDbLayerTableRecord
  2
F-A_文字
 70
     0
 62
     7
  6
Continuous
370
    -3
390
F
347
3E
  0
LAYER
  5
46
330
2
100
AcDbSymbolTableRecord
100
AcDbLayerTableRecord
  2
0-A_文字
 70
     0
 62
     7
  6
Continuous
370
    -3
390
F
347
3E
  0
LAYER
  5
47
330
2
100
AcDbSymbolTableRecord
100
AcDbLayerTableRecord
  2
0-3_扉仕上
 70
     0
 62
     7
  6
Continuous
370
    -3
390
F
347
3E
  0
LAYER
  5
48
330
2
100
AcDbSymbolTableRecord
100
AcDbLayerTableRecord
  2
0-B_寸法
 70
     0
 62
     7
  6
Continuous
370
    -3
390
F
347
3E
  0
LAYER
  5
49
330
2
100
AcDbSymbolTableRecord
100
AcDbLayerTableRecord
  2
0-1_本体
 70
     0
 62
     7
  6
Continuous
370
    -3
390
F
347
3E
  0
LAYER
  5
4A
330
2
100
AcDbSymbolTableRecord
100
AcDbLayerTableRecord
  2
0-2_扉
 70
     0
 62
     7
  6
Continuous
370
    -3
390
F
347
3E
  0
LAYER
  5
4B
330
2
100
AcDbSymbolTableRecord
100
AcDbLayerTableRecord
  2
0-0_補助線
 70
     0
 62
     7
  6
Continuous
370
    -3
390
F
347
3E
  0
LAYER
  5
4C
330
2
100
AcDbSymbolTableRecord
100
AcDbLayerTableRecord
  2
0-4_棚
 70
     0
 62
     7
  6
Continuous
370
    -3
390
F
347
3E
  0
LAYER
  5
4D
330
2
100
AcDbSymbolTableRecord
100
AcDbLayerTableRecord
  2
0-6_桟木
 70
     0
 62
     7
  6
Continuous
370
    -3
390
F
347
3E
  0
LAYER
  5
4E
330
2
100
AcDbSymbolTableRecord
100
AcDbLayerTableRecord
  2
0-5_ダボ
 70
     0
 62
     7
  6
Continuous
370
    -3
390
F
347
3E
  0
LAYER
  5
4F
330
2
100
AcDbSymbolTableRecord
100
AcDbLayerTableRecord
  2
0-9__
 70
     0
 62
     7
  6
Continuous
370
    -3
390
F
347
3E
  0
LAYER
  5
50
330
2
100
AcDbSymbolTableRecord
100
AcDbLayerTableRecord
  2
0-7__
 70
     0
 62
     7
  6
Continuous
370
    -3
390
F
347
3E
  0
ENDTAB
  0
TABLE
  2
STYLE
  5
3
330
0
100
AcDbSymbolTable
 70
     1
  0
STYLE
  5
11
330
3
100
AcDbSymbolTableRecord
100
AcDbTextStyleTableRecord
  2
Standard
 70
     0
 40
0.0
 41
1.0
 50
0.0
 71
     0
 42
2.5
  3
txt
  4

  0
ENDTAB
  0
TABLE
  2
VIEW
  5
6
330
0
100
AcDbSymbolTable
 70
     0
  0
ENDTAB
  0
TABLE
  2
UCS
  5
7
330
0
100
AcDbSymbolTable
 70
     0
  0
ENDTAB
  0
TABLE
  2
APPID
  5
9
330
0
100
AcDbSymbolTable
 70
     1
  0
APPID
  5
12
330
9
100
AcDbSymbolTableRecord
100
AcDbRegAppTableRecord
  2
ACAD
 70
     0
  0
ENDTAB
  0
TABLE
  2
DIMSTYLE
  5
A
330
0
100
AcDbSymbolTable
 70
     1
100
AcDbDimStyleTable
  0
DIMSTYLE
105
27
330
A
100
AcDbSymbolTableRecord
100
AcDbDimStyleTableRecord
  2
ISO-25
 70
     0
 41
2.5
 42
0.625
 43
3.75
 44
1.25
 73
     0
 74
     0
 77
     1
 78
     8
140
2.5
141
2.5
143
0.03937007874016
147
0.625
171
     3
172
     1
178
     0
271
     2
272
     2
274
     3
278
    44
283
     0
284
     8
340
11
  0
ENDTAB
  0
TABLE
  2
BLOCK_RECORD
  5
1
330
0
100
AcDbSymbolTable
 70
     1
  0
BLOCK_RECORD
  5
1F
330
1
100
AcDbSymbolTableRecord
100
AcDbBlockTableRecord
  2
*Model_Space
340
22
 70
     0
280
     1
281
     0
  0
BLOCK_RECORD
  5
1B
330
1
100
AcDbSymbolTableRecord
100
AcDbBlockTableRecord
  2
*Paper_Space
340
1E
 70
     0
280
     1
281
     0
  0
BLOCK_RECORD
  5
23
330
1
100
AcDbSymbolTableRecord
100
AcDbBlockTableRecord
  2
*Paper_Space0
340
26
 70
     0
280
     1
281
     0
  0
ENDTAB
  0
ENDSEC
  0
SECTION
  2
BLOCKS
  0
BLOCK
  5
20
330
1F
100
AcDbEntity
  8
0
100
AcDbBlockBegin
  2
*Model_Space
 70
     0
 10
0.0
 20
0.0
 30
0.0
  3
*Model_Space
  1

  0
ENDBLK
  5
21
330
1F
100
AcDbEntity
  8
0
100
AcDbBlockEnd
  0
BLOCK
  5
1C
330
1B
100
AcDbEntity
 67
     1
  8
0
100
AcDbBlockBegin
  2
*Paper_Space
 70
     0
 10
0.0
 20
0.0
 30
0.0
  3
*Paper_Space
  1

  0
ENDBLK
  5
1D
330
1B
100
AcDbEntity
 67
     1
  8
0
100
AcDbBlockEnd
  0
BLOCK
  5
24
330
23
100
AcDbEntity
  8
0
100
AcDbBlockBegin
  2
*Paper_Space0
 70
     0
 10
0.0
 20
0.0
 30
0.0
  3
*Paper_Space0
  1

  0
ENDBLK
  5
25
330
23
100
AcDbEntity
  8
0
100
AcDbBlockEnd
  0
ENDSEC
  0
SECTION
  2
ENTITIES
  0
LINE
  5
51
330
1F
100
AcDbEntity
  8
F-0_補助線
  6
JWW_HOJO
 62
   120
370
     5
100
AcDbLine
 10
-4093.387555624515
 20
-2970.0
 30
0.0
 11
-4093.387555624515
 21
2949.99973606419
 31
0.0
  0
LINE
  5
52
330
1F
100
AcDbEntity
  8
F-0_補助線
  6
JWW_HOJO
 62
   120
370
     5
100
AcDbLine
 10
-4093.387555624515
 20
2949.99973606419
 30
0.0
 11
4106.611784535958
 21
2949.99973606419
 31
0.0
  0
LINE
  5
53
330
1F
100
AcDbEntity
  8
F-0_補助線
  6
JWW_HOJO
 62
   120
370
     5
100
AcDbLine
 10
4106.611784535958
 20
2949.99973606419
 30
0.0
 11
4106.611784535958
 21
-2970.0
 31
0.0
  0
LINE
  5
54
330
1F
100
AcDbEntity
  8
F-0_補助線
  6
JWW_HOJO
 62
   120
370
     5
100
AcDbLine
 10
4106.611784535958
 20
-2970.0
 30
0.0
 11
-4093.387555624515
 21
-2970.0
 31
0.0
  0
LINE
  5
55
330
1F
100
AcDbEntity
  8
F-1_枠
  6
Continuous
 62
   200
370
    20
100
AcDbLine
 10
3906.611619576076
 20
2783.333179370777
 30
0.0
 11
3906.611619576076
 21
-2803.333443306588
 31
0.0
  0
LINE
  5
56
330
1F
100
AcDbEntity
  8
F-1_枠
  6
Continuous
 62
   200
370
    20
100
AcDbLine
 10
-3893.387545314522
 20
2783.333179370777
 30
0.0
 11
-3893.387545314522
 21
-2803.333443306588
 31
0.0
  0
LINE
  5
57
330
1F
100
AcDbEntity
  8
F-1_枠
  6
Continuous
 62
   200
370
    20
100
AcDbLine
 10
-3886.720882428186
 20
2783.333179370777
 30
0.0
 11
-3886.720882428186
 21
-2803.333443306588
 31
0.0
  0
LINE
  5
58
330
1F
100
AcDbEntity
  8
F-1_枠
  6
Continuous
 62
   200
370
    20
100
AcDbLine
 10
-3890.054206138861
 20
2783.333179370777
 30
0.0
 11
-3890.054206138861
 21
-2803.333443306588
 31
0.0
  0
LINE
  5
59
330
1F
100
AcDbEntity
  8
F-1_枠
  6
Continuous
 62
   200
370
    20
100
AcDbLine
 10
3903.278110285536
 20
2783.333179370777
 30
0.0
 11
3903.278110285536
 21
-2803.333443306588
 31
0.0
  0
LINE
  5
5A
330
1F
100
AcDbEntity
  8
F-1_枠
  6
Continuous
 62
   200
370
    20
100
AcDbLine
 10
3899.945095874641
 20
2783.333179370777
 30
0.0
 11
3899.945095874641
 21
-2803.333443306588
 31
0.0
  0
LINE
  5
5B
330
1F
100
AcDbEntity
  8
F-1_枠
  6
Continuous
 62
   200
370
    20
100
AcDbLine
 10
-3893.387390664634
 20
2783.333179370777
 30
0.0
 11
3906.611619576076
 21
2783.333179370777
 31
0.0
  0
LINE
  5
5C
330
1F
100
AcDbEntity
  8
F-1_枠
  6
Continuous
 62
   200
370
    20
100
AcDbLine
 10
-3893.387390664634
 20
2776.666655669342
 30
0.0
 11
3906.611619576076
 21
2776.666655669342
 31
0.0
  0
LINE
  5
5D
330
1F
100
AcDbEntity
  8
F-1_枠
  6
Continuous
 62
   200
370
    20
100
AcDbLine
 10
-3893.387390664634
 20
2779.999670080237
 30
0.0
 11
3906.611619576076
 21
2779.999670080237
 31
0.0
  0
MTEXT
  5
5E
330
1F
100
AcDbEntity
  8
F-A_文字
  6
Continuous
 62
     7
370
     0
100
AcDbMText
 10
66.61236189554415
 20
-2591.42665550288
 30
0.0
 40
30.48
 41
120.0
 46
0.0
 71
     7
 72
     1
  1
{\fＭＳ ゴシック|b0|i0|c128|p49;図面名}
 73
     1
 44
1.0
  0
LINE
  5
5F
330
1F
100
AcDbEntity
  8
F-0_補助線
  6
JWW_HOJO
 62
     7
370
     9
100
AcDbLine
 10
673.2788361090155
 20
-2530.000110316921
 30
0.0
 11
673.2788361090155
 21
-2796.666780420252
 31
0.0
  0
LINE
  5
60
330
1F
100
AcDbEntity
  8
F-0_補助線
  6
JWW_HOJO
 62
     7
370
     9
100
AcDbLine
 10
339.945722722191
 20
-2530.000110316921
 30
0.0
 11
339.945722722191
 21
-2796.666780420252
 31
0.0
  0
LINE
  5
61
330
1F
100
AcDbEntity
  8
F-1_枠
  6
Continuous
 62
   200
370
    20
100
AcDbLine
 10
3906.611619576076
 20
-2803.333443306588
 30
0.0
 11
-3893.387390664634
 21
-2803.333443306588
 31
0.0
  0
LINE
  5
62
330
1F
100
AcDbEntity
  8
F-1_枠
  6
Continuous
 62
   200
370
    20
100
AcDbLine
 10
3906.611619576076
 20
-2800.000104130926
 30
0.0
 11
-3893.387390664634
 21
-2800.000104130926
 31
0.0
  0
LINE
  5
63
330
1F
100
AcDbEntity
  8
F-1_枠
  6
Continuous
 62
   200
370
    20
100
AcDbLine
 10
3906.611619576076
 20
-2796.666780420252
 30
0.0
 11
-3893.387390664634
 21
-2796.666780420252
 31
0.0
  0
LINE
  5
64
330
1F
100
AcDbEntity
  8
F-1_枠
  6
Continuous
 62
   200
370
    20
100
AcDbLine
 10
2899.945260834522
 20
-2530.000110316921
 30
0.0
 11
2899.945260834522
 21
-2796.666780420252
 31
0.0
  0
LINE
  5
65
330
1F
100
AcDbEntity
  8
F-1_枠
  6
Continuous
 62
   200
370
    20
100
AcDbLine
 10
1899.944930914759
 20
-2530.000110316921
 30
0.0
 11
1899.944930914759
 21
-2796.666780420252
 31
0.0
  0
LINE
  5
66
330
1F
100
AcDbEntity
  8
F-1_枠
  6
Continuous
 62
   200
370
    20
100
AcDbLine
 10
6.612361895544154
 20
-2530.000110316921
 30
0.0
 11
6.612361895544154
 21
-2796.666780420252
 31
0.0
  0
LINE
  5
67
330
1F
100
AcDbEntity
  8
F-1_枠
  6
Continuous
 62
   200
370
    20
100
AcDbLine
 10
6.612361895544154
 20
-2663.33339897362
 30
0.0
 11
3899.945095874641
 21
-2663.337017781026
 31
0.0
  0
LINE
  5
68
330
1F
100
AcDbEntity
  8
F-0_補助線
  6
JWW_HOJO
 62
     7
370
     9
100
AcDbLine
 10
-3886.720882428186
 20
-2663.33339897385
 30
0.0
 11
6.612361895544154
 21
-2663.33339897385
 31
0.0
  0
LINE
  5
69
330
1F
100
AcDbEntity
  8
F-0_補助線
  6
JWW_HOJO
 62
     7
370
     9
100
AcDbLine
 10
-3886.720882428186
 20
-2603.33339897385
 30
0.0
 11
6.612361895544154
 21
-2603.33339897385
 31
0.0
  0
LINE
  5
6A
330
1F
100
AcDbEntity
  8
F-0_補助線
  6
JWW_HOJO
 62
     7
370
     9
100
AcDbLine
 10
-3886.720882428186
 20
-2723.33339897385
 30
0.0
 11
6.612361895544154
 21
-2723.33339897385
 31
0.0
  0
LINE
  5
6B
330
1F
100
AcDbEntity
  8
F-0_補助線
  6
JWW_HOJO
 62
     7
370
     9
100
AcDbLine
 10
6.612272045125565
 20
-2759.999934773578
 30
0.0
 11
3899.945006024222
 21
-2760.003553580984
 31
0.0
  0
LINE
  5
6C
330
1F
100
AcDbEntity
  8
F-0_補助線
  6
JWW_HOJO
 62
     7
370
     9
100
AcDbLine
 10
6.612327814426635
 20
-2699.999934773604
 30
0.0
 11
3899.945061793523
 21
-2700.00355358101
 31
0.0
  0
LINE
  5
6D
330
1F
100
AcDbEntity
  8
F-0_補助線
  6
JWW_HOJO
 62
     7
370
     9
100
AcDbLine
 10
6.612395976906669
 20
-2626.666599733636
 30
0.0
 11
3899.945129956002
 21
-2626.670218541042
 31
0.0
  0
LINE
  5
6E
330
1F
100
AcDbEntity
  8
F-0_補助線
  6
JWW_HOJO
 62
     7
370
     9
100
AcDbLine
 10
6.612451746207739
 20
-2566.666599733662
 30
0.0
 11
3899.945185725303
 21
-2566.670218541068
 31
0.0
  0
LINE
  5
6F
330
1F
100
AcDbEntity
  8
F-0_補助線
  6
JWW_HOJO
 62
     7
370
     9
100
AcDbLine
 10
1959.944930914759
 20
-2530.000110316921
 30
0.0
 11
1959.944930914759
 21
-2796.666780420252
 31
0.0
  0
LINE
  5
70
330
1F
100
AcDbEntity
  8
F-0_補助線
  6
JWW_HOJO
 62
     7
370
     9
100
AcDbLine
 10
66.61236189554415
 20
-2530.000110316921
 30
0.0
 11
66.61236189554415
 21
-2796.666780420252
 31
0.0
  0
LINE
  5
71
330
1F
100
AcDbEntity
  8
F-0_補助線
  6
JWW_HOJO
 62
     7
370
     9
100
AcDbLine
 10
2959.945260834522
 20
-2530.000110316921
 30
0.0
 11
2959.945260834522
 21
-2796.666780420252
 31
0.0
  0
MTEXT
  5
72
330
1F
100
AcDbEntity
  8
F-A_文字
  6
Continuous
 62
     7
370
     0
100
AcDbMText
 10
1959.944930914759
 20
-2591.428415333439
 30
0.0
 40
30.48
 41
200.0
 46
0.0
 71
     7
 72
     1
  1
{\fＭＳ ゴシック|b0|i0|c128|p49;ＳＣＡＬＥ}
 73
     1
 44
1.0
  0
MTEXT
  5
73
330
1F
100
AcDbEntity
  8
F-A_文字
  6
Continuous
 62
     7
370
     0
100
AcDbMText
 10
2959.945260834522
 20
-2591.429344822092
 30
0.0
 40
30.48
 41
160.0
 46
0.0
 71
     7
 72
     1
  1
{\fＭＳ ゴシック|b0|i0|c128|p49;ＤＡＴＥ}
 73
     1
 44
1.0
  0
MTEXT
  5
74
330
1F
100
AcDbEntity
  8
F-A_文字
  6
Continuous
 62
     7
370
     0
100
AcDbMText
 10
893.5575789779642
 20
-2630.949382654815
 30
0.0
 40
51.435
 41
270.0
 46
0.0
 71
     7
 72
     1
  1
{\fＭＳ ゴシック|b0|i0|c128|p49;玄関収納}
 73
     1
 44
1.0
  0
MTEXT
  5
75
330
1F
100
AcDbEntity
  8
F-A_文字
  6
Continuous
 62
     7
370
     0
100
AcDbMText
 10
2362.445095874641
 20
-2630.951352193128
 30
0.0
 40
51.435
 41
135.0
 46
0.0
 71
     7
 72
     1
  1
{\fＭＳ ゴシック|b0|i0|c128|p49;1/20}
 73
     1
 44
1.0
  0
LINE
  5
76
330
1F
100
AcDbEntity
  8
F-1_枠
  6
Continuous
 62
   200
370
    20
100
AcDbLine
 10
3906.611619576076
 20
-2530.000110316921
 30
0.0
 11
-3893.387390664634
 21
-2530.000110316921
 31
0.0
  0
LINE
  5
77
330
1F
100
AcDbEntity
  8
F-1_枠
  6
Continuous
 62
   200
370
    20
100
AcDbLine
 10
3906.611619576076
 20
-2526.666786606248
 30
0.0
 11
-3893.387390664634
 21
-2526.666786606248
 31
0.0
  0
LINE
  5
78
330
1F
100
AcDbEntity
  8
F-0_補助線
  6
JWW_HOJO
 62
     7
370
     9
100
AcDbLine
 10
-3391.752473459741
 20
-2530.000110316922
 30
0.0
 11
-3391.752473459741
 21
-2803.333551561511
 31
0.0
  0
LINE
  5
79
330
1F
100
AcDbEntity
  8
F-0_補助線
  6
JWW_HOJO
 62
     7
370
     9
100
AcDbLine
 10
-33.38763810445585
 20
-2530.000110316921
 30
0.0
 11
-33.38763810445585
 21
-2796.666780420252
 31
0.0
  0
MTEXT
  5
7A
330
1F
100
AcDbEntity
  8
F-A_文字
  6
Continuous
 62
     7
370
     0
100
AcDbMText
 10
1959.944930914759
 20
-2724.761750373496
 30
0.0
 40
30.48
 41
160.0
 46
0.0
 71
     7
 72
     1
  1
{\fＭＳ ゴシック|b0|i0|c128|p49;ＦＩＬＥ}
 73
     1
 44
1.0
  0
MTEXT
  5
7B
330
1F
100
AcDbEntity
  8
F-A_文字
  6
Continuous
 62
     7
370
     0
100
AcDbMText
 10
2959.945260834522
 20
-2724.76267986215
 30
0.0
 40
30.48
 41
120.0
 46
0.0
 71
     7
 72
     1
  1
{\fＭＳ ゴシック|b0|i0|c128|p49;ＮＯ．}
 73
     1
 44
1.0
  0
MTEXT
  5
7C
330
1F
100
AcDbEntity
  8
F-A_文字
  6
Continuous
 62
     7
370
     0
100
AcDbMText
 10
929.9449309147587
 20
-2730.760554432355
 30
0.0
 40
30.48
 41
80.0
 46
0.0
 71
     7
 72
     1
  1
{\fＭＳ ゴシック|b0|i0|c128|p49;株式}
 73
     1
 44
1.0
  0
MTEXT
  5
7D
330
1F
100
AcDbEntity
  8
F-A_文字
  6
Continuous
 62
     7
370
     9
100
AcDbMText
 10
3397.445178354582
 20
-2765.238116721579
 30
0.0
 40
49.53
 41
65.0
 46
0.0
 71
     7
 72
     1
  1
{\fＭＳ ゴシック|b0|i0|c128|p49;01}
 73
     1
 44
1.0
  0
MTEXT
  5
7E
330
1F
100
AcDbEntity
  8
F-A_文字
  6
Continuous
 62
     7
370
     0
100
AcDbMText
 10
1069.944930914759
 20
-2776.187944604208
 30
0.0
 40
67.62750000000003
 41
710.0000000000002
 46
0.0
 71
     7
 72
     1
  1
{\fＭＳ ゴシック|b0|i0|c128|p49;ウッドワン・・・}
 73
     1
 44
1.0
  0
MTEXT
  5
7F
330
1F
100
AcDbEntity
  8
F-A_文字
  6
Continuous
 62
     7
370
     0
100
AcDbMText
 10
929.9449309147587
 20
-2778.760554432381
 30
0.0
 40
30.48
 41
80.0
 46
0.0
 71
     7
 72
     1
  1
{\fＭＳ ゴシック|b0|i0|c128|p49;会社}
 73
     1
 44
1.0
  0
MTEXT
  5
80
330
1F
100
AcDbEntity
  8
F-A_文字
  6
Continuous
 62
     7
370
     0
100
AcDbMText
 10
3845.547985115293
 20
-2876.561054268868
 30
0.0
 40
45.72
 41
60.0
 46
0.0
 71
     7
 72
     1
  1
{\fＭＳ ゴシック|b0|i0|c128|p49;）}
 73
     1
 44
1.0
  0
MTEXT
  5
81
330
1F
100
AcDbEntity
  8
F-A_文字
  6
Continuous
 62
     7
370
     0
100
AcDbMText
 10
3566.743078270199
 20
-2877.49040416816
 30
0.0
 40
45.72
 41
30.0
 46
0.0
 71
     7
 72
     1
  1
{\fＭＳ ゴシック|b0|i0|c128|p49;,}
 73
     1
 44
1.0
  0
MTEXT
  5
82
330
1F
100
AcDbEntity
  8
F-A_文字
  6
Continuous
 62
     7
370
     0
100
AcDbMText
 10
3389.2372856524
 20
-2876.514753113777
 30
0.0
 40
49.53
 41
65.0
 46
0.0
 71
     7
 72
     1
  1
{\fＭＳ ゴシック|b0|i0|c128|p49;$y}
 73
     1
 44
1.0
  0
MTEXT
  5
83
330
1F
100
AcDbEntity
  8
F-A_文字
  6
Continuous
 62
     7
370
     0
100
AcDbMText
 10
3492.395099678281
 20
-2876.514753113777
 30
0.0
 40
49.53
 41
65.0
 46
0.0
 71
     7
 72
     1
  1
{\fＭＳ ゴシック|b0|i0|c128|p49;$m}
 73
     1
 44
1.0
  0
MTEXT
  5
84
330
1F
100
AcDbEntity
  8
F-A_文字
  6
Continuous
 62
     7
370
     0
100
AcDbMText
 10
3595.552921333554
 20
-2876.514753113777
 30
0.0
 40
49.53
 41
65.0
 46
0.0
 71
     7
 72
     1
  1
{\fＭＳ ゴシック|b0|i0|c128|p49;$d}
 73
     1
 44
1.0
  0
MTEXT
  5
85
330
1F
100
AcDbEntity
  8
F-A_文字
  6
Continuous
 62
     7
370
     0
100
AcDbMText
 10
3698.710742988826
 20
-2876.514753113777
 30
0.0
 40
49.53
 41
130.0
 46
0.0
 71
     7
 72
     1
  1
{\fＭＳ ゴシック|b0|i0|c128|p49;印刷}
 73
     1
 44
1.0
  0
MTEXT
  5
86
330
1F
100
AcDbEntity
  8
F-A_文字
  6
Continuous
 62
     7
370
     0
100
AcDbMText
 10
3295.968027210818
 20
-2879.349103966743
 30
0.0
 40
45.72
 41
60.0
 46
0.0
 71
     7
 72
     1
  1
{\fＭＳ ゴシック|b0|i0|c128|p49;（}
 73
     1
 44
1.0
  0
MTEXT
  5
87
330
1F
100
AcDbEntity
  8
F-A_文字
  6
Continuous
 62
     7
370
     0
100
AcDbMText
 10
3460.797206917048
 20
-2879.349103966743
 30
0.0
 40
45.72
 41
30.0
 46
0.0
 71
     7
 72
     1
  1
{\fＭＳ ゴシック|b0|i0|c128|p49;,}
 73
     1
 44
1.0
  0
MTEXT
  5
88
330
1F
100
AcDbEntity
  8
F-A_文字
  6
Continuous
 62
     7
370
     0
100
AcDbMText
 10
-3386.720882428186
 20
-2696.79039897385
 30
0.0
 40
53.08599999999999
 41
2090.0
 46
0.0
 71
     7
 72
     1
  1
{\fＭＳ ゴシック|b0|i0|c128|p49;ピノアース　玄関収納　組合せプラン　床置きタイプ　Ｓ－３０１}
 73
     1
 44
1.0
  0
LINE
  5
89
330
1F
100
AcDbEntity
  8
0-A_文字
  6
Continuous
 62
     7
370
     9
100
AcDbLine
 10
-3743.332919558964
 20
2486.666787637708
 30
0.0
 11
-3743.332919558964
 21
2636.666787637708
 31
0.0
  0
LINE
  5
8A
330
1F
100
AcDbEntity
  8
0-A_文字
  6
Continuous
 62
     7
370
     9
100
AcDbLine
 10
-3743.332919558964
 20
2636.666787637708
 30
0.0
 11
-2563.109199698325
 21
2636.666787637708
 31
0.0
  0
LINE
  5
8B
330
1F
100
AcDbEntity
  8
0-A_文字
  6
Continuous
 62
     7
370
     9
100
AcDbLine
 10
-3743.332919558964
 20
2486.666787637708
 30
0.0
 11
-2563.109199698325
 21
2486.666787637708
 31
0.0
  0
LINE
  5
8C
330
1F
100
AcDbEntity
  8
0-A_文字
  6
Continuous
 62
     7
370
     9
100
AcDbLine
 10
-2563.109199698325
 20
2486.666787637708
 30
0.0
 11
-2563.109199698325
 21
2636.666787637708
 31
0.0
  0
MTEXT
  5
8D
330
1F
100
AcDbEntity
  8
0-A_文字
  6
Continuous
 62
     7
370
     9
100
AcDbMText
 10
-3403.221059628644
 20
2499.766787637708
 30
0.0
 40
76.2
 41
500.0
 46
0.0
 71
     7
 72
     1
  1
{\fＭＳ ゴシック|b0|i0|c128|p49;Ｓ－３０１}
 73
     1
 44
1.0
  0
LINE
  5
8E
330
1F
100
AcDbEntity
  8
0-A_文字
  6
Continuous
 62
     7
370
     9
100
AcDbLine
 10
-2513.392161304414
 20
-1933.292549751441
 30
0.0
 11
-1663.392161304412
 21
-1933.292549751441
 31
0.0
  0
LINE
  5
8F
330
1F
100
AcDbEntity
  8
0-A_文字
  6
Continuous
 62
     7
370
     9
100
AcDbLine
 10
-1663.392161304412
 20
-1933.292549751441
 30
0.0
 11
-1663.392161304412
 21
-2083.292549751441
 31
0.0
  0
LINE
  5
90
330
1F
100
AcDbEntity
  8
0-A_文字
  6
Continuous
 62
     7
370
     9
100
AcDbLine
 10
-1663.392161304412
 20
-2083.292549751441
 30
0.0
 11
-2513.392161304414
 21
-2083.292549751441
 31
0.0
  0
LINE
  5
91
330
1F
100
AcDbEntity
  8
0-A_文字
  6
Continuous
 62
     7
370
     9
100
AcDbLine
 10
-2513.392161304414
 20
-2083.292549751441
 30
0.0
 11
-2513.392161304414
 21
-1933.292549751441
 31
0.0
  0
MTEXT
  5
92
330
1F
100
AcDbEntity
  8
0-A_文字
  6
Continuous
 62
     7
370
     9
100
AcDbMText
 10
-1671.387638104454
 20
-1540.432549751441
 30
0.0
 40
45.72
 41
180.0
 46
0.0
 71
     7
 72
     1
  1
{\fＭＳ ゴシック|b0|i0|c128|p49;▽床面}
 73
     1
 44
1.0
  0
LINE
  5
93
330
1F
100
AcDbEntity
  8
0-3_扉仕上
  6
Continuous
 62
     7
370
     9
100
AcDbLine
 10
-2487.387638104455
 20
-1533.292549751441
 30
0.0
 11
-1491.387638104454
 21
-1533.292549751441
 31
0.0
  0
MTEXT
  5
94
330
1F
100
AcDbEntity
  8
0-B_寸法
  6
Continuous
 62
     7
370
   211
100
AcDbMText
 10
-2647.387638104454
 20
-1466.525376545191
 30
0.0
 40
45.72
 41
30.0
 46
0.0
 71
     7
 72
     1
  1
{\fＭＳ ゴシック|b0|i0|c128|p49;3}
 11
6.123031769111886E-17
 21
1.0
 31
0.0
 73
     1
 44
1.0
  0
LINE
  5
95
330
1F
100
AcDbEntity
  8
0-B_寸法
  6
Continuous
 62
   120
370
     5
100
AcDbLine
 10
-2637.387638104454
 20
-1466.29254975144
 30
0.0
 11
-2537.387638104454
 21
-1466.29254975144
 31
0.0
  0
LINE
  5
96
330
1F
100
AcDbEntity
  8
0-B_寸法
  6
Continuous
 62
   120
370
     5
100
AcDbLine
 10
-2637.387638104454
 20
-1469.292549751441
 30
0.0
 11
-2537.387638104454
 21
-1469.292549751441
 31
0.0
  0
LWPOLYLINE
  5
97
330
1F
100
AcDbEntity
  8
0-B_寸法
  6
Continuous
 62
     7
370
     9
100
AcDbPolyline
 90
        4
 70
     1
 43
2.0
 10
-2636.387638104454
 20
-1466.29254975144
 42
0.4142135623731
 10
-2637.387638104454
 20
-1465.292549751441
 42
0.4142135623731
 10
-2638.387638104454
 20
-1466.29254975144
 42
0.4142135623731
 10
-2637.387638104454
 20
-1467.29254975144
 42
0.4142135623731
  0
LWPOLYLINE
  5
98
330
1F
100
AcDbEntity
  8
0-B_寸法
  6
Continuous
 62
     7
370
     9
100
AcDbPolyline
 90
        4
 70
     1
 43
2.0
 10
-2636.387638104454
 20
-1469.292549751441
 42
0.4142135623731
 10
-2637.387638104454
 20
-1468.292549751441
 42
0.4142135623731
 10
-2638.387638104454
 20
-1469.292549751441
 42
0.4142135623731
 10
-2637.387638104454
 20
-1470.292549751441
 42
0.4142135623731
  0
LINE
  5
99
330
1F
100
AcDbEntity
  8
0-B_寸法
  6
Continuous
 62
   120
370
     5
100
AcDbLine
 10
-2637.387638104454
 20
-1469.292549751441
 30
0.0
 11
-2637.387638104454
 21
-1466.29254975144
 31
0.0
  0
LINE
  5
9A
330
1F
100
AcDbEntity
  8
0-1_本体
  6
Continuous
 62
     7
370
     9
100
AcDbLine
 10
-2487.387638104454
 20
-1469.292549751441
 30
0.0
 11
-1691.387638104455
 21
-1469.292549751441
 31
0.0
  0
LINE
  5
9B
330
1F
100
AcDbEntity
  8
0-2_扉
  6
Continuous
 62
    92
370
    13
100
AcDbLine
 10
-2091.387638104456
 20
-1466.292549751441
 30
0.0
 11
-2485.387638104455
 21
-1466.292549751441
 31
0.0
  0
LINE
  5
9C
330
1F
100
AcDbEntity
  8
0-2_扉
  6
Continuous
 62
    92
370
    13
100
AcDbLine
 10
-2087.387638104455
 20
-1466.292549751441
 30
0.0
 11
-1693.387638104454
 21
-1466.292549751441
 31
0.0
  0
MTEXT
  5
9D
330
1F
100
AcDbEntity
  8
0-B_寸法
  6
Continuous
 62
     7
370
   211
100
AcDbMText
 10
-2647.387638104454
 20
-749.8692224265392
 30
0.0
 40
45.72
 41
30.0
 46
0.0
 71
     7
 72
     1
  1
{\fＭＳ ゴシック|b0|i0|c128|p49;3}
 11
6.123031769111886E-17
 21
1.0
 31
0.0
 73
     1
 44
1.0
  0
LINE
  5
9E
330
1F
100
AcDbEntity
  8
0-B_寸法
  6
Continuous
 62
   120
370
     5
100
AcDbLine
 10
-2637.387638104454
 20
-711.2925497514404
 30
0.0
 11
-2537.387638104454
 21
-711.2925497514404
 31
0.0
  0
LWPOLYLINE
  5
9F
330
1F
100
AcDbEntity
  8
0-B_寸法
  6
Continuous
 62
     7
370
     9
100
AcDbPolyline
 90
        4
 70
     1
 43
2.0
 10
-2636.387638104454
 20
-711.2925497514404
 42
0.4142135623731
 10
-2637.387638104454
 20
-710.2925497514406
 42
0.4142135623731
 10
-2638.387638104454
 20
-711.2925497514404
 42
0.4142135623731
 10
-2637.387638104454
 20
-712.2925497514404
 42
0.4142135623731
  0
LINE
  5
A0
330
1F
100
AcDbEntity
  8
0-B_寸法
  6
Continuous
 62
   120
370
     5
100
AcDbLine
 10
-2637.387638104454
 20
-1466.29254975144
 30
0.0
 11
-2637.387638104454
 21
-711.2925497514404
 31
0.0
  0
LINE
  5
A1
330
1F
100
AcDbEntity
  8
0-B_寸法
  6
Continuous
 62
   120
370
     5
100
AcDbLine
 10
-2637.387638104454
 20
-708.2925497514409
 30
0.0
 11
-2537.387638104454
 21
-708.2925497514409
 31
0.0
  0
LWPOLYLINE
  5
A2
330
1F
100
AcDbEntity
  8
0-B_寸法
  6
Continuous
 62
     7
370
     9
100
AcDbPolyline
 90
        4
 70
     1
 43
2.0
 10
-2636.387638104454
 20
-708.2925497514409
 42
0.4142135623731
 10
-2637.387638104454
 20
-707.292549751441
 42
0.4142135623731
 10
-2638.387638104454
 20
-708.2925497514409
 42
0.4142135623731
 10
-2637.387638104454
 20
-709.2925497514409
 42
0.4142135623731
  0
LINE
  5
A3
330
1F
100
AcDbEntity
  8
0-B_寸法
  6
Continuous
 62
   120
370
     5
100
AcDbLine
 10
-2637.387638104454
 20
-711.2925497514404
 30
0.0
 11
-2637.387638104454
 21
-708.2925497514409
 31
0.0
  0
LINE
  5
A4
330
1F
100
AcDbEntity
  8
0-1_本体
  6
Continuous
 62
     7
370
     9
100
AcDbLine
 10
-2487.387638104454
 20
-708.2925497514409
 30
0.0
 11
-2487.387638104454
 21
-1469.292549751441
 31
0.0
  0
LINE
  5
A5
330
1F
100
AcDbEntity
  8
0-1_本体
  6
Continuous
 62
     7
370
     9
100
AcDbLine
 10
-1691.387638104455
 20
-1469.292549751441
 30
0.0
 11
-1691.387638104455
 21
-708.2925497514409
 31
0.0
  0
LINE
  5
A6
330
1F
100
AcDbEntity
  8
0-2_扉
  6
Continuous
 62
    92
370
    13
100
AcDbLine
 10
-2485.387638104455
 20
-711.292693914595
 30
0.0
 11
-2485.387638104455
 21
-1466.292549751441
 31
0.0
  0
LINE
  5
A7
330
1F
100
AcDbEntity
  8
0-2_扉
  6
Continuous
 62
    92
370
    13
100
AcDbLine
 10
-1693.387638104454
 20
-711.292693914595
 30
0.0
 11
-1693.387638104454
 21
-1466.292549751441
 31
0.0
  0
LINE
  5
A8
330
1F
100
AcDbEntity
  8
0-2_扉
  6
Continuous
 62
    92
370
    13
100
AcDbLine
 10
-2087.387638104455
 20
-711.292693914595
 30
0.0
 11
-2087.387638104455
 21
-1466.292549751441
 31
0.0
  0
LINE
  5
A9
330
1F
100
AcDbEntity
  8
0-2_扉
  6
Continuous
 62
    92
370
    13
100
AcDbLine
 10
-2091.387638104456
 20
-711.292693914595
 30
0.0
 11
-2091.387638104456
 21
-1466.292549751441
 31
0.0
  0
LINE
  5
AA
330
1F
100
AcDbEntity
  8
0-2_扉
  6
Continuous
 62
    92
370
    13
100
AcDbLine
 10
-2087.387638104455
 20
-711.292693914595
 30
0.0
 11
-1693.387638104454
 21
-711.292693914595
 31
0.0
  0
LINE
  5
AB
330
1F
100
AcDbEntity
  8
0-2_扉
  6
Continuous
 62
    92
370
    13
100
AcDbLine
 10
-2091.387638104456
 20
-711.292693914595
 30
0.0
 11
-2485.387638104455
 21
-711.292693914595
 31
0.0
  0
MTEXT
  5
AC
330
1F
100
AcDbEntity
  8
0-B_寸法
  6
Continuous
 62
     7
370
   211
100
AcDbMText
 10
-2647.387638104454
 20
-1230.932569546626
 30
0.0
 40
45.71999999999999
 41
270.0
 46
0.0
 71
     7
 72
     1
  1
{\fＭＳ ゴシック|b0|i0|c128|p49;ＤＨ＝755}
 11
6.123031769111886E-17
 21
1.0
 31
0.0
 73
     1
 44
1.0
  0
LINE
  5
AD
330
1F
100
AcDbEntity
  8
0-B_寸法
  6
Continuous
 62
   120
370
     5
100
AcDbLine
 10
-2637.387638011379
 20
-708.2925415034464
 30
0.0
 11
-2537.387638011379
 21
-708.2925415034464
 31
0.0
  0
LWPOLYLINE
  5
AE
330
1F
100
AcDbEntity
  8
0-B_寸法
  6
Continuous
 62
     7
370
     9
100
AcDbPolyline
 90
        4
 70
     1
 43
2.0
 10
-2636.387638011379
 20
-708.2925415034464
 42
0.4142135623731
 10
-2637.387638011379
 20
-707.2925415034465
 42
0.4142135623731
 10
-2638.387638011379
 20
-708.2925415034464
 42
0.4142135623731
 10
-2637.387638011379
 20
-709.2925415034463
 42
0.4142135623731
  0
MTEXT
  5
AF
330
1F
100
AcDbEntity
  8
0-B_寸法
  6
Continuous
 62
     7
370
   211
100
AcDbMText
 10
-2134.387638104456
 20
-1780.432549751441
 30
0.0
 40
45.72
 41
90.0
 46
0.0
 71
     7
 72
     1
  1
{\fＭＳ ゴシック|b0|i0|c128|p49;796}
 73
     1
 44
1.0
  0
LWPOLYLINE
  5
B0
330
1F
100
AcDbEntity
  8
0-B_寸法
  6
Continuous
 62
     7
370
     9
100
AcDbPolyline
 90
        4
 70
     1
 43
2.0
 10
-2486.387638104455
 20
-1683.292549751441
 42
0.4142135623731
 10
-2487.387638104455
 20
-1682.292549751441
 42
0.4142135623731
 10
-2488.387638104455
 20
-1683.292549751441
 42
0.4142135623731
 10
-2487.387638104455
 20
-1684.292549751441
 42
0.4142135623731
  0
LINE
  5
B1
330
1F
100
AcDbEntity
  8
0-B_寸法
  6
Continuous
 62
   120
370
     5
100
AcDbLine
 10
-2487.387638104455
 20
-1783.292549751441
 30
0.0
 11
-2487.387638104455
 21
-1583.292549751441
 31
0.0
  0
LWPOLYLINE
  5
B2
330
1F
100
AcDbEntity
  8
0-B_寸法
  6
Continuous
 62
     7
370
     9
100
AcDbPolyline
 90
        4
 70
     1
 43
2.0
 10
-1690.387638104455
 20
-1683.292549751441
 42
0.4142135623731
 10
-1691.387638104455
 20
-1682.292549751441
 42
0.4142135623731
 10
-1692.387638104455
 20
-1683.292549751441
 42
0.4142135623731
 10
-1691.387638104455
 20
-1684.292549751441
 42
0.4142135623731
  0
LINE
  5
B3
330
1F
100
AcDbEntity
  8
0-B_寸法
  6
Continuous
 62
   120
370
     5
100
AcDbLine
 10
-1691.387638104455
 20
-1783.292549751441
 30
0.0
 11
-1691.387638104455
 21
-1583.292549751441
 31
0.0
  0
LINE
  5
B4
330
1F
100
AcDbEntity
  8
0-B_寸法
  6
Continuous
 62
   120
370
     5
100
AcDbLine
 10
-2487.387638104455
 20
-1783.292549751441
 30
0.0
 11
-1691.387638104455
 21
-1783.292549751441
 31
0.0
  0
LWPOLYLINE
  5
B5
330
1F
100
AcDbEntity
  8
0-B_寸法
  6
Continuous
 62
     7
370
     9
100
AcDbPolyline
 90
        4
 70
     1
 43
2.0
 10
-2486.387638104455
 20
-1783.292549751441
 42
0.4142135623731
 10
-2487.387638104455
 20
-1782.292549751441
 42
0.4142135623731
 10
-2488.387638104455
 20
-1783.292549751441
 42
0.4142135623731
 10
-2487.387638104455
 20
-1784.292549751441
 42
0.4142135623731
  0
LWPOLYLINE
  5
B6
330
1F
100
AcDbEntity
  8
0-B_寸法
  6
Continuous
 62
     7
370
     9
100
AcDbPolyline
 90
        4
 70
     1
 43
2.0
 10
-1690.387638104455
 20
-1783.292549751441
 42
0.4142135623731
 10
-1691.387638104455
 20
-1782.292549751441
 42
0.4142135623731
 10
-1692.387638104455
 20
-1783.292549751441
 42
0.4142135623731
 10
-1691.387638104455
 20
-1784.292549751441
 42
0.4142135623731
  0
LINE
  5
B7
330
1F
100
AcDbEntity
  8
0-B_寸法
  6
Continuous
 62
   120
370
     5
100
AcDbLine
 10
-2487.387638104454
 20
-526.2925497514402
 30
0.0
 11
-2485.387638104455
 21
-526.2925497514402
 31
0.0
  0
LWPOLYLINE
  5
B8
330
1F
100
AcDbEntity
  8
0-B_寸法
  6
Continuous
 62
     7
370
     9
100
AcDbPolyline
 90
        4
 70
     1
 43
2.0
 10
-2486.387638104454
 20
-526.2925497514402
 42
0.4142135623731
 10
-2487.387638104454
 20
-525.2925497514402
 42
0.4142135623731
 10
-2488.387638104454
 20
-526.2925497514402
 42
0.4142135623731
 10
-2487.387638104454
 20
-527.2925497514402
 42
0.4142135623731
  0
LWPOLYLINE
  5
B9
330
1F
100
AcDbEntity
  8
0-B_寸法
  6
Continuous
 62
     7
370
     9
100
AcDbPolyline
 90
        4
 70
     1
 43
2.0
 10
-2484.387638104455
 20
-526.2925497514402
 42
0.4142135623731
 10
-2485.387638104455
 20
-525.2925497514402
 42
0.4142135623731
 10
-2486.387638104455
 20
-526.2925497514402
 42
0.4142135623731
 10
-2485.387638104455
 20
-527.2925497514402
 42
0.4142135623731
  0
LINE
  5
BA
330
1F
100
AcDbEntity
  8
0-B_寸法
  6
Continuous
 62
   120
370
     5
100
AcDbLine
 10
-2487.387638104454
 20
-526.2925497514402
 30
0.0
 11
-2487.387638104454
 21
-626.2925497514404
 31
0.0
  0
LINE
  5
BB
330
1F
100
AcDbEntity
  8
0-B_寸法
  6
Continuous
 62
   120
370
     5
100
AcDbLine
 10
-2485.387638104455
 20
-526.2925497514402
 30
0.0
 11
-2485.387638104455
 21
-626.2925497514404
 31
0.0
  0
MTEXT
  5
BC
330
1F
100
AcDbEntity
  8
0-B_寸法
  6
Continuous
 62
     7
370
   211
100
AcDbMText
 10
-2501.387638104455
 20
-523.4325497514402
 30
0.0
 40
45.72
 41
30.0
 46
0.0
 71
     7
 72
     1
  1
{\fＭＳ ゴシック|b0|i0|c128|p49;2}
 73
     1
 44
1.0
  0
LINE
  5
BD
330
1F
100
AcDbEntity
  8
0-B_寸法
  6
Continuous
 62
   120
370
     5
100
AcDbLine
 10
-2485.387638104455
 20
-526.2925497514402
 30
0.0
 11
-2091.387638104456
 21
-526.2925497514402
 31
0.0
  0
LWPOLYLINE
  5
BE
330
1F
100
AcDbEntity
  8
0-B_寸法
  6
Continuous
 62
     7
370
     9
100
AcDbPolyline
 90
        4
 70
     1
 43
2.0
 10
-2090.387638104456
 20
-526.2925497514402
 42
0.4142135623731
 10
-2091.387638104456
 20
-525.2925497514402
 42
0.4142135623731
 10
-2092.387638104456
 20
-526.2925497514402
 42
0.4142135623731
 10
-2091.387638104456
 20
-527.2925497514402
 42
0.4142135623731
  0
LINE
  5
BF
330
1F
100
AcDbEntity
  8
0-B_寸法
  6
Continuous
 62
   120
370
     5
100
AcDbLine
 10
-2091.387638104456
 20
-526.2925497514402
 30
0.0
 11
-2091.387638104456
 21
-626.2925497514404
 31
0.0
  0
LINE
  5
C0
330
1F
100
AcDbEntity
  8
0-B_寸法
  6
Continuous
 62
   120
370
     5
100
AcDbLine
 10
-2091.387638104456
 20
-526.2925497514402
 30
0.0
 11
-2087.387638104455
 21
-526.2925497514402
 31
0.0
  0
LWPOLYLINE
  5
C1
330
1F
100
AcDbEntity
  8
0-B_寸法
  6
Continuous
 62
     7
370
     9
100
AcDbPolyline
 90
        4
 70
     1
 43
2.0
 10
-2086.387638104455
 20
-526.2925497514402
 42
0.4142135623731
 10
-2087.387638104455
 20
-525.2925497514402
 42
0.4142135623731
 10
-2088.387638104455
 20
-526.2925497514402
 42
0.4142135623731
 10
-2087.387638104455
 20
-527.2925497514402
 42
0.4142135623731
  0
LINE
  5
C2
330
1F
100
AcDbEntity
  8
0-B_寸法
  6
Continuous
 62
   120
370
     5
100
AcDbLine
 10
-2087.387638104455
 20
-526.2925497514402
 30
0.0
 11
-2087.387638104455
 21
-626.2925497514404
 31
0.0
  0
MTEXT
  5
C3
330
1F
100
AcDbEntity
  8
0-B_寸法
  6
Continuous
 62
     7
370
   211
100
AcDbMText
 10
-2104.387638104456
 20
-523.4325497514402
 30
0.0
 40
45.72
 41
30.0
 46
0.0
 71
     7
 72
     1
  1
{\fＭＳ ゴシック|b0|i0|c128|p49;4}
 73
     1
 44
1.0
  0
LINE
  5
C4
330
1F
100
AcDbEntity
  8
0-B_寸法
  6
Continuous
 62
   120
370
     5
100
AcDbLine
 10
-2087.387638104455
 20
-526.2925497514402
 30
0.0
 11
-1693.387638104454
 21
-526.2925497514402
 31
0.0
  0
LWPOLYLINE
  5
C5
330
1F
100
AcDbEntity
  8
0-B_寸法
  6
Continuous
 62
     7
370
     9
100
AcDbPolyline
 90
        4
 70
     1
 43
2.0
 10
-1692.387638104454
 20
-526.2925497514402
 42
0.4142135623731
 10
-1693.387638104454
 20
-525.2925497514402
 42
0.4142135623731
 10
-1694.387638104454
 20
-526.2925497514402
 42
0.4142135623731
 10
-1693.387638104454
 20
-527.2925497514402
 42
0.4142135623731
  0
LINE
  5
C6
330
1F
100
AcDbEntity
  8
0-B_寸法
  6
Continuous
 62
   120
370
     5
100
AcDbLine
 10
-1693.387638104454
 20
-526.2925497514402
 30
0.0
 11
-1693.387638104454
 21
-626.2925497514404
 31
0.0
  0
LINE
  5
C7
330
1F
100
AcDbEntity
  8
0-B_寸法
  6
Continuous
 62
   120
370
     5
100
AcDbLine
 10
-1693.387638104454
 20
-526.2925497514402
 30
0.0
 11
-1691.387638104455
 21
-526.2925497514402
 31
0.0
  0
LWPOLYLINE
  5
C8
330
1F
100
AcDbEntity
  8
0-B_寸法
  6
Continuous
 62
     7
370
     9
100
AcDbPolyline
 90
        4
 70
     1
 43
2.0
 10
-1690.387638104455
 20
-526.2925497514402
 42
0.4142135623731
 10
-1691.387638104455
 20
-525.2925497514402
 42
0.4142135623731
 10
-1692.387638104455
 20
-526.2925497514402
 42
0.4142135623731
 10
-1691.387638104455
 20
-527.2925497514402
 42
0.4142135623731
  0
LINE
  5
C9
330
1F
100
AcDbEntity
  8
0-B_寸法
  6
Continuous
 62
   120
370
     5
100
AcDbLine
 10
-1691.387638104455
 20
-526.2925497514402
 30
0.0
 11
-1691.387638104455
 21
-626.2925497514404
 31
0.0
  0
MTEXT
  5
CA
330
1F
100
AcDbEntity
  8
0-B_寸法
  6
Continuous
 62
     7
370
   211
100
AcDbMText
 10
-1707.387638104454
 20
-523.4325497514402
 30
0.0
 40
45.72
 41
30.0
 46
0.0
 71
     7
 72
     1
  1
{\fＭＳ ゴシック|b0|i0|c128|p49;2}
 73
     1
 44
1.0
  0
MTEXT
  5
CB
330
1F
100
AcDbEntity
  8
0-B_寸法
  6
Continuous
 62
     7
370
   211
100
AcDbMText
 10
-2423.387638104455
 20
-523.4325497514402
 30
0.0
 40
45.71999999999999
 41
270.0
 46
0.0
 71
     7
 72
     1
  1
{\fＭＳ ゴシック|b0|i0|c128|p49;ＤＷ＝394}
 73
     1
 44
1.0
  0
MTEXT
  5
CC
330
1F
100
AcDbEntity
  8
0-B_寸法
  6
Continuous
 62
     7
370
   211
100
AcDbMText
 10
-2025.387638104455
 20
-523.4325497514402
 30
0.0
 40
45.71999999999999
 41
270.0
 46
0.0
 71
     7
 72
     1
  1
{\fＭＳ ゴシック|b0|i0|c128|p49;ＤＷ＝394}
 73
     1
 44
1.0
  0
LINE
  5
CD
330
1F
100
AcDbEntity
  8
0-0_補助線
  6
JWW_HOJO
 62
   120
370
     5
100
AcDbLine
 10
-2637.387638104454
 20
-526.2925497514402
 30
0.0
 11
-1541.387638104455
 21
-526.2925497514402
 31
0.0
  0
LINE
  5
CE
330
1F
100
AcDbEntity
  8
0-0_補助線
  6
JWW_HOJO
 62
   120
370
     5
100
AcDbLine
 10
-2637.387638104454
 20
-626.2925497514404
 30
0.0
 11
-1541.387638104455
 21
-626.2925497514404
 31
0.0
  0
LINE
  5
CF
330
1F
100
AcDbEntity
  8
0-0_補助線
  6
JWW_HOJO
 62
   120
370
     5
100
AcDbLine
 10
-2637.387638104454
 20
-426.2925497514402
 30
0.0
 11
-1541.387638104455
 21
-426.2925497514402
 31
0.0
  0
LINE
  5
D0
330
1F
100
AcDbEntity
  8
0-0_補助線
  6
JWW_HOJO
 62
   120
370
     5
100
AcDbLine
 10
-2637.387638104454
 20
-426.2925497514402
 30
0.0
 11
-2637.387638104454
 21
-1863.79254975144
 31
0.0
  0
LINE
  5
D1
330
1F
100
AcDbEntity
  8
0-0_補助線
  6
JWW_HOJO
 62
   120
370
     5
100
AcDbLine
 10
-1541.387638104455
 20
-1863.79254975144
 30
0.0
 11
-1541.387638104455
 21
-426.2925497514402
 31
0.0
  0
LINE
  5
D2
330
1F
100
AcDbEntity
  8
0-0_補助線
  6
JWW_HOJO
 62
   120
370
     5
100
AcDbLine
 10
-1641.387638104455
 20
-1863.79254975144
 30
0.0
 11
-1641.387638104455
 21
-426.2925497514402
 31
0.0
  0
LINE
  5
D3
330
1F
100
AcDbEntity
  8
0-0_補助線
  6
JWW_HOJO
 62
   120
370
     5
100
AcDbLine
 10
-2537.387638104454
 20
-426.2925497514402
 30
0.0
 11
-2537.387638104454
 21
-1863.79254975144
 31
0.0
  0
LINE
  5
D4
330
1F
100
AcDbEntity
  8
0-0_補助線
  6
JWW_HOJO
 62
     7
370
     9
100
AcDbLine
 10
-1691.387638104455
 20
-1863.79254975144
 30
0.0
 11
-1691.387638104455
 21
-426.2925497514402
 31
0.0
  0
LINE
  5
D5
330
1F
100
AcDbEntity
  8
0-0_補助線
  6
JWW_HOJO
 62
     7
370
     9
100
AcDbLine
 10
-2487.387638104454
 20
-426.2925497514402
 30
0.0
 11
-2487.387638104454
 21
-1863.79254975144
 31
0.0
  0
LINE
  5
D6
330
1F
100
AcDbEntity
  8
0-4_棚
  6
Continuous
 62
    92
370
    13
100
AcDbLine
 10
-2488.387638104454
 20
-708.2925497514409
 30
0.0
 11
-1690.387638104454
 21
-708.2925497514409
 31
0.0
  0
LINE
  5
D7
330
1F
100
AcDbEntity
  8
0-4_棚
  6
Continuous
 62
    92
370
    13
100
AcDbLine
 10
-1690.387638104454
 20
-708.2925497514409
 30
0.0
 11
-1690.387638104454
 21
-678.2925497514409
 31
0.0
  0
LINE
  5
D8
330
1F
100
AcDbEntity
  8
0-4_棚
  6
Continuous
 62
    92
370
    13
100
AcDbLine
 10
-1690.387638104454
 20
-678.2925497514409
 30
0.0
 11
-2488.387638104454
 21
-678.2925497514409
 31
0.0
  0
LINE
  5
D9
330
1F
100
AcDbEntity
  8
0-4_棚
  6
Continuous
 62
    92
370
    13
100
AcDbLine
 10
-2488.387638104454
 20
-678.2925497514409
 30
0.0
 11
-2488.387638104454
 21
-708.2925497514409
 31
0.0
  0
LINE
  5
DA
330
1F
100
AcDbEntity
  8
0-B_寸法
  6
Continuous
 62
   120
370
     5
100
AcDbLine
 10
-2637.387638104454
 20
-708.2925497514409
 30
0.0
 11
-2637.387638104454
 21
-678.2925497514409
 31
0.0
  0
LWPOLYLINE
  5
DB
330
1F
100
AcDbEntity
  8
0-B_寸法
  6
Continuous
 62
     7
370
     9
100
AcDbPolyline
 90
        4
 70
     1
 43
2.0
 10
-2636.387638104454
 20
-678.2925497514409
 42
0.4142135623731
 10
-2637.387638104454
 20
-677.292549751441
 42
0.4142135623731
 10
-2638.387638104454
 20
-678.2925497514409
 42
0.4142135623731
 10
-2637.387638104454
 20
-679.2925497514409
 42
0.4142135623731
  0
LINE
  5
DC
330
1F
100
AcDbEntity
  8
0-B_寸法
  6
Continuous
 62
   120
370
     5
100
AcDbLine
 10
-2737.387638104453
 20
-678.2925497514409
 30
0.0
 11
-2537.387638104453
 21
-678.2925497514409
 31
0.0
  0
MTEXT
  5
DD
330
1F
100
AcDbEntity
  8
0-B_寸法
  6
Continuous
 62
     7
370
   211
100
AcDbMText
 10
-2647.387638104454
 20
-680.4325497514407
 30
0.0
 40
45.72
 41
60.0
 46
0.0
 71
     7
 72
     1
  1
{\fＭＳ ゴシック|b0|i0|c128|p49;30}
 11
6.123031769111886E-17
 21
1.0
 31
0.0
 73
     1
 44
1.0
  0
LINE
  5
DE
330
1F
100
AcDbEntity
  8
0-3_扉仕上
  6
JWW_CENTER1
 62
     7
370
     9
100
AcDbLine
 10
-2087.387638104452
 20
-711.2925299562556
 30
0.0
 11
-1693.387638104454
 21
-1088.792539853848
 31
0.0
  0
LINE
  5
DF
330
1F
100
AcDbEntity
  8
0-3_扉仕上
  6
JWW_CENTER1
 62
     7
370
     9
100
AcDbLine
 10
-1693.387638104454
 20
-1088.792539853848
 30
0.0
 11
-2087.387638104452
 21
-1466.292549751441
 31
0.0
  0
LINE
  5
E0
330
1F
100
AcDbEntity
  8
0-3_扉仕上
  6
JWW_CENTER1
 62
     7
370
     9
100
AcDbLine
 10
-2091.387638104457
 20
-711.2925299562556
 30
0.0
 11
-2485.387638104455
 21
-1088.792539853848
 31
0.0
  0
LINE
  5
E1
330
1F
100
AcDbEntity
  8
0-3_扉仕上
  6
JWW_CENTER1
 62
     7
370
     9
100
AcDbLine
 10
-2485.387638104455
 20
-1088.792539853848
 30
0.0
 11
-2091.387638104457
 21
-1466.292549751441
 31
0.0
  0
LINE
  5
E2
330
1F
100
AcDbEntity
  8
0-1_本体
  6
Continuous
 62
     7
370
     9
100
AcDbLine
 10
-2487.387638104455
 20
699.7074502485583
 30
0.0
 11
-1691.387638104455
 21
699.7074502485583
 31
0.0
  0
LINE
  5
E3
330
1F
100
AcDbEntity
  8
0-1_本体
  6
Continuous
 62
     7
370
     9
100
AcDbLine
 10
-1691.387638104455
 20
699.7074502485583
 30
0.0
 11
-1691.387638104455
 21
130.7074502485574
 31
0.0
  0
LINE
  5
E4
330
1F
100
AcDbEntity
  8
0-1_本体
  6
Continuous
 62
     7
370
     9
100
AcDbLine
 10
-1691.387638104455
 20
130.7074502485574
 30
0.0
 11
-2487.387638104455
 21
130.7074502485574
 31
0.0
  0
LINE
  5
E5
330
1F
100
AcDbEntity
  8
0-1_本体
  6
Continuous
 62
     7
370
     9
100
AcDbLine
 10
-2487.387638104455
 20
130.7074502485574
 30
0.0
 11
-2487.387638104455
 21
699.7074502485583
 31
0.0
  0
LINE
  5
E6
330
1F
100
AcDbEntity
  8
0-2_扉
  6
Continuous
 62
    92
370
    13
100
AcDbLine
 10
-2087.387638104455
 20
696.7074502485582
 30
0.0
 11
-2087.387638104455
 21
133.7074502485581
 31
0.0
  0
LINE
  5
E7
330
1F
100
AcDbEntity
  8
0-2_扉
  6
Continuous
 62
    92
370
    13
100
AcDbLine
 10
-2091.387638104456
 20
696.7074502485582
 30
0.0
 11
-2091.387638104456
 21
133.7074502485581
 31
0.0
  0
LINE
  5
E8
330
1F
100
AcDbEntity
  8
0-2_扉
  6
Continuous
 62
    92
370
    13
100
AcDbLine
 10
-2087.387638104455
 20
133.7074502485581
 30
0.0
 11
-1693.387638104454
 21
133.7074502485581
 31
0.0
  0
LINE
  5
E9
330
1F
100
AcDbEntity
  8
0-2_扉
  6
Continuous
 62
    92
370
    13
100
AcDbLine
 10
-2087.387638104455
 20
696.7074502485582
 30
0.0
 11
-1693.387638104454
 21
696.7074502485582
 31
0.0
  0
LINE
  5
EA
330
1F
100
AcDbEntity
  8
0-2_扉
  6
Continuous
 62
    92
370
    13
100
AcDbLine
 10
-1693.387638104454
 20
133.7074502485581
 30
0.0
 11
-1693.387638104454
 21
696.7074502485582
 31
0.0
  0
LINE
  5
EB
330
1F
100
AcDbEntity
  8
0-2_扉
  6
Continuous
 62
    92
370
    13
100
AcDbLine
 10
-2091.387638104456
 20
696.7074502485582
 30
0.0
 11
-2485.387638104454
 21
696.7074502485582
 31
0.0
  0
LINE
  5
EC
330
1F
100
AcDbEntity
  8
0-2_扉
  6
Continuous
 62
    92
370
    13
100
AcDbLine
 10
-2091.387638104456
 20
133.7074502485581
 30
0.0
 11
-2485.387638104454
 21
133.7074502485581
 31
0.0
  0
LINE
  5
ED
330
1F
100
AcDbEntity
  8
0-2_扉
  6
Continuous
 62
    92
370
    13
100
AcDbLine
 10
-2485.387638104454
 20
696.7074502485582
 30
0.0
 11
-2485.387638104454
 21
133.7074502485581
 31
0.0
  0
LINE
  5
EE
330
1F
100
AcDbEntity
  8
0-B_寸法
  6
Continuous
 62
   120
370
     5
100
AcDbLine
 10
-2487.387638104455
 20
849.7074502485583
 30
0.0
 11
-2485.387638104454
 21
849.7074502485583
 31
0.0
  0
LWPOLYLINE
  5
EF
330
1F
100
AcDbEntity
  8
0-B_寸法
  6
Continuous
 62
     7
370
     9
100
AcDbPolyline
 90
        4
 70
     1
 43
2.0
 10
-2486.387638104455
 20
849.7074502485583
 42
0.4142135623731
 10
-2487.387638104455
 20
850.7074502485582
 42
0.4142135623731
 10
-2488.387638104454
 20
849.7074502485583
 42
0.4142135623731
 10
-2487.387638104455
 20
848.7074502485584
 42
0.4142135623731
  0
LWPOLYLINE
  5
F0
330
1F
100
AcDbEntity
  8
0-B_寸法
  6
Continuous
 62
     7
370
     9
100
AcDbPolyline
 90
        4
 70
     1
 43
2.0
 10
-2484.387638104454
 20
849.7074502485583
 42
0.4142135623731
 10
-2485.387638104454
 20
850.7074502485582
 42
0.4142135623731
 10
-2486.387638104454
 20
849.7074502485583
 42
0.4142135623731
 10
-2485.387638104454
 20
848.7074502485584
 42
0.4142135623731
  0
LINE
  5
F1
330
1F
100
AcDbEntity
  8
0-B_寸法
  6
Continuous
 62
   120
370
     5
100
AcDbLine
 10
-2487.387638104455
 20
849.7074502485583
 30
0.0
 11
-2487.387638104455
 21
749.7074502485583
 31
0.0
  0
LINE
  5
F2
330
1F
100
AcDbEntity
  8
0-B_寸法
  6
Continuous
 62
   120
370
     5
100
AcDbLine
 10
-2485.387638104454
 20
849.7074502485583
 30
0.0
 11
-2485.387638104454
 21
749.7074502485583
 31
0.0
  0
MTEXT
  5
F3
330
1F
100
AcDbEntity
  8
0-B_寸法
  6
Continuous
 62
     7
370
   211
100
AcDbMText
 10
-2501.387638104455
 20
852.5674502485583
 30
0.0
 40
45.72
 41
30.0
 46
0.0
 71
     7
 72
     1
  1
{\fＭＳ ゴシック|b0|i0|c128|p49;2}
 73
     1
 44
1.0
  0
LINE
  5
F4
330
1F
100
AcDbEntity
  8
0-B_寸法
  6
Continuous
 62
   120
370
     5
100
AcDbLine
 10
-2485.387638104454
 20
849.7074502485583
 30
0.0
 11
-2091.387638104456
 21
849.7074502485583
 31
0.0
  0
LWPOLYLINE
  5
F5
330
1F
100
AcDbEntity
  8
0-B_寸法
  6
Continuous
 62
     7
370
     9
100
AcDbPolyline
 90
        4
 70
     1
 43
2.0
 10
-2090.387638104456
 20
849.7074502485583
 42
0.4142135623731
 10
-2091.387638104456
 20
850.7074502485582
 42
0.4142135623731
 10
-2092.387638104455
 20
849.7074502485583
 42
0.4142135623731
 10
-2091.387638104456
 20
848.7074502485584
 42
0.4142135623731
  0
LINE
  5
F6
330
1F
100
AcDbEntity
  8
0-B_寸法
  6
Continuous
 62
   120
370
     5
100
AcDbLine
 10
-2091.387638104456
 20
849.7074502485583
 30
0.0
 11
-2091.387638104456
 21
749.7074502485583
 31
0.0
  0
LINE
  5
F7
330
1F
100
AcDbEntity
  8
0-B_寸法
  6
Continuous
 62
   120
370
     5
100
AcDbLine
 10
-2091.387638104456
 20
849.7074502485583
 30
0.0
 11
-2087.387638104455
 21
849.7074502485583
 31
0.0
  0
LWPOLYLINE
  5
F8
330
1F
100
AcDbEntity
  8
0-B_寸法
  6
Continuous
 62
     7
370
     9
100
AcDbPolyline
 90
        4
 70
     1
 43
2.0
 10
-2086.387638104455
 20
849.7074502485583
 42
0.4142135623731
 10
-2087.387638104455
 20
850.7074502485582
 42
0.4142135623731
 10
-2088.387638104454
 20
849.7074502485583
 42
0.4142135623731
 10
-2087.387638104455
 20
848.7074502485584
 42
0.4142135623731
  0
LINE
  5
F9
330
1F
100
AcDbEntity
  8
0-B_寸法
  6
Continuous
 62
   120
370
     5
100
AcDbLine
 10
-2087.387638104455
 20
849.7074502485583
 30
0.0
 11
-2087.387638104455
 21
749.7074502485583
 31
0.0
  0
MTEXT
  5
FA
330
1F
100
AcDbEntity
  8
0-B_寸法
  6
Continuous
 62
     7
370
   211
100
AcDbMText
 10
-2104.387638104456
 20
852.5674502485583
 30
0.0
 40
45.72
 41
30.0
 46
0.0
 71
     7
 72
     1
  1
{\fＭＳ ゴシック|b0|i0|c128|p49;4}
 73
     1
 44
1.0
  0
LINE
  5
FB
330
1F
100
AcDbEntity
  8
0-B_寸法
  6
Continuous
 62
   120
370
     5
100
AcDbLine
 10
-2087.387638104455
 20
849.7074502485583
 30
0.0
 11
-1693.387638104454
 21
849.7074502485583
 31
0.0
  0
LWPOLYLINE
  5
FC
330
1F
100
AcDbEntity
  8
0-B_寸法
  6
Continuous
 62
     7
370
     9
100
AcDbPolyline
 90
        4
 70
     1
 43
2.0
 10
-1692.387638104454
 20
849.7074502485583
 42
0.4142135623731
 10
-1693.387638104454
 20
850.7074502485582
 42
0.4142135623731
 10
-1694.387638104454
 20
849.7074502485583
 42
0.4142135623731
 10
-1693.387638104454
 20
848.7074502485584
 42
0.4142135623731
  0
LINE
  5
FD
330
1F
100
AcDbEntity
  8
0-B_寸法
  6
Continuous
 62
   120
370
     5
100
AcDbLine
 10
-1693.387638104454
 20
849.7074502485583
 30
0.0
 11
-1693.387638104454
 21
749.7074502485583
 31
0.0
  0
LINE
  5
FE
330
1F
100
AcDbEntity
  8
0-B_寸法
  6
Continuous
 62
   120
370
     5
100
AcDbLine
 10
-1693.387638104454
 20
849.7074502485583
 30
0.0
 11
-1691.387638104455
 21
849.7074502485583
 31
0.0
  0
LWPOLYLINE
  5
FF
330
1F
100
AcDbEntity
  8
0-B_寸法
  6
Continuous
 62
     7
370
     9
100
AcDbPolyline
 90
        4
 70
     1
 43
2.0
 10
-1690.387638104455
 20
849.7074502485583
 42
0.4142135623731
 10
-1691.387638104455
 20
850.7074502485582
 42
0.4142135623731
 10
-1692.387638104455
 20
849.7074502485583
 42
0.4142135623731
 10
-1691.387638104455
 20
848.7074502485584
 42
0.4142135623731
  0
LINE
  5
100
330
1F
100
AcDbEntity
  8
0-B_寸法
  6
Continuous
 62
   120
370
     5
100
AcDbLine
 10
-1691.387638104455
 20
849.7074502485583
 30
0.0
 11
-1691.387638104455
 21
749.7074502485583
 31
0.0
  0
MTEXT
  5
101
330
1F
100
AcDbEntity
  8
0-B_寸法
  6
Continuous
 62
     7
370
   211
100
AcDbMText
 10
-1707.387638104454
 20
852.5674502485583
 30
0.0
 40
45.72
 41
30.0
 46
0.0
 71
     7
 72
     1
  1
{\fＭＳ ゴシック|b0|i0|c128|p49;2}
 73
     1
 44
1.0
  0
MTEXT
  5
102
330
1F
100
AcDbEntity
  8
0-B_寸法
  6
Continuous
 62
     7
370
   211
100
AcDbMText
 10
-2423.387638104455
 20
852.5674502485583
 30
0.0
 40
45.71999999999999
 41
270.0
 46
0.0
 71
     7
 72
     1
  1
{\fＭＳ ゴシック|b0|i0|c128|p49;ＤＷ＝394}
 73
     1
 44
1.0
  0
MTEXT
  5
103
330
1F
100
AcDbEntity
  8
0-B_寸法
  6
Continuous
 62
     7
370
   211
100
AcDbMText
 10
-2025.387638104454
 20
852.5674502485583
 30
0.0
 40
45.71999999999999
 41
270.0
 46
0.0
 71
     7
 72
     1
  1
{\fＭＳ ゴシック|b0|i0|c128|p49;ＤＷ＝394}
 73
     1
 44
1.0
  0
LINE
  5
104
330
1F
100
AcDbEntity
  8
0-B_寸法
  6
Continuous
 62
   120
370
     5
100
AcDbLine
 10
-2637.387638104455
 20
130.707450248558
 30
0.0
 11
-2637.387638104455
 21
133.7074502485581
 31
0.0
  0
LWPOLYLINE
  5
105
330
1F
100
AcDbEntity
  8
0-B_寸法
  6
Continuous
 62
     7
370
     9
100
AcDbPolyline
 90
        4
 70
     1
 43
2.0
 10
-2636.387638104454
 20
130.707450248558
 42
0.4142135623731
 10
-2637.387638104455
 20
131.707450248558
 42
0.4142135623731
 10
-2638.387638104455
 20
130.707450248558
 42
0.4142135623731
 10
-2637.387638104455
 20
129.707450248558
 42
0.4142135623731
  0
LWPOLYLINE
  5
106
330
1F
100
AcDbEntity
  8
0-B_寸法
  6
Continuous
 62
     7
370
     9
100
AcDbPolyline
 90
        4
 70
     1
 43
2.0
 10
-2636.387638104454
 20
133.7074502485581
 42
0.4142135623731
 10
-2637.387638104455
 20
134.7074502485581
 42
0.4142135623731
 10
-2638.387638104455
 20
133.7074502485581
 42
0.4142135623731
 10
-2637.387638104455
 20
132.7074502485581
 42
0.4142135623731
  0
LINE
  5
107
330
1F
100
AcDbEntity
  8
0-B_寸法
  6
Continuous
 62
   120
370
     5
100
AcDbLine
 10
-2737.387638104453
 20
130.707450248558
 30
0.0
 11
-2537.387638104453
 21
130.707450248558
 31
0.0
  0
LINE
  5
108
330
1F
100
AcDbEntity
  8
0-B_寸法
  6
Continuous
 62
   120
370
     5
100
AcDbLine
 10
-2637.387638104455
 20
133.7074502485581
 30
0.0
 11
-2537.387638104455
 21
133.7074502485581
 31
0.0
  0
LINE
  5
109
330
1F
100
AcDbEntity
  8
0-B_寸法
  6
Continuous
 62
   120
370
     5
100
AcDbLine
 10
-2637.387638104455
 20
133.7074502485581
 30
0.0
 11
-2637.387638104455
 21
696.7074502485582
 31
0.0
  0
LWPOLYLINE
  5
10A
330
1F
100
AcDbEntity
  8
0-B_寸法
  6
Continuous
 62
     7
370
     9
100
AcDbPolyline
 90
        4
 70
     1
 43
2.0
 10
-2636.387638104454
 20
696.7074502485582
 42
0.4142135623731
 10
-2637.387638104455
 20
697.7074502485582
 42
0.4142135623731
 10
-2638.387638104455
 20
696.7074502485582
 42
0.4142135623731
 10
-2637.387638104455
 20
695.7074502485582
 42
0.4142135623731
  0
LINE
  5
10B
330
1F
100
AcDbEntity
  8
0-B_寸法
  6
Continuous
 62
   120
370
     5
100
AcDbLine
 10
-2637.387638104455
 20
696.7074502485582
 30
0.0
 11
-2537.387638104455
 21
696.7074502485582
 31
0.0
  0
LINE
  5
10C
330
1F
100
AcDbEntity
  8
0-B_寸法
  6
Continuous
 62
   120
370
     5
100
AcDbLine
 10
-2637.387638104455
 20
696.7074502485582
 30
0.0
 11
-2637.387638104455
 21
699.7074502485583
 31
0.0
  0
LWPOLYLINE
  5
10D
330
1F
100
AcDbEntity
  8
0-B_寸法
  6
Continuous
 62
     7
370
     9
100
AcDbPolyline
 90
        4
 70
     1
 43
2.0
 10
-2636.387638104454
 20
699.7074502485583
 42
0.4142135623731
 10
-2637.387638104455
 20
700.7074502485582
 42
0.4142135623731
 10
-2638.387638104455
 20
699.7074502485583
 42
0.4142135623731
 10
-2637.387638104455
 20
698.7074502485584
 42
0.4142135623731
  0
LINE
  5
10E
330
1F
100
AcDbEntity
  8
0-B_寸法
  6
Continuous
 62
   120
370
     5
100
AcDbLine
 10
-2837.387638104453
 20
699.7074502485583
 30
0.0
 11
-2537.387638104453
 21
699.7074502485583
 31
0.0
  0
MTEXT
  5
10F
330
1F
100
AcDbEntity
  8
0-B_寸法
  6
Continuous
 62
     7
370
   211
100
AcDbMText
 10
-2647.387638104455
 20
273.0674502485579
 30
0.0
 40
45.71999999999999
 41
270.0
 46
0.0
 71
     7
 72
     1
  1
{\fＭＳ ゴシック|b0|i0|c128|p49;ＤＨ＝563}
 11
6.123031769111886E-17
 21
1.0
 31
0.0
 73
     1
 44
1.0
  0
MTEXT
  5
110
330
1F
100
AcDbEntity
  8
0-B_寸法
  6
Continuous
 62
     7
370
   211
100
AcDbMText
 10
-2647.387638104455
 20
657.0878019423765
 30
0.0
 40
45.72
 41
30.0
 46
0.0
 71
     7
 72
     1
  1
{\fＭＳ ゴシック|b0|i0|c128|p49;3}
 11
6.123031769111886E-17
 21
1.0
 31
0.0
 73
     1
 44
1.0
  0
MTEXT
  5
111
330
1F
100
AcDbEntity
  8
0-B_寸法
  6
Continuous
 62
     7
370
   211
100
AcDbMText
 10
-2647.387638104455
 20
128.0820464834773
 30
0.0
 40
45.72
 41
30.0
 46
0.0
 71
     7
 72
     1
  1
{\fＭＳ ゴシック|b0|i0|c128|p49;3}
 11
6.123031769111886E-17
 21
1.0
 31
0.0
 73
     1
 44
1.0
  0
LINE
  5
112
330
1F
100
AcDbEntity
  8
0-0_補助線
  6
JWW_HOJO
 62
   120
370
     5
100
AcDbLine
 10
-2637.387638104455
 20
130.7074502485574
 30
0.0
 11
-2637.387638104455
 21
849.7074502485583
 31
0.0
  0
LINE
  5
113
330
1F
100
AcDbEntity
  8
0-0_補助線
  6
JWW_HOJO
 62
   120
370
     5
100
AcDbLine
 10
-1643.387638104454
 20
130.7074502485574
 30
0.0
 11
-1643.387638104454
 21
849.7074502485583
 31
0.0
  0
LINE
  5
114
330
1F
100
AcDbEntity
  8
0-0_補助線
  6
JWW_HOJO
 62
   120
370
     5
100
AcDbLine
 10
-2537.387638104455
 20
130.7074502485574
 30
0.0
 11
-2537.387638104455
 21
849.7074502485583
 31
0.0
  0
LINE
  5
115
330
1F
100
AcDbEntity
  8
0-0_補助線
  6
JWW_HOJO
 62
     7
370
     9
100
AcDbLine
 10
-2487.387638104454
 20
130.7074502485574
 30
0.0
 11
-2487.387638104454
 21
849.7074502485583
 31
0.0
  0
LINE
  5
116
330
1F
100
AcDbEntity
  8
0-0_補助線
  6
JWW_HOJO
 62
     7
370
     9
100
AcDbLine
 10
-1691.387638104455
 20
130.7074502485574
 30
0.0
 11
-1691.387638104455
 21
849.7074502485583
 31
0.0
  0
LINE
  5
117
330
1F
100
AcDbEntity
  8
0-0_補助線
  6
JWW_HOJO
 62
   120
370
     5
100
AcDbLine
 10
-2637.387638104455
 20
849.7074502485583
 30
0.0
 11
-1643.387638104454
 21
849.7074502485583
 31
0.0
  0
LINE
  5
118
330
1F
100
AcDbEntity
  8
0-3_扉仕上
  6
JWW_CENTER1
 62
     7
370
     9
100
AcDbLine
 10
-2087.387638104452
 20
696.7074502485582
 30
0.0
 11
-1693.387638104454
 21
415.2074502485578
 31
0.0
  0
LINE
  5
119
330
1F
100
AcDbEntity
  8
0-3_扉仕上
  6
JWW_CENTER1
 62
     7
370
     9
100
AcDbLine
 10
-1693.387638104454
 20
415.2074502485578
 30
0.0
 11
-2087.387638104452
 21
133.7074502485581
 31
0.0
  0
LINE
  5
11A
330
1F
100
AcDbEntity
  8
0-3_扉仕上
  6
JWW_CENTER1
 62
     7
370
     9
100
AcDbLine
 10
-2091.387638104457
 20
696.7074502485582
 30
0.0
 11
-2485.387638104457
 21
415.2074502485578
 31
0.0
  0
LINE
  5
11B
330
1F
100
AcDbEntity
  8
0-3_扉仕上
  6
JWW_CENTER1
 62
     7
370
     9
100
AcDbLine
 10
-2485.387638104457
 20
415.2074502485578
 30
0.0
 11
-2091.387638104457
 21
133.7074502485581
 31
0.0
  0
MTEXT
  5
11C
330
1F
100
AcDbEntity
  8
0-B_寸法
  6
Continuous
 62
     7
370
   211
100
AcDbMText
 10
-143.3876381044558
 20
-523.4325497514402
 30
0.0
 40
45.71999999999999
 41
300.0
 46
0.0
 71
     7
 72
     1
  1
{\fＭＳ ゴシック|b0|i0|c128|p49;ｶｳﾝﾀｰ＝798}
 73
     1
 44
1.0
  0
MTEXT
  5
11D
330
1F
100
AcDbEntity
  8
0-A_文字
  6
Continuous
 62
     7
370
     9
100
AcDbMText
 10
-298.3876381044568
 20
-2076.645883084774
 30
0.0
 40
103.2933333333334
 41
610.0
 46
0.0
 71
     7
 72
     1
  1
{\fＭＳ ゴシック|b0|i0|c128|p49;ｷｬﾋﾞﾈｯﾄ図}
 73
     1
 44
1.0
  0
LINE
  5
11E
330
1F
100
AcDbEntity
  8
0-A_文字
  6
Continuous
 62
     7
370
     9
100
AcDbLine
 10
-418.3876381044567
 20
-1933.292549751441
 30
0.0
 11
431.6123618955433
 21
-1933.292549751441
 31
0.0
  0
LINE
  5
11F
330
1F
100
AcDbEntity
  8
0-A_文字
  6
Continuous
 62
     7
370
     9
100
AcDbLine
 10
431.6123618955433
 20
-1933.292549751441
 30
0.0
 11
431.6123618955433
 21
-2083.292549751441
 31
0.0
  0
LINE
  5
120
330
1F
100
AcDbEntity
  8
0-A_文字
  6
Continuous
 62
     7
370
     9
100
AcDbLine
 10
431.6123618955433
 20
-2083.292549751441
 30
0.0
 11
-418.3876381044567
 21
-2083.292549751441
 31
0.0
  0
LINE
  5
121
330
1F
100
AcDbEntity
  8
0-A_文字
  6
Continuous
 62
     7
370
     9
100
AcDbLine
 10
-418.3876381044567
 20
-2083.292549751441
 30
0.0
 11
-418.3876381044567
 21
-1933.292549751441
 31
0.0
  0
LINE
  5
122
330
1F
100
AcDbEntity
  8
0-B_寸法
  6
Continuous
 62
   120
370
     5
100
AcDbLine
 10
-641.3876381044587
 20
-1533.292549751441
 30
0.0
 11
-441.3876381044585
 21
-1533.292549751441
 31
0.0
  0
LINE
  5
123
330
1F
100
AcDbEntity
  8
0-B_寸法
  6
Continuous
 62
   120
370
     5
100
AcDbLine
 10
-641.3876381044587
 20
-1469.292549751441
 30
0.0
 11
-441.3876381044585
 21
-1469.292549751441
 31
0.0
  0
LWPOLYLINE
  5
124
330
1F
100
AcDbEntity
  8
0-B_寸法
  6
Continuous
 62
     7
370
     9
100
AcDbPolyline
 90
        4
 70
     1
 43
2.0
 10
-640.3876381044587
 20
-1533.292549751441
 42
0.4142135623731
 10
-641.3876381044587
 20
-1532.292549751441
 42
0.4142135623731
 10
-642.3876381044586
 20
-1533.292549751441
 42
0.4142135623731
 10
-641.3876381044587
 20
-1534.292549751441
 42
0.4142135623731
  0
LWPOLYLINE
  5
125
330
1F
100
AcDbEntity
  8
0-B_寸法
  6
Continuous
 62
     7
370
     9
100
AcDbPolyline
 90
        4
 70
     1
 43
2.0
 10
-640.3876381044587
 20
-1469.292549751441
 42
0.4142135623731
 10
-641.3876381044587
 20
-1468.292549751441
 42
0.4142135623731
 10
-642.3876381044586
 20
-1469.292549751441
 42
0.4142135623731
 10
-641.3876381044587
 20
-1470.292549751441
 42
0.4142135623731
  0
LINE
  5
126
330
1F
100
AcDbEntity
  8
0-B_寸法
  6
Continuous
 62
   120
370
     5
100
AcDbLine
 10
-641.3876381044587
 20
-1469.292549751441
 30
0.0
 11
-641.3876381044587
 21
-1533.292549751441
 31
0.0
  0
MTEXT
  5
127
330
1F
100
AcDbEntity
  8
0-B_寸法
  6
Continuous
 62
     7
370
   211
100
AcDbMText
 10
-651.3876381044587
 20
-1538.432549751441
 30
0.0
 40
45.72
 41
60.0
 46
0.0
 71
     7
 72
     1
  1
{\fＭＳ ゴシック|b0|i0|c128|p49;64}
 11
6.123031769111886E-17
 21
1.0
 31
0.0
 73
     1
 44
1.0
  0
LWPOLYLINE
  5
128
330
1F
100
AcDbEntity
  8
0-B_寸法
  6
Continuous
 62
     7
370
     9
100
AcDbPolyline
 90
        4
 70
     1
 43
2.0
 10
405.612361895544
 20
-1783.292549751441
 42
0.4142135623731
 10
404.612361895544
 20
-1782.292549751441
 42
0.4142135623731
 10
403.612361895544
 20
-1783.292549751441
 42
0.4142135623731
 10
404.612361895544
 20
-1784.292549751441
 42
0.4142135623731
  0
LWPOLYLINE
  5
129
330
1F
100
AcDbEntity
  8
0-B_寸法
  6
Continuous
 62
     7
370
     9
100
AcDbPolyline
 90
        4
 70
     1
 43
2.0
 10
-390.3876381044585
 20
-1783.292549751441
 42
0.4142135623731
 10
-391.3876381044585
 20
-1782.292549751441
 42
0.4142135623731
 10
-392.3876381044585
 20
-1783.292549751441
 42
0.4142135623731
 10
-391.3876381044585
 20
-1784.292549751441
 42
0.4142135623731
  0
LINE
  5
12A
330
1F
100
AcDbEntity
  8
0-B_寸法
  6
Continuous
 62
   120
370
     5
100
AcDbLine
 10
-391.3876381044585
 20
-1783.292549751441
 30
0.0
 11
404.612361895544
 21
-1783.292549751441
 31
0.0
  0
LINE
  5
12B
330
1F
100
AcDbEntity
  8
0-B_寸法
  6
Continuous
 62
   120
370
     5
100
AcDbLine
 10
404.612361895544
 20
-1783.292549751441
 30
0.0
 11
404.612361895544
 21
-1583.292549751441
 31
0.0
  0
LWPOLYLINE
  5
12C
330
1F
100
AcDbEntity
  8
0-B_寸法
  6
Continuous
 62
     7
370
     9
100
AcDbPolyline
 90
        4
 70
     1
 43
2.0
 10
405.612361895544
 20
-1683.292549751441
 42
0.4142135623731
 10
404.612361895544
 20
-1682.292549751441
 42
0.4142135623731
 10
403.612361895544
 20
-1683.292549751441
 42
0.4142135623731
 10
404.612361895544
 20
-1684.292549751441
 42
0.4142135623731
  0
LINE
  5
12D
330
1F
100
AcDbEntity
  8
0-B_寸法
  6
Continuous
 62
   120
370
     5
100
AcDbLine
 10
389.612361895544
 20
-1683.292549751441
 30
0.0
 11
389.612361895544
 21
-1583.292549751441
 31
0.0
  0
LWPOLYLINE
  5
12E
330
1F
100
AcDbEntity
  8
0-B_寸法
  6
Continuous
 62
     7
370
     9
100
AcDbPolyline
 90
        4
 70
     1
 43
2.0
 10
390.612361895544
 20
-1683.292549751441
 42
0.4142135623731
 10
389.612361895544
 20
-1682.292549751441
 42
0.4142135623731
 10
388.612361895544
 20
-1683.292549751441
 42
0.4142135623731
 10
389.612361895544
 20
-1684.292549751441
 42
0.4142135623731
  0
LINE
  5
12F
330
1F
100
AcDbEntity
  8
0-B_寸法
  6
Continuous
 62
   120
370
     5
100
AcDbLine
 10
-376.3876381044585
 20
-1683.292549751441
 30
0.0
 11
-376.3876381044585
 21
-1583.292549751441
 31
0.0
  0
LINE
  5
130
330
1F
100
AcDbEntity
  8
0-B_寸法
  6
Continuous
 62
   120
370
     5
100
AcDbLine
 10
-391.3876381044585
 20
-1783.292549751441
 30
0.0
 11
-391.3876381044585
 21
-1583.292549751441
 31
0.0
  0
LWPOLYLINE
  5
131
330
1F
100
AcDbEntity
  8
0-B_寸法
  6
Continuous
 62
     7
370
     9
100
AcDbPolyline
 90
        4
 70
     1
 43
2.0
 10
-375.3876381044585
 20
-1683.292549751441
 42
0.4142135623731
 10
-376.3876381044585
 20
-1682.292549751441
 42
0.4142135623731
 10
-377.3876381044585
 20
-1683.292549751441
 42
0.4142135623731
 10
-376.3876381044585
 20
-1684.292549751441
 42
0.4142135623731
  0
LWPOLYLINE
  5
132
330
1F
100
AcDbEntity
  8
0-B_寸法
  6
Continuous
 62
     7
370
     9
100
AcDbPolyline
 90
        4
 70
     1
 43
2.0
 10
-390.3876381044585
 20
-1683.292549751441
 42
0.4142135623731
 10
-391.3876381044585
 20
-1682.292549751441
 42
0.4142135623731
 10
-392.3876381044585
 20
-1683.292549751441
 42
0.4142135623731
 10
-391.3876381044585
 20
-1684.292549751441
 42
0.4142135623731
  0
LINE
  5
133
330
1F
100
AcDbEntity
  8
0-B_寸法
  6
Continuous
 62
   120
370
     5
100
AcDbLine
 10
-391.3876381044585
 20
-1683.292549751441
 30
0.0
 11
404.612361895544
 21
-1683.292549751441
 31
0.0
  0
MTEXT
  5
134
330
1F
100
AcDbEntity
  8
0-B_寸法
  6
Continuous
 62
     7
370
   211
100
AcDbMText
 10
-450.8862242165023
 20
-1680.432549751441
 30
0.0
 40
45.72
 41
60.0
 46
0.0
 71
     7
 72
     1
  1
{\fＭＳ ゴシック|b0|i0|c128|p49;15}
 73
     1
 44
1.0
  0
MTEXT
  5
135
330
1F
100
AcDbEntity
  8
0-B_寸法
  6
Continuous
 62
     7
370
   211
100
AcDbMText
 10
-38.3876381044567
 20
-1680.432549751441
 30
0.0
 40
45.72
 41
90.0
 46
0.0
 71
     7
 72
     1
  1
{\fＭＳ ゴシック|b0|i0|c128|p49;766}
 73
     1
 44
1.0
  0
MTEXT
  5
136
330
1F
100
AcDbEntity
  8
0-B_寸法
  6
Continuous
 62
     7
370
   211
100
AcDbMText
 10
404.2691123706007
 20
-1680.432549751441
 30
0.0
 40
45.72
 41
60.0
 46
0.0
 71
     7
 72
     1
  1
{\fＭＳ ゴシック|b0|i0|c128|p49;15}
 73
     1
 44
1.0
  0
MTEXT
  5
137
330
1F
100
AcDbEntity
  8
0-B_寸法
  6
Continuous
 62
     7
370
   211
100
AcDbMText
 10
-38.3876381044567
 20
-1780.432549751441
 30
0.0
 40
45.72
 41
90.0
 46
0.0
 71
     7
 72
     1
  1
{\fＭＳ ゴシック|b0|i0|c128|p49;796}
 73
     1
 44
1.0
  0
MTEXT
  5
138
330
1F
100
AcDbEntity
  8
0-B_寸法
  6
Continuous
 62
     7
370
   211
100
AcDbMText
 10
-551.3876381044563
 20
-781.9032567207734
 30
0.0
 40
45.72
 41
60.0
 46
0.0
 71
     7
 72
     1
  1
{\fＭＳ ゴシック|b0|i0|c128|p49;15}
 11
6.123031769111886E-17
 21
1.0
 31
0.0
 73
     1
 44
1.0
  0
LINE
  5
139
330
1F
100
AcDbEntity
  8
0-B_寸法
  6
Continuous
 62
   120
370
     5
100
AcDbLine
 10
-641.3876381044564
 20
-1469.292549751441
 30
0.0
 11
-541.3876381044563
 21
-1469.292549751441
 31
0.0
  0
LWPOLYLINE
  5
13A
330
1F
100
AcDbEntity
  8
0-B_寸法
  6
Continuous
 62
     7
370
     9
100
AcDbPolyline
 90
        4
 70
     1
 43
2.0
 10
-640.3876381044564
 20
-1469.292549751441
 42
0.4142135623731
 10
-641.3876381044564
 20
-1468.292549751441
 42
0.4142135623731
 10
-642.3876381044563
 20
-1469.292549751441
 42
0.4142135623731
 10
-641.3876381044564
 20
-1470.292549751441
 42
0.4142135623731
  0
LINE
  5
13B
330
1F
100
AcDbEntity
  8
0-1_本体
  6
Continuous
 62
    92
370
    13
100
AcDbLine
 10
-391.3876381044562
 20
-1469.292549751441
 30
0.0
 11
404.612361895544
 21
-1469.292549751441
 31
0.0
  0
LINE
  5
13C
330
1F
100
AcDbEntity
  8
0-1_本体
  6
Continuous
 62
    92
370
    13
100
AcDbLine
 10
-376.3876381044562
 20
-1454.292549751441
 30
0.0
 11
389.612361895544
 21
-1454.292549751441
 31
0.0
  0
MTEXT
  5
13D
330
1F
100
AcDbEntity
  8
0-B_寸法
  6
Continuous
 62
     7
370
   211
100
AcDbMText
 10
260.3877919950369
 20
-1459.43254975144
 30
0.0
 40
45.72
 41
60.0
 46
0.0
 71
     7
 72
     1
  1
{\fＭＳ ゴシック|b0|i0|c128|p49;64}
 11
6.123031769111886E-17
 21
1.0
 31
0.0
 73
     1
 44
1.0
  0
LINE
  5
13E
330
1F
100
AcDbEntity
  8
0-B_寸法
  6
Continuous
 62
   120
370
     5
100
AcDbLine
 10
270.3877919950369
 20
-1390.292549751441
 30
0.0
 11
267.4034427255677
 21
-1390.292549751441
 31
0.0
  0
LINE
  5
13F
330
1F
100
AcDbEntity
  8
0-B_寸法
  6
Continuous
 62
   120
370
     5
100
AcDbLine
 10
270.3877919950369
 20
-1454.29254975144
 30
0.0
 11
267.4034427255677
 21
-1454.29254975144
 31
0.0
  0
LWPOLYLINE
  5
140
330
1F
100
AcDbEntity
  8
0-B_寸法
  6
Continuous
 62
     7
370
     9
100
AcDbPolyline
 90
        4
 70
     1
 43
2.0
 10
271.3877919950369
 20
-1390.292549751441
 42
0.4142135623731
 10
270.3877919950369
 20
-1389.292549751441
 42
0.4142135623731
 10
269.3877919950369
 20
-1390.292549751441
 42
0.4142135623731
 10
270.3877919950369
 20
-1391.29254975144
 42
0.4142135623731
  0
LWPOLYLINE
  5
141
330
1F
100
AcDbEntity
  8
0-B_寸法
  6
Continuous
 62
     7
370
     9
100
AcDbPolyline
 90
        4
 70
     1
 43
2.0
 10
271.3877919950369
 20
-1454.29254975144
 42
0.4142135623731
 10
270.3877919950369
 20
-1453.29254975144
 42
0.4142135623731
 10
269.3877919950369
 20
-1454.29254975144
 42
0.4142135623731
 10
270.3877919950369
 20
-1455.29254975144
 42
0.4142135623731
  0
LINE
  5
142
330
1F
100
AcDbEntity
  8
0-B_寸法
  6
Continuous
 62
   120
370
     5
100
AcDbLine
 10
270.3877919950369
 20
-1454.29254975144
 30
0.0
 11
270.3877919950369
 21
-1390.292549751441
 31
0.0
  0
LINE
  5
143
330
1F
100
AcDbEntity
  8
0-6_桟木
  6
JWW_DASHED2
 62
     7
370
     9
100
AcDbLine
 10
389.612361895544
 20
-1390.292549751441
 30
0.0
 11
-376.3876381044562
 21
-1390.292549751441
 31
0.0
  0
LINE
  5
144
330
1F
100
AcDbEntity
  8
0-4_棚
  6
Continuous
 62
    92
370
    13
100
AcDbLine
 10
-376.3876381044562
 20
-850.3141586736962
 30
0.0
 11
389.612361895544
 21
-850.3141586736962
 31
0.0
  0
LINE
  5
145
330
1F
100
AcDbEntity
  8
0-4_棚
  6
Continuous
 62
    92
370
    13
100
AcDbLine
 10
-376.3876381044562
 20
-862.3141586736963
 30
0.0
 11
389.612361895544
 21
-862.3141586736963
 31
0.0
  0
LINE
  5
146
330
1F
100
AcDbEntity
  8
0-4_棚
  6
Continuous
 62
    92
370
    13
100
AcDbLine
 10
-376.3876381044562
 20
-1042.314158673697
 30
0.0
 11
389.612361895544
 21
-1042.314158673697
 31
0.0
  0
LINE
  5
147
330
1F
100
AcDbEntity
  8
0-4_棚
  6
Continuous
 62
    92
370
    13
100
AcDbLine
 10
-376.3876381044562
 20
-1054.314158673697
 30
0.0
 11
389.612361895544
 21
-1054.314158673697
 31
0.0
  0
LINE
  5
148
330
1F
100
AcDbEntity
  8
0-4_棚
  6
Continuous
 62
    92
370
    13
100
AcDbLine
 10
-376.3876381044562
 20
-1234.315057717256
 30
0.0
 11
389.612361895544
 21
-1234.315057717256
 31
0.0
  0
LINE
  5
149
330
1F
100
AcDbEntity
  8
0-4_棚
  6
Continuous
 62
    92
370
    13
100
AcDbLine
 10
-376.3876381044562
 20
-1246.315057717256
 30
0.0
 11
389.612361895544
 21
-1246.315057717256
 31
0.0
  0
LINE
  5
14A
330
1F
100
AcDbEntity
  8
0-0_補助線
  6
JWW_HOJO
 62
   120
370
     5
100
AcDbLine
 10
-541.3876381044563
 20
-708.2925497514409
 30
0.0
 11
-541.3876381044563
 21
-1863.79254975144
 31
0.0
  0
LINE
  5
14B
330
1F
100
AcDbEntity
  8
0-B_寸法
  6
Continuous
 62
   120
370
     5
100
AcDbLine
 10
-641.3876381044564
 20
-708.2925497514409
 30
0.0
 11
-441.3876379648397
 21
-708.2925497514401
 31
0.0
  0
LWPOLYLINE
  5
14C
330
1F
100
AcDbEntity
  8
0-B_寸法
  6
Continuous
 62
     7
370
     9
100
AcDbPolyline
 90
        4
 70
     1
 43
2.0
 10
-640.3876381044564
 20
-708.2925497514409
 42
0.4142135623731
 10
-641.3876381044564
 20
-707.292549751441
 42
0.4142135623731
 10
-642.3876381044563
 20
-708.2925497514409
 42
0.4142135623731
 10
-641.3876381044564
 20
-709.2925497514409
 42
0.4142135623731
  0
LINE
  5
14D
330
1F
100
AcDbEntity
  8
0-B_寸法
  6
Continuous
 62
   120
370
     5
100
AcDbLine
 10
-641.3876381044564
 20
-708.2925497514409
 30
0.0
 11
-641.3876381044564
 21
-1469.292549751441
 31
0.0
  0
LINE
  5
14E
330
1F
100
AcDbEntity
  8
0-1_本体
  6
Continuous
 62
    92
370
    13
100
AcDbLine
 10
404.612361895544
 20
-1469.292549751441
 30
0.0
 11
404.612361895544
 21
-708.2925497514409
 31
0.0
  0
LINE
  5
14F
330
1F
100
AcDbEntity
  8
0-1_本体
  6
Continuous
 62
    92
370
    13
100
AcDbLine
 10
-391.3876381044562
 20
-708.2925497514409
 30
0.0
 11
-391.3876381044562
 21
-1469.292549751441
 31
0.0
  0
LINE
  5
150
330
1F
100
AcDbEntity
  8
0-1_本体
  6
Continuous
 62
    92
370
    13
100
AcDbLine
 10
389.612361895544
 20
-1469.292549751441
 30
0.0
 11
389.612361895544
 21
-708.2925497514409
 31
0.0
  0
LINE
  5
151
330
1F
100
AcDbEntity
  8
0-1_本体
  6
Continuous
 62
    92
370
    13
100
AcDbLine
 10
-376.3876381044562
 20
-708.2925497514409
 30
0.0
 11
-376.3876381044562
 21
-1469.292549751441
 31
0.0
  0
MTEXT
  5
152
330
1F
100
AcDbEntity
  8
0-B_寸法
  6
Continuous
 62
     7
370
   211
100
AcDbMText
 10
260.3877919950369
 20
-792.4325497514413
 30
0.0
 40
45.72
 41
60.0
 46
0.0
 71
     7
 72
     1
  1
{\fＭＳ ゴシック|b0|i0|c128|p49;64}
 11
6.123031769111886E-17
 21
1.0
 31
0.0
 73
     1
 44
1.0
  0
LINE
  5
153
330
1F
100
AcDbEntity
  8
0-B_寸法
  6
Continuous
 62
   120
370
     5
100
AcDbLine
 10
270.3877919950369
 20
-723.2925497514412
 30
0.0
 11
267.4034427255677
 21
-723.2925497514412
 31
0.0
  0
LINE
  5
154
330
1F
100
AcDbEntity
  8
0-B_寸法
  6
Continuous
 62
   120
370
     5
100
AcDbLine
 10
270.3877919950369
 20
-787.292549751441
 30
0.0
 11
267.4034427255677
 21
-787.292549751441
 31
0.0
  0
LWPOLYLINE
  5
155
330
1F
100
AcDbEntity
  8
0-B_寸法
  6
Continuous
 62
     7
370
     9
100
AcDbPolyline
 90
        4
 70
     1
 43
2.0
 10
271.3877919950369
 20
-723.2925497514412
 42
0.4142135623731
 10
270.3877919950369
 20
-722.2925497514414
 42
0.4142135623731
 10
269.3877919950369
 20
-723.2925497514412
 42
0.4142135623731
 10
270.3877919950369
 20
-724.2925497514411
 42
0.4142135623731
  0
LWPOLYLINE
  5
156
330
1F
100
AcDbEntity
  8
0-B_寸法
  6
Continuous
 62
     7
370
     9
100
AcDbPolyline
 90
        4
 70
     1
 43
2.0
 10
271.3877919950369
 20
-787.292549751441
 42
0.4142135623731
 10
270.3877919950369
 20
-786.2925497514411
 42
0.4142135623731
 10
269.3877919950369
 20
-787.292549751441
 42
0.4142135623731
 10
270.3877919950369
 20
-788.2925497514409
 42
0.4142135623731
  0
LINE
  5
157
330
1F
100
AcDbEntity
  8
0-B_寸法
  6
Continuous
 62
   120
370
     5
100
AcDbLine
 10
270.3877919950369
 20
-787.292549751441
 30
0.0
 11
270.3877919950369
 21
-723.2925497514412
 31
0.0
  0
LINE
  5
158
330
1F
100
AcDbEntity
  8
0-6_桟木
  6
JWW_DASHED2
 62
     7
370
     9
100
AcDbLine
 10
389.612361895544
 20
-787.292549751441
 30
0.0
 11
-376.3876381044562
 21
-787.292549751441
 31
0.0
  0
LINE
  5
159
330
1F
100
AcDbEntity
  8
0-1_本体
  6
Continuous
 62
    92
370
    13
100
AcDbLine
 10
-376.3876381044562
 20
-723.2925497514409
 30
0.0
 11
389.612361895544
 21
-723.2925497514409
 31
0.0
  0
MTEXT
  5
15A
330
1F
100
AcDbEntity
  8
0-B_寸法
  6
Continuous
 62
     7
370
   211
100
AcDbMText
 10
-651.3876381044564
 20
-1140.932569546627
 30
0.0
 40
45.72
 41
90.0
 46
0.0
 71
     7
 72
     1
  1
{\fＭＳ ゴシック|b0|i0|c128|p49;761}
 11
6.123031769111886E-17
 21
1.0
 31
0.0
 73
     1
 44
1.0
  0
LINE
  5
15B
330
1F
100
AcDbEntity
  8
0-B_寸法
  6
Continuous
 62
   120
370
     5
100
AcDbLine
 10
-541.3876381044563
 20
-1469.292549751441
 30
0.0
 11
-541.3876381044563
 21
-1454.292549751441
 31
0.0
  0
LWPOLYLINE
  5
15C
330
1F
100
AcDbEntity
  8
0-B_寸法
  6
Continuous
 62
     7
370
     9
100
AcDbPolyline
 90
        4
 70
     1
 43
2.0
 10
-540.3876381044563
 20
-1469.292549751441
 42
0.4142135623731
 10
-541.3876381044563
 20
-1468.292549751441
 42
0.4142135623731
 10
-542.3876381044563
 20
-1469.292549751441
 42
0.4142135623731
 10
-541.3876381044563
 20
-1470.292549751441
 42
0.4142135623731
  0
LWPOLYLINE
  5
15D
330
1F
100
AcDbEntity
  8
0-B_寸法
  6
Continuous
 62
     7
370
     9
100
AcDbPolyline
 90
        4
 70
     1
 43
2.0
 10
-540.3876381044563
 20
-1454.292549751441
 42
0.4142135623731
 10
-541.3876381044563
 20
-1453.292549751441
 42
0.4142135623731
 10
-542.3876381044563
 20
-1454.292549751441
 42
0.4142135623731
 10
-541.3876381044563
 20
-1455.292549751441
 42
0.4142135623731
  0
LINE
  5
15E
330
1F
100
AcDbEntity
  8
0-B_寸法
  6
Continuous
 62
   120
370
     5
100
AcDbLine
 10
-541.3876381044563
 20
-1469.292549751441
 30
0.0
 11
-441.3876381044562
 21
-1469.292549751441
 31
0.0
  0
LINE
  5
15F
330
1F
100
AcDbEntity
  8
0-B_寸法
  6
Continuous
 62
   120
370
     5
100
AcDbLine
 10
-541.3876381044563
 20
-1454.292549751441
 30
0.0
 11
-441.3876381044562
 21
-1454.292549751441
 31
0.0
  0
LINE
  5
160
330
1F
100
AcDbEntity
  8
0-B_寸法
  6
Continuous
 62
   120
370
     5
100
AcDbLine
 10
-541.3876381044563
 20
-1454.292549751441
 30
0.0
 11
-541.3876381044563
 21
-723.2925497514409
 31
0.0
  0
LWPOLYLINE
  5
161
330
1F
100
AcDbEntity
  8
0-B_寸法
  6
Continuous
 62
     7
370
     9
100
AcDbPolyline
 90
        4
 70
     1
 43
2.0
 10
-540.3876381044563
 20
-723.2925497514409
 42
0.4142135623731
 10
-541.3876381044563
 20
-722.292549751441
 42
0.4142135623731
 10
-542.3876381044563
 20
-723.2925497514409
 42
0.4142135623731
 10
-541.3876381044563
 20
-724.2925497514409
 42
0.4142135623731
  0
LINE
  5
162
330
1F
100
AcDbEntity
  8
0-B_寸法
  6
Continuous
 62
   120
370
     5
100
AcDbLine
 10
-541.3876381044563
 20
-723.2925497514409
 30
0.0
 11
-441.3876381044562
 21
-723.2925497514409
 31
0.0
  0
MTEXT
  5
163
330
1F
100
AcDbEntity
  8
0-B_寸法
  6
Continuous
 62
     7
370
   211
100
AcDbMText
 10
-551.3876381044563
 20
-1140.93254975144
 30
0.0
 40
45.72
 41
90.0
 46
0.0
 71
     7
 72
     1
  1
{\fＭＳ ゴシック|b0|i0|c128|p49;731}
 11
6.123031769111886E-17
 21
1.0
 31
0.0
 73
     1
 44
1.0
  0
LINE
  5
164
330
1F
100
AcDbEntity
  8
0-B_寸法
  6
Continuous
 62
   120
370
     5
100
AcDbLine
 10
-541.3876381044563
 20
-723.2925497514409
 30
0.0
 11
-541.3876381044563
 21
-708.2925497514409
 31
0.0
  0
LWPOLYLINE
  5
165
330
1F
100
AcDbEntity
  8
0-B_寸法
  6
Continuous
 62
     7
370
     9
100
AcDbPolyline
 90
        4
 70
     1
 43
2.0
 10
-540.3876381044563
 20
-708.2925497514409
 42
0.4142135623731
 10
-541.3876381044563
 20
-707.292549751441
 42
0.4142135623731
 10
-542.3876381044563
 20
-708.2925497514409
 42
0.4142135623731
 10
-541.3876381044563
 20
-709.2925497514409
 42
0.4142135623731
  0
MTEXT
  5
166
330
1F
100
AcDbEntity
  8
0-B_寸法
  6
Continuous
 62
     7
370
   211
100
AcDbMText
 10
-551.3876381044563
 20
-1469.814263761396
 30
0.0
 40
45.72
 41
60.0
 46
0.0
 71
     7
 72
     1
  1
{\fＭＳ ゴシック|b0|i0|c128|p49;15}
 11
6.123031769111886E-17
 21
1.0
 31
0.0
 73
     1
 44
1.0
  0
LINE
  5
167
330
1F
100
AcDbEntity
  8
0-0_補助線
  6
JWW_HOJO
 62
   120
370
     5
100
AcDbLine
 10
-441.3876381044562
 20
-526.2925497514402
 30
0.0
 11
454.6123618955451
 21
-526.2925497514402
 31
0.0
  0
LINE
  5
168
330
1F
100
AcDbEntity
  8
0-0_補助線
  6
JWW_HOJO
 62
   120
370
     5
100
AcDbLine
 10
454.6123618955451
 20
-626.2925497514404
 30
0.0
 11
-641.3876381044564
 21
-626.2925497514404
 31
0.0
  0
LINE
  5
169
330
1F
100
AcDbEntity
  8
0-0_補助線
  6
JWW_HOJO
 62
   120
370
     5
100
AcDbLine
 10
454.6123618955451
 20
-526.2925497514402
 30
0.0
 11
454.6123618955451
 21
-1863.79254975144
 31
0.0
  0
LINE
  5
16A
330
1F
100
AcDbEntity
  8
0-0_補助線
  6
JWW_HOJO
 62
   120
370
     5
100
AcDbLine
 10
-441.3876381044562
 20
-526.2925497514402
 30
0.0
 11
-441.3876381044562
 21
-1863.79254975144
 31
0.0
  0
LINE
  5
16B
330
1F
100
AcDbEntity
  8
0-0_補助線
  6
JWW_HOJO
 62
   120
370
     5
100
AcDbLine
 10
-641.3876381044564
 20
-626.2925497514404
 30
0.0
 11
-641.3876381044564
 21
-1863.79254975144
 31
0.0
  0
LINE
  5
16C
330
1F
100
AcDbEntity
  8
0-4_棚
  6
Continuous
 62
    92
370
    13
100
AcDbLine
 10
-392.3876381044562
 20
-708.2925497514409
 30
0.0
 11
405.6123618955436
 21
-708.2925497514409
 31
0.0
  0
LINE
  5
16D
330
1F
100
AcDbEntity
  8
0-4_棚
  6
Continuous
 62
    92
370
    13
100
AcDbLine
 10
405.6123618955436
 20
-708.2925497514409
 30
0.0
 11
405.6123618955436
 21
-678.2925497514409
 31
0.0
  0
LINE
  5
16E
330
1F
100
AcDbEntity
  8
0-4_棚
  6
Continuous
 62
    92
370
    13
100
AcDbLine
 10
405.6123618955436
 20
-678.2925497514409
 30
0.0
 11
-392.3876381044562
 21
-678.2925497514409
 31
0.0
  0
LINE
  5
16F
330
1F
100
AcDbEntity
  8
0-4_棚
  6
Continuous
 62
    92
370
    13
100
AcDbLine
 10
-392.3876381044562
 20
-678.2925497514409
 30
0.0
 11
-392.3876381044562
 21
-708.2925497514409
 31
0.0
  0
LINE
  5
170
330
1F
100
AcDbEntity
  8
0-B_寸法
  6
Continuous
 62
   120
370
     5
100
AcDbLine
 10
-641.3876381044564
 20
-708.292541503447
 30
0.0
 11
-641.3876381044564
 21
-678.2925497514409
 31
0.0
  0
LWPOLYLINE
  5
171
330
1F
100
AcDbEntity
  8
0-B_寸法
  6
Continuous
 62
     7
370
     9
100
AcDbPolyline
 90
        4
 70
     1
 43
2.0
 10
-640.3876381044564
 20
-708.292541503447
 42
0.4142135623731
 10
-641.3876381044564
 20
-707.292541503447
 42
0.4142135623731
 10
-642.3876381044563
 20
-708.292541503447
 42
0.4142135623731
 10
-641.3876381044564
 20
-709.292541503447
 42
0.4142135623731
  0
LWPOLYLINE
  5
172
330
1F
100
AcDbEntity
  8
0-B_寸法
  6
Continuous
 62
     7
370
     9
100
AcDbPolyline
 90
        4
 70
     1
 43
2.0
 10
-640.3876381044564
 20
-678.2925497514409
 42
0.4142135623731
 10
-641.3876381044564
 20
-677.292549751441
 42
0.4142135623731
 10
-642.3876381044563
 20
-678.2925497514409
 42
0.4142135623731
 10
-641.3876381044564
 20
-679.2925497514409
 42
0.4142135623731
  0
LINE
  5
173
330
1F
100
AcDbEntity
  8
0-B_寸法
  6
Continuous
 62
   120
370
     5
100
AcDbLine
 10
-641.3876381044564
 20
-708.292541503447
 30
0.0
 11
-441.3876381044562
 21
-708.292541503447
 31
0.0
  0
LINE
  5
174
330
1F
100
AcDbEntity
  8
0-B_寸法
  6
Continuous
 62
   120
370
     5
100
AcDbLine
 10
-641.3876381044564
 20
-678.2925497514409
 30
0.0
 11
-441.3876381044562
 21
-678.2925497514409
 31
0.0
  0
MTEXT
  5
175
330
1F
100
AcDbEntity
  8
0-B_寸法
  6
Continuous
 62
     7
370
   211
100
AcDbMText
 10
-651.3876381044564
 20
-680.4325497514407
 30
0.0
 40
45.72
 41
60.0
 46
0.0
 71
     7
 72
     1
  1
{\fＭＳ ゴシック|b0|i0|c128|p49;30}
 11
6.123031769111886E-17
 21
1.0
 31
0.0
 73
     1
 44
1.0
  0
LINE
  5
176
330
1F
100
AcDbEntity
  8
0-B_寸法
  6
Continuous
 62
   120
370
     5
100
AcDbLine
 10
405.6123618955436
 20
-526.2925497514402
 30
0.0
 11
-392.3876381044562
 21
-526.2925497514402
 31
0.0
  0
LWPOLYLINE
  5
177
330
1F
100
AcDbEntity
  8
0-B_寸法
  6
Continuous
 62
     7
370
     9
100
AcDbPolyline
 90
        4
 70
     1
 43
2.0
 10
406.6123618955436
 20
-526.2925497514402
 42
0.4142135623731
 10
405.6123618955436
 20
-525.2925497514402
 42
0.4142135623731
 10
404.6123618955436
 20
-526.2925497514402
 42
0.4142135623731
 10
405.6123618955436
 20
-527.2925497514402
 42
0.4142135623731
  0
LWPOLYLINE
  5
178
330
1F
100
AcDbEntity
  8
0-B_寸法
  6
Continuous
 62
     7
370
     9
100
AcDbPolyline
 90
        4
 70
     1
 43
2.0
 10
-391.3876381044562
 20
-526.2925497514402
 42
0.4142135623731
 10
-392.3876381044562
 20
-525.2925497514402
 42
0.4142135623731
 10
-393.3876381044562
 20
-526.2925497514402
 42
0.4142135623731
 10
-392.3876381044562
 20
-527.2925497514402
 42
0.4142135623731
  0
LINE
  5
179
330
1F
100
AcDbEntity
  8
0-B_寸法
  6
Continuous
 62
   120
370
     5
100
AcDbLine
 10
405.6123618955436
 20
-526.2925497514402
 30
0.0
 11
405.6123618955436
 21
-626.2925497514404
 31
0.0
  0
LINE
  5
17A
330
1F
100
AcDbEntity
  8
0-B_寸法
  6
Continuous
 62
   120
370
     5
100
AcDbLine
 10
-392.3876381044562
 20
-526.2925497514402
 30
0.0
 11
-392.3876381044562
 21
-626.2925497514404
 31
0.0
  0
LINE
  5
17B
330
1F
100
AcDbEntity
  8
0-1_本体
  6
Continuous
 62
    92
370
    13
100
AcDbLine
 10
-391.3876381044572
 20
699.7074502485589
 30
0.0
 11
404.612361895544
 21
699.7074502485589
 31
0.0
  0
LINE
  5
17C
330
1F
100
AcDbEntity
  8
0-1_本体
  6
Continuous
 62
    92
370
    13
100
AcDbLine
 10
404.612361895544
 20
699.7074502485589
 30
0.0
 11
404.612361895544
 21
130.7074502485591
 31
0.0
  0
LINE
  5
17D
330
1F
100
AcDbEntity
  8
0-1_本体
  6
Continuous
 62
    92
370
    13
100
AcDbLine
 10
404.612361895544
 20
130.7074502485591
 30
0.0
 11
-391.3876381044572
 21
130.7074502485591
 31
0.0
  0
LINE
  5
17E
330
1F
100
AcDbEntity
  8
0-1_本体
  6
Continuous
 62
    92
370
    13
100
AcDbLine
 10
-391.3876381044572
 20
130.7074502485591
 30
0.0
 11
-391.3876381044572
 21
699.7074502485589
 31
0.0
  0
LINE
  5
17F
330
1F
100
AcDbEntity
  8
0-1_本体
  6
Continuous
 62
    92
370
    13
100
AcDbLine
 10
-376.3876381044572
 20
130.7074502485591
 30
0.0
 11
-376.3876381044572
 21
699.7074502485589
 31
0.0
  0
LINE
  5
180
330
1F
100
AcDbEntity
  8
0-1_本体
  6
Continuous
 62
    92
370
    13
100
AcDbLine
 10
389.612361895544
 20
699.7074502485589
 30
0.0
 11
389.612361895544
 21
130.7074502485591
 31
0.0
  0
LINE
  5
181
330
1F
100
AcDbEntity
  8
0-1_本体
  6
Continuous
 62
    92
370
    13
100
AcDbLine
 10
389.612361895544
 20
145.7074502485591
 30
0.0
 11
-376.3876381044572
 21
145.7074502485591
 31
0.0
  0
LINE
  5
182
330
1F
100
AcDbEntity
  8
0-1_本体
  6
Continuous
 62
    92
370
    13
100
AcDbLine
 10
-376.3876381044572
 20
684.7074502485589
 30
0.0
 11
389.612361895544
 21
684.7074502485589
 31
0.0
  0
LINE
  5
183
330
1F
100
AcDbEntity
  8
0-6_桟木
  6
JWW_DASHED2
 62
     7
370
     9
100
AcDbLine
 10
389.612361895544
 20
620.7074502485591
 30
0.0
 11
-376.3876381044572
 21
620.7074502485591
 31
0.0
  0
LINE
  5
184
330
1F
100
AcDbEntity
  8
0-6_桟木
  6
JWW_DASHED2
 62
     7
370
     9
100
AcDbLine
 10
389.612361895544
 20
209.7074502485583
 30
0.0
 11
-376.3876381044572
 21
209.7074502485583
 31
0.0
  0
LINE
  5
185
330
1F
100
AcDbEntity
  8
0-B_寸法
  6
Continuous
 62
   120
370
     5
100
AcDbLine
 10
-641.3876381044565
 20
699.7074502485589
 30
0.0
 11
-641.3876381044565
 21
130.7073182806533
 31
0.0
  0
LINE
  5
186
330
1F
100
AcDbEntity
  8
0-B_寸法
  6
Continuous
 62
   120
370
     5
100
AcDbLine
 10
-391.3876381044572
 20
849.70745024856
 30
0.0
 11
404.612361895544
 21
849.70745024856
 31
0.0
  0
LWPOLYLINE
  5
187
330
1F
100
AcDbEntity
  8
0-B_寸法
  6
Continuous
 62
     7
370
     9
100
AcDbPolyline
 90
        4
 70
     1
 43
2.0
 10
-390.3876381044572
 20
849.70745024856
 42
0.4142135623731
 10
-391.3876381044572
 20
850.70745024856
 42
0.4142135623731
 10
-392.3876381044573
 20
849.70745024856
 42
0.4142135623731
 10
-391.3876381044572
 20
848.70745024856
 42
0.4142135623731
  0
LWPOLYLINE
  5
188
330
1F
100
AcDbEntity
  8
0-B_寸法
  6
Continuous
 62
     7
370
     9
100
AcDbPolyline
 90
        4
 70
     1
 43
2.0
 10
-375.3876381044572
 20
849.70745024856
 42
0.4142135623731
 10
-376.3876381044572
 20
850.70745024856
 42
0.4142135623731
 10
-377.3876381044573
 20
849.70745024856
 42
0.4142135623731
 10
-376.3876381044572
 20
848.70745024856
 42
0.4142135623731
  0
LINE
  5
189
330
1F
100
AcDbEntity
  8
0-B_寸法
  6
Continuous
 62
   120
370
     5
100
AcDbLine
 10
-391.3876381044572
 20
949.70745024856
 30
0.0
 11
-391.3876381044572
 21
749.70745024856
 31
0.0
  0
LINE
  5
18A
330
1F
100
AcDbEntity
  8
0-B_寸法
  6
Continuous
 62
   120
370
     5
100
AcDbLine
 10
-376.3876381044572
 20
849.70745024856
 30
0.0
 11
-376.3876381044572
 21
749.70745024856
 31
0.0
  0
LWPOLYLINE
  5
18B
330
1F
100
AcDbEntity
  8
0-B_寸法
  6
Continuous
 62
     7
370
     9
100
AcDbPolyline
 90
        4
 70
     1
 43
2.0
 10
390.612361895544
 20
849.70745024856
 42
0.4142135623731
 10
389.612361895544
 20
850.70745024856
 42
0.4142135623731
 10
388.612361895544
 20
849.70745024856
 42
0.4142135623731
 10
389.612361895544
 20
848.70745024856
 42
0.4142135623731
  0
LINE
  5
18C
330
1F
100
AcDbEntity
  8
0-B_寸法
  6
Continuous
 62
   120
370
     5
100
AcDbLine
 10
389.612361895544
 20
849.70745024856
 30
0.0
 11
389.612361895544
 21
749.70745024856
 31
0.0
  0
MTEXT
  5
18D
330
1F
100
AcDbEntity
  8
0-B_寸法
  6
Continuous
 62
     7
370
   211
100
AcDbMText
 10
-38.38763810445414
 20
852.56745024856
 30
0.0
 40
45.72
 41
90.0
 46
0.0
 71
     7
 72
     1
  1
{\fＭＳ ゴシック|b0|i0|c128|p49;766}
 73
     1
 44
1.0
  0
LWPOLYLINE
  5
18E
330
1F
100
AcDbEntity
  8
0-B_寸法
  6
Continuous
 62
     7
370
     9
100
AcDbPolyline
 90
        4
 70
     1
 43
2.0
 10
405.612361895544
 20
849.70745024856
 42
0.4142135623731
 10
404.612361895544
 20
850.70745024856
 42
0.4142135623731
 10
403.612361895544
 20
849.70745024856
 42
0.4142135623731
 10
404.612361895544
 20
848.70745024856
 42
0.4142135623731
  0
LINE
  5
18F
330
1F
100
AcDbEntity
  8
0-B_寸法
  6
Continuous
 62
   120
370
     5
100
AcDbLine
 10
404.612361895544
 20
949.70745024856
 30
0.0
 11
404.612361895544
 21
749.70745024856
 31
0.0
  0
LINE
  5
190
330
1F
100
AcDbEntity
  8
0-B_寸法
  6
Continuous
 62
   120
370
     5
100
AcDbLine
 10
404.612361895544
 20
949.70745024856
 30
0.0
 11
-391.3876381044572
 21
949.70745024856
 31
0.0
  0
LWPOLYLINE
  5
191
330
1F
100
AcDbEntity
  8
0-B_寸法
  6
Continuous
 62
     7
370
     9
100
AcDbPolyline
 90
        4
 70
     1
 43
2.0
 10
405.612361895544
 20
949.70745024856
 42
0.4142135623731
 10
404.612361895544
 20
950.70745024856
 42
0.4142135623731
 10
403.612361895544
 20
949.70745024856
 42
0.4142135623731
 10
404.612361895544
 20
948.70745024856
 42
0.4142135623731
  0
LWPOLYLINE
  5
192
330
1F
100
AcDbEntity
  8
0-B_寸法
  6
Continuous
 62
     7
370
     9
100
AcDbPolyline
 90
        4
 70
     1
 43
2.0
 10
-390.3876381044572
 20
949.70745024856
 42
0.4142135623731
 10
-391.3876381044572
 20
950.70745024856
 42
0.4142135623731
 10
-392.3876381044573
 20
949.70745024856
 42
0.4142135623731
 10
-391.3876381044572
 20
948.70745024856
 42
0.4142135623731
  0
MTEXT
  5
193
330
1F
100
AcDbEntity
  8
0-B_寸法
  6
Continuous
 62
     7
370
   211
100
AcDbMText
 10
-38.38763810445414
 20
952.56745024856
 30
0.0
 40
45.72
 41
90.0
 46
0.0
 71
     7
 72
     1
  1
{\fＭＳ ゴシック|b0|i0|c128|p49;796}
 73
     1
 44
1.0
  0
LINE
  5
194
330
1F
100
AcDbEntity
  8
0-B_寸法
  6
Continuous
 62
   120
370
     5
100
AcDbLine
 10
270.3877919950369
 20
684.7074502485589
 30
0.0
 11
270.3877919950369
 21
620.7074502485591
 31
0.0
  0
LWPOLYLINE
  5
195
330
1F
100
AcDbEntity
  8
0-B_寸法
  6
Continuous
 62
     7
370
     9
100
AcDbPolyline
 90
        4
 70
     1
 43
2.0
 10
271.3877919950369
 20
684.7074502485589
 42
0.4142135623731
 10
270.3877919950369
 20
685.7074502485589
 42
0.4142135623731
 10
269.3877919950369
 20
684.7074502485589
 42
0.4142135623731
 10
270.3877919950369
 20
683.7074502485589
 42
0.4142135623731
  0
LWPOLYLINE
  5
196
330
1F
100
AcDbEntity
  8
0-B_寸法
  6
Continuous
 62
     7
370
     9
100
AcDbPolyline
 90
        4
 70
     1
 43
2.0
 10
271.3877919950369
 20
620.7074502485591
 42
0.4142135623731
 10
270.3877919950369
 20
621.7074502485591
 42
0.4142135623731
 10
269.3877919950369
 20
620.7074502485591
 42
0.4142135623731
 10
270.3877919950369
 20
619.7074502485591
 42
0.4142135623731
  0
LINE
  5
197
330
1F
100
AcDbEntity
  8
0-B_寸法
  6
Continuous
 62
   120
370
     5
100
AcDbLine
 10
270.3877919950369
 20
684.7074502485589
 30
0.0
 11
267.4034427255688
 21
684.7074502485589
 31
0.0
  0
LINE
  5
198
330
1F
100
AcDbEntity
  8
0-B_寸法
  6
Continuous
 62
   120
370
     5
100
AcDbLine
 10
270.3877919950369
 20
620.7074502485591
 30
0.0
 11
267.4034427255688
 21
620.7074502485591
 31
0.0
  0
MTEXT
  5
199
330
1F
100
AcDbEntity
  8
0-B_寸法
  6
Continuous
 62
     7
370
   211
100
AcDbMText
 10
260.3877919950369
 20
615.567450248559
 30
0.0
 40
45.72
 41
60.0
 46
0.0
 71
     7
 72
     1
  1
{\fＭＳ ゴシック|b0|i0|c128|p49;64}
 11
6.123031769111886E-17
 21
1.0
 31
0.0
 73
     1
 44
1.0
  0
LINE
  5
19A
330
1F
100
AcDbEntity
  8
0-B_寸法
  6
Continuous
 62
   120
370
     5
100
AcDbLine
 10
270.3877919950369
 20
209.7074502485583
 30
0.0
 11
270.3877919950369
 21
145.7074502485591
 31
0.0
  0
LWPOLYLINE
  5
19B
330
1F
100
AcDbEntity
  8
0-B_寸法
  6
Continuous
 62
     7
370
     9
100
AcDbPolyline
 90
        4
 70
     1
 43
2.0
 10
271.3877919950369
 20
209.7074502485583
 42
0.4142135623731
 10
270.3877919950369
 20
210.7074502485583
 42
0.4142135623731
 10
269.3877919950369
 20
209.7074502485583
 42
0.4142135623731
 10
270.3877919950369
 20
208.7074502485583
 42
0.4142135623731
  0
LWPOLYLINE
  5
19C
330
1F
100
AcDbEntity
  8
0-B_寸法
  6
Continuous
 62
     7
370
     9
100
AcDbPolyline
 90
        4
 70
     1
 43
2.0
 10
271.3877919950369
 20
145.7074502485591
 42
0.4142135623731
 10
270.3877919950369
 20
146.7074502485591
 42
0.4142135623731
 10
269.3877919950369
 20
145.7074502485591
 42
0.4142135623731
 10
270.3877919950369
 20
144.7074502485591
 42
0.4142135623731
  0
LINE
  5
19D
330
1F
100
AcDbEntity
  8
0-B_寸法
  6
Continuous
 62
   120
370
     5
100
AcDbLine
 10
270.3877919950369
 20
209.7074502485583
 30
0.0
 11
267.4034427255688
 21
209.7074502485583
 31
0.0
  0
LINE
  5
19E
330
1F
100
AcDbEntity
  8
0-B_寸法
  6
Continuous
 62
   120
370
     5
100
AcDbLine
 10
270.3877919950369
 20
145.7074502485591
 30
0.0
 11
267.4034427255688
 21
145.7074502485591
 31
0.0
  0
MTEXT
  5
19F
330
1F
100
AcDbEntity
  8
0-B_寸法
  6
Continuous
 62
     7
370
   211
100
AcDbMText
 10
260.3877919950369
 20
140.567450248559
 30
0.0
 40
45.72
 41
60.0
 46
0.0
 71
     7
 72
     1
  1
{\fＭＳ ゴシック|b0|i0|c128|p49;64}
 11
6.123031769111886E-17
 21
1.0
 31
0.0
 73
     1
 44
1.0
  0
MTEXT
  5
1A0
330
1F
100
AcDbEntity
  8
0-B_寸法
  6
Continuous
 62
     7
370
   211
100
AcDbMText
 10
-453.7124435036577
 20
852.56745024856
 30
0.0
 40
45.72
 41
60.0
 46
0.0
 71
     7
 72
     1
  1
{\fＭＳ ゴシック|b0|i0|c128|p49;15}
 73
     1
 44
1.0
  0
MTEXT
  5
1A1
330
1F
100
AcDbEntity
  8
0-B_寸法
  6
Continuous
 62
     7
370
   211
100
AcDbMText
 10
407.4189785384357
 20
852.56745024856
 30
0.0
 40
45.72
 41
60.0
 46
0.0
 71
     7
 72
     1
  1
{\fＭＳ ゴシック|b0|i0|c128|p49;15}
 73
     1
 44
1.0
  0
LWPOLYLINE
  5
1A2
330
1F
100
AcDbEntity
  8
0-B_寸法
  6
Continuous
 62
     7
370
     9
100
AcDbPolyline
 90
        4
 70
     1
 43
2.0
 10
-640.3876381044565
 20
699.7074502485589
 42
0.4142135623731
 10
-641.3876381044565
 20
700.7074502485589
 42
0.4142135623731
 10
-642.3876381044565
 20
699.7074502485589
 42
0.4142135623731
 10
-641.3876381044565
 20
698.7074502485589
 42
0.4142135623731
  0
LWPOLYLINE
  5
1A3
330
1F
100
AcDbEntity
  8
0-B_寸法
  6
Continuous
 62
     7
370
     9
100
AcDbPolyline
 90
        4
 70
     1
 43
2.0
 10
-640.3876381044565
 20
130.7073182806533
 42
0.4142135623731
 10
-641.3876381044565
 20
131.7073182806533
 42
0.4142135623731
 10
-642.3876381044565
 20
130.7073182806533
 42
0.4142135623731
 10
-641.3876381044565
 20
129.7073182806533
 42
0.4142135623731
  0
LINE
  5
1A4
330
1F
100
AcDbEntity
  8
0-B_寸法
  6
Continuous
 62
   120
370
     5
100
AcDbLine
 10
-641.3876381044565
 20
699.7074502485589
 30
0.0
 11
-441.3876381044572
 21
699.7074502485589
 31
0.0
  0
LINE
  5
1A5
330
1F
100
AcDbEntity
  8
0-B_寸法
  6
Continuous
 62
   120
370
     5
100
AcDbLine
 10
-641.3876381044565
 20
130.7073182806533
 30
0.0
 11
-441.3876381044572
 21
130.7073182806533
 31
0.0
  0
MTEXT
  5
1A6
330
1F
100
AcDbEntity
  8
0-B_寸法
  6
Continuous
 62
     7
370
   211
100
AcDbMText
 10
-646.1781287177173
 20
363.067384264607
 30
0.0
 40
45.72
 41
90.0
 46
0.0
 71
     7
 72
     1
  1
{\fＭＳ ゴシック|b0|i0|c128|p49;569}
 11
6.123031769111886E-17
 21
1.0
 31
0.0
 73
     1
 44
1.0
  0
LINE
  5
1A7
330
1F
100
AcDbEntity
  8
0-B_寸法
  6
Continuous
 62
   120
370
     5
100
AcDbLine
 10
-541.3876381044565
 20
699.7074502485589
 30
0.0
 11
-541.3876381044565
 21
130.7074502485591
 31
0.0
  0
LWPOLYLINE
  5
1A8
330
1F
100
AcDbEntity
  8
0-B_寸法
  6
Continuous
 62
     7
370
     9
100
AcDbPolyline
 90
        4
 70
     1
 43
2.0
 10
-540.3876381044565
 20
699.7074502485589
 42
0.4142135623731
 10
-541.3876381044565
 20
700.7074502485589
 42
0.4142135623731
 10
-542.3876381044565
 20
699.7074502485589
 42
0.4142135623731
 10
-541.3876381044565
 20
698.7074502485589
 42
0.4142135623731
  0
LWPOLYLINE
  5
1A9
330
1F
100
AcDbEntity
  8
0-B_寸法
  6
Continuous
 62
     7
370
     9
100
AcDbPolyline
 90
        4
 70
     1
 43
2.0
 10
-540.3876381044565
 20
684.7074502485589
 42
0.4142135623731
 10
-541.3876381044565
 20
685.7074502485589
 42
0.4142135623731
 10
-542.3876381044565
 20
684.7074502485589
 42
0.4142135623731
 10
-541.3876381044565
 20
683.7074502485589
 42
0.4142135623731
  0
LINE
  5
1AA
330
1F
100
AcDbEntity
  8
0-B_寸法
  6
Continuous
 62
   120
370
     5
100
AcDbLine
 10
-541.3876381044565
 20
684.7074502485589
 30
0.0
 11
-441.3876381044572
 21
684.7074502485589
 31
0.0
  0
LWPOLYLINE
  5
1AB
330
1F
100
AcDbEntity
  8
0-B_寸法
  6
Continuous
 62
     7
370
     9
100
AcDbPolyline
 90
        4
 70
     1
 43
2.0
 10
-540.3876381044565
 20
145.7074502485591
 42
0.4142135623731
 10
-541.3876381044565
 20
146.7074502485591
 42
0.4142135623731
 10
-542.3876381044565
 20
145.7074502485591
 42
0.4142135623731
 10
-541.3876381044565
 20
144.7074502485591
 42
0.4142135623731
  0
LINE
  5
1AC
330
1F
100
AcDbEntity
  8
0-B_寸法
  6
Continuous
 62
   120
370
     5
100
AcDbLine
 10
-541.3876381044565
 20
145.7074502485591
 30
0.0
 11
-441.3876381044572
 21
145.7074502485591
 31
0.0
  0
MTEXT
  5
1AD
330
1F
100
AcDbEntity
  8
0-B_寸法
  6
Continuous
 62
     7
370
   211
100
AcDbMText
 10
-551.3876381044565
 20
363.067450248559
 30
0.0
 40
45.72
 41
90.0
 46
0.0
 71
     7
 72
     1
  1
{\fＭＳ ゴシック|b0|i0|c128|p49;539}
 11
6.123031769111886E-17
 21
1.0
 31
0.0
 73
     1
 44
1.0
  0
LWPOLYLINE
  5
1AE
330
1F
100
AcDbEntity
  8
0-B_寸法
  6
Continuous
 62
     7
370
     9
100
AcDbPolyline
 90
        4
 70
     1
 43
2.0
 10
-540.3876381044565
 20
130.7074502485591
 42
0.4142135623731
 10
-541.3876381044565
 20
131.7074502485591
 42
0.4142135623731
 10
-542.3876381044565
 20
130.7074502485591
 42
0.4142135623731
 10
-541.3876381044565
 20
129.7074502485591
 42
0.4142135623731
  0
LINE
  5
1AF
330
1F
100
AcDbEntity
  8
0-B_寸法
  6
Continuous
 62
   120
370
     5
100
AcDbLine
 10
-541.3876381044565
 20
130.7074502485591
 30
0.0
 11
-441.3876381044572
 21
130.7074502485591
 31
0.0
  0
MTEXT
  5
1B0
330
1F
100
AcDbEntity
  8
0-B_寸法
  6
Continuous
 62
     7
370
   211
100
AcDbMText
 10
-551.3876381044565
 20
101.0674502485585
 30
0.0
 40
45.72
 41
60.0
 46
0.0
 71
     7
 72
     1
  1
{\fＭＳ ゴシック|b0|i0|c128|p49;15}
 11
6.123031769111886E-17
 21
1.0
 31
0.0
 73
     1
 44
1.0
  0
LINE
  5
1B1
330
1F
100
AcDbEntity
  8
0-4_棚
  6
Continuous
 62
    92
370
    13
100
AcDbLine
 10
-376.3876381044572
 20
401.7074502485588
 30
0.0
 11
389.612361895544
 21
401.7074502485588
 31
0.0
  0
LINE
  5
1B2
330
1F
100
AcDbEntity
  8
0-4_棚
  6
Continuous
 62
    92
370
    13
100
AcDbLine
 10
-376.3876381044572
 20
413.7074502485592
 30
0.0
 11
389.612361895544
 21
413.7074502485592
 31
0.0
  0
MTEXT
  5
1B3
330
1F
100
AcDbEntity
  8
0-B_寸法
  6
Continuous
 62
     7
370
   211
100
AcDbMText
 10
-551.3876381044565
 20
624.7884741448297
 30
0.0
 40
45.72
 41
60.0
 46
0.0
 71
     7
 72
     1
  1
{\fＭＳ ゴシック|b0|i0|c128|p49;15}
 11
6.123031769111886E-17
 21
1.0
 31
0.0
 73
     1
 44
1.0
  0
LINE
  5
1B4
330
1F
100
AcDbEntity
  8
0-0_補助線
  6
JWW_HOJO
 62
   120
370
     5
100
AcDbLine
 10
454.6123618955454
 20
130.7074502485591
 30
0.0
 11
454.6123618955454
 21
949.70745024856
 31
0.0
  0
LINE
  5
1B5
330
1F
100
AcDbEntity
  8
0-0_補助線
  6
JWW_HOJO
 62
   120
370
     5
100
AcDbLine
 10
454.6123618955454
 20
949.70745024856
 30
0.0
 11
-541.3876381044561
 21
949.70745024856
 31
0.0
  0
LINE
  5
1B6
330
1F
100
AcDbEntity
  8
0-0_補助線
  6
JWW_HOJO
 62
   120
370
     5
100
AcDbLine
 10
-541.3876381044561
 20
130.7074502485591
 30
0.0
 11
-541.3876381044561
 21
949.70745024856
 31
0.0
  0
LINE
  5
1B7
330
1F
100
AcDbEntity
  8
0-0_補助線
  6
JWW_HOJO
 62
   120
370
     5
100
AcDbLine
 10
-441.3876381044561
 20
130.7074502485591
 30
0.0
 11
-441.3876381044561
 21
949.70745024856
 31
0.0
  0
LINE
  5
1B8
330
1F
100
AcDbEntity
  8
0-0_補助線
  6
JWW_HOJO
 62
   120
370
     5
100
AcDbLine
 10
454.6123618955454
 20
849.70745024856
 30
0.0
 11
-541.3876381044561
 21
849.70745024856
 31
0.0
  0
LINE
  5
1B9
330
1F
100
AcDbEntity
  8
0-B_寸法
  6
Continuous
 62
   120
370
     5
100
AcDbLine
 10
2271.612361729698
 20
-326.2925497514402
 30
0.0
 11
2271.612361729698
 21
-626.2925299562539
 31
0.0
  0
MTEXT
  5
1BA
330
1F
100
AcDbEntity
  8
0-B_寸法
  6
Continuous
 62
     7
370
   211
100
AcDbMText
 10
2041.612460373929
 20
-323.4325497514402
 30
0.0
 40
45.72
 41
90.0
 46
0.0
 71
     7
 72
     1
  1
{\fＭＳ ゴシック|b0|i0|c128|p49;370}
 73
     1
 44
1.0
  0
LINE
  5
1BB
330
1F
100
AcDbEntity
  8
0-B_寸法
  6
Continuous
 62
   120
370
     5
100
AcDbLine
 10
1925.612361729698
 20
-426.2925497514402
 30
0.0
 11
1925.612361729698
 21
-626.2925497514402
 31
0.0
  0
MTEXT
  5
1BC
330
1F
100
AcDbEntity
  8
0-B_寸法
  6
Continuous
 62
     7
370
   211
100
AcDbMText
 10
1830.820371645751
 20
-423.4325497514402
 30
0.0
 40
45.72
 41
60.0
 46
0.0
 71
     7
 72
     1
  1
{\fＭＳ ゴシック|b0|i0|c128|p49;24}
 73
     1
 44
1.0
  0
LINE
  5
1BD
330
1F
100
AcDbEntity
  8
0-B_寸法
  6
Continuous
 62
   120
370
     5
100
AcDbLine
 10
1925.612361729698
 20
-426.2925497514402
 30
0.0
 11
1901.612559018161
 21
-426.2925497514402
 31
0.0
  0
LWPOLYLINE
  5
1BE
330
1F
100
AcDbEntity
  8
0-B_寸法
  6
Continuous
 62
     7
370
     9
100
AcDbPolyline
 90
        4
 70
     1
 43
2.0
 10
1902.612559018161
 20
-426.2925497514402
 42
0.4142135623731
 10
1901.612559018161
 20
-425.2925497514402
 42
0.4142135623731
 10
1900.612559018161
 20
-426.2925497514402
 42
0.4142135623731
 10
1901.612559018161
 20
-427.2925497514402
 42
0.4142135623731
  0
LINE
  5
1BF
330
1F
100
AcDbEntity
  8
0-B_寸法
  6
Continuous
 62
   120
370
     5
100
AcDbLine
 10
1901.612559018161
 20
-426.2925497514402
 30
0.0
 11
1901.612559018161
 21
-626.2925497514402
 31
0.0
  0
LINE
  5
1C0
330
1F
100
AcDbEntity
  8
0-B_寸法
  6
Continuous
 62
   120
370
     5
100
AcDbLine
 10
2271.612361729698
 20
-326.2925497514402
 30
0.0
 11
1901.612559018161
 21
-326.2925497514402
 31
0.0
  0
LWPOLYLINE
  5
1C1
330
1F
100
AcDbEntity
  8
0-B_寸法
  6
Continuous
 62
     7
370
     9
100
AcDbPolyline
 90
        4
 70
     1
 43
2.0
 10
1902.612559018161
 20
-326.2925497514402
 42
0.4142135623731
 10
1901.612559018161
 20
-325.2925497514402
 42
0.4142135623731
 10
1900.612559018161
 20
-326.2925497514402
 42
0.4142135623731
 10
1901.612559018161
 20
-327.2925497514402
 42
0.4142135623731
  0
LINE
  5
1C2
330
1F
100
AcDbEntity
  8
0-B_寸法
  6
Continuous
 62
   120
370
     5
100
AcDbLine
 10
1901.612559018161
 20
-326.2925497514402
 30
0.0
 11
1901.612559018161
 21
-426.2925497514402
 31
0.0
  0
MTEXT
  5
1C3
330
1F
100
AcDbEntity
  8
0-B_寸法
  6
Continuous
 62
     7
370
   211
100
AcDbMText
 10
2054.112361729698
 20
-423.4325497514402
 30
0.0
 40
45.72
 41
90.0
 46
0.0
 71
     7
 72
     1
  1
{\fＭＳ ゴシック|b0|i0|c128|p49;345}
 73
     1
 44
1.0
  0
LWPOLYLINE
  5
1C4
330
1F
100
AcDbEntity
  8
0-B_寸法
  6
Continuous
 62
     7
370
     9
100
AcDbPolyline
 90
        4
 70
     1
 43
2.0
 10
1926.612361729698
 20
-426.2925497514402
 42
0.4142135623731
 10
1925.612361729698
 20
-425.2925497514402
 42
0.4142135623731
 10
1924.612361729698
 20
-426.2925497514402
 42
0.4142135623731
 10
1925.612361729698
 20
-427.2925497514402
 42
0.4142135623731
  0
LWPOLYLINE
  5
1C5
330
1F
100
AcDbEntity
  8
0-B_寸法
  6
Continuous
 62
     7
370
     9
100
AcDbPolyline
 90
        4
 70
     1
 43
2.0
 10
2272.612361729698
 20
-326.2925497514402
 42
0.4142135623731
 10
2271.612361729698
 20
-325.2925497514402
 42
0.4142135623731
 10
2270.612361729698
 20
-326.2925497514402
 42
0.4142135623731
 10
2271.612361729698
 20
-327.2925497514402
 42
0.4142135623731
  0
LINE
  5
1C6
330
1F
100
AcDbEntity
  8
0-2_扉
  6
Continuous
 62
    40
370
    15
100
AcDbLine
 10
1901.612367664697
 20
-711.2925784132204
 30
0.0
 11
1901.612367664697
 21
-1466.292722576375
 31
0.0
  0
LINE
  5
1C7
330
1F
100
AcDbEntity
  8
0-2_扉
  6
Continuous
 62
    40
370
    15
100
AcDbLine
 10
1901.612367664697
 20
-711.2925784132204
 30
0.0
 11
1925.612367664698
 21
-711.2925784132204
 31
0.0
  0
LINE
  5
1C8
330
1F
100
AcDbEntity
  8
0-2_扉
  6
Continuous
 62
    40
370
    15
100
AcDbLine
 10
1925.612367664698
 20
-711.2925784132204
 30
0.0
 11
1925.612367664698
 21
-1466.292722576375
 31
0.0
  0
LINE
  5
1C9
330
1F
100
AcDbEntity
  8
0-2_扉
  6
Continuous
 62
    40
370
    15
100
AcDbLine
 10
1901.612367664697
 20
-1466.292722576375
 30
0.0
 11
1925.612367664698
 21
-1466.292722576375
 31
0.0
  0
MTEXT
  5
1CA
330
1F
100
AcDbEntity
  8
0-B_寸法
  6
Continuous
 62
     7
370
   211
100
AcDbMText
 10
1933.112361683158
 20
-223.4325497514394
 30
0.0
 40
45.71999999999999
 41
300.0
 46
0.0
 71
     7
 72
     1
  1
{\fＭＳ ゴシック|b0|i0|c128|p49;ｶｳﾝﾀｰ＝377}
 73
     1
 44
1.0
  0
MTEXT
  5
1CB
330
1F
100
AcDbEntity
  8
0-A_文字
  6
Continuous
 62
     7
370
   211
100
AcDbMText
 10
1357.805732067087
 20
-2194.246956876269
 30
0.0
 40
45.71999999999998
 41
1050.0
 46
0.0
 71
     7
 72
     1
  1
{\fＭＳ ゴシック|b0|i0|c128|p49;※棚板は可動式32m/mピッチで調整可能}
 73
     1
 44
1.0
  0
MTEXT
  5
1CC
330
1F
100
AcDbEntity
  8
0-A_文字
  6
Continuous
 62
     7
370
   211
100
AcDbMText
 10
1357.80573206709
 20
-2268.382406790439
 30
0.0
 40
45.72000000000001
 41
1890.0
 46
0.0
 71
     7
 72
     1
  1
{\fＭＳ ゴシック|b0|i0|c128|p49;※下地用の木桟木は105m/m×30m/m以上の堅い木を使用してください。}
 73
     1
 44
1.0
  0
LINE
  5
1CD
330
1F
100
AcDbEntity
  8
0-A_文字
  6
Continuous
 62
     7
370
     9
100
AcDbLine
 10
2558.112265983158
 20
-1933.292549751441
 30
0.0
 11
2558.112265983158
 21
-2083.292549751441
 31
0.0
  0
LINE
  5
1CE
330
1F
100
AcDbEntity
  8
0-A_文字
  6
Continuous
 62
     7
370
     9
100
AcDbLine
 10
1518.112265983158
 20
-1933.292549751441
 30
0.0
 11
1518.112265983158
 21
-2083.292549751441
 31
0.0
  0
LINE
  5
1CF
330
1F
100
AcDbEntity
  8
0-A_文字
  6
Continuous
 62
     7
370
     9
100
AcDbLine
 10
1518.112265983158
 20
-1933.292549751441
 30
0.0
 11
2558.112265983158
 21
-1933.292549751441
 31
0.0
  0
LINE
  5
1D0
330
1F
100
AcDbEntity
  8
0-A_文字
  6
Continuous
 62
     7
370
     9
100
AcDbLine
 10
2558.112265983158
 20
-2083.292549751441
 30
0.0
 11
1518.112265983158
 21
-2083.292549751441
 31
0.0
  0
MTEXT
  5
1D1
330
1F
100
AcDbEntity
  8
0-A_文字
  6
Continuous
 62
     7
370
     9
100
AcDbMText
 10
1588.112265983156
 20
-2079.306835465726
 30
0.0
 40
97.97142857142858
 41
900.0
 46
0.0
 71
     7
 72
     1
  1
{\fＭＳ ゴシック|b0|i0|c128|p49;Ａ－Ａ’断面図}
 73
     1
 44
1.0
  0
LINE
  5
1D2
330
1F
100
AcDbEntity
  8
0-1_本体
  6
Continuous
 62
    40
370
    15
100
AcDbLine
 10
2268.612361683157
 20
-1461.29254975144
 30
0.0
 11
2271.612361683159
 21
-1461.29254975144
 31
0.0
  0
LINE
  5
1D3
330
1F
100
AcDbEntity
  8
0-1_本体
  6
Continuous
 62
    40
370
    15
100
AcDbLine
 10
1926.612361683159
 20
-1454.292549751441
 30
0.0
 11
1926.612361683159
 21
-1469.292549751441
 31
0.0
  0
CIRCLE
  5
1D4
330
1F
100
AcDbEntity
  8
0-5_ダボ
  6
Continuous
 62
     7
370
     9
100
AcDbCircle
 10
1963.612361683157
 20
-1333.29254975144
 30
0.0
 40
2.5
  0
CIRCLE
  5
1D5
330
1F
100
AcDbEntity
  8
0-5_ダボ
  6
Continuous
 62
     7
370
     9
100
AcDbCircle
 10
1963.612361683157
 20
-1365.292549751441
 30
0.0
 40
2.5
  0
LINE
  5
1D6
330
1F
100
AcDbEntity
  8
0-1_本体
  6
Continuous
 62
    40
370
    15
100
AcDbLine
 10
1926.612361683159
 20
-1454.292549751441
 30
0.0
 11
2268.612361683157
 21
-1454.292549751441
 31
0.0
  0
LINE
  5
1D7
330
1F
100
AcDbEntity
  8
0-1_本体
  6
Continuous
 62
    40
370
    15
100
AcDbLine
 10
2271.612361683159
 20
-1469.292549751441
 30
0.0
 11
1926.612361683159
 21
-1469.292549751441
 31
0.0
  0
LINE
  5
1D8
330
1F
100
AcDbEntity
  8
0-B_寸法
  6
Continuous
 62
   120
370
     5
100
AcDbLine
 10
1654.612361776234
 20
-1469.292549751441
 30
0.0
 11
1754.612361776234
 21
-1469.292549751441
 31
0.0
  0
LWPOLYLINE
  5
1D9
330
1F
100
AcDbEntity
  8
0-B_寸法
  6
Continuous
 62
     7
370
     9
100
AcDbPolyline
 90
        4
 70
     1
 43
2.0
 10
1655.612361776234
 20
-1469.292549751441
 42
0.4142135623731
 10
1654.612361776234
 20
-1468.292549751441
 42
0.4142135623731
 10
1653.612361776234
 20
-1469.292549751441
 42
0.4142135623731
 10
1654.612361776234
 20
-1470.292549751441
 42
0.4142135623731
  0
MTEXT
  5
1DA
330
1F
100
AcDbEntity
  8
0-B_寸法
  6
Continuous
 62
     7
370
   211
100
AcDbMText
 10
1744.612361776234
 20
-1461.432549751441
 30
0.0
 40
45.72
 41
90.0
 46
0.0
 71
     7
 72
     1
  1
{\fＭＳ ゴシック|b0|i0|c128|p49;120}
 11
6.123031769111886E-17
 21
1.0
 31
0.0
 73
     1
 44
1.0
  0
LINE
  5
1DB
330
1F
100
AcDbEntity
  8
0-B_寸法
  6
Continuous
 62
   120
370
     5
100
AcDbLine
 10
1754.612361776234
 20
-1469.292549751441
 30
0.0
 11
1854.612361683156
 21
-1469.292549751441
 31
0.0
  0
LWPOLYLINE
  5
1DC
330
1F
100
AcDbEntity
  8
0-B_寸法
  6
Continuous
 62
     7
370
     9
100
AcDbPolyline
 90
        4
 70
     1
 43
2.0
 10
1755.612361776234
 20
-1469.292549751441
 42
0.4142135623731
 10
1754.612361776234
 20
-1468.292549751441
 42
0.4142135623731
 10
1753.612361776234
 20
-1469.292549751441
 42
0.4142135623731
 10
1754.612361776234
 20
-1470.292549751441
 42
0.4142135623731
  0
LINE
  5
1DD
330
1F
100
AcDbEntity
  8
0-B_寸法
  6
Continuous
 62
   120
370
     5
100
AcDbLine
 10
1754.612361776234
 20
-1349.292549751441
 30
0.0
 11
1754.612361776234
 21
-1469.292549751441
 31
0.0
  0
LINE
  5
1DE
330
1F
100
AcDbEntity
  8
0-B_寸法
  6
Continuous
 62
   120
370
     5
100
AcDbLine
 10
1754.612361776234
 20
-1349.292549751441
 30
0.0
 11
1854.612361683156
 21
-1349.292549751441
 31
0.0
  0
LWPOLYLINE
  5
1DF
330
1F
100
AcDbEntity
  8
0-B_寸法
  6
Continuous
 62
     7
370
     9
100
AcDbPolyline
 90
        4
 70
     1
 43
2.0
 10
1755.612361776234
 20
-1349.292549751441
 42
0.4142135623731
 10
1754.612361776234
 20
-1348.292549751441
 42
0.4142135623731
 10
1753.612361776234
 20
-1349.292549751441
 42
0.4142135623731
 10
1754.612361776234
 20
-1350.292549751441
 42
0.4142135623731
  0
LINE
  5
1E0
330
1F
100
AcDbEntity
  8
0-B_寸法
  6
Continuous
 62
   120
370
     5
100
AcDbLine
 10
1554.612361776234
 20
-1466.292568309427
 30
0.0
 11
1654.612361776234
 21
-1466.292568309427
 31
0.0
  0
LWPOLYLINE
  5
1E1
330
1F
100
AcDbEntity
  8
0-B_寸法
  6
Continuous
 62
     7
370
     9
100
AcDbPolyline
 90
        4
 70
     1
 43
2.0
 10
1555.612361776234
 20
-1466.292568309427
 42
0.4142135623731
 10
1554.612361776234
 20
-1465.292568309427
 42
0.4142135623731
 10
1553.612361776234
 20
-1466.292568309427
 42
0.4142135623731
 10
1554.612361776234
 20
-1467.292568309427
 42
0.4142135623731
  0
LINE
  5
1E2
330
1F
100
AcDbEntity
  8
0-B_寸法
  6
Continuous
 62
   120
370
     5
100
AcDbLine
 10
1554.612361776234
 20
-1469.292568309427
 30
0.0
 11
1554.612361776234
 21
-1466.292568309427
 31
0.0
  0
MTEXT
  5
1E3
330
1F
100
AcDbEntity
  8
0-B_寸法
  6
Continuous
 62
     7
370
   211
100
AcDbMText
 10
1544.612361776234
 20
-1472.707157596925
 30
0.0
 40
45.72
 41
30.0
 46
0.0
 71
     7
 72
     1
  1
{\fＭＳ ゴシック|b0|i0|c128|p49;3}
 11
6.123031769111886E-17
 21
1.0
 31
0.0
 73
     1
 44
1.0
  0
LINE
  5
1E4
330
1F
100
AcDbEntity
  8
0-B_寸法
  6
Continuous
 62
   120
370
     5
100
AcDbLine
 10
1554.612361776234
 20
-1469.292568309427
 30
0.0
 11
1654.612361776234
 21
-1469.292568309427
 31
0.0
  0
LWPOLYLINE
  5
1E5
330
1F
100
AcDbEntity
  8
0-B_寸法
  6
Continuous
 62
     7
370
     9
100
AcDbPolyline
 90
        4
 70
     1
 43
2.0
 10
1555.612361776234
 20
-1469.292568309427
 42
0.4142135623731
 10
1554.612361776234
 20
-1468.292568309427
 42
0.4142135623731
 10
1553.612361776234
 20
-1469.292568309427
 42
0.4142135623731
 10
1554.612361776234
 20
-1470.292568309427
 42
0.4142135623731
  0
LINE
  5
1E6
330
1F
100
AcDbEntity
  8
0-B_寸法
  6
Continuous
 62
   120
370
     5
100
AcDbLine
 10
1454.612361776234
 20
-1469.292549751441
 30
0.0
 11
1554.612361776234
 21
-1469.292549751441
 31
0.0
  0
LWPOLYLINE
  5
1E7
330
1F
100
AcDbEntity
  8
0-B_寸法
  6
Continuous
 62
     7
370
     9
100
AcDbPolyline
 90
        4
 70
     1
 43
2.0
 10
1455.612361776234
 20
-1469.292549751441
 42
0.4142135623731
 10
1454.612361776234
 20
-1468.292549751441
 42
0.4142135623731
 10
1453.612361776234
 20
-1469.292549751441
 42
0.4142135623731
 10
1454.612361776234
 20
-1470.292549751441
 42
0.4142135623731
  0
LINE
  5
1E8
330
1F
100
AcDbEntity
  8
0-B_寸法
  6
Continuous
 62
   120
370
     5
100
AcDbLine
 10
1554.612361776234
 20
-1469.292549751441
 30
0.0
 11
1654.612361776234
 21
-1469.292549751441
 31
0.0
  0
CIRCLE
  5
1E9
330
1F
100
AcDbEntity
  8
0-5_ダボ
  6
Continuous
 62
     7
370
     9
100
AcDbCircle
 10
2249.612361683156
 20
-864.8141586736963
 30
0.0
 40
2.5
  0
CIRCLE
  5
1EA
330
1F
100
AcDbEntity
  8
0-5_ダボ
  6
Continuous
 62
     7
370
     9
100
AcDbCircle
 10
2249.612361683156
 20
-896.8141586736967
 30
0.0
 40
2.5
  0
CIRCLE
  5
1EB
330
1F
100
AcDbEntity
  8
0-5_ダボ
  6
Continuous
 62
     7
370
     9
100
AcDbCircle
 10
2249.612361683156
 20
-928.814158673697
 30
0.0
 40
2.5
  0
CIRCLE
  5
1EC
330
1F
100
AcDbEntity
  8
0-5_ダボ
  6
Continuous
 62
     7
370
     9
100
AcDbCircle
 10
2249.612361683156
 20
-960.8141586736974
 30
0.0
 40
2.5
  0
CIRCLE
  5
1ED
330
1F
100
AcDbEntity
  8
0-5_ダボ
  6
Continuous
 62
     7
370
     9
100
AcDbCircle
 10
2249.612361683156
 20
-992.8141586736962
 30
0.0
 40
2.5
  0
CIRCLE
  5
1EE
330
1F
100
AcDbEntity
  8
0-5_ダボ
  6
Continuous
 62
     7
370
     9
100
AcDbCircle
 10
2249.612361683156
 20
-1024.814158673697
 30
0.0
 40
2.5
  0
CIRCLE
  5
1EF
330
1F
100
AcDbEntity
  8
0-5_ダボ
  6
Continuous
 62
     7
370
     9
100
AcDbCircle
 10
2249.612361683156
 20
-1056.814158673697
 30
0.0
 40
2.5
  0
CIRCLE
  5
1F0
330
1F
100
AcDbEntity
  8
0-5_ダボ
  6
Continuous
 62
     7
370
     9
100
AcDbCircle
 10
2249.612361683156
 20
-1088.814158673697
 30
0.0
 40
2.5
  0
CIRCLE
  5
1F1
330
1F
100
AcDbEntity
  8
0-5_ダボ
  6
Continuous
 62
     7
370
     9
100
AcDbCircle
 10
2249.612361683156
 20
-1120.814158673697
 30
0.0
 40
2.5
  0
CIRCLE
  5
1F2
330
1F
100
AcDbEntity
  8
0-5_ダボ
  6
Continuous
 62
     7
370
     9
100
AcDbCircle
 10
2249.612361683156
 20
-1152.814158673697
 30
0.0
 40
2.5
  0
CIRCLE
  5
1F3
330
1F
100
AcDbEntity
  8
0-5_ダボ
  6
Continuous
 62
     7
370
     9
100
AcDbCircle
 10
2249.612361683156
 20
-1184.814158673698
 30
0.0
 40
2.5
  0
CIRCLE
  5
1F4
330
1F
100
AcDbEntity
  8
0-5_ダボ
  6
Continuous
 62
     7
370
     9
100
AcDbCircle
 10
2249.612361683156
 20
-1216.814158673697
 30
0.0
 40
2.5
  0
CIRCLE
  5
1F5
330
1F
100
AcDbEntity
  8
0-5_ダボ
  6
Continuous
 62
     7
370
     9
100
AcDbCircle
 10
2249.612361683156
 20
-1248.814158673697
 30
0.0
 40
2.5
  0
CIRCLE
  5
1F6
330
1F
100
AcDbEntity
  8
0-5_ダボ
  6
Continuous
 62
     7
370
     9
100
AcDbCircle
 10
2249.612361683156
 20
-1280.814158673697
 30
0.0
 40
2.5
  0
CIRCLE
  5
1F7
330
1F
100
AcDbEntity
  8
0-5_ダボ
  6
Continuous
 62
     7
370
     9
100
AcDbCircle
 10
2249.612361683156
 20
-1312.814158673697
 30
0.0
 40
2.5
  0
LINE
  5
1F8
330
1F
100
AcDbEntity
  8
0-4_棚
  6
Continuous
 62
    40
370
    15
100
AcDbLine
 10
2268.612361683157
 20
-850.3141586736958
 30
0.0
 11
2268.612361683157
 21
-862.3141586736963
 31
0.0
  0
LINE
  5
1F9
330
1F
100
AcDbEntity
  8
0-4_棚
  6
Continuous
 62
    40
370
    15
100
AcDbLine
 10
1978.612361683157
 20
-850.3141586736958
 30
0.0
 11
1978.612361683157
 21
-862.3141586736963
 31
0.0
  0
LINE
  5
1FA
330
1F
100
AcDbEntity
  8
0-4_棚
  6
Continuous
 62
    40
370
    15
100
AcDbLine
 10
1978.612361683157
 20
-862.3141586736963
 30
0.0
 11
2268.612361683157
 21
-862.3141586736963
 31
0.0
  0
LINE
  5
1FB
330
1F
100
AcDbEntity
  8
0-4_棚
  6
Continuous
 62
    40
370
    15
100
AcDbLine
 10
1978.612361683157
 20
-850.3141586736958
 30
0.0
 11
2268.612361683157
 21
-850.3141586736958
 31
0.0
  0
LINE
  5
1FC
330
1F
100
AcDbEntity
  8
0-4_棚
  6
Continuous
 62
    40
370
    15
100
AcDbLine
 10
2268.612361683157
 20
-1042.314158673697
 30
0.0
 11
2268.612361683157
 21
-1054.314158673697
 31
0.0
  0
LINE
  5
1FD
330
1F
100
AcDbEntity
  8
0-4_棚
  6
Continuous
 62
    40
370
    15
100
AcDbLine
 10
1978.612361683157
 20
-1042.314158673697
 30
0.0
 11
1978.612361683157
 21
-1054.314158673697
 31
0.0
  0
LINE
  5
1FE
330
1F
100
AcDbEntity
  8
0-4_棚
  6
Continuous
 62
    40
370
    15
100
AcDbLine
 10
1978.612361683157
 20
-1054.314158673697
 30
0.0
 11
2268.612361683157
 21
-1054.314158673697
 31
0.0
  0
LINE
  5
1FF
330
1F
100
AcDbEntity
  8
0-4_棚
  6
Continuous
 62
    40
370
    15
100
AcDbLine
 10
1978.612361683157
 20
-1042.314158673697
 30
0.0
 11
2268.612361683157
 21
-1042.314158673697
 31
0.0
  0
LINE
  5
200
330
1F
100
AcDbEntity
  8
0-4_棚
  6
Continuous
 62
    40
370
    15
100
AcDbLine
 10
1978.612361683157
 20
-1234.315057717256
 30
0.0
 11
1978.612361683157
 21
-1246.315057717256
 31
0.0
  0
LINE
  5
201
330
1F
100
AcDbEntity
  8
0-4_棚
  6
Continuous
 62
    40
370
    15
100
AcDbLine
 10
1978.612361683157
 20
-1234.315057717256
 30
0.0
 11
2268.612361683157
 21
-1234.315057717256
 31
0.0
  0
LINE
  5
202
330
1F
100
AcDbEntity
  8
0-4_棚
  6
Continuous
 62
    40
370
    15
100
AcDbLine
 10
1978.612361683157
 20
-1246.315057717256
 30
0.0
 11
2268.612361683157
 21
-1246.315057717256
 31
0.0
  0
LINE
  5
203
330
1F
100
AcDbEntity
  8
0-4_棚
  6
Continuous
 62
    40
370
    15
100
AcDbLine
 10
2268.612361683157
 20
-1234.315057717256
 30
0.0
 11
2268.612361683157
 21
-1246.315057717256
 31
0.0
  0
LINE
  5
204
330
1F
100
AcDbEntity
  8
0-0_補助線
  6
JWW_HOJO
 62
     7
370
     9
100
AcDbLine
 10
1914.326646764874
 20
-1056.79254975144
 30
0.0
 11
2271.612361656565
 21
-1056.79254975144
 31
0.0
  0
LINE
  5
205
330
1F
100
AcDbEntity
  8
0-0_補助線
  6
JWW_HOJO
 62
     7
370
     9
100
AcDbLine
 10
1912.040932576832
 20
-1024.79254975144
 30
0.0
 11
2271.612361653239
 21
-1024.79254975144
 31
0.0
  0
LINE
  5
206
330
1F
100
AcDbEntity
  8
0-0_補助線
  6
JWW_HOJO
 62
     7
370
     9
100
AcDbLine
 10
1909.75521838879
 20
-992.7925497514406
 30
0.0
 11
2271.612361649917
 21
-992.7925497514406
 31
0.0
  0
LINE
  5
207
330
1F
100
AcDbEntity
  8
0-0_補助線
  6
JWW_HOJO
 62
     7
370
     9
100
AcDbLine
 10
1907.469504200747
 20
-960.7925497514407
 30
0.0
 11
2271.61236164659
 21
-960.7925497514407
 31
0.0
  0
LINE
  5
208
330
1F
100
AcDbEntity
  8
0-0_補助線
  6
JWW_HOJO
 62
     7
370
     9
100
AcDbLine
 10
1905.183790012703
 20
-928.7925497514402
 30
0.0
 11
2271.612361643268
 21
-928.7925497514402
 31
0.0
  0
LINE
  5
209
330
1F
100
AcDbEntity
  8
0-0_補助線
  6
JWW_HOJO
 62
     7
370
     9
100
AcDbLine
 10
1902.898075824663
 20
-896.79254975144
 30
0.0
 11
2271.612361639942
 21
-896.79254975144
 31
0.0
  0
LINE
  5
20A
330
1F
100
AcDbEntity
  8
0-0_補助線
  6
JWW_HOJO
 62
     7
370
     9
100
AcDbLine
 10
1924.326646081175
 20
-1280.792549751441
 30
0.0
 11
2271.612361679832
 21
-1280.792549751441
 31
0.0
  0
LINE
  5
20B
330
1F
100
AcDbEntity
  8
0-0_補助線
  6
JWW_HOJO
 62
     7
370
     9
100
AcDbLine
 10
1922.040931893133
 20
-1248.79254975144
 30
0.0
 11
2271.61236167651
 21
-1248.79254975144
 31
0.0
  0
LINE
  5
20C
330
1F
100
AcDbEntity
  8
0-0_補助線
  6
JWW_HOJO
 62
     7
370
     9
100
AcDbLine
 10
1919.755217705091
 20
-1216.792549751441
 30
0.0
 11
2271.612361673184
 21
-1216.792549751441
 31
0.0
  0
LINE
  5
20D
330
1F
100
AcDbEntity
  8
0-0_補助線
  6
JWW_HOJO
 62
     7
370
     9
100
AcDbLine
 10
1917.469503517045
 20
-1184.79254975144
 30
0.0
 11
2271.612361669862
 21
-1184.79254975144
 31
0.0
  0
LINE
  5
20E
330
1F
100
AcDbEntity
  8
0-0_補助線
  6
JWW_HOJO
 62
     7
370
     9
100
AcDbLine
 10
1915.183789329003
 20
-1152.792549751441
 30
0.0
 11
2271.612361666535
 21
-1152.792549751441
 31
0.0
  0
LINE
  5
20F
330
1F
100
AcDbEntity
  8
0-0_補助線
  6
JWW_HOJO
 62
     7
370
     9
100
AcDbLine
 10
1912.89807514096
 20
-1120.792549751441
 30
0.0
 11
2271.612361663214
 21
-1120.792549751441
 31
0.0
  0
LINE
  5
210
330
1F
100
AcDbEntity
  8
0-0_補助線
  6
JWW_HOJO
 62
     7
370
     9
100
AcDbLine
 10
1910.612360952917
 20
-1088.79254975144
 30
0.0
 11
2271.612361659887
 21
-1088.79254975144
 31
0.0
  0
MTEXT
  5
211
330
1F
100
AcDbEntity
  8
0-B_寸法
  6
Continuous
 62
     7
370
   211
100
AcDbMText
 10
1644.612361776234
 20
-1140.93254975144
 30
0.0
 40
45.72
 41
90.0
 46
0.0
 71
     7
 72
     1
  1
{\fＭＳ ゴシック|b0|i0|c128|p49;448}
 11
6.123031769111886E-17
 21
1.0
 31
0.0
 73
     1
 44
1.0
  0
LINE
  5
212
330
1F
100
AcDbEntity
  8
0-B_寸法
  6
Continuous
 62
   120
370
     5
100
AcDbLine
 10
1654.612361776234
 20
-864.7925497514399
 30
0.0
 11
1754.612361776234
 21
-864.7925497514399
 31
0.0
  0
LWPOLYLINE
  5
213
330
1F
100
AcDbEntity
  8
0-B_寸法
  6
Continuous
 62
     7
370
     9
100
AcDbPolyline
 90
        4
 70
     1
 43
2.0
 10
1655.612361776234
 20
-864.7925497514399
 42
0.4142135623731
 10
1654.612361776234
 20
-863.79254975144
 42
0.4142135623731
 10
1653.612361776234
 20
-864.7925497514399
 42
0.4142135623731
 10
1654.612361776234
 20
-865.7925497514398
 42
0.4142135623731
  0
LINE
  5
214
330
1F
100
AcDbEntity
  8
0-B_寸法
  6
Continuous
 62
   120
370
     5
100
AcDbLine
 10
1654.612361776234
 20
-1312.792549751441
 30
0.0
 11
1654.612361776234
 21
-864.7925497514399
 31
0.0
  0
LINE
  5
215
330
1F
100
AcDbEntity
  8
0-B_寸法
  6
Continuous
 62
   120
370
     5
100
AcDbLine
 10
1654.612361776234
 20
-1312.792549751441
 30
0.0
 11
1754.612361776234
 21
-1312.792549751441
 31
0.0
  0
LWPOLYLINE
  5
216
330
1F
100
AcDbEntity
  8
0-B_寸法
  6
Continuous
 62
     7
370
     9
100
AcDbPolyline
 90
        4
 70
     1
 43
2.0
 10
1655.612361776234
 20
-1312.792549751441
 42
0.4142135623731
 10
1654.612361776234
 20
-1311.792549751441
 42
0.4142135623731
 10
1653.612361776234
 20
-1312.792549751441
 42
0.4142135623731
 10
1654.612361776234
 20
-1313.792549751441
 42
0.4142135623731
  0
LINE
  5
217
330
1F
100
AcDbEntity
  8
0-B_寸法
  6
Continuous
 62
   120
370
     5
100
AcDbLine
 10
1654.612361776234
 20
-1469.292549751441
 30
0.0
 11
1654.612361776234
 21
-1312.792549751441
 31
0.0
  0
LINE
  5
218
330
1F
100
AcDbEntity
  8
0-0_補助線
  6
JWW_HOJO
 62
     7
370
     9
100
AcDbLine
 10
1764.859803226788
 20
-864.7925497514399
 30
0.0
 11
2271.61236163662
 21
-864.7925497514399
 31
0.0
  0
LINE
  5
219
330
1F
100
AcDbEntity
  8
0-0_補助線
  6
JWW_HOJO
 62
     7
370
     9
100
AcDbLine
 10
2271.612361683159
 20
-1312.792569546626
 30
0.0
 11
1682.547280616671
 21
-1312.792569546626
 31
0.0
  0
CIRCLE
  5
21A
330
1F
100
AcDbEntity
  8
0-5_ダボ
  6
Continuous
 62
     7
370
     9
100
AcDbCircle
 10
1963.612361683157
 20
-812.2925497514395
 30
0.0
 40
2.5
  0
CIRCLE
  5
21B
330
1F
100
AcDbEntity
  8
0-5_ダボ
  6
Continuous
 62
     7
370
     9
100
AcDbCircle
 10
1963.612361683157
 20
-844.2925497514403
 30
0.0
 40
2.5
  0
LINE
  5
21C
330
1F
100
AcDbEntity
  8
0-0_補助線
  6
JWW_HOJO
 62
     7
370
     9
100
AcDbLine
 10
2249.612361683156
 20
-1461.29254975144
 30
0.0
 11
2249.612361683156
 21
-708.2925497514401
 31
0.0
  0
LINE
  5
21D
330
1F
100
AcDbEntity
  8
0-B_寸法
  6
Continuous
 62
   120
370
     5
100
AcDbLine
 10
1454.612361776234
 20
-708.2925497514401
 30
0.0
 11
1854.612361776234
 21
-708.2925497514401
 31
0.0
  0
LWPOLYLINE
  5
21E
330
1F
100
AcDbEntity
  8
0-B_寸法
  6
Continuous
 62
     7
370
     9
100
AcDbPolyline
 90
        4
 70
     1
 43
2.0
 10
1655.612361776234
 20
-708.2925497514401
 42
0.4142135623731
 10
1654.612361776234
 20
-707.2925497514402
 42
0.4142135623731
 10
1653.612361776234
 20
-708.2925497514401
 42
0.4142135623731
 10
1654.612361776234
 20
-709.29254975144
 42
0.4142135623731
  0
LINE
  5
21F
330
1F
100
AcDbEntity
  8
0-B_寸法
  6
Continuous
 62
   120
370
     5
100
AcDbLine
 10
1654.612361776234
 20
-864.7925497514399
 30
0.0
 11
1654.612361776234
 21
-708.2925497514401
 31
0.0
  0
LINE
  5
220
330
1F
100
AcDbEntity
  8
0-B_寸法
  6
Continuous
 62
   120
370
     5
100
AcDbLine
 10
1754.612361776234
 20
-828.2925497514407
 30
0.0
 11
1754.612361776234
 21
-1349.292549751441
 31
0.0
  0
MTEXT
  5
221
330
1F
100
AcDbEntity
  8
0-B_寸法
  6
Continuous
 62
     7
370
   211
100
AcDbMText
 10
1744.612361776234
 20
-820.4325497514401
 30
0.0
 40
45.72
 41
90.0
 46
0.0
 71
     7
 72
     1
  1
{\fＭＳ ゴシック|b0|i0|c128|p49;120}
 11
6.123031769111886E-17
 21
1.0
 31
0.0
 73
     1
 44
1.0
  0
LINE
  5
222
330
1F
100
AcDbEntity
  8
0-B_寸法
  6
Continuous
 62
   120
370
     5
100
AcDbLine
 10
1754.612361776234
 20
-828.2925497514407
 30
0.0
 11
1854.612361683156
 21
-828.2925497514407
 31
0.0
  0
LWPOLYLINE
  5
223
330
1F
100
AcDbEntity
  8
0-B_寸法
  6
Continuous
 62
     7
370
     9
100
AcDbPolyline
 90
        4
 70
     1
 43
2.0
 10
1755.612361776234
 20
-828.2925497514407
 42
0.4142135623731
 10
1754.612361776234
 20
-827.2925497514407
 42
0.4142135623731
 10
1753.612361776234
 20
-828.2925497514407
 42
0.4142135623731
 10
1754.612361776234
 20
-829.2925497514407
 42
0.4142135623731
  0
LWPOLYLINE
  5
224
330
1F
100
AcDbEntity
  8
0-B_寸法
  6
Continuous
 62
     7
370
     9
100
AcDbPolyline
 90
        4
 70
     1
 43
2.0
 10
1755.612361776234
 20
-708.2925497514401
 42
0.4142135623731
 10
1754.612361776234
 20
-707.2925497514402
 42
0.4142135623731
 10
1753.612361776234
 20
-708.2925497514401
 42
0.4142135623731
 10
1754.612361776234
 20
-709.29254975144
 42
0.4142135623731
  0
LINE
  5
225
330
1F
100
AcDbEntity
  8
0-B_寸法
  6
Continuous
 62
   120
370
     5
100
AcDbLine
 10
1754.612361776234
 20
-708.2925497514401
 30
0.0
 11
1754.612361776234
 21
-828.2925497514407
 31
0.0
  0
LINE
  5
226
330
1F
100
AcDbEntity
  8
0-B_寸法
  6
Continuous
 62
   120
370
     5
100
AcDbLine
 10
1554.612361776234
 20
-1466.292568309427
 30
0.0
 11
1554.612361776234
 21
-711.2925299562545
 31
0.0
  0
LINE
  5
227
330
1F
100
AcDbEntity
  8
0-B_寸法
  6
Continuous
 62
   120
370
     5
100
AcDbLine
 10
1554.612361776234
 20
-711.2925299562545
 30
0.0
 11
1554.612361776234
 21
-708.2925299562546
 31
0.0
  0
LINE
  5
228
330
1F
100
AcDbEntity
  8
0-B_寸法
  6
Continuous
 62
   120
370
     5
100
AcDbLine
 10
1554.612361776234
 20
-711.2925299562545
 30
0.0
 11
1654.612361776234
 21
-711.2925299562545
 31
0.0
  0
LWPOLYLINE
  5
229
330
1F
100
AcDbEntity
  8
0-B_寸法
  6
Continuous
 62
     7
370
     9
100
AcDbPolyline
 90
        4
 70
     1
 43
2.0
 10
1555.612361776234
 20
-711.2925299562545
 42
0.4142135623731
 10
1554.612361776234
 20
-710.2925299562546
 42
0.4142135623731
 10
1553.612361776234
 20
-711.2925299562545
 42
0.4142135623731
 10
1554.612361776234
 20
-712.2925299562544
 42
0.4142135623731
  0
MTEXT
  5
22A
330
1F
100
AcDbEntity
  8
0-B_寸法
  6
Continuous
 62
     7
370
   211
100
AcDbMText
 10
1544.612361776234
 20
-748.6834927302181
 30
0.0
 40
45.72
 41
30.0
 46
0.0
 71
     7
 72
     1
  1
{\fＭＳ ゴシック|b0|i0|c128|p49;3}
 11
6.123031769111886E-17
 21
1.0
 31
0.0
 73
     1
 44
1.0
  0
LINE
  5
22B
330
1F
100
AcDbEntity
  8
0-B_寸法
  6
Continuous
 62
   120
370
     5
100
AcDbLine
 10
1554.612361776234
 20
-708.2925299562546
 30
0.0
 11
1654.612361776234
 21
-708.2925299562546
 31
0.0
  0
LWPOLYLINE
  5
22C
330
1F
100
AcDbEntity
  8
0-B_寸法
  6
Continuous
 62
     7
370
     9
100
AcDbPolyline
 90
        4
 70
     1
 43
2.0
 10
1555.612361776234
 20
-708.2925299562546
 42
0.4142135623731
 10
1554.612361776234
 20
-707.2925299562547
 42
0.4142135623731
 10
1553.612361776234
 20
-708.2925299562546
 42
0.4142135623731
 10
1554.612361776234
 20
-709.2925299562546
 42
0.4142135623731
  0
LINE
  5
22D
330
1F
100
AcDbEntity
  8
0-B_寸法
  6
Continuous
 62
   120
370
     5
100
AcDbLine
 10
1454.612361776234
 20
-1469.292549751441
 30
0.0
 11
1454.612361776234
 21
-678.2925695466264
 31
0.0
  0
LINE
  5
22E
330
1F
100
AcDbEntity
  8
0-B_寸法
  6
Continuous
 62
   120
370
     5
100
AcDbLine
 10
1454.612361776234
 20
-708.2925299562546
 30
0.0
 11
1554.612361776234
 21
-708.2925299562546
 31
0.0
  0
LWPOLYLINE
  5
22F
330
1F
100
AcDbEntity
  8
0-B_寸法
  6
Continuous
 62
     7
370
     9
100
AcDbPolyline
 90
        4
 70
     1
 43
2.0
 10
1455.612361776234
 20
-708.2925299562546
 42
0.4142135623731
 10
1454.612361776234
 20
-707.2925299562547
 42
0.4142135623731
 10
1453.612361776234
 20
-708.2925299562546
 42
0.4142135623731
 10
1454.612361776234
 20
-709.2925299562546
 42
0.4142135623731
  0
MTEXT
  5
230
330
1F
100
AcDbEntity
  8
0-B_寸法
  6
Continuous
 62
     7
370
   211
100
AcDbMText
 10
1644.612361776234
 20
-880.4325497514401
 30
0.0
 40
45.72
 41
150.0
 46
0.0
 71
     7
 72
     1
  1
{\fＭＳ ゴシック|b0|i0|c128|p49;156.5}
 11
6.123031769111886E-17
 21
1.0
 31
0.0
 73
     1
 44
1.0
  0
MTEXT
  5
231
330
1F
100
AcDbEntity
  8
0-B_寸法
  6
Continuous
 62
     7
370
   211
100
AcDbMText
 10
1644.612361776234
 20
-1461.432549751441
 30
0.0
 40
45.72
 41
150.0
 46
0.0
 71
     7
 72
     1
  1
{\fＭＳ ゴシック|b0|i0|c128|p49;156.5}
 11
6.123031769111886E-17
 21
1.0
 31
0.0
 73
     1
 44
1.0
  0
MTEXT
  5
232
330
1F
100
AcDbEntity
  8
0-B_寸法
  6
Continuous
 62
     7
370
   211
100
AcDbMText
 10
1544.612361776234
 20
-1230.932471572239
 30
0.0
 40
45.71999999999999
 41
270.0
 46
0.0
 71
     7
 72
     1
  1
{\fＭＳ ゴシック|b0|i0|c128|p49;ＤＨ＝755}
 11
6.123031769111886E-17
 21
1.0
 31
0.0
 73
     1
 44
1.0
  0
MTEXT
  5
233
330
1F
100
AcDbEntity
  8
0-B_寸法
  6
Continuous
 62
     7
370
   211
100
AcDbMText
 10
1444.612361776234
 20
-1140.932559649033
 30
0.0
 40
45.72
 41
90.0
 46
0.0
 71
     7
 72
     1
  1
{\fＭＳ ゴシック|b0|i0|c128|p49;761}
 11
6.123031769111886E-17
 21
1.0
 31
0.0
 73
     1
 44
1.0
  0
LINE
  5
234
330
1F
100
AcDbEntity
  8
0-6_桟木
  6
Continuous
 62
    92
370
    13
100
AcDbLine
 10
2268.612361683157
 20
-1454.292549751441
 30
0.0
 11
2268.612361683157
 21
-1390.292549751441
 31
0.0
  0
LINE
  5
235
330
1F
100
AcDbEntity
  8
0-6_桟木
  6
Continuous
 62
    92
370
    13
100
AcDbLine
 10
2268.612361683157
 20
-1390.292549751441
 30
0.0
 11
2253.612361683157
 21
-1390.292549751441
 31
0.0
  0
LINE
  5
236
330
1F
100
AcDbEntity
  8
0-6_桟木
  6
Continuous
 62
    92
370
    13
100
AcDbLine
 10
2253.612361683157
 20
-1390.292549751441
 30
0.0
 11
2253.612361683157
 21
-1454.292549751441
 31
0.0
  0
LINE
  5
237
330
1F
100
AcDbEntity
  8
0-6_桟木
  6
Continuous
 62
    92
370
    13
100
AcDbLine
 10
2253.612361683157
 20
-1454.292549751441
 30
0.0
 11
2268.612361683157
 21
-1454.292549751441
 31
0.0
  0
CIRCLE
  5
238
330
1F
100
AcDbEntity
  8
0-6_桟木
  6
Continuous
 62
     7
370
     9
100
AcDbCircle
 10
2261.112361683157
 20
-1406.292549751441
 30
0.0
 40
4.0
  0
CIRCLE
  5
239
330
1F
100
AcDbEntity
  8
0-6_桟木
  6
Continuous
 62
     7
370
     9
100
AcDbCircle
 10
2261.112361683157
 20
-1438.292549751441
 30
0.0
 40
4.0
  0
LINE
  5
23A
330
1F
100
AcDbEntity
  8
0-6_桟木
  6
Continuous
 62
    92
370
    13
100
AcDbLine
 10
2268.612361683157
 20
-787.2925497514399
 30
0.0
 11
2268.612361683157
 21
-723.2925497514409
 31
0.0
  0
LINE
  5
23B
330
1F
100
AcDbEntity
  8
0-6_桟木
  6
Continuous
 62
    92
370
    13
100
AcDbLine
 10
2268.612361683157
 20
-723.2925497514409
 30
0.0
 11
2253.612361683157
 21
-723.2925497514409
 31
0.0
  0
LINE
  5
23C
330
1F
100
AcDbEntity
  8
0-6_桟木
  6
Continuous
 62
    92
370
    13
100
AcDbLine
 10
2253.612361683157
 20
-723.2925497514409
 30
0.0
 11
2253.612361683157
 21
-787.2925497514399
 31
0.0
  0
LINE
  5
23D
330
1F
100
AcDbEntity
  8
0-6_桟木
  6
Continuous
 62
    92
370
    13
100
AcDbLine
 10
2253.612361683157
 20
-787.2925497514399
 30
0.0
 11
2268.612361683157
 21
-787.2925497514399
 31
0.0
  0
CIRCLE
  5
23E
330
1F
100
AcDbEntity
  8
0-6_桟木
  6
Continuous
 62
     7
370
     9
100
AcDbCircle
 10
2261.112361683157
 20
-739.29254975144
 30
0.0
 40
4.0
  0
CIRCLE
  5
23F
330
1F
100
AcDbEntity
  8
0-6_桟木
  6
Continuous
 62
     7
370
     9
100
AcDbCircle
 10
2261.112361683157
 20
-771.2925497514404
 30
0.0
 40
4.0
  0
MTEXT
  5
240
330
1F
100
AcDbEntity
  8
0-B_寸法
  6
Continuous
 62
     7
370
   211
100
AcDbMText
 10
2077.86449448408
 20
-982.7854920380565
 30
0.0
 40
45.72
 41
90.0
 46
0.0
 71
     7
 72
     1
  1
{\fＭＳ ゴシック|b0|i0|c128|p49;P32}
 73
     1
 44
1.0
  0
LWPOLYLINE
  5
241
330
1F
100
AcDbEntity
  8
0-B_寸法
  6
Continuous
 62
     7
370
     9
100
AcDbPolyline
 90
        4
 70
     1
 43
2.0
 10
2062.612361683155
 20
-960.7925497514384
 42
0.4142135623731
 10
2061.612361683155
 20
-959.7925497514384
 42
0.4142135623731
 10
2060.612361683155
 20
-960.7925497514384
 42
0.4142135623731
 10
2061.612361683155
 20
-961.7925497514384
 42
0.4142135623731
  0
LWPOLYLINE
  5
242
330
1F
100
AcDbEntity
  8
0-B_寸法
  6
Continuous
 62
     7
370
     9
100
AcDbPolyline
 90
        4
 70
     1
 43
2.0
 10
2062.612361683155
 20
-928.7925497514397
 42
0.4142135623731
 10
2061.612361683155
 20
-927.7925497514398
 42
0.4142135623731
 10
2060.612361683155
 20
-928.7925497514397
 42
0.4142135623731
 10
2061.612361683155
 20
-929.7925497514395
 42
0.4142135623731
  0
LINE
  5
243
330
1F
100
AcDbEntity
  8
0-B_寸法
  6
Continuous
 62
   120
370
     5
100
AcDbLine
 10
2061.612361683155
 20
-928.7925497514397
 30
0.0
 11
2061.612361683155
 21
-960.7925497514384
 31
0.0
  0
LINE
  5
244
330
1F
100
AcDbEntity
  8
0-B_寸法
  6
Continuous
 62
   120
370
     5
100
AcDbLine
 10
2061.612361683155
 20
-960.7925497514384
 30
0.0
 11
2011.612361683155
 21
-960.7925497514384
 31
0.0
  0
LINE
  5
245
330
1F
100
AcDbEntity
  8
0-B_寸法
  6
Continuous
 62
   120
370
     5
100
AcDbLine
 10
2061.612361683155
 20
-928.7925497514397
 30
0.0
 11
2011.612361683155
 21
-928.7925497514397
 31
0.0
  0
CIRCLE
  5
246
330
1F
100
AcDbEntity
  8
0-5_ダボ
  6
Continuous
 62
     7
370
     9
100
AcDbCircle
 10
1993.612361683157
 20
-864.8141586736963
 30
0.0
 40
2.5
  0
CIRCLE
  5
247
330
1F
100
AcDbEntity
  8
0-5_ダボ
  6
Continuous
 62
     7
370
     9
100
AcDbCircle
 10
1993.612361683157
 20
-896.8141586736967
 30
0.0
 40
2.5
  0
CIRCLE
  5
248
330
1F
100
AcDbEntity
  8
0-5_ダボ
  6
Continuous
 62
     7
370
     9
100
AcDbCircle
 10
1993.612361683157
 20
-928.814158673697
 30
0.0
 40
2.5
  0
CIRCLE
  5
249
330
1F
100
AcDbEntity
  8
0-5_ダボ
  6
Continuous
 62
     7
370
     9
100
AcDbCircle
 10
1993.612361683157
 20
-960.8141586736974
 30
0.0
 40
2.5
  0
CIRCLE
  5
24A
330
1F
100
AcDbEntity
  8
0-5_ダボ
  6
Continuous
 62
     7
370
     9
100
AcDbCircle
 10
1993.612361683157
 20
-992.8141586736962
 30
0.0
 40
2.5
  0
CIRCLE
  5
24B
330
1F
100
AcDbEntity
  8
0-5_ダボ
  6
Continuous
 62
     7
370
     9
100
AcDbCircle
 10
1993.612361683157
 20
-1024.814158673697
 30
0.0
 40
2.5
  0
CIRCLE
  5
24C
330
1F
100
AcDbEntity
  8
0-5_ダボ
  6
Continuous
 62
     7
370
     9
100
AcDbCircle
 10
1993.612361683157
 20
-1056.814158673697
 30
0.0
 40
2.5
  0
CIRCLE
  5
24D
330
1F
100
AcDbEntity
  8
0-5_ダボ
  6
Continuous
 62
     7
370
     9
100
AcDbCircle
 10
1993.612361683157
 20
-1088.814158673697
 30
0.0
 40
2.5
  0
CIRCLE
  5
24E
330
1F
100
AcDbEntity
  8
0-5_ダボ
  6
Continuous
 62
     7
370
     9
100
AcDbCircle
 10
1993.612361683157
 20
-1120.814158673697
 30
0.0
 40
2.5
  0
CIRCLE
  5
24F
330
1F
100
AcDbEntity
  8
0-5_ダボ
  6
Continuous
 62
     7
370
     9
100
AcDbCircle
 10
1993.612361683157
 20
-1152.814158673697
 30
0.0
 40
2.5
  0
CIRCLE
  5
250
330
1F
100
AcDbEntity
  8
0-5_ダボ
  6
Continuous
 62
     7
370
     9
100
AcDbCircle
 10
1993.612361683157
 20
-1184.814158673698
 30
0.0
 40
2.5
  0
CIRCLE
  5
251
330
1F
100
AcDbEntity
  8
0-5_ダボ
  6
Continuous
 62
     7
370
     9
100
AcDbCircle
 10
1993.612361683157
 20
-1216.814158673697
 30
0.0
 40
2.5
  0
CIRCLE
  5
252
330
1F
100
AcDbEntity
  8
0-5_ダボ
  6
Continuous
 62
     7
370
     9
100
AcDbCircle
 10
1993.612361683157
 20
-1248.814158673697
 30
0.0
 40
2.5
  0
CIRCLE
  5
253
330
1F
100
AcDbEntity
  8
0-5_ダボ
  6
Continuous
 62
     7
370
     9
100
AcDbCircle
 10
1993.612361683157
 20
-1280.814158673697
 30
0.0
 40
2.5
  0
CIRCLE
  5
254
330
1F
100
AcDbEntity
  8
0-5_ダボ
  6
Continuous
 62
     7
370
     9
100
AcDbCircle
 10
1993.612361683157
 20
-1312.814158673697
 30
0.0
 40
2.5
  0
LINE
  5
255
330
1F
100
AcDbEntity
  8
0-0_補助線
  6
JWW_HOJO
 62
     7
370
     9
100
AcDbLine
 10
1993.612361683157
 20
-710.2925497514406
 30
0.0
 11
1993.612361683157
 21
-1469.292549751441
 31
0.0
  0
LINE
  5
256
330
1F
100
AcDbEntity
  8
0-1_本体
  6
Continuous
 62
    40
370
    15
100
AcDbLine
 10
2268.612361683157
 20
-723.2925497514409
 30
0.0
 11
1926.612361683159
 21
-723.2925497514409
 31
0.0
  0
LINE
  5
257
330
1F
100
AcDbEntity
  8
0-1_本体
  6
Continuous
 62
    40
370
    15
100
AcDbLine
 10
1926.612361683159
 20
-723.2925497514409
 30
0.0
 11
1926.612361683159
 21
-708.2925299562546
 31
0.0
  0
MTEXT
  5
258
330
1F
100
AcDbEntity
  8
0-B_寸法
  6
Continuous
 62
     7
370
   211
100
AcDbMText
 10
1744.612361776234
 20
-1140.932569546626
 30
0.0
 40
45.72
 41
90.0
 46
0.0
 71
     7
 72
     1
  1
{\fＭＳ ゴシック|b0|i0|c128|p49;521}
 11
6.123031769111886E-17
 21
1.0
 31
0.0
 73
     1
 44
1.0
  0
LINE
  5
259
330
1F
100
AcDbEntity
  8
0-1_本体
  6
Continuous
 62
    40
370
    15
100
AcDbLine
 10
2268.612361683157
 20
-1461.29254975144
 30
0.0
 11
2268.612361683157
 21
-716.2925497514408
 31
0.0
  0
LINE
  5
25A
330
1F
100
AcDbEntity
  8
0-1_本体
  6
Continuous
 62
    40
370
    15
100
AcDbLine
 10
2270.112361683159
 20
-1461.29254975144
 30
0.0
 11
2270.112361683159
 21
-716.2925497514408
 31
0.0
  0
LINE
  5
25B
330
1F
100
AcDbEntity
  8
0-1_本体
  6
Continuous
 62
    40
370
    15
100
AcDbLine
 10
2268.612361683157
 20
-716.2925497514408
 30
0.0
 11
2271.612361683159
 21
-716.2925497514408
 31
0.0
  0
LINE
  5
25C
330
1F
100
AcDbEntity
  8
0-1_本体
  6
Continuous
 62
     7
370
     9
100
AcDbLine
 10
2271.612361683159
 20
-1469.292549751441
 30
0.0
 11
2271.612361683159
 21
-708.2925497514401
 31
0.0
  0
LINE
  5
25D
330
1F
100
AcDbEntity
  8
0-1_本体
  6
Continuous
 62
    40
370
    15
100
AcDbLine
 10
1926.612361683159
 20
-708.2925497514409
 30
0.0
 11
2271.612361683159
 21
-708.2925497514409
 31
0.0
  0
LINE
  5
25E
330
1F
100
AcDbEntity
  8
0-B_寸法
  6
Continuous
 62
   120
370
     5
100
AcDbLine
 10
1925.612361822774
 20
-426.2925497514388
 30
0.0
 11
1925.612361822774
 21
-626.2925497514385
 31
0.0
  0
LINE
  5
25F
330
1F
100
AcDbEntity
  8
0-B_寸法
  6
Continuous
 62
   120
370
     5
100
AcDbLine
 10
2271.612361822775
 20
-426.2925497514388
 30
0.0
 11
1926.612361822775
 21
-426.2925497514388
 31
0.0
  0
LWPOLYLINE
  5
260
330
1F
100
AcDbEntity
  8
0-B_寸法
  6
Continuous
 62
     7
370
     9
100
AcDbPolyline
 90
        4
 70
     1
 43
2.0
 10
2272.612361822775
 20
-426.2925497514388
 42
0.4142135623731
 10
2271.612361822775
 20
-425.2925497514388
 42
0.4142135623731
 10
2270.612361822775
 20
-426.2925497514388
 42
0.4142135623731
 10
2271.612361822775
 20
-427.2925497514388
 42
0.4142135623731
  0
LWPOLYLINE
  5
261
330
1F
100
AcDbEntity
  8
0-B_寸法
  6
Continuous
 62
     7
370
     9
100
AcDbPolyline
 90
        4
 70
     1
 43
2.0
 10
1927.612361822775
 20
-426.2925497514388
 42
0.4142135623731
 10
1926.612361822775
 20
-425.2925497514388
 42
0.4142135623731
 10
1925.612361822775
 20
-426.2925497514388
 42
0.4142135623731
 10
1926.612361822775
 20
-427.2925497514388
 42
0.4142135623731
  0
LINE
  5
262
330
1F
100
AcDbEntity
  8
0-B_寸法
  6
Continuous
 62
   120
370
     5
100
AcDbLine
 10
2271.612361822775
 20
-426.2925497514388
 30
0.0
 11
2271.612361822775
 21
-526.2925497514389
 31
0.0
  0
LINE
  5
263
330
1F
100
AcDbEntity
  8
0-B_寸法
  6
Continuous
 62
   120
370
     5
100
AcDbLine
 10
1926.612361822775
 20
-426.2925497514388
 30
0.0
 11
1926.612361822775
 21
-526.2925497514389
 31
0.0
  0
MTEXT
  5
264
330
1F
100
AcDbEntity
  8
0-B_寸法
  6
Continuous
 62
     7
370
   211
100
AcDbMText
 10
2054.112361822775
 20
-423.4325497514394
 30
0.0
 40
45.72
 41
90.0
 46
0.0
 71
     7
 72
     1
  1
{\fＭＳ ゴシック|b0|i0|c128|p49;345}
 73
     1
 44
1.0
  0
LINE
  5
265
330
1F
100
AcDbEntity
  8
0-B_寸法
  6
Continuous
 62
   120
370
     5
100
AcDbLine
 10
1926.612361822775
 20
-426.2925497514388
 30
0.0
 11
1925.612361822774
 21
-426.2925497514388
 31
0.0
  0
LWPOLYLINE
  5
266
330
1F
100
AcDbEntity
  8
0-B_寸法
  6
Continuous
 62
     7
370
     9
100
AcDbPolyline
 90
        4
 70
     1
 43
2.0
 10
1926.612361822774
 20
-426.2925497514388
 42
0.4142135623731
 10
1925.612361822774
 20
-425.2925497514388
 42
0.4142135623731
 10
1924.612361822774
 20
-426.2925497514388
 42
0.4142135623731
 10
1925.612361822774
 20
-427.2925497514388
 42
0.4142135623731
  0
LWPOLYLINE
  5
267
330
1F
100
AcDbEntity
  8
0-B_寸法
  6
Continuous
 62
     7
370
     9
100
AcDbPolyline
 90
        4
 70
     1
 43
2.0
 10
2272.612361683159
 20
-226.2925497514394
 42
0.4142135623731
 10
2271.612361683159
 20
-225.2925497514394
 42
0.4142135623731
 10
2270.612361683159
 20
-226.2925497514394
 42
0.4142135623731
 10
2271.612361683159
 20
-227.2925497514394
 42
0.4142135623731
  0
LINE
  5
268
330
1F
100
AcDbEntity
  8
0-B_寸法
  6
Continuous
 62
   120
370
     5
100
AcDbLine
 10
2271.612361683159
 20
-226.2925497514394
 30
0.0
 11
2271.612361776236
 21
-426.2925497514388
 31
0.0
  0
MTEXT
  5
269
330
1F
100
AcDbEntity
  8
0-B_寸法
  6
Continuous
 62
     7
370
   211
100
AcDbMText
 10
1911.112361822773
 20
-423.4325497514394
 30
0.0
 40
45.72
 41
30.0
 46
0.0
 71
     7
 72
     1
  1
{\fＭＳ ゴシック|b0|i0|c128|p49;1}
 73
     1
 44
1.0
  0
MTEXT
  5
26A
330
1F
100
AcDbEntity
  8
0-B_寸法
  6
Continuous
 62
     7
370
   211
100
AcDbMText
 10
2096.176691098053
 20
-523.4325497514402
 30
0.0
 40
45.72
 41
90.0
 46
0.0
 71
     7
 72
     1
  1
{\fＭＳ ゴシック|b0|i0|c128|p49;256}
 73
     1
 44
1.0
  0
MTEXT
  5
26B
330
1F
100
AcDbEntity
  8
0-B_寸法
  6
Continuous
 62
     7
370
   211
100
AcDbMText
 10
2011.7654635326
 20
-523.4325497514402
 30
0.0
 40
45.72
 41
60.0
 46
0.0
 71
     7
 72
     1
  1
{\fＭＳ ゴシック|b0|i0|c128|p49;30}
 73
     1
 44
1.0
  0
LWPOLYLINE
  5
26C
330
1F
100
AcDbEntity
  8
0-B_寸法
  6
Continuous
 62
     7
370
     9
100
AcDbPolyline
 90
        4
 70
     1
 43
2.0
 10
1994.612361683157
 20
-526.2925497514402
 42
0.4142135623731
 10
1993.612361683157
 20
-525.2925497514402
 42
0.4142135623731
 10
1992.612361683157
 20
-526.2925497514402
 42
0.4142135623731
 10
1993.612361683157
 20
-527.2925497514402
 42
0.4142135623731
  0
LINE
  5
26D
330
1F
100
AcDbEntity
  8
0-B_寸法
  6
Continuous
 62
   120
370
     5
100
AcDbLine
 10
1993.612361683157
 20
-526.2925497514402
 30
0.0
 11
1993.612361683157
 21
-626.2925497514402
 31
0.0
  0
LINE
  5
26E
330
1F
100
AcDbEntity
  8
0-B_寸法
  6
Continuous
 62
   120
370
     5
100
AcDbLine
 10
1993.612361683157
 20
-526.2925497514402
 30
0.0
 11
1963.612361683157
 21
-526.2925497514402
 31
0.0
  0
LINE
  5
26F
330
1F
100
AcDbEntity
  8
0-B_寸法
  6
Continuous
 62
   120
370
     5
100
AcDbLine
 10
2249.612361683156
 20
-526.2925497514402
 30
0.0
 11
1993.612361683157
 21
-526.2925497514402
 31
0.0
  0
LWPOLYLINE
  5
270
330
1F
100
AcDbEntity
  8
0-B_寸法
  6
Continuous
 62
     7
370
     9
100
AcDbPolyline
 90
        4
 70
     1
 43
2.0
 10
2272.61236163662
 20
-526.2925497514402
 42
0.4142135623731
 10
2271.61236163662
 20
-525.2925497514402
 42
0.4142135623731
 10
2270.61236163662
 20
-526.2925497514402
 42
0.4142135623731
 10
2271.61236163662
 20
-527.2925497514402
 42
0.4142135623731
  0
LINE
  5
271
330
1F
100
AcDbEntity
  8
0-B_寸法
  6
Continuous
 62
   120
370
     5
100
AcDbLine
 10
2271.61236163662
 20
-526.2925497514402
 30
0.0
 11
2271.61236163662
 21
-626.2925497514402
 31
0.0
  0
LWPOLYLINE
  5
272
330
1F
100
AcDbEntity
  8
0-B_寸法
  6
Continuous
 62
     7
370
     9
100
AcDbPolyline
 90
        4
 70
     1
 43
2.0
 10
1964.612361683157
 20
-526.2925497514402
 42
0.4142135623731
 10
1963.612361683157
 20
-525.2925497514402
 42
0.4142135623731
 10
1962.612361683157
 20
-526.2925497514402
 42
0.4142135623731
 10
1963.612361683157
 20
-527.2925497514402
 42
0.4142135623731
  0
LINE
  5
273
330
1F
100
AcDbEntity
  8
0-B_寸法
  6
Continuous
 62
   120
370
     5
100
AcDbLine
 10
1963.612361683157
 20
-526.2925497514402
 30
0.0
 11
1963.612361683157
 21
-626.2925497514402
 31
0.0
  0
LINE
  5
274
330
1F
100
AcDbEntity
  8
0-B_寸法
  6
Continuous
 62
   120
370
     5
100
AcDbLine
 10
1963.612361683157
 20
-526.2925497514402
 30
0.0
 11
1926.612361683159
 21
-526.2925497514402
 31
0.0
  0
LWPOLYLINE
  5
275
330
1F
100
AcDbEntity
  8
0-B_寸法
  6
Continuous
 62
     7
370
     9
100
AcDbPolyline
 90
        4
 70
     1
 43
2.0
 10
1927.612361683159
 20
-526.2925497514402
 42
0.4142135623731
 10
1926.612361683159
 20
-525.2925497514402
 42
0.4142135623731
 10
1925.612361683159
 20
-526.2925497514402
 42
0.4142135623731
 10
1926.612361683159
 20
-527.2925497514402
 42
0.4142135623731
  0
LINE
  5
276
330
1F
100
AcDbEntity
  8
0-B_寸法
  6
Continuous
 62
   120
370
     5
100
AcDbLine
 10
1926.612361683159
 20
-526.2925497514402
 30
0.0
 11
1926.612361683159
 21
-626.2925497514402
 31
0.0
  0
LINE
  5
277
330
1F
100
AcDbEntity
  8
0-B_寸法
  6
Continuous
 62
   120
370
     5
100
AcDbLine
 10
2271.61236163662
 20
-526.2925497514402
 30
0.0
 11
2249.612361683156
 21
-526.2925497514402
 31
0.0
  0
LWPOLYLINE
  5
278
330
1F
100
AcDbEntity
  8
0-B_寸法
  6
Continuous
 62
     7
370
     9
100
AcDbPolyline
 90
        4
 70
     1
 43
2.0
 10
2250.612361683156
 20
-526.2925497514402
 42
0.4142135623731
 10
2249.612361683156
 20
-525.2925497514402
 42
0.4142135623731
 10
2248.612361683156
 20
-526.2925497514402
 42
0.4142135623731
 10
2249.612361683156
 20
-527.2925497514402
 42
0.4142135623731
  0
LINE
  5
279
330
1F
100
AcDbEntity
  8
0-B_寸法
  6
Continuous
 62
   120
370
     5
100
AcDbLine
 10
2249.612361683156
 20
-526.2925497514402
 30
0.0
 11
2249.612361683156
 21
-626.2925497514402
 31
0.0
  0
MTEXT
  5
27A
330
1F
100
AcDbEntity
  8
0-B_寸法
  6
Continuous
 62
     7
370
   211
100
AcDbMText
 10
1932.232409103893
 20
-523.4325497514402
 30
0.0
 40
45.72
 41
60.0
 46
0.0
 71
     7
 72
     1
  1
{\fＭＳ ゴシック|b0|i0|c128|p49;37}
 73
     1
 44
1.0
  0
MTEXT
  5
27B
330
1F
100
AcDbEntity
  8
0-B_寸法
  6
Continuous
 62
     7
370
   211
100
AcDbMText
 10
2208.149900632883
 20
-523.4325497514402
 30
0.0
 40
45.72
 41
60.0
 46
0.0
 71
     7
 72
     1
  1
{\fＭＳ ゴシック|b0|i0|c128|p49;22}
 73
     1
 44
1.0
  0
LINE
  5
27C
330
1F
100
AcDbEntity
  8
0-0_補助線
  6
JWW_HOJO
 62
   120
370
     5
100
AcDbLine
 10
1854.612361776234
 20
-526.2925497514402
 30
0.0
 11
2321.612361683159
 21
-526.2925497514402
 31
0.0
  0
LINE
  5
27D
330
1F
100
AcDbEntity
  8
0-0_補助線
  6
JWW_HOJO
 62
   120
370
     5
100
AcDbLine
 10
1354.612361776234
 20
-626.2925497514402
 30
0.0
 11
2421.612361683159
 21
-626.2925497514402
 31
0.0
  0
LINE
  5
27E
330
1F
100
AcDbEntity
  8
0-0_補助線
  6
JWW_HOJO
 62
   120
370
     5
100
AcDbLine
 10
1754.612361776234
 20
-1469.292549751441
 30
0.0
 11
1754.612361776234
 21
-626.2925497514402
 31
0.0
  0
LINE
  5
27F
330
1F
100
AcDbEntity
  8
0-0_補助線
  6
JWW_HOJO
 62
   120
370
     5
100
AcDbLine
 10
1654.612361776234
 20
-1469.292568309427
 30
0.0
 11
1654.612361776234
 21
-626.2925497514402
 31
0.0
  0
LINE
  5
280
330
1F
100
AcDbEntity
  8
0-0_補助線
  6
JWW_HOJO
 62
   120
370
     5
100
AcDbLine
 10
1854.612361776234
 20
-1863.79254975144
 30
0.0
 11
1854.612361776234
 21
-526.2925497514402
 31
0.0
  0
LINE
  5
281
330
1F
100
AcDbEntity
  8
0-0_補助線
  6
JWW_HOJO
 62
   120
370
     5
100
AcDbLine
 10
1554.612361776234
 20
-1863.79254975144
 30
0.0
 11
1554.612361776234
 21
-626.2925497514402
 31
0.0
  0
LINE
  5
282
330
1F
100
AcDbEntity
  8
0-0_補助線
  6
JWW_HOJO
 62
   120
370
     5
100
AcDbLine
 10
1454.612361776234
 20
-1863.79254975144
 30
0.0
 11
1454.612361776234
 21
-626.2925497514402
 31
0.0
  0
LINE
  5
283
330
1F
100
AcDbEntity
  8
0-0_補助線
  6
JWW_HOJO
 62
   120
370
     5
100
AcDbLine
 10
1354.612361776234
 20
-1863.79254975144
 30
0.0
 11
1354.612361776234
 21
-626.2925497514402
 31
0.0
  0
LINE
  5
284
330
1F
100
AcDbEntity
  8
0-0_補助線
  6
JWW_HOJO
 62
     7
370
     9
100
AcDbLine
 10
1926.612361683159
 20
-626.2925497514402
 30
0.0
 11
1926.612361683159
 21
-1863.79254975144
 31
0.0
  0
LINE
  5
285
330
1F
100
AcDbEntity
  8
0-0_補助線
  6
JWW_HOJO
 62
     7
370
     9
100
AcDbLine
 10
2271.612361683159
 20
-1863.79254975144
 30
0.0
 11
2271.612361683159
 21
-626.2925497514402
 31
0.0
  0
LINE
  5
286
330
1F
100
AcDbEntity
  8
0-0_補助線
  6
JWW_HOJO
 62
   120
370
     5
100
AcDbLine
 10
2321.612361683159
 20
-1863.79254975144
 30
0.0
 11
2321.612361683159
 21
-526.2925497514402
 31
0.0
  0
LINE
  5
287
330
1F
100
AcDbEntity
  8
0-0_補助線
  6
JWW_HOJO
 62
   120
370
     5
100
AcDbLine
 10
2421.612361683159
 20
-626.2925497514402
 30
0.0
 11
2421.612361683159
 21
-1863.79254975144
 31
0.0
  0
LINE
  5
288
330
1F
100
AcDbEntity
  8
0-4_棚
  6
Continuous
 62
     7
370
     9
100
AcDbLine
 10
2271.612361683159
 20
-708.2925497514401
 30
0.0
 11
1894.612361683158
 21
-708.2925497514401
 31
0.0
  0
LINE
  5
289
330
1F
100
AcDbEntity
  8
0-B_寸法
  6
Continuous
 62
   120
370
     5
100
AcDbLine
 10
1894.612361683158
 20
-226.2925497514394
 30
0.0
 11
1894.612361683158
 21
-626.2925497514385
 31
0.0
  0
LINE
  5
28A
330
1F
100
AcDbEntity
  8
0-B_寸法
  6
Continuous
 62
   120
370
     5
100
AcDbLine
 10
2271.612361683159
 20
-226.2925497514394
 30
0.0
 11
1894.612361683158
 21
-226.2925497514394
 31
0.0
  0
LWPOLYLINE
  5
28B
330
1F
100
AcDbEntity
  8
0-B_寸法
  6
Continuous
 62
     7
370
     9
100
AcDbPolyline
 90
        4
 70
     1
 43
2.0
 10
1895.612361683158
 20
-226.2925497514394
 42
0.4142135623731
 10
1894.612361683158
 20
-225.2925497514394
 42
0.4142135623731
 10
1893.612361683158
 20
-226.2925497514394
 42
0.4142135623731
 10
1894.612361683158
 20
-227.2925497514394
 42
0.4142135623731
  0
LINE
  5
28C
330
1F
100
AcDbEntity
  8
0-4_棚
  6
Continuous
 62
     7
370
     9
100
AcDbLine
 10
2271.612361683159
 20
-708.2925497514401
 30
0.0
 11
2271.612361683159
 21
-678.2925497514401
 31
0.0
  0
LWPOLYLINE
  5
28D
330
1F
100
AcDbEntity
  8
0-B_寸法
  6
Continuous
 62
     7
370
     9
100
AcDbPolyline
 90
        4
 70
     1
 43
2.0
 10
1455.612361776234
 20
-708.2925497514401
 42
0.4142135623731
 10
1454.612361776234
 20
-707.2925497514402
 42
0.4142135623731
 10
1453.612361776234
 20
-708.2925497514401
 42
0.4142135623731
 10
1454.612361776234
 20
-709.29254975144
 42
0.4142135623731
  0
LWPOLYLINE
  5
28E
330
1F
100
AcDbEntity
  8
0-B_寸法
  6
Continuous
 62
     7
370
     9
100
AcDbPolyline
 90
        4
 70
     1
 43
2.0
 10
1455.612361776234
 20
-678.2925695466264
 42
0.4142135623731
 10
1454.612361776234
 20
-677.2925695466265
 42
0.4142135623731
 10
1453.612361776234
 20
-678.2925695466264
 42
0.4142135623731
 10
1454.612361776234
 20
-679.2925695466263
 42
0.4142135623731
  0
LINE
  5
28F
330
1F
100
AcDbEntity
  8
0-B_寸法
  6
Continuous
 62
   120
370
     5
100
AcDbLine
 10
1454.612361776234
 20
-678.2925695466264
 30
0.0
 11
1854.612361776234
 21
-678.2925695466264
 31
0.0
  0
MTEXT
  5
290
330
1F
100
AcDbEntity
  8
0-B_寸法
  6
Continuous
 62
     7
370
   211
100
AcDbMText
 10
1444.612361776234
 20
-680.4325497514407
 30
0.0
 40
45.72
 41
60.0
 46
0.0
 71
     7
 72
     1
  1
{\fＭＳ ゴシック|b0|i0|c128|p49;30}
 11
6.123031769111886E-17
 21
1.0
 31
0.0
 73
     1
 44
1.0
  0
LINE
  5
291
330
1F
100
AcDbEntity
  8
0-4_棚
  6
Continuous
 62
     7
370
     9
100
AcDbLine
 10
1894.612361683158
 20
-679.2825190402874
 30
0.0
 11
1894.612361683158
 21
-708.2925497514401
 31
0.0
  0
LINE
  5
292
330
1F
100
AcDbEntity
  8
0-4_棚
  6
Continuous
 62
     7
370
     9
100
AcDbLine
 10
1895.602311176819
 20
-678.2925695466264
 30
0.0
 11
2271.612361683159
 21
-678.2925695466264
 31
0.0
  0
LINE
  5
293
330
1F
100
AcDbEntity
  8
0-4_棚
  6
Continuous
 62
     7
370
     9
100
AcDbLine
 10
1894.612361683158
 20
-679.2825190402874
 30
0.0
 11
1895.602311176819
 21
-678.2925695466264
 31
0.0
  0
LINE
  5
294
330
1F
100
AcDbEntity
  8
0-B_寸法
  6
Continuous
 62
   120
370
     5
100
AcDbLine
 10
2271.612361683159
 20
-1783.292549751442
 30
0.0
 11
2271.612361683159
 21
-1583.292549751442
 31
0.0
  0
LWPOLYLINE
  5
295
330
1F
100
AcDbEntity
  8
0-B_寸法
  6
Continuous
 62
     7
370
     9
100
AcDbPolyline
 90
        4
 70
     1
 43
2.0
 10
2272.612361683159
 20
-1683.292549751442
 42
0.4142135623731
 10
2271.612361683159
 20
-1682.292549751442
 42
0.4142135623731
 10
2270.612361683159
 20
-1683.292549751442
 42
0.4142135623731
 10
2271.612361683159
 20
-1684.292549751442
 42
0.4142135623731
  0
MTEXT
  5
296
330
1F
100
AcDbEntity
  8
0-B_寸法
  6
Continuous
 62
     7
370
   211
100
AcDbMText
 10
2054.112361683159
 20
-1780.432549751442
 30
0.0
 40
45.72
 41
90.0
 46
0.0
 71
     7
 72
     1
  1
{\fＭＳ ゴシック|b0|i0|c128|p49;345}
 73
     1
 44
1.0
  0
LINE
  5
297
330
1F
100
AcDbEntity
  8
0-B_寸法
  6
Continuous
 62
   120
370
     5
100
AcDbLine
 10
1926.61236168316
 20
-1783.292549751442
 30
0.0
 11
1926.61236168316
 21
-1583.292549751442
 31
0.0
  0
LWPOLYLINE
  5
298
330
1F
100
AcDbEntity
  8
0-B_寸法
  6
Continuous
 62
     7
370
     9
100
AcDbPolyline
 90
        4
 70
     1
 43
2.0
 10
1927.612361683159
 20
-1783.292549751442
 42
0.4142135623731
 10
1926.61236168316
 20
-1782.292549751442
 42
0.4142135623731
 10
1925.61236168316
 20
-1783.292549751442
 42
0.4142135623731
 10
1926.61236168316
 20
-1784.292549751442
 42
0.4142135623731
  0
LWPOLYLINE
  5
299
330
1F
100
AcDbEntity
  8
0-B_寸法
  6
Continuous
 62
     7
370
     9
100
AcDbPolyline
 90
        4
 70
     1
 43
2.0
 10
2272.612361683159
 20
-1783.292549751442
 42
0.4142135623731
 10
2271.612361683159
 20
-1782.292549751442
 42
0.4142135623731
 10
2270.612361683159
 20
-1783.292549751442
 42
0.4142135623731
 10
2271.612361683159
 20
-1784.292549751442
 42
0.4142135623731
  0
LINE
  5
29A
330
1F
100
AcDbEntity
  8
0-B_寸法
  6
Continuous
 62
   120
370
     5
100
AcDbLine
 10
2271.612361683159
 20
-1783.292549751442
 30
0.0
 11
1926.61236168316
 21
-1783.292549751442
 31
0.0
  0
LINE
  5
29B
330
1F
100
AcDbEntity
  8
0-6_桟木
  6
Continuous
 62
    92
370
    13
100
AcDbLine
 10
2271.612361683159
 20
-1533.29254975144
 30
0.0
 11
2301.612361683159
 21
-1533.29254975144
 31
0.0
  0
LINE
  5
29C
330
1F
100
AcDbEntity
  8
0-6_桟木
  6
Continuous
 62
    40
370
    15
100
AcDbLine
 10
2271.612361590081
 20
-1390.292529956255
 30
0.0
 11
2271.612361590081
 21
-1464.292549751441
 31
0.0
  0
LINE
  5
29D
330
1F
100
AcDbEntity
  8
0-6_桟木
  6
Continuous
 62
     7
370
     9
100
AcDbLine
 10
2271.612361590081
 20
-1464.292529956256
 30
0.0
 11
2271.612361590081
 21
-1390.292529956255
 31
0.0
  0
LINE
  5
29E
330
1F
100
AcDbEntity
  8
0-6_桟木
  6
Continuous
 62
    92
370
    13
100
AcDbLine
 10
2271.612361683159
 20
-1390.292549751439
 30
0.0
 11
2271.612361683159
 21
-1533.29254975144
 31
0.0
  0
LINE
  5
29F
330
1F
100
AcDbEntity
  8
0-6_桟木
  6
Continuous
 62
    92
370
    13
100
AcDbLine
 10
2301.612361683159
 20
-1390.292549751439
 30
0.0
 11
2271.612361683159
 21
-1390.292549751439
 31
0.0
  0
LINE
  5
2A0
330
1F
100
AcDbEntity
  8
0-6_桟木
  6
Continuous
 62
    92
370
    13
100
AcDbLine
 10
2301.612361683159
 20
-1533.29254975144
 30
0.0
 11
2301.612361683159
 21
-1390.292549751439
 31
0.0
  0
LINE
  5
2A1
330
1F
100
AcDbEntity
  8
0-6_桟木
  6
Continuous
 62
     7
370
     9
100
AcDbLine
 10
2271.612361683159
 20
-1533.29254975144
 30
0.0
 11
2301.612361683159
 21
-1390.292549751439
 31
0.0
  0
LINE
  5
2A2
330
1F
100
AcDbEntity
  8
0-6_桟木
  6
Continuous
 62
     7
370
     9
100
AcDbLine
 10
2271.612361683159
 20
-1390.292549751439
 30
0.0
 11
2301.612361683159
 21
-1533.29254975144
 31
0.0
  0
LINE
  5
2A3
330
1F
100
AcDbEntity
  8
0-B_寸法
  6
Continuous
 62
   120
370
     5
100
AcDbLine
 10
2421.61236168316
 20
-1533.29254975144
 30
0.0
 11
2421.61236168316
 21
-1390.292549751439
 31
0.0
  0
LWPOLYLINE
  5
2A4
330
1F
100
AcDbEntity
  8
0-B_寸法
  6
Continuous
 62
     7
370
     9
100
AcDbPolyline
 90
        4
 70
     1
 43
2.0
 10
2422.61236168316
 20
-1533.29254975144
 42
0.4142135623731
 10
2421.61236168316
 20
-1532.29254975144
 42
0.4142135623731
 10
2420.61236168316
 20
-1533.29254975144
 42
0.4142135623731
 10
2421.61236168316
 20
-1534.29254975144
 42
0.4142135623731
  0
LINE
  5
2A5
330
1F
100
AcDbEntity
  8
0-B_寸法
  6
Continuous
 62
   120
370
     5
100
AcDbLine
 10
2421.61236168316
 20
-1533.29254975144
 30
0.0
 11
2321.612361683159
 21
-1533.29254975144
 31
0.0
  0
LINE
  5
2A6
330
1F
100
AcDbEntity
  8
0-B_寸法
  6
Continuous
 62
   120
370
     5
100
AcDbLine
 10
2421.61236168316
 20
-1390.292549751439
 30
0.0
 11
2321.612361683159
 21
-1390.292549751439
 31
0.0
  0
MTEXT
  5
2A7
330
1F
100
AcDbEntity
  8
0-B_寸法
  6
Continuous
 62
     7
370
   211
100
AcDbMText
 10
2411.61236168316
 20
-1513.932549751439
 30
0.0
 40
45.72
 41
90.0
 46
0.0
 71
     7
 72
     1
  1
{\fＭＳ ゴシック|b0|i0|c128|p49;143}
 11
6.123031769111886E-17
 21
1.0
 31
0.0
 73
     1
 44
1.0
  0
LINE
  5
2A8
330
1F
100
AcDbEntity
  8
0-B_寸法
  6
Continuous
 62
   120
370
     5
100
AcDbLine
 10
2521.612361683156
 20
-1461.792549751439
 30
0.0
 11
2521.612361683156
 21
647.2074502485583
 31
0.0
  0
LWPOLYLINE
  5
2A9
330
1F
100
AcDbEntity
  8
0-B_寸法
  6
Continuous
 62
     7
370
     9
100
AcDbPolyline
 90
        4
 70
     1
 43
2.0
 10
2522.612361683156
 20
-1461.792549751439
 42
0.4142135623731
 10
2521.612361683156
 20
-1460.792549751439
 42
0.4142135623731
 10
2520.612361683156
 20
-1461.792549751439
 42
0.4142135623731
 10
2521.612361683156
 20
-1462.792549751439
 42
0.4142135623731
  0
LWPOLYLINE
  5
2AA
330
1F
100
AcDbEntity
  8
0-B_寸法
  6
Continuous
 62
     7
370
     9
100
AcDbPolyline
 90
        4
 70
     1
 43
2.0
 10
2522.612361683156
 20
647.2074502485583
 42
0.4142135623731
 10
2521.612361683156
 20
648.2074502485582
 42
0.4142135623731
 10
2520.612361683156
 20
647.2074502485583
 42
0.4142135623731
 10
2521.612361683156
 20
646.2074502485584
 42
0.4142135623731
  0
LINE
  5
2AB
330
1F
100
AcDbEntity
  8
0-B_寸法
  6
Continuous
 62
   120
370
     5
100
AcDbLine
 10
2521.612361683156
 20
-1461.792549751439
 30
0.0
 11
2421.612361683159
 21
-1461.792549751439
 31
0.0
  0
LINE
  5
2AC
330
1F
100
AcDbEntity
  8
0-B_寸法
  6
Continuous
 62
   120
370
     5
100
AcDbLine
 10
2521.612361683156
 20
647.2074502485583
 30
0.0
 11
2421.612361683159
 21
647.2074502485583
 31
0.0
  0
MTEXT
  5
2AD
330
1F
100
AcDbEntity
  8
0-B_寸法
  6
Continuous
 62
     7
370
   211
100
AcDbMText
 10
2511.612361683156
 20
-489.432549751441
 30
0.0
 40
45.72
 41
150.0
 46
0.0
 71
     7
 72
     1
  1
{\fＭＳ ゴシック|b0|i0|c128|p49;2,109}
 11
6.123031769111886E-17
 21
1.0
 31
0.0
 73
     1
 44
1.0
  0
LINE
  5
2AE
330
1F
100
AcDbEntity
  8
0-9__
  6
Continuous
 62
     7
370
     9
100
AcDbLine
 10
2271.612361683159
 20
-1469.292549751442
 30
0.0
 11
2271.612361683159
 21
-1533.292549751442
 31
0.0
  0
LINE
  5
2AF
330
1F
100
AcDbEntity
  8
0-9__
  6
Continuous
 62
     7
370
     9
100
AcDbLine
 10
2256.612361683159
 20
-1469.292549751442
 30
0.0
 11
2256.612361683159
 21
-1533.292549751442
 31
0.0
  0
LINE
  5
2B0
330
1F
100
AcDbEntity
  8
0-1_本体
  6
Continuous
 62
    40
370
    15
100
AcDbLine
 10
2271.61236168316
 20
691.7074502485588
 30
0.0
 11
2271.61236168316
 21
699.7074502485583
 31
0.0
  0
MTEXT
  5
2B1
330
1F
100
AcDbEntity
  8
0-A_文字
  6
Continuous
 62
     7
370
     9
100
AcDbMText
 10
2365.348998991457
 20
832.7760877487447
 30
0.0
 40
45.72
 41
330.0
 46
0.0
 71
     7
 72
     1
  1
{\fＭＳ ゴシック|b0|i0|c128|p49;30×105程度}
 73
     1
 44
1.0
  0
MTEXT
  5
2B2
330
1F
100
AcDbEntity
  8
0-A_文字
  6
Continuous
 62
     7
370
     9
100
AcDbMText
 10
2365.348998991459
 20
907.3185170332715
 30
0.0
 40
45.72000000000006
 41
240.0000000000003
 46
0.0
 71
     7
 72
     1
  1
{\fＭＳ ゴシック|b0|i0|c128|p49;下地位置}
 73
     1
 44
1.0
  0
MTEXT
  5
2B3
330
1F
100
AcDbEntity
  8
0-B_寸法
  6
Continuous
 62
     7
370
   211
100
AcDbMText
 10
2411.61236168316
 20
595.0674502485583
 30
0.0
 40
45.72
 41
90.0
 46
0.0
 71
     7
 72
     1
  1
{\fＭＳ ゴシック|b0|i0|c128|p49;105}
 11
6.123031769111886E-17
 21
1.0
 31
0.0
 73
     1
 44
1.0
  0
LINE
  5
2B4
330
1F
100
AcDbEntity
  8
0-B_寸法
  6
Continuous
 62
   120
370
     5
100
AcDbLine
 10
2421.61236168316
 20
699.7074502485583
 30
0.0
 11
2321.61236168316
 21
699.7074502485583
 31
0.0
  0
LWPOLYLINE
  5
2B5
330
1F
100
AcDbEntity
  8
0-B_寸法
  6
Continuous
 62
     7
370
     9
100
AcDbPolyline
 90
        4
 70
     1
 43
2.0
 10
2422.61236168316
 20
699.7074502485583
 42
0.4142135623731
 10
2421.61236168316
 20
700.7074502485582
 42
0.4142135623731
 10
2420.61236168316
 20
699.7074502485583
 42
0.4142135623731
 10
2421.61236168316
 20
698.7074502485584
 42
0.4142135623731
  0
LINE
  5
2B6
330
1F
100
AcDbEntity
  8
0-B_寸法
  6
Continuous
 62
   120
370
     5
100
AcDbLine
 10
2421.61236168316
 20
594.7074502485583
 30
0.0
 11
2421.61236168316
 21
699.7074502485583
 31
0.0
  0
MTEXT
  5
2B7
330
1F
100
AcDbEntity
  8
0-B_寸法
  6
Continuous
 62
     7
370
   211
100
AcDbMText
 10
2411.61236168316
 20
363.0674502485579
 30
0.0
 40
45.72
 41
90.0
 46
0.0
 71
     7
 72
     1
  1
{\fＭＳ ゴシック|b0|i0|c128|p49;359}
 11
6.123031769111886E-17
 21
1.0
 31
0.0
 73
     1
 44
1.0
  0
LINE
  5
2B8
330
1F
100
AcDbEntity
  8
0-B_寸法
  6
Continuous
 62
   120
370
     5
100
AcDbLine
 10
2421.61236168316
 20
594.7074502485583
 30
0.0
 11
2321.61236168316
 21
594.7074502485583
 31
0.0
  0
LWPOLYLINE
  5
2B9
330
1F
100
AcDbEntity
  8
0-B_寸法
  6
Continuous
 62
     7
370
     9
100
AcDbPolyline
 90
        4
 70
     1
 43
2.0
 10
2422.61236168316
 20
594.7074502485583
 42
0.4142135623731
 10
2421.61236168316
 20
595.7074502485583
 42
0.4142135623731
 10
2420.61236168316
 20
594.7074502485583
 42
0.4142135623731
 10
2421.61236168316
 20
593.7074502485583
 42
0.4142135623731
  0
LINE
  5
2BA
330
1F
100
AcDbEntity
  8
0-B_寸法
  6
Continuous
 62
   120
370
     5
100
AcDbLine
 10
2421.61236168316
 20
235.707450248558
 30
0.0
 11
2421.61236168316
 21
594.7074502485583
 31
0.0
  0
MTEXT
  5
2BB
330
1F
100
AcDbEntity
  8
0-B_寸法
  6
Continuous
 62
     7
370
   211
100
AcDbMText
 10
2411.61236168316
 20
131.067450248558
 30
0.0
 40
45.72
 41
90.0
 46
0.0
 71
     7
 72
     1
  1
{\fＭＳ ゴシック|b0|i0|c128|p49;105}
 11
6.123031769111886E-17
 21
1.0
 31
0.0
 73
     1
 44
1.0
  0
LINE
  5
2BC
330
1F
100
AcDbEntity
  8
0-B_寸法
  6
Continuous
 62
   120
370
     5
100
AcDbLine
 10
2421.61236168316
 20
235.707450248558
 30
0.0
 11
2321.61236168316
 21
235.707450248558
 31
0.0
  0
LWPOLYLINE
  5
2BD
330
1F
100
AcDbEntity
  8
0-B_寸法
  6
Continuous
 62
     7
370
     9
100
AcDbPolyline
 90
        4
 70
     1
 43
2.0
 10
2422.61236168316
 20
235.707450248558
 42
0.4142135623731
 10
2421.61236168316
 20
236.707450248558
 42
0.4142135623731
 10
2420.61236168316
 20
235.707450248558
 42
0.4142135623731
 10
2421.61236168316
 20
234.707450248558
 42
0.4142135623731
  0
LINE
  5
2BE
330
1F
100
AcDbEntity
  8
0-B_寸法
  6
Continuous
 62
   120
370
     5
100
AcDbLine
 10
2421.61236168316
 20
130.707450248558
 30
0.0
 11
2421.61236168316
 21
235.707450248558
 31
0.0
  0
LINE
  5
2BF
330
1F
100
AcDbEntity
  8
0-B_寸法
  6
Continuous
 62
   120
370
     5
100
AcDbLine
 10
2421.61236168316
 20
130.707450248558
 30
0.0
 11
2321.61236168316
 21
130.707450248558
 31
0.0
  0
LWPOLYLINE
  5
2C0
330
1F
100
AcDbEntity
  8
0-B_寸法
  6
Continuous
 62
     7
370
     9
100
AcDbPolyline
 90
        4
 70
     1
 43
2.0
 10
2422.61236168316
 20
130.707450248558
 42
0.4142135623731
 10
2421.61236168316
 20
131.707450248558
 42
0.4142135623731
 10
2420.61236168316
 20
130.707450248558
 42
0.4142135623731
 10
2421.61236168316
 20
129.707450248558
 42
0.4142135623731
  0
LINE
  5
2C1
330
1F
100
AcDbEntity
  8
0-6_桟木
  6
Continuous
 62
     7
370
     9
100
AcDbLine
 10
2271.61236168316
 20
235.707450248558
 30
0.0
 11
2301.61236168316
 21
130.707450248558
 31
0.0
  0
LINE
  5
2C2
330
1F
100
AcDbEntity
  8
0-6_桟木
  6
Continuous
 62
     7
370
     9
100
AcDbLine
 10
2271.61236168316
 20
130.707450248558
 30
0.0
 11
2301.61236168316
 21
235.707450248558
 31
0.0
  0
LINE
  5
2C3
330
1F
100
AcDbEntity
  8
0-6_桟木
  6
Continuous
 62
    92
370
    13
100
AcDbLine
 10
2301.61236168316
 20
130.707450248558
 30
0.0
 11
2301.61236168316
 21
235.707450248558
 31
0.0
  0
LINE
  5
2C4
330
1F
100
AcDbEntity
  8
0-6_桟木
  6
Continuous
 62
    92
370
    13
100
AcDbLine
 10
2271.61236168316
 20
130.707450248558
 30
0.0
 11
2301.61236168316
 21
130.707450248558
 31
0.0
  0
LINE
  5
2C5
330
1F
100
AcDbEntity
  8
0-6_桟木
  6
Continuous
 62
    92
370
    13
100
AcDbLine
 10
2301.61236168316
 20
235.707450248558
 30
0.0
 11
2271.61236168316
 21
235.707450248558
 31
0.0
  0
LINE
  5
2C6
330
1F
100
AcDbEntity
  8
0-6_桟木
  6
Continuous
 62
    92
370
    13
100
AcDbLine
 10
2271.61236168316
 20
235.707450248558
 30
0.0
 11
2271.61236168316
 21
130.707450248558
 31
0.0
  0
LINE
  5
2C7
330
1F
100
AcDbEntity
  8
0-6_桟木
  6
Continuous
 62
     7
370
     9
100
AcDbLine
 10
2271.61236168316
 20
699.7074502485583
 30
0.0
 11
2301.61236168316
 21
594.7074502485583
 31
0.0
  0
LINE
  5
2C8
330
1F
100
AcDbEntity
  8
0-6_桟木
  6
Continuous
 62
     7
370
     9
100
AcDbLine
 10
2271.61236168316
 20
594.7074502485583
 30
0.0
 11
2301.61236168316
 21
699.7074502485583
 31
0.0
  0
LINE
  5
2C9
330
1F
100
AcDbEntity
  8
0-6_桟木
  6
Continuous
 62
    92
370
    13
100
AcDbLine
 10
2301.61236168316
 20
594.7074502485583
 30
0.0
 11
2301.61236168316
 21
699.7074502485583
 31
0.0
  0
LINE
  5
2CA
330
1F
100
AcDbEntity
  8
0-6_桟木
  6
Continuous
 62
    92
370
    13
100
AcDbLine
 10
2301.61236168316
 20
699.7074502485583
 30
0.0
 11
2271.61236168316
 21
699.7074502485583
 31
0.0
  0
LINE
  5
2CB
330
1F
100
AcDbEntity
  8
0-6_桟木
  6
Continuous
 62
    92
370
    13
100
AcDbLine
 10
2271.61236168316
 20
699.7074502485583
 30
0.0
 11
2271.61236168316
 21
594.7074502485583
 31
0.0
  0
LINE
  5
2CC
330
1F
100
AcDbEntity
  8
0-6_桟木
  6
Continuous
 62
    92
370
    13
100
AcDbLine
 10
2271.61236168316
 20
594.7074502485583
 30
0.0
 11
2301.61236168316
 21
594.7074502485583
 31
0.0
  0
LINE
  5
2CD
330
1F
100
AcDbEntity
  8
0-A_文字
  6
Continuous
 62
     7
370
     9
100
AcDbLine
 10
2285.08733376645
 20
678.2432148388824
 30
0.0
 11
2362.120427820877
 21
811.6684476053803
 31
0.0
  0
LINE
  5
2CE
330
1F
100
AcDbEntity
  8
0-A_文字
  6
Continuous
 62
     7
370
     9
100
AcDbLine
 10
2362.120427820877
 20
811.6684476053803
 30
0.0
 11
2655.140087917322
 21
811.6684476053803
 31
0.0
  0
MTEXT
  5
2CF
330
1F
100
AcDbEntity
  8
0-A_文字
  6
Continuous
 62
     7
370
     9
100
AcDbMText
 10
2365.348998991459
 20
983.931569353478
 30
0.0
 40
45.72
 41
180.0
 46
0.0
 71
     7
 72
     1
  1
{\fＭＳ ゴシック|b0|i0|c128|p49;補強材}
 73
     1
 44
1.0
  0
LWPOLYLINE
  5
2D0
330
1F
100
AcDbEntity
  8
0-B_寸法
  6
Continuous
 62
     7
370
     9
100
AcDbPolyline
 90
        4
 70
     1
 43
2.0
 10
2422.61236168316
 20
-1390.292549751439
 42
0.4142135623731
 10
2421.61236168316
 20
-1389.292549751439
 42
0.4142135623731
 10
2420.61236168316
 20
-1390.292549751439
 42
0.4142135623731
 10
2421.61236168316
 20
-1391.292549751439
 42
0.4142135623731
  0
LINE
  5
2D1
330
1F
100
AcDbEntity
  8
0-9__
  6
Continuous
 62
     7
370
     9
100
AcDbLine
 10
2271.612361683159
 20
-1533.292549751442
 30
0.0
 11
1966.612361683159
 21
-1533.292549751442
 31
0.0
  0
LINE
  5
2D2
330
1F
100
AcDbEntity
  8
0-9__
  6
Continuous
 62
     7
370
     9
100
AcDbLine
 10
1966.612361683159
 20
-1533.292549751442
 30
0.0
 11
1966.612361683159
 21
-1469.292549751442
 31
0.0
  0
LINE
  5
2D3
330
1F
100
AcDbEntity
  8
0-9__
  6
Continuous
 62
     7
370
     9
100
AcDbLine
 10
1966.612361683159
 20
-1469.292549751442
 30
0.0
 11
2271.612361683159
 21
-1469.292549751442
 31
0.0
  0
LINE
  5
2D4
330
1F
100
AcDbEntity
  8
0-9__
  6
Continuous
 62
     7
370
     9
100
AcDbLine
 10
1981.612361683159
 20
-1533.292549751442
 30
0.0
 11
1981.612361683159
 21
-1469.292549751442
 31
0.0
  0
LINE
  5
2D5
330
1F
100
AcDbEntity
  8
0-B_寸法
  6
Continuous
 62
   120
370
     5
100
AcDbLine
 10
1966.612361683159
 20
-1683.292549751442
 30
0.0
 11
1966.612361683159
 21
-1583.292549751442
 31
0.0
  0
LWPOLYLINE
  5
2D6
330
1F
100
AcDbEntity
  8
0-B_寸法
  6
Continuous
 62
     7
370
     9
100
AcDbPolyline
 90
        4
 70
     1
 43
2.0
 10
1967.612361683159
 20
-1683.292549751442
 42
0.4142135623731
 10
1966.612361683159
 20
-1682.292549751442
 42
0.4142135623731
 10
1965.612361683159
 20
-1683.292549751442
 42
0.4142135623731
 10
1966.612361683159
 20
-1684.292549751442
 42
0.4142135623731
  0
LINE
  5
2D7
330
1F
100
AcDbEntity
  8
0-B_寸法
  6
Continuous
 62
   120
370
     5
100
AcDbLine
 10
2271.612361683159
 20
-1683.292549751442
 30
0.0
 11
1966.612361683159
 21
-1683.292549751442
 31
0.0
  0
MTEXT
  5
2D8
330
1F
100
AcDbEntity
  8
0-B_寸法
  6
Continuous
 62
     7
370
   211
100
AcDbMText
 10
1984.112361683158
 20
-1680.432549751442
 30
0.0
 40
45.71999999999999
 41
270.0
 46
0.0
 71
     7
 72
     1
  1
{\fＭＳ ゴシック|b0|i0|c128|p49;台輪＝305}
 73
     1
 44
1.0
  0
LWPOLYLINE
  5
2D9
330
1F
100
AcDbEntity
  8
0-B_寸法
  6
Continuous
 62
     7
370
     9
100
AcDbPolyline
 90
        4
 70
     1
 43
2.0
 10
2422.61236168316
 20
130.7074316905721
 42
0.4142135623731
 10
2421.61236168316
 20
131.7074316905721
 42
0.4142135623731
 10
2420.61236168316
 20
130.7074316905721
 42
0.4142135623731
 10
2421.61236168316
 20
129.7074316905721
 42
0.4142135623731
  0
LINE
  5
2DA
330
1F
100
AcDbEntity
  8
0-B_寸法
  6
Continuous
 62
   120
370
     5
100
AcDbLine
 10
2421.61236168316
 20
130.7074316905721
 30
0.0
 11
2321.612361683159
 21
130.7074316905721
 31
0.0
  0
MTEXT
  5
2DB
330
1F
100
AcDbEntity
  8
0-B_寸法
  6
Continuous
 62
     7
370
   211
100
AcDbMText
 10
2411.61236168316
 20
-325.9325689280277
 30
0.0
 40
45.72
 41
90.0
 46
0.0
 71
     7
 72
     1
  1
{\fＭＳ ゴシック|b0|i0|c128|p49;809}
 11
6.123031769111886E-17
 21
1.0
 31
0.0
 73
     1
 44
1.0
  0
MTEXT
  5
2DC
330
1F
100
AcDbEntity
  8
0-B_寸法
  6
Continuous
 62
     7
370
   211
100
AcDbMText
 10
2411.61236168316
 20
-1138.932559649034
 30
0.0
 40
45.72
 41
90.0
 46
0.0
 71
     7
 72
     1
  1
{\fＭＳ ゴシック|b0|i0|c128|p49;607}
 11
6.123031769111886E-17
 21
1.0
 31
0.0
 73
     1
 44
1.0
  0
LINE
  5
2DD
330
1F
100
AcDbEntity
  8
0-6_桟木
  6
Continuous
 62
     7
370
     9
100
AcDbLine
 10
2271.61236168316
 20
-678.2925497514424
 30
0.0
 11
2301.61236168316
 21
-783.292549751443
 31
0.0
  0
LINE
  5
2DE
330
1F
100
AcDbEntity
  8
0-6_桟木
  6
Continuous
 62
     7
370
     9
100
AcDbLine
 10
2271.61236168316
 20
-783.292549751443
 30
0.0
 11
2301.61236168316
 21
-678.2925497514424
 31
0.0
  0
LINE
  5
2DF
330
1F
100
AcDbEntity
  8
0-6_桟木
  6
Continuous
 62
    92
370
    13
100
AcDbLine
 10
2301.61236168316
 20
-783.292549751443
 30
0.0
 11
2301.61236168316
 21
-678.2925497514424
 31
0.0
  0
LINE
  5
2E0
330
1F
100
AcDbEntity
  8
0-6_桟木
  6
Continuous
 62
    92
370
    13
100
AcDbLine
 10
2271.61236168316
 20
-783.292549751443
 30
0.0
 11
2301.61236168316
 21
-783.292549751443
 31
0.0
  0
LINE
  5
2E1
330
1F
100
AcDbEntity
  8
0-6_桟木
  6
Continuous
 62
    92
370
    13
100
AcDbLine
 10
2301.61236168316
 20
-678.2925497514424
 30
0.0
 11
2271.61236168316
 21
-678.2925497514424
 31
0.0
  0
LINE
  5
2E2
330
1F
100
AcDbEntity
  8
0-6_桟木
  6
Continuous
 62
    92
370
    13
100
AcDbLine
 10
2271.61236168316
 20
-678.2925497514424
 30
0.0
 11
2271.61236168316
 21
-783.292549751443
 31
0.0
  0
LINE
  5
2E3
330
1F
100
AcDbEntity
  8
0-B_寸法
  6
Continuous
 62
   120
370
     5
100
AcDbLine
 10
2421.61236168316
 20
130.7074316905721
 30
0.0
 11
2421.61236168316
 21
-678.2925497514424
 31
0.0
  0
LWPOLYLINE
  5
2E4
330
1F
100
AcDbEntity
  8
0-B_寸法
  6
Continuous
 62
     7
370
     9
100
AcDbPolyline
 90
        4
 70
     1
 43
2.0
 10
2422.61236168316
 20
-678.2925497514424
 42
0.4142135623731
 10
2421.61236168316
 20
-677.2925497514425
 42
0.4142135623731
 10
2420.61236168316
 20
-678.2925497514424
 42
0.4142135623731
 10
2421.61236168316
 20
-679.2925497514423
 42
0.4142135623731
  0
LINE
  5
2E5
330
1F
100
AcDbEntity
  8
0-B_寸法
  6
Continuous
 62
   120
370
     5
100
AcDbLine
 10
2421.61236168316
 20
-678.2925497514424
 30
0.0
 11
2321.612361683159
 21
-678.2925497514424
 31
0.0
  0
LINE
  5
2E6
330
1F
100
AcDbEntity
  8
0-B_寸法
  6
Continuous
 62
   120
370
     5
100
AcDbLine
 10
2421.61236168316
 20
-678.2925497514424
 30
0.0
 11
2421.61236168316
 21
-783.292549751443
 31
0.0
  0
LWPOLYLINE
  5
2E7
330
1F
100
AcDbEntity
  8
0-B_寸法
  6
Continuous
 62
     7
370
     9
100
AcDbPolyline
 90
        4
 70
     1
 43
2.0
 10
2422.61236168316
 20
-783.292549751443
 42
0.4142135623731
 10
2421.61236168316
 20
-782.292549751443
 42
0.4142135623731
 10
2420.61236168316
 20
-783.292549751443
 42
0.4142135623731
 10
2421.61236168316
 20
-784.292549751443
 42
0.4142135623731
  0
LINE
  5
2E8
330
1F
100
AcDbEntity
  8
0-B_寸法
  6
Continuous
 62
   120
370
     5
100
AcDbLine
 10
2421.61236168316
 20
-783.292549751443
 30
0.0
 11
2321.612361683159
 21
-783.292549751443
 31
0.0
  0
MTEXT
  5
2E9
330
1F
100
AcDbEntity
  8
0-B_寸法
  6
Continuous
 62
     7
370
   211
100
AcDbMText
 10
2411.61236168316
 20
-782.9325497514424
 30
0.0
 40
45.72
 41
90.0
 46
0.0
 71
     7
 72
     1
  1
{\fＭＳ ゴシック|b0|i0|c128|p49;105}
 11
6.123031769111886E-17
 21
1.0
 31
0.0
 73
     1
 44
1.0
  0
LINE
  5
2EA
330
1F
100
AcDbEntity
  8
0-B_寸法
  6
Continuous
 62
   120
370
     5
100
AcDbLine
 10
2421.61236168316
 20
-783.292549751443
 30
0.0
 11
2421.61236168316
 21
-1390.292549751439
 31
0.0
  0
LINE
  5
2EB
330
1F
100
AcDbEntity
  8
0-0_補助線
  6
JWW_HOJO
 62
     7
370
     9
100
AcDbLine
 10
2271.612361683155
 20
527.2074502485583
 30
0.0
 11
1926.612361683154
 21
527.2074502485583
 31
0.0
  0
LINE
  5
2EC
330
1F
100
AcDbEntity
  8
0-0_補助線
  6
JWW_HOJO
 62
     7
370
     9
100
AcDbLine
 10
2271.612361683155
 20
495.2074502485584
 30
0.0
 11
1926.612361683154
 21
495.2074502485584
 31
0.0
  0
LINE
  5
2ED
330
1F
100
AcDbEntity
  8
0-0_補助線
  6
JWW_HOJO
 62
     7
370
     9
100
AcDbLine
 10
2271.612361683155
 20
463.2074502485591
 30
0.0
 11
1926.612361683154
 21
463.2074502485591
 31
0.0
  0
LINE
  5
2EE
330
1F
100
AcDbEntity
  8
0-0_補助線
  6
JWW_HOJO
 62
     7
370
     9
100
AcDbLine
 10
2271.612361683155
 20
431.2074502485581
 30
0.0
 11
1926.612361683154
 21
431.2074502485581
 31
0.0
  0
LINE
  5
2EF
330
1F
100
AcDbEntity
  8
0-0_補助線
  6
JWW_HOJO
 62
     7
370
     9
100
AcDbLine
 10
2271.612361683155
 20
399.2074502485582
 30
0.0
 11
1926.612361683154
 21
399.2074502485582
 31
0.0
  0
LINE
  5
2F0
330
1F
100
AcDbEntity
  8
0-0_補助線
  6
JWW_HOJO
 62
     7
370
     9
100
AcDbLine
 10
2271.612361683155
 20
367.2074502485583
 30
0.0
 11
1926.612361683154
 21
367.2074502485583
 31
0.0
  0
LINE
  5
2F1
330
1F
100
AcDbEntity
  8
0-0_補助線
  6
JWW_HOJO
 62
     7
370
     9
100
AcDbLine
 10
2271.612361683155
 20
335.2074502485578
 30
0.0
 11
1926.612361683154
 21
335.2074502485578
 31
0.0
  0
LINE
  5
2F2
330
1F
100
AcDbEntity
  8
0-0_補助線
  6
JWW_HOJO
 62
     7
370
     9
100
AcDbLine
 10
2271.612361683155
 20
303.2074502485574
 30
0.0
 11
1926.612361683154
 21
303.2074502485574
 31
0.0
  0
LINE
  5
2F3
330
1F
100
AcDbEntity
  8
0-6_桟木
  6
Continuous
 62
    92
370
    13
100
AcDbLine
 10
2268.612361683155
 20
620.7074502485591
 30
0.0
 11
2268.612361683155
 21
684.7074502485583
 31
0.0
  0
LINE
  5
2F4
330
1F
100
AcDbEntity
  8
0-6_桟木
  6
Continuous
 62
    92
370
    13
100
AcDbLine
 10
2268.612361683155
 20
209.7074502485583
 30
0.0
 11
2268.612361683155
 21
145.7074502485591
 31
0.0
  0
LINE
  5
2F5
330
1F
100
AcDbEntity
  8
0-1_本体
  6
Continuous
 62
    40
370
    15
100
AcDbLine
 10
1926.612361683154
 20
699.7074502485583
 30
0.0
 11
1926.612361683154
 21
684.7074502485583
 31
0.0
  0
LINE
  5
2F6
330
1F
100
AcDbEntity
  8
0-1_本体
  6
Continuous
 62
    40
370
    15
100
AcDbLine
 10
2268.612361683155
 20
691.7074502485588
 30
0.0
 11
2271.612361683155
 21
691.7074502485588
 31
0.0
  0
LINE
  5
2F7
330
1F
100
AcDbEntity
  8
0-1_本体
  6
Continuous
 62
    40
370
    15
100
AcDbLine
 10
2268.612361683155
 20
138.7074502485592
 30
0.0
 11
2268.612361683155
 21
691.7074502485588
 31
0.0
  0
LINE
  5
2F8
330
1F
100
AcDbEntity
  8
0-1_本体
  6
Continuous
 62
    40
370
    15
100
AcDbLine
 10
2270.112361683157
 20
138.7074502485592
 30
0.0
 11
2270.112361683157
 21
691.7074502485588
 31
0.0
  0
LINE
  5
2F9
330
1F
100
AcDbEntity
  8
0-1_本体
  6
Continuous
 62
    40
370
    15
100
AcDbLine
 10
1926.612361683154
 20
684.7074502485583
 30
0.0
 11
2268.612361683155
 21
684.7074502485583
 31
0.0
  0
LINE
  5
2FA
330
1F
100
AcDbEntity
  8
0-1_本体
  6
Continuous
 62
    40
370
    15
100
AcDbLine
 10
2271.612361683155
 20
130.7074502485591
 30
0.0
 11
1926.612361683154
 21
130.7074502485591
 31
0.0
  0
LINE
  5
2FB
330
1F
100
AcDbEntity
  8
0-1_本体
  6
Continuous
 62
    40
370
    15
100
AcDbLine
 10
1926.612361683154
 20
130.7074502485591
 30
0.0
 11
1926.612361683154
 21
145.7074502485591
 31
0.0
  0
LINE
  5
2FC
330
1F
100
AcDbEntity
  8
0-1_本体
  6
Continuous
 62
    40
370
    15
100
AcDbLine
 10
1926.612361683154
 20
145.7074502485591
 30
0.0
 11
2268.612361683155
 21
145.7074502485591
 31
0.0
  0
LINE
  5
2FD
330
1F
100
AcDbEntity
  8
0-1_本体
  6
Continuous
 62
    40
370
    15
100
AcDbLine
 10
2268.612361683155
 20
138.7074502485592
 30
0.0
 11
2271.612361683155
 21
138.7074502485592
 31
0.0
  0
LINE
  5
2FE
330
1F
100
AcDbEntity
  8
0-1_本体
  6
Continuous
 62
    40
370
    15
100
AcDbLine
 10
2271.612361683155
 20
141.7074502485599
 30
0.0
 11
2271.612361683155
 21
133.7074502485592
 31
0.0
  0
LINE
  5
2FF
330
1F
100
AcDbEntity
  8
0-1_本体
  6
Continuous
 62
     7
370
     9
100
AcDbLine
 10
2271.612361683155
 20
694.70745024856
 30
0.0
 11
2271.612361683155
 21
130.7074502485591
 31
0.0
  0
LINE
  5
300
330
1F
100
AcDbEntity
  8
0-4_棚
  6
Continuous
 62
    40
370
    15
100
AcDbLine
 10
1978.612361683155
 20
413.7074502485581
 30
0.0
 11
1978.612361683155
 21
401.7074502485588
 31
0.0
  0
LINE
  5
301
330
1F
100
AcDbEntity
  8
0-4_棚
  6
Continuous
 62
    40
370
    15
100
AcDbLine
 10
1978.612361683155
 20
413.7074502485581
 30
0.0
 11
2268.612361683155
 21
413.7074502485581
 31
0.0
  0
LINE
  5
302
330
1F
100
AcDbEntity
  8
0-4_棚
  6
Continuous
 62
    40
370
    15
100
AcDbLine
 10
1978.612361683155
 20
401.7074502485588
 30
0.0
 11
2268.612361683155
 21
401.7074502485588
 31
0.0
  0
LINE
  5
303
330
1F
100
AcDbEntity
  8
0-B_寸法
  6
JWW_HOJO
 62
     7
370
     9
100
AcDbLine
 10
2249.612361683156
 20
694.70745024856
 30
0.0
 11
2249.612361683156
 21
130.7074502485591
 31
0.0
  0
CIRCLE
  5
304
330
1F
100
AcDbEntity
  8
0-5_ダボ
  6
Continuous
 62
     7
370
     9
100
AcDbCircle
 10
2249.612361683156
 20
527.2074502485583
 30
0.0
 40
2.5
  0
CIRCLE
  5
305
330
1F
100
AcDbEntity
  8
0-5_ダボ
  6
Continuous
 62
     7
370
     9
100
AcDbCircle
 10
2249.612361683156
 20
495.2074502485584
 30
0.0
 40
2.5
  0
CIRCLE
  5
306
330
1F
100
AcDbEntity
  8
0-5_ダボ
  6
Continuous
 62
     7
370
     9
100
AcDbCircle
 10
2249.612361683156
 20
463.2074502485591
 30
0.0
 40
2.5
  0
CIRCLE
  5
307
330
1F
100
AcDbEntity
  8
0-5_ダボ
  6
Continuous
 62
     7
370
     9
100
AcDbCircle
 10
2249.612361683156
 20
431.2074502485592
 30
0.0
 40
2.5
  0
CIRCLE
  5
308
330
1F
100
AcDbEntity
  8
0-5_ダボ
  6
Continuous
 62
     7
370
     9
100
AcDbCircle
 10
2249.612361683156
 20
399.2074502485588
 30
0.0
 40
2.5
  0
CIRCLE
  5
309
330
1F
100
AcDbEntity
  8
0-5_ダボ
  6
Continuous
 62
     7
370
     9
100
AcDbCircle
 10
2249.612361683156
 20
367.2074502485583
 30
0.0
 40
2.5
  0
CIRCLE
  5
30A
330
1F
100
AcDbEntity
  8
0-5_ダボ
  6
Continuous
 62
     7
370
     9
100
AcDbCircle
 10
2249.612361683156
 20
335.2074502485584
 30
0.0
 40
2.5
  0
CIRCLE
  5
30B
330
1F
100
AcDbEntity
  8
0-5_ダボ
  6
Continuous
 62
     7
370
     9
100
AcDbCircle
 10
2249.612361683156
 20
303.2074502485591
 30
0.0
 40
2.5
  0
LINE
  5
30C
330
1F
100
AcDbEntity
  8
0-B_寸法
  6
Continuous
 62
   120
370
     5
100
AcDbLine
 10
2271.612361683155
 20
849.7074502485589
 30
0.0
 11
2249.612361683156
 21
849.7074502485589
 31
0.0
  0
LWPOLYLINE
  5
30D
330
1F
100
AcDbEntity
  8
0-B_寸法
  6
Continuous
 62
     7
370
     9
100
AcDbPolyline
 90
        4
 70
     1
 43
2.0
 10
2272.612361683154
 20
849.7074502485589
 42
0.4142135623731
 10
2271.612361683155
 20
850.7074502485589
 42
0.4142135623731
 10
2270.612361683155
 20
849.7074502485589
 42
0.4142135623731
 10
2271.612361683155
 20
848.7074502485589
 42
0.4142135623731
  0
LWPOLYLINE
  5
30E
330
1F
100
AcDbEntity
  8
0-B_寸法
  6
Continuous
 62
     7
370
     9
100
AcDbPolyline
 90
        4
 70
     1
 43
2.0
 10
2250.612361683156
 20
849.7074502485589
 42
0.4142135623731
 10
2249.612361683156
 20
850.7074502485589
 42
0.4142135623731
 10
2248.612361683156
 20
849.7074502485589
 42
0.4142135623731
 10
2249.612361683156
 20
848.7074502485589
 42
0.4142135623731
  0
LINE
  5
30F
330
1F
100
AcDbEntity
  8
0-B_寸法
  6
Continuous
 62
   120
370
     5
100
AcDbLine
 10
2271.612361683155
 20
849.7074502485589
 30
0.0
 11
2271.612361683155
 21
749.7074502485589
 31
0.0
  0
LINE
  5
310
330
1F
100
AcDbEntity
  8
0-B_寸法
  6
Continuous
 62
   120
370
     5
100
AcDbLine
 10
2249.612361683156
 20
849.7074502485589
 30
0.0
 11
2249.612361683156
 21
749.7074502485589
 31
0.0
  0
LWPOLYLINE
  5
311
330
1F
100
AcDbEntity
  8
0-B_寸法
  6
Continuous
 62
     7
370
     9
100
AcDbPolyline
 90
        4
 70
     1
 43
2.0
 10
1927.612361683154
 20
849.7074502485589
 42
0.4142135623731
 10
1926.612361683154
 20
850.7074502485589
 42
0.4142135623731
 10
1925.612361683154
 20
849.7074502485589
 42
0.4142135623731
 10
1926.612361683154
 20
848.7074502485589
 42
0.4142135623731
  0
LINE
  5
312
330
1F
100
AcDbEntity
  8
0-B_寸法
  6
Continuous
 62
   120
370
     5
100
AcDbLine
 10
1926.612361683154
 20
849.7074502485589
 30
0.0
 11
1926.612361683154
 21
749.7074502485589
 31
0.0
  0
MTEXT
  5
313
330
1F
100
AcDbEntity
  8
0-B_寸法
  6
Continuous
 62
     7
370
   211
100
AcDbMText
 10
2202.904397668198
 20
852.5674502485589
 30
0.0
 40
45.72
 41
60.0
 46
0.0
 71
     7
 72
     1
  1
{\fＭＳ ゴシック|b0|i0|c128|p49;22}
 73
     1
 44
1.0
  0
LINE
  5
314
330
1F
100
AcDbEntity
  8
0-6_桟木
  6
Continuous
 62
    92
370
    13
100
AcDbLine
 10
2268.612361683155
 20
684.7074502485583
 30
0.0
 11
2253.612361683155
 21
684.7074502485583
 31
0.0
  0
LINE
  5
315
330
1F
100
AcDbEntity
  8
0-6_桟木
  6
Continuous
 62
    92
370
    13
100
AcDbLine
 10
2253.612361683155
 20
684.7074502485583
 30
0.0
 11
2253.612361683155
 21
620.7074502485591
 31
0.0
  0
LINE
  5
316
330
1F
100
AcDbEntity
  8
0-6_桟木
  6
Continuous
 62
    92
370
    13
100
AcDbLine
 10
2253.612361683155
 20
620.7074502485591
 30
0.0
 11
2268.612361683155
 21
620.7074502485591
 31
0.0
  0
LINE
  5
317
330
1F
100
AcDbEntity
  8
0-6_桟木
  6
Continuous
 62
    92
370
    13
100
AcDbLine
 10
2268.612361683155
 20
145.7074502485591
 30
0.0
 11
2253.612361683155
 21
145.7074502485591
 31
0.0
  0
LINE
  5
318
330
1F
100
AcDbEntity
  8
0-6_桟木
  6
Continuous
 62
    92
370
    13
100
AcDbLine
 10
2253.612361683155
 20
145.7074502485591
 30
0.0
 11
2253.612361683155
 21
209.7074502485583
 31
0.0
  0
LINE
  5
319
330
1F
100
AcDbEntity
  8
0-6_桟木
  6
Continuous
 62
    92
370
    13
100
AcDbLine
 10
2253.612361683155
 20
209.7074502485583
 30
0.0
 11
2268.612361683155
 21
209.7074502485583
 31
0.0
  0
LINE
  5
31A
330
1F
100
AcDbEntity
  8
0-0_補助線
  6
JWW_HOJO
 62
     7
370
     9
100
AcDbLine
 10
2271.612361683156
 20
130.7074502485591
 30
0.0
 11
2271.612361683156
 21
849.7074502485589
 31
0.0
  0
LINE
  5
31B
330
1F
100
AcDbEntity
  8
0-0_補助線
  6
JWW_HOJO
 62
   120
370
     5
100
AcDbLine
 10
2321.612361683156
 20
130.7074502485591
 30
0.0
 11
2321.612361683156
 21
1049.707450248559
 31
0.0
  0
LINE
  5
31C
330
1F
100
AcDbEntity
  8
0-B_寸法
  6
Continuous
 62
   120
370
     5
100
AcDbLine
 10
1754.612361683156
 20
699.7074502485583
 30
0.0
 11
1754.612361683156
 21
527.20745024856
 31
0.0
  0
LWPOLYLINE
  5
31D
330
1F
100
AcDbEntity
  8
0-B_寸法
  6
Continuous
 62
     7
370
     9
100
AcDbPolyline
 90
        4
 70
     1
 43
2.0
 10
1755.612361683156
 20
699.7074502485583
 42
0.4142135623731
 10
1754.612361683156
 20
700.7074502485582
 42
0.4142135623731
 10
1753.612361683156
 20
699.7074502485583
 42
0.4142135623731
 10
1754.612361683156
 20
698.7074502485584
 42
0.4142135623731
  0
LWPOLYLINE
  5
31E
330
1F
100
AcDbEntity
  8
0-B_寸法
  6
Continuous
 62
     7
370
     9
100
AcDbPolyline
 90
        4
 70
     1
 43
2.0
 10
1755.612361683156
 20
527.20745024856
 42
0.4142135623731
 10
1754.612361683156
 20
528.20745024856
 42
0.4142135623731
 10
1753.612361683156
 20
527.20745024856
 42
0.4142135623731
 10
1754.612361683156
 20
526.20745024856
 42
0.4142135623731
  0
LINE
  5
31F
330
1F
100
AcDbEntity
  8
0-B_寸法
  6
Continuous
 62
   120
370
     5
100
AcDbLine
 10
1754.612361683156
 20
699.7074502485583
 30
0.0
 11
1854.612361683156
 21
699.7074502485583
 31
0.0
  0
LINE
  5
320
330
1F
100
AcDbEntity
  8
0-B_寸法
  6
Continuous
 62
   120
370
     5
100
AcDbLine
 10
1754.612361683156
 20
527.20745024856
 30
0.0
 11
1854.612361683156
 21
527.20745024856
 31
0.0
  0
LINE
  5
321
330
1F
100
AcDbEntity
  8
0-B_寸法
  6
Continuous
 62
   120
370
     5
100
AcDbLine
 10
1754.612361683156
 20
527.20745024856
 30
0.0
 11
1754.612361683156
 21
303.2074502485591
 31
0.0
  0
LWPOLYLINE
  5
322
330
1F
100
AcDbEntity
  8
0-B_寸法
  6
Continuous
 62
     7
370
     9
100
AcDbPolyline
 90
        4
 70
     1
 43
2.0
 10
1755.612361683156
 20
303.2074502485591
 42
0.4142135623731
 10
1754.612361683156
 20
304.2074502485591
 42
0.4142135623731
 10
1753.612361683156
 20
303.2074502485591
 42
0.4142135623731
 10
1754.612361683156
 20
302.2074502485591
 42
0.4142135623731
  0
LINE
  5
323
330
1F
100
AcDbEntity
  8
0-B_寸法
  6
Continuous
 62
   120
370
     5
100
AcDbLine
 10
1754.612361683156
 20
303.2074502485591
 30
0.0
 11
1854.612361683156
 21
303.2074502485591
 31
0.0
  0
LINE
  5
324
330
1F
100
AcDbEntity
  8
0-B_寸法
  6
Continuous
 62
   120
370
     5
100
AcDbLine
 10
1754.612361683156
 20
303.2074502485591
 30
0.0
 11
1754.612361683156
 21
130.7074502485591
 31
0.0
  0
LWPOLYLINE
  5
325
330
1F
100
AcDbEntity
  8
0-B_寸法
  6
Continuous
 62
     7
370
     9
100
AcDbPolyline
 90
        4
 70
     1
 43
2.0
 10
1755.612361683156
 20
130.7074502485591
 42
0.4142135623731
 10
1754.612361683156
 20
131.7074502485591
 42
0.4142135623731
 10
1753.612361683156
 20
130.7074502485591
 42
0.4142135623731
 10
1754.612361683156
 20
129.7074502485591
 42
0.4142135623731
  0
LINE
  5
326
330
1F
100
AcDbEntity
  8
0-B_寸法
  6
Continuous
 62
   120
370
     5
100
AcDbLine
 10
1754.612361683156
 20
130.7074502485591
 30
0.0
 11
1854.612361683156
 21
130.7074502485591
 31
0.0
  0
MTEXT
  5
327
330
1F
100
AcDbEntity
  8
0-B_寸法
  6
Continuous
 62
     7
370
   211
100
AcDbMText
 10
1744.612361683156
 20
134.8174502485591
 30
0.0
 40
45.72
 41
150.0
 46
0.0
 71
     7
 72
     1
  1
{\fＭＳ ゴシック|b0|i0|c128|p49;172.5}
 11
6.123031769111886E-17
 21
1.0
 31
0.0
 73
     1
 44
1.0
  0
LINE
  5
328
330
1F
100
AcDbEntity
  8
0-B_寸法
  6
Continuous
 62
   120
370
     5
100
AcDbLine
 10
1654.612361683156
 20
699.7074502485583
 30
0.0
 11
1654.612361683156
 21
130.7074502485591
 31
0.0
  0
LWPOLYLINE
  5
329
330
1F
100
AcDbEntity
  8
0-B_寸法
  6
Continuous
 62
     7
370
     9
100
AcDbPolyline
 90
        4
 70
     1
 43
2.0
 10
1655.612361683156
 20
699.7074502485583
 42
0.4142135623731
 10
1654.612361683156
 20
700.7074502485582
 42
0.4142135623731
 10
1653.612361683156
 20
699.7074502485583
 42
0.4142135623731
 10
1654.612361683156
 20
698.7074502485584
 42
0.4142135623731
  0
LWPOLYLINE
  5
32A
330
1F
100
AcDbEntity
  8
0-B_寸法
  6
Continuous
 62
     7
370
     9
100
AcDbPolyline
 90
        4
 70
     1
 43
2.0
 10
1655.612361683156
 20
696.7074502485588
 42
0.4142135623731
 10
1654.612361683156
 20
697.7074502485586
 42
0.4142135623731
 10
1653.612361683156
 20
696.7074502485588
 42
0.4142135623731
 10
1654.612361683156
 20
695.7074502485589
 42
0.4142135623731
  0
LINE
  5
32B
330
1F
100
AcDbEntity
  8
0-B_寸法
  6
Continuous
 62
   120
370
     5
100
AcDbLine
 10
1554.612361683156
 20
699.7074502485583
 30
0.0
 11
1754.612361683156
 21
699.7074502485583
 31
0.0
  0
LINE
  5
32C
330
1F
100
AcDbEntity
  8
0-B_寸法
  6
Continuous
 62
   120
370
     5
100
AcDbLine
 10
1654.612361683156
 20
696.7074502485588
 30
0.0
 11
1754.612361683156
 21
696.7074502485588
 31
0.0
  0
LWPOLYLINE
  5
32D
330
1F
100
AcDbEntity
  8
0-B_寸法
  6
Continuous
 62
     7
370
     9
100
AcDbPolyline
 90
        4
 70
     1
 43
2.0
 10
1655.612361683156
 20
133.7074502485581
 42
0.4142135623731
 10
1654.612361683156
 20
134.7074502485581
 42
0.4142135623731
 10
1653.612361683156
 20
133.7074502485581
 42
0.4142135623731
 10
1654.612361683156
 20
132.7074502485581
 42
0.4142135623731
  0
LINE
  5
32E
330
1F
100
AcDbEntity
  8
0-B_寸法
  6
Continuous
 62
   120
370
     5
100
AcDbLine
 10
1654.612361683156
 20
133.7074502485581
 30
0.0
 11
1754.612361683156
 21
133.7074502485581
 31
0.0
  0
LWPOLYLINE
  5
32F
330
1F
100
AcDbEntity
  8
0-B_寸法
  6
Continuous
 62
     7
370
     9
100
AcDbPolyline
 90
        4
 70
     1
 43
2.0
 10
1655.612361683156
 20
130.7074502485591
 42
0.4142135623731
 10
1654.612361683156
 20
131.7074502485591
 42
0.4142135623731
 10
1653.612361683156
 20
130.7074502485591
 42
0.4142135623731
 10
1654.612361683156
 20
129.7074502485591
 42
0.4142135623731
  0
LWPOLYLINE
  5
330
330
1F
100
AcDbEntity
  8
0-B_寸法
  6
Continuous
 62
     7
370
     9
100
AcDbPolyline
 90
        4
 70
     1
 43
2.0
 10
1555.612361683156
 20
699.7074502485583
 42
0.4142135623731
 10
1554.612361683156
 20
700.7074502485582
 42
0.4142135623731
 10
1553.612361683156
 20
699.7074502485583
 42
0.4142135623731
 10
1554.612361683156
 20
698.7074502485584
 42
0.4142135623731
  0
LWPOLYLINE
  5
331
330
1F
100
AcDbEntity
  8
0-B_寸法
  6
Continuous
 62
     7
370
     9
100
AcDbPolyline
 90
        4
 70
     1
 43
2.0
 10
1555.612361683156
 20
130.7074502485591
 42
0.4142135623731
 10
1554.612361683156
 20
131.7074502485591
 42
0.4142135623731
 10
1553.612361683156
 20
130.7074502485591
 42
0.4142135623731
 10
1554.612361683156
 20
129.7074502485591
 42
0.4142135623731
  0
LINE
  5
332
330
1F
100
AcDbEntity
  8
0-B_寸法
  6
Continuous
 62
   120
370
     5
100
AcDbLine
 10
1754.612361683156
 20
130.7074502485591
 30
0.0
 11
1554.612361683156
 21
130.7074502485591
 31
0.0
  0
LINE
  5
333
330
1F
100
AcDbEntity
  8
0-B_寸法
  6
Continuous
 62
   120
370
     5
100
AcDbLine
 10
1554.612361683156
 20
699.7074502485583
 30
0.0
 11
1554.612361683156
 21
130.7074502485591
 31
0.0
  0
MTEXT
  5
334
330
1F
100
AcDbEntity
  8
0-B_寸法
  6
Continuous
 62
     7
370
   211
100
AcDbMText
 10
1644.612361683156
 20
128.8936198863269
 30
0.0
 40
45.72
 41
30.0
 46
0.0
 71
     7
 72
     1
  1
{\fＭＳ ゴシック|b0|i0|c128|p49;3}
 11
6.123031769111886E-17
 21
1.0
 31
0.0
 73
     1
 44
1.0
  0
MTEXT
  5
335
330
1F
100
AcDbEntity
  8
0-B_寸法
  6
Continuous
 62
     7
370
   211
100
AcDbMText
 10
1644.612361683156
 20
656.5017605167424
 30
0.0
 40
45.72
 41
30.0
 46
0.0
 71
     7
 72
     1
  1
{\fＭＳ ゴシック|b0|i0|c128|p49;3}
 11
6.123031769111886E-17
 21
1.0
 31
0.0
 73
     1
 44
1.0
  0
MTEXT
  5
336
330
1F
100
AcDbEntity
  8
0-B_寸法
  6
Continuous
 62
     7
370
   211
100
AcDbMText
 10
1744.612361683156
 20
531.31745024856
 30
0.0
 40
45.72
 41
150.0
 46
0.0
 71
     7
 72
     1
  1
{\fＭＳ ゴシック|b0|i0|c128|p49;172.5}
 11
6.123031769111886E-17
 21
1.0
 31
0.0
 73
     1
 44
1.0
  0
MTEXT
  5
337
330
1F
100
AcDbEntity
  8
0-B_寸法
  6
Continuous
 62
     7
370
   211
100
AcDbMText
 10
1544.612361683156
 20
363.067450248559
 30
0.0
 40
45.72
 41
90.0
 46
0.0
 71
     7
 72
     1
  1
{\fＭＳ ゴシック|b0|i0|c128|p49;569}
 11
6.123031769111886E-17
 21
1.0
 31
0.0
 73
     1
 44
1.0
  0
MTEXT
  5
338
330
1F
100
AcDbEntity
  8
0-B_寸法
  6
Continuous
 62
     7
370
   211
100
AcDbMText
 10
1744.612361683156
 20
363.067450248559
 30
0.0
 40
45.72
 41
90.0
 46
0.0
 71
     7
 72
     1
  1
{\fＭＳ ゴシック|b0|i0|c128|p49;224}
 11
6.123031769111886E-17
 21
1.0
 31
0.0
 73
     1
 44
1.0
  0
MTEXT
  5
339
330
1F
100
AcDbEntity
  8
0-B_寸法
  6
Continuous
 62
     7
370
   211
100
AcDbMText
 10
1644.612361683156
 20
273.067450248559
 30
0.0
 40
45.71999999999999
 41
270.0
 46
0.0
 71
     7
 72
     1
  1
{\fＭＳ ゴシック|b0|i0|c128|p49;ＤＨ＝563}
 11
6.123031769111886E-17
 21
1.0
 31
0.0
 73
     1
 44
1.0
  0
LINE
  5
33A
330
1F
100
AcDbEntity
  8
0-0_補助線
  6
JWW_HOJO
 62
   120
370
     5
100
AcDbLine
 10
1554.612361683156
 20
749.7074502485589
 30
0.0
 11
1554.612361683156
 21
133.7074502485592
 31
0.0
  0
LINE
  5
33B
330
1F
100
AcDbEntity
  8
0-0_補助線
  6
JWW_HOJO
 62
   120
370
     5
100
AcDbLine
 10
1654.612361683156
 20
749.7074502485589
 30
0.0
 11
1654.612361683156
 21
133.7074502485592
 31
0.0
  0
LINE
  5
33C
330
1F
100
AcDbEntity
  8
0-0_補助線
  6
JWW_HOJO
 62
   120
370
     5
100
AcDbLine
 10
1754.612361683156
 20
130.7074502485591
 30
0.0
 11
1754.612361683156
 21
749.7074502485589
 31
0.0
  0
LINE
  5
33D
330
1F
100
AcDbEntity
  8
0-0_補助線
  6
JWW_HOJO
 62
   120
370
     5
100
AcDbLine
 10
1854.612361683156
 20
130.7074502485591
 30
0.0
 11
1854.612361683156
 21
1049.707450248559
 31
0.0
  0
LINE
  5
33E
330
1F
100
AcDbEntity
  8
0-0_補助線
  6
JWW_HOJO
 62
   120
370
     5
100
AcDbLine
 10
2321.612361683156
 20
1049.707450248559
 30
0.0
 11
1854.612361683156
 21
1049.707450248559
 31
0.0
  0
LINE
  5
33F
330
1F
100
AcDbEntity
  8
0-0_補助線
  6
JWW_HOJO
 62
   120
370
     5
100
AcDbLine
 10
2321.612361683156
 20
849.7074502485589
 30
0.0
 11
1854.612361683156
 21
849.7074502485589
 31
0.0
  0
LINE
  5
340
330
1F
100
AcDbEntity
  8
0-0_補助線
  6
JWW_HOJO
 62
   120
370
     5
100
AcDbLine
 10
2321.612361683156
 20
949.7074502485589
 30
0.0
 11
1854.612361683156
 21
949.7074502485589
 31
0.0
  0
LINE
  5
341
330
1F
100
AcDbEntity
  8
0-0_補助線
  6
JWW_HOJO
 62
     7
370
     9
100
AcDbLine
 10
1926.612361683154
 20
130.7074502485591
 30
0.0
 11
1926.612361683154
 21
1044.207450248559
 31
0.0
  0
CIRCLE
  5
342
330
1F
100
AcDbEntity
  8
0-5_ダボ
  6
Continuous
 62
     7
370
     9
100
AcDbCircle
 10
1993.612361683155
 20
527.2074502485583
 30
0.0
 40
2.5
  0
CIRCLE
  5
343
330
1F
100
AcDbEntity
  8
0-5_ダボ
  6
Continuous
 62
     7
370
     9
100
AcDbCircle
 10
1993.612361683155
 20
495.2074502485584
 30
0.0
 40
2.5
  0
CIRCLE
  5
344
330
1F
100
AcDbEntity
  8
0-5_ダボ
  6
Continuous
 62
     7
370
     9
100
AcDbCircle
 10
1993.612361683155
 20
463.2074502485591
 30
0.0
 40
2.5
  0
CIRCLE
  5
345
330
1F
100
AcDbEntity
  8
0-5_ダボ
  6
Continuous
 62
     7
370
     9
100
AcDbCircle
 10
1993.612361683155
 20
431.2074502485592
 30
0.0
 40
2.5
  0
CIRCLE
  5
346
330
1F
100
AcDbEntity
  8
0-5_ダボ
  6
Continuous
 62
     7
370
     9
100
AcDbCircle
 10
1993.612361683155
 20
399.2074502485588
 30
0.0
 40
2.5
  0
CIRCLE
  5
347
330
1F
100
AcDbEntity
  8
0-5_ダボ
  6
Continuous
 62
     7
370
     9
100
AcDbCircle
 10
1993.612361683155
 20
367.2074502485583
 30
0.0
 40
2.5
  0
CIRCLE
  5
348
330
1F
100
AcDbEntity
  8
0-5_ダボ
  6
Continuous
 62
     7
370
     9
100
AcDbCircle
 10
1993.612361683155
 20
335.2074502485584
 30
0.0
 40
2.5
  0
CIRCLE
  5
349
330
1F
100
AcDbEntity
  8
0-5_ダボ
  6
Continuous
 62
     7
370
     9
100
AcDbCircle
 10
1993.612361683155
 20
303.2074502485591
 30
0.0
 40
2.5
  0
LINE
  5
34A
330
1F
100
AcDbEntity
  8
0-B_寸法
  6
Continuous
 62
   120
370
     5
100
AcDbLine
 10
2060.612361683156
 20
527.20745024856
 30
0.0
 11
2010.612361683155
 21
527.20745024856
 31
0.0
  0
LINE
  5
34B
330
1F
100
AcDbEntity
  8
0-B_寸法
  6
Continuous
 62
   120
370
     5
100
AcDbLine
 10
2060.612361683156
 20
495.2074502485601
 30
0.0
 11
2010.612361683155
 21
495.2074502485601
 31
0.0
  0
LINE
  5
34C
330
1F
100
AcDbEntity
  8
0-B_寸法
  6
Continuous
 62
   120
370
     5
100
AcDbLine
 10
2060.612361683156
 20
527.20745024856
 30
0.0
 11
2060.612361683156
 21
495.2074502485601
 31
0.0
  0
LWPOLYLINE
  5
34D
330
1F
100
AcDbEntity
  8
0-B_寸法
  6
Continuous
 62
     7
370
     9
100
AcDbPolyline
 90
        4
 70
     1
 43
2.0
 10
2061.612361683155
 20
527.20745024856
 42
0.4142135623731
 10
2060.612361683156
 20
528.20745024856
 42
0.4142135623731
 10
2059.612361683156
 20
527.20745024856
 42
0.4142135623731
 10
2060.612361683156
 20
526.20745024856
 42
0.4142135623731
  0
LWPOLYLINE
  5
34E
330
1F
100
AcDbEntity
  8
0-B_寸法
  6
Continuous
 62
     7
370
     9
100
AcDbPolyline
 90
        4
 70
     1
 43
2.0
 10
2061.612361683155
 20
495.2074502485601
 42
0.4142135623731
 10
2060.612361683156
 20
496.2074502485601
 42
0.4142135623731
 10
2059.612361683156
 20
495.2074502485601
 42
0.4142135623731
 10
2060.612361683156
 20
494.2074502485601
 42
0.4142135623731
  0
MTEXT
  5
34F
330
1F
100
AcDbEntity
  8
0-B_寸法
  6
Continuous
 62
     7
370
   211
100
AcDbMText
 10
2076.864494484081
 20
473.2145079619431
 30
0.0
 40
45.72
 41
90.0
 46
0.0
 71
     7
 72
     1
  1
{\fＭＳ ゴシック|b0|i0|c128|p49;P32}
 73
     1
 44
1.0
  0
LINE
  5
350
330
1F
100
AcDbEntity
  8
0-B_寸法
  6
JWW_HOJO
 62
     7
370
     9
100
AcDbLine
 10
1993.612361683155
 20
694.70745024856
 30
0.0
 11
1993.612361683155
 21
130.7074502485591
 31
0.0
  0
LINE
  5
351
330
1F
100
AcDbEntity
  8
0-B_寸法
  6
Continuous
 62
   120
370
     5
100
AcDbLine
 10
2249.612361683156
 20
849.7074502485589
 30
0.0
 11
1993.612361683155
 21
849.7074502485589
 31
0.0
  0
LWPOLYLINE
  5
352
330
1F
100
AcDbEntity
  8
0-B_寸法
  6
Continuous
 62
     7
370
     9
100
AcDbPolyline
 90
        4
 70
     1
 43
2.0
 10
1994.612361683155
 20
849.7074502485589
 42
0.4142135623731
 10
1993.612361683155
 20
850.7074502485589
 42
0.4142135623731
 10
1992.612361683155
 20
849.7074502485589
 42
0.4142135623731
 10
1993.612361683155
 20
848.7074502485589
 42
0.4142135623731
  0
LINE
  5
353
330
1F
100
AcDbEntity
  8
0-B_寸法
  6
Continuous
 62
   120
370
     5
100
AcDbLine
 10
1993.612361683155
 20
849.7074502485589
 30
0.0
 11
1993.612361683155
 21
749.7074502485589
 31
0.0
  0
LINE
  5
354
330
1F
100
AcDbEntity
  8
0-B_寸法
  6
Continuous
 62
   120
370
     5
100
AcDbLine
 10
1993.612361683155
 20
849.7074502485589
 30
0.0
 11
1926.612361683154
 21
849.7074502485589
 31
0.0
  0
MTEXT
  5
355
330
1F
100
AcDbEntity
  8
0-B_寸法
  6
Continuous
 62
     7
370
   211
100
AcDbMText
 10
1929.612361683156
 20
852.5674502485589
 30
0.0
 40
45.72
 41
60.0
 46
0.0
 71
     7
 72
     1
  1
{\fＭＳ ゴシック|b0|i0|c128|p49;67}
 73
     1
 44
1.0
  0
MTEXT
  5
356
330
1F
100
AcDbEntity
  8
0-B_寸法
  6
Continuous
 62
     7
370
   211
100
AcDbMText
 10
2076.112361683155
 20
852.5674502485589
 30
0.0
 40
45.72
 41
90.0
 46
0.0
 71
     7
 72
     1
  1
{\fＭＳ ゴシック|b0|i0|c128|p49;256}
 73
     1
 44
1.0
  0
CIRCLE
  5
357
330
1F
100
AcDbEntity
  8
0-6_桟木
  6
Continuous
 62
     7
370
     9
100
AcDbCircle
 10
2261.112361683155
 20
193.7074502485592
 30
0.0
 40
4.0
  0
CIRCLE
  5
358
330
1F
100
AcDbEntity
  8
0-6_桟木
  6
Continuous
 62
     7
370
     9
100
AcDbCircle
 10
2261.112361683155
 20
161.7074502485588
 30
0.0
 40
4.0
  0
CIRCLE
  5
359
330
1F
100
AcDbEntity
  8
0-6_桟木
  6
Continuous
 62
     7
370
     9
100
AcDbCircle
 10
2261.112361683155
 20
668.7074502485592
 30
0.0
 40
4.0
  0
CIRCLE
  5
35A
330
1F
100
AcDbEntity
  8
0-6_桟木
  6
Continuous
 62
     7
370
     9
100
AcDbCircle
 10
2261.112361683155
 20
636.7074502485588
 30
0.0
 40
4.0
  0
LINE
  5
35B
330
1F
100
AcDbEntity
  8
0-2_扉
  6
Continuous
 62
    40
370
    15
100
AcDbLine
 10
1925.612361683155
 20
133.7074502487962
 30
0.0
 11
1925.612361683155
 21
696.7074502487964
 31
0.0
  0
LINE
  5
35C
330
1F
100
AcDbEntity
  8
0-2_扉
  6
Continuous
 62
    40
370
    15
100
AcDbLine
 10
1901.612361683157
 20
133.7074502487962
 30
0.0
 11
1925.612361683155
 21
133.7074502487962
 31
0.0
  0
LINE
  5
35D
330
1F
100
AcDbEntity
  8
0-2_扉
  6
Continuous
 62
    40
370
    15
100
AcDbLine
 10
1901.612361683157
 20
696.7074502487964
 30
0.0
 11
1925.612361683155
 21
696.7074502487964
 31
0.0
  0
LINE
  5
35E
330
1F
100
AcDbEntity
  8
0-2_扉
  6
Continuous
 62
    40
370
    15
100
AcDbLine
 10
1901.612361683157
 20
133.7074502487962
 30
0.0
 11
1901.612361683157
 21
696.7074502487964
 31
0.0
  0
LWPOLYLINE
  5
35F
330
1F
100
AcDbEntity
  8
0-B_寸法
  6
Continuous
 62
     7
370
     9
100
AcDbPolyline
 90
        4
 70
     1
 43
2.0
 10
1926.612361683155
 20
949.707450248797
 42
0.4142135623731
 10
1925.612361683155
 20
950.7074502487969
 42
0.4142135623731
 10
1924.612361683155
 20
949.707450248797
 42
0.4142135623731
 10
1925.612361683155
 20
948.7074502487972
 42
0.4142135623731
  0
LWPOLYLINE
  5
360
330
1F
100
AcDbEntity
  8
0-B_寸法
  6
Continuous
 62
     7
370
     9
100
AcDbPolyline
 90
        4
 70
     1
 43
2.0
 10
1927.612361683154
 20
949.707450248797
 42
0.4142135623731
 10
1926.612361683154
 20
950.7074502487969
 42
0.4142135623731
 10
1925.612361683154
 20
949.707450248797
 42
0.4142135623731
 10
1926.612361683154
 20
948.7074502487972
 42
0.4142135623731
  0
LINE
  5
361
330
1F
100
AcDbEntity
  8
0-B_寸法
  6
Continuous
 62
   120
370
     5
100
AcDbLine
 10
1926.612361683154
 20
949.707450248797
 30
0.0
 11
1926.612361683154
 21
849.707450248797
 31
0.0
  0
LWPOLYLINE
  5
362
330
1F
100
AcDbEntity
  8
0-B_寸法
  6
Continuous
 62
     7
370
     9
100
AcDbPolyline
 90
        4
 70
     1
 43
2.0
 10
2272.612361683154
 20
949.707450248797
 42
0.4142135623731
 10
2271.612361683155
 20
950.7074502487969
 42
0.4142135623731
 10
2270.612361683155
 20
949.707450248797
 42
0.4142135623731
 10
2271.612361683155
 20
948.7074502487972
 42
0.4142135623731
  0
LINE
  5
363
330
1F
100
AcDbEntity
  8
0-B_寸法
  6
Continuous
 62
   120
370
     5
100
AcDbLine
 10
2271.612361683155
 20
1049.707450248797
 30
0.0
 11
2271.612361683155
 21
849.707450248797
 31
0.0
  0
MTEXT
  5
364
330
1F
100
AcDbEntity
  8
0-B_寸法
  6
Continuous
 62
     7
370
   211
100
AcDbMText
 10
2054.112361683155
 20
952.5674502487971
 30
0.0
 40
45.72
 41
90.0
 46
0.0
 71
     7
 72
     1
  1
{\fＭＳ ゴシック|b0|i0|c128|p49;345}
 73
     1
 44
1.0
  0
LWPOLYLINE
  5
365
330
1F
100
AcDbEntity
  8
0-B_寸法
  6
Continuous
 62
     7
370
     9
100
AcDbPolyline
 90
        4
 70
     1
 43
2.0
 10
2272.612361683154
 20
1049.707450248797
 42
0.4142135623731
 10
2271.612361683155
 20
1050.707450248797
 42
0.4142135623731
 10
2270.612361683155
 20
1049.707450248797
 42
0.4142135623731
 10
2271.612361683155
 20
1048.707450248797
 42
0.4142135623731
  0
MTEXT
  5
366
330
1F
100
AcDbEntity
  8
0-B_寸法
  6
Continuous
 62
     7
370
   211
100
AcDbMText
 10
1911.112361683155
 20
952.5674502487971
 30
0.0
 40
45.72
 41
30.0
 46
0.0
 71
     7
 72
     1
  1
{\fＭＳ ゴシック|b0|i0|c128|p49;1}
 73
     1
 44
1.0
  0
LINE
  5
367
330
1F
100
AcDbEntity
  8
0-B_寸法
  6
Continuous
 62
   120
370
     5
100
AcDbLine
 10
1901.612170283157
 20
949.707450248797
 30
0.0
 11
2271.612361683155
 21
949.707450248797
 31
0.0
  0
LWPOLYLINE
  5
368
330
1F
100
AcDbEntity
  8
0-B_寸法
  6
Continuous
 62
     7
370
     9
100
AcDbPolyline
 90
        4
 70
     1
 43
2.0
 10
1902.612170283157
 20
949.707450248797
 42
0.4142135623731
 10
1901.612170283157
 20
950.7074502487969
 42
0.4142135623731
 10
1900.612170283157
 20
949.707450248797
 42
0.4142135623731
 10
1901.612170283157
 20
948.7074502487972
 42
0.4142135623731
  0
LINE
  5
369
330
1F
100
AcDbEntity
  8
0-B_寸法
  6
Continuous
 62
   120
370
     5
100
AcDbLine
 10
1901.612170283157
 20
1049.707450248797
 30
0.0
 11
2271.612361683155
 21
1049.707450248797
 31
0.0
  0
LWPOLYLINE
  5
36A
330
1F
100
AcDbEntity
  8
0-B_寸法
  6
Continuous
 62
     7
370
     9
100
AcDbPolyline
 90
        4
 70
     1
 43
2.0
 10
1902.612170283157
 20
1049.707450248797
 42
0.4142135623731
 10
1901.612170283157
 20
1050.707450248797
 42
0.4142135623731
 10
1900.612170283157
 20
1049.707450248797
 42
0.4142135623731
 10
1901.612170283157
 20
1048.707450248797
 42
0.4142135623731
  0
MTEXT
  5
36B
330
1F
100
AcDbEntity
  8
0-B_寸法
  6
Continuous
 62
     7
370
   211
100
AcDbMText
 10
2040.112265983156
 20
1052.567450248797
 30
0.0
 40
45.72
 41
90.0
 46
0.0
 71
     7
 72
     1
  1
{\fＭＳ ゴシック|b0|i0|c128|p49;370}
 73
     1
 44
1.0
  0
MTEXT
  5
36C
330
1F
100
AcDbEntity
  8
0-B_寸法
  6
Continuous
 62
     7
370
   211
100
AcDbMText
 10
1838.206036367443
 20
952.5674502487971
 30
0.0
 40
45.72
 41
60.0
 46
0.0
 71
     7
 72
     1
  1
{\fＭＳ ゴシック|b0|i0|c128|p49;24}
 73
     1
 44
1.0
  0
LINE
  5
36D
330
1F
100
AcDbEntity
  8
0-B_寸法
  6
Continuous
 62
   120
370
     5
100
AcDbLine
 10
1901.612170283157
 20
1049.707450248797
 30
0.0
 11
1901.612170283157
 21
749.7074502487965
 31
0.0
  0
LINE
  5
36E
330
1F
100
AcDbEntity
  8
0-B_寸法
  6
Continuous
 62
   120
370
     5
100
AcDbLine
 10
1925.612361683155
 20
949.707450248797
 30
0.0
 11
1925.612361683155
 21
749.7074502487965
 31
0.0
  0
LINE
  5
36F
330
1F
100
AcDbEntity
  8
0-1_本体
  6
Continuous
 62
    40
370
    15
100
AcDbLine
 10
1926.612361683154
 20
699.7074502485583
 30
0.0
 11
2271.612361683155
 21
699.7074502485583
 31
0.0
  0
LINE
  5
370
330
1F
100
AcDbEntity
  8
0-1_本体
  6
Continuous
 62
    40
370
    15
100
AcDbLine
 10
2271.612361683155
 20
689.207450248561
 30
0.0
 11
2271.612361683155
 21
699.7074502485583
 31
0.0
  0
LINE
  5
371
330
1F
100
AcDbEntity
  8
0-0_補助線
  6
JWW_HOJO
 62
     7
370
     9
100
AcDbLine
 10
2421.612361683159
 20
-676.2925497514404
 30
0.0
 11
-2426.168165359203
 21
-676.2925497514404
 31
0.0
  0
LINE
  5
372
330
1F
100
AcDbEntity
  8
0-0_補助線
  6
JWW_HOJO
 62
   120
370
     5
100
AcDbLine
 10
-2426.168165359203
 20
-708.2925497514409
 30
0.0
 11
2421.612361683159
 21
-708.2925497514409
 31
0.0
  0
LINE
  5
373
330
1F
100
AcDbEntity
  8
0-A_文字
  6
JWW_HOJO
 62
     7
370
     9
100
AcDbLine
 10
2521.612361683156
 20
-1533.292549751442
 30
0.0
 11
-2737.387638104453
 21
-1533.292549751442
 31
0.0
  0
LINE
  5
374
330
1F
100
AcDbEntity
  8
0-A_文字
  6
JWW_HOJO
 62
     7
370
     9
100
AcDbLine
 10
2521.612361683156
 20
699.7074502485583
 30
0.0
 11
-2737.387638104453
 21
699.7074502485583
 31
0.0
  0
LINE
  5
375
330
1F
100
AcDbEntity
  8
0-A_文字
  6
JWW_CENTER1
 62
     7
370
     9
100
AcDbLine
 10
-2487.387638104453
 20
699.7074502485583
 30
0.0
 11
2271.612361683159
 21
699.7074502485583
 31
0.0
  0
LINE
  5
376
330
1F
100
AcDbEntity
  8
0-0_補助線
  6
JWW_HOJO
 62
   120
370
     5
100
AcDbLine
 10
2521.612361683156
 20
-1583.292549751442
 30
0.0
 11
-2737.387638104453
 21
-1583.292549751442
 31
0.0
  0
LINE
  5
377
330
1F
100
AcDbEntity
  8
0-0_補助線
  6
JWW_HOJO
 62
   120
370
     5
100
AcDbLine
 10
2521.612361683156
 20
-1683.292549751442
 30
0.0
 11
-2737.387638104453
 21
-1683.292549751442
 31
0.0
  0
LINE
  5
378
330
1F
100
AcDbEntity
  8
0-0_補助線
  6
JWW_HOJO
 62
   120
370
     5
100
AcDbLine
 10
2521.612361683156
 20
-1783.292549751442
 30
0.0
 11
-2737.387638104453
 21
-1783.292549751442
 31
0.0
  0
LINE
  5
379
330
1F
100
AcDbEntity
  8
0-B_寸法
  6
JWW_DASHED2
 62
   120
370
     5
100
AcDbLine
 10
2271.612361590082
 20
-1533.29254975144
 30
0.0
 11
-2276.168165452279
 21
-1533.29254975144
 31
0.0
  0
LINE
  5
37A
330
1F
100
AcDbEntity
  8
0-B_寸法
  6
JWW_DASHED2
 62
   120
370
     5
100
AcDbLine
 10
2271.612361590082
 20
-1390.292549751443
 30
0.0
 11
-2487.387638104454
 21
-1390.292549751443
 31
0.0
  0
LINE
  5
37B
330
1F
100
AcDbEntity
  8
0-B_寸法
  6
JWW_DASHED2
 62
   120
370
     5
100
AcDbLine
 10
2271.61236168316
 20
699.7074502485583
 30
0.0
 11
-2487.387638104453
 21
699.7074502485583
 31
0.0
  0
LINE
  5
37C
330
1F
100
AcDbEntity
  8
0-B_寸法
  6
JWW_DASHED2
 62
   120
370
     5
100
AcDbLine
 10
2271.61236168316
 20
594.7074502485583
 30
0.0
 11
-2487.387638104453
 21
594.7074502485583
 31
0.0
  0
LINE
  5
37D
330
1F
100
AcDbEntity
  8
0-B_寸法
  6
JWW_DASHED2
 62
   120
370
     5
100
AcDbLine
 10
2271.61236168316
 20
235.707450248558
 30
0.0
 11
-2487.387638104453
 21
235.707450248558
 31
0.0
  0
LINE
  5
37E
330
1F
100
AcDbEntity
  8
0-B_寸法
  6
JWW_DASHED2
 62
   120
370
     5
100
AcDbLine
 10
2271.61236168316
 20
130.707450248558
 30
0.0
 11
-2487.387638104453
 21
130.707450248558
 31
0.0
  0
LINE
  5
37F
330
1F
100
AcDbEntity
  8
0-A_文字
  6
JWW_CENTER1
 62
     7
370
     9
100
AcDbLine
 10
-2487.387638104453
 20
-1533.292549751442
 30
0.0
 11
2271.612361683159
 21
-1533.292549751442
 31
0.0
  0
LINE
  5
380
330
1F
100
AcDbEntity
  8
0-B_寸法
  6
JWW_DASHED2
 62
   120
370
     5
100
AcDbLine
 10
2271.612361590082
 20
-783.292549751443
 30
0.0
 11
-2487.387638104454
 21
-783.292549751443
 31
0.0
  0
LINE
  5
381
330
1F
100
AcDbEntity
  8
0-B_寸法
  6
JWW_DASHED2
 62
   120
370
     5
100
AcDbLine
 10
2271.612361590082
 20
-678.2925497514424
 30
0.0
 11
-2487.387638104454
 21
-678.2925497514424
 31
0.0
  0
MTEXT
  5
382
330
1F
100
AcDbEntity
  8
0-B_寸法
  6
Continuous
 62
     7
370
   211
100
AcDbMText
 10
1448.612361776225
 20
-1538.432549751444
 30
0.0
 40
45.72
 41
60.0
 46
0.0
 71
     7
 72
     1
  1
{\fＭＳ ゴシック|b0|i0|c128|p49;64}
 11
6.123031769111886E-17
 21
1.0
 31
0.0
 73
     1
 44
1.0
  0
LINE
  5
383
330
1F
100
AcDbEntity
  8
0-B_寸法
  6
Continuous
 62
   120
370
     5
100
AcDbLine
 10
1454.612361776227
 20
-1533.292549751442
 30
0.0
 11
1854.612361683161
 21
-1533.292549751442
 31
0.0
  0
LINE
  5
384
330
1F
100
AcDbEntity
  8
0-B_寸法
  6
Continuous
 62
   120
370
     5
100
AcDbLine
 10
1454.612361776227
 20
-1469.292549751442
 30
0.0
 11
1854.612361683161
 21
-1469.292549751442
 31
0.0
  0
LWPOLYLINE
  5
385
330
1F
100
AcDbEntity
  8
0-B_寸法
  6
Continuous
 62
     7
370
     9
100
AcDbPolyline
 90
        4
 70
     1
 43
2.0
 10
1455.612361776227
 20
-1533.292549751442
 42
0.4142135623731
 10
1454.612361776227
 20
-1532.292549751442
 42
0.4142135623731
 10
1453.612361776227
 20
-1533.292549751442
 42
0.4142135623731
 10
1454.612361776227
 20
-1534.292549751442
 42
0.4142135623731
  0
LWPOLYLINE
  5
386
330
1F
100
AcDbEntity
  8
0-B_寸法
  6
Continuous
 62
     7
370
     9
100
AcDbPolyline
 90
        4
 70
     1
 43
2.0
 10
1455.612361776227
 20
-1469.292549751442
 42
0.4142135623731
 10
1454.612361776227
 20
-1468.292549751443
 42
0.4142135623731
 10
1453.612361776227
 20
-1469.292549751442
 42
0.4142135623731
 10
1454.612361776227
 20
-1470.292549751442
 42
0.4142135623731
  0
LINE
  5
387
330
1F
100
AcDbEntity
  8
0-B_寸法
  6
Continuous
 62
   120
370
     5
100
AcDbLine
 10
1454.612361776227
 20
-1469.292549751442
 30
0.0
 11
1454.612361776227
 21
-1533.292549751442
 31
0.0
  0
MTEXT
  5
388
330
1F
100
AcDbEntity
  8
0-B_寸法
  6
Continuous
 62
     7
370
   211
100
AcDbMText
 10
-551.3876381044586
 20
1613.025489506774
 30
0.0
 40
45.72
 41
60.0
 46
0.0
 71
     7
 72
     1
  1
{\fＭＳ ゴシック|b0|i0|c128|p49;24}
 11
6.123031769111886E-17
 21
1.0
 31
0.0
 73
     1
 44
1.0
  0
MTEXT
  5
389
330
1F
100
AcDbEntity
  8
0-B_寸法
  6
Continuous
 62
     7
370
   211
100
AcDbMText
 10
-651.3876381044587
 20
1815.441435702016
 30
0.0
 40
45.72
 41
90.0
 46
0.0
 71
     7
 72
     1
  1
{\fＭＳ ゴシック|b0|i0|c128|p49;370}
 11
6.123031769111886E-17
 21
1.0
 31
0.0
 73
     1
 44
1.0
  0
LINE
  5
38A
330
1F
100
AcDbEntity
  8
0-B_寸法
  6
Continuous
 62
   120
370
     5
100
AcDbLine
 10
-541.3876381044586
 20
2052.58129053732
 30
0.0
 11
-541.3876381044586
 21
1682.581580866712
 31
0.0
  0
LWPOLYLINE
  5
38B
330
1F
100
AcDbEntity
  8
0-B_寸法
  6
Continuous
 62
     7
370
     9
100
AcDbPolyline
 90
        4
 70
     1
 43
2.0
 10
-540.3876381044586
 20
1682.581580866712
 42
0.4142135623731
 10
-541.3876381044586
 20
1683.581580866712
 42
0.4142135623731
 10
-542.3876381044586
 20
1682.581580866712
 42
0.4142135623731
 10
-541.3876381044586
 20
1681.581580866712
 42
0.4142135623731
  0
LINE
  5
38C
330
1F
100
AcDbEntity
  8
0-B_寸法
  6
Continuous
 62
   120
370
     5
100
AcDbLine
 10
-641.3876381044587
 20
1682.581580866712
 30
0.0
 11
-441.3876381044585
 21
1682.581580866712
 31
0.0
  0
LINE
  5
38D
330
1F
100
AcDbEntity
  8
0-B_寸法
  6
Continuous
 62
   120
370
     5
100
AcDbLine
 10
-641.3876381044587
 20
2052.58129053732
 30
0.0
 11
-641.3876381044587
 21
1682.581580866712
 31
0.0
  0
LWPOLYLINE
  5
38E
330
1F
100
AcDbEntity
  8
0-B_寸法
  6
Continuous
 62
     7
370
     9
100
AcDbPolyline
 90
        4
 70
     1
 43
2.0
 10
-640.3876381044587
 20
1682.581580866712
 42
0.4142135623731
 10
-641.3876381044587
 20
1683.581580866712
 42
0.4142135623731
 10
-642.3876381044586
 20
1682.581580866712
 42
0.4142135623731
 10
-641.3876381044587
 20
1681.581580866712
 42
0.4142135623731
  0
LINE
  5
38F
330
1F
100
AcDbEntity
  8
0-B_寸法
  6
Continuous
 62
   120
370
     5
100
AcDbLine
 10
-541.3876381044586
 20
1706.581580866713
 30
0.0
 11
-441.3876381044585
 21
1706.581580866713
 31
0.0
  0
LWPOLYLINE
  5
390
330
1F
100
AcDbEntity
  8
0-B_寸法
  6
Continuous
 62
     7
370
     9
100
AcDbPolyline
 90
        4
 70
     1
 43
2.0
 10
-540.3876381044586
 20
1706.581580866713
 42
0.4142135623731
 10
-541.3876381044586
 20
1707.581580866713
 42
0.4142135623731
 10
-542.3876381044586
 20
1706.581580866713
 42
0.4142135623731
 10
-541.3876381044586
 20
1705.581580866713
 42
0.4142135623731
  0
LWPOLYLINE
  5
391
330
1F
100
AcDbEntity
  8
0-B_寸法
  6
Continuous
 62
     7
370
     9
100
AcDbPolyline
 90
        4
 70
     1
 43
2.0
 10
-640.3876381044587
 20
2052.58129053732
 42
0.4142135623731
 10
-641.3876381044587
 20
2053.58129053732
 42
0.4142135623731
 10
-642.3876381044586
 20
2052.58129053732
 42
0.4142135623731
 10
-641.3876381044587
 20
2051.58129053732
 42
0.4142135623731
  0
MTEXT
  5
392
330
1F
100
AcDbEntity
  8
0-B_寸法
  6
Continuous
 62
     7
370
   211
100
AcDbMText
 10
-551.3876381044586
 20
1684.941257545344
 30
0.0
 40
45.72
 41
30.0
 46
0.0
 71
     7
 72
     1
  1
{\fＭＳ ゴシック|b0|i0|c128|p49;1}
 11
6.123031769111886E-17
 21
1.0
 31
0.0
 73
     1
 44
1.0
  0
MTEXT
  5
393
330
1F
100
AcDbEntity
  8
0-B_寸法
  6
Continuous
 62
     7
370
   211
100
AcDbMText
 10
-551.3876381044586
 20
1827.941435702016
 30
0.0
 40
45.72
 41
90.0
 46
0.0
 71
     7
 72
     1
  1
{\fＭＳ ゴシック|b0|i0|c128|p49;345}
 11
6.123031769111886E-17
 21
1.0
 31
0.0
 73
     1
 44
1.0
  0
LINE
  5
394
330
1F
100
AcDbEntity
  8
0-B_寸法
  6
Continuous
 62
   120
370
     5
100
AcDbLine
 10
-541.3876381044586
 20
1707.581580866712
 30
0.0
 11
-441.3876381044585
 21
1707.581580866712
 31
0.0
  0
LINE
  5
395
330
1F
100
AcDbEntity
  8
0-B_寸法
  6
Continuous
 62
   120
370
     5
100
AcDbLine
 10
-641.3876381044587
 20
2052.58129053732
 30
0.0
 11
-441.3876381044585
 21
2052.58129053732
 31
0.0
  0
LWPOLYLINE
  5
396
330
1F
100
AcDbEntity
  8
0-B_寸法
  6
Continuous
 62
     7
370
     9
100
AcDbPolyline
 90
        4
 70
     1
 43
2.0
 10
-540.3876381044586
 20
1707.581580866712
 42
0.4142135623731
 10
-541.3876381044586
 20
1708.581580866712
 42
0.4142135623731
 10
-542.3876381044586
 20
1707.581580866712
 42
0.4142135623731
 10
-541.3876381044586
 20
1706.581580866712
 42
0.4142135623731
  0
LWPOLYLINE
  5
397
330
1F
100
AcDbEntity
  8
0-B_寸法
  6
Continuous
 62
     7
370
     9
100
AcDbPolyline
 90
        4
 70
     1
 43
2.0
 10
-540.3876381044586
 20
2052.58129053732
 42
0.4142135623731
 10
-541.3876381044586
 20
2053.58129053732
 42
0.4142135623731
 10
-542.3876381044586
 20
2052.58129053732
 42
0.4142135623731
 10
-541.3876381044586
 20
2051.58129053732
 42
0.4142135623731
  0
LINE
  5
398
330
1F
100
AcDbEntity
  8
0-0_補助線
  6
JWW_HOJO
 62
     7
370
     9
100
AcDbLine
 10
-641.3876381044579
 20
2052.581290537321
 30
0.0
 11
454.6123618955451
 21
2052.581290537321
 31
0.0
  0
LINE
  5
399
330
1F
100
AcDbEntity
  8
0-0_補助線
  6
JWW_HOJO
 62
     7
370
     9
100
AcDbLine
 10
404.612361895544
 20
2102.581290537321
 30
0.0
 11
404.612361895544
 21
-1863.79254975144
 31
0.0
  0
LINE
  5
39A
330
1F
100
AcDbEntity
  8
0-A_文字
  6
Continuous
 62
     7
370
     9
100
AcDbLine
 10
-418.3876381044567
 20
1129.581290537321
 30
0.0
 11
-418.3876381044567
 21
1279.581290537321
 31
0.0
  0
LINE
  5
39B
330
1F
100
AcDbEntity
  8
0-A_文字
  6
Continuous
 62
     7
370
     9
100
AcDbLine
 10
431.6123618955433
 20
1129.581290537321
 30
0.0
 11
-418.3876381044567
 21
1129.581290537321
 31
0.0
  0
LINE
  5
39C
330
1F
100
AcDbEntity
  8
0-A_文字
  6
Continuous
 62
     7
370
     9
100
AcDbLine
 10
431.6123618955433
 20
1279.581290537321
 30
0.0
 11
431.6123618955433
 21
1129.581290537321
 31
0.0
  0
LINE
  5
39D
330
1F
100
AcDbEntity
  8
0-A_文字
  6
Continuous
 62
     7
370
     9
100
AcDbLine
 10
-418.3876381044567
 20
1279.581290537321
 30
0.0
 11
431.6123618955433
 21
1279.581290537321
 31
0.0
  0
MTEXT
  5
39E
330
1F
100
AcDbEntity
  8
0-A_文字
  6
Continuous
 62
     7
370
     9
100
AcDbMText
 10
-193.3876381044567
 20
1135.381290537321
 30
0.0
 40
101.6
 41
400.0
 46
0.0
 71
     7
 72
     1
  1
{\fＭＳ ゴシック|b0|i0|c128|p49;平面図}
 73
     1
 44
1.0
  0
MTEXT
  5
39F
330
1F
100
AcDbEntity
  8
0-B_寸法
  6
Continuous
 62
     7
370
   211
100
AcDbMText
 10
-38.3876381044567
 20
1432.441290537319
 30
0.0
 40
45.72
 41
90.0
 46
0.0
 71
     7
 72
     1
  1
{\fＭＳ ゴシック|b0|i0|c128|p49;796}
 73
     1
 44
1.0
  0
LINE
  5
3A0
330
1F
100
AcDbEntity
  8
0-B_寸法
  6
Continuous
 62
   120
370
     5
100
AcDbLine
 10
404.612361895544
 20
1429.581290537319
 30
0.0
 11
404.612361895544
 21
1529.581290537319
 31
0.0
  0
LINE
  5
3A1
330
1F
100
AcDbEntity
  8
0-B_寸法
  6
Continuous
 62
   120
370
     5
100
AcDbLine
 10
-391.3876381044562
 20
1429.581290537319
 30
0.0
 11
-391.3876381044562
 21
1529.581290537319
 31
0.0
  0
LWPOLYLINE
  5
3A2
330
1F
100
AcDbEntity
  8
0-B_寸法
  6
Continuous
 62
     7
370
     9
100
AcDbPolyline
 90
        4
 70
     1
 43
2.0
 10
405.612361895544
 20
1429.581290537319
 42
0.4142135623731
 10
404.612361895544
 20
1430.581290537318
 42
0.4142135623731
 10
403.612361895544
 20
1429.581290537319
 42
0.4142135623731
 10
404.612361895544
 20
1428.581290537319
 42
0.4142135623731
  0
LWPOLYLINE
  5
3A3
330
1F
100
AcDbEntity
  8
0-B_寸法
  6
Continuous
 62
     7
370
     9
100
AcDbPolyline
 90
        4
 70
     1
 43
2.0
 10
-390.3876381044562
 20
1429.581290537319
 42
0.4142135623731
 10
-391.3876381044562
 20
1430.581290537318
 42
0.4142135623731
 10
-392.3876381044562
 20
1429.581290537319
 42
0.4142135623731
 10
-391.3876381044562
 20
1428.581290537319
 42
0.4142135623731
  0
LINE
  5
3A4
330
1F
100
AcDbEntity
  8
0-B_寸法
  6
Continuous
 62
   120
370
     5
100
AcDbLine
 10
-391.3876381044562
 20
1429.581290537319
 30
0.0
 11
404.612361895544
 21
1429.581290537319
 31
0.0
  0
LINE
  5
3A5
330
1F
100
AcDbEntity
  8
0-4_棚
  6
Continuous
 62
    92
370
    13
100
AcDbLine
 10
-376.3876381044578
 20
1759.581290537319
 30
0.0
 11
389.612361895544
 21
1759.581290537319
 31
0.0
  0
LINE
  5
3A6
330
1F
100
AcDbEntity
  8
0-1_本体
  6
Continuous
 62
    40
370
    15
100
AcDbLine
 10
389.612361895544
 20
2049.58129053732
 30
0.0
 11
389.612361895544
 21
1707.58129053732
 31
0.0
  0
LINE
  5
3A7
330
1F
100
AcDbEntity
  8
0-1_本体
  6
Continuous
 62
    40
370
    15
100
AcDbLine
 10
-376.3876381044578
 20
2049.58129053732
 30
0.0
 11
-376.3876381044578
 21
1707.58129053732
 31
0.0
  0
LINE
  5
3A8
330
1F
100
AcDbEntity
  8
0-1_本体
  6
Continuous
 62
    40
370
    15
100
AcDbLine
 10
404.612361895544
 20
1707.58129053732
 30
0.0
 11
404.612361895544
 21
2052.581290537321
 31
0.0
  0
LINE
  5
3A9
330
1F
100
AcDbEntity
  8
0-1_本体
  6
Continuous
 62
    40
370
    15
100
AcDbLine
 10
389.612361895544
 20
1707.58129053732
 30
0.0
 11
404.612361895544
 21
1707.58129053732
 31
0.0
  0
LINE
  5
3AA
330
1F
100
AcDbEntity
  8
0-1_本体
  6
Continuous
 62
    40
370
    15
100
AcDbLine
 10
-391.3876381044578
 20
1707.58129053732
 30
0.0
 11
-391.3876381044578
 21
2052.581290537321
 31
0.0
  0
LINE
  5
3AB
330
1F
100
AcDbEntity
  8
0-1_本体
  6
Continuous
 62
    40
370
    15
100
AcDbLine
 10
-376.3876381044578
 20
1707.58129053732
 30
0.0
 11
-391.3876381044578
 21
1707.58129053732
 31
0.0
  0
LINE
  5
3AC
330
1F
100
AcDbEntity
  8
0-0_補助線
  6
JWW_HOJO
 62
     7
370
     9
100
AcDbLine
 10
-391.3876381044585
 20
2102.581290537321
 30
0.0
 11
-391.3876381044585
 21
-1863.79254975144
 31
0.0
  0
LINE
  5
3AD
330
1F
100
AcDbEntity
  8
0-0_補助線
  6
JWW_HOJO
 62
     7
370
     9
100
AcDbLine
 10
-641.3876381044579
 20
1707.58129053732
 30
0.0
 11
454.6123618955451
 21
1707.58129053732
 31
0.0
  0
LINE
  5
3AE
330
1F
100
AcDbEntity
  8
0-0_補助線
  6
JWW_HOJO
 62
   120
370
     5
100
AcDbLine
 10
454.6123618955451
 20
1429.581290537321
 30
0.0
 11
454.6123618955451
 21
2102.581290537321
 31
0.0
  0
LINE
  5
3AF
330
1F
100
AcDbEntity
  8
0-0_補助線
  6
JWW_HOJO
 62
   120
370
     5
100
AcDbLine
 10
-641.3876381044587
 20
1529.58129053732
 30
0.0
 11
454.6123618955451
 21
1529.58129053732
 31
0.0
  0
LINE
  5
3B0
330
1F
100
AcDbEntity
  8
0-0_補助線
  6
JWW_HOJO
 62
   120
370
     5
100
AcDbLine
 10
-641.3876381044587
 20
2102.581290537321
 30
0.0
 11
454.6123618955451
 21
2102.581290537321
 31
0.0
  0
LINE
  5
3B1
330
1F
100
AcDbEntity
  8
0-0_補助線
  6
JWW_HOJO
 62
   120
370
     5
100
AcDbLine
 10
-641.3876381044587
 20
1429.581290537321
 30
0.0
 11
454.6123618955451
 21
1429.581290537321
 31
0.0
  0
LINE
  5
3B2
330
1F
100
AcDbEntity
  8
0-0_補助線
  6
JWW_HOJO
 62
   120
370
     5
100
AcDbLine
 10
-641.3876381044587
 20
2102.581290537321
 30
0.0
 11
-641.3876381044587
 21
1429.581290537321
 31
0.0
  0
LINE
  5
3B3
330
1F
100
AcDbEntity
  8
0-0_補助線
  6
JWW_HOJO
 62
   120
370
     5
100
AcDbLine
 10
-441.3876381044585
 20
2102.581290537321
 30
0.0
 11
-441.3876381044585
 21
1429.581290537321
 31
0.0
  0
LINE
  5
3B4
330
1F
100
AcDbEntity
  8
0-0_補助線
  6
JWW_HOJO
 62
   120
370
     5
100
AcDbLine
 10
-541.3876381044586
 20
2102.581290537321
 30
0.0
 11
-541.3876381044586
 21
1429.581290537321
 31
0.0
  0
LINE
  5
3B5
330
1F
100
AcDbEntity
  8
0-B_寸法
  6
Continuous
 62
   120
370
     5
100
AcDbLine
 10
-2737.387638104453
 20
-1469.2925367758
 30
0.0
 11
-2737.387638104453
 21
-678.2925497514409
 31
0.0
  0
LWPOLYLINE
  5
3B6
330
1F
100
AcDbEntity
  8
0-B_寸法
  6
Continuous
 62
     7
370
     9
100
AcDbPolyline
 90
        4
 70
     1
 43
2.0
 10
-2736.387638104453
 20
-1469.2925367758
 42
0.4142135623731
 10
-2737.387638104453
 20
-1468.2925367758
 42
0.4142135623731
 10
-2738.387638104454
 20
-1469.2925367758
 42
0.4142135623731
 10
-2737.387638104453
 20
-1470.2925367758
 42
0.4142135623731
  0
LWPOLYLINE
  5
3B7
330
1F
100
AcDbEntity
  8
0-B_寸法
  6
Continuous
 62
     7
370
     9
100
AcDbPolyline
 90
        4
 70
     1
 43
2.0
 10
-2736.387638104453
 20
-678.2925497514409
 42
0.4142135623731
 10
-2737.387638104453
 20
-677.292549751441
 42
0.4142135623731
 10
-2738.387638104454
 20
-678.2925497514409
 42
0.4142135623731
 10
-2737.387638104453
 20
-679.2925497514409
 42
0.4142135623731
  0
LINE
  5
3B8
330
1F
100
AcDbEntity
  8
0-B_寸法
  6
Continuous
 62
   120
370
     5
100
AcDbLine
 10
-2837.387638104453
 20
-1469.292536775578
 30
0.0
 11
-2537.387638104453
 21
-1469.2925367758
 31
0.0
  0
MTEXT
  5
3B9
330
1F
100
AcDbEntity
  8
0-B_寸法
  6
Continuous
 62
     7
370
   211
100
AcDbMText
 10
-2747.387638104453
 20
-1125.932543263621
 30
0.0
 40
45.72
 41
90.0
 46
0.0
 71
     7
 72
     1
  1
{\fＭＳ ゴシック|b0|i0|c128|p49;791}
 11
6.123031769111886E-17
 21
1.0
 31
0.0
 73
     1
 44
1.0
  0
LINE
  5
3BA
330
1F
100
AcDbEntity
  8
0-B_寸法
  6
Continuous
 62
   120
370
     5
100
AcDbLine
 10
-2737.387638104453
 20
-678.2925497514409
 30
0.0
 11
-2737.387638104453
 21
130.707450248558
 31
0.0
  0
LWPOLYLINE
  5
3BB
330
1F
100
AcDbEntity
  8
0-B_寸法
  6
Continuous
 62
     7
370
     9
100
AcDbPolyline
 90
        4
 70
     1
 43
2.0
 10
-2736.387638104453
 20
130.707450248558
 42
0.4142135623731
 10
-2737.387638104453
 20
131.707450248558
 42
0.4142135623731
 10
-2738.387638104454
 20
130.707450248558
 42
0.4142135623731
 10
-2737.387638104453
 20
129.707450248558
 42
0.4142135623731
  0
MTEXT
  5
3BC
330
1F
100
AcDbEntity
  8
0-B_寸法
  6
Continuous
 62
     7
370
   211
100
AcDbMText
 10
-2747.387638104453
 20
-325.9325497514411
 30
0.0
 40
45.72
 41
90.0
 46
0.0
 71
     7
 72
     1
  1
{\fＭＳ ゴシック|b0|i0|c128|p49;809}
 11
6.123031769111886E-17
 21
1.0
 31
0.0
 73
     1
 44
1.0
  0
LINE
  5
3BD
330
1F
100
AcDbEntity
  8
0-B_寸法
  6
Continuous
 62
   120
370
     5
100
AcDbLine
 10
-2737.387638104453
 20
130.707450248558
 30
0.0
 11
-2737.387638104453
 21
699.7074502485583
 31
0.0
  0
LWPOLYLINE
  5
3BE
330
1F
100
AcDbEntity
  8
0-B_寸法
  6
Continuous
 62
     7
370
     9
100
AcDbPolyline
 90
        4
 70
     1
 43
2.0
 10
-2736.387638104453
 20
699.7074502485583
 42
0.4142135623731
 10
-2737.387638104453
 20
700.7074502485582
 42
0.4142135623731
 10
-2738.387638104454
 20
699.7074502485583
 42
0.4142135623731
 10
-2737.387638104453
 20
698.7074502485584
 42
0.4142135623731
  0
MTEXT
  5
3BF
330
1F
100
AcDbEntity
  8
0-B_寸法
  6
Continuous
 62
     7
370
   211
100
AcDbMText
 10
-2747.387638104453
 20
363.0674502485579
 30
0.0
 40
45.72
 41
90.0
 46
0.0
 71
     7
 72
     1
  1
{\fＭＳ ゴシック|b0|i0|c128|p49;569}
 11
6.123031769111886E-17
 21
1.0
 31
0.0
 73
     1
 44
1.0
  0
LINE
  5
3C0
330
1F
100
AcDbEntity
  8
0-B_寸法
  6
Continuous
 62
   120
370
     5
100
AcDbLine
 10
-2837.387638104453
 20
-1533.292549751441
 30
0.0
 11
-2537.387638104455
 21
-1533.292549751441
 31
0.0
  0
LINE
  5
3C1
330
1F
100
AcDbEntity
  8
0-B_寸法
  6
Continuous
 62
   120
370
     5
100
AcDbLine
 10
-2837.387638104453
 20
-1469.292536775578
 30
0.0
 11
-2537.387638104455
 21
-1469.292536775578
 31
0.0
  0
LWPOLYLINE
  5
3C2
330
1F
100
AcDbEntity
  8
0-B_寸法
  6
Continuous
 62
     7
370
     9
100
AcDbPolyline
 90
        4
 70
     1
 43
2.0
 10
-2836.387638104452
 20
-1533.292549751441
 42
0.4142135623731
 10
-2837.387638104453
 20
-1532.292549751441
 42
0.4142135623731
 10
-2838.387638104453
 20
-1533.292549751441
 42
0.4142135623731
 10
-2837.387638104453
 20
-1534.292549751441
 42
0.4142135623731
  0
LWPOLYLINE
  5
3C3
330
1F
100
AcDbEntity
  8
0-B_寸法
  6
Continuous
 62
     7
370
     9
100
AcDbPolyline
 90
        4
 70
     1
 43
2.0
 10
-2836.387638104452
 20
-1469.292536775578
 42
0.4142135623731
 10
-2837.387638104453
 20
-1468.292536775578
 42
0.4142135623731
 10
-2838.387638104453
 20
-1469.292536775578
 42
0.4142135623731
 10
-2837.387638104453
 20
-1470.292536775578
 42
0.4142135623731
  0
LINE
  5
3C4
330
1F
100
AcDbEntity
  8
0-B_寸法
  6
Continuous
 62
   120
370
     5
100
AcDbLine
 10
-2837.387638104453
 20
-1469.292536775578
 30
0.0
 11
-2837.387638104453
 21
-1533.292549751441
 31
0.0
  0
MTEXT
  5
3C5
330
1F
100
AcDbEntity
  8
0-B_寸法
  6
Continuous
 62
     7
370
   211
100
AcDbMText
 10
-2847.387638104453
 20
-1538.43254326351
 30
0.0
 40
45.72
 41
60.0
 46
0.0
 71
     7
 72
     1
  1
{\fＭＳ ゴシック|b0|i0|c128|p49;64}
 11
6.123031769111886E-17
 21
1.0
 31
0.0
 73
     1
 44
1.0
  0
LINE
  5
3C6
330
1F
100
AcDbEntity
  8
0-B_寸法
  6
Continuous
 62
   120
370
     5
100
AcDbLine
 10
-2837.387638104453
 20
-1469.292536775578
 30
0.0
 11
-2837.387638104453
 21
699.7074502485583
 31
0.0
  0
LWPOLYLINE
  5
3C7
330
1F
100
AcDbEntity
  8
0-B_寸法
  6
Continuous
 62
     7
370
     9
100
AcDbPolyline
 90
        4
 70
     1
 43
2.0
 10
-2836.387638104452
 20
-1469.292536775578
 42
0.4142135623731
 10
-2837.387638104453
 20
-1468.292536775578
 42
0.4142135623731
 10
-2838.387638104453
 20
-1469.292536775578
 42
0.4142135623731
 10
-2837.387638104453
 20
-1470.292536775578
 42
0.4142135623731
  0
LWPOLYLINE
  5
3C8
330
1F
100
AcDbEntity
  8
0-B_寸法
  6
Continuous
 62
     7
370
     9
100
AcDbPolyline
 90
        4
 70
     1
 43
2.0
 10
-2836.387638104452
 20
699.7074502485583
 42
0.4142135623731
 10
-2837.387638104453
 20
700.7074502485582
 42
0.4142135623731
 10
-2838.387638104453
 20
699.7074502485583
 42
0.4142135623731
 10
-2837.387638104453
 20
698.7074502485584
 42
0.4142135623731
  0
MTEXT
  5
3C9
330
1F
100
AcDbEntity
  8
0-B_寸法
  6
Continuous
 62
     7
370
   211
100
AcDbMText
 10
-2847.387638104453
 20
-466.9325432635102
 30
0.0
 40
45.72
 41
150.0
 46
0.0
 71
     7
 72
     1
  1
{\fＭＳ ゴシック|b0|i0|c128|p49;2,169}
 11
6.123031769111886E-17
 21
1.0
 31
0.0
 73
     1
 44
1.0
  0
MTEXT
  5
3CA
330
1F
100
AcDbEntity
  8
0-A_文字
  6
Continuous
 62
     7
370
     9
100
AcDbMText
 10
54.60168350700627
 20
2111.936232050522
 30
0.0
 40
45.72
 41
360.0
 46
0.0
 71
     7
 72
     1
  1
{\fＭＳ ゴシック|b0|i0|c128|p49;背板連結樹脂}
 73
     1
 44
1.0
  0
LINE
  5
3CB
330
1F
100
AcDbEntity
  8
0-1_本体
  6
Continuous
 62
    40
370
    15
100
AcDbLine
 10
-391.3876381044585
 20
2052.581290537321
 30
0.0
 11
-383.3876381044584
 21
2052.581290537321
 31
0.0
  0
LINE
  5
3CC
330
1F
100
AcDbEntity
  8
0-1_本体
  6
Continuous
 62
    40
370
    15
100
AcDbLine
 10
-383.3876381044584
 20
2052.581290537321
 30
0.0
 11
-383.3876381044584
 21
2049.58129053732
 31
0.0
  0
LINE
  5
3CD
330
1F
100
AcDbEntity
  8
0-1_本体
  6
Continuous
 62
    40
370
    15
100
AcDbLine
 10
-383.3876381044584
 20
2049.58129053732
 30
0.0
 11
1.112361895541198
 21
2049.58129053732
 31
0.0
  0
LINE
  5
3CE
330
1F
100
AcDbEntity
  8
0-1_本体
  6
Continuous
 62
    40
370
    15
100
AcDbLine
 10
-383.3876381044584
 20
2051.08129053732
 30
0.0
 11
1.112361895541198
 21
2051.08129053732
 31
0.0
  0
LINE
  5
3CF
330
1F
100
AcDbEntity
  8
0-1_本体
  6
Continuous
 62
     7
370
     9
100
AcDbLine
 10
-383.3876381044584
 20
2052.581290537321
 30
0.0
 11
1.112361895541198
 21
2052.581290537321
 31
0.0
  0
LINE
  5
3D0
330
1F
100
AcDbEntity
  8
0-1_本体
  6
Continuous
 62
    40
370
    15
100
AcDbLine
 10
396.612361895541
 20
2052.581290537321
 30
0.0
 11
396.612361895541
 21
2049.58129053732
 31
0.0
  0
LINE
  5
3D1
330
1F
100
AcDbEntity
  8
0-1_本体
  6
Continuous
 62
    40
370
    15
100
AcDbLine
 10
396.612361895541
 20
2049.58129053732
 30
0.0
 11
12.11236189554143
 21
2049.58129053732
 31
0.0
  0
LINE
  5
3D2
330
1F
100
AcDbEntity
  8
0-1_本体
  6
Continuous
 62
    40
370
    15
100
AcDbLine
 10
396.612361895541
 20
2051.08129053732
 30
0.0
 11
12.11236189554143
 21
2051.08129053732
 31
0.0
  0
LINE
  5
3D3
330
1F
100
AcDbEntity
  8
0-1_本体
  6
Continuous
 62
     7
370
     9
100
AcDbLine
 10
396.612361895541
 20
2052.581290537321
 30
0.0
 11
12.11236189554143
 21
2052.581290537321
 31
0.0
  0
LINE
  5
3D4
330
1F
100
AcDbEntity
  8
0-1_本体
  6
Continuous
 62
    40
370
    15
100
AcDbLine
 10
396.612361895541
 20
2052.581290537321
 30
0.0
 11
404.6123618955411
 21
2052.581290537321
 31
0.0
  0
LINE
  5
3D5
330
1F
100
AcDbEntity
  8
0-7__
  6
Continuous
 62
     7
370
     9
100
AcDbLine
 10
2.112361895541142
 20
2052.581290537321
 30
0.0
 11
11.1123618955412
 21
2052.581290537321
 31
0.0
  0
LINE
  5
3D6
330
1F
100
AcDbEntity
  8
0-7__
  6
Continuous
 62
     7
370
     9
100
AcDbLine
 10
-9.387638104458631
 20
2053.08129053732
 30
0.0
 11
-9.387638104458631
 21
2052.581290537321
 31
0.0
  0
ARC
  5
3D7
330
1F
100
AcDbEntity
  8
0-7__
  6
Continuous
 62
     7
370
     9
100
AcDbCircle
 10
-8.887638104458802
 20
2053.08129053732
 30
0.0
 40
0.5
100
AcDbArc
 50
90.0
 51
180.0
  0
LINE
  5
3D8
330
1F
100
AcDbEntity
  8
0-7__
  6
Continuous
 62
     7
370
     9
100
AcDbLine
 10
22.61236189554126
 20
2053.08129053732
 30
0.0
 11
22.61236189554126
 21
2052.581290537321
 31
0.0
  0
LINE
  5
3D9
330
1F
100
AcDbEntity
  8
0-7__
  6
Continuous
 62
     7
370
     9
100
AcDbLine
 10
22.11236189554143
 20
2053.58129053732
 30
0.0
 11
-8.887638104458802
 21
2053.58129053732
 31
0.0
  0
ARC
  5
3DA
330
1F
100
AcDbEntity
  8
0-7__
  6
Continuous
 62
     7
370
     9
100
AcDbCircle
 10
22.11236189554143
 20
2053.08129053732
 30
0.0
 40
0.5
100
AcDbArc
 50
0.0
 51
90.00000000000001
  0
LINE
  5
3DB
330
1F
100
AcDbEntity
  8
0-7__
  6
Continuous
 62
     7
370
     9
100
AcDbLine
 10
-7.387638104458745
 20
2049.58129053732
 30
0.0
 11
1.112361895541198
 21
2049.58129053732
 31
0.0
  0
LINE
  5
3DC
330
1F
100
AcDbEntity
  8
0-7__
  6
Continuous
 62
     7
370
     9
100
AcDbLine
 10
-7.387638104458745
 20
2049.08129053732
 30
0.0
 11
-7.387638104458745
 21
2049.58129053732
 31
0.0
  0
ARC
  5
3DD
330
1F
100
AcDbEntity
  8
0-7__
  6
Continuous
 62
     7
370
     9
100
AcDbCircle
 10
-6.887638104458631
 20
2049.08129053732
 30
0.0
 40
0.5
100
AcDbArc
 50
180.0
 51
270.0
  0
LINE
  5
3DE
330
1F
100
AcDbEntity
  8
0-7__
  6
Continuous
 62
     7
370
     9
100
AcDbLine
 10
20.11236189554126
 20
2048.58129053732
 30
0.0
 11
-6.887638104458631
 21
2048.58129053732
 31
0.0
  0
LINE
  5
3DF
330
1F
100
AcDbEntity
  8
0-7__
  6
Continuous
 62
     7
370
     9
100
AcDbLine
 10
20.61236189554137
 20
2049.08129053732
 30
0.0
 11
20.61236189554137
 21
2049.58129053732
 31
0.0
  0
ARC
  5
3E0
330
1F
100
AcDbEntity
  8
0-7__
  6
Continuous
 62
     7
370
     9
100
AcDbCircle
 10
20.11236189554126
 20
2049.08129053732
 30
0.0
 40
0.5
100
AcDbArc
 50
270.0
 51
0.0
  0
LINE
  5
3E1
330
1F
100
AcDbEntity
  8
0-7__
  6
Continuous
 62
     7
370
     9
100
AcDbLine
 10
1.112361895541198
 20
2049.58129053732
 30
0.0
 11
1.112361895541198
 21
2052.581290537321
 31
0.0
  0
LINE
  5
3E2
330
1F
100
AcDbEntity
  8
0-7__
  6
Continuous
 62
     7
370
     9
100
AcDbLine
 10
2.112361895541142
 20
2049.58129053732
 30
0.0
 11
2.112361895541142
 21
2052.581290537321
 31
0.0
  0
LINE
  5
3E3
330
1F
100
AcDbEntity
  8
0-7__
  6
Continuous
 62
     7
370
     9
100
AcDbLine
 10
11.1123618955412
 20
2049.58129053732
 30
0.0
 11
11.1123618955412
 21
2052.581290537321
 31
0.0
  0
LINE
  5
3E4
330
1F
100
AcDbEntity
  8
0-7__
  6
Continuous
 62
     7
370
     9
100
AcDbLine
 10
2.112361895541142
 20
2049.58129053732
 30
0.0
 11
11.1123618955412
 21
2049.58129053732
 31
0.0
  0
LINE
  5
3E5
330
1F
100
AcDbEntity
  8
0-7__
  6
Continuous
 62
     7
370
     9
100
AcDbLine
 10
12.11236189554114
 20
2049.58129053732
 30
0.0
 11
12.11236189554114
 21
2052.581290537321
 31
0.0
  0
LINE
  5
3E6
330
1F
100
AcDbEntity
  8
0-7__
  6
Continuous
 62
     7
370
     9
100
AcDbLine
 10
12.11236189554114
 20
2049.58129053732
 30
0.0
 11
20.61236189554137
 21
2049.58129053732
 31
0.0
  0
LINE
  5
3E7
330
1F
100
AcDbEntity
  8
0-7__
  6
Continuous
 62
     7
370
     9
100
AcDbLine
 10
-9.387638104458631
 20
2052.581290537321
 30
0.0
 11
1.112361895541198
 21
2052.581290537321
 31
0.0
  0
LINE
  5
3E8
330
1F
100
AcDbEntity
  8
0-7__
  6
Continuous
 62
     7
370
     9
100
AcDbLine
 10
12.11236189554114
 20
2052.581290537321
 30
0.0
 11
22.61236189554126
 21
2052.581290537321
 31
0.0
  0
LINE
  5
3E9
330
1F
100
AcDbEntity
  8
0-A_文字
  6
Continuous
 62
     7
370
     9
100
AcDbLine
 10
41.46272352060038
 20
2116.946190654014
 30
0.0
 11
414.6016835070063
 21
2116.946190654014
 31
0.0
  0
MTEXT
  5
3EA
330
1F
100
AcDbEntity
  8
0-A_文字
  6
Continuous
 62
     7
370
     9
100
AcDbMText
 10
-313.6981336357718
 20
2099.004602139938
 30
0.0
 40
45.72
 41
90.0
 46
0.0
 71
     7
 72
     1
  1
{\fＭＳ ゴシック|b0|i0|c128|p49;Ａ }
 73
     1
 44
1.0
  0
LINE
  5
3EB
330
1F
100
AcDbEntity
  8
0-A_文字
  6
Continuous
 62
     7
370
     9
100
AcDbLine
 10
4.601216850461753
 20
2053.100188257797
 30
0.0
 11
41.46272352060038
 21
2116.946190654014
 31
0.0
  0
MTEXT
  5
3EC
330
1F
100
AcDbEntity
  8
0-A_文字
  6
Continuous
 62
     7
370
     9
100
AcDbMText
 10
-313.6981336357718
 20
1570.877978934703
 30
0.0
 40
45.72
 41
90.0
 46
0.0
 71
     7
 72
     1
  1
{\fＭＳ ゴシック|b0|i0|c128|p49;Ａ'}
 73
     1
 44
1.0
  0
LINE
  5
3ED
330
1F
100
AcDbEntity
  8
0-A_文字
  6
Continuous
 62
     7
370
     9
100
AcDbLine
 10
-120.829976171666
 20
2130.144602139937
 30
0.0
 11
-120.829976171666
 21
1608.017978934701
 31
0.0
  0
LINE
  5
3EE
330
1F
100
AcDbEntity
  8
0-A_文字
  6
Continuous
 62
     7
370
     9
100
AcDbLine
 10
-223.6981336357718
 20
1608.017978934701
 30
0.0
 11
-120.829976171666
 21
1635.581290537319
 31
0.0
  0
LINE
  5
3EF
330
1F
100
AcDbEntity
  8
0-A_文字
  6
Continuous
 62
     7
370
     9
100
AcDbLine
 10
-120.829976171666
 20
1608.017978934701
 30
0.0
 11
-223.6981336357718
 21
1608.017978934701
 31
0.0
  0
LINE
  5
3F0
330
1F
100
AcDbEntity
  8
0-A_文字
  6
Continuous
 62
     7
370
     9
100
AcDbLine
 10
-223.6981336357718
 20
2130.144602139937
 30
0.0
 11
-120.829976171666
 21
2102.581290537321
 31
0.0
  0
LINE
  5
3F1
330
1F
100
AcDbEntity
  8
0-A_文字
  6
Continuous
 62
     7
370
     9
100
AcDbLine
 10
-120.829976171666
 20
2130.144602139937
 30
0.0
 11
-223.6981336357718
 21
2130.144602139937
 31
0.0
  0
LINE
  5
3F2
330
1F
100
AcDbEntity
  8
0-7__
  6
Continuous
 62
     7
370
     9
100
AcDbLine
 10
-7.387638104458745
 20
-1246.315057717257
 30
0.0
 11
-7.387638104458745
 21
-1454.292549751441
 31
0.0
  0
LINE
  5
3F3
330
1F
100
AcDbEntity
  8
0-7__
  6
Continuous
 62
     7
370
     9
100
AcDbLine
 10
20.61236189554137
 20
-1246.315057717257
 30
0.0
 11
20.61236189554137
 21
-1454.292549751441
 31
0.0
  0
LINE
  5
3F4
330
1F
100
AcDbEntity
  8
0-7__
  6
JWW_DASHED1
 62
     7
370
     9
100
AcDbLine
 10
-7.387638104458745
 20
-1246.315057717257
 30
0.0
 11
-7.387638104458745
 21
-1234.315057717255
 31
0.0
  0
LINE
  5
3F5
330
1F
100
AcDbEntity
  8
0-7__
  6
JWW_DASHED1
 62
     7
370
     9
100
AcDbLine
 10
20.61236189554137
 20
-1246.315057717257
 30
0.0
 11
20.61236189554137
 21
-1234.315057717255
 31
0.0
  0
LINE
  5
3F6
330
1F
100
AcDbEntity
  8
0-7__
  6
JWW_DASHED1
 62
     7
370
     9
100
AcDbLine
 10
-7.387638104458745
 20
-1054.314158673697
 30
0.0
 11
-7.387638104458745
 21
-1042.314158673696
 31
0.0
  0
LINE
  5
3F7
330
1F
100
AcDbEntity
  8
0-7__
  6
JWW_DASHED1
 62
     7
370
     9
100
AcDbLine
 10
20.61236189554137
 20
-1054.314158673697
 30
0.0
 11
20.61236189554137
 21
-1042.314158673696
 31
0.0
  0
LINE
  5
3F8
330
1F
100
AcDbEntity
  8
0-7__
  6
Continuous
 62
     7
370
     9
100
AcDbLine
 10
20.61236189554137
 20
-1054.314158673697
 30
0.0
 11
20.61236189554137
 21
-1234.315057717255
 31
0.0
  0
LINE
  5
3F9
330
1F
100
AcDbEntity
  8
0-7__
  6
Continuous
 62
     7
370
     9
100
AcDbLine
 10
-7.387638104458745
 20
-1054.314158673697
 30
0.0
 11
-7.387638104458745
 21
-1234.315057717255
 31
0.0
  0
LINE
  5
3FA
330
1F
100
AcDbEntity
  8
0-7__
  6
JWW_DASHED1
 62
     7
370
     9
100
AcDbLine
 10
-7.387638104458745
 20
-862.3141586736966
 30
0.0
 11
-7.387638104458745
 21
-850.3141586736956
 31
0.0
  0
LINE
  5
3FB
330
1F
100
AcDbEntity
  8
0-7__
  6
JWW_DASHED1
 62
     7
370
     9
100
AcDbLine
 10
20.61236189554137
 20
-862.3141586736966
 30
0.0
 11
20.61236189554137
 21
-850.3141586736956
 31
0.0
  0
LINE
  5
3FC
330
1F
100
AcDbEntity
  8
0-7__
  6
Continuous
 62
     7
370
     9
100
AcDbLine
 10
20.61236189554137
 20
-862.3141586736983
 30
0.0
 11
20.61236189554137
 21
-1042.314158673697
 31
0.0
  0
LINE
  5
3FD
330
1F
100
AcDbEntity
  8
0-7__
  6
Continuous
 62
     7
370
     9
100
AcDbLine
 10
-7.387638104458745
 20
-862.3141586736983
 30
0.0
 11
-7.387638104458745
 21
-1042.314158673697
 31
0.0
  0
LINE
  5
3FE
330
1F
100
AcDbEntity
  8
0-7__
  6
Continuous
 62
     7
370
     9
100
AcDbLine
 10
-7.387638104458745
 20
-723.2925497514412
 30
0.0
 11
-7.387638104458745
 21
-850.3141586736965
 31
0.0
  0
LINE
  5
3FF
330
1F
100
AcDbEntity
  8
0-7__
  6
Continuous
 62
     7
370
     9
100
AcDbLine
 10
20.61236189554137
 20
-723.2925497514412
 30
0.0
 11
20.61236189554137
 21
-850.3141586736965
 31
0.0
  0
LINE
  5
400
330
1F
100
AcDbEntity
  8
0-7__
  6
Continuous
 62
     7
370
     9
100
AcDbLine
 10
-7.387638104459882
 20
401.7074502485508
 30
0.0
 11
-7.387638104459882
 21
145.7074502485591
 31
0.0
  0
LINE
  5
401
330
1F
100
AcDbEntity
  8
0-7__
  6
Continuous
 62
     7
370
     9
100
AcDbLine
 10
20.61236189554023
 20
401.7074502485508
 30
0.0
 11
20.61236189554023
 21
145.7074502485591
 31
0.0
  0
LINE
  5
402
330
1F
100
AcDbEntity
  8
0-7__
  6
JWW_DASHED1
 62
     7
370
     9
100
AcDbLine
 10
-7.387638104459882
 20
401.7074502485508
 30
0.0
 11
-7.387638104459882
 21
413.7074502485524
 31
0.0
  0
LINE
  5
403
330
1F
100
AcDbEntity
  8
0-7__
  6
JWW_DASHED1
 62
     7
370
     9
100
AcDbLine
 10
20.61236189554023
 20
401.7074502485508
 30
0.0
 11
20.61236189554023
 21
413.7074502485524
 31
0.0
  0
LINE
  5
404
330
1F
100
AcDbEntity
  8
0-7__
  6
Continuous
 62
     7
370
     9
100
AcDbLine
 10
-7.387638104459882
 20
684.7074502485509
 30
0.0
 11
-7.387638104459882
 21
413.7074502485524
 31
0.0
  0
LINE
  5
405
330
1F
100
AcDbEntity
  8
0-7__
  6
Continuous
 62
     7
370
     9
100
AcDbLine
 10
20.61236189554023
 20
684.7074502485509
 30
0.0
 11
20.61236189554023
 21
413.7074502485524
 31
0.0
  0
LINE
  5
406
330
1F
100
AcDbEntity
  8
0-A_文字
  6
Continuous
 62
     7
370
     9
100
AcDbLine
 10
41.46272352059697
 20
735.0071208839114
 30
0.0
 11
414.6016835070029
 21
735.0071208839114
 31
0.0
  0
LINE
  5
407
330
1F
100
AcDbEntity
  8
0-A_文字
  6
Continuous
 62
     7
370
     9
100
AcDbLine
 10
4.601216850458343
 20
671.1611184876932
 30
0.0
 11
41.46272352059697
 21
735.0071208839114
 31
0.0
  0
MTEXT
  5
408
330
1F
100
AcDbEntity
  8
0-A_文字
  6
Continuous
 62
     7
370
     9
100
AcDbMText
 10
54.60168350700286
 20
729.9971622804196
 30
0.0
 40
45.72
 41
360.0
 46
0.0
 71
     7
 72
     1
  1
{\fＭＳ ゴシック|b0|i0|c128|p49;背板連結樹脂}
 73
     1
 44
1.0
  0
LINE
  5
409
330
1F
100
AcDbEntity
  8
0-2_扉
  6
Continuous
 62
    40
370
    15
100
AcDbLine
 10
-389.3876381044569
 20
1706.581434700475
 30
0.0
 11
4.61236189554306
 21
1706.581434700475
 31
0.0
  0
LINE
  5
40A
330
1F
100
AcDbEntity
  8
0-2_扉
  6
Continuous
 62
    40
370
    15
100
AcDbLine
 10
4.61236189554306
 20
1706.581434700475
 30
0.0
 11
4.61236189554306
 21
1682.581434700475
 31
0.0
  0
LINE
  5
40B
330
1F
100
AcDbEntity
  8
0-2_扉
  6
Continuous
 62
    40
370
    15
100
AcDbLine
 10
4.61236189554306
 20
1682.581434700475
 30
0.0
 11
-389.3876381044569
 21
1682.581434700475
 31
0.0
  0
LINE
  5
40C
330
1F
100
AcDbEntity
  8
0-2_扉
  6
Continuous
 62
    40
370
    15
100
AcDbLine
 10
-389.3876381044569
 20
1682.581434700475
 30
0.0
 11
-389.3876381044569
 21
1706.581434700475
 31
0.0
  0
LINE
  5
40D
330
1F
100
AcDbEntity
  8
0-2_扉
  6
Continuous
 62
    40
370
    15
100
AcDbLine
 10
402.6123618955435
 20
1706.581434700475
 30
0.0
 11
8.612361895543543
 21
1706.581434700475
 31
0.0
  0
LINE
  5
40E
330
1F
100
AcDbEntity
  8
0-2_扉
  6
Continuous
 62
    40
370
    15
100
AcDbLine
 10
8.612361895543543
 20
1706.581434700475
 30
0.0
 11
8.612361895543543
 21
1682.581434700475
 31
0.0
  0
LINE
  5
40F
330
1F
100
AcDbEntity
  8
0-2_扉
  6
Continuous
 62
    40
370
    15
100
AcDbLine
 10
8.612361895543543
 20
1682.581434700475
 30
0.0
 11
402.6123618955435
 21
1682.581434700475
 31
0.0
  0
LINE
  5
410
330
1F
100
AcDbEntity
  8
0-2_扉
  6
Continuous
 62
    40
370
    15
100
AcDbLine
 10
402.6123618955435
 20
1682.581434700475
 30
0.0
 11
402.6123618955435
 21
1706.581434700475
 31
0.0
  0
MTEXT
  5
411
330
1F
100
AcDbEntity
  8
0-A_文字
  6
Continuous
 62
     7
370
     9
100
AcDbMText
 10
-2358.392161304411
 20
-2076.857549751441
 30
0.0
 40
102.87
 41
540.0
 46
0.0
 71
     7
 72
     1
  1
{\fＭＳ ゴシック|b0|i0|c128|p49;扉配置図}
 73
     1
 44
1.0
  0
MTEXT
  5
412
330
1F
100
AcDbEntity
  8
F-A_文字
  6
Continuous
 62
     7
370
     0
100
AcDbMText
 10
339.945722722191
 20
-2646.608302836591
 30
0.0
 40
21.16666666666666
 41
250.0
 46
0.0
 71
     7
 72
     1
  1
{\fＭＳ ゴシック|b0|i0|c128|p49;ＰＩＮＯＥＡＲＴＨ}
 73
     1
 44
1.0
  0
MTEXT
  5
413
330
1F
100
AcDbEntity
  8
F-A_文字
  6
Continuous
 62
     7
370
     0
100
AcDbMText
 10
3257.445178354582
 20
-2625.380781681567
 30
0.0
 40
52.57799999999999
 41
345.0
 46
0.0
 71
     7
 72
     1
  1
{\fＭＳ ゴシック|b0|i0|c128|p49;2021.04.01}
 73
     1
 44
1.0
  0
MTEXT
  5
414
330
1F
100
AcDbEntity
  8
0-B_寸法
  6
Continuous
 62
     7
370
   211
100
AcDbMText
 10
-2584.321347586654
 20
-1680.432549751441
 30
0.0
 40
45.72
 41
90.0
 46
0.0
 71
     7
 72
     1
  1
{\fＭＳ ゴシック|b0|i0|c128|p49;0.5}
 73
     1
 44
1.0
  0
MTEXT
  5
415
330
1F
100
AcDbEntity
  8
0-B_寸法
  6
Continuous
 62
     7
370
   211
100
AcDbMText
 10
-1681.183505549273
 20
-1680.432549751441
 30
0.0
 40
45.72
 41
90.0
 46
0.0
 71
     7
 72
     1
  1
{\fＭＳ ゴシック|b0|i0|c128|p49;0.5}
 73
     1
 44
1.0
  0
MTEXT
  5
416
330
1F
100
AcDbEntity
  8
0-B_寸法
  6
Continuous
 62
     7
370
   211
100
AcDbMText
 10
-2224.387638104456
 20
-1680.432549751441
 30
0.0
 40
45.71999999999999
 41
270.0
 46
0.0
 71
     7
 72
     1
  1
{\fＭＳ ゴシック|b0|i0|c128|p49;台輪＝795}
 73
     1
 44
1.0
  0
LINE
  5
417
330
1F
100
AcDbEntity
  8
0-9__
  6
Continuous
 62
     7
370
     9
100
AcDbLine
 10
-2486.887638104454
 20
-1533.292549751441
 30
0.0
 11
-2486.887638104454
 21
-1469.292549751441
 31
0.0
  0
LINE
  5
418
330
1F
100
AcDbEntity
  8
0-9__
  6
Continuous
 62
     7
370
     9
100
AcDbLine
 10
-2471.887638104454
 20
-1533.292549751441
 30
0.0
 11
-2471.887638104454
 21
-1469.292549751441
 31
0.0
  0
LINE
  5
419
330
1F
100
AcDbEntity
  8
0-B_寸法
  6
Continuous
 62
   120
370
     5
100
AcDbLine
 10
-2487.387638104455
 20
-1683.292549751441
 30
0.0
 11
-2486.887638104454
 21
-1683.292549751441
 31
0.0
  0
LWPOLYLINE
  5
41A
330
1F
100
AcDbEntity
  8
0-B_寸法
  6
Continuous
 62
     7
370
     9
100
AcDbPolyline
 90
        4
 70
     1
 43
2.0
 10
-2485.887638104454
 20
-1683.292549751441
 42
0.4142135623731
 10
-2486.887638104454
 20
-1682.292549751441
 42
0.4142135623731
 10
-2487.887638104454
 20
-1683.292549751441
 42
0.4142135623731
 10
-2486.887638104454
 20
-1684.292549751441
 42
0.4142135623731
  0
LINE
  5
41B
330
1F
100
AcDbEntity
  8
0-B_寸法
  6
Continuous
 62
   120
370
     5
100
AcDbLine
 10
-2486.887638104454
 20
-1683.292549751441
 30
0.0
 11
-2486.887638104454
 21
-1583.292549751441
 31
0.0
  0
LINE
  5
41C
330
1F
100
AcDbEntity
  8
0-0_補助線
  6
JWW_HOJO
 62
     7
370
     9
100
AcDbLine
 10
-2426.668165359203
 20
-1469.292549751441
 30
0.0
 11
2421.612361683159
 21
-1469.292549751441
 31
0.0
  0
LINE
  5
41D
330
1F
100
AcDbEntity
  8
0-9__
  6
Continuous
 62
     7
370
     9
100
AcDbLine
 10
-1691.887638104456
 20
-1469.292549751441
 30
0.0
 11
-1691.887638104456
 21
-1533.292549751441
 31
0.0
  0
LINE
  5
41E
330
1F
100
AcDbEntity
  8
0-9__
  6
Continuous
 62
     7
370
     9
100
AcDbLine
 10
-1706.887638104456
 20
-1469.292549751441
 30
0.0
 11
-1706.887638104456
 21
-1533.292549751441
 31
0.0
  0
LWPOLYLINE
  5
41F
330
1F
100
AcDbEntity
  8
0-B_寸法
  6
Continuous
 62
     7
370
     9
100
AcDbPolyline
 90
        4
 70
     1
 43
2.0
 10
-1690.887638104457
 20
-1683.292549751441
 42
0.4142135623731
 10
-1691.887638104456
 20
-1682.292549751441
 42
0.4142135623731
 10
-1692.887638104456
 20
-1683.292549751441
 42
0.4142135623731
 10
-1691.887638104456
 20
-1684.292549751441
 42
0.4142135623731
  0
LINE
  5
420
330
1F
100
AcDbEntity
  8
0-B_寸法
  6
Continuous
 62
   120
370
     5
100
AcDbLine
 10
-1691.887638104456
 20
-1683.292549751441
 30
0.0
 11
-1691.887638104456
 21
-1583.292549751441
 31
0.0
  0
LINE
  5
421
330
1F
100
AcDbEntity
  8
0-B_寸法
  6
Continuous
 62
   120
370
     5
100
AcDbLine
 10
-1691.887638104456
 20
-1683.292549751441
 30
0.0
 11
-1691.387638104455
 21
-1683.292549751441
 31
0.0
  0
LINE
  5
422
330
1F
100
AcDbEntity
  8
0-9__
  6
Continuous
 62
     7
370
     9
100
AcDbLine
 10
-2486.887638104454
 20
-1469.292549751441
 30
0.0
 11
-1691.887638104456
 21
-1469.292549751441
 31
0.0
  0
LINE
  5
423
330
1F
100
AcDbEntity
  8
0-9__
  6
Continuous
 62
     7
370
     9
100
AcDbLine
 10
-1691.887638104456
 20
-1533.292549751441
 30
0.0
 11
-2486.887638104454
 21
-1533.292549751441
 31
0.0
  0
LINE
  5
424
330
1F
100
AcDbEntity
  8
0-B_寸法
  6
Continuous
 62
   120
370
     5
100
AcDbLine
 10
-2486.887638104454
 20
-1683.292549751441
 30
0.0
 11
-1691.887638104456
 21
-1683.292549751441
 31
0.0
  0
LINE
  5
425
330
1F
100
AcDbEntity
  8
0-9__
  6
Continuous
 62
     7
370
     9
100
AcDbLine
 10
-390.8876381044571
 20
-1533.292549751441
 30
0.0
 11
-390.8876381044571
 21
-1469.292549751441
 31
0.0
  0
LINE
  5
426
330
1F
100
AcDbEntity
  8
0-9__
  6
Continuous
 62
     7
370
     9
100
AcDbLine
 10
-375.8876381044571
 20
-1533.292549751441
 30
0.0
 11
-375.8876381044571
 21
-1469.292549751441
 31
0.0
  0
LINE
  5
427
330
1F
100
AcDbEntity
  8
0-9__
  6
Continuous
 62
     7
370
     9
100
AcDbLine
 10
404.1123618955426
 20
-1469.292549751441
 30
0.0
 11
404.1123618955426
 21
-1533.292549751441
 31
0.0
  0
LINE
  5
428
330
1F
100
AcDbEntity
  8
0-9__
  6
Continuous
 62
     7
370
     9
100
AcDbLine
 10
389.1123618955426
 20
-1469.292549751441
 30
0.0
 11
389.1123618955426
 21
-1533.292549751441
 31
0.0
  0
LINE
  5
429
330
1F
100
AcDbEntity
  8
0-9__
  6
Continuous
 62
     7
370
     9
100
AcDbLine
 10
-390.8876381044571
 20
-1469.292549751441
 30
0.0
 11
404.1123618955426
 21
-1469.292549751441
 31
0.0
  0
LINE
  5
42A
330
1F
100
AcDbEntity
  8
0-9__
  6
Continuous
 62
     7
370
     9
100
AcDbLine
 10
404.1123618955426
 20
-1533.292549751441
 30
0.0
 11
-390.8876381044571
 21
-1533.292549751441
 31
0.0
  0
ENDSEC
  0
SECTION
  2
OBJECTS
  0
DICTIONARY
  5
C
330
0
100
AcDbDictionary
281
     1
  3
ACAD_GROUP
350
D
  3
ACAD_LAYOUT
350
1A
  3
ACAD_MATERIAL
350
3B
  3
ACAD_MLEADERSTYLE
350
42C
  3
ACAD_MLINESTYLE
350
17
  3
ACAD_PLOTSETTINGS
350
19
  3
ACAD_PLOTSTYLENAME
350
E
  3
ACAD_TABLESTYLE
350
42B
  3
ACAD_VISUALSTYLE
350
2A
  0
DICTIONARY
  5
D
102
{ACAD_REACTORS
330
C
102
}
330
C
100
AcDbDictionary
281
     1
  0
DICTIONARY
  5
1A
102
{ACAD_REACTORS
330
C
102
}
330
C
100
AcDbDictionary
281
     1
  3
Layout1
350
1E
  3
Layout2
350
26
  3
Model
350
22
  0
DICTIONARY
  5
3B
102
{ACAD_REACTORS
330
C
102
}
330
C
100
AcDbDictionary
281
     1
  3
ByBlock
350
3D
  3
ByLayer
350
3C
  3
Global
350
3E
  0
DICTIONARY
  5
42C
102
{ACAD_REACTORS
330
C
102
}
330
C
100
AcDbDictionary
281
     1
  0
DICTIONARY
  5
17
102
{ACAD_REACTORS
330
C
102
}
330
C
100
AcDbDictionary
281
     1
  3
Standard
350
18
  0
DICTIONARY
  5
19
102
{ACAD_REACTORS
330
C
102
}
330
C
100
AcDbDictionary
281
     1
  0
ACDBDICTIONARYWDFLT
  5
E
102
{ACAD_REACTORS
330
C
102
}
330
C
100
AcDbDictionary
281
     1
  3
Normal
350
F
100
AcDbDictionaryWithDefault
340
F
  0
DICTIONARY
  5
42B
102
{ACAD_REACTORS
330
C
102
}
330
C
100
AcDbDictionary
281
     1
  0
DICTIONARY
  5
2A
102
{ACAD_REACTORS
330
C
102
}
330
C
100
AcDbDictionary
281
     1
  3
2dWireframe
350
2F
  3
3D Hidden
350
31
  3
3dWireframe
350
30
  3
Basic
350
32
  3
Brighten
350
36
  3
ColorChange
350
3A
  3
Conceptual
350
34
  3
Dim
350
35
  3
Facepattern
350
39
  3
Flat
350
2B
  3
FlatWithEdges
350
2C
  3
Gouraud
350
2D
  3
GouraudWithEdges
350
2E
  3
Linepattern
350
38
  3
Realistic
350
33
  3
Thicken
350
37
  0
LAYOUT
  5
1E
102
{ACAD_REACTORS
330
1A
102
}
330
1A
100
AcDbPlotSettings
  1

  2
none_device
  4

  6

 40
0.0
 41
0.0
 42
0.0
 43
0.0
 44
0.0
 45
0.0
 46
0.0
 47
0.0
 48
0.0
 49
0.0
140
0.0
141
0.0
142
1.0
143
1.0
 70
   688
 72
     0
 73
     0
 74
     5
  7

 75
    16
 76
     0
 77
     5
 78
   300
147
1.0
148
0.0
149
0.0
100
AcDbLayout
  1
Layout1
 70
     1
 71
     1
 10
0.0
 20
0.0
 11
420.0
 21
297.0
 12
0.0
 22
0.0
 32
0.0
 14
1.000000000000000E+20
 24
1.000000000000000E+20
 34
1.000000000000000E+20
 15
-1.000000000000000E+20
 25
-1.000000000000000E+20
 35
-1.000000000000000E+20
146
0.0
 13
0.0
 23
0.0
 33
0.0
 16
1.0
 26
0.0
 36
0.0
 17
0.0
 27
1.0
 37
0.0
 76
     0
330
1B
  0
LAYOUT
  5
26
102
{ACAD_REACTORS
330
1A
102
}
330
1A
100
AcDbPlotSettings
  1

  2
none_device
  4

  6

 40
0.0
 41
0.0
 42
0.0
 43
0.0
 44
0.0
 45
0.0
 46
0.0
 47
0.0
 48
0.0
 49
0.0
140
0.0
141
0.0
142
1.0
143
1.0
 70
   688
 72
     0
 73
     0
 74
     5
  7

 75
    16
 76
     0
 77
     5
 78
   300
147
1.0
148
0.0
149
0.0
100
AcDbLayout
  1
Layout2
 70
     1
 71
     2
 10
0.0
 20
0.0
 11
0.0
 21
0.0
 12
0.0
 22
0.0
 32
0.0
 14
0.0
 24
0.0
 34
0.0
 15
0.0
 25
0.0
 35
0.0
146
0.0
 13
0.0
 23
0.0
 33
0.0
 16
1.0
 26
0.0
 36
0.0
 17
0.0
 27
1.0
 37
0.0
 76
     0
330
23
  0
LAYOUT
  5
22
102
{ACAD_REACTORS
330
1A
102
}
330
1A
100
AcDbPlotSettings
  1

  2
none_device
  4

  6

 40
0.0
 41
0.0
 42
0.0
 43
0.0
 44
0.0
 45
0.0
 46
0.0
 47
0.0
 48
0.0
 49
0.0
140
0.0
141
0.0
142
1.0
143
1.0
 70
  1712
 72
     0
 73
     0
 74
     0
  7

 75
     0
 76
     0
 77
     5
 78
   300
147
1.0
148
0.0
149
0.0
100
AcDbLayout
  1
Model
 70
     1
 71
     0
 10
-4200.0
 20
-2970.0
 11
4200.0
 21
2970.0
 12
0.0
 22
0.0
 32
0.0
 14
-4200.0
 24
-2970.0
 34
0.0
 15
4200.0
 25
2970.0
 35
0.0
146
0.0
 13
0.0
 23
0.0
 33
0.0
 16
1.0
 26
0.0
 36
0.0
 17
0.0
 27
1.0
 37
0.0
 76
     0
330
1F
331
29
  0
MATERIAL
  5
3D
102
{ACAD_REACTORS
330
3B
102
}
330
3B
100
AcDbMaterial
  1
ByBlock
 72
     1
 94
      127
  0
MATERIAL
  5
3C
102
{ACAD_REACTORS
330
3B
102
}
330
3B
100
AcDbMaterial
  1
ByLayer
 72
     1
 94
      127
  0
MATERIAL
  5
3E
102
{ACAD_REACTORS
330
3B
102
}
330
3B
100
AcDbMaterial
  1
Global
 72
     1
 94
      127
  0
MLINESTYLE
  5
18
102
{ACAD_REACTORS
330
17
102
}
330
17
100
AcDbMlineStyle
  2
Standard
 70
     0
  3

 62
   256
 51
90.0
 52
90.0
 71
     2
 49
0.5
 62
   256
  6
BYLAYER
 49
-0.5
 62
   256
  6
BYLAYER
  0
ACDBPLACEHOLDER
  5
F
102
{ACAD_REACTORS
330
E
102
}
330
E
  0
VISUALSTYLE
  5
2F
102
{ACAD_REACTORS
330
2A
102
}
330
2A
100
AcDbVisualStyle
  2
2dWireframe
 70
     4
177
     2
291
     0
 71
     0
176
     1
 72
     2
176
     1
 73
     0
176
     1
 90
        0
176
     1
 40
-0.6
176
     1
 41
-30.0
176
     1
 62
     5
 63
     7
421
 16777215
176
     1
 74
     1
176
     1
 91
        4
176
     1
 64
     7
176
     1
 65
   257
176
     1
 75
     1
176
     1
175
     1
176
     1
 42
1.0
176
     1
 92
        0
176
     1
 66
   257
176
     1
 43
1.0
176
     1
 76
     1
176
     1
 77
     6
176
     1
 78
     2
176
     1
 67
     7
176
     1
 79
     5
176
     1
170
     0
176
     1
171
     0
176
     1
290
     0
176
     1
 93
        1
176
     1
 44
0.0
176
     1
173
     0
176
     1
  0
VISUALSTYLE
  5
31
102
{ACAD_REACTORS
330
2A
102
}
330
2A
100
AcDbVisualStyle
  2
3D Hidden
 70
     6
177
     2
291
     0
 71
     1
176
     1
 72
     2
176
     1
 73
     2
176
     1
 90
        0
176
     1
 40
-0.6
176
     1
 41
-30.0
176
     1
 62
     5
 63
     7
421
 16777215
176
     1
 74
     2
176
     1
 91
        2
176
     1
 64
     7
176
     1
 65
   257
176
     1
 75
     2
176
     1
175
     1
176
     1
 42
40.0
176
     1
 92
        0
176
     1
 66
   257
176
     1
 43
1.0
176
     1
 76
     1
176
     1
 77
     6
176
     1
 78
     2
176
     1
 67
     7
176
     1
 79
     3
176
     1
170
     0
176
     1
171
     0
176
     1
290
     0
176
     1
 93
        1
176
     1
 44
0.0
176
     1
173
     0
176
     1
  0
VISUALSTYLE
  5
30
102
{ACAD_REACTORS
330
2A
102
}
330
2A
100
AcDbVisualStyle
  2
3dWireframe
 70
     5
177
     2
291
     0
 71
     0
176
     1
 72
     2
176
     1
 73
     0
176
     1
 90
        0
176
     1
 40
-0.6
176
     1
 41
-30.0
176
     1
 62
     5
 63
     7
421
 16777215
176
     1
 74
     1
176
     1
 91
        4
176
     1
 64
     7
176
     1
 65
   257
176
     1
 75
     1
176
     1
175
     1
176
     1
 42
1.0
176
     1
 92
        0
176
     1
 66
   257
176
     1
 43
1.0
176
     1
 76
     1
176
     1
 77
     6
176
     1
 78
     2
176
     1
 67
     7
176
     1
 79
     5
176
     1
170
     0
176
     1
171
     0
176
     1
290
     0
176
     1
 93
        1
176
     1
 44
0.0
176
     1
173
     0
176
     1
  0
VISUALSTYLE
  5
32
102
{ACAD_REACTORS
330
2A
102
}
330
2A
100
AcDbVisualStyle
  2
Basic
 70
     7
177
     2
291
     1
 71
     1
176
     1
 72
     0
176
     1
 73
     1
176
     1
 90
        0
176
     1
 40
-0.6
176
     1
 41
-30.0
176
     1
 62
     5
 63
     7
421
 16777215
176
     1
 74
     0
176
     1
 91
        4
176
     1
 64
     7
176
     1
 65
   257
176
     1
 75
     1
176
     1
175
     1
176
     1
 42
1.0
176
     1
 92
        8
176
     1
 66
     7
176
     1
 43
1.0
176
     1
 76
     1
176
     1
 77
     6
176
     1
 78
     2
176
     1
 67
     7
176
     1
 79
     5
176
     1
170
     0
176
     1
171
     0
176
     1
290
     0
176
     1
 93
        1
176
     1
 44
0.0
176
     1
173
     0
176
     1
  0
VISUALSTYLE
  5
36
102
{ACAD_REACTORS
330
2A
102
}
330
2A
100
AcDbVisualStyle
  2
Brighten
 70
    12
177
     2
291
     1
 71
     2
176
     1
 72
     2
176
     1
 73
     0
176
     1
 90
        0
176
     1
 40
-0.6
176
     1
 41
-30.0
176
     1
 62
     5
 63
     7
421
 16777215
176
     1
 74
     1
176
     1
 91
        4
176
     1
 64
     7
176
     1
 65
   257
176
     1
 75
     1
176
     1
175
     1
176
     1
 42
1.0
176
     1
 92
        8
176
     1
 66
     7
176
     1
 43
1.0
176
     1
 76
     1
176
     1
 77
     6
176
     1
 78
     2
176
     1
 67
     7
176
     1
 79
     5
176
     1
170
     0
176
     1
171
     0
176
     1
290
     0
176
     1
 93
        1
176
     1
 44
50.0
176
     1
173
     0
176
     1
  0
VISUALSTYLE
  5
3A
102
{ACAD_REACTORS
330
2A
102
}
330
2A
100
AcDbVisualStyle
  2
ColorChange
 70
    16
177
     2
291
     1
 71
     2
176
     1
 72
     2
176
     1
 73
     3
176
     1
 90
        0
176
     1
 40
-0.6
176
     1
 41
-30.0
176
     1
 62
     5
 63
     8
421
  8421504
176
     1
 74
     1
176
     1
 91
        4
176
     1
 64
     7
176
     1
 65
   257
176
     1
 75
     1
176
     1
175
     1
176
     1
 42
1.0
176
     1
 92
        8
176
     1
 66
     8
424
  8421504
176
     1
 43
1.0
176
     1
 76
     1
176
     1
 77
     6
176
     1
 78
     2
176
     1
 67
     7
176
     1
 79
     5
176
     1
170
     0
176
     1
171
     0
176
     1
290
     0
176
     1
 93
        1
176
     1
 44
0.0
176
     1
173
     0
176
     1
  0
VISUALSTYLE
  5
34
102
{ACAD_REACTORS
330
2A
102
}
330
2A
100
AcDbVisualStyle
  2
Conceptual
 70
     9
177
     2
291
     0
 71
     3
176
     1
 72
     2
176
     1
 73
     0
176
     1
 90
        0
176
     1
 40
-0.6
176
     1
 41
-30.0
176
     1
 62
     5
 63
     7
421
 16777215
176
     1
 74
     2
176
     1
 91
        2
176
     1
 64
     7
176
     1
 65
   257
176
     1
 75
     1
176
     1
175
     1
176
     1
 42
40.0
176
     1
 92
        8
176
     1
 66
     7
176
     1
 43
1.0
176
     1
 76
     1
176
     1
 77
     6
176
     1
 78
     2
176
     1
 67
     7
176
     1
 79
     3
176
     1
170
     0
176
     1
171
     0
176
     1
290
     0
176
     1
 93
        1
176
     1
 44
0.0
176
     1
173
     0
176
     1
  0
VISUALSTYLE
  5
35
102
{ACAD_REACTORS
330
2A
102
}
330
2A
100
AcDbVisualStyle
  2
Dim
 70
    11
177
     2
291
     1
 71
     2
176
     1
 72
     2
176
     1
 73
     0
176
     1
 90
        0
176
     1
 40
-0.6
176
     1
 41
-30.0
176
     1
 62
     5
 63
     7
421
 16777215
176
     1
 74
     1
176
     1
 91
        4
176
     1
 64
     7
176
     1
 65
   257
176
     1
 75
     1
176
     1
175
     1
176
     1
 42
1.0
176
     1
 92
        8
176
     1
 66
     7
176
     1
 43
1.0
176
     1
 76
     1
176
     1
 77
     6
176
     1
 78
     2
176
     1
 67
     7
176
     1
 79
     5
176
     1
170
     0
176
     1
171
     0
176
     1
290
     0
176
     1
 93
        1
176
     1
 44
-50.0
176
     1
173
     0
176
     1
  0
VISUALSTYLE
  5
39
102
{ACAD_REACTORS
330
2A
102
}
330
2A
100
AcDbVisualStyle
  2
Facepattern
 70
    15
177
     2
291
     1
 71
     2
176
     1
 72
     2
176
     1
 73
     0
176
     1
 90
        0
176
     1
 40
-0.6
176
     1
 41
-30.0
176
     1
 62
     5
 63
     7
421
 16777215
176
     1
 74
     1
176
     1
 91
        4
176
     1
 64
     7
176
     1
 65
   257
176
     1
 75
     1
176
     1
175
     1
176
     1
 42
1.0
176
     1
 92
        8
176
     1
 66
     7
176
     1
 43
1.0
176
     1
 76
     1
176
     1
 77
     6
176
     1
 78
     2
176
     1
 67
     7
176
     1
 79
     5
176
     1
170
     0
176
     1
171
     0
176
     1
290
     0
176
     1
 93
        1
176
     1
 44
0.0
176
     1
173
     0
176
     1
  0
VISUALSTYLE
  5
2B
102
{ACAD_REACTORS
330
2A
102
}
330
2A
100
AcDbVisualStyle
  2
Flat
 70
     0
177
     2
291
     1
 71
     2
176
     1
 72
     1
176
     1
 73
     1
176
     1
 90
        2
176
     1
 40
-0.6
176
     1
 41
30.0
176
     1
 62
     5
 63
     7
421
 16777215
176
     1
 74
     0
176
     1
 91
        4
176
     1
 64
     7
176
     1
 65
   257
176
     1
 75
     1
176
     1
175
     1
176
     1
 42
1.0
176
     1
 92
        8
176
     1
 66
     7
176
     1
 43
1.0
176
     1
 76
     1
176
     1
 77
     6
176
     1
 78
     2
176
     1
 67
     7
176
     1
 79
     5
176
     1
170
     0
176
     1
171
     0
176
     1
290
     0
176
     1
 93
       13
176
     1
 44
0.0
176
     1
173
     0
176
     1
  0
VISUALSTYLE
  5
2C
102
{ACAD_REACTORS
330
2A
102
}
330
2A
100
AcDbVisualStyle
  2
FlatWithEdges
 70
     1
177
     2
291
     1
 71
     2
176
     1
 72
     1
176
     1
 73
     1
176
     1
 90
        2
176
     1
 40
-0.6
176
     1
 41
30.0
176
     1
 62
     5
 63
     7
421
 16777215
176
     1
 74
     1
176
     1
 91
        4
176
     1
 64
     7
176
     1
 65
   257
176
     1
 75
     1
176
     1
175
     1
176
     1
 42
1.0
176
     1
 92
        0
176
     1
 66
   257
176
     1
 43
1.0
176
     1
 76
     1
176
     1
 77
     6
176
     1
 78
     2
176
     1
 67
     7
176
     1
 79
     5
176
     1
170
     0
176
     1
171
     0
176
     1
290
     0
176
     1
 93
       13
176
     1
 44
0.0
176
     1
173
     0
176
     1
  0
VISUALSTYLE
  5
2D
102
{ACAD_REACTORS
330
2A
102
}
330
2A
100
AcDbVisualStyle
  2
Gouraud
 70
     2
177
     2
291
     1
 71
     2
176
     1
 72
     2
176
     1
 73
     1
176
     1
 90
        2
176
     1
 40
-0.6
176
     1
 41
30.0
176
     1
 62
     5
 63
     7
421
 16777215
176
     1
 74
     0
176
     1
 91
        4
176
     1
 64
     7
176
     1
 65
   257
176
     1
 75
     1
176
     1
175
     1
176
     1
 42
1.0
176
     1
 92
        0
176
     1
 66
     7
176
     1
 43
1.0
176
     1
 76
     1
176
     1
 77
     6
176
     1
 78
     2
176
     1
 67
     7
176
     1
 79
     5
176
     1
170
     0
176
     1
171
     0
176
     1
290
     0
176
     1
 93
       13
176
     1
 44
0.0
176
     1
173
     0
176
     1
  0
VISUALSTYLE
  5
2E
102
{ACAD_REACTORS
330
2A
102
}
330
2A
100
AcDbVisualStyle
  2
GouraudWithEdges
 70
     3
177
     2
291
     1
 71
     2
176
     1
 72
     2
176
     1
 73
     1
176
     1
 90
        2
176
     1
 40
-0.6
176
     1
 41
30.0
176
     1
 62
     5
 63
     7
421
 16777215
176
     1
 74
     1
176
     1
 91
        4
176
     1
 64
     7
176
     1
 65
   257
176
     1
 75
     1
176
     1
175
     1
176
     1
 42
1.0
176
     1
 92
        0
176
     1
 66
   257
176
     1
 43
1.0
176
     1
 76
     1
176
     1
 77
     6
176
     1
 78
     2
176
     1
 67
     7
176
     1
 79
     5
176
     1
170
     0
176
     1
171
     0
176
     1
290
     0
176
     1
 93
       13
176
     1
 44
0.0
176
     1
173
     0
176
     1
  0
VISUALSTYLE
  5
38
102
{ACAD_REACTORS
330
2A
102
}
330
2A
100
AcDbVisualStyle
  2
Linepattern
 70
    14
177
     2
291
     1
 71
     2
176
     1
 72
     2
176
     1
 73
     0
176
     1
 90
        0
176
     1
 40
-0.6
176
     1
 41
-30.0
176
     1
 62
     5
 63
     7
421
 16777215
176
     1
 74
     1
176
     1
 91
        4
176
     1
 64
     7
176
     1
 65
   257
176
     1
 75
     7
176
     1
175
     7
176
     1
 42
1.0
176
     1
 92
        8
176
     1
 66
     7
176
     1
 43
1.0
176
     1
 76
     1
176
     1
 77
     6
176
     1
 78
     2
176
     1
 67
     7
176
     1
 79
     5
176
     1
170
     0
176
     1
171
     0
176
     1
290
     0
176
     1
 93
        1
176
     1
 44
0.0
176
     1
173
     0
176
     1
  0
VISUALSTYLE
  5
33
102
{ACAD_REACTORS
330
2A
102
}
330
2A
100
AcDbVisualStyle
  2
Realistic
 70
     8
177
     2
291
     0
 71
     2
176
     1
 72
     2
176
     1
 73
     0
176
     1
 90
        0
176
     1
 40
-0.6
176
     1
 41
-30.0
176
     1
 62
     5
 63
     7
421
 16777215
176
     1
 74
     1
176
     1
 91
        0
176
     1
 64
     7
176
     1
 65
   257
176
     1
 75
     1
176
     1
175
     1
176
     1
 42
1.0
176
     1
 92
        8
176
     1
 66
     8
424
  7895160
176
     1
 43
1.0
176
     1
 76
     1
176
     1
 77
     6
176
     1
 78
     2
176
     1
 67
     7
176
     1
 79
     5
176
     1
170
     0
176
     1
171
     0
176
     1
290
     0
176
     1
 93
       13
176
     1
 44
0.0
176
     1
173
     0
176
     1
  0
VISUALSTYLE
  5
37
102
{ACAD_REACTORS
330
2A
102
}
330
2A
100
AcDbVisualStyle
  2
Thicken
 70
    13
177
     2
291
     1
 71
     2
176
     1
 72
     2
176
     1
 73
     0
176
     1
 90
        0
176
     1
 40
-0.6
176
     1
 41
-30.0
176
     1
 62
     5
 63
     7
421
 16777215
176
     1
 74
     1
176
     1
 91
        4
176
     1
 64
     7
176
     1
 65
   257
176
     1
 75
     1
176
     1
175
     1
176
     1
 42
1.0
176
     1
 92
       12
176
     1
 66
     7
176
     1
 43
1.0
176
     1
 76
     1
176
     1
 77
     6
176
     1
 78
     2
176
     1
 67
     7
176
     1
 79
     5
176
     1
170
     0
176
     1
171
     0
176
     1
290
     0
176
     1
 93
        1
176
     1
 44
0.0
176
     1
173
     0
176
     1
  0
ENDSEC
  0
EOF
