  0
SECTION
  2
HEADER
  9
$ACADVER
  1
AC1024
  9
$ACADMAINTVER
 70
     6
  9
$DWGCODEPAGE
  3
ANSI_932
  9
$INSBASE
 10
0.0
 20
0.0
 30
0.0
  9
$EXTMIN
 10
-4200.0
 20
-2970.0
 30
0.0
  9
$EXTMAX
 10
4200.0
 20
2970.0
 30
0.0
  9
$LIMMIN
 10
-4200.0
 20
-2970.0
  9
$LIMMAX
 10
4200.0
 20
2970.0
  9
$ORTHOMODE
 70
     0
  9
$REGENMODE
 70
     1
  9
$FILLMODE
 70
     1
  9
$QTEXTMODE
 70
     0
  9
$MIRRTEXT
 70
     1
  9
$LTSCALE
 40
20.0
  9
$ATTMODE
 70
     1
  9
$TEXTSIZE
 40
2.5
  9
$TRACEWID
 40
1.0
  9
$TEXTSTYLE
  7
Standard
  9
$CLAYER
  8
0
  9
$CELTYPE
  6
ByLayer
  9
$CECOLOR
 62
   256
  9
$CELTSCALE
 40
1.0
  9
$DISPSILH
 70
     0
  9
$DIMSCALE
 40
1.0
  9
$DIMASZ
 40
2.5
  9
$DIMEXO
 40
0.625
  9
$DIMDLI
 40
3.75
  9
$DIMRND
 40
0.0
  9
$DIMDLE
 40
0.0
  9
$DIMEXE
 40
1.25
  9
$DIMTP
 40
0.0
  9
$DIMTM
 40
0.0
  9
$DIMTXT
 40
2.5
  9
$DIMCEN
 40
2.5
  9
$DIMTSZ
 40
0.0
  9
$DIMTOL
 70
     0
  9
$DIMLIM
 70
     0
  9
$DIMTIH
 70
     0
  9
$DIMTOH
 70
     0
  9
$DIMSE1
 70
     0
  9
$DIMSE2
 70
     0
  9
$DIMTAD
 70
     1
  9
$DIMZIN
 70
     8
  9
$DIMBLK
  1

  9
$DIMASO
 70
     1
  9
$DIMSHO
 70
     1
  9
$DIMPOST
  1

  9
$DIMAPOST
  1

  9
$DIMALT
 70
     0
  9
$DIMALTD
 70
     3
  9
$DIMALTF
 40
0.03937007874016
  9
$DIMLFAC
 40
1.0
  9
$DIMTOFL
 70
     1
  9
$DIMTVP
 40
0.0
  9
$DIMTIX
 70
     0
  9
$DIMSOXD
 70
     0
  9
$DIMSAH
 70
     0
  9
$DIMBLK1
  1

  9
$DIMBLK2
  1

  9
$DIMSTYLE
  2
ISO-25
  9
$DIMCLRD
 70
     0
  9
$DIMCLRE
 70
     0
  9
$DIMCLRT
 70
     0
  9
$DIMTFAC
 40
1.0
  9
$DIMGAP
 40
0.625
  9
$DIMJUST
 70
     0
  9
$DIMSD1
 70
     0
  9
$DIMSD2
 70
     0
  9
$DIMTOLJ
 70
     0
  9
$DIMTZIN
 70
     8
  9
$DIMALTZ
 70
     0
  9
$DIMALTTZ
 70
     0
  9
$DIMUPT
 70
     0
  9
$DIMDEC
 70
     2
  9
$DIMTDEC
 70
     2
  9
$DIMALTU
 70
     2
  9
$DIMALTTD
 70
     3
  9
$DIMTXSTY
  7
Standard
  9
$DIMAUNIT
 70
     0
  9
$DIMADEC
 70
     0
  9
$DIMALTRND
 40
0.0
  9
$DIMAZIN
 70
     0
  9
$DIMDSEP
 70
    44
  9
$DIMATFIT
 70
     3
  9
$DIMFRAC
 70
     0
  9
$DIMLDRBLK
  1

  9
$DIMLUNIT
 70
     2
  9
$DIMLWD
 70
    -2
  9
$DIMLWE
 70
    -2
  9
$DIMTMOVE
 70
     0
  9
$DIMFXL
 40
1.0
  9
$DIMFXLON
 70
     0
  9
$DIMJOGANG
 40
0.7853981633974483
  9
$DIMTFILL
 70
     0
  9
$DIMTFILLCLR
 70
     0
  9
$DIMARCSYM
 70
     0
  9
$DIMLTYPE
  6

  9
$DIMLTEX1
  6

  9
$DIMLTEX2
  6

  9
$DIMTXTDIRECTION
 70
     0
  9
$LUNITS
 70
     2
  9
$LUPREC
 70
     4
  9
$SKETCHINC
 40
1.0
  9
$FILLETRAD
 40
10.0
  9
$AUNITS
 70
     0
  9
$AUPREC
 70
     0
  9
$MENU
  1
.
  9
$ELEVATION
 40
0.0
  9
$PELEVATION
 40
0.0
  9
$THICKNESS
 40
0.0
  9
$LIMCHECK
 70
     0
  9
$CHAMFERA
 40
10.0
  9
$CHAMFERB
 40
10.0
  9
$CHAMFERC
 40
20.0
  9
$CHAMFERD
 40
0.0
  9
$SKPOLY
 70
     0
  9
$TDCREATE
 40
2459411.611876609
  9
$TDUCREATE
 40
2459411.236876609
  9
$TDUPDATE
 40
2459411.61187662
  9
$TDUUPDATE
 40
2459411.23687662
  9
$TDINDWG
 40
0.0000000116
  9
$TDUSRTIMER
 40
0.0000000116
  9
$USRTIMER
 70
     1
  9
$ANGBASE
 50
0.0
  9
$ANGDIR
 70
     0
  9
$PDMODE
 70
     0
  9
$PDSIZE
 40
0.0
  9
$PLINEWID
 40
0.0
  9
$SPLFRAME
 70
     0
  9
$SPLINETYPE
 70
     6
  9
$SPLINESEGS
 70
     8
  9
$HANDSEED
  5
4A9
  9
$SURFTAB1
 70
     6
  9
$SURFTAB2
 70
     6
  9
$SURFTYPE
 70
     6
  9
$SURFU
 70
     6
  9
$SURFV
 70
     6
  9
$UCSBASE
  2

  9
$UCSNAME
  2

  9
$UCSORG
 10
0.0
 20
0.0
 30
0.0
  9
$UCSXDIR
 10
1.0
 20
0.0
 30
0.0
  9
$UCSYDIR
 10
0.0
 20
1.0
 30
0.0
  9
$UCSORTHOREF
  2

  9
$UCSORTHOVIEW
 70
     0
  9
$UCSORGTOP
 10
0.0
 20
0.0
 30
0.0
  9
$UCSORGBOTTOM
 10
0.0
 20
0.0
 30
0.0
  9
$UCSORGLEFT
 10
0.0
 20
0.0
 30
0.0
  9
$UCSORGRIGHT
 10
0.0
 20
0.0
 30
0.0
  9
$UCSORGFRONT
 10
0.0
 20
0.0
 30
0.0
  9
$UCSORGBACK
 10
0.0
 20
0.0
 30
0.0
  9
$PUCSBASE
  2

  9
$PUCSNAME
  2

  9
$PUCSORG
 10
0.0
 20
0.0
 30
0.0
  9
$PUCSXDIR
 10
1.0
 20
0.0
 30
0.0
  9
$PUCSYDIR
 10
0.0
 20
1.0
 30
0.0
  9
$PUCSORTHOREF
  2

  9
$PUCSORTHOVIEW
 70
     0
  9
$PUCSORGTOP
 10
0.0
 20
0.0
 30
0.0
  9
$PUCSORGBOTTOM
 10
0.0
 20
0.0
 30
0.0
  9
$PUCSORGLEFT
 10
0.0
 20
0.0
 30
0.0
  9
$PUCSORGRIGHT
 10
0.0
 20
0.0
 30
0.0
  9
$PUCSORGFRONT
 10
0.0
 20
0.0
 30
0.0
  9
$PUCSORGBACK
 10
0.0
 20
0.0
 30
0.0
  9
$USERI1
 70
     0
  9
$USERI2
 70
     0
  9
$USERI3
 70
     0
  9
$USERI4
 70
     0
  9
$USERI5
 70
     0
  9
$USERR1
 40
0.0
  9
$USERR2
 40
0.0
  9
$USERR3
 40
0.0
  9
$USERR4
 40
0.0
  9
$USERR5
 40
0.0
  9
$WORLDVIEW
 70
     1
  9
$SHADEDGE
 70
     3
  9
$SHADEDIF
 70
    70
  9
$TILEMODE
 70
     1
  9
$MAXACTVP
 70
    64
  9
$PINSBASE
 10
0.0
 20
0.0
 30
0.0
  9
$PLIMCHECK
 70
     0
  9
$PEXTMIN
 10
1.000000000000000E+20
 20
1.000000000000000E+20
 30
1.000000000000000E+20
  9
$PEXTMAX
 10
-1.000000000000000E+20
 20
-1.000000000000000E+20
 30
-1.000000000000000E+20
  9
$PLIMMIN
 10
0.0
 20
0.0
  9
$PLIMMAX
 10
420.0
 20
297.0
  9
$UNITMODE
 70
     0
  9
$VISRETAIN
 70
     1
  9
$PLINEGEN
 70
     0
  9
$PSLTSCALE
 70
     1
  9
$TREEDEPTH
 70
  3020
  9
$CMLSTYLE
  2
Standard
  9
$CMLJUST
 70
     0
  9
$CMLSCALE
 40
20.0
  9
$PROXYGRAPHICS
 70
     1
  9
$MEASUREMENT
 70
     1
  9
$CELWEIGHT
370
    -1
  9
$ENDCAPS
280
     0
  9
$JOINSTYLE
280
     0
  9
$LWDISPLAY
290
     0
  9
$INSUNITS
 70
     4
  9
$HYPERLINKBASE
  1

  9
$STYLESHEET
  1

  9
$XEDIT
290
     1
  9
$CEPSNTYPE
380
     0
  9
$PSTYLEMODE
290
     1
  9
$FINGERPRINTGUID
  2
{7351DF4F-64FD-458D-98FE-C622F30E849C}
  9
$VERSIONGUID
  2
{FAEB1C32-E019-11D5-929B-00C0DF256EC4}
  9
$EXTNAMES
290
     1
  9
$PSVPSCALE
 40
0.0
  9
$OLESTARTUP
290
     0
  9
$SORTENTS
280
   127
  9
$INDEXCTL
280
     0
  9
$HIDETEXT
280
     1
  9
$XCLIPFRAME
280
     2
  9
$HALOGAP
280
     0
  9
$OBSCOLOR
 70
   257
  9
$OBSLTYPE
280
     0
  9
$INTERSECTIONDISPLAY
280
     0
  9
$INTERSECTIONCOLOR
 70
   257
  9
$DIMASSOC
280
     2
  9
$PROJECTNAME
  1

  9
$CAMERADISPLAY
290
     0
  9
$LENSLENGTH
 40
50.0
  9
$CAMERAHEIGHT
 40
0.0
  9
$STEPSPERSEC
 40
2.0
  9
$STEPSIZE
 40
6.0
  9
$3DDWFPREC
 40
2.0
  9
$PSOLWIDTH
 40
5.0
  9
$PSOLHEIGHT
 40
80.0
  9
$LOFTANG1
 40
1.570796326794897
  9
$LOFTANG2
 40
1.570796326794897
  9
$LOFTMAG1
 40
0.0
  9
$LOFTMAG2
 40
0.0
  9
$LOFTPARAM
 70
     7
  9
$LOFTNORMALS
280
     1
  9
$LATITUDE
 40
37.795
  9
$LONGITUDE
 40
-122.394
  9
$NORTHDIRECTION
 40
0.0
  9
$TIMEZONE
 70
 -8000
  9
$LIGHTGLYPHDISPLAY
280
     1
  9
$TILEMODELIGHTSYNCH
280
     1
  9
$SOLIDHIST
280
     1
  9
$SHOWHIST
280
     1
  9
$DWFFRAME
280
     2
  9
$DGNFRAME
280
     2
  9
$REALWORLDSCALE
290
     1
  9
$INTERFERECOLOR
 62
   256
  9
$CSHADOW
280
     0
  9
$SHADOWPLANELOCATION
 40
0.0
  0
ENDSEC
  0
SECTION
  2
CLASSES
  0
CLASS
  1
ACDBDICTIONARYWDFLT
  2
AcDbDictionaryWithDefault
  3
ObjectDBX Classes
 90
        0
 91
        4
280
     0
281
     0
  0
CLASS
  1
VISUALSTYLE
  2
AcDbVisualStyle
  3
ObjectDBX Classes
 90
     4095
 91
        4
280
     0
281
     0
  0
CLASS
  1
MATERIAL
  2
AcDbMaterial
  3
ObjectDBX Classes
 90
     1153
 91
        4
280
     0
281
     0
  0
ENDSEC
  0
SECTION
  2
TABLES
  0
TABLE
  2
VPORT
  5
8
330
0
100
AcDbSymbolTable
 70
     1
  0
VPORT
  5
29
330
8
100
AcDbSymbolTableRecord
100
AcDbViewportTableRecord
  2
*Active
 70
     0
 10
0.0
 20
0.0
 11
1.0
 21
1.0
 12
0.0
 22
0.0
 13
0.0
 23
0.0
 14
10.0
 24
10.0
 15
10.0
 25
10.0
 16
0.0
 26
0.0
 36
1.0
 17
0.0
 27
0.0
 37
0.0
 40
6534.000000000001
 41
1.414141414141414
 42
50.0
 43
0.0
 44
0.0
 50
0.0
 51
0.0
 71
     0
 72
 10000
 73
     1
 74
     3
 75
     0
 76
     0
 77
     0
 78
     0
281
     0
 65
     1
110
0.0
120
0.0
130
0.0
111
1.0
121
0.0
131
0.0
112
0.0
122
1.0
132
0.0
 79
     0
146
0.0
 60
     3
 61
     5
292
     1
282
     1
141
0.0
142
0.0
 63
   250
  0
ENDTAB
  0
TABLE
  2
LTYPE
  5
5
330
0
100
AcDbSymbolTable
 70
     5
  0
LTYPE
  5
14
330
5
100
AcDbSymbolTableRecord
100
AcDbLinetypeTableRecord
  2
ByBlock
 70
     0
  3

 72
    65
 73
     0
 40
0.0
  0
LTYPE
  5
15
330
5
100
AcDbSymbolTableRecord
100
AcDbLinetypeTableRecord
  2
ByLayer
 70
     0
  3

 72
    65
 73
     0
 40
0.0
  0
LTYPE
  5
16
330
5
100
AcDbSymbolTableRecord
100
AcDbLinetypeTableRecord
  2
Continuous
 70
     0
  3
Solid line
 72
    65
 73
     0
 40
0.0
  0
LTYPE
  5
3F
330
5
100
AcDbSymbolTableRecord
100
AcDbLinetypeTableRecord
  2
JWW_HOJO
 70
     0
  3
  -   -   -   -   -   -   -   - 
 72
    65
 73
     2
 40
1.693333333333333
 49
-1.27
 74
     0
 49
0.4233333333333333
 74
     0
  0
LTYPE
  5
40
330
5
100
AcDbSymbolTableRecord
100
AcDbLinetypeTableRecord
  2
JWW_CENTER1
 70
     0
  3
-----  --  ----------  --  -----
 72
    65
 73
     4
 40
3.386666666666667
 49
2.116666666666667
 74
     0
 49
-0.4233333333333333
 74
     0
 49
0.4233333333333333
 74
     0
 49
-0.4233333333333333
 74
     0
  0
LTYPE
  5
41
330
5
100
AcDbSymbolTableRecord
100
AcDbLinetypeTableRecord
  2
JWW_DASHED1
 70
     0
  3
-  --  --  --  --  --  --  --  -
 72
    65
 73
     2
 40
0.3386666666666667
 49
0.1693333333333333
 74
     0
 49
-0.1693333333333333
 74
     0
  0
LTYPE
  5
42
330
5
100
AcDbSymbolTableRecord
100
AcDbLinetypeTableRecord
  2
JWW_DASHED2
 70
     0
  3
--    ----    ----    ----    --
 72
    65
 73
     2
 40
1.693333333333333
 49
0.8466666666666667
 74
     0
 49
-0.8466666666666667
 74
     0
  0
ENDTAB
  0
TABLE
  2
LAYER
  5
2
330
0
100
AcDbSymbolTable
 70
    16
  0
LAYER
  5
10
330
2
100
AcDbSymbolTableRecord
100
AcDbLayerTableRecord
  2
0
 70
     0
 62
     7
  6
Continuous
370
    -3
390
F
347
3E
  0
LAYER
  5
43
330
2
100
AcDbSymbolTableRecord
100
AcDbLayerTableRecord
  2
F-0_補助線
 70
     0
 62
     7
  6
Continuous
370
    -3
390
F
347
3E
  0
LAYER
  5
44
330
2
100
AcDbSymbolTableRecord
100
AcDbLayerTableRecord
  2
F-1_枠
 70
     0
 62
     7
  6
Continuous
370
    -3
390
F
347
3E
  0
LAYER
  5
45
330
2
100
AcDbSymbolTableRecord
100
AcDbLayerTableRecord
  2
F-A_文字
 70
     0
 62
     7
  6
Continuous
370
    -3
390
F
347
3E
  0
LAYER
  5
46
330
2
100
AcDbSymbolTableRecord
100
AcDbLayerTableRecord
  2
0-A_文字
 70
     0
 62
     7
  6
Continuous
370
    -3
390
F
347
3E
  0
LAYER
  5
47
330
2
100
AcDbSymbolTableRecord
100
AcDbLayerTableRecord
  2
0-B_寸法
 70
     0
 62
     7
  6
Continuous
370
    -3
390
F
347
3E
  0
LAYER
  5
48
330
2
100
AcDbSymbolTableRecord
100
AcDbLayerTableRecord
  2
0-1_本体
 70
     0
 62
     7
  6
Continuous
370
    -3
390
F
347
3E
  0
LAYER
  5
49
330
2
100
AcDbSymbolTableRecord
100
AcDbLayerTableRecord
  2
0-0_補助線
 70
     0
 62
     7
  6
Continuous
370
    -3
390
F
347
3E
  0
LAYER
  5
4A
330
2
100
AcDbSymbolTableRecord
100
AcDbLayerTableRecord
  2
0-2_扉
 70
     0
 62
     7
  6
Continuous
370
    -3
390
F
347
3E
  0
LAYER
  5
4B
330
2
100
AcDbSymbolTableRecord
100
AcDbLayerTableRecord
  2
0-3_扉仕上
 70
     0
 62
     7
  6
Continuous
370
    -3
390
F
347
3E
  0
LAYER
  5
4C
330
2
100
AcDbSymbolTableRecord
100
AcDbLayerTableRecord
  2
0-9__
 70
     0
 62
     7
  6
Continuous
370
    -3
390
F
347
3E
  0
LAYER
  5
4D
330
2
100
AcDbSymbolTableRecord
100
AcDbLayerTableRecord
  2
0-6_桟木
 70
     0
 62
     7
  6
Continuous
370
    -3
390
F
347
3E
  0
LAYER
  5
4E
330
2
100
AcDbSymbolTableRecord
100
AcDbLayerTableRecord
  2
0-5_ダボ
 70
     0
 62
     7
  6
Continuous
370
    -3
390
F
347
3E
  0
LAYER
  5
4F
330
2
100
AcDbSymbolTableRecord
100
AcDbLayerTableRecord
  2
0-4_棚
 70
     0
 62
     7
  6
Continuous
370
    -3
390
F
347
3E
  0
LAYER
  5
50
330
2
100
AcDbSymbolTableRecord
100
AcDbLayerTableRecord
  2
0-C_ハッチ
 70
     0
 62
     7
  6
Continuous
370
    -3
390
F
347
3E
  0
LAYER
  5
51
330
2
100
AcDbSymbolTableRecord
100
AcDbLayerTableRecord
  2
0-7__
 70
     0
 62
     7
  6
Continuous
370
    -3
390
F
347
3E
  0
ENDTAB
  0
TABLE
  2
STYLE
  5
3
330
0
100
AcDbSymbolTable
 70
     1
  0
STYLE
  5
11
330
3
100
AcDbSymbolTableRecord
100
AcDbTextStyleTableRecord
  2
Standard
 70
     0
 40
0.0
 41
1.0
 50
0.0
 71
     0
 42
2.5
  3
txt
  4

  0
ENDTAB
  0
TABLE
  2
VIEW
  5
6
330
0
100
AcDbSymbolTable
 70
     0
  0
ENDTAB
  0
TABLE
  2
UCS
  5
7
330
0
100
AcDbSymbolTable
 70
     0
  0
ENDTAB
  0
TABLE
  2
APPID
  5
9
330
0
100
AcDbSymbolTable
 70
     1
  0
APPID
  5
12
330
9
100
AcDbSymbolTableRecord
100
AcDbRegAppTableRecord
  2
ACAD
 70
     0
  0
ENDTAB
  0
TABLE
  2
DIMSTYLE
  5
A
330
0
100
AcDbSymbolTable
 70
     1
100
AcDbDimStyleTable
  0
DIMSTYLE
105
27
330
A
100
AcDbSymbolTableRecord
100
AcDbDimStyleTableRecord
  2
ISO-25
 70
     0
 41
2.5
 42
0.625
 43
3.75
 44
1.25
 73
     0
 74
     0
 77
     1
 78
     8
140
2.5
141
2.5
143
0.03937007874016
147
0.625
171
     3
172
     1
178
     0
271
     2
272
     2
274
     3
278
    44
283
     0
284
     8
340
11
  0
ENDTAB
  0
TABLE
  2
BLOCK_RECORD
  5
1
330
0
100
AcDbSymbolTable
 70
     1
  0
BLOCK_RECORD
  5
1F
330
1
100
AcDbSymbolTableRecord
100
AcDbBlockTableRecord
  2
*Model_Space
340
22
 70
     0
280
     1
281
     0
  0
BLOCK_RECORD
  5
1B
330
1
100
AcDbSymbolTableRecord
100
AcDbBlockTableRecord
  2
*Paper_Space
340
1E
 70
     0
280
     1
281
     0
  0
BLOCK_RECORD
  5
23
330
1
100
AcDbSymbolTableRecord
100
AcDbBlockTableRecord
  2
*Paper_Space0
340
26
 70
     0
280
     1
281
     0
  0
ENDTAB
  0
ENDSEC
  0
SECTION
  2
BLOCKS
  0
BLOCK
  5
20
330
1F
100
AcDbEntity
  8
0
100
AcDbBlockBegin
  2
*Model_Space
 70
     0
 10
0.0
 20
0.0
 30
0.0
  3
*Model_Space
  1

  0
ENDBLK
  5
21
330
1F
100
AcDbEntity
  8
0
100
AcDbBlockEnd
  0
BLOCK
  5
1C
330
1B
100
AcDbEntity
 67
     1
  8
0
100
AcDbBlockBegin
  2
*Paper_Space
 70
     0
 10
0.0
 20
0.0
 30
0.0
  3
*Paper_Space
  1

  0
ENDBLK
  5
1D
330
1B
100
AcDbEntity
 67
     1
  8
0
100
AcDbBlockEnd
  0
BLOCK
  5
24
330
23
100
AcDbEntity
  8
0
100
AcDbBlockBegin
  2
*Paper_Space0
 70
     0
 10
0.0
 20
0.0
 30
0.0
  3
*Paper_Space0
  1

  0
ENDBLK
  5
25
330
23
100
AcDbEntity
  8
0
100
AcDbBlockEnd
  0
ENDSEC
  0
SECTION
  2
ENTITIES
  0
LINE
  5
52
330
1F
100
AcDbEntity
  8
F-0_補助線
  6
JWW_HOJO
 62
   120
370
     5
100
AcDbLine
 10
-4093.387555624515
 20
-2970.0
 30
0.0
 11
-4093.387555624515
 21
2949.99973606419
 31
0.0
  0
LINE
  5
53
330
1F
100
AcDbEntity
  8
F-0_補助線
  6
JWW_HOJO
 62
   120
370
     5
100
AcDbLine
 10
-4093.387555624515
 20
2949.99973606419
 30
0.0
 11
4106.611784535958
 21
2949.99973606419
 31
0.0
  0
LINE
  5
54
330
1F
100
AcDbEntity
  8
F-0_補助線
  6
JWW_HOJO
 62
   120
370
     5
100
AcDbLine
 10
4106.611784535958
 20
2949.99973606419
 30
0.0
 11
4106.611784535958
 21
-2970.0
 31
0.0
  0
LINE
  5
55
330
1F
100
AcDbEntity
  8
F-0_補助線
  6
JWW_HOJO
 62
   120
370
     5
100
AcDbLine
 10
4106.611784535958
 20
-2970.0
 30
0.0
 11
-4093.387555624515
 21
-2970.0
 31
0.0
  0
LINE
  5
56
330
1F
100
AcDbEntity
  8
F-0_補助線
  6
JWW_HOJO
 62
     7
370
     9
100
AcDbLine
 10
673.2788361090155
 20
-2530.000002061998
 30
0.0
 11
673.2788361090155
 21
-2796.666672165329
 31
0.0
  0
LINE
  5
57
330
1F
100
AcDbEntity
  8
F-0_補助線
  6
JWW_HOJO
 62
     7
370
     9
100
AcDbLine
 10
339.945722722191
 20
-2530.000002061998
 30
0.0
 11
339.945722722191
 21
-2796.666672165329
 31
0.0
  0
LINE
  5
58
330
1F
100
AcDbEntity
  8
F-1_枠
  6
Continuous
 62
   200
370
    20
100
AcDbLine
 10
3906.611619576076
 20
2783.333179370777
 30
0.0
 11
3906.611619576076
 21
-2803.333443306588
 31
0.0
  0
LINE
  5
59
330
1F
100
AcDbEntity
  8
F-1_枠
  6
Continuous
 62
   200
370
    20
100
AcDbLine
 10
-3893.387545314522
 20
2783.333179370777
 30
0.0
 11
-3893.387545314522
 21
-2803.333443306588
 31
0.0
  0
LINE
  5
5A
330
1F
100
AcDbEntity
  8
F-1_枠
  6
Continuous
 62
   200
370
    20
100
AcDbLine
 10
3906.611619576076
 20
-2803.333335051665
 30
0.0
 11
-3893.387390664634
 21
-2803.333335051665
 31
0.0
  0
LINE
  5
5B
330
1F
100
AcDbEntity
  8
F-1_枠
  6
Continuous
 62
   200
370
    20
100
AcDbLine
 10
-3886.720882428186
 20
2783.333179370777
 30
0.0
 11
-3886.720882428186
 21
-2803.333443306588
 31
0.0
  0
LINE
  5
5C
330
1F
100
AcDbEntity
  8
F-1_枠
  6
Continuous
 62
   200
370
    20
100
AcDbLine
 10
-3890.054206138861
 20
2783.333179370777
 30
0.0
 11
-3890.054206138861
 21
-2803.333443306588
 31
0.0
  0
LINE
  5
5D
330
1F
100
AcDbEntity
  8
F-1_枠
  6
Continuous
 62
   200
370
    20
100
AcDbLine
 10
3903.278110285536
 20
2783.333179370777
 30
0.0
 11
3903.278110285536
 21
-2803.333443306588
 31
0.0
  0
LINE
  5
5E
330
1F
100
AcDbEntity
  8
F-1_枠
  6
Continuous
 62
   200
370
    20
100
AcDbLine
 10
3899.945095874641
 20
2783.333179370777
 30
0.0
 11
3899.945095874641
 21
-2803.333443306588
 31
0.0
  0
LINE
  5
5F
330
1F
100
AcDbEntity
  8
F-1_枠
  6
Continuous
 62
   200
370
    20
100
AcDbLine
 10
3906.611619576076
 20
-2799.999995876003
 30
0.0
 11
-3893.387390664634
 21
-2799.999995876003
 31
0.0
  0
LINE
  5
60
330
1F
100
AcDbEntity
  8
F-1_枠
  6
Continuous
 62
   200
370
    20
100
AcDbLine
 10
3906.611619576076
 20
-2796.666672165329
 30
0.0
 11
-3893.387390664634
 21
-2796.666672165329
 31
0.0
  0
LINE
  5
61
330
1F
100
AcDbEntity
  8
F-1_枠
  6
Continuous
 62
   200
370
    20
100
AcDbLine
 10
2899.945260834522
 20
-2530.000002061998
 30
0.0
 11
2899.945260834522
 21
-2796.666672165329
 31
0.0
  0
LINE
  5
62
330
1F
100
AcDbEntity
  8
F-1_枠
  6
Continuous
 62
   200
370
    20
100
AcDbLine
 10
1899.944930914759
 20
-2530.000002061998
 30
0.0
 11
1899.944930914759
 21
-2796.666672165329
 31
0.0
  0
LINE
  5
63
330
1F
100
AcDbEntity
  8
F-1_枠
  6
Continuous
 62
   200
370
    20
100
AcDbLine
 10
6.612361895544154
 20
-2530.000002061998
 30
0.0
 11
6.612361895544154
 21
-2796.666672165329
 31
0.0
  0
LINE
  5
64
330
1F
100
AcDbEntity
  8
F-1_枠
  6
Continuous
 62
   200
370
    20
100
AcDbLine
 10
6.612361895544154
 20
-2663.333290718697
 30
0.0
 11
3899.945095874641
 21
-2663.336909526103
 31
0.0
  0
LINE
  5
65
330
1F
100
AcDbEntity
  8
F-1_枠
  6
Continuous
 62
   200
370
    20
100
AcDbLine
 10
-3893.387390664634
 20
2783.333179370777
 30
0.0
 11
3906.611619576076
 21
2783.333179370777
 31
0.0
  0
LINE
  5
66
330
1F
100
AcDbEntity
  8
F-1_枠
  6
Continuous
 62
   200
370
    20
100
AcDbLine
 10
-3893.387390664634
 20
2776.666655669342
 30
0.0
 11
3906.611619576076
 21
2776.666655669342
 31
0.0
  0
LINE
  5
67
330
1F
100
AcDbEntity
  8
F-1_枠
  6
Continuous
 62
   200
370
    20
100
AcDbLine
 10
-3893.387390664634
 20
2779.999670080237
 30
0.0
 11
3906.611619576076
 21
2779.999670080237
 31
0.0
  0
LINE
  5
68
330
1F
100
AcDbEntity
  8
F-0_補助線
  6
JWW_HOJO
 62
     7
370
     9
100
AcDbLine
 10
-3886.720882428186
 20
-2663.333290718927
 30
0.0
 11
6.612361895544154
 21
-2663.333290718927
 31
0.0
  0
LINE
  5
69
330
1F
100
AcDbEntity
  8
F-0_補助線
  6
JWW_HOJO
 62
     7
370
     9
100
AcDbLine
 10
-3886.720882428186
 20
-2603.333290718927
 30
0.0
 11
6.612361895544154
 21
-2603.333290718927
 31
0.0
  0
LINE
  5
6A
330
1F
100
AcDbEntity
  8
F-0_補助線
  6
JWW_HOJO
 62
     7
370
     9
100
AcDbLine
 10
-3886.720882428186
 20
-2723.333290718927
 30
0.0
 11
6.612361895544154
 21
-2723.333290718927
 31
0.0
  0
LINE
  5
6B
330
1F
100
AcDbEntity
  8
F-0_補助線
  6
JWW_HOJO
 62
     7
370
     9
100
AcDbLine
 10
6.612272045125565
 20
-2759.999826518655
 30
0.0
 11
3899.945006024222
 21
-2760.003445326061
 31
0.0
  0
LINE
  5
6C
330
1F
100
AcDbEntity
  8
F-0_補助線
  6
JWW_HOJO
 62
     7
370
     9
100
AcDbLine
 10
6.612327814426635
 20
-2699.999826518681
 30
0.0
 11
3899.945061793523
 21
-2700.003445326087
 31
0.0
  0
LINE
  5
6D
330
1F
100
AcDbEntity
  8
F-0_補助線
  6
JWW_HOJO
 62
     7
370
     9
100
AcDbLine
 10
6.612395976906669
 20
-2626.666491478713
 30
0.0
 11
3899.945129956002
 21
-2626.670110286119
 31
0.0
  0
LINE
  5
6E
330
1F
100
AcDbEntity
  8
F-0_補助線
  6
JWW_HOJO
 62
     7
370
     9
100
AcDbLine
 10
6.612451746207739
 20
-2566.66649147874
 30
0.0
 11
3899.945185725303
 21
-2566.670110286145
 31
0.0
  0
LINE
  5
6F
330
1F
100
AcDbEntity
  8
F-0_補助線
  6
JWW_HOJO
 62
     7
370
     9
100
AcDbLine
 10
1959.944930914759
 20
-2530.000002061998
 30
0.0
 11
1959.944930914759
 21
-2796.666672165329
 31
0.0
  0
LINE
  5
70
330
1F
100
AcDbEntity
  8
F-0_補助線
  6
JWW_HOJO
 62
     7
370
     9
100
AcDbLine
 10
66.61236189554415
 20
-2530.000002061998
 30
0.0
 11
66.61236189554415
 21
-2796.666672165329
 31
0.0
  0
LINE
  5
71
330
1F
100
AcDbEntity
  8
F-0_補助線
  6
JWW_HOJO
 62
     7
370
     9
100
AcDbLine
 10
2959.945260834522
 20
-2530.000002061998
 30
0.0
 11
2959.945260834522
 21
-2796.666672165329
 31
0.0
  0
LINE
  5
72
330
1F
100
AcDbEntity
  8
F-1_枠
  6
Continuous
 62
   200
370
    20
100
AcDbLine
 10
3906.611619576076
 20
-2530.000002061998
 30
0.0
 11
-3893.387390664634
 21
-2530.000002061998
 31
0.0
  0
LINE
  5
73
330
1F
100
AcDbEntity
  8
F-1_枠
  6
Continuous
 62
   200
370
    20
100
AcDbLine
 10
3906.611619576076
 20
-2526.666678351325
 30
0.0
 11
-3893.387390664634
 21
-2526.666678351325
 31
0.0
  0
LINE
  5
74
330
1F
100
AcDbEntity
  8
F-0_補助線
  6
JWW_HOJO
 62
     7
370
     9
100
AcDbLine
 10
-3391.752473459741
 20
-2530.000002061999
 30
0.0
 11
-3391.752473459741
 21
-2803.333443306588
 31
0.0
  0
LINE
  5
75
330
1F
100
AcDbEntity
  8
F-0_補助線
  6
JWW_HOJO
 62
     7
370
     9
100
AcDbLine
 10
-33.38763810445585
 20
-2530.000002061998
 30
0.0
 11
-33.38763810445585
 21
-2796.666672165329
 31
0.0
  0
MTEXT
  5
76
330
1F
100
AcDbEntity
  8
F-A_文字
  6
Continuous
 62
     7
370
     0
100
AcDbMText
 10
66.61236189554415
 20
-2591.426547247957
 30
0.0
 40
30.48
 41
120.0
 46
0.0
 71
     7
 72
     1
  1
{\fＭＳ ゴシック|b0|i0|c128|p49;図面名}
 73
     1
 44
1.0
  0
MTEXT
  5
77
330
1F
100
AcDbEntity
  8
F-A_文字
  6
Continuous
 62
     7
370
     0
100
AcDbMText
 10
1959.944930914759
 20
-2591.428307078516
 30
0.0
 40
30.48
 41
200.0
 46
0.0
 71
     7
 72
     1
  1
{\fＭＳ ゴシック|b0|i0|c128|p49;ＳＣＡＬＥ}
 73
     1
 44
1.0
  0
MTEXT
  5
78
330
1F
100
AcDbEntity
  8
F-A_文字
  6
Continuous
 62
     7
370
     0
100
AcDbMText
 10
2959.945260834522
 20
-2591.429236567169
 30
0.0
 40
30.48
 41
160.0
 46
0.0
 71
     7
 72
     1
  1
{\fＭＳ ゴシック|b0|i0|c128|p49;ＤＡＴＥ}
 73
     1
 44
1.0
  0
MTEXT
  5
79
330
1F
100
AcDbEntity
  8
F-A_文字
  6
Continuous
 62
     7
370
     0
100
AcDbMText
 10
893.5575789779642
 20
-2630.949274399892
 30
0.0
 40
51.435
 41
270.0
 46
0.0
 71
     7
 72
     1
  1
{\fＭＳ ゴシック|b0|i0|c128|p49;玄関収納}
 73
     1
 44
1.0
  0
MTEXT
  5
7A
330
1F
100
AcDbEntity
  8
F-A_文字
  6
Continuous
 62
     7
370
     0
100
AcDbMText
 10
2362.44509587464
 20
-2630.951243938205
 30
0.0
 40
51.435
 41
135.0
 46
0.0
 71
     7
 72
     1
  1
{\fＭＳ ゴシック|b0|i0|c128|p49;1/20}
 73
     1
 44
1.0
  0
MTEXT
  5
7B
330
1F
100
AcDbEntity
  8
F-A_文字
  6
Continuous
 62
     7
370
     0
100
AcDbMText
 10
1959.944930914759
 20
-2724.761642118573
 30
0.0
 40
30.48
 41
160.0
 46
0.0
 71
     7
 72
     1
  1
{\fＭＳ ゴシック|b0|i0|c128|p49;ＦＩＬＥ}
 73
     1
 44
1.0
  0
MTEXT
  5
7C
330
1F
100
AcDbEntity
  8
F-A_文字
  6
Continuous
 62
     7
370
     0
100
AcDbMText
 10
2959.945260834522
 20
-2724.762571607227
 30
0.0
 40
30.48
 41
120.0
 46
0.0
 71
     7
 72
     1
  1
{\fＭＳ ゴシック|b0|i0|c128|p49;ＮＯ．}
 73
     1
 44
1.0
  0
MTEXT
  5
7D
330
1F
100
AcDbEntity
  8
F-A_文字
  6
Continuous
 62
     7
370
     0
100
AcDbMText
 10
929.9449309147587
 20
-2730.760446177432
 30
0.0
 40
30.48
 41
80.0
 46
0.0
 71
     7
 72
     1
  1
{\fＭＳ ゴシック|b0|i0|c128|p49;株式}
 73
     1
 44
1.0
  0
MTEXT
  5
7E
330
1F
100
AcDbEntity
  8
F-A_文字
  6
Continuous
 62
     7
370
     9
100
AcDbMText
 10
3397.445133429372
 20
-2765.238008466657
 30
0.0
 40
49.53
 41
65.0
 46
0.0
 71
     7
 72
     1
  1
{\fＭＳ ゴシック|b0|i0|c128|p49;01}
 73
     1
 44
1.0
  0
MTEXT
  5
7F
330
1F
100
AcDbEntity
  8
F-A_文字
  6
Continuous
 62
     7
370
     0
100
AcDbMText
 10
1069.944930914759
 20
-2776.187836349286
 30
0.0
 40
67.62750000000003
 41
710.0000000000002
 46
0.0
 71
     7
 72
     1
  1
{\fＭＳ ゴシック|b0|i0|c128|p49;ウッドワン・・・}
 73
     1
 44
1.0
  0
MTEXT
  5
80
330
1F
100
AcDbEntity
  8
F-A_文字
  6
Continuous
 62
     7
370
     0
100
AcDbMText
 10
929.9449309147587
 20
-2778.760446177458
 30
0.0
 40
30.48
 41
80.0
 46
0.0
 71
     7
 72
     1
  1
{\fＭＳ ゴシック|b0|i0|c128|p49;会社}
 73
     1
 44
1.0
  0
MTEXT
  5
81
330
1F
100
AcDbEntity
  8
F-A_文字
  6
Continuous
 62
     7
370
     0
100
AcDbMText
 10
3845.547985115293
 20
-2876.560946013945
 30
0.0
 40
45.72
 41
60.0
 46
0.0
 71
     7
 72
     1
  1
{\fＭＳ ゴシック|b0|i0|c128|p49;）}
 73
     1
 44
1.0
  0
MTEXT
  5
82
330
1F
100
AcDbEntity
  8
F-A_文字
  6
Continuous
 62
     7
370
     0
100
AcDbMText
 10
3566.743078270199
 20
-2877.490295913237
 30
0.0
 40
45.72
 41
30.0
 46
0.0
 71
     7
 72
     1
  1
{\fＭＳ ゴシック|b0|i0|c128|p49;,}
 73
     1
 44
1.0
  0
MTEXT
  5
83
330
1F
100
AcDbEntity
  8
F-A_文字
  6
Continuous
 62
     7
370
     0
100
AcDbMText
 10
3389.2372856524
 20
-2876.514644858855
 30
0.0
 40
49.53
 41
65.0
 46
0.0
 71
     7
 72
     1
  1
{\fＭＳ ゴシック|b0|i0|c128|p49;$y}
 73
     1
 44
1.0
  0
MTEXT
  5
84
330
1F
100
AcDbEntity
  8
F-A_文字
  6
Continuous
 62
     7
370
     0
100
AcDbMText
 10
3492.395099678281
 20
-2876.514644858855
 30
0.0
 40
49.53
 41
65.0
 46
0.0
 71
     7
 72
     1
  1
{\fＭＳ ゴシック|b0|i0|c128|p49;$m}
 73
     1
 44
1.0
  0
MTEXT
  5
85
330
1F
100
AcDbEntity
  8
F-A_文字
  6
Continuous
 62
     7
370
     0
100
AcDbMText
 10
3595.552921333554
 20
-2876.514644858855
 30
0.0
 40
49.53
 41
65.0
 46
0.0
 71
     7
 72
     1
  1
{\fＭＳ ゴシック|b0|i0|c128|p49;$d}
 73
     1
 44
1.0
  0
MTEXT
  5
86
330
1F
100
AcDbEntity
  8
F-A_文字
  6
Continuous
 62
     7
370
     0
100
AcDbMText
 10
3698.710742988826
 20
-2876.514644858855
 30
0.0
 40
49.53
 41
130.0
 46
0.0
 71
     7
 72
     1
  1
{\fＭＳ ゴシック|b0|i0|c128|p49;印刷}
 73
     1
 44
1.0
  0
MTEXT
  5
87
330
1F
100
AcDbEntity
  8
F-A_文字
  6
Continuous
 62
     7
370
     0
100
AcDbMText
 10
3295.968027210818
 20
-2879.348995711821
 30
0.0
 40
45.72
 41
60.0
 46
0.0
 71
     7
 72
     1
  1
{\fＭＳ ゴシック|b0|i0|c128|p49;（}
 73
     1
 44
1.0
  0
MTEXT
  5
88
330
1F
100
AcDbEntity
  8
F-A_文字
  6
Continuous
 62
     7
370
     0
100
AcDbMText
 10
3460.797206917048
 20
-2879.348995711821
 30
0.0
 40
45.72
 41
30.0
 46
0.0
 71
     7
 72
     1
  1
{\fＭＳ ゴシック|b0|i0|c128|p49;,}
 73
     1
 44
1.0
  0
MTEXT
  5
89
330
1F
100
AcDbEntity
  8
0-A_文字
  6
Continuous
 62
     7
370
     9
100
AcDbMText
 10
-3408.982252138138
 20
2499.766787637247
 30
0.0
 40
76.2
 41
500.0
 46
0.0
 71
     7
 72
     1
  1
{\fＭＳ ゴシック|b0|i0|c128|p49;Ｔ－６０１}
 73
     1
 44
1.0
  0
LINE
  5
8A
330
1F
100
AcDbEntity
  8
0-A_文字
  6
Continuous
 62
     7
370
     9
100
AcDbLine
 10
-3743.332919558964
 20
2486.666787637248
 30
0.0
 11
-3743.332919558964
 21
2636.666787637248
 31
0.0
  0
LINE
  5
8B
330
1F
100
AcDbEntity
  8
0-A_文字
  6
Continuous
 62
     7
370
     9
100
AcDbLine
 10
-3743.332919558964
 20
2636.666787637248
 30
0.0
 11
-2574.63158471731
 21
2636.666787637248
 31
0.0
  0
LINE
  5
8C
330
1F
100
AcDbEntity
  8
0-A_文字
  6
Continuous
 62
     7
370
     9
100
AcDbLine
 10
-3743.332919558964
 20
2486.666787637248
 30
0.0
 11
-2574.63158471731
 21
2486.666787637248
 31
0.0
  0
LINE
  5
8D
330
1F
100
AcDbEntity
  8
0-A_文字
  6
Continuous
 62
     7
370
     9
100
AcDbLine
 10
-2574.63158471731
 20
2486.666787637248
 30
0.0
 11
-2574.63158471731
 21
2636.666787637248
 31
0.0
  0
LINE
  5
8E
330
1F
100
AcDbEntity
  8
0-B_寸法
  6
Continuous
 62
   120
370
     5
100
AcDbLine
 10
-3181.204045534394
 20
712.3334536165811
 30
0.0
 11
-2981.204045534394
 21
712.3334536165811
 31
0.0
  0
LINE
  5
8F
330
1F
100
AcDbEntity
  8
0-B_寸法
  6
Continuous
 62
   120
370
     5
100
AcDbLine
 10
-3181.204045534394
 20
-1456.666546383419
 30
0.0
 11
-2981.204045534394
 21
-1456.666546383419
 31
0.0
  0
LWPOLYLINE
  5
90
330
1F
100
AcDbEntity
  8
0-B_寸法
  6
Continuous
 62
     7
370
     9
100
AcDbPolyline
 90
        4
 70
     1
 43
2.0
 10
-3180.204045534393
 20
712.3334536165811
 42
0.4142135623731
 10
-3181.204045534394
 20
713.333453616581
 42
0.4142135623731
 10
-3182.204045534394
 20
712.3334536165811
 42
0.4142135623731
 10
-3181.204045534394
 20
711.3334536165812
 42
0.4142135623731
  0
LWPOLYLINE
  5
91
330
1F
100
AcDbEntity
  8
0-B_寸法
  6
Continuous
 62
     7
370
     9
100
AcDbPolyline
 90
        4
 70
     1
 43
2.0
 10
-3180.204045534393
 20
-1456.666546383419
 42
0.4142135623731
 10
-3181.204045534394
 20
-1455.666546383419
 42
0.4142135623731
 10
-3182.204045534394
 20
-1456.666546383419
 42
0.4142135623731
 10
-3181.204045534394
 20
-1457.666546383419
 42
0.4142135623731
  0
LINE
  5
92
330
1F
100
AcDbEntity
  8
0-B_寸法
  6
Continuous
 62
   120
370
     5
100
AcDbLine
 10
-3181.204045534394
 20
-1456.666546383419
 30
0.0
 11
-3181.204045534394
 21
712.3334536165811
 31
0.0
  0
LWPOLYLINE
  5
93
330
1F
100
AcDbEntity
  8
0-B_寸法
  6
Continuous
 62
     7
370
     9
100
AcDbPolyline
 90
        4
 70
     1
 43
2.0
 10
-3080.204045534393
 20
712.3334536165811
 42
0.4142135623731
 10
-3081.204045534394
 20
713.333453616581
 42
0.4142135623731
 10
-3082.204045534394
 20
712.3334536165811
 42
0.4142135623731
 10
-3081.204045534394
 20
711.3334536165812
 42
0.4142135623731
  0
LINE
  5
94
330
1F
100
AcDbEntity
  8
0-B_寸法
  6
Continuous
 62
   120
370
     5
100
AcDbLine
 10
-3081.204045534394
 20
709.3334536165821
 30
0.0
 11
-3081.204045534394
 21
712.3334536165811
 31
0.0
  0
LINE
  5
95
330
1F
100
AcDbEntity
  8
0-B_寸法
  6
Continuous
 62
   120
370
     5
100
AcDbLine
 10
-3081.204045534394
 20
709.3334536165821
 30
0.0
 11
-2981.204045534394
 21
709.3334536165821
 31
0.0
  0
LWPOLYLINE
  5
96
330
1F
100
AcDbEntity
  8
0-B_寸法
  6
Continuous
 62
     7
370
     9
100
AcDbPolyline
 90
        4
 70
     1
 43
2.0
 10
-3080.204045534393
 20
709.3334536165821
 42
0.4142135623731
 10
-3081.204045534394
 20
710.3334536165821
 42
0.4142135623731
 10
-3082.204045534394
 20
709.3334536165821
 42
0.4142135623731
 10
-3081.204045534394
 20
708.3334536165821
 42
0.4142135623731
  0
LINE
  5
97
330
1F
100
AcDbEntity
  8
0-B_寸法
  6
Continuous
 62
   120
370
     5
100
AcDbLine
 10
-3081.204045534394
 20
-1453.666533407556
 30
0.0
 11
-3081.204045534394
 21
709.3334536165821
 31
0.0
  0
LINE
  5
98
330
1F
100
AcDbEntity
  8
0-B_寸法
  6
Continuous
 62
   120
370
     5
100
AcDbLine
 10
-3081.204045534394
 20
-1453.666533407556
 30
0.0
 11
-2981.204045534394
 21
-1453.666533407556
 31
0.0
  0
LWPOLYLINE
  5
99
330
1F
100
AcDbEntity
  8
0-B_寸法
  6
Continuous
 62
     7
370
     9
100
AcDbPolyline
 90
        4
 70
     1
 43
2.0
 10
-3080.204045534393
 20
-1453.666533407556
 42
0.4142135623731
 10
-3081.204045534394
 20
-1452.666533407556
 42
0.4142135623731
 10
-3082.204045534394
 20
-1453.666533407556
 42
0.4142135623731
 10
-3081.204045534394
 20
-1454.666533407556
 42
0.4142135623731
  0
LWPOLYLINE
  5
9A
330
1F
100
AcDbEntity
  8
0-B_寸法
  6
Continuous
 62
     7
370
     9
100
AcDbPolyline
 90
        4
 70
     1
 43
2.0
 10
-3080.204045534393
 20
-1456.666546383419
 42
0.4142135623731
 10
-3081.204045534394
 20
-1455.666546383419
 42
0.4142135623731
 10
-3082.204045534394
 20
-1456.666546383419
 42
0.4142135623731
 10
-3081.204045534394
 20
-1457.666546383419
 42
0.4142135623731
  0
LINE
  5
9B
330
1F
100
AcDbEntity
  8
0-B_寸法
  6
Continuous
 62
   120
370
     5
100
AcDbLine
 10
-3081.204045534394
 20
-1456.666546383419
 30
0.0
 11
-3081.204045534394
 21
-1453.666533407556
 31
0.0
  0
LINE
  5
9C
330
1F
100
AcDbEntity
  8
0-1_本体
  6
Continuous
 62
     7
370
     9
100
AcDbLine
 10
-2135.204045534393
 20
-1456.666533407557
 30
0.0
 11
-2931.204045534394
 21
-1456.666533407557
 31
0.0
  0
LINE
  5
9D
330
1F
100
AcDbEntity
  8
0-1_本体
  6
Continuous
 62
     7
370
     9
100
AcDbLine
 10
-2135.204045534395
 20
-1456.666546383419
 30
0.0
 11
-2135.204045534393
 21
712.3334536165811
 31
0.0
  0
LINE
  5
9E
330
1F
100
AcDbEntity
  8
0-B_寸法
  6
Continuous
 62
   120
370
     5
100
AcDbLine
 10
-2135.204045534394
 20
862.3334536165811
 30
0.0
 11
-2135.204045534394
 21
762.3334536165811
 31
0.0
  0
LWPOLYLINE
  5
9F
330
1F
100
AcDbEntity
  8
0-B_寸法
  6
Continuous
 62
     7
370
     9
100
AcDbPolyline
 90
        4
 70
     1
 43
2.0
 10
-2134.204045534394
 20
862.3334536165811
 42
0.4142135623731
 10
-2135.204045534394
 20
863.333453616581
 42
0.4142135623731
 10
-2136.204045534394
 20
862.3334536165811
 42
0.4142135623731
 10
-2135.204045534394
 20
861.3334536165812
 42
0.4142135623731
  0
LINE
  5
A0
330
1F
100
AcDbEntity
  8
0-B_寸法
  6
Continuous
 62
   120
370
     5
100
AcDbLine
 10
-2137.204045534393
 20
862.3334536165811
 30
0.0
 11
-2135.204045534394
 21
862.3334536165811
 31
0.0
  0
LINE
  5
A1
330
1F
100
AcDbEntity
  8
0-B_寸法
  6
Continuous
 62
   120
370
     5
100
AcDbLine
 10
-2137.204045534393
 20
862.3334536165811
 30
0.0
 11
-2137.204045534393
 21
762.3334536165811
 31
0.0
  0
LWPOLYLINE
  5
A2
330
1F
100
AcDbEntity
  8
0-B_寸法
  6
Continuous
 62
     7
370
     9
100
AcDbPolyline
 90
        4
 70
     1
 43
2.0
 10
-2136.204045534393
 20
862.3334536165811
 42
0.4142135623731
 10
-2137.204045534393
 20
863.333453616581
 42
0.4142135623731
 10
-2138.204045534393
 20
862.3334536165811
 42
0.4142135623731
 10
-2137.204045534393
 20
861.3334536165812
 42
0.4142135623731
  0
LINE
  5
A3
330
1F
100
AcDbEntity
  8
0-B_寸法
  6
Continuous
 62
   120
370
     5
100
AcDbLine
 10
-2531.204045534394
 20
862.3334536165811
 30
0.0
 11
-2137.204045534393
 21
862.3334536165811
 31
0.0
  0
LINE
  5
A4
330
1F
100
AcDbEntity
  8
0-B_寸法
  6
Continuous
 62
   120
370
     5
100
AcDbLine
 10
-2531.204045534394
 20
862.3334536165811
 30
0.0
 11
-2531.204045534394
 21
762.3334536165811
 31
0.0
  0
LWPOLYLINE
  5
A5
330
1F
100
AcDbEntity
  8
0-B_寸法
  6
Continuous
 62
     7
370
     9
100
AcDbPolyline
 90
        4
 70
     1
 43
2.0
 10
-2530.204045534394
 20
862.3334536165811
 42
0.4142135623731
 10
-2531.204045534394
 20
863.333453616581
 42
0.4142135623731
 10
-2532.204045534394
 20
862.3334536165811
 42
0.4142135623731
 10
-2531.204045534394
 20
861.3334536165812
 42
0.4142135623731
  0
LINE
  5
A6
330
1F
100
AcDbEntity
  8
0-B_寸法
  6
Continuous
 62
   120
370
     5
100
AcDbLine
 10
-2535.204045534393
 20
862.3334536165811
 30
0.0
 11
-2531.204045534394
 21
862.3334536165811
 31
0.0
  0
LINE
  5
A7
330
1F
100
AcDbEntity
  8
0-B_寸法
  6
Continuous
 62
   120
370
     5
100
AcDbLine
 10
-2535.204045534393
 20
862.3334536165811
 30
0.0
 11
-2535.204045534393
 21
762.3334536165811
 31
0.0
  0
LWPOLYLINE
  5
A8
330
1F
100
AcDbEntity
  8
0-B_寸法
  6
Continuous
 62
     7
370
     9
100
AcDbPolyline
 90
        4
 70
     1
 43
2.0
 10
-2534.204045534393
 20
862.3334536165811
 42
0.4142135623731
 10
-2535.204045534393
 20
863.333453616581
 42
0.4142135623731
 10
-2536.204045534393
 20
862.3334536165811
 42
0.4142135623731
 10
-2535.204045534393
 20
861.3334536165812
 42
0.4142135623731
  0
LINE
  5
A9
330
1F
100
AcDbEntity
  8
0-B_寸法
  6
Continuous
 62
   120
370
     5
100
AcDbLine
 10
-2929.204045534393
 20
862.3334536165811
 30
0.0
 11
-2535.204045534393
 21
862.3334536165811
 31
0.0
  0
LINE
  5
AA
330
1F
100
AcDbEntity
  8
0-B_寸法
  6
Continuous
 62
   120
370
     5
100
AcDbLine
 10
-2929.204045534393
 20
862.3334536165811
 30
0.0
 11
-2929.204045534393
 21
762.3334536165811
 31
0.0
  0
LINE
  5
AB
330
1F
100
AcDbEntity
  8
0-B_寸法
  6
Continuous
 62
   120
370
     5
100
AcDbLine
 10
-2931.204045534394
 20
862.3334536165811
 30
0.0
 11
-2931.204045534394
 21
762.3334536165811
 31
0.0
  0
LWPOLYLINE
  5
AC
330
1F
100
AcDbEntity
  8
0-B_寸法
  6
Continuous
 62
     7
370
     9
100
AcDbPolyline
 90
        4
 70
     1
 43
2.0
 10
-2928.204045534392
 20
862.3334536165811
 42
0.4142135623731
 10
-2929.204045534393
 20
863.333453616581
 42
0.4142135623731
 10
-2930.204045534393
 20
862.3334536165811
 42
0.4142135623731
 10
-2929.204045534393
 20
861.3334536165812
 42
0.4142135623731
  0
LWPOLYLINE
  5
AD
330
1F
100
AcDbEntity
  8
0-B_寸法
  6
Continuous
 62
     7
370
     9
100
AcDbPolyline
 90
        4
 70
     1
 43
2.0
 10
-2930.204045534394
 20
862.3334536165811
 42
0.4142135623731
 10
-2931.204045534394
 20
863.333453616581
 42
0.4142135623731
 10
-2932.204045534394
 20
862.3334536165811
 42
0.4142135623731
 10
-2931.204045534394
 20
861.3334536165812
 42
0.4142135623731
  0
LINE
  5
AE
330
1F
100
AcDbEntity
  8
0-B_寸法
  6
Continuous
 62
   120
370
     5
100
AcDbLine
 10
-2931.204045534394
 20
862.3334536165811
 30
0.0
 11
-2929.204045534393
 21
862.3334536165811
 31
0.0
  0
LINE
  5
AF
330
1F
100
AcDbEntity
  8
0-1_本体
  6
Continuous
 62
     7
370
     9
100
AcDbLine
 10
-2931.204045534394
 20
-1456.666546383419
 30
0.0
 11
-2931.204045534394
 21
712.3334536165811
 31
0.0
  0
LINE
  5
B0
330
1F
100
AcDbEntity
  8
0-1_本体
  6
Continuous
 62
     7
370
     9
100
AcDbLine
 10
-2931.204045534394
 20
712.3334536165811
 30
0.0
 11
-2135.204045534393
 21
712.3334536165811
 31
0.0
  0
LINE
  5
B1
330
1F
100
AcDbEntity
  8
0-0_補助線
  6
JWW_HOJO
 62
   120
370
     5
100
AcDbLine
 10
-3181.204045534394
 20
862.3334536165811
 30
0.0
 11
-3181.204045534394
 21
-1851.16654638342
 31
0.0
  0
LINE
  5
B2
330
1F
100
AcDbEntity
  8
0-0_補助線
  6
JWW_HOJO
 62
   120
370
     5
100
AcDbLine
 10
-3081.204045534394
 20
862.3334536165811
 30
0.0
 11
-3081.204045534394
 21
-1851.16654638342
 31
0.0
  0
LINE
  5
B3
330
1F
100
AcDbEntity
  8
0-0_補助線
  6
JWW_HOJO
 62
   120
370
     5
100
AcDbLine
 10
-2981.204045534394
 20
-1851.16654638342
 30
0.0
 11
-2981.204045534394
 21
862.3334536165811
 31
0.0
  0
LINE
  5
B4
330
1F
100
AcDbEntity
  8
0-0_補助線
  6
JWW_HOJO
 62
     7
370
     9
100
AcDbLine
 10
-2135.204045534394
 20
-1851.16654638342
 30
0.0
 11
-2135.204045534394
 21
862.3334536165811
 31
0.0
  0
LINE
  5
B5
330
1F
100
AcDbEntity
  8
0-0_補助線
  6
JWW_HOJO
 62
     7
370
     9
100
AcDbLine
 10
-2931.204045534394
 20
-1851.16654638342
 30
0.0
 11
-2931.204045534394
 21
862.3334536165811
 31
0.0
  0
LINE
  5
B6
330
1F
100
AcDbEntity
  8
0-2_扉
  6
Continuous
 62
    92
370
    13
100
AcDbLine
 10
-2137.204045534393
 20
709.3334536165821
 30
0.0
 11
-2137.204045534393
 21
-1453.66654638342
 31
0.0
  0
LINE
  5
B7
330
1F
100
AcDbEntity
  8
0-2_扉
  6
Continuous
 62
    92
370
    13
100
AcDbLine
 10
-2531.204045534394
 20
709.3334536165821
 30
0.0
 11
-2531.204045534394
 21
-1453.66654638342
 31
0.0
  0
LINE
  5
B8
330
1F
100
AcDbEntity
  8
0-2_扉
  6
Continuous
 62
    92
370
    13
100
AcDbLine
 10
-2535.204045534393
 20
709.3334536165821
 30
0.0
 11
-2535.204045534393
 21
-1453.66654638342
 31
0.0
  0
LINE
  5
B9
330
1F
100
AcDbEntity
  8
0-2_扉
  6
Continuous
 62
    92
370
    13
100
AcDbLine
 10
-2929.204045534393
 20
709.3334536165821
 30
0.0
 11
-2929.204045534393
 21
-1453.66654638342
 31
0.0
  0
LINE
  5
BA
330
1F
100
AcDbEntity
  8
0-2_扉
  6
Continuous
 62
    92
370
    13
100
AcDbLine
 10
-2531.204045534394
 20
-1453.66654638342
 30
0.0
 11
-2137.204045534393
 21
-1453.66654638342
 31
0.0
  0
LINE
  5
BB
330
1F
100
AcDbEntity
  8
0-2_扉
  6
Continuous
 62
    92
370
    13
100
AcDbLine
 10
-2929.204045534393
 20
-1453.66654638342
 30
0.0
 11
-2535.204045534393
 21
-1453.66654638342
 31
0.0
  0
LINE
  5
BC
330
1F
100
AcDbEntity
  8
0-2_扉
  6
Continuous
 62
    92
370
    13
100
AcDbLine
 10
-2531.204045534394
 20
709.3334536165821
 30
0.0
 11
-2137.204045534393
 21
709.3334536165821
 31
0.0
  0
LINE
  5
BD
330
1F
100
AcDbEntity
  8
0-2_扉
  6
Continuous
 62
    92
370
    13
100
AcDbLine
 10
-2929.204045534393
 20
709.3334536165821
 30
0.0
 11
-2535.204045534393
 21
709.3334536165821
 31
0.0
  0
LINE
  5
BE
330
1F
100
AcDbEntity
  8
0-0_補助線
  6
JWW_HOJO
 62
   120
370
     5
100
AcDbLine
 10
-1189.204045534393
 20
-1851.16654638342
 30
0.0
 11
-1189.204045534393
 21
862.3334536165811
 31
0.0
  0
LINE
  5
BF
330
1F
100
AcDbEntity
  8
0-0_補助線
  6
JWW_HOJO
 62
   120
370
     5
100
AcDbLine
 10
-1289.204045534393
 20
-1851.16654638342
 30
0.0
 11
-1289.204045534393
 21
862.3334536165811
 31
0.0
  0
LINE
  5
C0
330
1F
100
AcDbEntity
  8
0-1_本体
  6
Continuous
 62
     7
370
     9
100
AcDbLine
 10
-1339.204045534393
 20
-1456.666533407557
 30
0.0
 11
-2135.204045534395
 21
-1456.666533407557
 31
0.0
  0
LINE
  5
C1
330
1F
100
AcDbEntity
  8
0-1_本体
  6
Continuous
 62
     7
370
     9
100
AcDbLine
 10
-1339.204045534393
 20
-1456.666533407557
 30
0.0
 11
-1339.204045534393
 21
712.3334536165811
 31
0.0
  0
LINE
  5
C2
330
1F
100
AcDbEntity
  8
0-B_寸法
  6
Continuous
 62
   120
370
     5
100
AcDbLine
 10
-1339.204045534395
 20
862.3334536165811
 30
0.0
 11
-1339.204045534395
 21
762.3334536165811
 31
0.0
  0
LWPOLYLINE
  5
C3
330
1F
100
AcDbEntity
  8
0-B_寸法
  6
Continuous
 62
     7
370
     9
100
AcDbPolyline
 90
        4
 70
     1
 43
2.0
 10
-1338.204045534395
 20
862.3334536165811
 42
0.4142135623731
 10
-1339.204045534395
 20
863.333453616581
 42
0.4142135623731
 10
-1340.204045534395
 20
862.3334536165811
 42
0.4142135623731
 10
-1339.204045534395
 20
861.3334536165812
 42
0.4142135623731
  0
LINE
  5
C4
330
1F
100
AcDbEntity
  8
0-B_寸法
  6
Continuous
 62
   120
370
     5
100
AcDbLine
 10
-1341.204045534393
 20
862.3334536165811
 30
0.0
 11
-1339.204045534395
 21
862.3334536165811
 31
0.0
  0
LINE
  5
C5
330
1F
100
AcDbEntity
  8
0-B_寸法
  6
Continuous
 62
   120
370
     5
100
AcDbLine
 10
-1341.204045534393
 20
862.3334536165811
 30
0.0
 11
-1341.204045534393
 21
762.3334536165811
 31
0.0
  0
LWPOLYLINE
  5
C6
330
1F
100
AcDbEntity
  8
0-B_寸法
  6
Continuous
 62
     7
370
     9
100
AcDbPolyline
 90
        4
 70
     1
 43
2.0
 10
-1340.204045534393
 20
862.3334536165811
 42
0.4142135623731
 10
-1341.204045534393
 20
863.333453616581
 42
0.4142135623731
 10
-1342.204045534393
 20
862.3334536165811
 42
0.4142135623731
 10
-1341.204045534393
 20
861.3334536165812
 42
0.4142135623731
  0
LINE
  5
C7
330
1F
100
AcDbEntity
  8
0-B_寸法
  6
Continuous
 62
   120
370
     5
100
AcDbLine
 10
-1735.204045534394
 20
862.3334536165811
 30
0.0
 11
-1341.204045534393
 21
862.3334536165811
 31
0.0
  0
LINE
  5
C8
330
1F
100
AcDbEntity
  8
0-B_寸法
  6
Continuous
 62
   120
370
     5
100
AcDbLine
 10
-1735.204045534394
 20
862.3334536165811
 30
0.0
 11
-1735.204045534394
 21
762.3334536165811
 31
0.0
  0
LWPOLYLINE
  5
C9
330
1F
100
AcDbEntity
  8
0-B_寸法
  6
Continuous
 62
     7
370
     9
100
AcDbPolyline
 90
        4
 70
     1
 43
2.0
 10
-1734.204045534394
 20
862.3334536165811
 42
0.4142135623731
 10
-1735.204045534394
 20
863.333453616581
 42
0.4142135623731
 10
-1736.204045534394
 20
862.3334536165811
 42
0.4142135623731
 10
-1735.204045534394
 20
861.3334536165812
 42
0.4142135623731
  0
LINE
  5
CA
330
1F
100
AcDbEntity
  8
0-B_寸法
  6
Continuous
 62
   120
370
     5
100
AcDbLine
 10
-1739.204045534393
 20
862.3334536165811
 30
0.0
 11
-1735.204045534394
 21
862.3334536165811
 31
0.0
  0
LINE
  5
CB
330
1F
100
AcDbEntity
  8
0-B_寸法
  6
Continuous
 62
   120
370
     5
100
AcDbLine
 10
-1739.204045534393
 20
862.3334536165811
 30
0.0
 11
-1739.204045534393
 21
762.3334536165811
 31
0.0
  0
LWPOLYLINE
  5
CC
330
1F
100
AcDbEntity
  8
0-B_寸法
  6
Continuous
 62
     7
370
     9
100
AcDbPolyline
 90
        4
 70
     1
 43
2.0
 10
-1738.204045534393
 20
862.3334536165811
 42
0.4142135623731
 10
-1739.204045534393
 20
863.333453616581
 42
0.4142135623731
 10
-1740.204045534392
 20
862.3334536165811
 42
0.4142135623731
 10
-1739.204045534393
 20
861.3334536165812
 42
0.4142135623731
  0
LINE
  5
CD
330
1F
100
AcDbEntity
  8
0-B_寸法
  6
Continuous
 62
   120
370
     5
100
AcDbLine
 10
-2133.204045534394
 20
862.3334536165811
 30
0.0
 11
-1739.204045534393
 21
862.3334536165811
 31
0.0
  0
LINE
  5
CE
330
1F
100
AcDbEntity
  8
0-B_寸法
  6
Continuous
 62
   120
370
     5
100
AcDbLine
 10
-2133.204045534394
 20
862.3334536165811
 30
0.0
 11
-2133.204045534394
 21
762.3334536165811
 31
0.0
  0
LWPOLYLINE
  5
CF
330
1F
100
AcDbEntity
  8
0-B_寸法
  6
Continuous
 62
     7
370
     9
100
AcDbPolyline
 90
        4
 70
     1
 43
2.0
 10
-2132.204045534394
 20
862.3334536165811
 42
0.4142135623731
 10
-2133.204045534394
 20
863.333453616581
 42
0.4142135623731
 10
-2134.204045534394
 20
862.3334536165811
 42
0.4142135623731
 10
-2133.204045534394
 20
861.3334536165812
 42
0.4142135623731
  0
LINE
  5
D0
330
1F
100
AcDbEntity
  8
0-B_寸法
  6
Continuous
 62
   120
370
     5
100
AcDbLine
 10
-2135.204045534395
 20
862.3334536165811
 30
0.0
 11
-2133.204045534394
 21
862.3334536165811
 31
0.0
  0
LINE
  5
D1
330
1F
100
AcDbEntity
  8
0-1_本体
  6
Continuous
 62
     7
370
     9
100
AcDbLine
 10
-2135.204045534395
 20
712.3334536165811
 30
0.0
 11
-1339.204045534393
 21
712.3334536165811
 31
0.0
  0
LINE
  5
D2
330
1F
100
AcDbEntity
  8
0-0_補助線
  6
JWW_HOJO
 62
     7
370
     9
100
AcDbLine
 10
-1339.204045534395
 20
-1851.16654638342
 30
0.0
 11
-1339.204045534395
 21
862.3334536165811
 31
0.0
  0
LINE
  5
D3
330
1F
100
AcDbEntity
  8
0-2_扉
  6
Continuous
 62
    92
370
    13
100
AcDbLine
 10
-1341.204045534393
 20
709.3334536165821
 30
0.0
 11
-1341.204045534393
 21
-1453.66654638342
 31
0.0
  0
LINE
  5
D4
330
1F
100
AcDbEntity
  8
0-2_扉
  6
Continuous
 62
    92
370
    13
100
AcDbLine
 10
-1735.204045534394
 20
709.3334536165821
 30
0.0
 11
-1735.204045534394
 21
-1453.66654638342
 31
0.0
  0
LINE
  5
D5
330
1F
100
AcDbEntity
  8
0-2_扉
  6
Continuous
 62
    92
370
    13
100
AcDbLine
 10
-1739.204045534393
 20
709.3334536165821
 30
0.0
 11
-1739.204045534393
 21
-1453.66654638342
 31
0.0
  0
LINE
  5
D6
330
1F
100
AcDbEntity
  8
0-2_扉
  6
Continuous
 62
    92
370
    13
100
AcDbLine
 10
-2133.204045534394
 20
709.3334536165821
 30
0.0
 11
-2133.204045534394
 21
-1453.66654638342
 31
0.0
  0
LINE
  5
D7
330
1F
100
AcDbEntity
  8
0-2_扉
  6
Continuous
 62
    92
370
    13
100
AcDbLine
 10
-1735.204045534394
 20
-1453.66654638342
 30
0.0
 11
-1341.204045534393
 21
-1453.66654638342
 31
0.0
  0
LINE
  5
D8
330
1F
100
AcDbEntity
  8
0-2_扉
  6
Continuous
 62
    92
370
    13
100
AcDbLine
 10
-2133.204045534394
 20
-1453.66654638342
 30
0.0
 11
-1739.204045534393
 21
-1453.66654638342
 31
0.0
  0
LINE
  5
D9
330
1F
100
AcDbEntity
  8
0-2_扉
  6
Continuous
 62
    92
370
    13
100
AcDbLine
 10
-1735.204045534394
 20
709.3334536165821
 30
0.0
 11
-1341.204045534393
 21
709.3334536165821
 31
0.0
  0
LINE
  5
DA
330
1F
100
AcDbEntity
  8
0-2_扉
  6
Continuous
 62
    92
370
    13
100
AcDbLine
 10
-2133.204045534394
 20
709.3334536165821
 30
0.0
 11
-1739.204045534393
 21
709.3334536165821
 31
0.0
  0
MTEXT
  5
DB
330
1F
100
AcDbEntity
  8
0-B_寸法
  6
Continuous
 62
     7
370
   211
100
AcDbMText
 10
-2945.204045534394
 20
865.1934536165811
 30
0.0
 40
45.72
 41
30.0
 46
0.0
 71
     7
 72
     1
  1
{\fＭＳ ゴシック|b0|i0|c128|p49;2}
 73
     1
 44
1.0
  0
MTEXT
  5
DC
330
1F
100
AcDbEntity
  8
0-B_寸法
  6
Continuous
 62
     7
370
   211
100
AcDbMText
 10
-2867.204045534394
 20
865.1934536165811
 30
0.0
 40
45.71999999999999
 41
270.0
 46
0.0
 71
     7
 72
     1
  1
{\fＭＳ ゴシック|b0|i0|c128|p49;ＤＷ＝394}
 73
     1
 44
1.0
  0
MTEXT
  5
DD
330
1F
100
AcDbEntity
  8
0-B_寸法
  6
Continuous
 62
     7
370
   211
100
AcDbMText
 10
-2548.204045534394
 20
865.1934536165811
 30
0.0
 40
45.72
 41
30.0
 46
0.0
 71
     7
 72
     1
  1
{\fＭＳ ゴシック|b0|i0|c128|p49;4}
 73
     1
 44
1.0
  0
MTEXT
  5
DE
330
1F
100
AcDbEntity
  8
0-B_寸法
  6
Continuous
 62
     7
370
   211
100
AcDbMText
 10
-2469.204045534393
 20
865.1934536165811
 30
0.0
 40
45.71999999999999
 41
270.0
 46
0.0
 71
     7
 72
     1
  1
{\fＭＳ ゴシック|b0|i0|c128|p49;ＤＷ＝394}
 73
     1
 44
1.0
  0
MTEXT
  5
DF
330
1F
100
AcDbEntity
  8
0-B_寸法
  6
Continuous
 62
     7
370
   211
100
AcDbMText
 10
-2170.204045534396
 20
865.1934536165811
 30
0.0
 40
45.72
 41
30.0
 46
0.0
 71
     7
 72
     1
  1
{\fＭＳ ゴシック|b0|i0|c128|p49;2}
 73
     1
 44
1.0
  0
MTEXT
  5
E0
330
1F
100
AcDbEntity
  8
0-B_寸法
  6
Continuous
 62
     7
370
   211
100
AcDbMText
 10
-2130.204045534396
 20
865.1934536165811
 30
0.0
 40
45.72
 41
30.0
 46
0.0
 71
     7
 72
     1
  1
{\fＭＳ ゴシック|b0|i0|c128|p49;2}
 73
     1
 44
1.0
  0
MTEXT
  5
E1
330
1F
100
AcDbEntity
  8
0-B_寸法
  6
Continuous
 62
     7
370
   211
100
AcDbMText
 10
-2071.204045534395
 20
865.1934536165811
 30
0.0
 40
45.71999999999999
 41
270.0
 46
0.0
 71
     7
 72
     1
  1
{\fＭＳ ゴシック|b0|i0|c128|p49;ＤＷ＝394}
 73
     1
 44
1.0
  0
MTEXT
  5
E2
330
1F
100
AcDbEntity
  8
0-B_寸法
  6
Continuous
 62
     7
370
   211
100
AcDbMText
 10
-1752.204045534394
 20
865.1934536165811
 30
0.0
 40
45.72
 41
30.0
 46
0.0
 71
     7
 72
     1
  1
{\fＭＳ ゴシック|b0|i0|c128|p49;4}
 73
     1
 44
1.0
  0
MTEXT
  5
E3
330
1F
100
AcDbEntity
  8
0-B_寸法
  6
Continuous
 62
     7
370
   211
100
AcDbMText
 10
-1673.204045534394
 20
865.1934536165811
 30
0.0
 40
45.71999999999999
 41
270.0
 46
0.0
 71
     7
 72
     1
  1
{\fＭＳ ゴシック|b0|i0|c128|p49;ＤＷ＝394}
 73
     1
 44
1.0
  0
MTEXT
  5
E4
330
1F
100
AcDbEntity
  8
0-B_寸法
  6
Continuous
 62
     7
370
   211
100
AcDbMText
 10
-1355.204045534394
 20
865.1934536165811
 30
0.0
 40
45.72
 41
30.0
 46
0.0
 71
     7
 72
     1
  1
{\fＭＳ ゴシック|b0|i0|c128|p49;2}
 73
     1
 44
1.0
  0
MTEXT
  5
E5
330
1F
100
AcDbEntity
  8
0-B_寸法
  6
Continuous
 62
     7
370
   211
100
AcDbMText
 10
-3091.204045534394
 20
671.8669953966088
 30
0.0
 40
45.72
 41
30.0
 46
0.0
 71
     7
 72
     1
  1
{\fＭＳ ゴシック|b0|i0|c128|p49;3}
 11
6.123031769111886E-17
 21
1.0
 31
0.0
 73
     1
 44
1.0
  0
MTEXT
  5
E6
330
1F
100
AcDbEntity
  8
0-B_寸法
  6
Continuous
 62
     7
370
   211
100
AcDbMText
 10
-3191.204045534394
 20
-454.3065463834188
 30
0.0
 40
45.72
 41
150.0
 46
0.0
 71
     7
 72
     1
  1
{\fＭＳ ゴシック|b0|i0|c128|p49;2,169}
 11
6.123031769111886E-17
 21
1.0
 31
0.0
 73
     1
 44
1.0
  0
MTEXT
  5
E7
330
1F
100
AcDbEntity
  8
0-B_寸法
  6
Continuous
 62
     7
370
   211
100
AcDbMText
 10
-3091.204045534394
 20
-544.3065463834188
 30
0.0
 40
45.71999999999998
 41
330.0
 46
0.0
 71
     7
 72
     1
  1
{\fＭＳ ゴシック|b0|i0|c128|p49;ＤＨ＝2,163}
 11
6.123031769111886E-17
 21
1.0
 31
0.0
 73
     1
 44
1.0
  0
LINE
  5
E8
330
1F
100
AcDbEntity
  8
0-3_扉仕上
  6
JWW_CENTER1
 62
     7
370
     9
100
AcDbLine
 10
-2531.204045534392
 20
709.3334536165884
 30
0.0
 11
-2137.204045534391
 21
-372.1665463834128
 31
0.0
  0
LINE
  5
E9
330
1F
100
AcDbEntity
  8
0-3_扉仕上
  6
JWW_CENTER1
 62
     7
370
     9
100
AcDbLine
 10
-2137.204045534391
 20
-372.1665463834128
 30
0.0
 11
-2531.204045534392
 21
-1453.666546383413
 31
0.0
  0
LINE
  5
EA
330
1F
100
AcDbEntity
  8
0-3_扉仕上
  6
JWW_CENTER1
 62
     7
370
     9
100
AcDbLine
 10
-2535.204045534393
 20
709.3334536165884
 30
0.0
 11
-2929.204045534394
 21
-372.1665463834128
 31
0.0
  0
LINE
  5
EB
330
1F
100
AcDbEntity
  8
0-3_扉仕上
  6
JWW_CENTER1
 62
     7
370
     9
100
AcDbLine
 10
-2929.204045534394
 20
-372.1665463834128
 30
0.0
 11
-2535.204045534393
 21
-1453.666546383413
 31
0.0
  0
LINE
  5
EC
330
1F
100
AcDbEntity
  8
0-3_扉仕上
  6
JWW_CENTER1
 62
     7
370
     9
100
AcDbLine
 10
-1735.204045534392
 20
709.3334536165884
 30
0.0
 11
-1341.204045534391
 21
-372.1665463834128
 31
0.0
  0
LINE
  5
ED
330
1F
100
AcDbEntity
  8
0-3_扉仕上
  6
JWW_CENTER1
 62
     7
370
     9
100
AcDbLine
 10
-1341.204045534391
 20
-372.1665463834128
 30
0.0
 11
-1735.204045534392
 21
-1453.666546383413
 31
0.0
  0
LINE
  5
EE
330
1F
100
AcDbEntity
  8
0-3_扉仕上
  6
JWW_CENTER1
 62
     7
370
     9
100
AcDbLine
 10
-1739.204045534393
 20
709.3334536165884
 30
0.0
 11
-2133.204045534394
 21
-372.1665463834128
 31
0.0
  0
LINE
  5
EF
330
1F
100
AcDbEntity
  8
0-3_扉仕上
  6
JWW_CENTER1
 62
     7
370
     9
100
AcDbLine
 10
-2133.204045534394
 20
-372.1665463834128
 30
0.0
 11
-1739.204045534393
 21
-1453.666546383413
 31
0.0
  0
LINE
  5
F0
330
1F
100
AcDbEntity
  8
0-A_文字
  6
Continuous
 62
     7
370
     9
100
AcDbLine
 10
-2559.208568734352
 20
-2151.166546383427
 30
0.0
 11
-2559.208568734352
 21
-2001.166546383427
 31
0.0
  0
LINE
  5
F1
330
1F
100
AcDbEntity
  8
0-A_文字
  6
Continuous
 62
     7
370
     9
100
AcDbLine
 10
-1709.208568734348
 20
-2151.166546383427
 30
0.0
 11
-2559.208568734352
 21
-2151.166546383427
 31
0.0
  0
LINE
  5
F2
330
1F
100
AcDbEntity
  8
0-A_文字
  6
Continuous
 62
     7
370
     9
100
AcDbLine
 10
-1709.208568734348
 20
-2001.166546383427
 30
0.0
 11
-1709.208568734348
 21
-2151.166546383427
 31
0.0
  0
LINE
  5
F3
330
1F
100
AcDbEntity
  8
0-A_文字
  6
Continuous
 62
     7
370
     9
100
AcDbLine
 10
-2559.208568734352
 20
-2001.166546383427
 30
0.0
 11
-1709.208568734348
 21
-2001.166546383427
 31
0.0
  0
MTEXT
  5
F4
330
1F
100
AcDbEntity
  8
0-B_寸法
  6
Continuous
 62
     7
370
   211
100
AcDbMText
 10
-3091.204045534394
 20
-1450.233844734415
 30
0.0
 40
45.72
 41
30.0
 46
0.0
 71
     7
 72
     1
  1
{\fＭＳ ゴシック|b0|i0|c128|p49;3}
 11
6.123031769111886E-17
 21
1.0
 31
0.0
 73
     1
 44
1.0
  0
MTEXT
  5
F5
330
1F
100
AcDbEntity
  8
0-A_文字
  6
Continuous
 62
     7
370
     9
100
AcDbMText
 10
-1319.204045534391
 20
-1613.80656650437
 30
0.0
 40
45.72000000000001
 41
300.0
 46
0.0
 71
     7
 72
     1
  1
{\fＭＳ ゴシック|b0|i0|c128|p49;▽床(土間)}
 73
     1
 44
1.0
  0
LINE
  5
F6
330
1F
100
AcDbEntity
  8
0-3_扉仕上
  6
Continuous
 62
     7
370
     9
100
AcDbLine
 10
-2931.204045534392
 20
-1606.66656650437
 30
0.0
 11
-1019.204045534392
 21
-1606.66656650437
 31
0.0
  0
LINE
  5
F7
330
1F
100
AcDbEntity
  8
0-B_寸法
  6
Continuous
 62
   120
370
     5
100
AcDbLine
 10
-2135.204045534393
 20
-1851.166546383416
 30
0.0
 11
-2931.204045534394
 21
-1851.166546383416
 31
0.0
  0
LWPOLYLINE
  5
F8
330
1F
100
AcDbEntity
  8
0-B_寸法
  6
Continuous
 62
     7
370
     9
100
AcDbPolyline
 90
        4
 70
     1
 43
2.0
 10
-2134.204045534393
 20
-1851.166546383416
 42
0.4142135623731
 10
-2135.204045534393
 20
-1850.166546383416
 42
0.4142135623731
 10
-2136.204045534393
 20
-1851.166546383416
 42
0.4142135623731
 10
-2135.204045534393
 20
-1852.166546383416
 42
0.4142135623731
  0
LWPOLYLINE
  5
F9
330
1F
100
AcDbEntity
  8
0-B_寸法
  6
Continuous
 62
     7
370
     9
100
AcDbPolyline
 90
        4
 70
     1
 43
2.0
 10
-2930.204045534394
 20
-1851.166546383416
 42
0.4142135623731
 10
-2931.204045534394
 20
-1850.166546383416
 42
0.4142135623731
 10
-2932.204045534394
 20
-1851.166546383416
 42
0.4142135623731
 10
-2931.204045534394
 20
-1852.166546383416
 42
0.4142135623731
  0
LINE
  5
FA
330
1F
100
AcDbEntity
  8
0-B_寸法
  6
Continuous
 62
   120
370
     5
100
AcDbLine
 10
-2135.204045534393
 20
-1851.166546383416
 30
0.0
 11
-2135.204045487854
 21
-1751.166546383413
 31
0.0
  0
LINE
  5
FB
330
1F
100
AcDbEntity
  8
0-B_寸法
  6
Continuous
 62
   120
370
     5
100
AcDbLine
 10
-2931.204045534394
 20
-1851.166546383416
 30
0.0
 11
-2931.204045534394
 21
-1751.166546383416
 31
0.0
  0
LINE
  5
FC
330
1F
100
AcDbEntity
  8
0-B_寸法
  6
Continuous
 62
   120
370
     5
100
AcDbLine
 10
-1339.204045487855
 20
-1851.166546383413
 30
0.0
 11
-2135.204045487854
 21
-1851.166546383413
 31
0.0
  0
LWPOLYLINE
  5
FD
330
1F
100
AcDbEntity
  8
0-B_寸法
  6
Continuous
 62
     7
370
     9
100
AcDbPolyline
 90
        4
 70
     1
 43
2.0
 10
-1338.204045487855
 20
-1851.166546383413
 42
0.4142135623731
 10
-1339.204045487855
 20
-1850.166546383414
 42
0.4142135623731
 10
-1340.204045487855
 20
-1851.166546383413
 42
0.4142135623731
 10
-1339.204045487855
 20
-1852.166546383413
 42
0.4142135623731
  0
LINE
  5
FE
330
1F
100
AcDbEntity
  8
0-B_寸法
  6
Continuous
 62
   120
370
     5
100
AcDbLine
 10
-1339.204045487855
 20
-1851.166546383413
 30
0.0
 11
-1339.204045487855
 21
-1751.166546383413
 31
0.0
  0
LINE
  5
FF
330
1F
100
AcDbEntity
  8
0-9__
  6
JWW_DASHED1
 62
     7
370
     9
100
AcDbLine
 10
-2899.204045534391
 20
-1456.666546383416
 30
0.0
 11
-2135.204045534393
 21
-1456.666546383416
 31
0.0
  0
LINE
  5
100
330
1F
100
AcDbEntity
  8
0-9__
  6
JWW_DASHED1
 62
     7
370
     9
100
AcDbLine
 10
-2899.204045534391
 20
-1520.666546383416
 30
0.0
 11
-2899.204045534391
 21
-1456.666546383416
 31
0.0
  0
LINE
  5
101
330
1F
100
AcDbEntity
  8
0-9__
  6
JWW_DASHED1
 62
     7
370
     9
100
AcDbLine
 10
-2135.204045534393
 20
-1456.666546383416
 30
0.0
 11
-2135.204045534393
 21
-1520.666546383416
 31
0.0
  0
LINE
  5
102
330
1F
100
AcDbEntity
  8
0-9__
  6
JWW_DASHED1
 62
     7
370
     9
100
AcDbLine
 10
-2135.204045534393
 20
-1520.666546383416
 30
0.0
 11
-2899.204045534391
 21
-1520.666546383416
 31
0.0
  0
LINE
  5
103
330
1F
100
AcDbEntity
  8
0-9__
  6
JWW_DASHED1
 62
     7
370
     9
100
AcDbLine
 10
-1371.204045534394
 20
-1456.666546383416
 30
0.0
 11
-2135.204045534393
 21
-1456.666546383416
 31
0.0
  0
LINE
  5
104
330
1F
100
AcDbEntity
  8
0-9__
  6
JWW_DASHED1
 62
     7
370
     9
100
AcDbLine
 10
-1371.204045534394
 20
-1520.666546383416
 30
0.0
 11
-1371.204045534394
 21
-1456.666546383416
 31
0.0
  0
LINE
  5
105
330
1F
100
AcDbEntity
  8
0-9__
  6
JWW_DASHED1
 62
     7
370
     9
100
AcDbLine
 10
-2135.204045534393
 20
-1520.666546383416
 30
0.0
 11
-1371.204045534394
 21
-1520.666546383416
 31
0.0
  0
LINE
  5
106
330
1F
100
AcDbEntity
  8
0-B_寸法
  6
Continuous
 62
   120
370
     5
100
AcDbLine
 10
-2931.204045534392
 20
-1751.166546383415
 30
0.0
 11
-2899.204045534391
 21
-1751.166546383415
 31
0.0
  0
LWPOLYLINE
  5
107
330
1F
100
AcDbEntity
  8
0-B_寸法
  6
Continuous
 62
     7
370
     9
100
AcDbPolyline
 90
        4
 70
     1
 43
2.0
 10
-2930.204045534392
 20
-1751.166546383415
 42
0.4142135623731
 10
-2931.204045534392
 20
-1750.166546383415
 42
0.4142135623731
 10
-2932.204045534393
 20
-1751.166546383415
 42
0.4142135623731
 10
-2931.204045534392
 20
-1752.166546383414
 42
0.4142135623731
  0
LWPOLYLINE
  5
108
330
1F
100
AcDbEntity
  8
0-B_寸法
  6
Continuous
 62
     7
370
     9
100
AcDbPolyline
 90
        4
 70
     1
 43
2.0
 10
-2898.204045534391
 20
-1751.166546383415
 42
0.4142135623731
 10
-2899.204045534391
 20
-1750.166546383415
 42
0.4142135623731
 10
-2900.204045534392
 20
-1751.166546383415
 42
0.4142135623731
 10
-2899.204045534391
 20
-1752.166546383414
 42
0.4142135623731
  0
LINE
  5
109
330
1F
100
AcDbEntity
  8
0-B_寸法
  6
Continuous
 62
   120
370
     5
100
AcDbLine
 10
-2931.204045534392
 20
-1751.166546383415
 30
0.0
 11
-2931.204045534392
 21
-1651.166546383415
 31
0.0
  0
LINE
  5
10A
330
1F
100
AcDbEntity
  8
0-B_寸法
  6
Continuous
 62
   120
370
     5
100
AcDbLine
 10
-2899.204045534391
 20
-1751.166546383415
 30
0.0
 11
-2899.204045534391
 21
-1651.166546383415
 31
0.0
  0
LINE
  5
10B
330
1F
100
AcDbEntity
  8
0-B_寸法
  6
Continuous
 62
   120
370
     5
100
AcDbLine
 10
-2899.204045534391
 20
-1751.166546383415
 30
0.0
 11
-2135.204045534393
 21
-1751.166546383415
 31
0.0
  0
LWPOLYLINE
  5
10C
330
1F
100
AcDbEntity
  8
0-B_寸法
  6
Continuous
 62
     7
370
     9
100
AcDbPolyline
 90
        4
 70
     1
 43
2.0
 10
-2134.204045534393
 20
-1751.166546383415
 42
0.4142135623731
 10
-2135.204045534393
 20
-1750.166546383415
 42
0.4142135623731
 10
-2136.204045534393
 20
-1751.166546383415
 42
0.4142135623731
 10
-2135.204045534393
 20
-1752.166546383414
 42
0.4142135623731
  0
LINE
  5
10D
330
1F
100
AcDbEntity
  8
0-B_寸法
  6
Continuous
 62
   120
370
     5
100
AcDbLine
 10
-2135.204045534393
 20
-1751.166546383415
 30
0.0
 11
-2135.204045534393
 21
-1651.166546383415
 31
0.0
  0
LINE
  5
10E
330
1F
100
AcDbEntity
  8
0-B_寸法
  6
Continuous
 62
   120
370
     5
100
AcDbLine
 10
-2135.204045534393
 20
-1751.166546383415
 30
0.0
 11
-1371.204045534394
 21
-1751.166546383415
 31
0.0
  0
LWPOLYLINE
  5
10F
330
1F
100
AcDbEntity
  8
0-B_寸法
  6
Continuous
 62
     7
370
     9
100
AcDbPolyline
 90
        4
 70
     1
 43
2.0
 10
-1370.204045534394
 20
-1751.166546383415
 42
0.4142135623731
 10
-1371.204045534394
 20
-1750.166546383415
 42
0.4142135623731
 10
-1372.204045534394
 20
-1751.166546383415
 42
0.4142135623731
 10
-1371.204045534394
 20
-1752.166546383414
 42
0.4142135623731
  0
LINE
  5
110
330
1F
100
AcDbEntity
  8
0-B_寸法
  6
Continuous
 62
   120
370
     5
100
AcDbLine
 10
-1371.204045534394
 20
-1751.166546383415
 30
0.0
 11
-1371.204045534394
 21
-1651.166546383415
 31
0.0
  0
LINE
  5
111
330
1F
100
AcDbEntity
  8
0-B_寸法
  6
Continuous
 62
   120
370
     5
100
AcDbLine
 10
-1371.204045534394
 20
-1751.166546383415
 30
0.0
 11
-1339.204045487855
 21
-1751.166546383415
 31
0.0
  0
LWPOLYLINE
  5
112
330
1F
100
AcDbEntity
  8
0-B_寸法
  6
Continuous
 62
     7
370
     9
100
AcDbPolyline
 90
        4
 70
     1
 43
2.0
 10
-1338.204045487855
 20
-1751.166546383415
 42
0.4142135623731
 10
-1339.204045487855
 20
-1750.166546383415
 42
0.4142135623731
 10
-1340.204045487855
 20
-1751.166546383415
 42
0.4142135623731
 10
-1339.204045487855
 20
-1752.166546383414
 42
0.4142135623731
  0
LINE
  5
113
330
1F
100
AcDbEntity
  8
0-B_寸法
  6
Continuous
 62
   120
370
     5
100
AcDbLine
 10
-1339.204045487855
 20
-1751.166546383415
 30
0.0
 11
-1339.204045487855
 21
-1651.166546383415
 31
0.0
  0
MTEXT
  5
114
330
1F
100
AcDbEntity
  8
0-B_寸法
  6
Continuous
 62
     7
370
   211
100
AcDbMText
 10
-2999.377451458466
 20
-1748.306546383415
 30
0.0
 40
45.72
 41
60.0
 46
0.0
 71
     7
 72
     1
  1
{\fＭＳ ゴシック|b0|i0|c128|p49;32}
 73
     1
 44
1.0
  0
MTEXT
  5
115
330
1F
100
AcDbEntity
  8
0-B_寸法
  6
Continuous
 62
     7
370
   211
100
AcDbMText
 10
-2682.204045534393
 20
-1748.306546383415
 30
0.0
 40
45.71999999999998
 41
330.0
 46
0.0
 71
     7
 72
     1
  1
{\fＭＳ ゴシック|b0|i0|c128|p49;支持桟＝764}
 73
     1
 44
1.0
  0
MTEXT
  5
116
330
1F
100
AcDbEntity
  8
0-B_寸法
  6
Continuous
 62
     7
370
   211
100
AcDbMText
 10
-1918.204045534394
 20
-1748.306546383415
 30
0.0
 40
45.71999999999998
 41
330.0
 46
0.0
 71
     7
 72
     1
  1
{\fＭＳ ゴシック|b0|i0|c128|p49;支持桟＝764}
 73
     1
 44
1.0
  0
MTEXT
  5
117
330
1F
100
AcDbEntity
  8
0-B_寸法
  6
Continuous
 62
     7
370
   211
100
AcDbMText
 10
-1329.758393052455
 20
-1748.306546383415
 30
0.0
 40
45.72
 41
60.0
 46
0.0
 71
     7
 72
     1
  1
{\fＭＳ ゴシック|b0|i0|c128|p49;32}
 73
     1
 44
1.0
  0
MTEXT
  5
118
330
1F
100
AcDbEntity
  8
0-B_寸法
  6
Continuous
 62
     7
370
   211
100
AcDbMText
 10
-2578.204045534394
 20
-1848.306546383416
 30
0.0
 40
45.72
 41
90.0
 46
0.0
 71
     7
 72
     1
  1
{\fＭＳ ゴシック|b0|i0|c128|p49;796}
 73
     1
 44
1.0
  0
MTEXT
  5
119
330
1F
100
AcDbEntity
  8
0-B_寸法
  6
Continuous
 62
     7
370
   211
100
AcDbMText
 10
-1782.204045487854
 20
-1848.306546383413
 30
0.0
 40
45.72
 41
90.0
 46
0.0
 71
     7
 72
     1
  1
{\fＭＳ ゴシック|b0|i0|c128|p49;796}
 73
     1
 44
1.0
  0
MTEXT
  5
11A
330
1F
100
AcDbEntity
  8
0-A_文字
  6
Continuous
 62
     7
370
     9
100
AcDbMText
 10
2613.532783173901
 20
996.5575727215008
 30
0.0
 40
45.72
 41
180.0
 46
0.0
 71
     7
 72
     1
  1
{\fＭＳ ゴシック|b0|i0|c128|p49;補強材}
 73
     1
 44
1.0
  0
MTEXT
  5
11B
330
1F
100
AcDbEntity
  8
0-A_文字
  6
Continuous
 62
     7
370
     9
100
AcDbMText
 10
2613.532783173901
 20
919.9445204012949
 30
0.0
 40
45.72
 41
240.0
 46
0.0
 71
     7
 72
     1
  1
{\fＭＳ ゴシック|b0|i0|c128|p49;下地位置}
 73
     1
 44
1.0
  0
MTEXT
  5
11C
330
1F
100
AcDbEntity
  8
0-A_文字
  6
Continuous
 62
     7
370
     9
100
AcDbMText
 10
2613.532783173918
 20
845.4020911167655
 30
0.0
 40
45.71999999999497
 41
329.9999999999636
 46
0.0
 71
     7
 72
     1
  1
{\fＭＳ ゴシック|b0|i0|c128|p49;30×105程度}
 73
     1
 44
1.0
  0
MTEXT
  5
11D
330
1F
100
AcDbEntity
  8
0-A_文字
  6
Continuous
 62
     7
370
     9
100
AcDbMText
 10
2293.972010936227
 20
-165.9601628073329
 30
0.0
 40
45.72
 41
180.0
 46
0.0
 71
     7
 72
     1
  1
{\fＭＳ ゴシック|b0|i0|c128|p49;固定棚}
 73
     1
 44
1.0
  0
MTEXT
  5
11E
330
1F
100
AcDbEntity
  8
0-B_寸法
  6
Continuous
 62
     7
370
   211
100
AcDbMText
 10
2181.145821114929
 20
865.1934536165811
 30
0.0
 40
45.72
 41
60.0
 46
0.0
 71
     7
 72
     1
  1
{\fＭＳ ゴシック|b0|i0|c128|p49;37}
 73
     1
 44
1.0
  0
CIRCLE
  5
11F
330
1F
100
AcDbEntity
  8
0-6_桟木
  6
Continuous
 62
     7
370
     9
100
AcDbCircle
 10
2509.296145865606
 20
-1393.66654638342
 30
0.0
 40
4.0
  0
CIRCLE
  5
120
330
1F
100
AcDbEntity
  8
0-6_桟木
  6
Continuous
 62
     7
370
     9
100
AcDbCircle
 10
2509.296145865606
 20
-1425.666546383419
 30
0.0
 40
4.0
  0
MTEXT
  5
121
330
1F
100
AcDbEntity
  8
0-B_寸法
  6
Continuous
 62
     7
370
   211
100
AcDbMText
 10
2342.145821114928
 20
865.1934536165811
 30
0.0
 40
45.72
 41
90.0
 46
0.0
 71
     7
 72
     1
  1
{\fＭＳ ゴシック|b0|i0|c128|p49;256}
 73
     1
 44
1.0
  0
LWPOLYLINE
  5
122
330
1F
100
AcDbEntity
  8
0-B_寸法
  6
Continuous
 62
     7
370
     9
100
AcDbPolyline
 90
        4
 70
     1
 43
2.0
 10
2309.796145865604
 20
395.833453616583
 42
0.4142135623731
 10
2308.796145865604
 20
396.833453616583
 42
0.4142135623731
 10
2307.796145865604
 20
395.833453616583
 42
0.4142135623731
 10
2308.796145865604
 20
394.833453616583
 42
0.4142135623731
  0
LWPOLYLINE
  5
123
330
1F
100
AcDbEntity
  8
0-B_寸法
  6
Continuous
 62
     7
370
     9
100
AcDbPolyline
 90
        4
 70
     1
 43
2.0
 10
2309.796145865604
 20
427.8334536165812
 42
0.4142135623731
 10
2308.796145865604
 20
428.8334536165812
 42
0.4142135623731
 10
2307.796145865604
 20
427.8334536165812
 42
0.4142135623731
 10
2308.796145865604
 20
426.8334536165812
 42
0.4142135623731
  0
LINE
  5
124
330
1F
100
AcDbEntity
  8
0-B_寸法
  6
Continuous
 62
   120
370
     5
100
AcDbLine
 10
2308.796145865604
 20
427.8334536165812
 30
0.0
 11
2308.796145865604
 21
395.833453616583
 31
0.0
  0
LINE
  5
125
330
1F
100
AcDbEntity
  8
0-B_寸法
  6
Continuous
 62
   120
370
     5
100
AcDbLine
 10
2308.796145865604
 20
395.833453616583
 30
0.0
 11
2258.796145865604
 21
395.833453616583
 31
0.0
  0
LINE
  5
126
330
1F
100
AcDbEntity
  8
0-B_寸法
  6
Continuous
 62
   120
370
     5
100
AcDbLine
 10
2308.796145865604
 20
427.8334536165812
 30
0.0
 11
2258.796145865604
 21
427.8334536165812
 31
0.0
  0
CIRCLE
  5
127
330
1F
100
AcDbEntity
  8
0-5_ダボ
  6
Continuous
 62
     7
370
     9
100
AcDbCircle
 10
2211.796145865606
 20
-1320.666546383419
 30
0.0
 40
4.0
  0
CIRCLE
  5
128
330
1F
100
AcDbEntity
  8
0-5_ダボ
  6
Continuous
 62
     7
370
     9
100
AcDbCircle
 10
2211.796145865606
 20
-1352.666546383421
 30
0.0
 40
4.0
  0
MTEXT
  5
129
330
1F
100
AcDbEntity
  8
0-B_寸法
  6
Continuous
 62
     7
370
   211
100
AcDbMText
 10
2458.367392200062
 20
865.1934536165811
 30
0.0
 40
45.72
 41
60.0
 46
0.0
 71
     7
 72
     1
  1
{\fＭＳ ゴシック|b0|i0|c128|p49;22}
 73
     1
 44
1.0
  0
LINE
  5
12A
330
1F
100
AcDbEntity
  8
0-4_棚
  6
Continuous
 62
    40
370
    15
100
AcDbLine
 10
2226.796145865606
 20
506.333453616582
 30
0.0
 11
2516.796145865606
 21
506.333453616582
 31
0.0
  0
LINE
  5
12B
330
1F
100
AcDbEntity
  8
0-4_棚
  6
Continuous
 62
    40
370
    15
100
AcDbLine
 10
2226.796145865606
 20
506.333453616582
 30
0.0
 11
2226.796145865606
 21
494.3334536165821
 31
0.0
  0
LINE
  5
12C
330
1F
100
AcDbEntity
  8
0-4_棚
  6
Continuous
 62
    40
370
    15
100
AcDbLine
 10
2226.796145865606
 20
494.3334536165821
 30
0.0
 11
2516.796145865606
 21
494.3334536165821
 31
0.0
  0
LINE
  5
12D
330
1F
100
AcDbEntity
  8
0-4_棚
  6
Continuous
 62
    40
370
    15
100
AcDbLine
 10
2226.796145865606
 20
46.3334536165803
 30
0.0
 11
2516.796145865606
 21
46.3334536165803
 31
0.0
  0
LINE
  5
12E
330
1F
100
AcDbEntity
  8
0-4_棚
  6
Continuous
 62
    40
370
    15
100
AcDbLine
 10
2226.796145865606
 20
58.33345361658075
 30
0.0
 11
2516.796145865606
 21
58.33345361658075
 31
0.0
  0
LINE
  5
12F
330
1F
100
AcDbEntity
  8
0-4_棚
  6
Continuous
 62
    40
370
    15
100
AcDbLine
 10
2226.796145865606
 20
58.33345361658075
 30
0.0
 11
2226.796145865606
 21
46.3334536165803
 31
0.0
  0
LINE
  5
130
330
1F
100
AcDbEntity
  8
0-4_棚
  6
Continuous
 62
    40
370
    15
100
AcDbLine
 10
2226.796145865606
 20
270.3334536165812
 30
0.0
 11
2516.796145865606
 21
270.3334536165812
 31
0.0
  0
LINE
  5
131
330
1F
100
AcDbEntity
  8
0-4_棚
  6
Continuous
 62
    40
370
    15
100
AcDbLine
 10
2226.796145865606
 20
282.3334536165794
 30
0.0
 11
2516.796145865606
 21
282.3334536165794
 31
0.0
  0
LINE
  5
132
330
1F
100
AcDbEntity
  8
0-4_棚
  6
Continuous
 62
    40
370
    15
100
AcDbLine
 10
2226.796145865606
 20
282.3334536165794
 30
0.0
 11
2226.796145865606
 21
270.3334536165812
 31
0.0
  0
LINE
  5
133
330
1F
100
AcDbEntity
  8
0-4_棚
  6
Continuous
 62
    40
370
    15
100
AcDbLine
 10
2226.796145865606
 20
-433.6665463834197
 30
0.0
 11
2516.796145865606
 21
-433.6665463834197
 31
0.0
  0
LINE
  5
134
330
1F
100
AcDbEntity
  8
0-4_棚
  6
Continuous
 62
    40
370
    15
100
AcDbLine
 10
2226.796145865606
 20
-421.6665463834215
 30
0.0
 11
2516.796145865606
 21
-421.6665463834215
 31
0.0
  0
LINE
  5
135
330
1F
100
AcDbEntity
  8
0-4_棚
  6
Continuous
 62
    40
370
    15
100
AcDbLine
 10
2226.796145865606
 20
-421.6665463834215
 30
0.0
 11
2226.796145865606
 21
-433.6665463834197
 31
0.0
  0
LINE
  5
136
330
1F
100
AcDbEntity
  8
0-4_棚
  6
Continuous
 62
    40
370
    15
100
AcDbLine
 10
2226.796145865606
 20
-689.6665463834194
 30
0.0
 11
2516.796145865606
 21
-689.6665463834194
 31
0.0
  0
LINE
  5
137
330
1F
100
AcDbEntity
  8
0-4_棚
  6
Continuous
 62
    40
370
    15
100
AcDbLine
 10
2226.796145865606
 20
-677.6665463834206
 30
0.0
 11
2516.796145865606
 21
-677.6665463834206
 31
0.0
  0
LINE
  5
138
330
1F
100
AcDbEntity
  8
0-4_棚
  6
Continuous
 62
    40
370
    15
100
AcDbLine
 10
2226.796145865606
 20
-677.6665463834206
 30
0.0
 11
2226.796145865606
 21
-689.6665463834194
 31
0.0
  0
LINE
  5
139
330
1F
100
AcDbEntity
  8
0-4_棚
  6
Continuous
 62
    40
370
    15
100
AcDbLine
 10
2226.796145865606
 20
-945.6665463834202
 30
0.0
 11
2516.796145865606
 21
-945.6665463834202
 31
0.0
  0
LINE
  5
13A
330
1F
100
AcDbEntity
  8
0-4_棚
  6
Continuous
 62
    40
370
    15
100
AcDbLine
 10
2226.796145865606
 20
-933.6665463834206
 30
0.0
 11
2516.796145865606
 21
-933.6665463834206
 31
0.0
  0
LINE
  5
13B
330
1F
100
AcDbEntity
  8
0-4_棚
  6
Continuous
 62
    40
370
    15
100
AcDbLine
 10
2226.796145865606
 20
-933.6665463834206
 30
0.0
 11
2226.796145865606
 21
-945.6665463834202
 31
0.0
  0
LINE
  5
13C
330
1F
100
AcDbEntity
  8
0-4_棚
  6
Continuous
 62
    40
370
    15
100
AcDbLine
 10
2226.796145865606
 20
-1189.666546383421
 30
0.0
 11
2226.796145865606
 21
-1201.666546383422
 31
0.0
  0
LINE
  5
13D
330
1F
100
AcDbEntity
  8
0-4_棚
  6
Continuous
 62
    40
370
    15
100
AcDbLine
 10
2226.796145865606
 20
-1189.666546383421
 30
0.0
 11
2516.796145865606
 21
-1189.666546383421
 31
0.0
  0
LINE
  5
13E
330
1F
100
AcDbEntity
  8
0-4_棚
  6
Continuous
 62
    40
370
    15
100
AcDbLine
 10
2226.796145865606
 20
-1201.666546383422
 30
0.0
 11
2516.796145865606
 21
-1201.666546383422
 31
0.0
  0
LINE
  5
13F
330
1F
100
AcDbEntity
  8
0-B_寸法
  6
Continuous
 62
   120
370
     5
100
AcDbLine
 10
2174.796145865608
 20
862.3334536165811
 30
0.0
 11
2174.796145865608
 21
762.3334536165811
 31
0.0
  0
LWPOLYLINE
  5
140
330
1F
100
AcDbEntity
  8
0-B_寸法
  6
Continuous
 62
     7
370
     9
100
AcDbPolyline
 90
        4
 70
     1
 43
2.0
 10
2175.796145865608
 20
862.3334536165811
 42
0.4142135623731
 10
2174.796145865608
 20
863.333453616581
 42
0.4142135623731
 10
2173.796145865608
 20
862.3334536165811
 42
0.4142135623731
 10
2174.796145865608
 20
861.3334536165812
 42
0.4142135623731
  0
LINE
  5
141
330
1F
100
AcDbEntity
  8
0-B_寸法
  6
Continuous
 62
   120
370
     5
100
AcDbLine
 10
2211.796145865606
 20
862.3334536165811
 30
0.0
 11
2174.796145865608
 21
862.3334536165811
 31
0.0
  0
LINE
  5
142
330
1F
100
AcDbEntity
  8
0-B_寸法
  6
Continuous
 62
   120
370
     5
100
AcDbLine
 10
2211.796145865606
 20
862.3334536165811
 30
0.0
 11
2211.796145865606
 21
762.3334536165811
 31
0.0
  0
LWPOLYLINE
  5
143
330
1F
100
AcDbEntity
  8
0-B_寸法
  6
Continuous
 62
     7
370
     9
100
AcDbPolyline
 90
        4
 70
     1
 43
2.0
 10
2212.796145865606
 20
862.3334536165811
 42
0.4142135623731
 10
2211.796145865606
 20
863.333453616581
 42
0.4142135623731
 10
2210.796145865606
 20
862.3334536165811
 42
0.4142135623731
 10
2211.796145865606
 20
861.3334536165812
 42
0.4142135623731
  0
LINE
  5
144
330
1F
100
AcDbEntity
  8
0-B_寸法
  6
Continuous
 62
   120
370
     5
100
AcDbLine
 10
2497.796145865605
 20
862.3334536165811
 30
0.0
 11
2497.796145865605
 21
762.3334536165811
 31
0.0
  0
LINE
  5
145
330
1F
100
AcDbEntity
  8
0-B_寸法
  6
Continuous
 62
   120
370
     5
100
AcDbLine
 10
2519.796145865603
 20
862.3334536165811
 30
0.0
 11
2519.796145865603
 21
762.3334536165811
 31
0.0
  0
LWPOLYLINE
  5
146
330
1F
100
AcDbEntity
  8
0-B_寸法
  6
Continuous
 62
     7
370
     9
100
AcDbPolyline
 90
        4
 70
     1
 43
2.0
 10
2498.796145865605
 20
862.3334536165811
 42
0.4142135623731
 10
2497.796145865605
 20
863.333453616581
 42
0.4142135623731
 10
2496.796145865605
 20
862.3334536165811
 42
0.4142135623731
 10
2497.796145865605
 20
861.3334536165812
 42
0.4142135623731
  0
LWPOLYLINE
  5
147
330
1F
100
AcDbEntity
  8
0-B_寸法
  6
Continuous
 62
     7
370
     9
100
AcDbPolyline
 90
        4
 70
     1
 43
2.0
 10
2520.796145865603
 20
862.3334536165811
 42
0.4142135623731
 10
2519.796145865603
 20
863.333453616581
 42
0.4142135623731
 10
2518.796145865603
 20
862.3334536165811
 42
0.4142135623731
 10
2519.796145865603
 20
861.3334536165812
 42
0.4142135623731
  0
LINE
  5
148
330
1F
100
AcDbEntity
  8
0-B_寸法
  6
Continuous
 62
   120
370
     5
100
AcDbLine
 10
2519.796145865603
 20
862.3334536165811
 30
0.0
 11
2497.796145865605
 21
862.3334536165811
 31
0.0
  0
LINE
  5
149
330
1F
100
AcDbEntity
  8
0-6_桟木
  6
Continuous
 62
    92
370
    13
100
AcDbLine
 10
2516.796145865606
 20
-1441.666546383419
 30
0.0
 11
2516.796145865606
 21
-1377.666546383421
 31
0.0
  0
CIRCLE
  5
14A
330
1F
100
AcDbEntity
  8
0-5_ダボ
  6
Continuous
 62
     7
370
     9
100
AcDbCircle
 10
2497.796145865605
 20
43.8334536165803
 30
0.0
 40
2.5
  0
CIRCLE
  5
14B
330
1F
100
AcDbEntity
  8
0-5_ダボ
  6
Continuous
 62
     7
370
     9
100
AcDbCircle
 10
2497.796145865605
 20
11.83345361657985
 30
0.0
 40
2.5
  0
CIRCLE
  5
14C
330
1F
100
AcDbEntity
  8
0-5_ダボ
  6
Continuous
 62
     7
370
     9
100
AcDbCircle
 10
2497.796145865605
 20
267.8334536165812
 30
0.0
 40
2.5
  0
CIRCLE
  5
14D
330
1F
100
AcDbEntity
  8
0-5_ダボ
  6
Continuous
 62
     7
370
     9
100
AcDbCircle
 10
2497.796145865605
 20
299.8334536165794
 30
0.0
 40
2.5
  0
MTEXT
  5
14E
330
1F
100
AcDbEntity
  8
0-B_寸法
  6
Continuous
 62
     7
370
   211
100
AcDbMText
 10
2258.136486657136
 20
863.5793914042017
 30
0.0
 40
45.72
 41
60.0
 46
0.0
 71
     7
 72
     1
  1
{\fＭＳ ゴシック|b0|i0|c128|p49;30}
 73
     1
 44
1.0
  0
LINE
  5
14F
330
1F
100
AcDbEntity
  8
0-A_文字
  6
Continuous
 62
     7
370
     9
100
AcDbLine
 10
2280.833050949823
 20
-160.9502042038412
 30
0.0
 11
2474.806422719058
 21
-160.9502042038412
 31
0.0
  0
LINE
  5
150
330
1F
100
AcDbEntity
  8
0-A_文字
  6
Continuous
 62
     7
370
     9
100
AcDbLine
 10
2256.481451154782
 20
-203.1284122944362
 30
0.0
 11
2280.833050949823
 21
-160.9502042038412
 31
0.0
  0
LINE
  5
151
330
1F
100
AcDbEntity
  8
0-B_寸法
  6
Continuous
 62
     7
370
     9
100
AcDbLine
 10
2510.554796727647
 20
-212.1665463834188
 30
0.0
 11
2527.323291290987
 21
-212.1665463834188
 31
0.0
  0
LINE
  5
152
330
1F
100
AcDbEntity
  8
0-C_ハッチ
  6
Continuous
 62
   120
370
     5
100
AcDbLine
 10
2181.796145865606
 20
-207.8927055435133
 30
0.0
 11
2185.0223050257
 21
-204.6665463834188
 31
0.0
  0
LINE
  5
153
330
1F
100
AcDbEntity
  8
0-C_ハッチ
  6
Continuous
 62
   120
370
     5
100
AcDbLine
 10
2184.164440649429
 20
-219.6665463834233
 30
0.0
 11
2199.164440649434
 21
-204.6665463834211
 31
0.0
  0
LINE
  5
154
330
1F
100
AcDbEntity
  8
0-C_ハッチ
  6
Continuous
 62
   120
370
     5
100
AcDbLine
 10
2198.306576273163
 20
-219.6665463834233
 30
0.0
 11
2213.306576273163
 21
-204.6665463834211
 31
0.0
  0
LINE
  5
155
330
1F
100
AcDbEntity
  8
0-C_ハッチ
  6
Continuous
 62
   120
370
     5
100
AcDbLine
 10
2212.448711896891
 20
-219.6665463834233
 30
0.0
 11
2227.448711896896
 21
-204.6665463834233
 31
0.0
  0
LINE
  5
156
330
1F
100
AcDbEntity
  8
0-C_ハッチ
  6
Continuous
 62
   120
370
     5
100
AcDbLine
 10
2226.590847520625
 20
-219.6665463834256
 30
0.0
 11
2241.590847520625
 21
-204.6665463834233
 31
0.0
  0
LINE
  5
157
330
1F
100
AcDbEntity
  8
0-C_ハッチ
  6
Continuous
 62
   120
370
     5
100
AcDbLine
 10
2240.732983144358
 20
-219.6665463834256
 30
0.0
 11
2255.732983144358
 21
-204.6665463834256
 31
0.0
  0
LINE
  5
158
330
1F
100
AcDbEntity
  8
0-C_ハッチ
  6
Continuous
 62
   120
370
     5
100
AcDbLine
 10
2254.87511876806
 20
-219.6665463834233
 30
0.0
 11
2269.87511876806
 21
-204.6665463834211
 31
0.0
  0
LINE
  5
159
330
1F
100
AcDbEntity
  8
0-C_ハッチ
  6
Continuous
 62
   120
370
     5
100
AcDbLine
 10
2269.017254391807
 20
-219.6665463834097
 30
0.0
 11
2284.017254391797
 21
-204.6665463834188
 31
0.0
  0
LINE
  5
15A
330
1F
100
AcDbEntity
  8
0-C_ハッチ
  6
Continuous
 62
   120
370
     5
100
AcDbLine
 10
2283.15939001554
 20
-219.666546383412
 30
0.0
 11
2298.159390015526
 21
-204.6665463834211
 31
0.0
  0
LINE
  5
15B
330
1F
100
AcDbEntity
  8
0-C_ハッチ
  6
Continuous
 62
   120
370
     5
100
AcDbLine
 10
2297.301525639269
 20
-219.666546383412
 30
0.0
 11
2312.301525639273
 21
-204.666546383412
 31
0.0
  0
LINE
  5
15C
330
1F
100
AcDbEntity
  8
0-C_ハッチ
  6
Continuous
 62
   120
370
     5
100
AcDbLine
 10
2311.443661263002
 20
-219.6665463834142
 30
0.0
 11
2326.443661263002
 21
-204.666546383412
 31
0.0
  0
LINE
  5
15D
330
1F
100
AcDbEntity
  8
0-C_ハッチ
  6
Continuous
 62
   120
370
     5
100
AcDbLine
 10
2325.585796886731
 20
-219.6665463834142
 30
0.0
 11
2340.585796886735
 21
-204.6665463834142
 31
0.0
  0
LINE
  5
15E
330
1F
100
AcDbEntity
  8
0-C_ハッチ
  6
Continuous
 62
   120
370
     5
100
AcDbLine
 10
2339.727932510464
 20
-219.6665463834165
 30
0.0
 11
2354.727932510464
 21
-204.6665463834142
 31
0.0
  0
LINE
  5
15F
330
1F
100
AcDbEntity
  8
0-C_ハッチ
  6
Continuous
 62
   120
370
     5
100
AcDbLine
 10
2353.870068134197
 20
-219.6665463834165
 30
0.0
 11
2368.870068134197
 21
-204.6665463834165
 31
0.0
  0
LINE
  5
160
330
1F
100
AcDbEntity
  8
0-C_ハッチ
  6
Continuous
 62
   120
370
     5
100
AcDbLine
 10
2368.012203757931
 20
-219.6665463834188
 30
0.0
 11
2383.012203757931
 21
-204.6665463834165
 31
0.0
  0
LINE
  5
161
330
1F
100
AcDbEntity
  8
0-C_ハッチ
  6
Continuous
 62
   120
370
     5
100
AcDbLine
 10
2382.154339381664
 20
-219.6665463834188
 30
0.0
 11
2397.154339381664
 21
-204.6665463834188
 31
0.0
  0
LINE
  5
162
330
1F
100
AcDbEntity
  8
0-C_ハッチ
  6
Continuous
 62
   120
370
     5
100
AcDbLine
 10
2396.296475005393
 20
-219.6665463834211
 30
0.0
 11
2411.296475005393
 21
-204.6665463834188
 31
0.0
  0
LINE
  5
163
330
1F
100
AcDbEntity
  8
0-C_ハッチ
  6
Continuous
 62
   120
370
     5
100
AcDbLine
 10
2410.438610629126
 20
-219.6665463834211
 30
0.0
 11
2425.438610629126
 21
-204.6665463834211
 31
0.0
  0
LINE
  5
164
330
1F
100
AcDbEntity
  8
0-C_ハッチ
  6
Continuous
 62
   120
370
     5
100
AcDbLine
 10
2424.58074625286
 20
-219.6665463834233
 30
0.0
 11
2439.58074625286
 21
-204.6665463834211
 31
0.0
  0
LINE
  5
165
330
1F
100
AcDbEntity
  8
0-C_ハッチ
  6
Continuous
 62
   120
370
     5
100
AcDbLine
 10
2438.722881876588
 20
-219.6665463834233
 30
0.0
 11
2453.722881876593
 21
-204.6665463834233
 31
0.0
  0
LINE
  5
166
330
1F
100
AcDbEntity
  8
0-C_ハッチ
  6
Continuous
 62
   120
370
     5
100
AcDbLine
 10
2452.865017500322
 20
-219.6665463834256
 30
0.0
 11
2467.865017500322
 21
-204.6665463834233
 31
0.0
  0
LINE
  5
167
330
1F
100
AcDbEntity
  8
0-C_ハッチ
  6
Continuous
 62
   120
370
     5
100
AcDbLine
 10
2467.007153124019
 20
-219.6665463834279
 30
0.0
 11
2482.007153124019
 21
-204.6665463834279
 31
0.0
  0
LINE
  5
168
330
1F
100
AcDbEntity
  8
0-C_ハッチ
  6
Continuous
 62
   120
370
     5
100
AcDbLine
 10
2481.14928874777
 20
-219.6665463834097
 30
0.0
 11
2496.149288747761
 21
-204.6665463834188
 31
0.0
  0
LINE
  5
169
330
1F
100
AcDbEntity
  8
0-C_ハッチ
  6
Continuous
 62
   120
370
     5
100
AcDbLine
 10
2495.291424371499
 20
-219.6665463834097
 30
0.0
 11
2510.29142437149
 21
-204.6665463834188
 31
0.0
  0
LINE
  5
16A
330
1F
100
AcDbEntity
  8
0-C_ハッチ
  6
Continuous
 62
   120
370
     5
100
AcDbLine
 10
2509.433559995232
 20
-219.666546383412
 30
0.0
 11
2516.796145865597
 21
-212.3039605130498
 31
0.0
  0
LINE
  5
16B
330
1F
100
AcDbEntity
  8
0-4_棚
  6
Continuous
 62
    40
370
    15
100
AcDbLine
 10
2181.796145865606
 20
-219.6665463834188
 30
0.0
 11
2516.796145865606
 21
-219.6665463834188
 31
0.0
  0
LINE
  5
16C
330
1F
100
AcDbEntity
  8
0-4_棚
  6
Continuous
 62
    40
370
    15
100
AcDbLine
 10
2181.796145865606
 20
-204.6665463834188
 30
0.0
 11
2516.796145865606
 21
-204.6665463834188
 31
0.0
  0
LINE
  5
16D
330
1F
100
AcDbEntity
  8
0-4_棚
  6
Continuous
 62
    40
370
    15
100
AcDbLine
 10
2181.796145865606
 20
-204.6665463834188
 30
0.0
 11
2181.796145865606
 21
-219.6665463834188
 31
0.0
  0
CIRCLE
  5
16E
330
1F
100
AcDbEntity
  8
0-5_ダボ
  6
Continuous
 62
     7
370
     9
100
AcDbCircle
 10
2211.796145865606
 20
-356.6154406332953
 30
0.0
 40
4.0
  0
CIRCLE
  5
16F
330
1F
100
AcDbEntity
  8
0-5_ダボ
  6
Continuous
 62
     7
370
     9
100
AcDbCircle
 10
2211.796145865606
 20
-388.6154406332957
 30
0.0
 40
4.0
  0
CIRCLE
  5
170
330
1F
100
AcDbEntity
  8
0-5_ダボ
  6
Continuous
 62
     7
370
     9
100
AcDbCircle
 10
2211.796145865606
 20
576.3334536165826
 30
0.0
 40
2.5
  0
LINE
  5
171
330
1F
100
AcDbEntity
  8
0-B_寸法
  6
JWW_HOJO
 62
     7
370
     9
100
AcDbLine
 10
2497.796145865605
 20
704.3334536165821
 30
0.0
 11
2497.796145865605
 21
-1448.666546383421
 31
0.0
  0
LINE
  5
172
330
1F
100
AcDbEntity
  8
0-6_桟木
  6
Continuous
 62
    92
370
    13
100
AcDbLine
 10
2516.796145865606
 20
633.3334536165808
 30
0.0
 11
2516.796145865606
 21
697.3334536165817
 31
0.0
  0
LINE
  5
173
330
1F
100
AcDbEntity
  8
0-1_本体
  6
Continuous
 62
    40
370
    15
100
AcDbLine
 10
2174.796145865608
 20
697.3334536165817
 30
0.0
 11
2516.796145865606
 21
697.3334536165817
 31
0.0
  0
LINE
  5
174
330
1F
100
AcDbEntity
  8
0-1_本体
  6
Continuous
 62
    40
370
    15
100
AcDbLine
 10
2516.796145865606
 20
704.3334536165821
 30
0.0
 11
2519.796145865603
 21
704.3334536165821
 31
0.0
  0
LINE
  5
175
330
1F
100
AcDbEntity
  8
0-1_本体
  6
Continuous
 62
    40
370
    15
100
AcDbLine
 10
2518.796145865604
 20
704.3334536165821
 30
0.0
 11
2518.796145865604
 21
-1448.666546383421
 31
0.0
  0
LINE
  5
176
330
1F
100
AcDbEntity
  8
0-1_本体
  6
Continuous
 62
    40
370
    15
100
AcDbLine
 10
2516.796145865606
 20
704.3334536165821
 30
0.0
 11
2516.796145865606
 21
-1448.666546383421
 31
0.0
  0
LINE
  5
177
330
1F
100
AcDbEntity
  8
0-1_本体
  6
Continuous
 62
    40
370
    15
100
AcDbLine
 10
2174.796145865608
 20
712.3334536165817
 30
0.0
 11
2174.796145865608
 21
697.3334536165817
 31
0.0
  0
LINE
  5
178
330
1F
100
AcDbEntity
  8
0-1_本体
  6
Continuous
 62
    40
370
    15
100
AcDbLine
 10
2519.796145865603
 20
712.3334536165817
 30
0.0
 11
2174.796145865608
 21
712.3334536165817
 31
0.0
  0
CIRCLE
  5
179
330
1F
100
AcDbEntity
  8
0-5_ダボ
  6
Continuous
 62
     7
370
     9
100
AcDbCircle
 10
2211.796145865606
 20
608.3334536165808
 30
0.0
 40
2.5
  0
CIRCLE
  5
17A
330
1F
100
AcDbEntity
  8
0-5_ダボ
  6
Continuous
 62
     7
370
     9
100
AcDbCircle
 10
2497.796145865605
 20
-1204.166546383422
 30
0.0
 40
2.5
  0
CIRCLE
  5
17B
330
1F
100
AcDbEntity
  8
0-5_ダボ
  6
Continuous
 62
     7
370
     9
100
AcDbCircle
 10
2497.796145865605
 20
-1172.166546383421
 30
0.0
 40
2.5
  0
CIRCLE
  5
17C
330
1F
100
AcDbEntity
  8
0-5_ダボ
  6
Continuous
 62
     7
370
     9
100
AcDbCircle
 10
2497.796145865605
 20
-1140.166546383421
 30
0.0
 40
2.5
  0
CIRCLE
  5
17D
330
1F
100
AcDbEntity
  8
0-5_ダボ
  6
Continuous
 62
     7
370
     9
100
AcDbCircle
 10
2497.796145865605
 20
-1108.16654638342
 30
0.0
 40
2.5
  0
CIRCLE
  5
17E
330
1F
100
AcDbEntity
  8
0-5_ダボ
  6
Continuous
 62
     7
370
     9
100
AcDbCircle
 10
2497.796145865605
 20
-1076.16654638342
 30
0.0
 40
2.5
  0
CIRCLE
  5
17F
330
1F
100
AcDbEntity
  8
0-5_ダボ
  6
Continuous
 62
     7
370
     9
100
AcDbCircle
 10
2497.796145865605
 20
-1044.166546383419
 30
0.0
 40
2.5
  0
CIRCLE
  5
180
330
1F
100
AcDbEntity
  8
0-5_ダボ
  6
Continuous
 62
     7
370
     9
100
AcDbCircle
 10
2497.796145865605
 20
-1012.166546383421
 30
0.0
 40
2.5
  0
CIRCLE
  5
181
330
1F
100
AcDbEntity
  8
0-5_ダボ
  6
Continuous
 62
     7
370
     9
100
AcDbCircle
 10
2497.796145865605
 20
-980.1665463834206
 30
0.0
 40
2.5
  0
CIRCLE
  5
182
330
1F
100
AcDbEntity
  8
0-5_ダボ
  6
Continuous
 62
     7
370
     9
100
AcDbCircle
 10
2497.796145865605
 20
-948.1665463834202
 30
0.0
 40
2.5
  0
CIRCLE
  5
183
330
1F
100
AcDbEntity
  8
0-5_ダボ
  6
Continuous
 62
     7
370
     9
100
AcDbCircle
 10
2497.796145865605
 20
-916.1665463834197
 30
0.0
 40
2.5
  0
CIRCLE
  5
184
330
1F
100
AcDbEntity
  8
0-5_ダボ
  6
Continuous
 62
     7
370
     9
100
AcDbCircle
 10
2497.796145865605
 20
-884.1665463834192
 30
0.0
 40
2.5
  0
CIRCLE
  5
185
330
1F
100
AcDbEntity
  8
0-5_ダボ
  6
Continuous
 62
     7
370
     9
100
AcDbCircle
 10
2497.796145865605
 20
-852.1665463834194
 30
0.0
 40
2.5
  0
CIRCLE
  5
186
330
1F
100
AcDbEntity
  8
0-5_ダボ
  6
Continuous
 62
     7
370
     9
100
AcDbCircle
 10
2497.796145865605
 20
-820.1665463834206
 30
0.0
 40
2.5
  0
CIRCLE
  5
187
330
1F
100
AcDbEntity
  8
0-5_ダボ
  6
Continuous
 62
     7
370
     9
100
AcDbCircle
 10
2497.796145865605
 20
-788.1665463834202
 30
0.0
 40
2.5
  0
CIRCLE
  5
188
330
1F
100
AcDbEntity
  8
0-5_ダボ
  6
Continuous
 62
     7
370
     9
100
AcDbCircle
 10
2497.796145865605
 20
-756.1665463834197
 30
0.0
 40
2.5
  0
CIRCLE
  5
189
330
1F
100
AcDbEntity
  8
0-5_ダボ
  6
Continuous
 62
     7
370
     9
100
AcDbCircle
 10
2497.796145865605
 20
-724.1665463834192
 30
0.0
 40
2.5
  0
CIRCLE
  5
18A
330
1F
100
AcDbEntity
  8
0-5_ダボ
  6
Continuous
 62
     7
370
     9
100
AcDbCircle
 10
2497.796145865605
 20
-692.1665463834194
 30
0.0
 40
2.5
  0
CIRCLE
  5
18B
330
1F
100
AcDbEntity
  8
0-5_ダボ
  6
Continuous
 62
     7
370
     9
100
AcDbCircle
 10
2497.796145865605
 20
-660.1665463834206
 30
0.0
 40
2.5
  0
CIRCLE
  5
18C
330
1F
100
AcDbEntity
  8
0-5_ダボ
  6
Continuous
 62
     7
370
     9
100
AcDbCircle
 10
2497.796145865605
 20
-628.1665463834202
 30
0.0
 40
2.5
  0
CIRCLE
  5
18D
330
1F
100
AcDbEntity
  8
0-5_ダボ
  6
Continuous
 62
     7
370
     9
100
AcDbCircle
 10
2497.796145865605
 20
-596.1665463834197
 30
0.0
 40
2.5
  0
CIRCLE
  5
18E
330
1F
100
AcDbEntity
  8
0-5_ダボ
  6
Continuous
 62
     7
370
     9
100
AcDbCircle
 10
2497.796145865605
 20
-564.1665463834192
 30
0.0
 40
2.5
  0
CIRCLE
  5
18F
330
1F
100
AcDbEntity
  8
0-5_ダボ
  6
Continuous
 62
     7
370
     9
100
AcDbCircle
 10
2497.796145865605
 20
-532.1665463834188
 30
0.0
 40
2.5
  0
CIRCLE
  5
190
330
1F
100
AcDbEntity
  8
0-5_ダボ
  6
Continuous
 62
     7
370
     9
100
AcDbCircle
 10
2497.796145865605
 20
-500.1665463834206
 30
0.0
 40
2.5
  0
CIRCLE
  5
191
330
1F
100
AcDbEntity
  8
0-5_ダボ
  6
Continuous
 62
     7
370
     9
100
AcDbCircle
 10
2497.796145865605
 20
-468.1665463834202
 30
0.0
 40
2.5
  0
CIRCLE
  5
192
330
1F
100
AcDbEntity
  8
0-5_ダボ
  6
Continuous
 62
     7
370
     9
100
AcDbCircle
 10
2497.796145865605
 20
-436.1665463834197
 30
0.0
 40
2.5
  0
CIRCLE
  5
193
330
1F
100
AcDbEntity
  8
0-5_ダボ
  6
Continuous
 62
     7
370
     9
100
AcDbCircle
 10
2497.796145865605
 20
-404.1665463834192
 30
0.0
 40
2.5
  0
CIRCLE
  5
194
330
1F
100
AcDbEntity
  8
0-5_ダボ
  6
Continuous
 62
     7
370
     9
100
AcDbCircle
 10
2497.796145865605
 20
-372.1665463834188
 30
0.0
 40
2.5
  0
CIRCLE
  5
195
330
1F
100
AcDbEntity
  8
0-5_ダボ
  6
Continuous
 62
     7
370
     9
100
AcDbCircle
 10
2497.796145865605
 20
-340.1665463834206
 30
0.0
 40
2.5
  0
CIRCLE
  5
196
330
1F
100
AcDbEntity
  8
0-5_ダボ
  6
Continuous
 62
     7
370
     9
100
AcDbCircle
 10
2497.796145865605
 20
-308.1665463834202
 30
0.0
 40
2.5
  0
CIRCLE
  5
197
330
1F
100
AcDbEntity
  8
0-5_ダボ
  6
Continuous
 62
     7
370
     9
100
AcDbCircle
 10
2497.796145865605
 20
-276.1665463834197
 30
0.0
 40
2.5
  0
CIRCLE
  5
198
330
1F
100
AcDbEntity
  8
0-5_ダボ
  6
Continuous
 62
     7
370
     9
100
AcDbCircle
 10
2497.796145865605
 20
-244.1665463834192
 30
0.0
 40
2.5
  0
CIRCLE
  5
199
330
1F
100
AcDbEntity
  8
0-5_ダボ
  6
Continuous
 62
     7
370
     9
100
AcDbCircle
 10
2497.796145865605
 20
-212.1665463834188
 30
0.0
 40
2.5
  0
CIRCLE
  5
19A
330
1F
100
AcDbEntity
  8
0-5_ダボ
  6
Continuous
 62
     7
370
     9
100
AcDbCircle
 10
2497.796145865605
 20
-180.1665463834183
 30
0.0
 40
2.5
  0
CIRCLE
  5
19B
330
1F
100
AcDbEntity
  8
0-5_ダボ
  6
Continuous
 62
     7
370
     9
100
AcDbCircle
 10
2497.796145865605
 20
-148.1665463834202
 30
0.0
 40
2.5
  0
CIRCLE
  5
19C
330
1F
100
AcDbEntity
  8
0-5_ダボ
  6
Continuous
 62
     7
370
     9
100
AcDbCircle
 10
2497.796145865605
 20
-116.1665463834197
 30
0.0
 40
2.5
  0
CIRCLE
  5
19D
330
1F
100
AcDbEntity
  8
0-5_ダボ
  6
Continuous
 62
     7
370
     9
100
AcDbCircle
 10
2497.796145865605
 20
-84.16654638341925
 30
0.0
 40
2.5
  0
CIRCLE
  5
19E
330
1F
100
AcDbEntity
  8
0-5_ダボ
  6
Continuous
 62
     7
370
     9
100
AcDbCircle
 10
2497.796145865605
 20
-52.16654638341879
 30
0.0
 40
2.5
  0
CIRCLE
  5
19F
330
1F
100
AcDbEntity
  8
0-5_ダボ
  6
Continuous
 62
     7
370
     9
100
AcDbCircle
 10
2497.796145865605
 20
-20.16654638341834
 30
0.0
 40
2.5
  0
CIRCLE
  5
1A0
330
1F
100
AcDbEntity
  8
0-5_ダボ
  6
Continuous
 62
     7
370
     9
100
AcDbCircle
 10
2497.796145865605
 20
107.8334536165812
 30
0.0
 40
2.5
  0
CIRCLE
  5
1A1
330
1F
100
AcDbEntity
  8
0-5_ダボ
  6
Continuous
 62
     7
370
     9
100
AcDbCircle
 10
2497.796145865605
 20
139.8334536165794
 30
0.0
 40
2.5
  0
CIRCLE
  5
1A2
330
1F
100
AcDbEntity
  8
0-5_ダボ
  6
Continuous
 62
     7
370
     9
100
AcDbCircle
 10
2497.796145865605
 20
171.8334536165798
 30
0.0
 40
2.5
  0
CIRCLE
  5
1A3
330
1F
100
AcDbEntity
  8
0-5_ダボ
  6
Continuous
 62
     7
370
     9
100
AcDbCircle
 10
2497.796145865605
 20
203.8334536165803
 30
0.0
 40
2.5
  0
CIRCLE
  5
1A4
330
1F
100
AcDbEntity
  8
0-5_ダボ
  6
Continuous
 62
     7
370
     9
100
AcDbCircle
 10
2497.796145865605
 20
235.8334536165808
 30
0.0
 40
2.5
  0
CIRCLE
  5
1A5
330
1F
100
AcDbEntity
  8
0-5_ダボ
  6
Continuous
 62
     7
370
     9
100
AcDbCircle
 10
2497.796145865605
 20
-1300.166546383421
 30
0.0
 40
2.5
  0
CIRCLE
  5
1A6
330
1F
100
AcDbEntity
  8
0-5_ダボ
  6
Continuous
 62
     7
370
     9
100
AcDbCircle
 10
2497.796145865605
 20
-1268.16654638342
 30
0.0
 40
2.5
  0
CIRCLE
  5
1A7
330
1F
100
AcDbEntity
  8
0-5_ダボ
  6
Continuous
 62
     7
370
     9
100
AcDbCircle
 10
2497.796145865605
 20
-1236.166546383421
 30
0.0
 40
2.5
  0
CIRCLE
  5
1A8
330
1F
100
AcDbEntity
  8
0-5_ダボ
  6
Continuous
 62
     7
370
     9
100
AcDbCircle
 10
2497.796145865605
 20
331.8334536165821
 30
0.0
 40
2.5
  0
CIRCLE
  5
1A9
330
1F
100
AcDbEntity
  8
0-5_ダボ
  6
Continuous
 62
     7
370
     9
100
AcDbCircle
 10
2497.796145865605
 20
363.8334536165803
 30
0.0
 40
2.5
  0
CIRCLE
  5
1AA
330
1F
100
AcDbEntity
  8
0-5_ダボ
  6
Continuous
 62
     7
370
     9
100
AcDbCircle
 10
2497.796145865605
 20
395.8334536165808
 30
0.0
 40
2.5
  0
CIRCLE
  5
1AB
330
1F
100
AcDbEntity
  8
0-5_ダボ
  6
Continuous
 62
     7
370
     9
100
AcDbCircle
 10
2497.796145865605
 20
427.8334536165812
 30
0.0
 40
2.5
  0
CIRCLE
  5
1AC
330
1F
100
AcDbEntity
  8
0-5_ダボ
  6
Continuous
 62
     7
370
     9
100
AcDbCircle
 10
2497.796145865605
 20
459.8334536165811
 30
0.0
 40
2.5
  0
CIRCLE
  5
1AD
330
1F
100
AcDbEntity
  8
0-5_ダボ
  6
Continuous
 62
     7
370
     9
100
AcDbCircle
 10
2497.796145865605
 20
491.8334536165821
 30
0.0
 40
2.5
  0
CIRCLE
  5
1AE
330
1F
100
AcDbEntity
  8
0-5_ダボ
  6
Continuous
 62
     7
370
     9
100
AcDbCircle
 10
2497.796145865605
 20
523.8334536165803
 30
0.0
 40
2.5
  0
CIRCLE
  5
1AF
330
1F
100
AcDbEntity
  8
0-5_ダボ
  6
Continuous
 62
     7
370
     9
100
AcDbCircle
 10
2497.796145865605
 20
555.8334536165808
 30
0.0
 40
2.5
  0
LINE
  5
1B0
330
1F
100
AcDbEntity
  8
0-1_本体
  6
Continuous
 62
    40
370
    15
100
AcDbLine
 10
2174.796145865608
 20
-1441.666546383419
 30
0.0
 11
2174.796145865608
 21
-1456.666546383419
 31
0.0
  0
LINE
  5
1B1
330
1F
100
AcDbEntity
  8
0-1_本体
  6
Continuous
 62
    40
370
    15
100
AcDbLine
 10
2174.796145865608
 20
-1441.666546383419
 30
0.0
 11
2516.796145865606
 21
-1441.666546383419
 31
0.0
  0
LINE
  5
1B2
330
1F
100
AcDbEntity
  8
0-1_本体
  6
Continuous
 62
    40
370
    15
100
AcDbLine
 10
2516.796145865606
 20
-1448.666546383421
 30
0.0
 11
2519.796145865603
 21
-1448.666546383421
 31
0.0
  0
LINE
  5
1B3
330
1F
100
AcDbEntity
  8
0-1_本体
  6
Continuous
 62
    40
370
    15
100
AcDbLine
 10
2519.796145865603
 20
-1456.666546383419
 30
0.0
 11
2174.796145865608
 21
-1456.666546383419
 31
0.0
  0
CIRCLE
  5
1B4
330
1F
100
AcDbEntity
  8
0-5_ダボ
  6
Continuous
 62
     7
370
     9
100
AcDbCircle
 10
2497.796145865605
 20
75.83345361658075
 30
0.0
 40
2.5
  0
LINE
  5
1B5
330
1F
100
AcDbEntity
  8
0-1_本体
  6
Continuous
 62
     7
370
     9
100
AcDbLine
 10
2519.796145865603
 20
-1456.666546383422
 30
0.0
 11
2519.796145865603
 21
712.3334536165817
 31
0.0
  0
LINE
  5
1B6
330
1F
100
AcDbEntity
  8
0-1_本体
  6
Continuous
 62
    40
370
    15
100
AcDbLine
 10
2519.796145865603
 20
704.3334536165821
 30
0.0
 11
2519.796145865603
 21
712.3334536165817
 31
0.0
  0
LINE
  5
1B7
330
1F
100
AcDbEntity
  8
0-1_本体
  6
Continuous
 62
    40
370
    15
100
AcDbLine
 10
2519.796145865603
 20
-1448.666546383421
 30
0.0
 11
2519.796145865603
 21
-1456.666546383419
 31
0.0
  0
MTEXT
  5
1B8
330
1F
100
AcDbEntity
  8
0-B_寸法
  6
Continuous
 62
     7
370
   211
100
AcDbMText
 10
1792.796145865605
 20
669.3293457131836
 30
0.0
 40
45.72
 41
30.0
 46
0.0
 71
     7
 72
     1
  1
{\fＭＳ ゴシック|b0|i0|c128|p49;3}
 11
6.123031769111886E-17
 21
1.0
 31
0.0
 73
     1
 44
1.0
  0
LINE
  5
1B9
330
1F
100
AcDbEntity
  8
0-A_文字
  6
Continuous
 62
     7
370
     9
100
AcDbLine
 10
2533.271117948894
 20
690.8692182069058
 30
0.0
 11
2610.304212003321
 21
824.2944509734042
 31
0.0
  0
LINE
  5
1BA
330
1F
100
AcDbEntity
  8
0-A_文字
  6
Continuous
 62
     7
370
     9
100
AcDbLine
 10
2610.304212003321
 20
824.2944509734042
 30
0.0
 11
2903.323872099764
 21
824.2944509734042
 31
0.0
  0
LINE
  5
1BB
330
1F
100
AcDbEntity
  8
0-6_桟木
  6
Continuous
 62
    92
370
    13
100
AcDbLine
 10
2501.796145865606
 20
-1441.666546383419
 30
0.0
 11
2516.796145865606
 21
-1441.666546383419
 31
0.0
  0
LINE
  5
1BC
330
1F
100
AcDbEntity
  8
0-6_桟木
  6
Continuous
 62
    92
370
    13
100
AcDbLine
 10
2501.796145865606
 20
-1377.666546383421
 30
0.0
 11
2501.796145865606
 21
-1441.666546383419
 31
0.0
  0
LINE
  5
1BD
330
1F
100
AcDbEntity
  8
0-6_桟木
  6
Continuous
 62
    92
370
    13
100
AcDbLine
 10
2516.796145865606
 20
-1377.666546383421
 30
0.0
 11
2501.796145865606
 21
-1377.666546383421
 31
0.0
  0
LINE
  5
1BE
330
1F
100
AcDbEntity
  8
0-6_桟木
  6
Continuous
 62
    92
370
    13
100
AcDbLine
 10
2501.796145865606
 20
633.3334536165808
 30
0.0
 11
2516.796145865606
 21
633.3334536165808
 31
0.0
  0
LINE
  5
1BF
330
1F
100
AcDbEntity
  8
0-6_桟木
  6
Continuous
 62
    92
370
    13
100
AcDbLine
 10
2501.796145865606
 20
697.3334536165817
 30
0.0
 11
2501.796145865606
 21
633.3334536165808
 31
0.0
  0
LINE
  5
1C0
330
1F
100
AcDbEntity
  8
0-6_桟木
  6
Continuous
 62
    92
370
    13
100
AcDbLine
 10
2516.796145865606
 20
697.3334536165817
 30
0.0
 11
2501.796145865606
 21
697.3334536165817
 31
0.0
  0
LINE
  5
1C1
330
1F
100
AcDbEntity
  8
0-B_寸法
  6
Continuous
 62
   120
370
     5
100
AcDbLine
 10
1802.796145865605
 20
-1456.666546383419
 30
0.0
 11
2102.796145865605
 21
-1456.666546383419
 31
0.0
  0
LWPOLYLINE
  5
1C2
330
1F
100
AcDbEntity
  8
0-B_寸法
  6
Continuous
 62
     7
370
     9
100
AcDbPolyline
 90
        4
 70
     1
 43
2.0
 10
1903.796145865605
 20
-1456.666546383419
 42
0.4142135623731
 10
1902.796145865605
 20
-1455.666546383419
 42
0.4142135623731
 10
1901.796145865605
 20
-1456.666546383419
 42
0.4142135623731
 10
1902.796145865605
 20
-1457.666546383419
 42
0.4142135623731
  0
LINE
  5
1C3
330
1F
100
AcDbEntity
  8
0-B_寸法
  6
Continuous
 62
   120
370
     5
100
AcDbLine
 10
1902.796145865605
 20
-1300.166546383421
 30
0.0
 11
1902.796145865605
 21
-1456.666546383419
 31
0.0
  0
LINE
  5
1C4
330
1F
100
AcDbEntity
  8
0-B_寸法
  6
Continuous
 62
   120
370
     5
100
AcDbLine
 10
1902.796145865605
 20
-1300.166546383421
 30
0.0
 11
2002.796145865605
 21
-1300.166546383421
 31
0.0
  0
LWPOLYLINE
  5
1C5
330
1F
100
AcDbEntity
  8
0-B_寸法
  6
Continuous
 62
     7
370
     9
100
AcDbPolyline
 90
        4
 70
     1
 43
2.0
 10
1903.796145865605
 20
-1300.166546383421
 42
0.4142135623731
 10
1902.796145865605
 20
-1299.166546383421
 42
0.4142135623731
 10
1901.796145865605
 20
-1300.166546383421
 42
0.4142135623731
 10
1902.796145865605
 20
-1301.166546383421
 42
0.4142135623731
  0
LINE
  5
1C6
330
1F
100
AcDbEntity
  8
0-B_寸法
  6
Continuous
 62
   120
370
     5
100
AcDbLine
 10
1902.796145865605
 20
555.8334536165808
 30
0.0
 11
1902.796145865605
 21
-1300.166546383421
 31
0.0
  0
LINE
  5
1C7
330
1F
100
AcDbEntity
  8
0-B_寸法
  6
Continuous
 62
   120
370
     5
100
AcDbLine
 10
1902.796145865605
 20
555.8334536165808
 30
0.0
 11
2002.796145865605
 21
555.8334536165808
 31
0.0
  0
LINE
  5
1C8
330
1F
100
AcDbEntity
  8
0-B_寸法
  6
Continuous
 62
   120
370
     5
100
AcDbLine
 10
1802.796145865605
 20
712.3334536165817
 30
0.0
 11
2102.796145865605
 21
712.3334536165817
 31
0.0
  0
LWPOLYLINE
  5
1C9
330
1F
100
AcDbEntity
  8
0-B_寸法
  6
Continuous
 62
     7
370
     9
100
AcDbPolyline
 90
        4
 70
     1
 43
2.0
 10
1903.796145865605
 20
555.8334536165808
 42
0.4142135623731
 10
1902.796145865605
 20
556.8334536165808
 42
0.4142135623731
 10
1901.796145865605
 20
555.8334536165808
 42
0.4142135623731
 10
1902.796145865605
 20
554.8334536165808
 42
0.4142135623731
  0
LWPOLYLINE
  5
1CA
330
1F
100
AcDbEntity
  8
0-B_寸法
  6
Continuous
 62
     7
370
     9
100
AcDbPolyline
 90
        4
 70
     1
 43
2.0
 10
1903.796145865605
 20
712.3334536165811
 42
0.4142135623731
 10
1902.796145865605
 20
713.333453616581
 42
0.4142135623731
 10
1901.796145865605
 20
712.3334536165811
 42
0.4142135623731
 10
1902.796145865605
 20
711.3334536165812
 42
0.4142135623731
  0
LINE
  5
1CB
330
1F
100
AcDbEntity
  8
0-B_寸法
  6
Continuous
 62
   120
370
     5
100
AcDbLine
 10
1902.796145865605
 20
712.3334536165811
 30
0.0
 11
1902.796145865605
 21
555.8334536165808
 31
0.0
  0
MTEXT
  5
1CC
330
1F
100
AcDbEntity
  8
0-B_寸法
  6
Continuous
 62
     7
370
   211
100
AcDbMText
 10
1992.796145865605
 20
600.1934536165822
 30
0.0
 40
45.72
 41
90.0
 46
0.0
 71
     7
 72
     1
  1
{\fＭＳ ゴシック|b0|i0|c128|p49;120}
 11
6.123031769111886E-17
 21
1.0
 31
0.0
 73
     1
 44
1.0
  0
LINE
  5
1CD
330
1F
100
AcDbEntity
  8
0-B_寸法
  6
Continuous
 62
   120
370
     5
100
AcDbLine
 10
2002.796145865605
 20
-372.1665463834188
 30
0.0
 11
2102.796145865605
 21
-372.1665463834188
 31
0.0
  0
LWPOLYLINE
  5
1CE
330
1F
100
AcDbEntity
  8
0-B_寸法
  6
Continuous
 62
     7
370
     9
100
AcDbPolyline
 90
        4
 70
     1
 43
2.0
 10
2003.796145865605
 20
-372.1665463834188
 42
0.4142135623731
 10
2002.796145865605
 20
-371.1665463834188
 42
0.4142135623731
 10
2001.796145865605
 20
-372.1665463834188
 42
0.4142135623731
 10
2002.796145865605
 20
-373.1665463834188
 42
0.4142135623731
  0
LINE
  5
1CF
330
1F
100
AcDbEntity
  8
0-B_寸法
  6
Continuous
 62
   120
370
     5
100
AcDbLine
 10
2002.796145865605
 20
-1336.666546383419
 30
0.0
 11
2002.796145865605
 21
-372.1665463834188
 31
0.0
  0
MTEXT
  5
1D0
330
1F
100
AcDbEntity
  8
0-B_寸法
  6
Continuous
 62
     7
370
   211
100
AcDbMText
 10
1892.796145865605
 20
551.9434536165812
 30
0.0
 40
45.72
 41
150.0
 46
0.0
 71
     7
 72
     1
  1
{\fＭＳ ゴシック|b0|i0|c128|p49;156.5}
 11
6.123031769111886E-17
 21
1.0
 31
0.0
 73
     1
 44
1.0
  0
LINE
  5
1D1
330
1F
100
AcDbEntity
  8
0-B_寸法
  6
Continuous
 62
   120
370
     5
100
AcDbLine
 10
2002.796145865605
 20
-1336.666546383419
 30
0.0
 11
2102.796145865605
 21
-1336.666546383419
 31
0.0
  0
LWPOLYLINE
  5
1D2
330
1F
100
AcDbEntity
  8
0-B_寸法
  6
Continuous
 62
     7
370
     9
100
AcDbPolyline
 90
        4
 70
     1
 43
2.0
 10
2003.796145865605
 20
-1336.666546383419
 42
0.4142135623731
 10
2002.796145865605
 20
-1335.666546383419
 42
0.4142135623731
 10
2001.796145865605
 20
-1336.666546383419
 42
0.4142135623731
 10
2002.796145865605
 20
-1337.666546383419
 42
0.4142135623731
  0
LWPOLYLINE
  5
1D3
330
1F
100
AcDbEntity
  8
0-B_寸法
  6
Continuous
 62
     7
370
     9
100
AcDbPolyline
 90
        4
 70
     1
 43
2.0
 10
2003.796145865605
 20
-1456.666546383419
 42
0.4142135623731
 10
2002.796145865605
 20
-1455.666546383419
 42
0.4142135623731
 10
2001.796145865605
 20
-1456.666546383419
 42
0.4142135623731
 10
2002.796145865605
 20
-1457.666546383419
 42
0.4142135623731
  0
LINE
  5
1D4
330
1F
100
AcDbEntity
  8
0-B_寸法
  6
Continuous
 62
   120
370
     5
100
AcDbLine
 10
2002.796145865605
 20
-1456.666546383419
 30
0.0
 11
2002.796145865605
 21
-1336.666546383419
 31
0.0
  0
MTEXT
  5
1D5
330
1F
100
AcDbEntity
  8
0-B_寸法
  6
Continuous
 62
     7
370
   211
100
AcDbMText
 10
2325.048278666532
 20
373.8405113299649
 30
0.0
 40
45.72
 41
90.0
 46
0.0
 71
     7
 72
     1
  1
{\fＭＳ ゴシック|b0|i0|c128|p49;P32}
 73
     1
 44
1.0
  0
LINE
  5
1D6
330
1F
100
AcDbEntity
  8
0-B_寸法
  6
Continuous
 62
   120
370
     5
100
AcDbLine
 10
2002.796145865605
 20
592.3334536165817
 30
0.0
 11
2002.796145865605
 21
-372.1665463834188
 31
0.0
  0
MTEXT
  5
1D7
330
1F
100
AcDbEntity
  8
0-B_寸法
  6
Continuous
 62
     7
370
   211
100
AcDbMText
 10
1992.796145865605
 20
27.9434536165803
 30
0.0
 40
45.72
 41
150.0
 46
0.0
 71
     7
 72
     1
  1
{\fＭＳ ゴシック|b0|i0|c128|p49;964.5}
 11
6.123031769111886E-17
 21
1.0
 31
0.0
 73
     1
 44
1.0
  0
LINE
  5
1D8
330
1F
100
AcDbEntity
  8
0-B_寸法
  6
Continuous
 62
   120
370
     5
100
AcDbLine
 10
2002.796145865605
 20
592.3334536165817
 30
0.0
 11
2102.796145865605
 21
592.3334536165817
 31
0.0
  0
LWPOLYLINE
  5
1D9
330
1F
100
AcDbEntity
  8
0-B_寸法
  6
Continuous
 62
     7
370
     9
100
AcDbPolyline
 90
        4
 70
     1
 43
2.0
 10
2003.796145865605
 20
592.3334536165817
 42
0.4142135623731
 10
2002.796145865605
 20
593.3334536165817
 42
0.4142135623731
 10
2001.796145865605
 20
592.3334536165817
 42
0.4142135623731
 10
2002.796145865605
 20
591.3334536165817
 42
0.4142135623731
  0
LWPOLYLINE
  5
1DA
330
1F
100
AcDbEntity
  8
0-B_寸法
  6
Continuous
 62
     7
370
     9
100
AcDbPolyline
 90
        4
 70
     1
 43
2.0
 10
2003.796145865605
 20
712.3334536165811
 42
0.4142135623731
 10
2002.796145865605
 20
713.333453616581
 42
0.4142135623731
 10
2001.796145865605
 20
712.3334536165811
 42
0.4142135623731
 10
2002.796145865605
 20
711.3334536165812
 42
0.4142135623731
  0
LINE
  5
1DB
330
1F
100
AcDbEntity
  8
0-B_寸法
  6
Continuous
 62
   120
370
     5
100
AcDbLine
 10
2002.796145865605
 20
712.3334536165811
 30
0.0
 11
2002.796145865605
 21
592.3334536165817
 31
0.0
  0
CIRCLE
  5
1DC
330
1F
100
AcDbEntity
  8
0-5_ダボ
  6
Continuous
 62
     7
370
     9
100
AcDbCircle
 10
2241.796145865606
 20
43.8334536165803
 30
0.0
 40
2.5
  0
CIRCLE
  5
1DD
330
1F
100
AcDbEntity
  8
0-5_ダボ
  6
Continuous
 62
     7
370
     9
100
AcDbCircle
 10
2241.796145865606
 20
11.83345361657985
 30
0.0
 40
2.5
  0
CIRCLE
  5
1DE
330
1F
100
AcDbEntity
  8
0-5_ダボ
  6
Continuous
 62
     7
370
     9
100
AcDbCircle
 10
2241.796145865606
 20
267.8334536165812
 30
0.0
 40
2.5
  0
CIRCLE
  5
1DF
330
1F
100
AcDbEntity
  8
0-5_ダボ
  6
Continuous
 62
     7
370
     9
100
AcDbCircle
 10
2241.796145865606
 20
299.8334536165794
 30
0.0
 40
2.5
  0
CIRCLE
  5
1E0
330
1F
100
AcDbEntity
  8
0-5_ダボ
  6
Continuous
 62
     7
370
     9
100
AcDbCircle
 10
2241.796145865606
 20
395.8334536165808
 30
0.0
 40
2.5
  0
CIRCLE
  5
1E1
330
1F
100
AcDbEntity
  8
0-5_ダボ
  6
Continuous
 62
     7
370
     9
100
AcDbCircle
 10
2241.796145865606
 20
427.8334536165812
 30
0.0
 40
2.5
  0
CIRCLE
  5
1E2
330
1F
100
AcDbEntity
  8
0-5_ダボ
  6
Continuous
 62
     7
370
     9
100
AcDbCircle
 10
2241.796145865606
 20
139.8334536165794
 30
0.0
 40
2.5
  0
CIRCLE
  5
1E3
330
1F
100
AcDbEntity
  8
0-5_ダボ
  6
Continuous
 62
     7
370
     9
100
AcDbCircle
 10
2241.796145865606
 20
171.8334536165798
 30
0.0
 40
2.5
  0
CIRCLE
  5
1E4
330
1F
100
AcDbEntity
  8
0-5_ダボ
  6
Continuous
 62
     7
370
     9
100
AcDbCircle
 10
2241.796145865606
 20
-116.1665463834197
 30
0.0
 40
2.5
  0
CIRCLE
  5
1E5
330
1F
100
AcDbEntity
  8
0-5_ダボ
  6
Continuous
 62
     7
370
     9
100
AcDbCircle
 10
2241.796145865606
 20
-84.16654638341925
 30
0.0
 40
2.5
  0
CIRCLE
  5
1E6
330
1F
100
AcDbEntity
  8
0-5_ダボ
  6
Continuous
 62
     7
370
     9
100
AcDbCircle
 10
2241.796145865606
 20
-372.1665463834188
 30
0.0
 40
2.5
  0
CIRCLE
  5
1E7
330
1F
100
AcDbEntity
  8
0-5_ダボ
  6
Continuous
 62
     7
370
     9
100
AcDbCircle
 10
2241.796145865606
 20
-340.1665463834206
 30
0.0
 40
2.5
  0
CIRCLE
  5
1E8
330
1F
100
AcDbEntity
  8
0-5_ダボ
  6
Continuous
 62
     7
370
     9
100
AcDbCircle
 10
2241.796145865606
 20
-628.1665463834202
 30
0.0
 40
2.5
  0
CIRCLE
  5
1E9
330
1F
100
AcDbEntity
  8
0-5_ダボ
  6
Continuous
 62
     7
370
     9
100
AcDbCircle
 10
2241.796145865606
 20
-596.1665463834197
 30
0.0
 40
2.5
  0
CIRCLE
  5
1EA
330
1F
100
AcDbEntity
  8
0-5_ダボ
  6
Continuous
 62
     7
370
     9
100
AcDbCircle
 10
2241.796145865606
 20
-884.1665463834192
 30
0.0
 40
2.5
  0
CIRCLE
  5
1EB
330
1F
100
AcDbEntity
  8
0-5_ダボ
  6
Continuous
 62
     7
370
     9
100
AcDbCircle
 10
2241.796145865606
 20
-852.1665463834194
 30
0.0
 40
2.5
  0
CIRCLE
  5
1EC
330
1F
100
AcDbEntity
  8
0-5_ダボ
  6
Continuous
 62
     7
370
     9
100
AcDbCircle
 10
2241.796145865606
 20
-1140.166546383421
 30
0.0
 40
2.5
  0
CIRCLE
  5
1ED
330
1F
100
AcDbEntity
  8
0-5_ダボ
  6
Continuous
 62
     7
370
     9
100
AcDbCircle
 10
2241.796145865606
 20
-1108.16654638342
 30
0.0
 40
2.5
  0
CIRCLE
  5
1EE
330
1F
100
AcDbEntity
  8
0-5_ダボ
  6
Continuous
 62
     7
370
     9
100
AcDbCircle
 10
2241.796145865606
 20
-1204.166546383422
 30
0.0
 40
2.5
  0
CIRCLE
  5
1EF
330
1F
100
AcDbEntity
  8
0-5_ダボ
  6
Continuous
 62
     7
370
     9
100
AcDbCircle
 10
2241.796145865606
 20
-1172.166546383421
 30
0.0
 40
2.5
  0
CIRCLE
  5
1F0
330
1F
100
AcDbEntity
  8
0-5_ダボ
  6
Continuous
 62
     7
370
     9
100
AcDbCircle
 10
2241.796145865606
 20
-1076.16654638342
 30
0.0
 40
2.5
  0
CIRCLE
  5
1F1
330
1F
100
AcDbEntity
  8
0-5_ダボ
  6
Continuous
 62
     7
370
     9
100
AcDbCircle
 10
2241.796145865606
 20
-1044.166546383419
 30
0.0
 40
2.5
  0
CIRCLE
  5
1F2
330
1F
100
AcDbEntity
  8
0-5_ダボ
  6
Continuous
 62
     7
370
     9
100
AcDbCircle
 10
2241.796145865606
 20
-1012.166546383421
 30
0.0
 40
2.5
  0
CIRCLE
  5
1F3
330
1F
100
AcDbEntity
  8
0-5_ダボ
  6
Continuous
 62
     7
370
     9
100
AcDbCircle
 10
2241.796145865606
 20
-980.1665463834206
 30
0.0
 40
2.5
  0
CIRCLE
  5
1F4
330
1F
100
AcDbEntity
  8
0-5_ダボ
  6
Continuous
 62
     7
370
     9
100
AcDbCircle
 10
2241.796145865606
 20
-948.1665463834202
 30
0.0
 40
2.5
  0
CIRCLE
  5
1F5
330
1F
100
AcDbEntity
  8
0-5_ダボ
  6
Continuous
 62
     7
370
     9
100
AcDbCircle
 10
2241.796145865606
 20
-916.1665463834197
 30
0.0
 40
2.5
  0
CIRCLE
  5
1F6
330
1F
100
AcDbEntity
  8
0-5_ダボ
  6
Continuous
 62
     7
370
     9
100
AcDbCircle
 10
2241.796145865606
 20
-820.1665463834206
 30
0.0
 40
2.5
  0
CIRCLE
  5
1F7
330
1F
100
AcDbEntity
  8
0-5_ダボ
  6
Continuous
 62
     7
370
     9
100
AcDbCircle
 10
2241.796145865606
 20
-788.1665463834202
 30
0.0
 40
2.5
  0
CIRCLE
  5
1F8
330
1F
100
AcDbEntity
  8
0-5_ダボ
  6
Continuous
 62
     7
370
     9
100
AcDbCircle
 10
2241.796145865606
 20
-756.1665463834197
 30
0.0
 40
2.5
  0
CIRCLE
  5
1F9
330
1F
100
AcDbEntity
  8
0-5_ダボ
  6
Continuous
 62
     7
370
     9
100
AcDbCircle
 10
2241.796145865606
 20
-724.1665463834192
 30
0.0
 40
2.5
  0
CIRCLE
  5
1FA
330
1F
100
AcDbEntity
  8
0-5_ダボ
  6
Continuous
 62
     7
370
     9
100
AcDbCircle
 10
2241.796145865606
 20
-692.1665463834194
 30
0.0
 40
2.5
  0
CIRCLE
  5
1FB
330
1F
100
AcDbEntity
  8
0-5_ダボ
  6
Continuous
 62
     7
370
     9
100
AcDbCircle
 10
2241.796145865606
 20
-660.1665463834206
 30
0.0
 40
2.5
  0
CIRCLE
  5
1FC
330
1F
100
AcDbEntity
  8
0-5_ダボ
  6
Continuous
 62
     7
370
     9
100
AcDbCircle
 10
2241.796145865606
 20
-564.1665463834192
 30
0.0
 40
2.5
  0
CIRCLE
  5
1FD
330
1F
100
AcDbEntity
  8
0-5_ダボ
  6
Continuous
 62
     7
370
     9
100
AcDbCircle
 10
2241.796145865606
 20
-532.1665463834188
 30
0.0
 40
2.5
  0
CIRCLE
  5
1FE
330
1F
100
AcDbEntity
  8
0-5_ダボ
  6
Continuous
 62
     7
370
     9
100
AcDbCircle
 10
2241.796145865606
 20
-500.1665463834206
 30
0.0
 40
2.5
  0
CIRCLE
  5
1FF
330
1F
100
AcDbEntity
  8
0-5_ダボ
  6
Continuous
 62
     7
370
     9
100
AcDbCircle
 10
2241.796145865606
 20
-468.1665463834202
 30
0.0
 40
2.5
  0
CIRCLE
  5
200
330
1F
100
AcDbEntity
  8
0-5_ダボ
  6
Continuous
 62
     7
370
     9
100
AcDbCircle
 10
2241.796145865606
 20
-436.1665463834197
 30
0.0
 40
2.5
  0
CIRCLE
  5
201
330
1F
100
AcDbEntity
  8
0-5_ダボ
  6
Continuous
 62
     7
370
     9
100
AcDbCircle
 10
2241.796145865606
 20
-404.1665463834192
 30
0.0
 40
2.5
  0
CIRCLE
  5
202
330
1F
100
AcDbEntity
  8
0-5_ダボ
  6
Continuous
 62
     7
370
     9
100
AcDbCircle
 10
2241.796145865606
 20
-308.1665463834202
 30
0.0
 40
2.5
  0
CIRCLE
  5
203
330
1F
100
AcDbEntity
  8
0-5_ダボ
  6
Continuous
 62
     7
370
     9
100
AcDbCircle
 10
2241.796145865606
 20
-276.1665463834197
 30
0.0
 40
2.5
  0
CIRCLE
  5
204
330
1F
100
AcDbEntity
  8
0-5_ダボ
  6
Continuous
 62
     7
370
     9
100
AcDbCircle
 10
2241.796145865606
 20
-244.1665463834192
 30
0.0
 40
2.5
  0
CIRCLE
  5
205
330
1F
100
AcDbEntity
  8
0-5_ダボ
  6
Continuous
 62
     7
370
     9
100
AcDbCircle
 10
2241.796145865606
 20
-212.1665463834188
 30
0.0
 40
2.5
  0
CIRCLE
  5
206
330
1F
100
AcDbEntity
  8
0-5_ダボ
  6
Continuous
 62
     7
370
     9
100
AcDbCircle
 10
2241.796145865606
 20
-180.1665463834183
 30
0.0
 40
2.5
  0
CIRCLE
  5
207
330
1F
100
AcDbEntity
  8
0-5_ダボ
  6
Continuous
 62
     7
370
     9
100
AcDbCircle
 10
2241.796145865606
 20
-148.1665463834202
 30
0.0
 40
2.5
  0
CIRCLE
  5
208
330
1F
100
AcDbEntity
  8
0-5_ダボ
  6
Continuous
 62
     7
370
     9
100
AcDbCircle
 10
2241.796145865606
 20
-52.16654638341879
 30
0.0
 40
2.5
  0
CIRCLE
  5
209
330
1F
100
AcDbEntity
  8
0-5_ダボ
  6
Continuous
 62
     7
370
     9
100
AcDbCircle
 10
2241.796145865606
 20
-20.16654638341834
 30
0.0
 40
2.5
  0
CIRCLE
  5
20A
330
1F
100
AcDbEntity
  8
0-5_ダボ
  6
Continuous
 62
     7
370
     9
100
AcDbCircle
 10
2241.796145865606
 20
107.8334536165812
 30
0.0
 40
2.5
  0
CIRCLE
  5
20B
330
1F
100
AcDbEntity
  8
0-5_ダボ
  6
Continuous
 62
     7
370
     9
100
AcDbCircle
 10
2241.796145865606
 20
203.8334536165803
 30
0.0
 40
2.5
  0
CIRCLE
  5
20C
330
1F
100
AcDbEntity
  8
0-5_ダボ
  6
Continuous
 62
     7
370
     9
100
AcDbCircle
 10
2241.796145865606
 20
235.8334536165808
 30
0.0
 40
2.5
  0
CIRCLE
  5
20D
330
1F
100
AcDbEntity
  8
0-5_ダボ
  6
Continuous
 62
     7
370
     9
100
AcDbCircle
 10
2241.796145865606
 20
331.8334536165821
 30
0.0
 40
2.5
  0
CIRCLE
  5
20E
330
1F
100
AcDbEntity
  8
0-5_ダボ
  6
Continuous
 62
     7
370
     9
100
AcDbCircle
 10
2241.796145865606
 20
363.8334536165803
 30
0.0
 40
2.5
  0
CIRCLE
  5
20F
330
1F
100
AcDbEntity
  8
0-5_ダボ
  6
Continuous
 62
     7
370
     9
100
AcDbCircle
 10
2241.796145865606
 20
459.8334536165811
 30
0.0
 40
2.5
  0
CIRCLE
  5
210
330
1F
100
AcDbEntity
  8
0-5_ダボ
  6
Continuous
 62
     7
370
     9
100
AcDbCircle
 10
2241.796145865606
 20
491.8334536165821
 30
0.0
 40
2.5
  0
CIRCLE
  5
211
330
1F
100
AcDbEntity
  8
0-5_ダボ
  6
Continuous
 62
     7
370
     9
100
AcDbCircle
 10
2241.796145865606
 20
523.8334536165803
 30
0.0
 40
2.5
  0
CIRCLE
  5
212
330
1F
100
AcDbEntity
  8
0-5_ダボ
  6
Continuous
 62
     7
370
     9
100
AcDbCircle
 10
2241.796145865606
 20
555.8334536165808
 30
0.0
 40
2.5
  0
CIRCLE
  5
213
330
1F
100
AcDbEntity
  8
0-5_ダボ
  6
Continuous
 62
     7
370
     9
100
AcDbCircle
 10
2241.796145865606
 20
-1268.16654638342
 30
0.0
 40
2.5
  0
CIRCLE
  5
214
330
1F
100
AcDbEntity
  8
0-5_ダボ
  6
Continuous
 62
     7
370
     9
100
AcDbCircle
 10
2241.796145865606
 20
-1236.166546383421
 30
0.0
 40
2.5
  0
CIRCLE
  5
215
330
1F
100
AcDbEntity
  8
0-5_ダボ
  6
Continuous
 62
     7
370
     9
100
AcDbCircle
 10
2241.796145865606
 20
-1300.166546383421
 30
0.0
 40
2.5
  0
CIRCLE
  5
216
330
1F
100
AcDbEntity
  8
0-5_ダボ
  6
Continuous
 62
     7
370
     9
100
AcDbCircle
 10
2241.796145865606
 20
75.83345361658075
 30
0.0
 40
2.5
  0
LINE
  5
217
330
1F
100
AcDbEntity
  8
0-B_寸法
  6
JWW_HOJO
 62
     7
370
     9
100
AcDbLine
 10
2241.796145865606
 20
710.3334536165812
 30
0.0
 11
2241.796145865606
 21
-1456.666546383419
 31
0.0
  0
LINE
  5
218
330
1F
100
AcDbEntity
  8
0-B_寸法
  6
Continuous
 62
   120
370
     5
100
AcDbLine
 10
2241.796145865606
 20
862.3334536165811
 30
0.0
 11
2211.796145865606
 21
862.3334536165811
 31
0.0
  0
LINE
  5
219
330
1F
100
AcDbEntity
  8
0-B_寸法
  6
Continuous
 62
   120
370
     5
100
AcDbLine
 10
2241.796145865606
 20
862.3334536165811
 30
0.0
 11
2241.796145865606
 21
762.3334536165811
 31
0.0
  0
LWPOLYLINE
  5
21A
330
1F
100
AcDbEntity
  8
0-B_寸法
  6
Continuous
 62
     7
370
     9
100
AcDbPolyline
 90
        4
 70
     1
 43
2.0
 10
2242.796145865606
 20
862.3334536165811
 42
0.4142135623731
 10
2241.796145865606
 20
863.333453616581
 42
0.4142135623731
 10
2240.796145865606
 20
862.3334536165811
 42
0.4142135623731
 10
2241.796145865606
 20
861.3334536165812
 42
0.4142135623731
  0
LINE
  5
21B
330
1F
100
AcDbEntity
  8
0-B_寸法
  6
Continuous
 62
   120
370
     5
100
AcDbLine
 10
2497.796145865605
 20
862.3334536165811
 30
0.0
 11
2241.796145865606
 21
862.3334536165811
 31
0.0
  0
CIRCLE
  5
21C
330
1F
100
AcDbEntity
  8
0-6_桟木
  6
Continuous
 62
     7
370
     9
100
AcDbCircle
 10
2509.296145865606
 20
681.333453616582
 30
0.0
 40
4.0
  0
CIRCLE
  5
21D
330
1F
100
AcDbEntity
  8
0-6_桟木
  6
Continuous
 62
     7
370
     9
100
AcDbCircle
 10
2509.296145865606
 20
649.3334536165821
 30
0.0
 40
4.0
  0
LINE
  5
21E
330
1F
100
AcDbEntity
  8
0-0_補助線
  6
JWW_HOJO
 62
   120
370
     5
100
AcDbLine
 10
2669.796145865603
 20
862.3334536165811
 30
0.0
 11
2669.796145865603
 21
-1851.16654638342
 31
0.0
  0
LINE
  5
21F
330
1F
100
AcDbEntity
  8
0-0_補助線
  6
JWW_HOJO
 62
   120
370
     5
100
AcDbLine
 10
2486.795591553865
 20
862.3334536165811
 30
0.0
 11
2486.795591553865
 21
-1851.16654638342
 31
0.0
  0
LINE
  5
220
330
1F
100
AcDbEntity
  8
0-0_補助線
  6
JWW_HOJO
 62
   120
370
     5
100
AcDbLine
 10
2181.796145865606
 20
-1851.16654638342
 30
0.0
 11
2181.796145865606
 21
862.3334536165811
 31
0.0
  0
LINE
  5
221
330
1F
100
AcDbEntity
  8
0-0_補助線
  6
JWW_HOJO
 62
   120
370
     5
100
AcDbLine
 10
2246.795789505723
 20
862.3334536165811
 30
0.0
 11
2246.795789505723
 21
-1851.16654638342
 31
0.0
  0
LINE
  5
222
330
1F
100
AcDbEntity
  8
0-0_補助線
  6
JWW_HOJO
 62
   120
370
     5
100
AcDbLine
 10
2569.796145865603
 20
862.3334536165811
 30
0.0
 11
2569.796145865603
 21
-1851.16654638342
 31
0.0
  0
LINE
  5
223
330
1F
100
AcDbEntity
  8
0-0_補助線
  6
JWW_HOJO
 62
     7
370
     9
100
AcDbLine
 10
2519.796145865603
 20
-1851.16654638342
 30
0.0
 11
2519.796145865603
 21
862.3334536165811
 31
0.0
  0
LINE
  5
224
330
1F
100
AcDbEntity
  8
0-0_補助線
  6
JWW_HOJO
 62
   120
370
     5
100
AcDbLine
 10
2769.796145865603
 20
862.3334536165811
 30
0.0
 11
2769.796145865603
 21
-1851.16654638342
 31
0.0
  0
LINE
  5
225
330
1F
100
AcDbEntity
  8
0-0_補助線
  6
JWW_HOJO
 62
     7
370
     9
100
AcDbLine
 10
2174.796145865608
 20
-1851.16654638342
 30
0.0
 11
2174.796145865608
 21
862.3334536165811
 31
0.0
  0
LINE
  5
226
330
1F
100
AcDbEntity
  8
0-0_補助線
  6
JWW_HOJO
 62
   120
370
     5
100
AcDbLine
 10
1902.796145865605
 20
-1851.16654638342
 30
0.0
 11
1902.796145865605
 21
862.3334536165811
 31
0.0
  0
LINE
  5
227
330
1F
100
AcDbEntity
  8
0-0_補助線
  6
JWW_HOJO
 62
   120
370
     5
100
AcDbLine
 10
1802.796145865605
 20
862.3334536165811
 30
0.0
 11
1802.796145865605
 21
-1851.16654638342
 31
0.0
  0
LINE
  5
228
330
1F
100
AcDbEntity
  8
0-0_補助線
  6
JWW_HOJO
 62
   120
370
     5
100
AcDbLine
 10
2002.796145865605
 20
862.3334536165811
 30
0.0
 11
2002.796145865605
 21
-1851.16654638342
 31
0.0
  0
LINE
  5
229
330
1F
100
AcDbEntity
  8
0-0_補助線
  6
JWW_HOJO
 62
   120
370
     5
100
AcDbLine
 10
1702.796145865605
 20
862.3334536165811
 30
0.0
 11
1702.796145865605
 21
-1851.16654638342
 31
0.0
  0
LINE
  5
22A
330
1F
100
AcDbEntity
  8
0-0_補助線
  6
JWW_HOJO
 62
   120
370
     5
100
AcDbLine
 10
2102.796145865605
 20
862.3334536165811
 30
0.0
 11
2102.796145865605
 21
-1851.16654638342
 31
0.0
  0
LWPOLYLINE
  5
22B
330
1F
100
AcDbEntity
  8
0-B_寸法
  6
Continuous
 62
     7
370
     9
100
AcDbPolyline
 90
        4
 70
     1
 43
2.0
 10
1803.796145865605
 20
712.3334536165817
 42
0.4142135623731
 10
1802.796145865605
 20
713.3334536165817
 42
0.4142135623731
 10
1801.796145865605
 20
712.3334536165817
 42
0.4142135623731
 10
1802.796145865605
 20
711.3334536165817
 42
0.4142135623731
  0
LINE
  5
22C
330
1F
100
AcDbEntity
  8
0-B_寸法
  6
Continuous
 62
   120
370
     5
100
AcDbLine
 10
1802.796145865605
 20
709.3334536165798
 30
0.0
 11
1802.796145865605
 21
712.3334536165817
 31
0.0
  0
LWPOLYLINE
  5
22D
330
1F
100
AcDbEntity
  8
0-B_寸法
  6
Continuous
 62
     7
370
     9
100
AcDbPolyline
 90
        4
 70
     1
 43
2.0
 10
1803.796145865605
 20
-1456.666546383419
 42
0.4142135623731
 10
1802.796145865605
 20
-1455.666546383419
 42
0.4142135623731
 10
1801.796145865605
 20
-1456.666546383419
 42
0.4142135623731
 10
1802.796145865605
 20
-1457.666546383419
 42
0.4142135623731
  0
LINE
  5
22E
330
1F
100
AcDbEntity
  8
0-B_寸法
  6
Continuous
 62
   120
370
     5
100
AcDbLine
 10
1802.796145865605
 20
-1456.666546383419
 30
0.0
 11
1802.796145865605
 21
-1453.66654638342
 31
0.0
  0
LWPOLYLINE
  5
22F
330
1F
100
AcDbEntity
  8
0-B_寸法
  6
Continuous
 62
     7
370
     9
100
AcDbPolyline
 90
        4
 70
     1
 43
2.0
 10
1803.796145865605
 20
709.3334536165798
 42
0.4142135623731
 10
1802.796145865605
 20
710.3334536165798
 42
0.4142135623731
 10
1801.796145865605
 20
709.3334536165798
 42
0.4142135623731
 10
1802.796145865605
 20
708.3334536165798
 42
0.4142135623731
  0
LWPOLYLINE
  5
230
330
1F
100
AcDbEntity
  8
0-B_寸法
  6
Continuous
 62
     7
370
     9
100
AcDbPolyline
 90
        4
 70
     1
 43
2.0
 10
1803.796145865605
 20
-1453.66654638342
 42
0.4142135623731
 10
1802.796145865605
 20
-1452.66654638342
 42
0.4142135623731
 10
1801.796145865605
 20
-1453.66654638342
 42
0.4142135623731
 10
1802.796145865605
 20
-1454.66654638342
 42
0.4142135623731
  0
LINE
  5
231
330
1F
100
AcDbEntity
  8
0-B_寸法
  6
Continuous
 62
   120
370
     5
100
AcDbLine
 10
1802.796145865605
 20
-1453.66654638342
 30
0.0
 11
1802.796145865605
 21
709.3334536165798
 31
0.0
  0
LINE
  5
232
330
1F
100
AcDbEntity
  8
0-B_寸法
  6
Continuous
 62
   120
370
     5
100
AcDbLine
 10
1802.796145865605
 20
709.3334536165798
 30
0.0
 11
2102.796145865605
 21
709.3334536165798
 31
0.0
  0
LINE
  5
233
330
1F
100
AcDbEntity
  8
0-B_寸法
  6
Continuous
 62
   120
370
     5
100
AcDbLine
 10
1802.796145865605
 20
-1453.66654638342
 30
0.0
 11
2102.796145865605
 21
-1453.66654638342
 31
0.0
  0
MTEXT
  5
234
330
1F
100
AcDbEntity
  8
0-B_寸法
  6
Continuous
 62
     7
370
   211
100
AcDbMText
 10
1892.796145865605
 20
-454.3065463834188
 30
0.0
 40
45.72
 41
150.0
 46
0.0
 71
     7
 72
     1
  1
{\fＭＳ ゴシック|b0|i0|c128|p49;1,856}
 11
6.123031769111886E-17
 21
1.0
 31
0.0
 73
     1
 44
1.0
  0
MTEXT
  5
235
330
1F
100
AcDbEntity
  8
0-B_寸法
  6
Continuous
 62
     7
370
   211
100
AcDbMText
 10
1792.796145865605
 20
-544.3065463834199
 30
0.0
 40
45.71999999999998
 41
330.0
 46
0.0
 71
     7
 72
     1
  1
{\fＭＳ ゴシック|b0|i0|c128|p49;ＤＨ＝2,163}
 11
6.123031769111886E-17
 21
1.0
 31
0.0
 73
     1
 44
1.0
  0
MTEXT
  5
236
330
1F
100
AcDbEntity
  8
0-B_寸法
  6
Continuous
 62
     7
370
   211
100
AcDbMText
 10
1992.796145865605
 20
-936.5565463834201
 30
0.0
 40
45.72
 41
150.0
 46
0.0
 71
     7
 72
     1
  1
{\fＭＳ ゴシック|b0|i0|c128|p49;964.5}
 11
6.123031769111886E-17
 21
1.0
 31
0.0
 73
     1
 44
1.0
  0
LINE
  5
237
330
1F
100
AcDbEntity
  8
0-6_桟木
  6
Continuous
 62
     7
370
     9
100
AcDbLine
 10
2519.796145865608
 20
-1456.666546383426
 30
0.0
 11
2549.796145865608
 21
-1561.666546383426
 31
0.0
  0
LINE
  5
238
330
1F
100
AcDbEntity
  8
0-6_桟木
  6
Continuous
 62
     7
370
     9
100
AcDbLine
 10
2519.796145865608
 20
-1561.666546383426
 30
0.0
 11
2549.796145865608
 21
-1456.666546383426
 31
0.0
  0
LINE
  5
239
330
1F
100
AcDbEntity
  8
0-6_桟木
  6
Continuous
 62
    92
370
    13
100
AcDbLine
 10
2549.796145865608
 20
-1561.666546383426
 30
0.0
 11
2549.796145865608
 21
-1456.666546383426
 31
0.0
  0
LINE
  5
23A
330
1F
100
AcDbEntity
  8
0-6_桟木
  6
Continuous
 62
    92
370
    13
100
AcDbLine
 10
2519.796145865608
 20
-1561.666546383426
 30
0.0
 11
2549.796145865608
 21
-1561.666546383426
 31
0.0
  0
LINE
  5
23B
330
1F
100
AcDbEntity
  8
0-6_桟木
  6
Continuous
 62
    92
370
    13
100
AcDbLine
 10
2549.796145865608
 20
-1456.666546383426
 30
0.0
 11
2519.796145865608
 21
-1456.666546383426
 31
0.0
  0
LINE
  5
23C
330
1F
100
AcDbEntity
  8
0-6_桟木
  6
Continuous
 62
    92
370
    13
100
AcDbLine
 10
2519.796145865608
 20
-1456.666546383426
 30
0.0
 11
2519.796145865608
 21
-1561.666546383426
 31
0.0
  0
LINE
  5
23D
330
1F
100
AcDbEntity
  8
0-1_本体
  6
Continuous
 62
    40
370
    15
100
AcDbLine
 10
2519.796145865608
 20
-1553.666546383428
 30
0.0
 11
2519.796145865608
 21
-1561.666546383426
 31
0.0
  0
LINE
  5
23E
330
1F
100
AcDbEntity
  8
0-3_扉仕上
  6
Continuous
 62
     7
370
     9
100
AcDbLine
 10
2519.796145865608
 20
-1456.666546383426
 30
0.0
 11
2519.796145865608
 21
-1606.666546383426
 31
0.0
  0
LINE
  5
23F
330
1F
100
AcDbEntity
  8
0-3_扉仕上
  6
Continuous
 62
     7
370
     9
100
AcDbLine
 10
2519.796145865608
 20
-1606.666546383426
 30
0.0
 11
2152.795954465606
 21
-1606.666546383426
 31
0.0
  0
MTEXT
  5
240
330
1F
100
AcDbEntity
  8
0-B_寸法
  6
Continuous
 62
     7
370
   211
100
AcDbMText
 10
1992.796145865605
 20
-1448.80654638342
 30
0.0
 40
45.72
 41
90.0
 46
0.0
 71
     7
 72
     1
  1
{\fＭＳ ゴシック|b0|i0|c128|p49;120}
 11
6.123031769111886E-17
 21
1.0
 31
0.0
 73
     1
 44
1.0
  0
LINE
  5
241
330
1F
100
AcDbEntity
  8
0-A_文字
  6
Continuous
 62
     7
370
     9
100
AcDbLine
 10
2806.296050165602
 20
-2151.166546383427
 30
0.0
 11
1766.296050165607
 21
-2151.166546383427
 31
0.0
  0
LINE
  5
242
330
1F
100
AcDbEntity
  8
0-A_文字
  6
Continuous
 62
     7
370
     9
100
AcDbLine
 10
1766.296050165607
 20
-2001.166546383427
 30
0.0
 11
2806.296050165602
 21
-2001.166546383427
 31
0.0
  0
LINE
  5
243
330
1F
100
AcDbEntity
  8
0-A_文字
  6
Continuous
 62
     7
370
     9
100
AcDbLine
 10
1766.296050165607
 20
-2001.166546383427
 30
0.0
 11
1766.296050165607
 21
-2151.166546383427
 31
0.0
  0
LINE
  5
244
330
1F
100
AcDbEntity
  8
0-A_文字
  6
Continuous
 62
     7
370
     9
100
AcDbLine
 10
2806.296050165602
 20
-2001.166546383427
 30
0.0
 11
2806.296050165602
 21
-2151.166546383427
 31
0.0
  0
LINE
  5
245
330
1F
100
AcDbEntity
  8
0-B_寸法
  6
Continuous
 62
   120
370
     5
100
AcDbLine
 10
2769.796145865603
 20
-1456.666546383426
 30
0.0
 11
2569.796145865608
 21
-1456.666546383426
 31
0.0
  0
LWPOLYLINE
  5
246
330
1F
100
AcDbEntity
  8
0-B_寸法
  6
Continuous
 62
     7
370
     9
100
AcDbPolyline
 90
        4
 70
     1
 43
2.0
 10
2770.796145865604
 20
-1456.666546383426
 42
0.4142135623731
 10
2769.796145865603
 20
-1455.666546383426
 42
0.4142135623731
 10
2768.796145865603
 20
-1456.666546383426
 42
0.4142135623731
 10
2769.796145865603
 20
-1457.666546383426
 42
0.4142135623731
  0
LINE
  5
247
330
1F
100
AcDbEntity
  8
0-B_寸法
  6
Continuous
 62
   120
370
     5
100
AcDbLine
 10
2769.796145865603
 20
-1606.666546383426
 30
0.0
 11
2569.796145865608
 21
-1606.666546383426
 31
0.0
  0
LWPOLYLINE
  5
248
330
1F
100
AcDbEntity
  8
0-B_寸法
  6
Continuous
 62
     7
370
     9
100
AcDbPolyline
 90
        4
 70
     1
 43
2.0
 10
2770.796145865604
 20
-1606.666546383426
 42
0.4142135623731
 10
2769.796145865603
 20
-1605.666546383426
 42
0.4142135623731
 10
2768.796145865603
 20
-1606.666546383426
 42
0.4142135623731
 10
2769.796145865603
 20
-1607.666546383426
 42
0.4142135623731
  0
LINE
  5
249
330
1F
100
AcDbEntity
  8
0-B_寸法
  6
Continuous
 62
   120
370
     5
100
AcDbLine
 10
2769.796145865603
 20
-1606.666546383426
 30
0.0
 11
2769.796145865603
 21
-1456.666546383426
 31
0.0
  0
LINE
  5
24A
330
1F
100
AcDbEntity
  8
0-B_寸法
  6
Continuous
 62
   120
370
     5
100
AcDbLine
 10
2669.796145865608
 20
-1456.666546383426
 30
0.0
 11
2669.796145865608
 21
-1561.666546383426
 31
0.0
  0
LWPOLYLINE
  5
24B
330
1F
100
AcDbEntity
  8
0-B_寸法
  6
Continuous
 62
     7
370
     9
100
AcDbPolyline
 90
        4
 70
     1
 43
2.0
 10
2670.796145865608
 20
-1456.666546383426
 42
0.4142135623731
 10
2669.796145865608
 20
-1455.666546383426
 42
0.4142135623731
 10
2668.796145865608
 20
-1456.666546383426
 42
0.4142135623731
 10
2669.796145865608
 20
-1457.666546383426
 42
0.4142135623731
  0
LWPOLYLINE
  5
24C
330
1F
100
AcDbEntity
  8
0-B_寸法
  6
Continuous
 62
     7
370
     9
100
AcDbPolyline
 90
        4
 70
     1
 43
2.0
 10
2670.796145865608
 20
-1561.666546383426
 42
0.4142135623731
 10
2669.796145865608
 20
-1560.666546383426
 42
0.4142135623731
 10
2668.796145865608
 20
-1561.666546383426
 42
0.4142135623731
 10
2669.796145865608
 20
-1562.666546383426
 42
0.4142135623731
  0
LINE
  5
24D
330
1F
100
AcDbEntity
  8
0-B_寸法
  6
Continuous
 62
   120
370
     5
100
AcDbLine
 10
2669.796145865608
 20
-1561.666546383426
 30
0.0
 11
2569.796145865608
 21
-1561.666546383426
 31
0.0
  0
LINE
  5
24E
330
1F
100
AcDbEntity
  8
0-B_寸法
  6
Continuous
 62
   120
370
     5
100
AcDbLine
 10
2174.796145865608
 20
-1751.166546383427
 30
0.0
 11
2174.796145865608
 21
-1651.166546383427
 31
0.0
  0
LINE
  5
24F
330
1F
100
AcDbEntity
  8
0-B_寸法
  6
Continuous
 62
   120
370
     5
100
AcDbLine
 10
2519.796145865608
 20
-1751.166546383427
 30
0.0
 11
2519.796145865608
 21
-1651.166546383427
 31
0.0
  0
LWPOLYLINE
  5
250
330
1F
100
AcDbEntity
  8
0-B_寸法
  6
Continuous
 62
     7
370
     9
100
AcDbPolyline
 90
        4
 70
     1
 43
2.0
 10
2175.796145865608
 20
-1751.166546383427
 42
0.4142135623731
 10
2174.796145865608
 20
-1750.166546383427
 42
0.4142135623731
 10
2173.796145865608
 20
-1751.166546383427
 42
0.4142135623731
 10
2174.796145865608
 20
-1752.166546383427
 42
0.4142135623731
  0
LWPOLYLINE
  5
251
330
1F
100
AcDbEntity
  8
0-B_寸法
  6
Continuous
 62
     7
370
     9
100
AcDbPolyline
 90
        4
 70
     1
 43
2.0
 10
2520.796145865608
 20
-1751.166546383427
 42
0.4142135623731
 10
2519.796145865608
 20
-1750.166546383427
 42
0.4142135623731
 10
2518.796145865608
 20
-1751.166546383427
 42
0.4142135623731
 10
2519.796145865608
 20
-1752.166546383427
 42
0.4142135623731
  0
LINE
  5
252
330
1F
100
AcDbEntity
  8
0-B_寸法
  6
Continuous
 62
   120
370
     5
100
AcDbLine
 10
2519.796145865608
 20
-1751.166546383427
 30
0.0
 11
2174.796145865608
 21
-1751.166546383427
 31
0.0
  0
LINE
  5
253
330
1F
100
AcDbEntity
  8
0-6_桟木
  6
Continuous
 62
    92
370
    13
100
AcDbLine
 10
2504.796145865608
 20
-1520.666546383427
 30
0.0
 11
2519.796145865608
 21
-1520.666546383427
 31
0.0
  0
LINE
  5
254
330
1F
100
AcDbEntity
  8
0-6_桟木
  6
Continuous
 62
    92
370
    13
100
AcDbLine
 10
2504.796145865608
 20
-1456.666546383426
 30
0.0
 11
2504.796145865608
 21
-1520.666546383427
 31
0.0
  0
LINE
  5
255
330
1F
100
AcDbEntity
  8
0-6_桟木
  6
Continuous
 62
    92
370
    13
100
AcDbLine
 10
2519.796145865608
 20
-1456.666546383426
 30
0.0
 11
2504.796145865608
 21
-1456.666546383426
 31
0.0
  0
LINE
  5
256
330
1F
100
AcDbEntity
  8
0-B_寸法
  6
Continuous
 62
   120
370
     5
100
AcDbLine
 10
2769.796145865603
 20
659.8334536165748
 30
0.0
 11
2769.796145865603
 21
-1404.166546383426
 31
0.0
  0
LWPOLYLINE
  5
257
330
1F
100
AcDbEntity
  8
0-B_寸法
  6
Continuous
 62
     7
370
     9
100
AcDbPolyline
 90
        4
 70
     1
 43
2.0
 10
2770.796145865604
 20
659.8334536165748
 42
0.4142135623731
 10
2769.796145865603
 20
660.8334536165748
 42
0.4142135623731
 10
2768.796145865603
 20
659.8334536165748
 42
0.4142135623731
 10
2769.796145865603
 20
658.8334536165748
 42
0.4142135623731
  0
LWPOLYLINE
  5
258
330
1F
100
AcDbEntity
  8
0-B_寸法
  6
Continuous
 62
     7
370
     9
100
AcDbPolyline
 90
        4
 70
     1
 43
2.0
 10
2770.796145865604
 20
-1404.166546383426
 42
0.4142135623731
 10
2769.796145865603
 20
-1403.166546383426
 42
0.4142135623731
 10
2768.796145865603
 20
-1404.166546383426
 42
0.4142135623731
 10
2769.796145865603
 20
-1405.166546383426
 42
0.4142135623731
  0
LINE
  5
259
330
1F
100
AcDbEntity
  8
0-B_寸法
  6
Continuous
 62
   120
370
     5
100
AcDbLine
 10
2769.796145865603
 20
659.8334536165748
 30
0.0
 11
2669.796145865608
 21
659.8334536165748
 31
0.0
  0
LINE
  5
25A
330
1F
100
AcDbEntity
  8
0-B_寸法
  6
Continuous
 62
   120
370
     5
100
AcDbLine
 10
2769.796145865603
 20
-1404.166546383426
 30
0.0
 11
2669.796145865608
 21
-1404.166546383426
 31
0.0
  0
LINE
  5
25B
330
1F
100
AcDbEntity
  8
0-6_桟木
  6
Continuous
 62
     7
370
     9
100
AcDbLine
 10
2519.796145865608
 20
712.3334536165748
 30
0.0
 11
2549.796145865608
 21
607.3334536165748
 31
0.0
  0
LINE
  5
25C
330
1F
100
AcDbEntity
  8
0-6_桟木
  6
Continuous
 62
     7
370
     9
100
AcDbLine
 10
2519.796145865608
 20
607.3334536165748
 30
0.0
 11
2549.796145865608
 21
712.3334536165748
 31
0.0
  0
LINE
  5
25D
330
1F
100
AcDbEntity
  8
0-6_桟木
  6
Continuous
 62
    92
370
    13
100
AcDbLine
 10
2549.796145865608
 20
607.3334536165748
 30
0.0
 11
2549.796145865608
 21
712.3334536165748
 31
0.0
  0
LINE
  5
25E
330
1F
100
AcDbEntity
  8
0-6_桟木
  6
Continuous
 62
    92
370
    13
100
AcDbLine
 10
2549.796145865608
 20
712.3334536165748
 30
0.0
 11
2519.796145865608
 21
712.3334536165748
 31
0.0
  0
LINE
  5
25F
330
1F
100
AcDbEntity
  8
0-6_桟木
  6
Continuous
 62
    92
370
    13
100
AcDbLine
 10
2519.796145865608
 20
712.3334536165748
 30
0.0
 11
2519.796145865608
 21
607.3334536165748
 31
0.0
  0
LINE
  5
260
330
1F
100
AcDbEntity
  8
0-6_桟木
  6
Continuous
 62
    92
370
    13
100
AcDbLine
 10
2519.796145865608
 20
607.3334536165748
 30
0.0
 11
2549.796145865608
 21
607.3334536165748
 31
0.0
  0
LINE
  5
261
330
1F
100
AcDbEntity
  8
0-6_桟木
  6
Continuous
 62
     7
370
     9
100
AcDbLine
 10
2519.796145865608
 20
-1351.666546383426
 30
0.0
 11
2549.796145865608
 21
-1456.666546383426
 31
0.0
  0
LINE
  5
262
330
1F
100
AcDbEntity
  8
0-6_桟木
  6
Continuous
 62
     7
370
     9
100
AcDbLine
 10
2519.796145865608
 20
-1456.666546383426
 30
0.0
 11
2549.796145865608
 21
-1351.666546383426
 31
0.0
  0
LINE
  5
263
330
1F
100
AcDbEntity
  8
0-6_桟木
  6
Continuous
 62
    92
370
    13
100
AcDbLine
 10
2549.796145865608
 20
-1456.666546383426
 30
0.0
 11
2549.796145865608
 21
-1351.666546383426
 31
0.0
  0
LINE
  5
264
330
1F
100
AcDbEntity
  8
0-6_桟木
  6
Continuous
 62
    92
370
    13
100
AcDbLine
 10
2549.796145865608
 20
-1351.666546383426
 30
0.0
 11
2519.796145865608
 21
-1351.666546383426
 31
0.0
  0
LINE
  5
265
330
1F
100
AcDbEntity
  8
0-6_桟木
  6
Continuous
 62
    92
370
    13
100
AcDbLine
 10
2519.796145865608
 20
-1351.666546383426
 30
0.0
 11
2519.796145865608
 21
-1456.666546383426
 31
0.0
  0
LINE
  5
266
330
1F
100
AcDbEntity
  8
0-B_寸法
  6
Continuous
 62
   120
370
     5
100
AcDbLine
 10
2669.796145865608
 20
-1456.666546383426
 30
0.0
 11
2669.796145865608
 21
-1351.666546383426
 31
0.0
  0
LWPOLYLINE
  5
267
330
1F
100
AcDbEntity
  8
0-B_寸法
  6
Continuous
 62
     7
370
     9
100
AcDbPolyline
 90
        4
 70
     1
 43
2.0
 10
2670.796145865608
 20
-1351.666546383426
 42
0.4142135623731
 10
2669.796145865608
 20
-1350.666546383426
 42
0.4142135623731
 10
2668.796145865608
 20
-1351.666546383426
 42
0.4142135623731
 10
2669.796145865608
 20
-1352.666546383426
 42
0.4142135623731
  0
LINE
  5
268
330
1F
100
AcDbEntity
  8
0-B_寸法
  6
Continuous
 62
   120
370
     5
100
AcDbLine
 10
2669.796145865608
 20
-1351.666546383426
 30
0.0
 11
2569.796145865608
 21
-1351.666546383426
 31
0.0
  0
LINE
  5
269
330
1F
100
AcDbEntity
  8
0-B_寸法
  6
Continuous
 62
   120
370
     5
100
AcDbLine
 10
2669.796145865608
 20
-1351.666546383426
 30
0.0
 11
2669.796145865608
 21
607.3334536165748
 31
0.0
  0
LWPOLYLINE
  5
26A
330
1F
100
AcDbEntity
  8
0-B_寸法
  6
Continuous
 62
     7
370
     9
100
AcDbPolyline
 90
        4
 70
     1
 43
2.0
 10
2670.796145865608
 20
607.3334536165748
 42
0.4142135623731
 10
2669.796145865608
 20
608.3334536165748
 42
0.4142135623731
 10
2668.796145865608
 20
607.3334536165748
 42
0.4142135623731
 10
2669.796145865608
 20
606.3334536165748
 42
0.4142135623731
  0
LINE
  5
26B
330
1F
100
AcDbEntity
  8
0-B_寸法
  6
Continuous
 62
   120
370
     5
100
AcDbLine
 10
2669.796145865608
 20
607.3334536165748
 30
0.0
 11
2569.796145865608
 21
607.3334536165748
 31
0.0
  0
LINE
  5
26C
330
1F
100
AcDbEntity
  8
0-B_寸法
  6
Continuous
 62
   120
370
     5
100
AcDbLine
 10
2669.796145865608
 20
607.3334536165748
 30
0.0
 11
2669.796145865608
 21
712.3334536165748
 31
0.0
  0
LWPOLYLINE
  5
26D
330
1F
100
AcDbEntity
  8
0-B_寸法
  6
Continuous
 62
     7
370
     9
100
AcDbPolyline
 90
        4
 70
     1
 43
2.0
 10
2670.796145865608
 20
712.3334536165748
 42
0.4142135623731
 10
2669.796145865608
 20
713.3334536165748
 42
0.4142135623731
 10
2668.796145865608
 20
712.3334536165748
 42
0.4142135623731
 10
2669.796145865608
 20
711.3334536165748
 42
0.4142135623731
  0
LINE
  5
26E
330
1F
100
AcDbEntity
  8
0-B_寸法
  6
Continuous
 62
   120
370
     5
100
AcDbLine
 10
2669.796145865608
 20
712.3334536165748
 30
0.0
 11
2569.796145865608
 21
712.3334536165748
 31
0.0
  0
CIRCLE
  5
26F
330
1F
100
AcDbEntity
  8
0-6_桟木
  6
Continuous
 62
     7
370
     9
100
AcDbCircle
 10
2512.296145865608
 20
-1472.666546383425
 30
0.0
 40
4.0
  0
CIRCLE
  5
270
330
1F
100
AcDbEntity
  8
0-6_桟木
  6
Continuous
 62
     7
370
     9
100
AcDbCircle
 10
2512.296145865608
 20
-1504.666546383426
 30
0.0
 40
4.0
  0
MTEXT
  5
271
330
1F
100
AcDbEntity
  8
0-B_寸法
  6
Continuous
 62
     7
370
   211
100
AcDbMText
 10
1792.796145865605
 20
-1455.236554047129
 30
0.0
 40
45.72
 41
30.0
 46
0.0
 71
     7
 72
     1
  1
{\fＭＳ ゴシック|b0|i0|c128|p49;3}
 11
6.123031769111886E-17
 21
1.0
 31
0.0
 73
     1
 44
1.0
  0
MTEXT
  5
272
330
1F
100
AcDbEntity
  8
0-B_寸法
  6
Continuous
 62
     7
370
   211
100
AcDbMText
 10
1892.796145865605
 20
-1460.55654638342
 30
0.0
 40
45.72
 41
150.0
 46
0.0
 71
     7
 72
     1
  1
{\fＭＳ ゴシック|b0|i0|c128|p49;156.5}
 11
6.123031769111886E-17
 21
1.0
 31
0.0
 73
     1
 44
1.0
  0
LINE
  5
273
330
1F
100
AcDbEntity
  8
0-2_扉
  6
Continuous
 62
    40
370
    15
100
AcDbLine
 10
2173.796145865606
 20
709.3334536165821
 30
0.0
 11
2173.796145865606
 21
-1453.666546383418
 31
0.0
  0
LINE
  5
274
330
1F
100
AcDbEntity
  8
0-B_寸法
  6
Continuous
 62
   120
370
     5
100
AcDbLine
 10
2519.796145865605
 20
962.3334536165834
 30
0.0
 11
2174.796145865605
 21
962.3334536165834
 31
0.0
  0
LWPOLYLINE
  5
275
330
1F
100
AcDbEntity
  8
0-B_寸法
  6
Continuous
 62
     7
370
     9
100
AcDbPolyline
 90
        4
 70
     1
 43
2.0
 10
2520.796145865605
 20
962.3334536165834
 42
0.4142135623731
 10
2519.796145865605
 20
963.3334536165833
 42
0.4142135623731
 10
2518.796145865605
 20
962.3334536165834
 42
0.4142135623731
 10
2519.796145865605
 20
961.3334536165835
 42
0.4142135623731
  0
LWPOLYLINE
  5
276
330
1F
100
AcDbEntity
  8
0-B_寸法
  6
Continuous
 62
     7
370
     9
100
AcDbPolyline
 90
        4
 70
     1
 43
2.0
 10
2175.796145865605
 20
962.3334536165834
 42
0.4142135623731
 10
2174.796145865605
 20
963.3334536165833
 42
0.4142135623731
 10
2173.796145865605
 20
962.3334536165834
 42
0.4142135623731
 10
2174.796145865605
 20
961.3334536165835
 42
0.4142135623731
  0
LINE
  5
277
330
1F
100
AcDbEntity
  8
0-B_寸法
  6
Continuous
 62
   120
370
     5
100
AcDbLine
 10
2174.796145865605
 20
962.3334536165834
 30
0.0
 11
2174.796145865605
 21
862.3334536165834
 31
0.0
  0
LINE
  5
278
330
1F
100
AcDbEntity
  8
0-B_寸法
  6
Continuous
 62
   120
370
     5
100
AcDbLine
 10
2174.796145865605
 20
962.3334536165834
 30
0.0
 11
2173.796145865606
 21
962.3334536165834
 31
0.0
  0
LWPOLYLINE
  5
279
330
1F
100
AcDbEntity
  8
0-B_寸法
  6
Continuous
 62
     7
370
     9
100
AcDbPolyline
 90
        4
 70
     1
 43
2.0
 10
2174.796145865606
 20
962.3334536165834
 42
0.4142135623731
 10
2173.796145865606
 20
963.3334536165833
 42
0.4142135623731
 10
2172.796145865606
 20
962.3334536165834
 42
0.4142135623731
 10
2173.796145865606
 20
961.3334536165835
 42
0.4142135623731
  0
LINE
  5
27A
330
1F
100
AcDbEntity
  8
0-B_寸法
  6
Continuous
 62
   120
370
     5
100
AcDbLine
 10
2519.796145865605
 20
962.3334536165834
 30
0.0
 11
2519.796145865605
 21
762.3334536165834
 31
0.0
  0
LWPOLYLINE
  5
27B
330
1F
100
AcDbEntity
  8
0-B_寸法
  6
Continuous
 62
     7
370
     9
100
AcDbPolyline
 90
        4
 70
     1
 43
2.0
 10
2520.796145865605
 20
1062.333453616583
 42
0.4142135623731
 10
2519.796145865605
 20
1063.333453616583
 42
0.4142135623731
 10
2518.796145865605
 20
1062.333453616583
 42
0.4142135623731
 10
2519.796145865605
 20
1061.333453616583
 42
0.4142135623731
  0
LINE
  5
27C
330
1F
100
AcDbEntity
  8
0-B_寸法
  6
Continuous
 62
   120
370
     5
100
AcDbLine
 10
2519.796145865605
 20
1062.333453616583
 30
0.0
 11
2519.796145865605
 21
962.3334536165834
 31
0.0
  0
LINE
  5
27D
330
1F
100
AcDbEntity
  8
0-2_扉
  6
Continuous
 62
    40
370
    15
100
AcDbLine
 10
2149.796145865605
 20
709.3334536165833
 30
0.0
 11
2173.796145865606
 21
709.3334536165821
 31
0.0
  0
LINE
  5
27E
330
1F
100
AcDbEntity
  8
0-2_扉
  6
Continuous
 62
    40
370
    15
100
AcDbLine
 10
2149.796145865605
 20
-1453.666546383417
 30
0.0
 11
2173.796145865606
 21
-1453.666546383418
 31
0.0
  0
LINE
  5
27F
330
1F
100
AcDbEntity
  8
0-2_扉
  6
Continuous
 62
    40
370
    15
100
AcDbLine
 10
2149.796145865605
 20
709.3334536165833
 30
0.0
 11
2149.796145865605
 21
-1453.666546383417
 31
0.0
  0
LINE
  5
280
330
1F
100
AcDbEntity
  8
0-B_寸法
  6
Continuous
 62
   120
370
     5
100
AcDbLine
 10
2173.796145865606
 20
962.3334536165834
 30
0.0
 11
2149.796145865605
 21
962.3334536165834
 31
0.0
  0
LWPOLYLINE
  5
281
330
1F
100
AcDbEntity
  8
0-B_寸法
  6
Continuous
 62
     7
370
     9
100
AcDbPolyline
 90
        4
 70
     1
 43
2.0
 10
2150.796145865605
 20
962.3334536165834
 42
0.4142135623731
 10
2149.796145865605
 20
963.3334536165833
 42
0.4142135623731
 10
2148.796145865605
 20
962.3334536165834
 42
0.4142135623731
 10
2149.796145865605
 20
961.3334536165835
 42
0.4142135623731
  0
LINE
  5
282
330
1F
100
AcDbEntity
  8
0-B_寸法
  6
Continuous
 62
   120
370
     5
100
AcDbLine
 10
2149.796145865605
 20
962.3334536165834
 30
0.0
 11
2149.796145865605
 21
762.3334536165834
 31
0.0
  0
LINE
  5
283
330
1F
100
AcDbEntity
  8
0-B_寸法
  6
Continuous
 62
   120
370
     5
100
AcDbLine
 10
2519.796145865605
 20
1062.333453616583
 30
0.0
 11
2149.796145865605
 21
1062.333453616583
 31
0.0
  0
LWPOLYLINE
  5
284
330
1F
100
AcDbEntity
  8
0-B_寸法
  6
Continuous
 62
     7
370
     9
100
AcDbPolyline
 90
        4
 70
     1
 43
2.0
 10
2150.796145865605
 20
1062.333453616583
 42
0.4142135623731
 10
2149.796145865605
 20
1063.333453616583
 42
0.4142135623731
 10
2148.796145865605
 20
1062.333453616583
 42
0.4142135623731
 10
2149.796145865605
 20
1061.333453616583
 42
0.4142135623731
  0
LINE
  5
285
330
1F
100
AcDbEntity
  8
0-B_寸法
  6
Continuous
 62
   120
370
     5
100
AcDbLine
 10
2149.796145865605
 20
1062.333453616583
 30
0.0
 11
2149.796145865605
 21
962.3334536165834
 31
0.0
  0
LINE
  5
286
330
1F
100
AcDbEntity
  8
0-B_寸法
  6
Continuous
 62
   120
370
     5
100
AcDbLine
 10
1802.795954465602
 20
-1453.666546383417
 30
0.0
 11
1802.795954465602
 21
709.3334536165821
 31
0.0
  0
LWPOLYLINE
  5
287
330
1F
100
AcDbEntity
  8
0-B_寸法
  6
Continuous
 62
     7
370
     9
100
AcDbPolyline
 90
        4
 70
     1
 43
2.0
 10
1803.795954465602
 20
-1453.666546383417
 42
0.4142135623731
 10
1802.795954465602
 20
-1452.666546383417
 42
0.4142135623731
 10
1801.795954465602
 20
-1453.666546383417
 42
0.4142135623731
 10
1802.795954465602
 20
-1454.666546383417
 42
0.4142135623731
  0
LWPOLYLINE
  5
288
330
1F
100
AcDbEntity
  8
0-B_寸法
  6
Continuous
 62
     7
370
     9
100
AcDbPolyline
 90
        4
 70
     1
 43
2.0
 10
1803.795954465602
 20
709.3334536165821
 42
0.4142135623731
 10
1802.795954465602
 20
710.3334536165821
 42
0.4142135623731
 10
1801.795954465602
 20
709.3334536165821
 42
0.4142135623731
 10
1802.795954465602
 20
708.3334536165821
 42
0.4142135623731
  0
LINE
  5
289
330
1F
100
AcDbEntity
  8
0-B_寸法
  6
Continuous
 62
   120
370
     5
100
AcDbLine
 10
1802.795954465602
 20
-1453.666546383417
 30
0.0
 11
1902.795954465602
 21
-1453.666546383417
 31
0.0
  0
LINE
  5
28A
330
1F
100
AcDbEntity
  8
0-B_寸法
  6
Continuous
 62
   120
370
     5
100
AcDbLine
 10
1802.795954465602
 20
709.3334536165821
 30
0.0
 11
1902.795954465602
 21
709.3334536165821
 31
0.0
  0
LINE
  5
28B
330
1F
100
AcDbEntity
  8
0-B_寸法
  6
Continuous
 62
   120
370
     5
100
AcDbLine
 10
1802.795954465602
 20
-1456.666546383417
 30
0.0
 11
1802.795954465602
 21
-1453.666546383417
 31
0.0
  0
LWPOLYLINE
  5
28C
330
1F
100
AcDbEntity
  8
0-B_寸法
  6
Continuous
 62
     7
370
     9
100
AcDbPolyline
 90
        4
 70
     1
 43
2.0
 10
1803.795954465602
 20
-1456.666546383417
 42
0.4142135623731
 10
1802.795954465602
 20
-1455.666546383418
 42
0.4142135623731
 10
1801.795954465602
 20
-1456.666546383417
 42
0.4142135623731
 10
1802.795954465602
 20
-1457.666546383417
 42
0.4142135623731
  0
LINE
  5
28D
330
1F
100
AcDbEntity
  8
0-B_寸法
  6
Continuous
 62
   120
370
     5
100
AcDbLine
 10
1802.795954465602
 20
-1456.666546383417
 30
0.0
 11
1902.795954465602
 21
-1456.666546383417
 31
0.0
  0
LINE
  5
28E
330
1F
100
AcDbEntity
  8
0-B_寸法
  6
Continuous
 62
   120
370
     5
100
AcDbLine
 10
1802.795954465602
 20
712.3334536165834
 30
0.0
 11
1802.795954465602
 21
709.3334536165821
 31
0.0
  0
LWPOLYLINE
  5
28F
330
1F
100
AcDbEntity
  8
0-B_寸法
  6
Continuous
 62
     7
370
     9
100
AcDbPolyline
 90
        4
 70
     1
 43
2.0
 10
1803.795954465602
 20
712.3334536165834
 42
0.4142135623731
 10
1802.795954465602
 20
713.3334536165833
 42
0.4142135623731
 10
1801.795954465602
 20
712.3334536165834
 42
0.4142135623731
 10
1802.795954465602
 20
711.3334536165835
 42
0.4142135623731
  0
LINE
  5
290
330
1F
100
AcDbEntity
  8
0-B_寸法
  6
Continuous
 62
   120
370
     5
100
AcDbLine
 10
1802.795954465602
 20
712.3334536165834
 30
0.0
 11
1902.795954465602
 21
712.3334536165834
 31
0.0
  0
LINE
  5
291
330
1F
100
AcDbEntity
  8
0-B_寸法
  6
Continuous
 62
   120
370
     5
100
AcDbLine
 10
2173.796145865606
 20
962.3334536165834
 30
0.0
 11
2173.796145865606
 21
762.3334536165834
 31
0.0
  0
MTEXT
  5
292
330
1F
100
AcDbEntity
  8
0-B_寸法
  6
Continuous
 62
     7
370
   211
100
AcDbMText
 10
2288.296145865604
 20
1065.193453616583
 30
0.0
 40
45.72
 41
90.0
 46
0.0
 71
     7
 72
     1
  1
{\fＭＳ ゴシック|b0|i0|c128|p49;370}
 73
     1
 44
1.0
  0
MTEXT
  5
293
330
1F
100
AcDbEntity
  8
0-B_寸法
  6
Continuous
 62
     7
370
   211
100
AcDbMText
 10
2083.141030808418
 20
965.1934536165834
 30
0.0
 40
45.72
 41
60.0
 46
0.0
 71
     7
 72
     1
  1
{\fＭＳ ゴシック|b0|i0|c128|p49;24}
 73
     1
 44
1.0
  0
MTEXT
  5
294
330
1F
100
AcDbEntity
  8
0-B_寸法
  6
Continuous
 62
     7
370
   211
100
AcDbMText
 10
2159.296145865605
 20
965.1934536165834
 30
0.0
 40
45.72
 41
30.0
 46
0.0
 71
     7
 72
     1
  1
{\fＭＳ ゴシック|b0|i0|c128|p49;1}
 73
     1
 44
1.0
  0
MTEXT
  5
295
330
1F
100
AcDbEntity
  8
0-B_寸法
  6
Continuous
 62
     7
370
   211
100
AcDbMText
 10
2302.296145865605
 20
965.1934536165834
 30
0.0
 40
45.72
 41
90.0
 46
0.0
 71
     7
 72
     1
  1
{\fＭＳ ゴシック|b0|i0|c128|p49;345}
 73
     1
 44
1.0
  0
MTEXT
  5
296
330
1F
100
AcDbEntity
  8
0-B_寸法
  6
Continuous
 62
     7
370
   211
100
AcDbMText
 10
1792.795954465602
 20
669.3293457131853
 30
0.0
 40
45.72
 41
30.0
 46
0.0
 71
     7
 72
     1
  1
{\fＭＳ ゴシック|b0|i0|c128|p49;3}
 11
6.123031769111886E-17
 21
1.0
 31
0.0
 73
     1
 44
1.0
  0
MTEXT
  5
297
330
1F
100
AcDbEntity
  8
0-B_寸法
  6
Continuous
 62
     7
370
   211
100
AcDbMText
 10
1792.795954465602
 20
-544.3065463834165
 30
0.0
 40
45.71999999999998
 41
330.0
 46
0.0
 71
     7
 72
     1
  1
{\fＭＳ ゴシック|b0|i0|c128|p49;ＤＨ＝2,163}
 11
6.123031769111886E-17
 21
1.0
 31
0.0
 73
     1
 44
1.0
  0
MTEXT
  5
298
330
1F
100
AcDbEntity
  8
0-B_寸法
  6
Continuous
 62
     7
370
   211
100
AcDbMText
 10
1792.795954465602
 20
-1455.236554047126
 30
0.0
 40
45.72
 41
30.0
 46
0.0
 71
     7
 72
     1
  1
{\fＭＳ ゴシック|b0|i0|c128|p49;3}
 11
6.123031769111886E-17
 21
1.0
 31
0.0
 73
     1
 44
1.0
  0
MTEXT
  5
299
330
1F
100
AcDbEntity
  8
0-A_文字
  6
Continuous
 62
     7
370
     9
100
AcDbMText
 10
1836.296050165607
 20
-2147.180832097712
 30
0.0
 40
97.97142857142858
 41
900.0
 46
0.0
 71
     7
 72
     1
  1
{\fＭＳ ゴシック|b0|i0|c128|p49;Ａ－Ａ’断面図}
 73
     1
 44
1.0
  0
MTEXT
  5
29A
330
1F
100
AcDbEntity
  8
0-A_文字
  6
Continuous
 62
     7
370
   211
100
AcDbMText
 10
1605.989516249534
 20
-2262.120953508254
 30
0.0
 40
45.71999999999998
 41
1050.0
 46
0.0
 71
     7
 72
     1
  1
{\fＭＳ ゴシック|b0|i0|c128|p49;※棚板は可動式32m/mピッチで調整可能}
 73
     1
 44
1.0
  0
MTEXT
  5
29B
330
1F
100
AcDbEntity
  8
0-A_文字
  6
Continuous
 62
     7
370
   211
100
AcDbMText
 10
1605.989516249534
 20
-2332.120953508254
 30
0.0
 40
45.72000000000001
 41
1890.0
 46
0.0
 71
     7
 72
     1
  1
{\fＭＳ ゴシック|b0|i0|c128|p49;※下地用の木桟木は105m/m×30m/m以上の堅い木を使用してください。}
 73
     1
 44
1.0
  0
MTEXT
  5
29C
330
1F
100
AcDbEntity
  8
0-A_文字
  6
Continuous
 62
     7
370
   211
100
AcDbMText
 10
1605.989516249534
 20
-2402.120953508254
 30
0.0
 40
45.71999999999998
 41
870.0
 46
0.0
 71
     7
 72
     1
  1
{\fＭＳ ゴシック|b0|i0|c128|p49;※(70～160㎜)は参考寸法です。}
 73
     1
 44
1.0
  0
MTEXT
  5
29D
330
1F
100
AcDbEntity
  8
0-A_文字
  6
Continuous
 62
     7
370
   211
100
AcDbMText
 10
1605.989516249537
 20
-2472.120953508254
 30
0.0
 40
45.71999999999998
 41
1560.0
 46
0.0
 71
     7
 72
     1
  1
{\fＭＳ ゴシック|b0|i0|c128|p49;　床(土間)からの高さに合わせて下地を入れてください。}
 73
     1
 44
1.0
  0
MTEXT
  5
29E
330
1F
100
AcDbEntity
  8
0-B_寸法
  6
Continuous
 62
     7
370
   211
100
AcDbMText
 10
2659.796145865603
 20
607.6934536165754
 30
0.0
 40
45.72
 41
90.0
 46
0.0
 71
     7
 72
     1
  1
{\fＭＳ ゴシック|b0|i0|c128|p49;105}
 11
6.123031769111886E-17
 21
1.0
 31
0.0
 73
     1
 44
1.0
  0
MTEXT
  5
29F
330
1F
100
AcDbEntity
  8
0-B_寸法
  6
Continuous
 62
     7
370
   211
100
AcDbMText
 10
2659.796145865603
 20
-454.3065463834256
 30
0.0
 40
45.72
 41
150.0
 46
0.0
 71
     7
 72
     1
  1
{\fＭＳ ゴシック|b0|i0|c128|p49;1,959}
 11
6.123031769111886E-17
 21
1.0
 31
0.0
 73
     1
 44
1.0
  0
MTEXT
  5
2A0
330
1F
100
AcDbEntity
  8
0-B_寸法
  6
Continuous
 62
     7
370
   211
100
AcDbMText
 10
2759.796145865608
 20
-454.3065463834256
 30
0.0
 40
45.72
 41
150.0
 46
0.0
 71
     7
 72
     1
  1
{\fＭＳ ゴシック|b0|i0|c128|p49;2,064}
 11
6.123031769111886E-17
 21
1.0
 31
0.0
 73
     1
 44
1.0
  0
MTEXT
  5
2A1
330
1F
100
AcDbEntity
  8
0-B_寸法
  6
Continuous
 62
     7
370
   211
100
AcDbMText
 10
2659.796145865603
 20
-1456.306546383427
 30
0.0
 40
45.72
 41
90.0
 46
0.0
 71
     7
 72
     1
  1
{\fＭＳ ゴシック|b0|i0|c128|p49;105}
 11
6.123031769111886E-17
 21
1.0
 31
0.0
 73
     1
 44
1.0
  0
MTEXT
  5
2A2
330
1F
100
AcDbEntity
  8
0-B_寸法
  6
Continuous
 62
     7
370
   211
100
AcDbMText
 10
2659.796145865603
 20
-1561.306546383427
 30
0.0
 40
45.72
 41
90.0
 46
0.0
 71
     7
 72
     1
  1
{\fＭＳ ゴシック|b0|i0|c128|p49;105}
 11
6.123031769111886E-17
 21
1.0
 31
0.0
 73
     1
 44
1.0
  0
MTEXT
  5
2A3
330
1F
100
AcDbEntity
  8
0-B_寸法
  6
Continuous
 62
     7
370
   211
100
AcDbMText
 10
2791.204378349367
 20
-1571.556546383426
 30
0.0
 40
45.71999999999999
 41
390.0
 46
0.0
 71
     7
 72
     1
  1
{\fＭＳ ゴシック|b0|i0|c128|p49;※(70～160㎜)}
 73
     1
 44
1.0
  0
MTEXT
  5
2A4
330
1F
100
AcDbEntity
  8
0-B_寸法
  6
Continuous
 62
     7
370
   211
100
AcDbMText
 10
2302.296145865608
 20
-1748.306546383427
 30
0.0
 40
45.72
 41
90.0
 46
0.0
 71
     7
 72
     1
  1
{\fＭＳ ゴシック|b0|i0|c128|p49;345}
 73
     1
 44
1.0
  0
LINE
  5
2A5
330
1F
100
AcDbEntity
  8
0-0_補助線
  6
JWW_HOJO
 62
     7
370
     9
100
AcDbLine
 10
2769.796145865594
 20
-1456.666546383419
 30
0.0
 11
-3181.204045534394
 21
-1456.666546383419
 31
0.0
  0
LINE
  5
2A6
330
1F
100
AcDbEntity
  8
0-0_補助線
  6
JWW_HOJO
 62
   120
370
     5
100
AcDbLine
 10
2769.796145865594
 20
762.3334536165811
 30
0.0
 11
-3181.204045534394
 21
762.3334536165811
 31
0.0
  0
LINE
  5
2A7
330
1F
100
AcDbEntity
  8
0-0_補助線
  6
JWW_HOJO
 62
   120
370
     5
100
AcDbLine
 10
2769.796145865594
 20
862.3334536165811
 30
0.0
 11
-3181.204045534394
 21
862.3334536165811
 31
0.0
  0
LINE
  5
2A8
330
1F
100
AcDbEntity
  8
0-B_寸法
  6
JWW_DASHED2
 62
   120
370
     5
100
AcDbLine
 10
2519.796145865608
 20
-1561.666546383426
 30
0.0
 11
-2931.204045534394
 21
-1561.666546383426
 31
0.0
  0
LINE
  5
2A9
330
1F
100
AcDbEntity
  8
0-B_寸法
  6
JWW_DASHED2
 62
   120
370
     5
100
AcDbLine
 10
2519.796145865608
 20
607.3334536165748
 30
0.0
 11
-2931.204045534394
 21
607.3334536165748
 31
0.0
  0
LINE
  5
2AA
330
1F
100
AcDbEntity
  8
0-B_寸法
  6
JWW_DASHED2
 62
   120
370
     5
100
AcDbLine
 10
2519.796145865608
 20
712.3334536165748
 30
0.0
 11
-2931.204045534394
 21
712.3334536165748
 31
0.0
  0
LINE
  5
2AB
330
1F
100
AcDbEntity
  8
0-B_寸法
  6
JWW_DASHED2
 62
   120
370
     5
100
AcDbLine
 10
2519.796145865608
 20
-1456.666546383426
 30
0.0
 11
-2931.204045534394
 21
-1456.666546383426
 31
0.0
  0
LINE
  5
2AC
330
1F
100
AcDbEntity
  8
0-B_寸法
  6
JWW_DASHED2
 62
   120
370
     5
100
AcDbLine
 10
2519.796145865608
 20
-1351.666546383426
 30
0.0
 11
-2931.204045534394
 21
-1351.666546383426
 31
0.0
  0
LINE
  5
2AD
330
1F
100
AcDbEntity
  8
0-A_文字
  6
JWW_CENTER1
 62
     7
370
     9
100
AcDbLine
 10
-2931.204045534394
 20
712.3334536165748
 30
0.0
 11
2519.796145865603
 21
712.3334536165748
 31
0.0
  0
LINE
  5
2AE
330
1F
100
AcDbEntity
  8
0-0_補助線
  6
JWW_HOJO
 62
   120
370
     5
100
AcDbLine
 10
2769.796145865603
 20
-1651.166546383427
 30
0.0
 11
-3181.204045534394
 21
-1651.166546383427
 31
0.0
  0
LINE
  5
2AF
330
1F
100
AcDbEntity
  8
0-0_補助線
  6
JWW_HOJO
 62
   120
370
     5
100
AcDbLine
 10
2769.796145865603
 20
-1751.166546383427
 30
0.0
 11
-3181.204045534394
 21
-1751.166546383427
 31
0.0
  0
LINE
  5
2B0
330
1F
100
AcDbEntity
  8
0-0_補助線
  6
JWW_HOJO
 62
   120
370
     5
100
AcDbLine
 10
2769.796145865603
 20
-1851.166546383427
 30
0.0
 11
-3181.204045534394
 21
-1851.166546383427
 31
0.0
  0
LINE
  5
2B1
330
1F
100
AcDbEntity
  8
0-A_文字
  6
JWW_CENTER1
 62
     7
370
     9
100
AcDbLine
 10
-2931.204045534394
 20
-1606.666546383426
 30
0.0
 11
2519.796145865603
 21
-1606.666546383426
 31
0.0
  0
LINE
  5
2B2
330
1F
100
AcDbEntity
  8
0-A_文字
  6
Continuous
 62
     7
370
     9
100
AcDbLine
 10
-68.20404558093344
 20
-2151.166546383427
 30
0.0
 11
-68.20404558093344
 21
-2001.166546383427
 31
0.0
  0
LINE
  5
2B3
330
1F
100
AcDbEntity
  8
0-A_文字
  6
Continuous
 62
     7
370
     9
100
AcDbLine
 10
781.7959544190688
 20
-2151.166546383427
 30
0.0
 11
-68.20404558093344
 21
-2151.166546383427
 31
0.0
  0
LINE
  5
2B4
330
1F
100
AcDbEntity
  8
0-A_文字
  6
Continuous
 62
     7
370
     9
100
AcDbLine
 10
781.7959544190688
 20
-2001.166546383427
 30
0.0
 11
781.7959544190688
 21
-2151.166546383427
 31
0.0
  0
LINE
  5
2B5
330
1F
100
AcDbEntity
  8
0-A_文字
  6
Continuous
 62
     7
370
     9
100
AcDbLine
 10
-68.20404558093344
 20
-2001.166546383427
 30
0.0
 11
781.7959544190688
 21
-2001.166546383427
 31
0.0
  0
MTEXT
  5
2B6
330
1F
100
AcDbEntity
  8
0-A_文字
  6
Continuous
 62
     7
370
     9
100
AcDbMText
 10
6.785276030531122
 20
2142.418297620989
 30
0.0
 40
45.72
 41
360.0
 46
0.0
 71
     7
 72
     1
  1
{\fＭＳ ゴシック|b0|i0|c128|p49;背板連結樹脂}
 73
     1
 44
1.0
  0
MTEXT
  5
2B7
330
1F
100
AcDbEntity
  8
0-A_文字
  6
Continuous
 62
     7
370
     9
100
AcDbMText
 10
-361.433255922687
 20
2123.486667710404
 30
0.0
 40
45.72
 41
90.0
 46
0.0
 71
     7
 72
     1
  1
{\fＭＳ ゴシック|b0|i0|c128|p49;Ａ }
 73
     1
 44
1.0
  0
MTEXT
  5
2B8
330
1F
100
AcDbEntity
  8
0-A_文字
  6
Continuous
 62
     7
370
     9
100
AcDbMText
 10
-361.433255922687
 20
1595.360044505169
 30
0.0
 40
45.72
 41
90.0
 46
0.0
 71
     7
 72
     1
  1
{\fＭＳ ゴシック|b0|i0|c128|p49;Ａ'}
 73
     1
 44
1.0
  0
MTEXT
  5
2B9
330
1F
100
AcDbEntity
  8
0-A_文字
  6
Continuous
 62
     7
370
     9
100
AcDbMText
 10
156.7959544190592
 20
1165.863356107789
 30
0.0
 40
101.6000000000046
 41
400.0000000000182
 46
0.0
 71
     7
 72
     1
  1
{\fＭＳ ゴシック|b0|i0|c128|p49;平面図}
 73
     1
 44
1.0
  0
MTEXT
  5
2BA
330
1F
100
AcDbEntity
  8
0-A_文字
  6
Continuous
 62
     7
370
     9
100
AcDbMText
 10
6.785276030531122
 20
742.6231656484492
 30
0.0
 40
45.72
 41
360.0
 46
0.0
 71
     7
 72
     1
  1
{\fＭＳ ゴシック|b0|i0|c128|p49;背板連結樹脂}
 73
     1
 44
1.0
  0
MTEXT
  5
2BB
330
1F
100
AcDbEntity
  8
0-A_文字
  6
Continuous
 62
     7
370
     9
100
AcDbMText
 10
72.93812725308669
 20
-152.8400516038343
 30
0.0
 40
45.72
 41
180.0
 46
0.0
 71
     7
 72
     1
  1
{\fＭＳ ゴシック|b0|i0|c128|p49;固定棚}
 73
     1
 44
1.0
  0
MTEXT
  5
2BC
330
1F
100
AcDbEntity
  8
0-A_文字
  6
Continuous
 62
     7
370
     9
100
AcDbMText
 10
868.9381272530858
 20
-152.8400516038343
 30
0.0
 40
45.72
 41
180.0
 46
0.0
 71
     7
 72
     1
  1
{\fＭＳ ゴシック|b0|i0|c128|p49;固定棚}
 73
     1
 44
1.0
  0
LINE
  5
2BD
330
1F
100
AcDbEntity
  8
0-B_寸法
  6
Continuous
 62
   120
370
     5
100
AcDbLine
 10
-689.2040455809314
 20
712.3334536165811
 30
0.0
 11
-489.2040455809314
 21
712.3334536165811
 31
0.0
  0
LINE
  5
2BE
330
1F
100
AcDbEntity
  8
0-4_棚
  6
Continuous
 62
    92
370
    13
100
AcDbLine
 10
-424.2040455809314
 20
-933.6665463834206
 30
0.0
 11
341.7959544190677
 21
-933.6665463834206
 31
0.0
  0
LINE
  5
2BF
330
1F
100
AcDbEntity
  8
0-4_棚
  6
Continuous
 62
    92
370
    13
100
AcDbLine
 10
-424.2040455809314
 20
-945.6665463834202
 30
0.0
 11
341.7959544190677
 21
-945.6665463834202
 31
0.0
  0
LINE
  5
2C0
330
1F
100
AcDbEntity
  8
0-4_棚
  6
Continuous
 62
    92
370
    13
100
AcDbLine
 10
-424.2040455809314
 20
-689.6665463834194
 30
0.0
 11
341.7959544190677
 21
-689.6665463834194
 31
0.0
  0
LINE
  5
2C1
330
1F
100
AcDbEntity
  8
0-4_棚
  6
Continuous
 62
    92
370
    13
100
AcDbLine
 10
-424.2040455809314
 20
-433.6665463834197
 30
0.0
 11
341.7959544190677
 21
-433.6665463834197
 31
0.0
  0
LINE
  5
2C2
330
1F
100
AcDbEntity
  8
0-4_棚
  6
Continuous
 62
    92
370
    13
100
AcDbLine
 10
-424.2040455809314
 20
-421.6665463834215
 30
0.0
 11
341.7959544190677
 21
-421.6665463834215
 31
0.0
  0
LINE
  5
2C3
330
1F
100
AcDbEntity
  8
0-4_棚
  6
Continuous
 62
    92
370
    13
100
AcDbLine
 10
-424.2040455809314
 20
-677.6665463834206
 30
0.0
 11
341.7959544190677
 21
-677.6665463834206
 31
0.0
  0
LINE
  5
2C4
330
1F
100
AcDbEntity
  8
0-4_棚
  6
Continuous
 62
    92
370
    13
100
AcDbLine
 10
-424.2040455809314
 20
494.3334536165821
 30
0.0
 11
341.7959544190677
 21
494.3334536165821
 31
0.0
  0
LINE
  5
2C5
330
1F
100
AcDbEntity
  8
0-4_棚
  6
Continuous
 62
    92
370
    13
100
AcDbLine
 10
-424.2040455809314
 20
46.3334536165803
 30
0.0
 11
341.7959544190677
 21
46.3334536165803
 31
0.0
  0
LINE
  5
2C6
330
1F
100
AcDbEntity
  8
0-4_棚
  6
Continuous
 62
    92
370
    13
100
AcDbLine
 10
-424.2040455809314
 20
58.33345361658075
 30
0.0
 11
341.7959544190677
 21
58.33345361658075
 31
0.0
  0
LINE
  5
2C7
330
1F
100
AcDbEntity
  8
0-4_棚
  6
Continuous
 62
    92
370
    13
100
AcDbLine
 10
-424.2040455809314
 20
270.3334536165812
 30
0.0
 11
341.7959544190677
 21
270.3334536165812
 31
0.0
  0
LINE
  5
2C8
330
1F
100
AcDbEntity
  8
0-4_棚
  6
Continuous
 62
    92
370
    13
100
AcDbLine
 10
-424.2040455809314
 20
282.3334536165794
 30
0.0
 11
341.7959544190677
 21
282.3334536165794
 31
0.0
  0
LINE
  5
2C9
330
1F
100
AcDbEntity
  8
0-4_棚
  6
Continuous
 62
    92
370
    13
100
AcDbLine
 10
-424.2040455809314
 20
506.333453616582
 30
0.0
 11
341.7959544190677
 21
506.333453616582
 31
0.0
  0
LINE
  5
2CA
330
1F
100
AcDbEntity
  8
0-4_棚
  6
Continuous
 62
    92
370
    13
100
AcDbLine
 10
-424.2040455809314
 20
-421.6665463834215
 30
0.0
 11
-424.2040455809314
 21
-433.6665463834197
 31
0.0
  0
LINE
  5
2CB
330
1F
100
AcDbEntity
  8
0-4_棚
  6
Continuous
 62
    92
370
    13
100
AcDbLine
 10
-424.2040455809314
 20
-677.6665463834206
 30
0.0
 11
-424.2040455809314
 21
-689.6665463834194
 31
0.0
  0
LINE
  5
2CC
330
1F
100
AcDbEntity
  8
0-4_棚
  6
Continuous
 62
    92
370
    13
100
AcDbLine
 10
-424.2040455809314
 20
-933.6665463834206
 30
0.0
 11
-424.2040455809314
 21
-945.6665463834202
 31
0.0
  0
LINE
  5
2CD
330
1F
100
AcDbEntity
  8
0-4_棚
  6
Continuous
 62
    92
370
    13
100
AcDbLine
 10
-424.2040455809314
 20
506.333453616582
 30
0.0
 11
-424.2040455809314
 21
494.3334536165821
 31
0.0
  0
LINE
  5
2CE
330
1F
100
AcDbEntity
  8
0-4_棚
  6
Continuous
 62
    92
370
    13
100
AcDbLine
 10
-424.2040455809314
 20
58.33345361658075
 30
0.0
 11
-424.2040455809314
 21
46.3334536165803
 31
0.0
  0
LINE
  5
2CF
330
1F
100
AcDbEntity
  8
0-4_棚
  6
Continuous
 62
    92
370
    13
100
AcDbLine
 10
-424.2040455809314
 20
282.3334536165794
 30
0.0
 11
-424.2040455809314
 21
270.3334536165812
 31
0.0
  0
LINE
  5
2D0
330
1F
100
AcDbEntity
  8
0-4_棚
  6
Continuous
 62
    92
370
    13
100
AcDbLine
 10
341.7959544190677
 20
-1189.66654638342
 30
0.0
 11
-424.2040455809314
 21
-1189.66654638342
 31
0.0
  0
LINE
  5
2D1
330
1F
100
AcDbEntity
  8
0-4_棚
  6
Continuous
 62
    92
370
    13
100
AcDbLine
 10
341.7959544190677
 20
-1201.666546383422
 30
0.0
 11
-424.2040455809314
 21
-1201.666546383422
 31
0.0
  0
LINE
  5
2D2
330
1F
100
AcDbEntity
  8
0-B_寸法
  6
JWW_HOJO
 62
     7
370
     9
100
AcDbLine
 10
111.2959544190676
 20
712.3334536165811
 30
0.0
 11
111.2959544190676
 21
-1456.666546383419
 31
0.0
  0
LINE
  5
2D3
330
1F
100
AcDbEntity
  8
0-B_寸法
  6
JWW_HOJO
 62
     7
370
     9
100
AcDbLine
 10
-193.7040455809324
 20
-1456.666546383419
 30
0.0
 11
-193.7040455809324
 21
712.3334536165811
 31
0.0
  0
LINE
  5
2D4
330
1F
100
AcDbEntity
  8
0-B_寸法
  6
Continuous
 62
   120
370
     5
100
AcDbLine
 10
-589.2971531475968
 20
-204.6665463834233
 30
0.0
 11
-488.3253489109273
 21
-204.6665463834233
 31
0.0
  0
LWPOLYLINE
  5
2D5
330
1F
100
AcDbEntity
  8
0-B_寸法
  6
Continuous
 62
     7
370
     9
100
AcDbPolyline
 90
        4
 70
     1
 43
2.0
 10
-588.2971531475968
 20
-204.6665463834233
 42
0.4142135623731
 10
-589.2971531475968
 20
-203.6665463834233
 42
0.4142135623731
 10
-590.2971531475968
 20
-204.6665463834233
 42
0.4142135623731
 10
-589.2971531475968
 20
-205.6665463834233
 42
0.4142135623731
  0
LINE
  5
2D6
330
1F
100
AcDbEntity
  8
0-B_寸法
  6
Continuous
 62
   120
370
     5
100
AcDbLine
 10
-589.2971531475968
 20
-219.6665463834188
 30
0.0
 11
-589.2971531475968
 21
-204.6665463834233
 31
0.0
  0
LINE
  5
2D7
330
1F
100
AcDbEntity
  8
0-B_寸法
  6
Continuous
 62
   120
370
     5
100
AcDbLine
 10
-589.2971531475968
 20
-219.6665463834188
 30
0.0
 11
-488.3253489109273
 21
-219.6665463834188
 31
0.0
  0
LINE
  5
2D8
330
1F
100
AcDbEntity
  8
0-B_寸法
  6
Continuous
 62
   120
370
     5
100
AcDbLine
 10
-689.2040455809314
 20
-1441.666546383419
 30
0.0
 11
-488.3253489109273
 21
-1441.666546383419
 31
0.0
  0
LWPOLYLINE
  5
2D9
330
1F
100
AcDbEntity
  8
0-B_寸法
  6
Continuous
 62
     7
370
     9
100
AcDbPolyline
 90
        4
 70
     1
 43
2.0
 10
-588.2971531475968
 20
-219.6665463834188
 42
0.4142135623731
 10
-589.2971531475968
 20
-218.6665463834188
 42
0.4142135623731
 10
-590.2971531475968
 20
-219.6665463834188
 42
0.4142135623731
 10
-589.2971531475968
 20
-220.6665463834188
 42
0.4142135623731
  0
LWPOLYLINE
  5
2DA
330
1F
100
AcDbEntity
  8
0-B_寸法
  6
Continuous
 62
     7
370
     9
100
AcDbPolyline
 90
        4
 70
     1
 43
2.0
 10
-588.2971531475968
 20
-1441.666546383419
 42
0.4142135623731
 10
-589.2971531475968
 20
-1440.666546383419
 42
0.4142135623731
 10
-590.2971531475968
 20
-1441.666546383419
 42
0.4142135623731
 10
-589.2971531475968
 20
-1442.666546383419
 42
0.4142135623731
  0
LINE
  5
2DB
330
1F
100
AcDbEntity
  8
0-B_寸法
  6
Continuous
 62
   120
370
     5
100
AcDbLine
 10
-589.2971531475968
 20
-1441.666546383419
 30
0.0
 11
-589.2971531475968
 21
-219.6665463834188
 31
0.0
  0
LINE
  5
2DC
330
1F
100
AcDbEntity
  8
0-B_寸法
  6
Continuous
 62
   120
370
     5
100
AcDbLine
 10
-689.2040455809314
 20
697.3334536165811
 30
0.0
 11
-489.2040455809314
 21
697.3334536165811
 31
0.0
  0
LWPOLYLINE
  5
2DD
330
1F
100
AcDbEntity
  8
0-B_寸法
  6
Continuous
 62
     7
370
     9
100
AcDbPolyline
 90
        4
 70
     1
 43
2.0
 10
-688.2040455809315
 20
697.3334536165811
 42
0.4142135623731
 10
-689.2040455809314
 20
698.333453616581
 42
0.4142135623731
 10
-690.2040455809313
 20
697.3334536165811
 42
0.4142135623731
 10
-689.2040455809314
 20
696.3334536165812
 42
0.4142135623731
  0
LWPOLYLINE
  5
2DE
330
1F
100
AcDbEntity
  8
0-B_寸法
  6
Continuous
 62
     7
370
     9
100
AcDbPolyline
 90
        4
 70
     1
 43
2.0
 10
-688.2040455809315
 20
712.3334536165811
 42
0.4142135623731
 10
-689.2040455809314
 20
713.333453616581
 42
0.4142135623731
 10
-690.2040455809313
 20
712.3334536165811
 42
0.4142135623731
 10
-689.2040455809314
 20
711.3334536165812
 42
0.4142135623731
  0
LINE
  5
2DF
330
1F
100
AcDbEntity
  8
0-B_寸法
  6
Continuous
 62
   120
370
     5
100
AcDbLine
 10
-689.2040455809314
 20
712.3334536165811
 30
0.0
 11
-689.2040455809314
 21
-1456.666546383419
 31
0.0
  0
LINE
  5
2E0
330
1F
100
AcDbEntity
  8
0-B_寸法
  6
Continuous
 62
   120
370
     5
100
AcDbLine
 10
156.6152234564157
 20
633.3334536165808
 30
0.0
 11
127.376947173118
 21
633.3334536165808
 31
0.0
  0
LINE
  5
2E1
330
1F
100
AcDbEntity
  8
0-B_寸法
  6
Continuous
 62
   120
370
     5
100
AcDbLine
 10
156.6152234564157
 20
697.3334536165811
 30
0.0
 11
127.376947173118
 21
697.3334536165811
 31
0.0
  0
LWPOLYLINE
  5
2E2
330
1F
100
AcDbEntity
  8
0-B_寸法
  6
Continuous
 62
     7
370
     9
100
AcDbPolyline
 90
        4
 70
     1
 43
2.0
 10
157.6152234564157
 20
633.3334536165808
 42
0.4142135623731
 10
156.6152234564157
 20
634.3334536165808
 42
0.4142135623731
 10
155.6152234564157
 20
633.3334536165808
 42
0.4142135623731
 10
156.6152234564157
 20
632.3334536165808
 42
0.4142135623731
  0
LWPOLYLINE
  5
2E3
330
1F
100
AcDbEntity
  8
0-B_寸法
  6
Continuous
 62
     7
370
     9
100
AcDbPolyline
 90
        4
 70
     1
 43
2.0
 10
157.6152234564157
 20
697.3334536165811
 42
0.4142135623731
 10
156.6152234564157
 20
698.333453616581
 42
0.4142135623731
 10
155.6152234564157
 20
697.3334536165811
 42
0.4142135623731
 10
156.6152234564157
 20
696.3334536165812
 42
0.4142135623731
  0
LINE
  5
2E4
330
1F
100
AcDbEntity
  8
0-B_寸法
  6
Continuous
 62
   120
370
     5
100
AcDbLine
 10
156.6152234564157
 20
697.3334536165811
 30
0.0
 11
156.6152234564157
 21
633.3334536165808
 31
0.0
  0
LINE
  5
2E5
330
1F
100
AcDbEntity
  8
0-1_本体
  6
JWW_DASHED2
 62
     7
370
     9
100
AcDbLine
 10
341.7959544190677
 20
633.3334536165808
 30
0.0
 11
-424.2040455809314
 21
633.3334536165808
 31
0.0
  0
LINE
  5
2E6
330
1F
100
AcDbEntity
  8
0-1_本体
  6
Continuous
 62
    92
370
    13
100
AcDbLine
 10
-439.2040455809314
 20
712.3334536165811
 30
0.0
 11
356.7959544190677
 21
712.3334536165811
 31
0.0
  0
LINE
  5
2E7
330
1F
100
AcDbEntity
  8
0-1_本体
  6
Continuous
 62
    92
370
    13
100
AcDbLine
 10
-424.2040455809314
 20
697.3334536165811
 30
0.0
 11
341.7959544190677
 21
697.3334536165811
 31
0.0
  0
LINE
  5
2E8
330
1F
100
AcDbEntity
  8
0-1_本体
  6
Continuous
 62
    92
370
    13
100
AcDbLine
 10
-424.2040455809314
 20
-1456.666546383419
 30
0.0
 11
-424.2040455809314
 21
712.3334536165811
 31
0.0
  0
LINE
  5
2E9
330
1F
100
AcDbEntity
  8
0-1_本体
  6
Continuous
 62
    92
370
    13
100
AcDbLine
 10
-439.2040455809314
 20
-1456.666546383419
 30
0.0
 11
-439.2040455809314
 21
712.3334536165811
 31
0.0
  0
LINE
  5
2EA
330
1F
100
AcDbEntity
  8
0-1_本体
  6
Continuous
 62
    92
370
    13
100
AcDbLine
 10
341.7959544190677
 20
712.3334536165811
 30
0.0
 11
341.7959544190677
 21
-1456.666546383419
 31
0.0
  0
LINE
  5
2EB
330
1F
100
AcDbEntity
  8
0-1_本体
  6
Continuous
 62
    92
370
    13
100
AcDbLine
 10
356.7959544190677
 20
712.3334536165811
 30
0.0
 11
356.7959544190677
 21
-1456.666546383419
 31
0.0
  0
MTEXT
  5
2EC
330
1F
100
AcDbEntity
  8
0-B_寸法
  6
Continuous
 62
     7
370
   211
100
AcDbMText
 10
271.7959544190677
 20
1465.971356107787
 30
0.0
 40
51.816
 41
170.0
 46
0.0
 71
     7
 72
     1
  1
{\fＭＳ ゴシック|b0|i0|c128|p49;1,592}
 73
     1
 44
1.0
  0
LINE
  5
2ED
330
1F
100
AcDbEntity
  8
0-B_寸法
  6
Continuous
 62
   120
370
     5
100
AcDbLine
 10
-689.2040455809314
 20
-1456.666546383419
 30
0.0
 11
-489.2040455809314
 21
-1456.666546383419
 31
0.0
  0
LWPOLYLINE
  5
2EE
330
1F
100
AcDbEntity
  8
0-B_寸法
  6
Continuous
 62
     7
370
     9
100
AcDbPolyline
 90
        4
 70
     1
 43
2.0
 10
-688.2040455809315
 20
-1456.666546383419
 42
0.4142135623731
 10
-689.2040455809314
 20
-1455.666546383419
 42
0.4142135623731
 10
-690.2040455809313
 20
-1456.666546383419
 42
0.4142135623731
 10
-689.2040455809314
 20
-1457.666546383419
 42
0.4142135623731
  0
LWPOLYLINE
  5
2EF
330
1F
100
AcDbEntity
  8
0-B_寸法
  6
Continuous
 62
     7
370
     9
100
AcDbPolyline
 90
        4
 70
     1
 43
2.0
 10
-688.2040455809315
 20
-1441.666546383419
 42
0.4142135623731
 10
-689.2040455809314
 20
-1440.666546383419
 42
0.4142135623731
 10
-690.2040455809313
 20
-1441.666546383419
 42
0.4142135623731
 10
-689.2040455809314
 20
-1442.666546383419
 42
0.4142135623731
  0
LINE
  5
2F0
330
1F
100
AcDbEntity
  8
0-1_本体
  6
Continuous
 62
    92
370
    13
100
AcDbLine
 10
356.7959544190677
 20
-1456.666546383419
 30
0.0
 11
-439.2040455809314
 21
-1456.666546383419
 31
0.0
  0
LINE
  5
2F1
330
1F
100
AcDbEntity
  8
0-1_本体
  6
Continuous
 62
    92
370
    13
100
AcDbLine
 10
341.7959544190677
 20
-1441.666546383419
 30
0.0
 11
-424.2040455809314
 21
-1441.666546383419
 31
0.0
  0
LINE
  5
2F2
330
1F
100
AcDbEntity
  8
0-1_本体
  6
Continuous
 62
    40
370
    15
100
AcDbLine
 10
-424.2040455809314
 20
1738.063356107788
 30
0.0
 11
-439.2040455809314
 21
1738.063356107788
 31
0.0
  0
LINE
  5
2F3
330
1F
100
AcDbEntity
  8
0-1_本体
  6
Continuous
 62
    40
370
    15
100
AcDbLine
 10
-439.2040455809314
 20
1738.063356107788
 30
0.0
 11
-439.2040455809314
 21
2083.063356107788
 31
0.0
  0
LINE
  5
2F4
330
1F
100
AcDbEntity
  8
0-1_本体
  6
Continuous
 62
    40
370
    15
100
AcDbLine
 10
341.7959544190677
 20
1738.063356107788
 30
0.0
 11
356.7959544190677
 21
1738.063356107788
 31
0.0
  0
LINE
  5
2F5
330
1F
100
AcDbEntity
  8
0-1_本体
  6
Continuous
 62
    40
370
    15
100
AcDbLine
 10
356.7959544190677
 20
1738.063356107788
 30
0.0
 11
356.7959544190677
 21
2083.063356107788
 31
0.0
  0
LINE
  5
2F6
330
1F
100
AcDbEntity
  8
0-1_本体
  6
Continuous
 62
    40
370
    15
100
AcDbLine
 10
-424.2040455809314
 20
2080.063356107788
 30
0.0
 11
-424.2040455809314
 21
1738.063356107788
 31
0.0
  0
LINE
  5
2F7
330
1F
100
AcDbEntity
  8
0-1_本体
  6
Continuous
 62
    40
370
    15
100
AcDbLine
 10
341.7959544190677
 20
2080.063356107788
 30
0.0
 11
341.7959544190677
 21
1738.063356107788
 31
0.0
  0
LINE
  5
2F8
330
1F
100
AcDbEntity
  8
0-4_棚
  6
Continuous
 62
    92
370
    13
100
AcDbLine
 10
-424.2040455809314
 20
1790.063356107788
 30
0.0
 11
341.7959544190677
 21
1790.063356107788
 31
0.0
  0
LINE
  5
2F9
330
1F
100
AcDbEntity
  8
0-4_棚
  6
Continuous
 62
    92
370
    13
100
AcDbLine
 10
-424.2040455809314
 20
1745.063356107788
 30
0.0
 11
341.7959544190677
 21
1745.063356107788
 31
0.0
  0
LINE
  5
2FA
330
1F
100
AcDbEntity
  8
0-0_補助線
  6
JWW_HOJO
 62
   120
370
     5
100
AcDbLine
 10
-489.2040455809314
 20
2133.063356107788
 30
0.0
 11
-489.2040455809314
 21
1460.063356107788
 31
0.0
  0
LINE
  5
2FB
330
1F
100
AcDbEntity
  8
0-0_補助線
  6
JWW_HOJO
 62
   120
370
     5
100
AcDbLine
 10
-589.2040455809314
 20
2133.063356107788
 30
0.0
 11
-589.2040455809314
 21
1460.063356107788
 31
0.0
  0
LINE
  5
2FC
330
1F
100
AcDbEntity
  8
0-0_補助線
  6
JWW_HOJO
 62
   120
370
     5
100
AcDbLine
 10
-689.2040455809314
 20
2133.063356107788
 30
0.0
 11
-689.2040455809314
 21
1460.063356107788
 31
0.0
  0
LINE
  5
2FD
330
1F
100
AcDbEntity
  8
0-0_補助線
  6
JWW_HOJO
 62
   120
370
     5
100
AcDbLine
 10
-489.2040455809314
 20
-1851.16654638342
 30
0.0
 11
-489.2040455809314
 21
862.3334536165811
 31
0.0
  0
LINE
  5
2FE
330
1F
100
AcDbEntity
  8
0-0_補助線
  6
JWW_HOJO
 62
     7
370
     9
100
AcDbLine
 10
356.7959544190677
 20
-1851.16654638342
 30
0.0
 11
356.7959544190677
 21
862.3334536165811
 31
0.0
  0
LINE
  5
2FF
330
1F
100
AcDbEntity
  8
0-0_補助線
  6
JWW_HOJO
 62
     7
370
     9
100
AcDbLine
 10
-439.2040455809314
 20
862.3334536165811
 30
0.0
 11
-439.2040455809314
 21
-1851.16654638342
 31
0.0
  0
LINE
  5
300
330
1F
100
AcDbEntity
  8
0-1_本体
  6
JWW_DASHED2
 62
     7
370
     9
100
AcDbLine
 10
341.7959544190677
 20
-1377.666546383421
 30
0.0
 11
-424.2040455809314
 21
-1377.666546383421
 31
0.0
  0
LINE
  5
301
330
1F
100
AcDbEntity
  8
0-B_寸法
  6
Continuous
 62
   120
370
     5
100
AcDbLine
 10
156.6152234564157
 20
-1441.666546383419
 30
0.0
 11
127.376947173118
 21
-1441.666546383419
 31
0.0
  0
LINE
  5
302
330
1F
100
AcDbEntity
  8
0-B_寸法
  6
Continuous
 62
   120
370
     5
100
AcDbLine
 10
156.6152234564157
 20
-1377.666546383421
 30
0.0
 11
127.376947173118
 21
-1377.666546383421
 31
0.0
  0
LWPOLYLINE
  5
303
330
1F
100
AcDbEntity
  8
0-B_寸法
  6
Continuous
 62
     7
370
     9
100
AcDbPolyline
 90
        4
 70
     1
 43
2.0
 10
157.6152234564157
 20
-1441.666546383419
 42
0.4142135623731
 10
156.6152234564157
 20
-1440.666546383419
 42
0.4142135623731
 10
155.6152234564157
 20
-1441.666546383419
 42
0.4142135623731
 10
156.6152234564157
 20
-1442.666546383419
 42
0.4142135623731
  0
LWPOLYLINE
  5
304
330
1F
100
AcDbEntity
  8
0-B_寸法
  6
Continuous
 62
     7
370
     9
100
AcDbPolyline
 90
        4
 70
     1
 43
2.0
 10
157.6152234564157
 20
-1377.666546383421
 42
0.4142135623731
 10
156.6152234564157
 20
-1376.666546383421
 42
0.4142135623731
 10
155.6152234564157
 20
-1377.666546383421
 42
0.4142135623731
 10
156.6152234564157
 20
-1378.666546383421
 42
0.4142135623731
  0
LINE
  5
305
330
1F
100
AcDbEntity
  8
0-B_寸法
  6
Continuous
 62
   120
370
     5
100
AcDbLine
 10
156.6152234564157
 20
-1377.666546383421
 30
0.0
 11
156.6152234564157
 21
-1441.666546383419
 31
0.0
  0
LINE
  5
306
330
1F
100
AcDbEntity
  8
0-4_棚
  6
Continuous
 62
    92
370
    13
100
AcDbLine
 10
371.7959544190677
 20
-933.6665463834206
 30
0.0
 11
1137.795954419068
 21
-933.6665463834206
 31
0.0
  0
LINE
  5
307
330
1F
100
AcDbEntity
  8
0-4_棚
  6
Continuous
 62
    92
370
    13
100
AcDbLine
 10
371.7959544190677
 20
-945.6665463834202
 30
0.0
 11
1137.795954419068
 21
-945.6665463834202
 31
0.0
  0
LINE
  5
308
330
1F
100
AcDbEntity
  8
0-4_棚
  6
Continuous
 62
    92
370
    13
100
AcDbLine
 10
371.7959544190677
 20
-689.6665463834194
 30
0.0
 11
1137.795954419068
 21
-689.6665463834194
 31
0.0
  0
LINE
  5
309
330
1F
100
AcDbEntity
  8
0-4_棚
  6
Continuous
 62
    92
370
    13
100
AcDbLine
 10
371.7959544190677
 20
-433.6665463834197
 30
0.0
 11
1137.795954419068
 21
-433.6665463834197
 31
0.0
  0
LINE
  5
30A
330
1F
100
AcDbEntity
  8
0-4_棚
  6
Continuous
 62
    92
370
    13
100
AcDbLine
 10
371.7959544190677
 20
-421.6665463834215
 30
0.0
 11
1137.795954419068
 21
-421.6665463834215
 31
0.0
  0
LINE
  5
30B
330
1F
100
AcDbEntity
  8
0-4_棚
  6
Continuous
 62
    92
370
    13
100
AcDbLine
 10
371.7959544190677
 20
-677.6665463834206
 30
0.0
 11
1137.795954419068
 21
-677.6665463834206
 31
0.0
  0
LINE
  5
30C
330
1F
100
AcDbEntity
  8
0-4_棚
  6
Continuous
 62
    92
370
    13
100
AcDbLine
 10
371.7959544190677
 20
494.3334536165821
 30
0.0
 11
1137.795954419068
 21
494.3334536165821
 31
0.0
  0
LINE
  5
30D
330
1F
100
AcDbEntity
  8
0-4_棚
  6
Continuous
 62
    92
370
    13
100
AcDbLine
 10
371.7959544190677
 20
46.3334536165803
 30
0.0
 11
1137.795954419068
 21
46.3334536165803
 31
0.0
  0
LINE
  5
30E
330
1F
100
AcDbEntity
  8
0-4_棚
  6
Continuous
 62
    92
370
    13
100
AcDbLine
 10
371.7959544190677
 20
58.33345361658075
 30
0.0
 11
1137.795954419068
 21
58.33345361658075
 31
0.0
  0
LINE
  5
30F
330
1F
100
AcDbEntity
  8
0-4_棚
  6
Continuous
 62
    92
370
    13
100
AcDbLine
 10
371.7959544190677
 20
270.3334536165812
 30
0.0
 11
1137.795954419068
 21
270.3334536165812
 31
0.0
  0
LINE
  5
310
330
1F
100
AcDbEntity
  8
0-4_棚
  6
Continuous
 62
    92
370
    13
100
AcDbLine
 10
371.7959544190677
 20
282.3334536165794
 30
0.0
 11
1137.795954419068
 21
282.3334536165794
 31
0.0
  0
LINE
  5
311
330
1F
100
AcDbEntity
  8
0-4_棚
  6
Continuous
 62
    92
370
    13
100
AcDbLine
 10
371.7959544190677
 20
506.333453616582
 30
0.0
 11
1137.795954419068
 21
506.333453616582
 31
0.0
  0
LINE
  5
312
330
1F
100
AcDbEntity
  8
0-4_棚
  6
Continuous
 62
    92
370
    13
100
AcDbLine
 10
371.7959544190677
 20
-421.6665463834215
 30
0.0
 11
371.7959544190677
 21
-433.6665463834197
 31
0.0
  0
LINE
  5
313
330
1F
100
AcDbEntity
  8
0-4_棚
  6
Continuous
 62
    92
370
    13
100
AcDbLine
 10
371.7959544190677
 20
-677.6665463834206
 30
0.0
 11
371.7959544190677
 21
-689.6665463834194
 31
0.0
  0
LINE
  5
314
330
1F
100
AcDbEntity
  8
0-4_棚
  6
Continuous
 62
    92
370
    13
100
AcDbLine
 10
371.7959544190677
 20
-933.6665463834206
 30
0.0
 11
371.7959544190677
 21
-945.6665463834202
 31
0.0
  0
LINE
  5
315
330
1F
100
AcDbEntity
  8
0-4_棚
  6
Continuous
 62
    92
370
    13
100
AcDbLine
 10
371.7959544190677
 20
506.333453616582
 30
0.0
 11
371.7959544190677
 21
494.3334536165821
 31
0.0
  0
LINE
  5
316
330
1F
100
AcDbEntity
  8
0-4_棚
  6
Continuous
 62
    92
370
    13
100
AcDbLine
 10
371.7959544190677
 20
58.33345361658075
 30
0.0
 11
371.7959544190677
 21
46.3334536165803
 31
0.0
  0
LINE
  5
317
330
1F
100
AcDbEntity
  8
0-4_棚
  6
Continuous
 62
    92
370
    13
100
AcDbLine
 10
371.7959544190677
 20
282.3334536165794
 30
0.0
 11
371.7959544190677
 21
270.3334536165812
 31
0.0
  0
LINE
  5
318
330
1F
100
AcDbEntity
  8
0-4_棚
  6
Continuous
 62
    92
370
    13
100
AcDbLine
 10
1137.795954419068
 20
-1189.66654638342
 30
0.0
 11
371.7959544190677
 21
-1189.66654638342
 31
0.0
  0
LINE
  5
319
330
1F
100
AcDbEntity
  8
0-4_棚
  6
Continuous
 62
    92
370
    13
100
AcDbLine
 10
1137.795954419068
 20
-1201.666546383422
 30
0.0
 11
371.7959544190677
 21
-1201.666546383422
 31
0.0
  0
LINE
  5
31A
330
1F
100
AcDbEntity
  8
0-B_寸法
  6
JWW_HOJO
 62
     7
370
     9
100
AcDbLine
 10
907.2959544190661
 20
712.3334536165811
 30
0.0
 11
907.2959544190661
 21
-1456.666546383419
 31
0.0
  0
LINE
  5
31B
330
1F
100
AcDbEntity
  8
0-B_寸法
  6
JWW_HOJO
 62
     7
370
     9
100
AcDbLine
 10
602.2959544190661
 20
-1456.666546383419
 30
0.0
 11
602.2959544190661
 21
712.3334536165811
 31
0.0
  0
LINE
  5
31C
330
1F
100
AcDbEntity
  8
0-B_寸法
  6
Continuous
 62
   120
370
     5
100
AcDbLine
 10
952.615223456416
 20
633.3334536165808
 30
0.0
 11
923.3769471731165
 21
633.3334536165808
 31
0.0
  0
LINE
  5
31D
330
1F
100
AcDbEntity
  8
0-B_寸法
  6
Continuous
 62
   120
370
     5
100
AcDbLine
 10
952.615223456416
 20
697.3334536165811
 30
0.0
 11
923.3769471731165
 21
697.3334536165811
 31
0.0
  0
LWPOLYLINE
  5
31E
330
1F
100
AcDbEntity
  8
0-B_寸法
  6
Continuous
 62
     7
370
     9
100
AcDbPolyline
 90
        4
 70
     1
 43
2.0
 10
953.6152234564158
 20
633.3334536165808
 42
0.4142135623731
 10
952.615223456416
 20
634.3334536165808
 42
0.4142135623731
 10
951.6152234564161
 20
633.3334536165808
 42
0.4142135623731
 10
952.615223456416
 20
632.3334536165808
 42
0.4142135623731
  0
LWPOLYLINE
  5
31F
330
1F
100
AcDbEntity
  8
0-B_寸法
  6
Continuous
 62
     7
370
     9
100
AcDbPolyline
 90
        4
 70
     1
 43
2.0
 10
953.6152234564158
 20
697.3334536165811
 42
0.4142135623731
 10
952.615223456416
 20
698.333453616581
 42
0.4142135623731
 10
951.6152234564161
 20
697.3334536165811
 42
0.4142135623731
 10
952.615223456416
 20
696.3334536165812
 42
0.4142135623731
  0
LINE
  5
320
330
1F
100
AcDbEntity
  8
0-B_寸法
  6
Continuous
 62
   120
370
     5
100
AcDbLine
 10
952.615223456416
 20
697.3334536165811
 30
0.0
 11
952.615223456416
 21
633.3334536165808
 31
0.0
  0
LINE
  5
321
330
1F
100
AcDbEntity
  8
0-1_本体
  6
JWW_DASHED2
 62
     7
370
     9
100
AcDbLine
 10
1137.795954419068
 20
633.3334536165808
 30
0.0
 11
371.7959544190677
 21
633.3334536165808
 31
0.0
  0
LINE
  5
322
330
1F
100
AcDbEntity
  8
0-1_本体
  6
Continuous
 62
    92
370
    13
100
AcDbLine
 10
356.7959544190677
 20
712.3334536165811
 30
0.0
 11
1152.795954419068
 21
712.3334536165811
 31
0.0
  0
LINE
  5
323
330
1F
100
AcDbEntity
  8
0-1_本体
  6
Continuous
 62
    92
370
    13
100
AcDbLine
 10
371.7959544190677
 20
697.3334536165811
 30
0.0
 11
1137.795954419068
 21
697.3334536165811
 31
0.0
  0
LINE
  5
324
330
1F
100
AcDbEntity
  8
0-1_本体
  6
Continuous
 62
    92
370
    13
100
AcDbLine
 10
371.7959544190677
 20
-1456.666546383419
 30
0.0
 11
371.7959544190677
 21
712.3334536165811
 31
0.0
  0
LINE
  5
325
330
1F
100
AcDbEntity
  8
0-1_本体
  6
Continuous
 62
    92
370
    13
100
AcDbLine
 10
1137.795954419068
 20
712.3334536165811
 30
0.0
 11
1137.795954419068
 21
-1456.666546383419
 31
0.0
  0
LINE
  5
326
330
1F
100
AcDbEntity
  8
0-1_本体
  6
Continuous
 62
    92
370
    13
100
AcDbLine
 10
1152.795954419068
 20
712.3334536165811
 30
0.0
 11
1152.795954419068
 21
-1456.666546383419
 31
0.0
  0
LINE
  5
327
330
1F
100
AcDbEntity
  8
0-1_本体
  6
Continuous
 62
    92
370
    13
100
AcDbLine
 10
1152.795954419068
 20
-1456.666546383419
 30
0.0
 11
356.7959544190677
 21
-1456.666546383419
 31
0.0
  0
LINE
  5
328
330
1F
100
AcDbEntity
  8
0-1_本体
  6
Continuous
 62
    92
370
    13
100
AcDbLine
 10
1137.795954419068
 20
-1441.666546383419
 30
0.0
 11
371.7959544190677
 21
-1441.666546383419
 31
0.0
  0
LINE
  5
329
330
1F
100
AcDbEntity
  8
0-1_本体
  6
Continuous
 62
    40
370
    15
100
AcDbLine
 10
371.7959544190677
 20
1738.063356107788
 30
0.0
 11
356.7959544190677
 21
1738.063356107788
 31
0.0
  0
LINE
  5
32A
330
1F
100
AcDbEntity
  8
0-1_本体
  6
Continuous
 62
    40
370
    15
100
AcDbLine
 10
1137.795954419068
 20
1738.063356107788
 30
0.0
 11
1152.795954419068
 21
1738.063356107788
 31
0.0
  0
LINE
  5
32B
330
1F
100
AcDbEntity
  8
0-1_本体
  6
Continuous
 62
    40
370
    15
100
AcDbLine
 10
1152.795954419068
 20
1738.063356107788
 30
0.0
 11
1152.795954419068
 21
2083.063356107788
 31
0.0
  0
LINE
  5
32C
330
1F
100
AcDbEntity
  8
0-1_本体
  6
Continuous
 62
    40
370
    15
100
AcDbLine
 10
371.7959544190677
 20
2080.063356107788
 30
0.0
 11
371.7959544190677
 21
1738.063356107788
 31
0.0
  0
LINE
  5
32D
330
1F
100
AcDbEntity
  8
0-1_本体
  6
Continuous
 62
    40
370
    15
100
AcDbLine
 10
1137.795954419068
 20
2080.063356107788
 30
0.0
 11
1137.795954419068
 21
1738.063356107788
 31
0.0
  0
LINE
  5
32E
330
1F
100
AcDbEntity
  8
0-4_棚
  6
Continuous
 62
    92
370
    13
100
AcDbLine
 10
371.7959544190677
 20
1790.063356107788
 30
0.0
 11
1137.795954419068
 21
1790.063356107788
 31
0.0
  0
LINE
  5
32F
330
1F
100
AcDbEntity
  8
0-4_棚
  6
Continuous
 62
    92
370
    13
100
AcDbLine
 10
371.7959544190677
 20
1745.063356107788
 30
0.0
 11
1137.795954419068
 21
1745.063356107788
 31
0.0
  0
LINE
  5
330
330
1F
100
AcDbEntity
  8
0-1_本体
  6
JWW_DASHED2
 62
     7
370
     9
100
AcDbLine
 10
1137.795954419068
 20
-1377.666546383421
 30
0.0
 11
371.7959544190677
 21
-1377.666546383421
 31
0.0
  0
LINE
  5
331
330
1F
100
AcDbEntity
  8
0-B_寸法
  6
Continuous
 62
   120
370
     5
100
AcDbLine
 10
952.615223456416
 20
-1441.666546383419
 30
0.0
 11
923.3769471731165
 21
-1441.666546383419
 31
0.0
  0
LINE
  5
332
330
1F
100
AcDbEntity
  8
0-B_寸法
  6
Continuous
 62
   120
370
     5
100
AcDbLine
 10
952.615223456416
 20
-1377.666546383421
 30
0.0
 11
923.3769471731165
 21
-1377.666546383421
 31
0.0
  0
LWPOLYLINE
  5
333
330
1F
100
AcDbEntity
  8
0-B_寸法
  6
Continuous
 62
     7
370
     9
100
AcDbPolyline
 90
        4
 70
     1
 43
2.0
 10
953.6152234564158
 20
-1441.666546383419
 42
0.4142135623731
 10
952.615223456416
 20
-1440.666546383419
 42
0.4142135623731
 10
951.6152234564161
 20
-1441.666546383419
 42
0.4142135623731
 10
952.615223456416
 20
-1442.666546383419
 42
0.4142135623731
  0
LWPOLYLINE
  5
334
330
1F
100
AcDbEntity
  8
0-B_寸法
  6
Continuous
 62
     7
370
     9
100
AcDbPolyline
 90
        4
 70
     1
 43
2.0
 10
953.6152234564158
 20
-1377.666546383421
 42
0.4142135623731
 10
952.615223456416
 20
-1376.666546383421
 42
0.4142135623731
 10
951.6152234564161
 20
-1377.666546383421
 42
0.4142135623731
 10
952.615223456416
 20
-1378.666546383421
 42
0.4142135623731
  0
LINE
  5
335
330
1F
100
AcDbEntity
  8
0-B_寸法
  6
Continuous
 62
   120
370
     5
100
AcDbLine
 10
952.615223456416
 20
-1377.666546383421
 30
0.0
 11
952.615223456416
 21
-1441.666546383419
 31
0.0
  0
LINE
  5
336
330
1F
100
AcDbEntity
  8
0-A_文字
  6
Continuous
 62
     7
370
     9
100
AcDbLine
 10
-68.2040455809323
 20
1160.063356107787
 30
0.0
 11
-68.2040455809323
 21
1310.063356107787
 31
0.0
  0
LINE
  5
337
330
1F
100
AcDbEntity
  8
0-A_文字
  6
Continuous
 62
     7
370
     9
100
AcDbLine
 10
781.7959544190688
 20
1160.063356107787
 30
0.0
 11
-68.2040455809323
 21
1160.063356107787
 31
0.0
  0
LINE
  5
338
330
1F
100
AcDbEntity
  8
0-A_文字
  6
Continuous
 62
     7
370
     9
100
AcDbLine
 10
781.7959544190688
 20
1310.063356107787
 30
0.0
 11
781.7959544190688
 21
1160.063356107787
 31
0.0
  0
LINE
  5
339
330
1F
100
AcDbEntity
  8
0-A_文字
  6
Continuous
 62
     7
370
     9
100
AcDbLine
 10
-68.2040455809323
 20
1310.063356107787
 30
0.0
 11
781.7959544190688
 21
1310.063356107787
 31
0.0
  0
MTEXT
  5
33A
330
1F
100
AcDbEntity
  8
0-B_寸法
  6
Continuous
 62
     7
370
   211
100
AcDbMText
 10
271.7959544190677
 20
868.2414536165811
 30
0.0
 40
51.816
 41
170.0
 46
0.0
 71
     7
 72
     1
  1
{\fＭＳ ゴシック|b0|i0|c128|p49;1,592}
 73
     1
 44
1.0
  0
MTEXT
  5
33B
330
1F
100
AcDbEntity
  8
0-B_寸法
  6
Continuous
 62
     7
370
   211
100
AcDbMText
 10
-699.2040455809314
 20
635.9655753262166
 30
0.0
 40
45.72
 41
60.0
 46
0.0
 71
     7
 72
     1
  1
{\fＭＳ ゴシック|b0|i0|c128|p49;15}
 11
6.123031769111886E-17
 21
1.0
 31
0.0
 73
     1
 44
1.0
  0
MTEXT
  5
33C
330
1F
100
AcDbEntity
  8
0-B_寸法
  6
Continuous
 62
     7
370
   211
100
AcDbMText
 10
146.6152234564157
 20
627.5984536165806
 30
0.0
 40
49.53
 41
65.0
 46
0.0
 71
     7
 72
     1
  1
{\fＭＳ ゴシック|b0|i0|c128|p49;64}
 11
6.123031769111886E-17
 21
1.0
 31
0.0
 73
     1
 44
1.0
  0
MTEXT
  5
33D
330
1F
100
AcDbEntity
  8
0-B_寸法
  6
Continuous
 62
     7
370
   211
100
AcDbMText
 10
942.615223456416
 20
627.5984536165806
 30
0.0
 40
49.53
 41
65.0
 46
0.0
 71
     7
 72
     1
  1
{\fＭＳ ゴシック|b0|i0|c128|p49;64}
 11
6.123031769111886E-17
 21
1.0
 31
0.0
 73
     1
 44
1.0
  0
MTEXT
  5
33E
330
1F
100
AcDbEntity
  8
0-B_寸法
  6
Continuous
 62
     7
370
   211
100
AcDbMText
 10
-599.2971531475968
 20
-249.3065463834211
 30
0.0
 40
45.72
 41
60.0
 46
0.0
 71
     7
 72
     1
  1
{\fＭＳ ゴシック|b0|i0|c128|p49;15}
 11
6.123031769111886E-17
 21
1.0
 31
0.0
 73
     1
 44
1.0
  0
MTEXT
  5
33F
330
1F
100
AcDbEntity
  8
0-B_寸法
  6
Continuous
 62
     7
370
   211
100
AcDbMText
 10
-699.2040455809314
 20
-454.3065463834188
 30
0.0
 40
45.72
 41
150.0
 46
0.0
 71
     7
 72
     1
  1
{\fＭＳ ゴシック|b0|i0|c128|p49;2,139}
 11
6.123031769111886E-17
 21
1.0
 31
0.0
 73
     1
 44
1.0
  0
LINE
  5
340
330
1F
100
AcDbEntity
  8
0-B_寸法
  6
Continuous
 62
   120
370
     5
100
AcDbLine
 10
1152.795954419068
 20
1460.063356107788
 30
0.0
 11
-439.2040455809314
 21
1460.063356107788
 31
0.0
  0
LWPOLYLINE
  5
341
330
1F
100
AcDbEntity
  8
0-B_寸法
  6
Continuous
 62
     7
370
     9
100
AcDbPolyline
 90
        4
 70
     1
 43
2.0
 10
1153.795954419068
 20
1460.063356107788
 42
0.4142135623731
 10
1152.795954419068
 20
1461.063356107788
 42
0.4142135623731
 10
1151.795954419068
 20
1460.063356107788
 42
0.4142135623731
 10
1152.795954419068
 20
1459.063356107788
 42
0.4142135623731
  0
LWPOLYLINE
  5
342
330
1F
100
AcDbEntity
  8
0-B_寸法
  6
Continuous
 62
     7
370
     9
100
AcDbPolyline
 90
        4
 70
     1
 43
2.0
 10
-438.2040455809314
 20
1460.063356107788
 42
0.4142135623731
 10
-439.2040455809314
 20
1461.063356107788
 42
0.4142135623731
 10
-440.2040455809314
 20
1460.063356107788
 42
0.4142135623731
 10
-439.2040455809314
 20
1459.063356107788
 42
0.4142135623731
  0
LINE
  5
343
330
1F
100
AcDbEntity
  8
0-B_寸法
  6
Continuous
 62
   120
370
     5
100
AcDbLine
 10
1152.795954419068
 20
1460.063356107788
 30
0.0
 11
1152.795954419068
 21
1560.063356107788
 31
0.0
  0
LINE
  5
344
330
1F
100
AcDbEntity
  8
0-B_寸法
  6
Continuous
 62
   120
370
     5
100
AcDbLine
 10
-439.2040455809314
 20
1460.063356107788
 30
0.0
 11
-439.2040455809314
 21
1560.063356107788
 31
0.0
  0
MTEXT
  5
345
330
1F
100
AcDbEntity
  8
0-B_寸法
  6
Continuous
 62
     7
370
   211
100
AcDbMText
 10
-599.2971531475968
 20
-912.8065463834201
 30
0.0
 40
45.72
 41
150.0
 46
0.0
 71
     7
 72
     1
  1
{\fＭＳ ゴシック|b0|i0|c128|p49;1,222}
 11
6.123031769111886E-17
 21
1.0
 31
0.0
 73
     1
 44
1.0
  0
LINE
  5
346
330
1F
100
AcDbEntity
  8
0-B_寸法
  6
Continuous
 62
   120
370
     5
100
AcDbLine
 10
-439.2040455809314
 20
862.3334536165811
 30
0.0
 11
1152.795954419068
 21
862.3334536165811
 31
0.0
  0
LWPOLYLINE
  5
347
330
1F
100
AcDbEntity
  8
0-B_寸法
  6
Continuous
 62
     7
370
     9
100
AcDbPolyline
 90
        4
 70
     1
 43
2.0
 10
-438.2040455809314
 20
862.3334536165811
 42
0.4142135623731
 10
-439.2040455809314
 20
863.333453616581
 42
0.4142135623731
 10
-440.2040455809314
 20
862.3334536165811
 42
0.4142135623731
 10
-439.2040455809314
 20
861.3334536165812
 42
0.4142135623731
  0
LWPOLYLINE
  5
348
330
1F
100
AcDbEntity
  8
0-B_寸法
  6
Continuous
 62
     7
370
     9
100
AcDbPolyline
 90
        4
 70
     1
 43
2.0
 10
1153.795954419068
 20
862.3334536165811
 42
0.4142135623731
 10
1152.795954419068
 20
863.333453616581
 42
0.4142135623731
 10
1151.795954419068
 20
862.3334536165811
 42
0.4142135623731
 10
1152.795954419068
 20
861.3334536165812
 42
0.4142135623731
  0
LINE
  5
349
330
1F
100
AcDbEntity
  8
0-B_寸法
  6
Continuous
 62
   120
370
     5
100
AcDbLine
 10
-439.2040455809314
 20
862.3334536165811
 30
0.0
 11
-439.2040455809314
 21
762.3334536165811
 31
0.0
  0
LINE
  5
34A
330
1F
100
AcDbEntity
  8
0-B_寸法
  6
Continuous
 62
   120
370
     5
100
AcDbLine
 10
1152.795954419068
 20
862.3334536165811
 30
0.0
 11
1152.795954419068
 21
762.3334536165811
 31
0.0
  0
LINE
  5
34B
330
1F
100
AcDbEntity
  8
0-C_ハッチ
  6
Continuous
 62
   120
370
     5
100
AcDbLine
 10
-424.2040455809359
 20
-206.6538900009891
 30
0.0
 11
-422.2167019633633
 21
-204.6665463834188
 31
0.0
  0
LINE
  5
34C
330
1F
100
AcDbEntity
  8
0-C_ハッチ
  6
Continuous
 62
   120
370
     5
100
AcDbLine
 10
-423.0745663396323
 20
-219.6665463834188
 30
0.0
 11
-408.0745663396323
 21
-204.6665463834188
 31
0.0
  0
LINE
  5
34D
330
1F
100
AcDbEntity
  8
0-C_ハッチ
  6
Continuous
 62
   120
370
     5
100
AcDbLine
 10
-408.9324307159012
 20
-219.6665463834211
 30
0.0
 11
-393.9324307159012
 21
-204.6665463834211
 31
0.0
  0
LINE
  5
34E
330
1F
100
AcDbEntity
  8
0-C_ハッチ
  6
Continuous
 62
   120
370
     5
100
AcDbLine
 10
-394.7902950921679
 20
-219.6665463834233
 30
0.0
 11
-379.7902950921679
 21
-204.6665463834211
 31
0.0
  0
LINE
  5
34F
330
1F
100
AcDbEntity
  8
0-C_ハッチ
  6
Continuous
 62
   120
370
     5
100
AcDbLine
 10
-380.6481594684368
 20
-219.6665463834233
 30
0.0
 11
-365.6481594684345
 21
-204.6665463834233
 31
0.0
  0
LINE
  5
350
330
1F
100
AcDbEntity
  8
0-C_ハッチ
  6
Continuous
 62
   120
370
     5
100
AcDbLine
 10
-366.5060238447035
 20
-219.6665463834233
 30
0.0
 11
-351.5060238447012
 21
-204.6665463834233
 31
0.0
  0
LINE
  5
351
330
1F
100
AcDbEntity
  8
0-C_ハッチ
  6
Continuous
 62
   120
370
     5
100
AcDbLine
 10
-352.3638882209724
 20
-219.6665463834256
 30
0.0
 11
-337.3638882209701
 21
-204.6665463834233
 31
0.0
  0
LINE
  5
352
330
1F
100
AcDbEntity
  8
0-C_ハッチ
  6
Continuous
 62
   120
370
     5
100
AcDbLine
 10
-338.2217525972391
 20
-219.6665463834279
 30
0.0
 11
-323.2217525972391
 21
-204.6665463834256
 31
0.0
  0
LINE
  5
353
330
1F
100
AcDbEntity
  8
0-C_ハッチ
  6
Continuous
 62
   120
370
     5
100
AcDbLine
 10
-324.079616973508
 20
-219.6665463834279
 30
0.0
 11
-309.0796169735057
 21
-204.6665463834279
 31
0.0
  0
LINE
  5
354
330
1F
100
AcDbEntity
  8
0-C_ハッチ
  6
Continuous
 62
   120
370
     5
100
AcDbLine
 10
-309.9374813497747
 20
-219.6665463834279
 30
0.0
 11
-294.9374813497724
 21
-204.6665463834279
 31
0.0
  0
LINE
  5
355
330
1F
100
AcDbEntity
  8
0-C_ハッチ
  6
Continuous
 62
   120
370
     5
100
AcDbLine
 10
-295.7953457260618
 20
-219.6665463834142
 30
0.0
 11
-280.7953457260709
 21
-204.6665463834233
 31
0.0
  0
LINE
  5
356
330
1F
100
AcDbEntity
  8
0-C_ハッチ
  6
Continuous
 62
   120
370
     5
100
AcDbLine
 10
-281.6532101023307
 20
-219.6665463834142
 30
0.0
 11
-266.6532101023284
 21
-204.6665463834142
 31
0.0
  0
LINE
  5
357
330
1F
100
AcDbEntity
  8
0-C_ハッチ
  6
Continuous
 62
   120
370
     5
100
AcDbLine
 10
-267.5110744785997
 20
-219.6665463834165
 30
0.0
 11
-252.5110744785974
 21
-204.6665463834142
 31
0.0
  0
LINE
  5
358
330
1F
100
AcDbEntity
  8
0-C_ハッチ
  6
Continuous
 62
   120
370
     5
100
AcDbLine
 10
-253.3689388548669
 20
-219.6665463834188
 30
0.0
 11
-238.3689388548669
 21
-204.6665463834165
 31
0.0
  0
LINE
  5
359
330
1F
100
AcDbEntity
  8
0-C_ハッチ
  6
Continuous
 62
   120
370
     5
100
AcDbLine
 10
-239.2268032311352
 20
-219.6665463834188
 30
0.0
 11
-224.2268032311335
 21
-204.6665463834188
 31
0.0
  0
LINE
  5
35A
330
1F
100
AcDbEntity
  8
0-C_ハッチ
  6
Continuous
 62
   120
370
     5
100
AcDbLine
 10
-225.0846676074048
 20
-219.6665463834211
 30
0.0
 11
-210.0846676074019
 21
-204.6665463834188
 31
0.0
  0
LINE
  5
35B
330
1F
100
AcDbEntity
  8
0-C_ハッチ
  6
Continuous
 62
   120
370
     5
100
AcDbLine
 10
-210.9425319836714
 20
-219.6665463834211
 30
0.0
 11
-195.9425319836714
 21
-204.6665463834211
 31
0.0
  0
LINE
  5
35C
330
1F
100
AcDbEntity
  8
0-C_ハッチ
  6
Continuous
 62
   120
370
     5
100
AcDbLine
 10
-196.8003963599381
 20
-219.6665463834233
 30
0.0
 11
-181.8003963599381
 21
-204.6665463834211
 31
0.0
  0
LINE
  5
35D
330
1F
100
AcDbEntity
  8
0-C_ハッチ
  6
Continuous
 62
   120
370
     5
100
AcDbLine
 10
-182.6582607362047
 20
-219.6665463834211
 30
0.0
 11
-167.6582607362019
 21
-204.6665463834188
 31
0.0
  0
LINE
  5
35E
330
1F
100
AcDbEntity
  8
0-C_ハッチ
  6
Continuous
 62
   120
370
     5
100
AcDbLine
 10
-168.5161251124714
 20
-219.6665463834233
 30
0.0
 11
-153.5161251124714
 21
-204.6665463834211
 31
0.0
  0
LINE
  5
35F
330
1F
100
AcDbEntity
  8
0-C_ハッチ
  6
Continuous
 62
   120
370
     5
100
AcDbLine
 10
-154.3739894887381
 20
-219.6665463834233
 30
0.0
 11
-139.3739894887381
 21
-204.6665463834211
 31
0.0
  0
LINE
  5
360
330
1F
100
AcDbEntity
  8
0-C_ハッチ
  6
Continuous
 62
   120
370
     5
100
AcDbLine
 10
-140.2318538650064
 20
-219.6665463834233
 30
0.0
 11
-125.2318538650047
 21
-204.6665463834233
 31
0.0
  0
LINE
  5
361
330
1F
100
AcDbEntity
  8
0-C_ハッチ
  6
Continuous
 62
   120
370
     5
100
AcDbLine
 10
-126.0897182412759
 20
-219.6665463834256
 30
0.0
 11
-111.0897182412731
 21
-204.6665463834233
 31
0.0
  0
LINE
  5
362
330
1F
100
AcDbEntity
  8
0-C_ハッチ
  6
Continuous
 62
   120
370
     5
100
AcDbLine
 10
-111.9475826175426
 20
-219.6665463834256
 30
0.0
 11
-96.9475826175426
 21
-204.6665463834256
 31
0.0
  0
LINE
  5
363
330
1F
100
AcDbEntity
  8
0-C_ハッチ
  6
Continuous
 62
   120
370
     5
100
AcDbLine
 10
-97.80544699380926
 20
-219.6665463834279
 30
0.0
 11
-82.80544699380926
 21
-204.6665463834256
 31
0.0
  0
LINE
  5
364
330
1F
100
AcDbEntity
  8
0-C_ハッチ
  6
Continuous
 62
   120
370
     5
100
AcDbLine
 10
-83.66331137010036
 20
-219.6665463834142
 30
0.0
 11
-68.6633113701123
 21
-204.6665463834256
 31
0.0
  0
LINE
  5
365
330
1F
100
AcDbEntity
  8
0-C_ハッチ
  6
Continuous
 62
   120
370
     5
100
AcDbLine
 10
-69.52117574636986
 20
-219.6665463834165
 30
0.0
 11
-54.52117574636702
 21
-204.6665463834165
 31
0.0
  0
LINE
  5
366
330
1F
100
AcDbEntity
  8
0-C_ハッチ
  6
Continuous
 62
   120
370
     5
100
AcDbLine
 10
-55.37904012263823
 20
-219.6665463834188
 30
0.0
 11
-40.37904012263652
 21
-204.6665463834165
 31
0.0
  0
LINE
  5
367
330
1F
100
AcDbEntity
  8
0-C_ハッチ
  6
Continuous
 62
   120
370
     5
100
AcDbLine
 10
-41.23690449890489
 20
-219.6665463834188
 30
0.0
 11
-26.23690449890489
 21
-204.6665463834188
 31
0.0
  0
LINE
  5
368
330
1F
100
AcDbEntity
  8
0-C_ハッチ
  6
Continuous
 62
   120
370
     5
100
AcDbLine
 10
-27.0947688751744
 20
-219.6665463834211
 30
0.0
 11
-12.09476887517155
 21
-204.6665463834188
 31
0.0
  0
LINE
  5
369
330
1F
100
AcDbEntity
  8
0-C_ハッチ
  6
Continuous
 62
   120
370
     5
100
AcDbLine
 10
-12.95263325144106
 20
-219.6665463834211
 30
0.0
 11
2.047366748558943
 21
-204.6665463834211
 31
0.0
  0
LINE
  5
36A
330
1F
100
AcDbEntity
  8
0-C_ハッチ
  6
Continuous
 62
   120
370
     5
100
AcDbLine
 10
1.189502372290576
 20
-219.6665463834233
 30
0.0
 11
16.18950237229228
 21
-204.6665463834233
 31
0.0
  0
LINE
  5
36B
330
1F
100
AcDbEntity
  8
0-C_ハッチ
  6
Continuous
 62
   120
370
     5
100
AcDbLine
 10
15.33163799602391
 20
-219.6665463834233
 30
0.0
 11
30.33163799602391
 21
-204.6665463834233
 31
0.0
  0
LINE
  5
36C
330
1F
100
AcDbEntity
  8
0-C_ハッチ
  6
Continuous
 62
   120
370
     5
100
AcDbLine
 10
29.4737736197618
 20
-219.6665463834188
 30
0.0
 11
44.4737736197618
 21
-204.6665463834188
 31
0.0
  0
LINE
  5
36D
330
1F
100
AcDbEntity
  8
0-C_ハッチ
  6
Continuous
 62
   120
370
     5
100
AcDbLine
 10
43.6159092434923
 20
-219.6665463834211
 30
0.0
 11
58.61590924349514
 21
-204.6665463834188
 31
0.0
  0
LINE
  5
36E
330
1F
100
AcDbEntity
  8
0-C_ハッチ
  6
Continuous
 62
   120
370
     5
100
AcDbLine
 10
57.75804486722564
 20
-219.6665463834211
 30
0.0
 11
72.75804486722564
 21
-204.6665463834211
 31
0.0
  0
LINE
  5
36F
330
1F
100
AcDbEntity
  8
0-C_ハッチ
  6
Continuous
 62
   120
370
     5
100
AcDbLine
 10
71.90018049095727
 20
-219.6665463834233
 30
0.0
 11
86.90018049095897
 21
-204.6665463834211
 31
0.0
  0
LINE
  5
370
330
1F
100
AcDbEntity
  8
0-C_ハッチ
  6
Continuous
 62
   120
370
     5
100
AcDbLine
 10
86.0423161146906
 20
-219.6665463834233
 30
0.0
 11
101.0423161146906
 21
-204.6665463834233
 31
0.0
  0
LINE
  5
371
330
1F
100
AcDbEntity
  8
0-C_ハッチ
  6
Continuous
 62
   120
370
     5
100
AcDbLine
 10
100.1844517384211
 20
-219.6665463834256
 30
0.0
 11
115.1844517384239
 21
-204.6665463834233
 31
0.0
  0
LINE
  5
372
330
1F
100
AcDbEntity
  8
0-C_ハッチ
  6
Continuous
 62
   120
370
     5
100
AcDbLine
 10
114.3265873621544
 20
-219.6665463834256
 30
0.0
 11
129.3265873621544
 21
-204.6665463834256
 31
0.0
  0
LINE
  5
373
330
1F
100
AcDbEntity
  8
0-C_ハッチ
  6
Continuous
 62
   120
370
     5
100
AcDbLine
 10
128.4687229858605
 20
-219.6665463834165
 30
0.0
 11
143.4687229858514
 21
-204.6665463834256
 31
0.0
  0
LINE
  5
374
330
1F
100
AcDbEntity
  8
0-C_ハッチ
  6
Continuous
 62
   120
370
     5
100
AcDbLine
 10
142.6108586095921
 20
-219.6665463834188
 30
0.0
 11
157.6108586095938
 21
-204.6665463834165
 31
0.0
  0
LINE
  5
375
330
1F
100
AcDbEntity
  8
0-C_ハッチ
  6
Continuous
 62
   120
370
     5
100
AcDbLine
 10
156.7529942333255
 20
-219.6665463834188
 30
0.0
 11
171.7529942333255
 21
-204.6665463834188
 31
0.0
  0
LINE
  5
376
330
1F
100
AcDbEntity
  8
0-C_ハッチ
  6
Continuous
 62
   120
370
     5
100
AcDbLine
 10
170.895129857056
 20
-219.6665463834211
 30
0.0
 11
185.8951298570588
 21
-204.6665463834188
 31
0.0
  0
LINE
  5
377
330
1F
100
AcDbEntity
  8
0-C_ハッチ
  6
Continuous
 62
   120
370
     5
100
AcDbLine
 10
185.0372654807893
 20
-219.6665463834233
 30
0.0
 11
200.0372654807893
 21
-204.6665463834211
 31
0.0
  0
LINE
  5
378
330
1F
100
AcDbEntity
  8
0-C_ハッチ
  6
Continuous
 62
   120
370
     5
100
AcDbLine
 10
199.1794011045209
 20
-219.6665463834233
 30
0.0
 11
214.1794011045209
 21
-204.6665463834233
 31
0.0
  0
LINE
  5
379
330
1F
100
AcDbEntity
  8
0-C_ハッチ
  6
Continuous
 62
   120
370
     5
100
AcDbLine
 10
213.3215367282514
 20
-219.6665463834256
 30
0.0
 11
228.3215367282543
 21
-204.6665463834233
 31
0.0
  0
LINE
  5
37A
330
1F
100
AcDbEntity
  8
0-C_ハッチ
  6
Continuous
 62
   120
370
     5
100
AcDbLine
 10
227.4636723519848
 20
-219.6665463834256
 30
0.0
 11
242.4636723519848
 21
-204.6665463834256
 31
0.0
  0
LINE
  5
37B
330
1F
100
AcDbEntity
  8
0-C_ハッチ
  6
Continuous
 62
   120
370
     5
100
AcDbLine
 10
241.6058079757255
 20
-219.6665463834188
 30
0.0
 11
256.6058079757272
 21
-204.6665463834165
 31
0.0
  0
LINE
  5
37C
330
1F
100
AcDbEntity
  8
0-C_ハッチ
  6
Continuous
 62
   120
370
     5
100
AcDbLine
 10
255.7479435994588
 20
-219.6665463834188
 30
0.0
 11
270.7479435994588
 21
-204.6665463834188
 31
0.0
  0
LINE
  5
37D
330
1F
100
AcDbEntity
  8
0-C_ハッチ
  6
Continuous
 62
   120
370
     5
100
AcDbLine
 10
269.8900792231893
 20
-219.6665463834211
 30
0.0
 11
284.8900792231922
 21
-204.6665463834188
 31
0.0
  0
LINE
  5
37E
330
1F
100
AcDbEntity
  8
0-C_ハッチ
  6
Continuous
 62
   120
370
     5
100
AcDbLine
 10
284.0322148469227
 20
-219.6665463834211
 30
0.0
 11
299.0322148469227
 21
-204.6665463834211
 31
0.0
  0
LINE
  5
37F
330
1F
100
AcDbEntity
  8
0-C_ハッチ
  6
Continuous
 62
   120
370
     5
100
AcDbLine
 10
298.1743504706543
 20
-219.6665463834233
 30
0.0
 11
313.174350470656
 21
-204.6665463834211
 31
0.0
  0
LINE
  5
380
330
1F
100
AcDbEntity
  8
0-C_ハッチ
  6
Continuous
 62
   120
370
     5
100
AcDbLine
 10
312.3164860943876
 20
-219.6665463834233
 30
0.0
 11
327.3164860943876
 21
-204.6665463834233
 31
0.0
  0
LINE
  5
381
330
1F
100
AcDbEntity
  8
0-C_ハッチ
  6
Continuous
 62
   120
370
     5
100
AcDbLine
 10
326.4586217181181
 20
-219.6665463834256
 30
0.0
 11
341.458621718121
 21
-204.6665463834233
 31
0.0
  0
LINE
  5
382
330
1F
100
AcDbEntity
  8
0-4_棚
  6
Continuous
 62
    92
370
    13
100
AcDbLine
 10
341.7959544190677
 20
-204.6665463834233
 30
0.0
 11
-424.2040455809314
 21
-204.6665463834233
 31
0.0
  0
LINE
  5
383
330
1F
100
AcDbEntity
  8
0-4_棚
  6
Continuous
 62
    92
370
    13
100
AcDbLine
 10
341.7959544190677
 20
-219.6665463834233
 30
0.0
 11
-424.2040455809314
 21
-219.6665463834233
 31
0.0
  0
LINE
  5
384
330
1F
100
AcDbEntity
  8
0-C_ハッチ
  6
Continuous
 62
   120
370
     5
100
AcDbLine
 10
340.6007573418225
 20
-219.6665463834188
 30
0.0
 11
341.7959544190677
 21
-218.4713493061736
 31
0.0
  0
LINE
  5
385
330
1F
100
AcDbEntity
  8
0-C_ハッチ
  6
Continuous
 62
   120
370
     5
100
AcDbLine
 10
371.7959544190632
 20
-206.6538900009891
 30
0.0
 11
373.7832980366352
 21
-204.6665463834188
 31
0.0
  0
LINE
  5
386
330
1F
100
AcDbEntity
  8
0-C_ハッチ
  6
Continuous
 62
   120
370
     5
100
AcDbLine
 10
372.9254336603668
 20
-219.6665463834188
 30
0.0
 11
387.9254336603668
 21
-204.6665463834188
 31
0.0
  0
LINE
  5
387
330
1F
100
AcDbEntity
  8
0-C_ハッチ
  6
Continuous
 62
   120
370
     5
100
AcDbLine
 10
387.0675692840973
 20
-219.6665463834211
 30
0.0
 11
402.0675692840973
 21
-204.6665463834211
 31
0.0
  0
LINE
  5
388
330
1F
100
AcDbEntity
  8
0-C_ハッチ
  6
Continuous
 62
   120
370
     5
100
AcDbLine
 10
401.2097049078307
 20
-219.6665463834233
 30
0.0
 11
416.2097049078307
 21
-204.6665463834211
 31
0.0
  0
LINE
  5
389
330
1F
100
AcDbEntity
  8
0-C_ハッチ
  6
Continuous
 62
   120
370
     5
100
AcDbLine
 10
415.3518405315623
 20
-219.6665463834233
 30
0.0
 11
430.351840531564
 21
-204.6665463834233
 31
0.0
  0
LINE
  5
38A
330
1F
100
AcDbEntity
  8
0-C_ハッチ
  6
Continuous
 62
   120
370
     5
100
AcDbLine
 10
429.4939761552956
 20
-219.6665463834233
 30
0.0
 11
444.4939761552973
 21
-204.6665463834233
 31
0.0
  0
LINE
  5
38B
330
1F
100
AcDbEntity
  8
0-C_ハッチ
  6
Continuous
 62
   120
370
     5
100
AcDbLine
 10
443.6361117790261
 20
-219.6665463834256
 30
0.0
 11
458.636111779029
 21
-204.6665463834233
 31
0.0
  0
LINE
  5
38C
330
1F
100
AcDbEntity
  8
0-C_ハッチ
  6
Continuous
 62
   120
370
     5
100
AcDbLine
 10
457.7782474027595
 20
-219.6665463834279
 30
0.0
 11
472.7782474027595
 21
-204.6665463834256
 31
0.0
  0
LINE
  5
38D
330
1F
100
AcDbEntity
  8
0-C_ハッチ
  6
Continuous
 62
   120
370
     5
100
AcDbLine
 10
471.9203830264911
 20
-219.6665463834279
 30
0.0
 11
486.9203830264922
 21
-204.6665463834279
 31
0.0
  0
LINE
  5
38E
330
1F
100
AcDbEntity
  8
0-C_ハッチ
  6
Continuous
 62
   120
370
     5
100
AcDbLine
 10
486.0625186502256
 20
-219.6665463834279
 30
0.0
 11
501.0625186502256
 21
-204.6665463834279
 31
0.0
  0
LINE
  5
38F
330
1F
100
AcDbEntity
  8
0-C_ハッチ
  6
Continuous
 62
   120
370
     5
100
AcDbLine
 10
500.2046542739362
 20
-219.6665463834142
 30
0.0
 11
515.2046542739271
 21
-204.6665463834233
 31
0.0
  0
LINE
  5
390
330
1F
100
AcDbEntity
  8
0-C_ハッチ
  6
Continuous
 62
   120
370
     5
100
AcDbLine
 10
514.3467898976695
 20
-219.6665463834142
 30
0.0
 11
529.3467898976695
 21
-204.6665463834142
 31
0.0
  0
LINE
  5
391
330
1F
100
AcDbEntity
  8
0-C_ハッチ
  6
Continuous
 62
   120
370
     5
100
AcDbLine
 10
528.4889255213983
 20
-219.6665463834165
 30
0.0
 11
543.4889255214028
 21
-204.6665463834142
 31
0.0
  0
LINE
  5
392
330
1F
100
AcDbEntity
  8
0-C_ハッチ
  6
Continuous
 62
   120
370
     5
100
AcDbLine
 10
542.6310611451316
 20
-219.6665463834188
 30
0.0
 11
557.6310611451316
 21
-204.6665463834165
 31
0.0
  0
LINE
  5
393
330
1F
100
AcDbEntity
  8
0-C_ハッチ
  6
Continuous
 62
   120
370
     5
100
AcDbLine
 10
556.773196768865
 20
-219.6665463834188
 30
0.0
 11
571.773196768865
 21
-204.6665463834188
 31
0.0
  0
LINE
  5
394
330
1F
100
AcDbEntity
  8
0-C_ハッチ
  6
Continuous
 62
   120
370
     5
100
AcDbLine
 10
570.9153323925938
 20
-219.6665463834211
 30
0.0
 11
585.9153323925983
 21
-204.6665463834188
 31
0.0
  0
LINE
  5
395
330
1F
100
AcDbEntity
  8
0-C_ハッチ
  6
Continuous
 62
   120
370
     5
100
AcDbLine
 10
585.0574680163271
 20
-219.6665463834211
 30
0.0
 11
600.0574680163271
 21
-204.6665463834211
 31
0.0
  0
LINE
  5
396
330
1F
100
AcDbEntity
  8
0-C_ハッチ
  6
Continuous
 62
   120
370
     5
100
AcDbLine
 10
599.1996036400604
 20
-219.6665463834233
 30
0.0
 11
614.1996036400604
 21
-204.6665463834211
 31
0.0
  0
LINE
  5
397
330
1F
100
AcDbEntity
  8
0-C_ハッチ
  6
Continuous
 62
   120
370
     5
100
AcDbLine
 10
613.3417392637938
 20
-219.6665463834211
 30
0.0
 11
628.3417392637983
 21
-204.6665463834188
 31
0.0
  0
LINE
  5
398
330
1F
100
AcDbEntity
  8
0-C_ハッチ
  6
Continuous
 62
   120
370
     5
100
AcDbLine
 10
627.4838748875271
 20
-219.6665463834233
 30
0.0
 11
642.4838748875271
 21
-204.6665463834211
 31
0.0
  0
LINE
  5
399
330
1F
100
AcDbEntity
  8
0-C_ハッチ
  6
Continuous
 62
   120
370
     5
100
AcDbLine
 10
641.6260105112605
 20
-219.6665463834233
 30
0.0
 11
656.6260105112605
 21
-204.6665463834211
 31
0.0
  0
LINE
  5
39A
330
1F
100
AcDbEntity
  8
0-C_ハッチ
  6
Continuous
 62
   120
370
     5
100
AcDbLine
 10
655.7681461349938
 20
-219.6665463834233
 30
0.0
 11
670.7681461349938
 21
-204.6665463834233
 31
0.0
  0
LINE
  5
39B
330
1F
100
AcDbEntity
  8
0-C_ハッチ
  6
Continuous
 62
   120
370
     5
100
AcDbLine
 10
669.9102817587226
 20
-219.6665463834256
 30
0.0
 11
684.9102817587271
 21
-204.6665463834233
 31
0.0
  0
LINE
  5
39C
330
1F
100
AcDbEntity
  8
0-C_ハッチ
  6
Continuous
 62
   120
370
     5
100
AcDbLine
 10
684.0524173824559
 20
-219.6665463834256
 30
0.0
 11
699.0524173824559
 21
-204.6665463834256
 31
0.0
  0
LINE
  5
39D
330
1F
100
AcDbEntity
  8
0-C_ハッチ
  6
Continuous
 62
   120
370
     5
100
AcDbLine
 10
698.1945530061893
 20
-219.6665463834279
 30
0.0
 11
713.1945530061893
 21
-204.6665463834256
 31
0.0
  0
LINE
  5
39E
330
1F
100
AcDbEntity
  8
0-C_ハッチ
  6
Continuous
 62
   120
370
     5
100
AcDbLine
 10
712.3366886298999
 20
-219.6665463834142
 30
0.0
 11
727.3366886298862
 21
-204.6665463834256
 31
0.0
  0
LINE
  5
39F
330
1F
100
AcDbEntity
  8
0-C_ハッチ
  6
Continuous
 62
   120
370
     5
100
AcDbLine
 10
726.4788242536287
 20
-219.6665463834165
 30
0.0
 11
741.4788242536332
 21
-204.6665463834165
 31
0.0
  0
LINE
  5
3A0
330
1F
100
AcDbEntity
  8
0-C_ハッチ
  6
Continuous
 62
   120
370
     5
100
AcDbLine
 10
740.620959877362
 20
-219.6665463834188
 30
0.0
 11
755.620959877362
 21
-204.6665463834165
 31
0.0
  0
LINE
  5
3A1
330
1F
100
AcDbEntity
  8
0-C_ハッチ
  6
Continuous
 62
   120
370
     5
100
AcDbLine
 10
754.7630955010953
 20
-219.6665463834188
 30
0.0
 11
769.7630955010953
 21
-204.6665463834188
 31
0.0
  0
LINE
  5
3A2
330
1F
100
AcDbEntity
  8
0-C_ハッチ
  6
Continuous
 62
   120
370
     5
100
AcDbLine
 10
768.9052311248241
 20
-219.6665463834211
 30
0.0
 11
783.9052311248287
 21
-204.6665463834188
 31
0.0
  0
LINE
  5
3A3
330
1F
100
AcDbEntity
  8
0-C_ハッチ
  6
Continuous
 62
   120
370
     5
100
AcDbLine
 10
783.0473667485575
 20
-219.6665463834211
 30
0.0
 11
798.0473667485575
 21
-204.6665463834211
 31
0.0
  0
LINE
  5
3A4
330
1F
100
AcDbEntity
  8
0-C_ハッチ
  6
Continuous
 62
   120
370
     5
100
AcDbLine
 10
797.1895023722908
 20
-219.6665463834233
 30
0.0
 11
812.1895023722908
 21
-204.6665463834233
 31
0.0
  0
LINE
  5
3A5
330
1F
100
AcDbEntity
  8
0-C_ハッチ
  6
Continuous
 62
   120
370
     5
100
AcDbLine
 10
811.3316379960241
 20
-219.6665463834233
 30
0.0
 11
826.3316379960241
 21
-204.6665463834233
 31
0.0
  0
LINE
  5
3A6
330
1F
100
AcDbEntity
  8
0-C_ハッチ
  6
Continuous
 62
   120
370
     5
100
AcDbLine
 10
825.473773619762
 20
-219.6665463834188
 30
0.0
 11
840.473773619762
 21
-204.6665463834188
 31
0.0
  0
LINE
  5
3A7
330
1F
100
AcDbEntity
  8
0-C_ハッチ
  6
Continuous
 62
   120
370
     5
100
AcDbLine
 10
839.6159092434908
 20
-219.6665463834211
 30
0.0
 11
854.6159092434954
 21
-204.6665463834188
 31
0.0
  0
LINE
  5
3A8
330
1F
100
AcDbEntity
  8
0-C_ハッチ
  6
Continuous
 62
   120
370
     5
100
AcDbLine
 10
853.7580448672242
 20
-219.6665463834211
 30
0.0
 11
868.7580448672242
 21
-204.6665463834211
 31
0.0
  0
LINE
  5
3A9
330
1F
100
AcDbEntity
  8
0-C_ハッチ
  6
Continuous
 62
   120
370
     5
100
AcDbLine
 10
867.9001804909575
 20
-219.6665463834233
 30
0.0
 11
882.9001804909575
 21
-204.6665463834211
 31
0.0
  0
LINE
  5
3AA
330
1F
100
AcDbEntity
  8
0-C_ハッチ
  6
Continuous
 62
   120
370
     5
100
AcDbLine
 10
882.0423161146908
 20
-219.6665463834233
 30
0.0
 11
897.0423161146908
 21
-204.6665463834233
 31
0.0
  0
LINE
  5
3AB
330
1F
100
AcDbEntity
  8
0-C_ハッチ
  6
Continuous
 62
   120
370
     5
100
AcDbLine
 10
896.1844517384196
 20
-219.6665463834256
 30
0.0
 11
911.1844517384242
 21
-204.6665463834233
 31
0.0
  0
LINE
  5
3AC
330
1F
100
AcDbEntity
  8
0-C_ハッチ
  6
Continuous
 62
   120
370
     5
100
AcDbLine
 10
910.326587362153
 20
-219.6665463834256
 30
0.0
 11
925.326587362153
 21
-204.6665463834256
 31
0.0
  0
LINE
  5
3AD
330
1F
100
AcDbEntity
  8
0-C_ハッチ
  6
Continuous
 62
   120
370
     5
100
AcDbLine
 10
924.468722985859
 20
-219.6665463834165
 30
0.0
 11
939.4687229858499
 21
-204.6665463834256
 31
0.0
  0
LINE
  5
3AE
330
1F
100
AcDbEntity
  8
0-C_ハッチ
  6
Continuous
 62
   120
370
     5
100
AcDbLine
 10
938.6108586095924
 20
-219.6665463834188
 30
0.0
 11
953.6108586095924
 21
-204.6665463834165
 31
0.0
  0
LINE
  5
3AF
330
1F
100
AcDbEntity
  8
0-C_ハッチ
  6
Continuous
 62
   120
370
     5
100
AcDbLine
 10
952.7529942333257
 20
-219.6665463834188
 30
0.0
 11
967.7529942333257
 21
-204.6665463834188
 31
0.0
  0
LINE
  5
3B0
330
1F
100
AcDbEntity
  8
0-C_ハッチ
  6
Continuous
 62
   120
370
     5
100
AcDbLine
 10
966.8951298570545
 20
-219.6665463834211
 30
0.0
 11
981.895129857059
 21
-204.6665463834188
 31
0.0
  0
LINE
  5
3B1
330
1F
100
AcDbEntity
  8
0-C_ハッチ
  6
Continuous
 62
   120
370
     5
100
AcDbLine
 10
981.0372654807878
 20
-219.6665463834233
 30
0.0
 11
996.0372654807878
 21
-204.6665463834211
 31
0.0
  0
LINE
  5
3B2
330
1F
100
AcDbEntity
  8
0-C_ハッチ
  6
Continuous
 62
   120
370
     5
100
AcDbLine
 10
995.1794011045212
 20
-219.6665463834233
 30
0.0
 11
1010.179401104521
 21
-204.6665463834233
 31
0.0
  0
LINE
  5
3B3
330
1F
100
AcDbEntity
  8
0-C_ハッチ
  6
Continuous
 62
   120
370
     5
100
AcDbLine
 10
1009.32153672825
 20
-219.6665463834256
 30
0.0
 11
1024.321536728255
 21
-204.6665463834233
 31
0.0
  0
LINE
  5
3B4
330
1F
100
AcDbEntity
  8
0-C_ハッチ
  6
Continuous
 62
   120
370
     5
100
AcDbLine
 10
1023.463672351983
 20
-219.6665463834256
 30
0.0
 11
1038.463672351983
 21
-204.6665463834256
 31
0.0
  0
LINE
  5
3B5
330
1F
100
AcDbEntity
  8
0-C_ハッチ
  6
Continuous
 62
   120
370
     5
100
AcDbLine
 10
1037.605807975726
 20
-219.6665463834188
 30
0.0
 11
1052.605807975726
 21
-204.6665463834165
 31
0.0
  0
LINE
  5
3B6
330
1F
100
AcDbEntity
  8
0-C_ハッチ
  6
Continuous
 62
   120
370
     5
100
AcDbLine
 10
1051.747943599459
 20
-219.6665463834188
 30
0.0
 11
1066.747943599459
 21
-204.6665463834188
 31
0.0
  0
LINE
  5
3B7
330
1F
100
AcDbEntity
  8
0-C_ハッチ
  6
Continuous
 62
   120
370
     5
100
AcDbLine
 10
1065.890079223188
 20
-219.6665463834211
 30
0.0
 11
1080.890079223193
 21
-204.6665463834188
 31
0.0
  0
LINE
  5
3B8
330
1F
100
AcDbEntity
  8
0-C_ハッチ
  6
Continuous
 62
   120
370
     5
100
AcDbLine
 10
1080.032214846921
 20
-219.6665463834211
 30
0.0
 11
1095.032214846921
 21
-204.6665463834211
 31
0.0
  0
LINE
  5
3B9
330
1F
100
AcDbEntity
  8
0-C_ハッチ
  6
Continuous
 62
   120
370
     5
100
AcDbLine
 10
1094.174350470655
 20
-219.6665463834233
 30
0.0
 11
1109.174350470655
 21
-204.6665463834211
 31
0.0
  0
LINE
  5
3BA
330
1F
100
AcDbEntity
  8
0-C_ハッチ
  6
Continuous
 62
   120
370
     5
100
AcDbLine
 10
1108.316486094388
 20
-219.6665463834233
 30
0.0
 11
1123.316486094388
 21
-204.6665463834233
 31
0.0
  0
LINE
  5
3BB
330
1F
100
AcDbEntity
  8
0-C_ハッチ
  6
Continuous
 62
   120
370
     5
100
AcDbLine
 10
1122.458621718117
 20
-219.6665463834256
 30
0.0
 11
1137.458621718121
 21
-204.6665463834233
 31
0.0
  0
LINE
  5
3BC
330
1F
100
AcDbEntity
  8
0-4_棚
  6
Continuous
 62
    92
370
    13
100
AcDbLine
 10
1137.795954419068
 20
-219.6665463834233
 30
0.0
 11
371.7959544190677
 21
-219.6665463834233
 31
0.0
  0
LINE
  5
3BD
330
1F
100
AcDbEntity
  8
0-4_棚
  6
Continuous
 62
    92
370
    13
100
AcDbLine
 10
1137.795954419068
 20
-204.6665463834233
 30
0.0
 11
371.7959544190677
 21
-204.6665463834233
 31
0.0
  0
LINE
  5
3BE
330
1F
100
AcDbEntity
  8
0-C_ハッチ
  6
Continuous
 62
   120
370
     5
100
AcDbLine
 10
1136.600757341823
 20
-219.6665463834188
 30
0.0
 11
1137.795954419068
 21
-218.4713493061713
 31
0.0
  0
MTEXT
  5
3BF
330
1F
100
AcDbEntity
  8
0-B_寸法
  6
Continuous
 62
     7
370
   211
100
AcDbMText
 10
146.6152234564157
 20
-1447.40154638342
 30
0.0
 40
49.53
 41
65.0
 46
0.0
 71
     7
 72
     1
  1
{\fＭＳ ゴシック|b0|i0|c128|p49;64}
 11
6.123031769111886E-17
 21
1.0
 31
0.0
 73
     1
 44
1.0
  0
MTEXT
  5
3C0
330
1F
100
AcDbEntity
  8
0-B_寸法
  6
Continuous
 62
     7
370
   211
100
AcDbMText
 10
942.615223456416
 20
-1447.40154638342
 30
0.0
 40
49.53
 41
65.0
 46
0.0
 71
     7
 72
     1
  1
{\fＭＳ ゴシック|b0|i0|c128|p49;64}
 11
6.123031769111886E-17
 21
1.0
 31
0.0
 73
     1
 44
1.0
  0
MTEXT
  5
3C1
330
1F
100
AcDbEntity
  8
0-B_寸法
  6
Continuous
 62
     7
370
   211
100
AcDbMText
 10
-699.2040455809314
 20
-1451.758095972124
 30
0.0
 40
45.72
 41
60.0
 46
0.0
 71
     7
 72
     1
  1
{\fＭＳ ゴシック|b0|i0|c128|p49;15}
 11
6.123031769111886E-17
 21
1.0
 31
0.0
 73
     1
 44
1.0
  0
MTEXT
  5
3C2
330
1F
100
AcDbEntity
  8
0-B_寸法
  6
Continuous
 62
     7
370
   211
100
AcDbMText
 10
-599.2040455809303
 20
1858.423501272483
 30
0.0
 40
45.72
 41
90.0
 46
0.0
 71
     7
 72
     1
  1
{\fＭＳ ゴシック|b0|i0|c128|p49;345}
 11
6.123031769111886E-17
 21
1.0
 31
0.0
 73
     1
 44
1.0
  0
MTEXT
  5
3C3
330
1F
100
AcDbEntity
  8
0-B_寸法
  6
Continuous
 62
     7
370
   211
100
AcDbMText
 10
-699.2040455809303
 20
1845.923501272483
 30
0.0
 40
45.72
 41
90.0
 46
0.0
 71
     7
 72
     1
  1
{\fＭＳ ゴシック|b0|i0|c128|p49;370}
 11
6.123031769111886E-17
 21
1.0
 31
0.0
 73
     1
 44
1.0
  0
MTEXT
  5
3C4
330
1F
100
AcDbEntity
  8
0-B_寸法
  6
Continuous
 62
     7
370
   211
100
AcDbMText
 10
-599.2040455809303
 20
1715.423323115811
 30
0.0
 40
45.72
 41
30.0
 46
0.0
 71
     7
 72
     1
  1
{\fＭＳ ゴシック|b0|i0|c128|p49;1}
 11
6.123031769111886E-17
 21
1.0
 31
0.0
 73
     1
 44
1.0
  0
MTEXT
  5
3C5
330
1F
100
AcDbEntity
  8
0-B_寸法
  6
Continuous
 62
     7
370
   211
100
AcDbMText
 10
-599.2040455809303
 20
1643.50755507724
 30
0.0
 40
45.72
 41
60.0
 46
0.0
 71
     7
 72
     1
  1
{\fＭＳ ゴシック|b0|i0|c128|p49;24}
 11
6.123031769111886E-17
 21
1.0
 31
0.0
 73
     1
 44
1.0
  0
LWPOLYLINE
  5
3C6
330
1F
100
AcDbEntity
  8
0-B_寸法
  6
Continuous
 62
     7
370
     9
100
AcDbPolyline
 90
        4
 70
     1
 43
2.0
 10
-588.2040455809303
 20
2083.063356107788
 42
0.4142135623731
 10
-589.2040455809303
 20
2084.063356107788
 42
0.4142135623731
 10
-590.2040455809303
 20
2083.063356107788
 42
0.4142135623731
 10
-589.2040455809303
 20
2082.063356107788
 42
0.4142135623731
  0
LWPOLYLINE
  5
3C7
330
1F
100
AcDbEntity
  8
0-B_寸法
  6
Continuous
 62
     7
370
     9
100
AcDbPolyline
 90
        4
 70
     1
 43
2.0
 10
-588.2040455809303
 20
1738.063646437179
 42
0.4142135623731
 10
-589.2040455809303
 20
1739.063646437179
 42
0.4142135623731
 10
-590.2040455809303
 20
1738.063646437179
 42
0.4142135623731
 10
-589.2040455809303
 20
1737.063646437179
 42
0.4142135623731
  0
LINE
  5
3C8
330
1F
100
AcDbEntity
  8
0-B_寸法
  6
Continuous
 62
   120
370
     5
100
AcDbLine
 10
-689.2040455809303
 20
2083.063356107788
 30
0.0
 11
-489.2040455809303
 21
2083.063356107788
 31
0.0
  0
LINE
  5
3C9
330
1F
100
AcDbEntity
  8
0-B_寸法
  6
Continuous
 62
   120
370
     5
100
AcDbLine
 10
-589.2040455809303
 20
1738.063646437179
 30
0.0
 11
-489.2040455809303
 21
1738.063646437179
 31
0.0
  0
LWPOLYLINE
  5
3CA
330
1F
100
AcDbEntity
  8
0-B_寸法
  6
Continuous
 62
     7
370
     9
100
AcDbPolyline
 90
        4
 70
     1
 43
2.0
 10
-688.2040455809304
 20
2083.063356107788
 42
0.4142135623731
 10
-689.2040455809303
 20
2084.063356107788
 42
0.4142135623731
 10
-690.2040455809301
 20
2083.063356107788
 42
0.4142135623731
 10
-689.2040455809303
 20
2082.063356107788
 42
0.4142135623731
  0
LWPOLYLINE
  5
3CB
330
1F
100
AcDbEntity
  8
0-B_寸法
  6
Continuous
 62
     7
370
     9
100
AcDbPolyline
 90
        4
 70
     1
 43
2.0
 10
-588.2040455809303
 20
1737.06364643718
 42
0.4142135623731
 10
-589.2040455809303
 20
1738.06364643718
 42
0.4142135623731
 10
-590.2040455809303
 20
1737.06364643718
 42
0.4142135623731
 10
-589.2040455809303
 20
1736.06364643718
 42
0.4142135623731
  0
LINE
  5
3CC
330
1F
100
AcDbEntity
  8
0-B_寸法
  6
Continuous
 62
   120
370
     5
100
AcDbLine
 10
-589.2040455809303
 20
1737.06364643718
 30
0.0
 11
-489.2040455809303
 21
1737.06364643718
 31
0.0
  0
LWPOLYLINE
  5
3CD
330
1F
100
AcDbEntity
  8
0-B_寸法
  6
Continuous
 62
     7
370
     9
100
AcDbPolyline
 90
        4
 70
     1
 43
2.0
 10
-688.2040455809304
 20
1713.063646437179
 42
0.4142135623731
 10
-689.2040455809303
 20
1714.063646437179
 42
0.4142135623731
 10
-690.2040455809301
 20
1713.063646437179
 42
0.4142135623731
 10
-689.2040455809303
 20
1712.063646437179
 42
0.4142135623731
  0
LINE
  5
3CE
330
1F
100
AcDbEntity
  8
0-B_寸法
  6
Continuous
 62
   120
370
     5
100
AcDbLine
 10
-689.2040455809303
 20
2083.063356107788
 30
0.0
 11
-689.2040455809303
 21
1713.063646437179
 31
0.0
  0
LINE
  5
3CF
330
1F
100
AcDbEntity
  8
0-B_寸法
  6
Continuous
 62
   120
370
     5
100
AcDbLine
 10
-689.2040455809303
 20
1713.063646437179
 30
0.0
 11
-489.2040455809303
 21
1713.063646437179
 31
0.0
  0
LWPOLYLINE
  5
3D0
330
1F
100
AcDbEntity
  8
0-B_寸法
  6
Continuous
 62
     7
370
     9
100
AcDbPolyline
 90
        4
 70
     1
 43
2.0
 10
-588.2040455809303
 20
1713.063646437179
 42
0.4142135623731
 10
-589.2040455809303
 20
1714.063646437179
 42
0.4142135623731
 10
-590.2040455809303
 20
1713.063646437179
 42
0.4142135623731
 10
-589.2040455809303
 20
1712.063646437179
 42
0.4142135623731
  0
LINE
  5
3D1
330
1F
100
AcDbEntity
  8
0-B_寸法
  6
Continuous
 62
   120
370
     5
100
AcDbLine
 10
-589.2040455809303
 20
2083.063356107788
 30
0.0
 11
-589.2040455809303
 21
1713.063646437179
 31
0.0
  0
MTEXT
  5
3D2
330
1F
100
AcDbEntity
  8
0-A_文字
  6
Continuous
 62
     7
370
     9
100
AcDbMText
 10
51.7959544190586
 20
-2144.519879716758
 30
0.0
 40
103.2933333333364
 41
610.0000000000182
 46
0.0
 71
     7
 72
     1
  1
{\fＭＳ ゴシック|b0|i0|c128|p49;ｷｬﾋﾞﾈｯﾄ図}
 73
     1
 44
1.0
  0
LWPOLYLINE
  5
3D3
330
1F
100
AcDbEntity
  8
0-B_寸法
  6
Continuous
 62
     7
370
     9
100
AcDbPolyline
 90
        4
 70
     1
 43
2.0
 10
1153.795954465607
 20
-1851.166546383409
 42
0.4142135623731
 10
1152.795954465608
 20
-1850.166546383409
 42
0.4142135623731
 10
1151.795954465608
 20
-1851.166546383409
 42
0.4142135623731
 10
1152.795954465608
 20
-1852.166546383409
 42
0.4142135623731
  0
LWPOLYLINE
  5
3D4
330
1F
100
AcDbEntity
  8
0-B_寸法
  6
Continuous
 62
     7
370
     9
100
AcDbPolyline
 90
        4
 70
     1
 43
2.0
 10
357.795954465605
 20
-1851.166546383409
 42
0.4142135623731
 10
356.795954465605
 20
-1850.166546383409
 42
0.4142135623731
 10
355.795954465605
 20
-1851.166546383409
 42
0.4142135623731
 10
356.795954465605
 20
-1852.166546383409
 42
0.4142135623731
  0
LINE
  5
3D5
330
1F
100
AcDbEntity
  8
0-B_寸法
  6
Continuous
 62
   120
370
     5
100
AcDbLine
 10
356.795954465605
 20
-1851.166546383409
 30
0.0
 11
1152.795954465608
 21
-1851.166546383409
 31
0.0
  0
LWPOLYLINE
  5
3D6
330
1F
100
AcDbEntity
  8
0-B_寸法
  6
Continuous
 62
     7
370
     9
100
AcDbPolyline
 90
        4
 70
     1
 43
2.0
 10
1153.795954465607
 20
-1751.166546383409
 42
0.4142135623731
 10
1152.795954465608
 20
-1750.166546383409
 42
0.4142135623731
 10
1151.795954465608
 20
-1751.166546383409
 42
0.4142135623731
 10
1152.795954465608
 20
-1752.166546383409
 42
0.4142135623731
  0
LINE
  5
3D7
330
1F
100
AcDbEntity
  8
0-B_寸法
  6
Continuous
 62
   120
370
     5
100
AcDbLine
 10
1137.795954465608
 20
-1751.166546383409
 30
0.0
 11
1137.795954465608
 21
-1651.166546383409
 31
0.0
  0
LWPOLYLINE
  5
3D8
330
1F
100
AcDbEntity
  8
0-B_寸法
  6
Continuous
 62
     7
370
     9
100
AcDbPolyline
 90
        4
 70
     1
 43
2.0
 10
1138.795954465607
 20
-1751.166546383409
 42
0.4142135623731
 10
1137.795954465608
 20
-1750.166546383409
 42
0.4142135623731
 10
1136.795954465608
 20
-1751.166546383409
 42
0.4142135623731
 10
1137.795954465608
 20
-1752.166546383409
 42
0.4142135623731
  0
LWPOLYLINE
  5
3D9
330
1F
100
AcDbEntity
  8
0-B_寸法
  6
Continuous
 62
     7
370
     9
100
AcDbPolyline
 90
        4
 70
     1
 43
2.0
 10
372.795954465605
 20
-1751.166546383409
 42
0.4142135623731
 10
371.795954465605
 20
-1750.166546383409
 42
0.4142135623731
 10
370.795954465605
 20
-1751.166546383409
 42
0.4142135623731
 10
371.795954465605
 20
-1752.166546383409
 42
0.4142135623731
  0
LWPOLYLINE
  5
3DA
330
1F
100
AcDbEntity
  8
0-B_寸法
  6
Continuous
 62
     7
370
     9
100
AcDbPolyline
 90
        4
 70
     1
 43
2.0
 10
357.795954465605
 20
-1751.166546383409
 42
0.4142135623731
 10
356.795954465605
 20
-1750.166546383409
 42
0.4142135623731
 10
355.795954465605
 20
-1751.166546383409
 42
0.4142135623731
 10
356.795954465605
 20
-1752.166546383409
 42
0.4142135623731
  0
LINE
  5
3DB
330
1F
100
AcDbEntity
  8
0-B_寸法
  6
Continuous
 62
   120
370
     5
100
AcDbLine
 10
356.795954465605
 20
-1751.166546383409
 30
0.0
 11
1152.795954465608
 21
-1751.166546383409
 31
0.0
  0
LINE
  5
3DC
330
1F
100
AcDbEntity
  8
0-B_寸法
  6
Continuous
 62
   120
370
     5
100
AcDbLine
 10
371.795954465605
 20
-1751.166546383409
 30
0.0
 11
371.795954465605
 21
-1651.166546383409
 31
0.0
  0
LINE
  5
3DD
330
1F
100
AcDbEntity
  8
0-B_寸法
  6
Continuous
 62
   120
370
     5
100
AcDbLine
 10
1152.795954465608
 20
-1851.166546383409
 30
0.0
 11
1152.795954465608
 21
-1651.166546383409
 31
0.0
  0
LINE
  5
3DE
330
1F
100
AcDbEntity
  8
0-B_寸法
  6
Continuous
 62
   120
370
     5
100
AcDbLine
 10
356.795954465605
 20
-1851.166546383409
 30
0.0
 11
356.795954465605
 21
-1651.166546383409
 31
0.0
  0
LINE
  5
3DF
330
1F
100
AcDbEntity
  8
0-B_寸法
  6
Continuous
 62
   120
370
     5
100
AcDbLine
 10
-439.2040455343955
 20
-1751.166546383409
 30
0.0
 11
356.795954465605
 21
-1751.166546383409
 31
0.0
  0
LWPOLYLINE
  5
3E0
330
1F
100
AcDbEntity
  8
0-B_寸法
  6
Continuous
 62
     7
370
     9
100
AcDbPolyline
 90
        4
 70
     1
 43
2.0
 10
-438.2040455343955
 20
-1751.166546383409
 42
0.4142135623731
 10
-439.2040455343955
 20
-1750.166546383409
 42
0.4142135623731
 10
-440.2040455343956
 20
-1751.166546383409
 42
0.4142135623731
 10
-439.2040455343955
 20
-1752.166546383409
 42
0.4142135623731
  0
LWPOLYLINE
  5
3E1
330
1F
100
AcDbEntity
  8
0-B_寸法
  6
Continuous
 62
     7
370
     9
100
AcDbPolyline
 90
        4
 70
     1
 43
2.0
 10
-423.2040455343955
 20
-1751.166546383409
 42
0.4142135623731
 10
-424.2040455343955
 20
-1750.166546383409
 42
0.4142135623731
 10
-425.2040455343956
 20
-1751.166546383409
 42
0.4142135623731
 10
-424.2040455343955
 20
-1752.166546383409
 42
0.4142135623731
  0
LINE
  5
3E2
330
1F
100
AcDbEntity
  8
0-B_寸法
  6
Continuous
 62
   120
370
     5
100
AcDbLine
 10
-439.2040455343955
 20
-1851.166546383408
 30
0.0
 11
-439.2040455343955
 21
-1651.166546383409
 31
0.0
  0
LINE
  5
3E3
330
1F
100
AcDbEntity
  8
0-B_寸法
  6
Continuous
 62
   120
370
     5
100
AcDbLine
 10
-424.2040455343955
 20
-1751.166546383409
 30
0.0
 11
-424.2040455343955
 21
-1651.166546383409
 31
0.0
  0
LWPOLYLINE
  5
3E4
330
1F
100
AcDbEntity
  8
0-B_寸法
  6
Continuous
 62
     7
370
     9
100
AcDbPolyline
 90
        4
 70
     1
 43
2.0
 10
342.795954465605
 20
-1751.166546383409
 42
0.4142135623731
 10
341.7959544656049
 20
-1750.166546383409
 42
0.4142135623731
 10
340.7959544656049
 20
-1751.166546383409
 42
0.4142135623731
 10
341.7959544656049
 20
-1752.166546383409
 42
0.4142135623731
  0
LINE
  5
3E5
330
1F
100
AcDbEntity
  8
0-B_寸法
  6
Continuous
 62
   120
370
     5
100
AcDbLine
 10
341.7959544656049
 20
-1751.166546383409
 30
0.0
 11
341.7959544656049
 21
-1651.166546383409
 31
0.0
  0
LINE
  5
3E6
330
1F
100
AcDbEntity
  8
0-B_寸法
  6
Continuous
 62
   120
370
     5
100
AcDbLine
 10
-439.2040455343955
 20
-1851.166546383408
 30
0.0
 11
356.795954465605
 21
-1851.166546383408
 31
0.0
  0
LWPOLYLINE
  5
3E7
330
1F
100
AcDbEntity
  8
0-B_寸法
  6
Continuous
 62
     7
370
     9
100
AcDbPolyline
 90
        4
 70
     1
 43
2.0
 10
-438.2040455343955
 20
-1851.166546383408
 42
0.4142135623731
 10
-439.2040455343955
 20
-1850.166546383408
 42
0.4142135623731
 10
-440.2040455343956
 20
-1851.166546383408
 42
0.4142135623731
 10
-439.2040455343955
 20
-1852.166546383408
 42
0.4142135623731
  0
MTEXT
  5
3E8
330
1F
100
AcDbEntity
  8
0-B_寸法
  6
Continuous
 62
     7
370
   211
100
AcDbMText
 10
146.6152234564152
 20
-1526.401546383417
 30
0.0
 40
49.53
 41
65.0
 46
0.0
 71
     7
 72
     1
  1
{\fＭＳ ゴシック|b0|i0|c128|p49;64}
 11
6.123031769111886E-17
 21
1.0
 31
0.0
 73
     1
 44
1.0
  0
MTEXT
  5
3E9
330
1F
100
AcDbEntity
  8
0-B_寸法
  6
Continuous
 62
     7
370
   211
100
AcDbMText
 10
942.6152234564189
 20
-1526.401546383417
 30
0.0
 40
49.53
 41
65.0
 46
0.0
 71
     7
 72
     1
  1
{\fＭＳ ゴシック|b0|i0|c128|p49;64}
 11
6.123031769111886E-17
 21
1.0
 31
0.0
 73
     1
 44
1.0
  0
LINE
  5
3EA
330
1F
100
AcDbEntity
  8
0-9__
  6
JWW_DASHED1
 62
     7
370
     9
100
AcDbLine
 10
356.7959544190672
 20
-1456.666546383417
 30
0.0
 11
1120.795954419066
 21
-1456.666546383417
 31
0.0
  0
LINE
  5
3EB
330
1F
100
AcDbEntity
  8
0-9__
  6
JWW_DASHED1
 62
     7
370
     9
100
AcDbLine
 10
356.7959544190672
 20
-1520.666546383417
 30
0.0
 11
356.7959544190672
 21
-1456.666546383417
 31
0.0
  0
LINE
  5
3EC
330
1F
100
AcDbEntity
  8
0-9__
  6
JWW_DASHED1
 62
     7
370
     9
100
AcDbLine
 10
1120.795954419066
 20
-1456.666546383417
 30
0.0
 11
1120.795954419066
 21
-1520.666546383417
 31
0.0
  0
LINE
  5
3ED
330
1F
100
AcDbEntity
  8
0-9__
  6
JWW_DASHED1
 62
     7
370
     9
100
AcDbLine
 10
1120.795954419066
 20
-1520.666546383417
 30
0.0
 11
356.7959544190672
 21
-1520.666546383417
 31
0.0
  0
LINE
  5
3EE
330
1F
100
AcDbEntity
  8
0-9__
  6
JWW_DASHED1
 62
     7
370
     9
100
AcDbLine
 10
-407.2040455809315
 20
-1456.666546383417
 30
0.0
 11
356.7959544190672
 21
-1456.666546383417
 31
0.0
  0
LINE
  5
3EF
330
1F
100
AcDbEntity
  8
0-9__
  6
JWW_DASHED1
 62
     7
370
     9
100
AcDbLine
 10
-407.2040455809315
 20
-1520.666546383417
 30
0.0
 11
-407.2040455809315
 21
-1456.666546383417
 31
0.0
  0
LINE
  5
3F0
330
1F
100
AcDbEntity
  8
0-9__
  6
JWW_DASHED1
 62
     7
370
     9
100
AcDbLine
 10
356.7959544190672
 20
-1520.666546383417
 30
0.0
 11
-407.2040455809315
 21
-1520.666546383417
 31
0.0
  0
LWPOLYLINE
  5
3F1
330
1F
100
AcDbEntity
  8
0-B_寸法
  6
Continuous
 62
     7
370
     9
100
AcDbPolyline
 90
        4
 70
     1
 43
2.0
 10
157.6152234564152
 20
-1456.666546383417
 42
0.4142135623731
 10
156.6152234564152
 20
-1455.666546383417
 42
0.4142135623731
 10
155.6152234564152
 20
-1456.666546383417
 42
0.4142135623731
 10
156.6152234564152
 20
-1457.666546383416
 42
0.4142135623731
  0
LINE
  5
3F2
330
1F
100
AcDbEntity
  8
0-B_寸法
  6
Continuous
 62
   120
370
     5
100
AcDbLine
 10
156.6152234564152
 20
-1456.666546383417
 30
0.0
 11
127.376947173118
 21
-1456.666546383417
 31
0.0
  0
LINE
  5
3F3
330
1F
100
AcDbEntity
  8
0-B_寸法
  6
Continuous
 62
   120
370
     5
100
AcDbLine
 10
156.6152234564152
 20
-1456.666546383417
 30
0.0
 11
156.6152234564152
 21
-1520.666546383417
 31
0.0
  0
LWPOLYLINE
  5
3F4
330
1F
100
AcDbEntity
  8
0-B_寸法
  6
Continuous
 62
     7
370
     9
100
AcDbPolyline
 90
        4
 70
     1
 43
2.0
 10
157.6152234564152
 20
-1520.666546383417
 42
0.4142135623731
 10
156.6152234564152
 20
-1519.666546383417
 42
0.4142135623731
 10
155.6152234564152
 20
-1520.666546383417
 42
0.4142135623731
 10
156.6152234564152
 20
-1521.666546383417
 42
0.4142135623731
  0
LINE
  5
3F5
330
1F
100
AcDbEntity
  8
0-B_寸法
  6
Continuous
 62
   120
370
     5
100
AcDbLine
 10
156.6152234564152
 20
-1520.666546383417
 30
0.0
 11
127.376947173118
 21
-1520.666546383417
 31
0.0
  0
LWPOLYLINE
  5
3F6
330
1F
100
AcDbEntity
  8
0-B_寸法
  6
Continuous
 62
     7
370
     9
100
AcDbPolyline
 90
        4
 70
     1
 43
2.0
 10
953.6152234564189
 20
-1456.666546383417
 42
0.4142135623731
 10
952.6152234564189
 20
-1455.666546383417
 42
0.4142135623731
 10
951.615223456419
 20
-1456.666546383417
 42
0.4142135623731
 10
952.6152234564189
 20
-1457.666546383416
 42
0.4142135623731
  0
LINE
  5
3F7
330
1F
100
AcDbEntity
  8
0-B_寸法
  6
Continuous
 62
   120
370
     5
100
AcDbLine
 10
952.6152234564189
 20
-1456.666546383417
 30
0.0
 11
923.3769471731217
 21
-1456.666546383417
 31
0.0
  0
LINE
  5
3F8
330
1F
100
AcDbEntity
  8
0-B_寸法
  6
Continuous
 62
   120
370
     5
100
AcDbLine
 10
952.6152234564189
 20
-1456.666546383417
 30
0.0
 11
952.6152234564189
 21
-1520.666546383417
 31
0.0
  0
LWPOLYLINE
  5
3F9
330
1F
100
AcDbEntity
  8
0-B_寸法
  6
Continuous
 62
     7
370
     9
100
AcDbPolyline
 90
        4
 70
     1
 43
2.0
 10
953.6152234564189
 20
-1520.666546383417
 42
0.4142135623731
 10
952.6152234564189
 20
-1519.666546383417
 42
0.4142135623731
 10
951.615223456419
 20
-1520.666546383417
 42
0.4142135623731
 10
952.6152234564189
 20
-1521.666546383417
 42
0.4142135623731
  0
LINE
  5
3FA
330
1F
100
AcDbEntity
  8
0-B_寸法
  6
Continuous
 62
   120
370
     5
100
AcDbLine
 10
952.6152234564189
 20
-1520.666546383417
 30
0.0
 11
923.3769471731217
 21
-1520.666546383417
 31
0.0
  0
MTEXT
  5
3FB
330
1F
100
AcDbEntity
  8
0-B_寸法
  6
Continuous
 62
     7
370
   211
100
AcDbMText
 10
-498.7026316464403
 20
-1748.306546383409
 30
0.0
 40
45.72
 41
60.0
 46
0.0
 71
     7
 72
     1
  1
{\fＭＳ ゴシック|b0|i0|c128|p49;15}
 73
     1
 44
1.0
  0
MTEXT
  5
3FC
330
1F
100
AcDbEntity
  8
0-B_寸法
  6
Continuous
 62
     7
370
   211
100
AcDbMText
 10
-86.20404553439585
 20
-1748.306546383409
 30
0.0
 40
45.72
 41
90.0
 46
0.0
 71
     7
 72
     1
  1
{\fＭＳ ゴシック|b0|i0|c128|p49;766}
 73
     1
 44
1.0
  0
MTEXT
  5
3FD
330
1F
100
AcDbEntity
  8
0-B_寸法
  6
Continuous
 62
     7
370
   211
100
AcDbMText
 10
270.2604004327044
 20
-1748.306546383409
 30
0.0
 40
45.72
 41
60.0
 46
0.0
 71
     7
 72
     1
  1
{\fＭＳ ゴシック|b0|i0|c128|p49;15}
 73
     1
 44
1.0
  0
MTEXT
  5
3FE
330
1F
100
AcDbEntity
  8
0-B_寸法
  6
Continuous
 62
     7
370
   211
100
AcDbMText
 10
381.0250367839854
 20
-1748.306546383409
 30
0.0
 40
45.72
 41
60.0
 46
0.0
 71
     7
 72
     1
  1
{\fＭＳ ゴシック|b0|i0|c128|p49;15}
 73
     1
 44
1.0
  0
MTEXT
  5
3FF
330
1F
100
AcDbEntity
  8
0-B_寸法
  6
Continuous
 62
     7
370
   211
100
AcDbMText
 10
709.7959544656056
 20
-1748.306546383409
 30
0.0
 40
45.72
 41
90.0
 46
0.0
 71
     7
 72
     1
  1
{\fＭＳ ゴシック|b0|i0|c128|p49;766}
 73
     1
 44
1.0
  0
MTEXT
  5
400
330
1F
100
AcDbEntity
  8
0-B_寸法
  6
Continuous
 62
     7
370
   211
100
AcDbMText
 10
1152.452704940662
 20
-1748.306546383409
 30
0.0
 40
45.72
 41
60.0
 46
0.0
 71
     7
 72
     1
  1
{\fＭＳ ゴシック|b0|i0|c128|p49;15}
 73
     1
 44
1.0
  0
LINE
  5
401
330
1F
100
AcDbEntity
  8
0-A_文字
  6
Continuous
 62
     7
370
     9
100
AcDbLine
 10
22.93766059654217
 20
-211.6760953965604
 30
0.0
 11
59.7991672666808
 21
-147.8300930003425
 31
0.0
  0
LINE
  5
402
330
1F
100
AcDbEntity
  8
0-A_文字
  6
Continuous
 62
     7
370
     9
100
AcDbLine
 10
59.7991672666808
 20
-147.8300930003425
 30
0.0
 11
253.7725390359168
 21
-147.8300930003425
 31
0.0
  0
LINE
  5
403
330
1F
100
AcDbEntity
  8
0-1_本体
  6
Continuous
 62
    40
370
    15
100
AcDbLine
 10
-439.2040455809314
 20
2083.063356107788
 30
0.0
 11
-431.2040455809314
 21
2083.063356107788
 31
0.0
  0
LINE
  5
404
330
1F
100
AcDbEntity
  8
0-1_本体
  6
Continuous
 62
    40
370
    15
100
AcDbLine
 10
-431.2040455809314
 20
2083.063356107788
 30
0.0
 11
-431.2040455809314
 21
2080.063356107788
 31
0.0
  0
LINE
  5
405
330
1F
100
AcDbEntity
  8
0-1_本体
  6
Continuous
 62
    40
370
    15
100
AcDbLine
 10
-431.2040455809314
 20
2080.063356107788
 30
0.0
 11
-46.70404558093168
 21
2080.063356107788
 31
0.0
  0
LINE
  5
406
330
1F
100
AcDbEntity
  8
0-1_本体
  6
Continuous
 62
    40
370
    15
100
AcDbLine
 10
-431.2040455809314
 20
2081.563356107787
 30
0.0
 11
-46.70404558093168
 21
2081.563356107787
 31
0.0
  0
LINE
  5
407
330
1F
100
AcDbEntity
  8
0-1_本体
  6
Continuous
 62
     7
370
     9
100
AcDbLine
 10
-431.2040455809314
 20
2083.063356107788
 30
0.0
 11
-46.70404558093168
 21
2083.063356107788
 31
0.0
  0
LINE
  5
408
330
1F
100
AcDbEntity
  8
0-1_本体
  6
Continuous
 62
    40
370
    15
100
AcDbLine
 10
348.7959544190682
 20
2083.063356107788
 30
0.0
 11
348.7959544190682
 21
2080.063356107788
 31
0.0
  0
LINE
  5
409
330
1F
100
AcDbEntity
  8
0-1_本体
  6
Continuous
 62
    40
370
    15
100
AcDbLine
 10
348.7959544190682
 20
2080.063356107788
 30
0.0
 11
-35.70404558093145
 21
2080.063356107788
 31
0.0
  0
LINE
  5
40A
330
1F
100
AcDbEntity
  8
0-1_本体
  6
Continuous
 62
    40
370
    15
100
AcDbLine
 10
348.7959544190682
 20
2081.563356107787
 30
0.0
 11
-35.70404558093145
 21
2081.563356107787
 31
0.0
  0
LINE
  5
40B
330
1F
100
AcDbEntity
  8
0-1_本体
  6
Continuous
 62
     7
370
     9
100
AcDbLine
 10
348.7959544190682
 20
2083.063356107788
 30
0.0
 11
-35.70404558093145
 21
2083.063356107788
 31
0.0
  0
LINE
  5
40C
330
1F
100
AcDbEntity
  8
0-1_本体
  6
Continuous
 62
    40
370
    15
100
AcDbLine
 10
348.7959544190682
 20
2083.063356107788
 30
0.0
 11
356.7959544190683
 21
2083.063356107788
 31
0.0
  0
LINE
  5
40D
330
1F
100
AcDbEntity
  8
0-7__
  6
Continuous
 62
     7
370
     9
100
AcDbLine
 10
-45.70404558093159
 20
2083.063356107788
 30
0.0
 11
-36.70404558093168
 21
2083.063356107788
 31
0.0
  0
LINE
  5
40E
330
1F
100
AcDbEntity
  8
0-7__
  6
Continuous
 62
     7
370
     9
100
AcDbLine
 10
-57.20404558093151
 20
2083.563356107788
 30
0.0
 11
-57.20404558093151
 21
2083.063356107788
 31
0.0
  0
ARC
  5
40F
330
1F
100
AcDbEntity
  8
0-7__
  6
Continuous
 62
     7
370
     9
100
AcDbCircle
 10
-56.70404558093168
 20
2083.563356107788
 30
0.0
 40
0.5
100
AcDbArc
 50
90.0
 51
180.0
  0
LINE
  5
410
330
1F
100
AcDbEntity
  8
0-7__
  6
Continuous
 62
     7
370
     9
100
AcDbLine
 10
-25.20404558093162
 20
2083.563356107788
 30
0.0
 11
-25.20404558093162
 21
2083.063356107788
 31
0.0
  0
LINE
  5
411
330
1F
100
AcDbEntity
  8
0-7__
  6
Continuous
 62
     7
370
     9
100
AcDbLine
 10
-25.70404558093145
 20
2084.063356107788
 30
0.0
 11
-56.70404558093168
 21
2084.063356107788
 31
0.0
  0
ARC
  5
412
330
1F
100
AcDbEntity
  8
0-7__
  6
Continuous
 62
     7
370
     9
100
AcDbCircle
 10
-25.70404558093145
 20
2083.563356107788
 30
0.0
 40
0.5
100
AcDbArc
 50
0.0
 51
90.00000000000001
  0
LINE
  5
413
330
1F
100
AcDbEntity
  8
0-7__
  6
Continuous
 62
     7
370
     9
100
AcDbLine
 10
-55.20404558093162
 20
2080.063356107788
 30
0.0
 11
-46.70404558093168
 21
2080.063356107788
 31
0.0
  0
LINE
  5
414
330
1F
100
AcDbEntity
  8
0-7__
  6
Continuous
 62
     7
370
     9
100
AcDbLine
 10
-55.20404558093162
 20
2079.563356107787
 30
0.0
 11
-55.20404558093162
 21
2080.063356107788
 31
0.0
  0
ARC
  5
415
330
1F
100
AcDbEntity
  8
0-7__
  6
Continuous
 62
     7
370
     9
100
AcDbCircle
 10
-54.70404558093151
 20
2079.563356107787
 30
0.0
 40
0.5
100
AcDbArc
 50
180.0
 51
270.0
  0
LINE
  5
416
330
1F
100
AcDbEntity
  8
0-7__
  6
Continuous
 62
     7
370
     9
100
AcDbLine
 10
-27.70404558093162
 20
2079.063356107788
 30
0.0
 11
-54.70404558093151
 21
2079.063356107788
 31
0.0
  0
LINE
  5
417
330
1F
100
AcDbEntity
  8
0-7__
  6
Continuous
 62
     7
370
     9
100
AcDbLine
 10
-27.20404558093151
 20
2079.563356107787
 30
0.0
 11
-27.20404558093151
 21
2080.063356107788
 31
0.0
  0
ARC
  5
418
330
1F
100
AcDbEntity
  8
0-7__
  6
Continuous
 62
     7
370
     9
100
AcDbCircle
 10
-27.70404558093162
 20
2079.563356107787
 30
0.0
 40
0.5
100
AcDbArc
 50
270.0
 51
0.0
  0
LINE
  5
419
330
1F
100
AcDbEntity
  8
0-7__
  6
Continuous
 62
     7
370
     9
100
AcDbLine
 10
-46.70404558093168
 20
2080.063356107788
 30
0.0
 11
-46.70404558093168
 21
2083.063356107788
 31
0.0
  0
LINE
  5
41A
330
1F
100
AcDbEntity
  8
0-7__
  6
Continuous
 62
     7
370
     9
100
AcDbLine
 10
-45.70404558093159
 20
2080.063356107788
 30
0.0
 11
-45.70404558093159
 21
2083.063356107788
 31
0.0
  0
LINE
  5
41B
330
1F
100
AcDbEntity
  8
0-7__
  6
Continuous
 62
     7
370
     9
100
AcDbLine
 10
-36.70404558093168
 20
2080.063356107788
 30
0.0
 11
-36.70404558093168
 21
2083.063356107788
 31
0.0
  0
LINE
  5
41C
330
1F
100
AcDbEntity
  8
0-7__
  6
Continuous
 62
     7
370
     9
100
AcDbLine
 10
-45.70404558093159
 20
2080.063356107788
 30
0.0
 11
-36.70404558093168
 21
2080.063356107788
 31
0.0
  0
LINE
  5
41D
330
1F
100
AcDbEntity
  8
0-7__
  6
Continuous
 62
     7
370
     9
100
AcDbLine
 10
-35.70404558093159
 20
2080.063356107788
 30
0.0
 11
-35.70404558093159
 21
2083.063356107788
 31
0.0
  0
LINE
  5
41E
330
1F
100
AcDbEntity
  8
0-7__
  6
Continuous
 62
     7
370
     9
100
AcDbLine
 10
-35.70404558093159
 20
2080.063356107788
 30
0.0
 11
-27.20404558093151
 21
2080.063356107788
 31
0.0
  0
LINE
  5
41F
330
1F
100
AcDbEntity
  8
0-7__
  6
Continuous
 62
     7
370
     9
100
AcDbLine
 10
-57.20404558093151
 20
2083.063356107788
 30
0.0
 11
-46.70404558093168
 21
2083.063356107788
 31
0.0
  0
LINE
  5
420
330
1F
100
AcDbEntity
  8
0-7__
  6
Continuous
 62
     7
370
     9
100
AcDbLine
 10
-35.70404558093159
 20
2083.063356107788
 30
0.0
 11
-25.20404558093162
 21
2083.063356107788
 31
0.0
  0
LINE
  5
421
330
1F
100
AcDbEntity
  8
0-7__
  6
Continuous
 62
     7
370
     9
100
AcDbLine
 10
-55.20404558093162
 20
-1201.666546383421
 30
0.0
 11
-55.20404558093162
 21
-1441.66654638342
 31
0.0
  0
LINE
  5
422
330
1F
100
AcDbEntity
  8
0-7__
  6
Continuous
 62
     7
370
     9
100
AcDbLine
 10
-27.20404558093151
 20
-1201.666546383421
 30
0.0
 11
-27.20404558093151
 21
-1441.66654638342
 31
0.0
  0
LINE
  5
423
330
1F
100
AcDbEntity
  8
0-7__
  6
JWW_DASHED1
 62
     7
370
     9
100
AcDbLine
 10
-55.20404558093162
 20
-1201.666546383421
 30
0.0
 11
-55.20404558093162
 21
-1189.66654638342
 31
0.0
  0
LINE
  5
424
330
1F
100
AcDbEntity
  8
0-7__
  6
JWW_DASHED1
 62
     7
370
     9
100
AcDbLine
 10
-27.20404558093151
 20
-1201.666546383421
 30
0.0
 11
-27.20404558093151
 21
-1189.66654638342
 31
0.0
  0
LINE
  5
425
330
1F
100
AcDbEntity
  8
0-7__
  6
JWW_DASHED1
 62
     7
370
     9
100
AcDbLine
 10
-55.20404558093162
 20
-945.6665463834207
 30
0.0
 11
-55.20404558093162
 21
-933.6665463834197
 31
0.0
  0
LINE
  5
426
330
1F
100
AcDbEntity
  8
0-7__
  6
JWW_DASHED1
 62
     7
370
     9
100
AcDbLine
 10
-27.20404558093151
 20
-945.6665463834207
 30
0.0
 11
-27.20404558093151
 21
-933.6665463834197
 31
0.0
  0
LINE
  5
427
330
1F
100
AcDbEntity
  8
0-7__
  6
JWW_DASHED1
 62
     7
370
     9
100
AcDbLine
 10
-55.20404558093162
 20
-689.6665463834197
 30
0.0
 11
-55.20404558093162
 21
-677.6665463834189
 31
0.0
  0
LINE
  5
428
330
1F
100
AcDbEntity
  8
0-7__
  6
JWW_DASHED1
 62
     7
370
     9
100
AcDbLine
 10
-27.20404558093151
 20
-689.6665463834197
 30
0.0
 11
-27.20404558093151
 21
-677.6665463834189
 31
0.0
  0
LINE
  5
429
330
1F
100
AcDbEntity
  8
0-7__
  6
JWW_DASHED1
 62
     7
370
     9
100
AcDbLine
 10
-55.20404558093162
 20
-433.6665463834197
 30
0.0
 11
-55.20404558093162
 21
-421.6665463834192
 31
0.0
  0
LINE
  5
42A
330
1F
100
AcDbEntity
  8
0-7__
  6
JWW_DASHED1
 62
     7
370
     9
100
AcDbLine
 10
-27.20404558093151
 20
-433.6665463834197
 30
0.0
 11
-27.20404558093151
 21
-421.6665463834192
 31
0.0
  0
LINE
  5
42B
330
1F
100
AcDbEntity
  8
0-7__
  6
JWW_DASHED1
 62
     7
370
     9
100
AcDbLine
 10
-55.20404558093162
 20
46.3334536165803
 30
0.0
 11
-55.20404558093162
 21
58.33345361658132
 31
0.0
  0
LINE
  5
42C
330
1F
100
AcDbEntity
  8
0-7__
  6
JWW_DASHED1
 62
     7
370
     9
100
AcDbLine
 10
-27.20404558093151
 20
46.3334536165803
 30
0.0
 11
-27.20404558093151
 21
58.33345361658132
 31
0.0
  0
LINE
  5
42D
330
1F
100
AcDbEntity
  8
0-7__
  6
JWW_DASHED1
 62
     7
370
     9
100
AcDbLine
 10
-55.20404558093162
 20
270.3334536165812
 30
0.0
 11
-55.20404558093162
 21
282.3334536165822
 31
0.0
  0
LINE
  5
42E
330
1F
100
AcDbEntity
  8
0-7__
  6
JWW_DASHED1
 62
     7
370
     9
100
AcDbLine
 10
-27.20404558093151
 20
270.3334536165812
 30
0.0
 11
-27.20404558093151
 21
282.3334536165822
 31
0.0
  0
LINE
  5
42F
330
1F
100
AcDbEntity
  8
0-7__
  6
JWW_DASHED1
 62
     7
370
     9
100
AcDbLine
 10
-55.20404558093162
 20
494.3334536165816
 30
0.0
 11
-55.20404558093162
 21
506.3334536165826
 31
0.0
  0
LINE
  5
430
330
1F
100
AcDbEntity
  8
0-7__
  6
JWW_DASHED1
 62
     7
370
     9
100
AcDbLine
 10
-27.20404558093151
 20
494.3334536165816
 30
0.0
 11
-27.20404558093151
 21
506.3334536165826
 31
0.0
  0
LINE
  5
431
330
1F
100
AcDbEntity
  8
0-7__
  6
Continuous
 62
     7
370
     9
100
AcDbLine
 10
-27.20404558093151
 20
-945.6665463834207
 30
0.0
 11
-27.20404558093151
 21
-1189.66654638342
 31
0.0
  0
LINE
  5
432
330
1F
100
AcDbEntity
  8
0-7__
  6
Continuous
 62
     7
370
     9
100
AcDbLine
 10
-55.20404558093162
 20
-945.6665463834207
 30
0.0
 11
-55.20404558093162
 21
-1189.66654638342
 31
0.0
  0
LINE
  5
433
330
1F
100
AcDbEntity
  8
0-7__
  6
Continuous
 62
     7
370
     9
100
AcDbLine
 10
-27.20404558093151
 20
-689.6665463834216
 30
0.0
 11
-27.20404558093151
 21
-933.6665463834206
 31
0.0
  0
LINE
  5
434
330
1F
100
AcDbEntity
  8
0-7__
  6
Continuous
 62
     7
370
     9
100
AcDbLine
 10
-55.20404558093162
 20
-689.6665463834216
 30
0.0
 11
-55.20404558093162
 21
-933.6665463834206
 31
0.0
  0
LINE
  5
435
330
1F
100
AcDbEntity
  8
0-7__
  6
Continuous
 62
     7
370
     9
100
AcDbLine
 10
-27.20404558093151
 20
-433.6665463834214
 30
0.0
 11
-27.20404558093151
 21
-677.6665463834206
 31
0.0
  0
LINE
  5
436
330
1F
100
AcDbEntity
  8
0-7__
  6
Continuous
 62
     7
370
     9
100
AcDbLine
 10
-55.20404558093162
 20
-433.6665463834214
 30
0.0
 11
-55.20404558093162
 21
-677.6665463834206
 31
0.0
  0
LINE
  5
437
330
1F
100
AcDbEntity
  8
0-7__
  6
Continuous
 62
     7
370
     9
100
AcDbLine
 10
-55.20404558093162
 20
-219.6665463834233
 30
0.0
 11
-55.20404558093162
 21
-421.6665463834207
 31
0.0
  0
LINE
  5
438
330
1F
100
AcDbEntity
  8
0-7__
  6
Continuous
 62
     7
370
     9
100
AcDbLine
 10
-27.20404558093151
 20
-219.6665463834233
 30
0.0
 11
-27.20404558093151
 21
-421.6665463834207
 31
0.0
  0
LINE
  5
439
330
1F
100
AcDbEntity
  8
0-7__
  6
Continuous
 62
     7
370
     9
100
AcDbLine
 10
-55.20404558093162
 20
46.3334536165803
 30
0.0
 11
-55.20404558093162
 21
-204.6665463834233
 31
0.0
  0
LINE
  5
43A
330
1F
100
AcDbEntity
  8
0-7__
  6
Continuous
 62
     7
370
     9
100
AcDbLine
 10
-27.20404558093151
 20
46.3334536165803
 30
0.0
 11
-27.20404558093151
 21
-204.6665463834233
 31
0.0
  0
LINE
  5
43B
330
1F
100
AcDbEntity
  8
0-7__
  6
Continuous
 62
     7
370
     9
100
AcDbLine
 10
-55.20404558093162
 20
270.3334536165812
 30
0.0
 11
-55.20404558093162
 21
58.33345361658075
 31
0.0
  0
LINE
  5
43C
330
1F
100
AcDbEntity
  8
0-7__
  6
Continuous
 62
     7
370
     9
100
AcDbLine
 10
-27.20404558093151
 20
270.3334536165812
 30
0.0
 11
-27.20404558093151
 21
58.33345361658075
 31
0.0
  0
LINE
  5
43D
330
1F
100
AcDbEntity
  8
0-7__
  6
Continuous
 62
     7
370
     9
100
AcDbLine
 10
-55.20404558093162
 20
494.3334536165816
 30
0.0
 11
-55.20404558093162
 21
282.3334536165805
 31
0.0
  0
LINE
  5
43E
330
1F
100
AcDbEntity
  8
0-7__
  6
Continuous
 62
     7
370
     9
100
AcDbLine
 10
-27.20404558093151
 20
494.3334536165816
 30
0.0
 11
-27.20404558093151
 21
282.3334536165805
 31
0.0
  0
LINE
  5
43F
330
1F
100
AcDbEntity
  8
0-7__
  6
Continuous
 62
     7
370
     9
100
AcDbLine
 10
-55.20404558093162
 20
697.3334536165811
 30
0.0
 11
-55.20404558093162
 21
506.333453616582
 31
0.0
  0
LINE
  5
440
330
1F
100
AcDbEntity
  8
0-7__
  6
Continuous
 62
     7
370
     9
100
AcDbLine
 10
-27.20404558093151
 20
697.3334536165811
 30
0.0
 11
-27.20404558093151
 21
506.333453616582
 31
0.0
  0
LINE
  5
441
330
1F
100
AcDbEntity
  8
0-A_文字
  6
Continuous
 62
     7
370
     9
100
AcDbLine
 10
-43.2151906260134
 20
683.7871218557228
 30
0.0
 11
-6.353683955874772
 21
747.633124251941
 31
0.0
  0
LINE
  5
442
330
1F
100
AcDbEntity
  8
0-A_文字
  6
Continuous
 62
     7
370
     9
100
AcDbLine
 10
-6.353683955874772
 20
747.633124251941
 30
0.0
 11
366.7852760305311
 21
747.633124251941
 31
0.0
  0
LINE
  5
443
330
1F
100
AcDbEntity
  8
0-A_文字
  6
Continuous
 62
     7
370
     9
100
AcDbLine
 10
-43.2151906260134
 20
2083.582253828264
 30
0.0
 11
-6.353683955874772
 21
2147.428256224481
 31
0.0
  0
LINE
  5
444
330
1F
100
AcDbEntity
  8
0-A_文字
  6
Continuous
 62
     7
370
     9
100
AcDbLine
 10
-6.353683955874772
 20
2147.428256224481
 30
0.0
 11
366.7852760305311
 21
2147.428256224481
 31
0.0
  0
MTEXT
  5
445
330
1F
100
AcDbEntity
  8
0-B_寸法
  6
Continuous
 62
     7
370
   211
100
AcDbMText
 10
-86.20404553439585
 20
-1848.306546383408
 30
0.0
 40
45.72
 41
90.0
 46
0.0
 71
     7
 72
     1
  1
{\fＭＳ ゴシック|b0|i0|c128|p49;796}
 73
     1
 44
1.0
  0
LINE
  5
446
330
1F
100
AcDbEntity
  8
0-A_文字
  6
Continuous
 62
     7
370
     9
100
AcDbLine
 10
818.9376605965413
 20
-211.6760953965604
 30
0.0
 11
855.7991672666799
 21
-147.8300930003425
 31
0.0
  0
LINE
  5
447
330
1F
100
AcDbEntity
  8
0-A_文字
  6
Continuous
 62
     7
370
     9
100
AcDbLine
 10
855.7991672666799
 20
-147.8300930003425
 30
0.0
 11
1049.772539035916
 21
-147.8300930003425
 31
0.0
  0
LINE
  5
448
330
1F
100
AcDbEntity
  8
0-1_本体
  6
Continuous
 62
    40
370
    15
100
AcDbLine
 10
356.7959544190677
 20
2083.063356107788
 30
0.0
 11
364.7959544190678
 21
2083.063356107788
 31
0.0
  0
LINE
  5
449
330
1F
100
AcDbEntity
  8
0-1_本体
  6
Continuous
 62
    40
370
    15
100
AcDbLine
 10
364.7959544190678
 20
2083.063356107788
 30
0.0
 11
364.7959544190678
 21
2080.063356107788
 31
0.0
  0
LINE
  5
44A
330
1F
100
AcDbEntity
  8
0-1_本体
  6
Continuous
 62
    40
370
    15
100
AcDbLine
 10
364.7959544190678
 20
2080.063356107788
 30
0.0
 11
749.2959544190674
 21
2080.063356107788
 31
0.0
  0
LINE
  5
44B
330
1F
100
AcDbEntity
  8
0-1_本体
  6
Continuous
 62
    40
370
    15
100
AcDbLine
 10
364.7959544190678
 20
2081.563356107787
 30
0.0
 11
749.2959544190674
 21
2081.563356107787
 31
0.0
  0
LINE
  5
44C
330
1F
100
AcDbEntity
  8
0-1_本体
  6
Continuous
 62
     7
370
     9
100
AcDbLine
 10
364.7959544190678
 20
2083.063356107788
 30
0.0
 11
749.2959544190674
 21
2083.063356107788
 31
0.0
  0
LINE
  5
44D
330
1F
100
AcDbEntity
  8
0-1_本体
  6
Continuous
 62
    40
370
    15
100
AcDbLine
 10
1144.795954419067
 20
2083.063356107788
 30
0.0
 11
1144.795954419067
 21
2080.063356107788
 31
0.0
  0
LINE
  5
44E
330
1F
100
AcDbEntity
  8
0-1_本体
  6
Continuous
 62
    40
370
    15
100
AcDbLine
 10
1144.795954419067
 20
2080.063356107788
 30
0.0
 11
760.2959544190676
 21
2080.063356107788
 31
0.0
  0
LINE
  5
44F
330
1F
100
AcDbEntity
  8
0-1_本体
  6
Continuous
 62
    40
370
    15
100
AcDbLine
 10
1144.795954419067
 20
2081.563356107787
 30
0.0
 11
760.2959544190676
 21
2081.563356107787
 31
0.0
  0
LINE
  5
450
330
1F
100
AcDbEntity
  8
0-1_本体
  6
Continuous
 62
     7
370
     9
100
AcDbLine
 10
1144.795954419067
 20
2083.063356107788
 30
0.0
 11
760.2959544190676
 21
2083.063356107788
 31
0.0
  0
LINE
  5
451
330
1F
100
AcDbEntity
  8
0-1_本体
  6
Continuous
 62
    40
370
    15
100
AcDbLine
 10
1144.795954419067
 20
2083.063356107788
 30
0.0
 11
1152.795954419067
 21
2083.063356107788
 31
0.0
  0
LINE
  5
452
330
1F
100
AcDbEntity
  8
0-7__
  6
Continuous
 62
     7
370
     9
100
AcDbLine
 10
750.2959544190675
 20
2083.063356107788
 30
0.0
 11
759.2959544190674
 21
2083.063356107788
 31
0.0
  0
LINE
  5
453
330
1F
100
AcDbEntity
  8
0-7__
  6
Continuous
 62
     7
370
     9
100
AcDbLine
 10
738.7959544190676
 20
2083.563356107788
 30
0.0
 11
738.7959544190676
 21
2083.063356107788
 31
0.0
  0
ARC
  5
454
330
1F
100
AcDbEntity
  8
0-7__
  6
Continuous
 62
     7
370
     9
100
AcDbCircle
 10
739.2959544190674
 20
2083.563356107788
 30
0.0
 40
0.5
100
AcDbArc
 50
90.0
 51
180.0
  0
LINE
  5
455
330
1F
100
AcDbEntity
  8
0-7__
  6
Continuous
 62
     7
370
     9
100
AcDbLine
 10
770.7959544190675
 20
2083.563356107788
 30
0.0
 11
770.7959544190675
 21
2083.063356107788
 31
0.0
  0
LINE
  5
456
330
1F
100
AcDbEntity
  8
0-7__
  6
Continuous
 62
     7
370
     9
100
AcDbLine
 10
770.2959544190676
 20
2084.063356107788
 30
0.0
 11
739.2959544190674
 21
2084.063356107788
 31
0.0
  0
ARC
  5
457
330
1F
100
AcDbEntity
  8
0-7__
  6
Continuous
 62
     7
370
     9
100
AcDbCircle
 10
770.2959544190676
 20
2083.563356107788
 30
0.0
 40
0.5
100
AcDbArc
 50
0.0
 51
90.00000000000001
  0
LINE
  5
458
330
1F
100
AcDbEntity
  8
0-7__
  6
Continuous
 62
     7
370
     9
100
AcDbLine
 10
740.7959544190675
 20
2080.063356107788
 30
0.0
 11
749.2959544190674
 21
2080.063356107788
 31
0.0
  0
LINE
  5
459
330
1F
100
AcDbEntity
  8
0-7__
  6
Continuous
 62
     7
370
     9
100
AcDbLine
 10
740.7959544190675
 20
2079.563356107787
 30
0.0
 11
740.7959544190675
 21
2080.063356107788
 31
0.0
  0
ARC
  5
45A
330
1F
100
AcDbEntity
  8
0-7__
  6
Continuous
 62
     7
370
     9
100
AcDbCircle
 10
741.2959544190676
 20
2079.563356107787
 30
0.0
 40
0.5
100
AcDbArc
 50
180.0
 51
270.0
  0
LINE
  5
45B
330
1F
100
AcDbEntity
  8
0-7__
  6
Continuous
 62
     7
370
     9
100
AcDbLine
 10
768.2959544190675
 20
2079.063356107788
 30
0.0
 11
741.2959544190676
 21
2079.063356107788
 31
0.0
  0
LINE
  5
45C
330
1F
100
AcDbEntity
  8
0-7__
  6
Continuous
 62
     7
370
     9
100
AcDbLine
 10
768.7959544190676
 20
2079.563356107787
 30
0.0
 11
768.7959544190676
 21
2080.063356107788
 31
0.0
  0
ARC
  5
45D
330
1F
100
AcDbEntity
  8
0-7__
  6
Continuous
 62
     7
370
     9
100
AcDbCircle
 10
768.2959544190675
 20
2079.563356107787
 30
0.0
 40
0.5
100
AcDbArc
 50
270.0
 51
0.0
  0
LINE
  5
45E
330
1F
100
AcDbEntity
  8
0-7__
  6
Continuous
 62
     7
370
     9
100
AcDbLine
 10
749.2959544190674
 20
2080.063356107788
 30
0.0
 11
749.2959544190674
 21
2083.063356107788
 31
0.0
  0
LINE
  5
45F
330
1F
100
AcDbEntity
  8
0-7__
  6
Continuous
 62
     7
370
     9
100
AcDbLine
 10
750.2959544190675
 20
2080.063356107788
 30
0.0
 11
750.2959544190675
 21
2083.063356107788
 31
0.0
  0
LINE
  5
460
330
1F
100
AcDbEntity
  8
0-7__
  6
Continuous
 62
     7
370
     9
100
AcDbLine
 10
759.2959544190674
 20
2080.063356107788
 30
0.0
 11
759.2959544190674
 21
2083.063356107788
 31
0.0
  0
LINE
  5
461
330
1F
100
AcDbEntity
  8
0-7__
  6
Continuous
 62
     7
370
     9
100
AcDbLine
 10
750.2959544190675
 20
2080.063356107788
 30
0.0
 11
759.2959544190674
 21
2080.063356107788
 31
0.0
  0
LINE
  5
462
330
1F
100
AcDbEntity
  8
0-7__
  6
Continuous
 62
     7
370
     9
100
AcDbLine
 10
760.2959544190675
 20
2080.063356107788
 30
0.0
 11
760.2959544190675
 21
2083.063356107788
 31
0.0
  0
LINE
  5
463
330
1F
100
AcDbEntity
  8
0-7__
  6
Continuous
 62
     7
370
     9
100
AcDbLine
 10
760.2959544190675
 20
2080.063356107788
 30
0.0
 11
768.7959544190676
 21
2080.063356107788
 31
0.0
  0
LINE
  5
464
330
1F
100
AcDbEntity
  8
0-7__
  6
Continuous
 62
     7
370
     9
100
AcDbLine
 10
738.7959544190676
 20
2083.063356107788
 30
0.0
 11
749.2959544190674
 21
2083.063356107788
 31
0.0
  0
LINE
  5
465
330
1F
100
AcDbEntity
  8
0-7__
  6
Continuous
 62
     7
370
     9
100
AcDbLine
 10
760.2959544190675
 20
2083.063356107788
 30
0.0
 11
770.7959544190675
 21
2083.063356107788
 31
0.0
  0
LINE
  5
466
330
1F
100
AcDbEntity
  8
0-7__
  6
Continuous
 62
     7
370
     9
100
AcDbLine
 10
740.7959544190675
 20
-1201.666546383421
 30
0.0
 11
740.7959544190675
 21
-1441.66654638342
 31
0.0
  0
LINE
  5
467
330
1F
100
AcDbEntity
  8
0-7__
  6
Continuous
 62
     7
370
     9
100
AcDbLine
 10
768.7959544190676
 20
-1201.666546383421
 30
0.0
 11
768.7959544190676
 21
-1441.66654638342
 31
0.0
  0
LINE
  5
468
330
1F
100
AcDbEntity
  8
0-7__
  6
JWW_DASHED1
 62
     7
370
     9
100
AcDbLine
 10
740.7959544190675
 20
-1201.666546383421
 30
0.0
 11
740.7959544190675
 21
-1189.66654638342
 31
0.0
  0
LINE
  5
469
330
1F
100
AcDbEntity
  8
0-7__
  6
JWW_DASHED1
 62
     7
370
     9
100
AcDbLine
 10
768.7959544190676
 20
-1201.666546383421
 30
0.0
 11
768.7959544190676
 21
-1189.66654638342
 31
0.0
  0
LINE
  5
46A
330
1F
100
AcDbEntity
  8
0-7__
  6
JWW_DASHED1
 62
     7
370
     9
100
AcDbLine
 10
740.7959544190675
 20
-945.6665463834207
 30
0.0
 11
740.7959544190675
 21
-933.6665463834197
 31
0.0
  0
LINE
  5
46B
330
1F
100
AcDbEntity
  8
0-7__
  6
JWW_DASHED1
 62
     7
370
     9
100
AcDbLine
 10
768.7959544190676
 20
-945.6665463834207
 30
0.0
 11
768.7959544190676
 21
-933.6665463834197
 31
0.0
  0
LINE
  5
46C
330
1F
100
AcDbEntity
  8
0-7__
  6
JWW_DASHED1
 62
     7
370
     9
100
AcDbLine
 10
740.7959544190675
 20
-689.6665463834197
 30
0.0
 11
740.7959544190675
 21
-677.6665463834189
 31
0.0
  0
LINE
  5
46D
330
1F
100
AcDbEntity
  8
0-7__
  6
JWW_DASHED1
 62
     7
370
     9
100
AcDbLine
 10
768.7959544190676
 20
-689.6665463834197
 30
0.0
 11
768.7959544190676
 21
-677.6665463834189
 31
0.0
  0
LINE
  5
46E
330
1F
100
AcDbEntity
  8
0-7__
  6
JWW_DASHED1
 62
     7
370
     9
100
AcDbLine
 10
740.7959544190675
 20
-433.6665463834197
 30
0.0
 11
740.7959544190675
 21
-421.6665463834192
 31
0.0
  0
LINE
  5
46F
330
1F
100
AcDbEntity
  8
0-7__
  6
JWW_DASHED1
 62
     7
370
     9
100
AcDbLine
 10
768.7959544190676
 20
-433.6665463834197
 30
0.0
 11
768.7959544190676
 21
-421.6665463834192
 31
0.0
  0
LINE
  5
470
330
1F
100
AcDbEntity
  8
0-7__
  6
JWW_DASHED1
 62
     7
370
     9
100
AcDbLine
 10
740.7959544190675
 20
46.3334536165803
 30
0.0
 11
740.7959544190675
 21
58.33345361658132
 31
0.0
  0
LINE
  5
471
330
1F
100
AcDbEntity
  8
0-7__
  6
JWW_DASHED1
 62
     7
370
     9
100
AcDbLine
 10
768.7959544190676
 20
46.3334536165803
 30
0.0
 11
768.7959544190676
 21
58.33345361658132
 31
0.0
  0
LINE
  5
472
330
1F
100
AcDbEntity
  8
0-7__
  6
JWW_DASHED1
 62
     7
370
     9
100
AcDbLine
 10
740.7959544190675
 20
270.3334536165812
 30
0.0
 11
740.7959544190675
 21
282.3334536165822
 31
0.0
  0
LINE
  5
473
330
1F
100
AcDbEntity
  8
0-7__
  6
JWW_DASHED1
 62
     7
370
     9
100
AcDbLine
 10
768.7959544190676
 20
270.3334536165812
 30
0.0
 11
768.7959544190676
 21
282.3334536165822
 31
0.0
  0
LINE
  5
474
330
1F
100
AcDbEntity
  8
0-7__
  6
JWW_DASHED1
 62
     7
370
     9
100
AcDbLine
 10
740.7959544190675
 20
494.3334536165816
 30
0.0
 11
740.7959544190675
 21
506.3334536165826
 31
0.0
  0
LINE
  5
475
330
1F
100
AcDbEntity
  8
0-7__
  6
JWW_DASHED1
 62
     7
370
     9
100
AcDbLine
 10
768.7959544190676
 20
494.3334536165816
 30
0.0
 11
768.7959544190676
 21
506.3334536165826
 31
0.0
  0
LINE
  5
476
330
1F
100
AcDbEntity
  8
0-7__
  6
Continuous
 62
     7
370
     9
100
AcDbLine
 10
768.7959544190676
 20
-945.6665463834207
 30
0.0
 11
768.7959544190676
 21
-1189.66654638342
 31
0.0
  0
LINE
  5
477
330
1F
100
AcDbEntity
  8
0-7__
  6
Continuous
 62
     7
370
     9
100
AcDbLine
 10
740.7959544190675
 20
-945.6665463834207
 30
0.0
 11
740.7959544190675
 21
-1189.66654638342
 31
0.0
  0
LINE
  5
478
330
1F
100
AcDbEntity
  8
0-7__
  6
Continuous
 62
     7
370
     9
100
AcDbLine
 10
768.7959544190676
 20
-689.6665463834216
 30
0.0
 11
768.7959544190676
 21
-933.6665463834206
 31
0.0
  0
LINE
  5
479
330
1F
100
AcDbEntity
  8
0-7__
  6
Continuous
 62
     7
370
     9
100
AcDbLine
 10
740.7959544190675
 20
-689.6665463834216
 30
0.0
 11
740.7959544190675
 21
-933.6665463834206
 31
0.0
  0
LINE
  5
47A
330
1F
100
AcDbEntity
  8
0-7__
  6
Continuous
 62
     7
370
     9
100
AcDbLine
 10
768.7959544190676
 20
-433.6665463834214
 30
0.0
 11
768.7959544190676
 21
-677.6665463834206
 31
0.0
  0
LINE
  5
47B
330
1F
100
AcDbEntity
  8
0-7__
  6
Continuous
 62
     7
370
     9
100
AcDbLine
 10
740.7959544190675
 20
-433.6665463834214
 30
0.0
 11
740.7959544190675
 21
-677.6665463834206
 31
0.0
  0
LINE
  5
47C
330
1F
100
AcDbEntity
  8
0-7__
  6
Continuous
 62
     7
370
     9
100
AcDbLine
 10
740.7959544190675
 20
-219.6665463834233
 30
0.0
 11
740.7959544190675
 21
-421.6665463834207
 31
0.0
  0
LINE
  5
47D
330
1F
100
AcDbEntity
  8
0-7__
  6
Continuous
 62
     7
370
     9
100
AcDbLine
 10
768.7959544190676
 20
-219.6665463834233
 30
0.0
 11
768.7959544190676
 21
-421.6665463834207
 31
0.0
  0
LINE
  5
47E
330
1F
100
AcDbEntity
  8
0-7__
  6
Continuous
 62
     7
370
     9
100
AcDbLine
 10
740.7959544190675
 20
46.3334536165803
 30
0.0
 11
740.7959544190675
 21
-204.6665463834233
 31
0.0
  0
LINE
  5
47F
330
1F
100
AcDbEntity
  8
0-7__
  6
Continuous
 62
     7
370
     9
100
AcDbLine
 10
768.7959544190676
 20
46.3334536165803
 30
0.0
 11
768.7959544190676
 21
-204.6665463834233
 31
0.0
  0
LINE
  5
480
330
1F
100
AcDbEntity
  8
0-7__
  6
Continuous
 62
     7
370
     9
100
AcDbLine
 10
740.7959544190675
 20
270.3334536165812
 30
0.0
 11
740.7959544190675
 21
58.33345361658075
 31
0.0
  0
LINE
  5
481
330
1F
100
AcDbEntity
  8
0-7__
  6
Continuous
 62
     7
370
     9
100
AcDbLine
 10
768.7959544190676
 20
270.3334536165812
 30
0.0
 11
768.7959544190676
 21
58.33345361658075
 31
0.0
  0
LINE
  5
482
330
1F
100
AcDbEntity
  8
0-7__
  6
Continuous
 62
     7
370
     9
100
AcDbLine
 10
740.7959544190675
 20
494.3334536165816
 30
0.0
 11
740.7959544190675
 21
282.3334536165805
 31
0.0
  0
LINE
  5
483
330
1F
100
AcDbEntity
  8
0-7__
  6
Continuous
 62
     7
370
     9
100
AcDbLine
 10
768.7959544190676
 20
494.3334536165816
 30
0.0
 11
768.7959544190676
 21
282.3334536165805
 31
0.0
  0
LINE
  5
484
330
1F
100
AcDbEntity
  8
0-7__
  6
Continuous
 62
     7
370
     9
100
AcDbLine
 10
740.7959544190675
 20
697.3334536165811
 30
0.0
 11
740.7959544190675
 21
506.333453616582
 31
0.0
  0
LINE
  5
485
330
1F
100
AcDbEntity
  8
0-7__
  6
Continuous
 62
     7
370
     9
100
AcDbLine
 10
768.7959544190676
 20
697.3334536165811
 30
0.0
 11
768.7959544190676
 21
506.333453616582
 31
0.0
  0
MTEXT
  5
486
330
1F
100
AcDbEntity
  8
0-B_寸法
  6
Continuous
 62
     7
370
   211
100
AcDbMText
 10
709.7959544656056
 20
-1848.306546383409
 30
0.0
 40
45.72
 41
90.0
 46
0.0
 71
     7
 72
     1
  1
{\fＭＳ ゴシック|b0|i0|c128|p49;796}
 73
     1
 44
1.0
  0
LINE
  5
487
330
1F
100
AcDbEntity
  8
0-A_文字
  6
Continuous
 62
     7
370
     9
100
AcDbLine
 10
-271.4332559226875
 20
1632.500044505169
 30
0.0
 11
-168.5650984585789
 21
1660.063356107788
 31
0.0
  0
LINE
  5
488
330
1F
100
AcDbEntity
  8
0-A_文字
  6
Continuous
 62
     7
370
     9
100
AcDbLine
 10
-168.5650984585789
 20
1632.500044505169
 30
0.0
 11
-271.4332559226875
 21
1632.500044505169
 31
0.0
  0
LINE
  5
489
330
1F
100
AcDbEntity
  8
0-A_文字
  6
Continuous
 62
     7
370
     9
100
AcDbLine
 10
-168.5650984585789
 20
2160.626667710404
 30
0.0
 11
-168.5650984585789
 21
1632.500044505169
 31
0.0
  0
LINE
  5
48A
330
1F
100
AcDbEntity
  8
0-A_文字
  6
Continuous
 62
     7
370
     9
100
AcDbLine
 10
-168.5650984585789
 20
2160.626667710404
 30
0.0
 11
-271.4332559226875
 21
2160.626667710404
 31
0.0
  0
LINE
  5
48B
330
1F
100
AcDbEntity
  8
0-A_文字
  6
Continuous
 62
     7
370
     9
100
AcDbLine
 10
-271.4332559226875
 20
2160.626667710404
 30
0.0
 11
-168.5650984585789
 21
2133.063356107788
 31
0.0
  0
LINE
  5
48C
330
1F
100
AcDbEntity
  8
0-0_補助線
  6
JWW_HOJO
 62
   120
370
     5
100
AcDbLine
 10
1202.795954419068
 20
2133.063356107788
 30
0.0
 11
1202.795954419068
 21
1460.063356107788
 31
0.0
  0
LINE
  5
48D
330
1F
100
AcDbEntity
  8
0-0_補助線
  6
JWW_HOJO
 62
   120
370
     5
100
AcDbLine
 10
-689.2040455809314
 20
2133.063356107788
 30
0.0
 11
1202.795954419068
 21
2133.063356107788
 31
0.0
  0
LINE
  5
48E
330
1F
100
AcDbEntity
  8
0-0_補助線
  6
JWW_HOJO
 62
   120
370
     5
100
AcDbLine
 10
-689.2040455809314
 20
1460.063356107788
 30
0.0
 11
1202.795954419068
 21
1460.063356107788
 31
0.0
  0
LINE
  5
48F
330
1F
100
AcDbEntity
  8
0-0_補助線
  6
JWW_HOJO
 62
   120
370
     5
100
AcDbLine
 10
-689.2040455809314
 20
1660.063356107788
 30
0.0
 11
1202.795954419068
 21
1660.063356107788
 31
0.0
  0
LINE
  5
490
330
1F
100
AcDbEntity
  8
0-0_補助線
  6
JWW_HOJO
 62
   120
370
     5
100
AcDbLine
 10
-689.2040455809314
 20
1560.063356107788
 30
0.0
 11
1202.795954419068
 21
1560.063356107788
 31
0.0
  0
LINE
  5
491
330
1F
100
AcDbEntity
  8
0-0_補助線
  6
JWW_HOJO
 62
     7
370
     9
100
AcDbLine
 10
-689.2040455809314
 20
2083.063356107788
 30
0.0
 11
1202.795954419068
 21
2083.063356107788
 31
0.0
  0
LINE
  5
492
330
1F
100
AcDbEntity
  8
0-0_補助線
  6
JWW_HOJO
 62
     7
370
     9
100
AcDbLine
 10
-689.2040455809314
 20
1738.063356107788
 30
0.0
 11
1202.795954419068
 21
1738.063356107788
 31
0.0
  0
LINE
  5
493
330
1F
100
AcDbEntity
  8
0-2_扉
  6
Continuous
 62
    40
370
    15
100
AcDbLine
 10
358.795954419067
 20
1737.063356107788
 30
0.0
 11
752.7959544190671
 21
1737.063356107788
 31
0.0
  0
LINE
  5
494
330
1F
100
AcDbEntity
  8
0-2_扉
  6
Continuous
 62
    40
370
    15
100
AcDbLine
 10
752.7959544190671
 20
1737.063356107788
 30
0.0
 11
752.7959544190671
 21
1713.063356107788
 31
0.0
  0
LINE
  5
495
330
1F
100
AcDbEntity
  8
0-2_扉
  6
Continuous
 62
    40
370
    15
100
AcDbLine
 10
752.7959544190671
 20
1713.063356107788
 30
0.0
 11
358.795954419067
 21
1713.063356107788
 31
0.0
  0
LINE
  5
496
330
1F
100
AcDbEntity
  8
0-2_扉
  6
Continuous
 62
    40
370
    15
100
AcDbLine
 10
358.795954419067
 20
1713.063356107788
 30
0.0
 11
358.795954419067
 21
1737.063356107788
 31
0.0
  0
LINE
  5
497
330
1F
100
AcDbEntity
  8
0-2_扉
  6
Continuous
 62
    40
370
    15
100
AcDbLine
 10
756.7959544190688
 20
1737.063356107788
 30
0.0
 11
1150.795954419069
 21
1737.063356107788
 31
0.0
  0
LINE
  5
498
330
1F
100
AcDbEntity
  8
0-2_扉
  6
Continuous
 62
    40
370
    15
100
AcDbLine
 10
1150.795954419069
 20
1737.063356107788
 30
0.0
 11
1150.795954419069
 21
1713.063356107788
 31
0.0
  0
LINE
  5
499
330
1F
100
AcDbEntity
  8
0-2_扉
  6
Continuous
 62
    40
370
    15
100
AcDbLine
 10
1150.795954419069
 20
1713.063356107788
 30
0.0
 11
756.7959544190688
 21
1713.063356107788
 31
0.0
  0
LINE
  5
49A
330
1F
100
AcDbEntity
  8
0-2_扉
  6
Continuous
 62
    40
370
    15
100
AcDbLine
 10
756.7959544190688
 20
1713.063356107788
 30
0.0
 11
756.7959544190688
 21
1737.063356107788
 31
0.0
  0
LINE
  5
49B
330
1F
100
AcDbEntity
  8
0-2_扉
  6
Continuous
 62
    40
370
    15
100
AcDbLine
 10
-437.2040455809332
 20
1737.063356107788
 30
0.0
 11
-43.20404558093315
 21
1737.063356107788
 31
0.0
  0
LINE
  5
49C
330
1F
100
AcDbEntity
  8
0-2_扉
  6
Continuous
 62
    40
370
    15
100
AcDbLine
 10
-43.20404558093315
 20
1737.063356107788
 30
0.0
 11
-43.20404558093315
 21
1713.063356107788
 31
0.0
  0
LINE
  5
49D
330
1F
100
AcDbEntity
  8
0-2_扉
  6
Continuous
 62
    40
370
    15
100
AcDbLine
 10
-43.20404558093315
 20
1713.063356107788
 30
0.0
 11
-437.2040455809332
 21
1713.063356107788
 31
0.0
  0
LINE
  5
49E
330
1F
100
AcDbEntity
  8
0-2_扉
  6
Continuous
 62
    40
370
    15
100
AcDbLine
 10
-437.2040455809332
 20
1713.063356107788
 30
0.0
 11
-437.2040455809332
 21
1737.063356107788
 31
0.0
  0
LINE
  5
49F
330
1F
100
AcDbEntity
  8
0-2_扉
  6
Continuous
 62
    40
370
    15
100
AcDbLine
 10
-39.20404558093139
 20
1737.063356107788
 30
0.0
 11
354.7959544190687
 21
1737.063356107788
 31
0.0
  0
LINE
  5
4A0
330
1F
100
AcDbEntity
  8
0-2_扉
  6
Continuous
 62
    40
370
    15
100
AcDbLine
 10
354.7959544190687
 20
1737.063356107788
 30
0.0
 11
354.7959544190687
 21
1713.063356107788
 31
0.0
  0
LINE
  5
4A1
330
1F
100
AcDbEntity
  8
0-2_扉
  6
Continuous
 62
    40
370
    15
100
AcDbLine
 10
354.7959544190687
 20
1713.063356107788
 30
0.0
 11
-39.20404558093139
 21
1713.063356107788
 31
0.0
  0
LINE
  5
4A2
330
1F
100
AcDbEntity
  8
0-2_扉
  6
Continuous
 62
    40
370
    15
100
AcDbLine
 10
-39.20404558093139
 20
1713.063356107788
 30
0.0
 11
-39.20404558093139
 21
1737.063356107788
 31
0.0
  0
MTEXT
  5
4A3
330
1F
100
AcDbEntity
  8
0-A_文字
  6
Continuous
 62
     7
370
     9
100
AcDbMText
 10
-2404.20856873435
 20
-2144.731546383427
 30
0.0
 40
102.87
 41
540.0
 46
0.0
 71
     7
 72
     1
  1
{\fＭＳ ゴシック|b0|i0|c128|p49;扉配置図}
 73
     1
 44
1.0
  0
MTEXT
  5
4A4
330
1F
100
AcDbEntity
  8
F-A_文字
  6
Continuous
 62
     7
370
     0
100
AcDbMText
 10
-3386.720882428187
 20
-2696.763553876822
 30
0.0
 40
53.13947368421053
 41
2650.0
 46
0.0
 71
     7
 72
     1
  1
{\fＭＳ ゴシック|b0|i0|c128|p49;ピノアース　玄関収納　組合せプラン　フロートタイプ（中仕切りなし） Ｔ-６０１}
 73
     1
 44
1.0
  0
MTEXT
  5
4A5
330
1F
100
AcDbEntity
  8
F-A_文字
  6
Continuous
 62
     7
370
     0
100
AcDbMText
 10
339.945722722191
 20
-2646.608194581668
 30
0.0
 40
21.16666666666666
 41
249.9999999999999
 46
0.0
 71
     7
 72
     1
  1
{\fＭＳ ゴシック|b0|i0|c128|p49;ＰＩＮＯＥＡＲＴＨ}
 73
     1
 44
1.0
  0
MTEXT
  5
4A6
330
1F
100
AcDbEntity
  8
F-A_文字
  6
Continuous
 62
     7
370
     0
100
AcDbMText
 10
3257.445178354582
 20
-2625.380673426644
 30
0.0
 40
52.57799999999999
 41
345.0
 46
0.0
 71
     7
 72
     1
  1
{\fＭＳ ゴシック|b0|i0|c128|p49;2021.04.01}
 73
     1
 44
1.0
  0
ENDSEC
  0
SECTION
  2
OBJECTS
  0
DICTIONARY
  5
C
330
0
100
AcDbDictionary
281
     1
  3
ACAD_GROUP
350
D
  3
ACAD_LAYOUT
350
1A
  3
ACAD_MATERIAL
350
3B
  3
ACAD_MLEADERSTYLE
350
4A8
  3
ACAD_MLINESTYLE
350
17
  3
ACAD_PLOTSETTINGS
350
19
  3
ACAD_PLOTSTYLENAME
350
E
  3
ACAD_TABLESTYLE
350
4A7
  3
ACAD_VISUALSTYLE
350
2A
  0
DICTIONARY
  5
D
102
{ACAD_REACTORS
330
C
102
}
330
C
100
AcDbDictionary
281
     1
  0
DICTIONARY
  5
1A
102
{ACAD_REACTORS
330
C
102
}
330
C
100
AcDbDictionary
281
     1
  3
Layout1
350
1E
  3
Layout2
350
26
  3
Model
350
22
  0
DICTIONARY
  5
3B
102
{ACAD_REACTORS
330
C
102
}
330
C
100
AcDbDictionary
281
     1
  3
ByBlock
350
3D
  3
ByLayer
350
3C
  3
Global
350
3E
  0
DICTIONARY
  5
4A8
102
{ACAD_REACTORS
330
C
102
}
330
C
100
AcDbDictionary
281
     1
  0
DICTIONARY
  5
17
102
{ACAD_REACTORS
330
C
102
}
330
C
100
AcDbDictionary
281
     1
  3
Standard
350
18
  0
DICTIONARY
  5
19
102
{ACAD_REACTORS
330
C
102
}
330
C
100
AcDbDictionary
281
     1
  0
ACDBDICTIONARYWDFLT
  5
E
102
{ACAD_REACTORS
330
C
102
}
330
C
100
AcDbDictionary
281
     1
  3
Normal
350
F
100
AcDbDictionaryWithDefault
340
F
  0
DICTIONARY
  5
4A7
102
{ACAD_REACTORS
330
C
102
}
330
C
100
AcDbDictionary
281
     1
  0
DICTIONARY
  5
2A
102
{ACAD_REACTORS
330
C
102
}
330
C
100
AcDbDictionary
281
     1
  3
2dWireframe
350
2F
  3
3D Hidden
350
31
  3
3dWireframe
350
30
  3
Basic
350
32
  3
Brighten
350
36
  3
ColorChange
350
3A
  3
Conceptual
350
34
  3
Dim
350
35
  3
Facepattern
350
39
  3
Flat
350
2B
  3
FlatWithEdges
350
2C
  3
Gouraud
350
2D
  3
GouraudWithEdges
350
2E
  3
Linepattern
350
38
  3
Realistic
350
33
  3
Thicken
350
37
  0
LAYOUT
  5
1E
102
{ACAD_REACTORS
330
1A
102
}
330
1A
100
AcDbPlotSettings
  1

  2
none_device
  4

  6

 40
0.0
 41
0.0
 42
0.0
 43
0.0
 44
0.0
 45
0.0
 46
0.0
 47
0.0
 48
0.0
 49
0.0
140
0.0
141
0.0
142
1.0
143
1.0
 70
   688
 72
     0
 73
     0
 74
     5
  7

 75
    16
 76
     0
 77
     5
 78
   300
147
1.0
148
0.0
149
0.0
100
AcDbLayout
  1
Layout1
 70
     1
 71
     1
 10
0.0
 20
0.0
 11
420.0
 21
297.0
 12
0.0
 22
0.0
 32
0.0
 14
1.000000000000000E+20
 24
1.000000000000000E+20
 34
1.000000000000000E+20
 15
-1.000000000000000E+20
 25
-1.000000000000000E+20
 35
-1.000000000000000E+20
146
0.0
 13
0.0
 23
0.0
 33
0.0
 16
1.0
 26
0.0
 36
0.0
 17
0.0
 27
1.0
 37
0.0
 76
     0
330
1B
  0
LAYOUT
  5
26
102
{ACAD_REACTORS
330
1A
102
}
330
1A
100
AcDbPlotSettings
  1

  2
none_device
  4

  6

 40
0.0
 41
0.0
 42
0.0
 43
0.0
 44
0.0
 45
0.0
 46
0.0
 47
0.0
 48
0.0
 49
0.0
140
0.0
141
0.0
142
1.0
143
1.0
 70
   688
 72
     0
 73
     0
 74
     5
  7

 75
    16
 76
     0
 77
     5
 78
   300
147
1.0
148
0.0
149
0.0
100
AcDbLayout
  1
Layout2
 70
     1
 71
     2
 10
0.0
 20
0.0
 11
0.0
 21
0.0
 12
0.0
 22
0.0
 32
0.0
 14
0.0
 24
0.0
 34
0.0
 15
0.0
 25
0.0
 35
0.0
146
0.0
 13
0.0
 23
0.0
 33
0.0
 16
1.0
 26
0.0
 36
0.0
 17
0.0
 27
1.0
 37
0.0
 76
     0
330
23
  0
LAYOUT
  5
22
102
{ACAD_REACTORS
330
1A
102
}
330
1A
100
AcDbPlotSettings
  1

  2
none_device
  4

  6

 40
0.0
 41
0.0
 42
0.0
 43
0.0
 44
0.0
 45
0.0
 46
0.0
 47
0.0
 48
0.0
 49
0.0
140
0.0
141
0.0
142
1.0
143
1.0
 70
  1712
 72
     0
 73
     0
 74
     0
  7

 75
     0
 76
     0
 77
     5
 78
   300
147
1.0
148
0.0
149
0.0
100
AcDbLayout
  1
Model
 70
     1
 71
     0
 10
-4200.0
 20
-2970.0
 11
4200.0
 21
2970.0
 12
0.0
 22
0.0
 32
0.0
 14
-4200.0
 24
-2970.0
 34
0.0
 15
4200.0
 25
2970.0
 35
0.0
146
0.0
 13
0.0
 23
0.0
 33
0.0
 16
1.0
 26
0.0
 36
0.0
 17
0.0
 27
1.0
 37
0.0
 76
     0
330
1F
331
29
  0
MATERIAL
  5
3D
102
{ACAD_REACTORS
330
3B
102
}
330
3B
100
AcDbMaterial
  1
ByBlock
 72
     1
 94
      127
  0
MATERIAL
  5
3C
102
{ACAD_REACTORS
330
3B
102
}
330
3B
100
AcDbMaterial
  1
ByLayer
 72
     1
 94
      127
  0
MATERIAL
  5
3E
102
{ACAD_REACTORS
330
3B
102
}
330
3B
100
AcDbMaterial
  1
Global
 72
     1
 94
      127
  0
MLINESTYLE
  5
18
102
{ACAD_REACTORS
330
17
102
}
330
17
100
AcDbMlineStyle
  2
Standard
 70
     0
  3

 62
   256
 51
90.0
 52
90.0
 71
     2
 49
0.5
 62
   256
  6
BYLAYER
 49
-0.5
 62
   256
  6
BYLAYER
  0
ACDBPLACEHOLDER
  5
F
102
{ACAD_REACTORS
330
E
102
}
330
E
  0
VISUALSTYLE
  5
2F
102
{ACAD_REACTORS
330
2A
102
}
330
2A
100
AcDbVisualStyle
  2
2dWireframe
 70
     4
177
     2
291
     0
 71
     0
176
     1
 72
     2
176
     1
 73
     0
176
     1
 90
        0
176
     1
 40
-0.6
176
     1
 41
-30.0
176
     1
 62
     5
 63
     7
421
 16777215
176
     1
 74
     1
176
     1
 91
        4
176
     1
 64
     7
176
     1
 65
   257
176
     1
 75
     1
176
     1
175
     1
176
     1
 42
1.0
176
     1
 92
        0
176
     1
 66
   257
176
     1
 43
1.0
176
     1
 76
     1
176
     1
 77
     6
176
     1
 78
     2
176
     1
 67
     7
176
     1
 79
     5
176
     1
170
     0
176
     1
171
     0
176
     1
290
     0
176
     1
 93
        1
176
     1
 44
0.0
176
     1
173
     0
176
     1
  0
VISUALSTYLE
  5
31
102
{ACAD_REACTORS
330
2A
102
}
330
2A
100
AcDbVisualStyle
  2
3D Hidden
 70
     6
177
     2
291
     0
 71
     1
176
     1
 72
     2
176
     1
 73
     2
176
     1
 90
        0
176
     1
 40
-0.6
176
     1
 41
-30.0
176
     1
 62
     5
 63
     7
421
 16777215
176
     1
 74
     2
176
     1
 91
        2
176
     1
 64
     7
176
     1
 65
   257
176
     1
 75
     2
176
     1
175
     1
176
     1
 42
40.0
176
     1
 92
        0
176
     1
 66
   257
176
     1
 43
1.0
176
     1
 76
     1
176
     1
 77
     6
176
     1
 78
     2
176
     1
 67
     7
176
     1
 79
     3
176
     1
170
     0
176
     1
171
     0
176
     1
290
     0
176
     1
 93
        1
176
     1
 44
0.0
176
     1
173
     0
176
     1
  0
VISUALSTYLE
  5
30
102
{ACAD_REACTORS
330
2A
102
}
330
2A
100
AcDbVisualStyle
  2
3dWireframe
 70
     5
177
     2
291
     0
 71
     0
176
     1
 72
     2
176
     1
 73
     0
176
     1
 90
        0
176
     1
 40
-0.6
176
     1
 41
-30.0
176
     1
 62
     5
 63
     7
421
 16777215
176
     1
 74
     1
176
     1
 91
        4
176
     1
 64
     7
176
     1
 65
   257
176
     1
 75
     1
176
     1
175
     1
176
     1
 42
1.0
176
     1
 92
        0
176
     1
 66
   257
176
     1
 43
1.0
176
     1
 76
     1
176
     1
 77
     6
176
     1
 78
     2
176
     1
 67
     7
176
     1
 79
     5
176
     1
170
     0
176
     1
171
     0
176
     1
290
     0
176
     1
 93
        1
176
     1
 44
0.0
176
     1
173
     0
176
     1
  0
VISUALSTYLE
  5
32
102
{ACAD_REACTORS
330
2A
102
}
330
2A
100
AcDbVisualStyle
  2
Basic
 70
     7
177
     2
291
     1
 71
     1
176
     1
 72
     0
176
     1
 73
     1
176
     1
 90
        0
176
     1
 40
-0.6
176
     1
 41
-30.0
176
     1
 62
     5
 63
     7
421
 16777215
176
     1
 74
     0
176
     1
 91
        4
176
     1
 64
     7
176
     1
 65
   257
176
     1
 75
     1
176
     1
175
     1
176
     1
 42
1.0
176
     1
 92
        8
176
     1
 66
     7
176
     1
 43
1.0
176
     1
 76
     1
176
     1
 77
     6
176
     1
 78
     2
176
     1
 67
     7
176
     1
 79
     5
176
     1
170
     0
176
     1
171
     0
176
     1
290
     0
176
     1
 93
        1
176
     1
 44
0.0
176
     1
173
     0
176
     1
  0
VISUALSTYLE
  5
36
102
{ACAD_REACTORS
330
2A
102
}
330
2A
100
AcDbVisualStyle
  2
Brighten
 70
    12
177
     2
291
     1
 71
     2
176
     1
 72
     2
176
     1
 73
     0
176
     1
 90
        0
176
     1
 40
-0.6
176
     1
 41
-30.0
176
     1
 62
     5
 63
     7
421
 16777215
176
     1
 74
     1
176
     1
 91
        4
176
     1
 64
     7
176
     1
 65
   257
176
     1
 75
     1
176
     1
175
     1
176
     1
 42
1.0
176
     1
 92
        8
176
     1
 66
     7
176
     1
 43
1.0
176
     1
 76
     1
176
     1
 77
     6
176
     1
 78
     2
176
     1
 67
     7
176
     1
 79
     5
176
     1
170
     0
176
     1
171
     0
176
     1
290
     0
176
     1
 93
        1
176
     1
 44
50.0
176
     1
173
     0
176
     1
  0
VISUALSTYLE
  5
3A
102
{ACAD_REACTORS
330
2A
102
}
330
2A
100
AcDbVisualStyle
  2
ColorChange
 70
    16
177
     2
291
     1
 71
     2
176
     1
 72
     2
176
     1
 73
     3
176
     1
 90
        0
176
     1
 40
-0.6
176
     1
 41
-30.0
176
     1
 62
     5
 63
     8
421
  8421504
176
     1
 74
     1
176
     1
 91
        4
176
     1
 64
     7
176
     1
 65
   257
176
     1
 75
     1
176
     1
175
     1
176
     1
 42
1.0
176
     1
 92
        8
176
     1
 66
     8
424
  8421504
176
     1
 43
1.0
176
     1
 76
     1
176
     1
 77
     6
176
     1
 78
     2
176
     1
 67
     7
176
     1
 79
     5
176
     1
170
     0
176
     1
171
     0
176
     1
290
     0
176
     1
 93
        1
176
     1
 44
0.0
176
     1
173
     0
176
     1
  0
VISUALSTYLE
  5
34
102
{ACAD_REACTORS
330
2A
102
}
330
2A
100
AcDbVisualStyle
  2
Conceptual
 70
     9
177
     2
291
     0
 71
     3
176
     1
 72
     2
176
     1
 73
     0
176
     1
 90
        0
176
     1
 40
-0.6
176
     1
 41
-30.0
176
     1
 62
     5
 63
     7
421
 16777215
176
     1
 74
     2
176
     1
 91
        2
176
     1
 64
     7
176
     1
 65
   257
176
     1
 75
     1
176
     1
175
     1
176
     1
 42
40.0
176
     1
 92
        8
176
     1
 66
     7
176
     1
 43
1.0
176
     1
 76
     1
176
     1
 77
     6
176
     1
 78
     2
176
     1
 67
     7
176
     1
 79
     3
176
     1
170
     0
176
     1
171
     0
176
     1
290
     0
176
     1
 93
        1
176
     1
 44
0.0
176
     1
173
     0
176
     1
  0
VISUALSTYLE
  5
35
102
{ACAD_REACTORS
330
2A
102
}
330
2A
100
AcDbVisualStyle
  2
Dim
 70
    11
177
     2
291
     1
 71
     2
176
     1
 72
     2
176
     1
 73
     0
176
     1
 90
        0
176
     1
 40
-0.6
176
     1
 41
-30.0
176
     1
 62
     5
 63
     7
421
 16777215
176
     1
 74
     1
176
     1
 91
        4
176
     1
 64
     7
176
     1
 65
   257
176
     1
 75
     1
176
     1
175
     1
176
     1
 42
1.0
176
     1
 92
        8
176
     1
 66
     7
176
     1
 43
1.0
176
     1
 76
     1
176
     1
 77
     6
176
     1
 78
     2
176
     1
 67
     7
176
     1
 79
     5
176
     1
170
     0
176
     1
171
     0
176
     1
290
     0
176
     1
 93
        1
176
     1
 44
-50.0
176
     1
173
     0
176
     1
  0
VISUALSTYLE
  5
39
102
{ACAD_REACTORS
330
2A
102
}
330
2A
100
AcDbVisualStyle
  2
Facepattern
 70
    15
177
     2
291
     1
 71
     2
176
     1
 72
     2
176
     1
 73
     0
176
     1
 90
        0
176
     1
 40
-0.6
176
     1
 41
-30.0
176
     1
 62
     5
 63
     7
421
 16777215
176
     1
 74
     1
176
     1
 91
        4
176
     1
 64
     7
176
     1
 65
   257
176
     1
 75
     1
176
     1
175
     1
176
     1
 42
1.0
176
     1
 92
        8
176
     1
 66
     7
176
     1
 43
1.0
176
     1
 76
     1
176
     1
 77
     6
176
     1
 78
     2
176
     1
 67
     7
176
     1
 79
     5
176
     1
170
     0
176
     1
171
     0
176
     1
290
     0
176
     1
 93
        1
176
     1
 44
0.0
176
     1
173
     0
176
     1
  0
VISUALSTYLE
  5
2B
102
{ACAD_REACTORS
330
2A
102
}
330
2A
100
AcDbVisualStyle
  2
Flat
 70
     0
177
     2
291
     1
 71
     2
176
     1
 72
     1
176
     1
 73
     1
176
     1
 90
        2
176
     1
 40
-0.6
176
     1
 41
30.0
176
     1
 62
     5
 63
     7
421
 16777215
176
     1
 74
     0
176
     1
 91
        4
176
     1
 64
     7
176
     1
 65
   257
176
     1
 75
     1
176
     1
175
     1
176
     1
 42
1.0
176
     1
 92
        8
176
     1
 66
     7
176
     1
 43
1.0
176
     1
 76
     1
176
     1
 77
     6
176
     1
 78
     2
176
     1
 67
     7
176
     1
 79
     5
176
     1
170
     0
176
     1
171
     0
176
     1
290
     0
176
     1
 93
       13
176
     1
 44
0.0
176
     1
173
     0
176
     1
  0
VISUALSTYLE
  5
2C
102
{ACAD_REACTORS
330
2A
102
}
330
2A
100
AcDbVisualStyle
  2
FlatWithEdges
 70
     1
177
     2
291
     1
 71
     2
176
     1
 72
     1
176
     1
 73
     1
176
     1
 90
        2
176
     1
 40
-0.6
176
     1
 41
30.0
176
     1
 62
     5
 63
     7
421
 16777215
176
     1
 74
     1
176
     1
 91
        4
176
     1
 64
     7
176
     1
 65
   257
176
     1
 75
     1
176
     1
175
     1
176
     1
 42
1.0
176
     1
 92
        0
176
     1
 66
   257
176
     1
 43
1.0
176
     1
 76
     1
176
     1
 77
     6
176
     1
 78
     2
176
     1
 67
     7
176
     1
 79
     5
176
     1
170
     0
176
     1
171
     0
176
     1
290
     0
176
     1
 93
       13
176
     1
 44
0.0
176
     1
173
     0
176
     1
  0
VISUALSTYLE
  5
2D
102
{ACAD_REACTORS
330
2A
102
}
330
2A
100
AcDbVisualStyle
  2
Gouraud
 70
     2
177
     2
291
     1
 71
     2
176
     1
 72
     2
176
     1
 73
     1
176
     1
 90
        2
176
     1
 40
-0.6
176
     1
 41
30.0
176
     1
 62
     5
 63
     7
421
 16777215
176
     1
 74
     0
176
     1
 91
        4
176
     1
 64
     7
176
     1
 65
   257
176
     1
 75
     1
176
     1
175
     1
176
     1
 42
1.0
176
     1
 92
        0
176
     1
 66
     7
176
     1
 43
1.0
176
     1
 76
     1
176
     1
 77
     6
176
     1
 78
     2
176
     1
 67
     7
176
     1
 79
     5
176
     1
170
     0
176
     1
171
     0
176
     1
290
     0
176
     1
 93
       13
176
     1
 44
0.0
176
     1
173
     0
176
     1
  0
VISUALSTYLE
  5
2E
102
{ACAD_REACTORS
330
2A
102
}
330
2A
100
AcDbVisualStyle
  2
GouraudWithEdges
 70
     3
177
     2
291
     1
 71
     2
176
     1
 72
     2
176
     1
 73
     1
176
     1
 90
        2
176
     1
 40
-0.6
176
     1
 41
30.0
176
     1
 62
     5
 63
     7
421
 16777215
176
     1
 74
     1
176
     1
 91
        4
176
     1
 64
     7
176
     1
 65
   257
176
     1
 75
     1
176
     1
175
     1
176
     1
 42
1.0
176
     1
 92
        0
176
     1
 66
   257
176
     1
 43
1.0
176
     1
 76
     1
176
     1
 77
     6
176
     1
 78
     2
176
     1
 67
     7
176
     1
 79
     5
176
     1
170
     0
176
     1
171
     0
176
     1
290
     0
176
     1
 93
       13
176
     1
 44
0.0
176
     1
173
     0
176
     1
  0
VISUALSTYLE
  5
38
102
{ACAD_REACTORS
330
2A
102
}
330
2A
100
AcDbVisualStyle
  2
Linepattern
 70
    14
177
     2
291
     1
 71
     2
176
     1
 72
     2
176
     1
 73
     0
176
     1
 90
        0
176
     1
 40
-0.6
176
     1
 41
-30.0
176
     1
 62
     5
 63
     7
421
 16777215
176
     1
 74
     1
176
     1
 91
        4
176
     1
 64
     7
176
     1
 65
   257
176
     1
 75
     7
176
     1
175
     7
176
     1
 42
1.0
176
     1
 92
        8
176
     1
 66
     7
176
     1
 43
1.0
176
     1
 76
     1
176
     1
 77
     6
176
     1
 78
     2
176
     1
 67
     7
176
     1
 79
     5
176
     1
170
     0
176
     1
171
     0
176
     1
290
     0
176
     1
 93
        1
176
     1
 44
0.0
176
     1
173
     0
176
     1
  0
VISUALSTYLE
  5
33
102
{ACAD_REACTORS
330
2A
102
}
330
2A
100
AcDbVisualStyle
  2
Realistic
 70
     8
177
     2
291
     0
 71
     2
176
     1
 72
     2
176
     1
 73
     0
176
     1
 90
        0
176
     1
 40
-0.6
176
     1
 41
-30.0
176
     1
 62
     5
 63
     7
421
 16777215
176
     1
 74
     1
176
     1
 91
        0
176
     1
 64
     7
176
     1
 65
   257
176
     1
 75
     1
176
     1
175
     1
176
     1
 42
1.0
176
     1
 92
        8
176
     1
 66
     8
424
  7895160
176
     1
 43
1.0
176
     1
 76
     1
176
     1
 77
     6
176
     1
 78
     2
176
     1
 67
     7
176
     1
 79
     5
176
     1
170
     0
176
     1
171
     0
176
     1
290
     0
176
     1
 93
       13
176
     1
 44
0.0
176
     1
173
     0
176
     1
  0
VISUALSTYLE
  5
37
102
{ACAD_REACTORS
330
2A
102
}
330
2A
100
AcDbVisualStyle
  2
Thicken
 70
    13
177
     2
291
     1
 71
     2
176
     1
 72
     2
176
     1
 73
     0
176
     1
 90
        0
176
     1
 40
-0.6
176
     1
 41
-30.0
176
     1
 62
     5
 63
     7
421
 16777215
176
     1
 74
     1
176
     1
 91
        4
176
     1
 64
     7
176
     1
 65
   257
176
     1
 75
     1
176
     1
175
     1
176
     1
 42
1.0
176
     1
 92
       12
176
     1
 66
     7
176
     1
 43
1.0
176
     1
 76
     1
176
     1
 77
     6
176
     1
 78
     2
176
     1
 67
     7
176
     1
 79
     5
176
     1
170
     0
176
     1
171
     0
176
     1
290
     0
176
     1
 93
        1
176
     1
 44
0.0
176
     1
173
     0
176
     1
  0
ENDSEC
  0
EOF
