  0
SECTION
  2
HEADER
  9
$ACADVER
  1
AC1024
  9
$ACADMAINTVER
 70
     6
  9
$DWGCODEPAGE
  3
ANSI_932
  9
$INSBASE
 10
0.0
 20
0.0
 30
0.0
  9
$EXTMIN
 10
-6300.0
 20
-4455.0
 30
0.0
  9
$EXTMAX
 10
6300.0
 20
4455.0
 30
0.0
  9
$LIMMIN
 10
-6300.0
 20
-4455.0
  9
$LIMMAX
 10
6300.0
 20
4455.0
  9
$ORTHOMODE
 70
     0
  9
$REGENMODE
 70
     1
  9
$FILLMODE
 70
     1
  9
$QTEXTMODE
 70
     0
  9
$MIRRTEXT
 70
     1
  9
$LTSCALE
 40
30.0
  9
$ATTMODE
 70
     1
  9
$TEXTSIZE
 40
2.5
  9
$TRACEWID
 40
1.0
  9
$TEXTSTYLE
  7
Standard
  9
$CLAYER
  8
0
  9
$CELTYPE
  6
ByLayer
  9
$CECOLOR
 62
   256
  9
$CELTSCALE
 40
1.0
  9
$DISPSILH
 70
     0
  9
$DIMSCALE
 40
1.0
  9
$DIMASZ
 40
2.5
  9
$DIMEXO
 40
0.625
  9
$DIMDLI
 40
3.75
  9
$DIMRND
 40
0.0
  9
$DIMDLE
 40
0.0
  9
$DIMEXE
 40
1.25
  9
$DIMTP
 40
0.0
  9
$DIMTM
 40
0.0
  9
$DIMTXT
 40
2.5
  9
$DIMCEN
 40
2.5
  9
$DIMTSZ
 40
0.0
  9
$DIMTOL
 70
     0
  9
$DIMLIM
 70
     0
  9
$DIMTIH
 70
     0
  9
$DIMTOH
 70
     0
  9
$DIMSE1
 70
     0
  9
$DIMSE2
 70
     0
  9
$DIMTAD
 70
     1
  9
$DIMZIN
 70
     8
  9
$DIMBLK
  1

  9
$DIMASO
 70
     1
  9
$DIMSHO
 70
     1
  9
$DIMPOST
  1

  9
$DIMAPOST
  1

  9
$DIMALT
 70
     0
  9
$DIMALTD
 70
     3
  9
$DIMALTF
 40
0.03937007874016
  9
$DIMLFAC
 40
1.0
  9
$DIMTOFL
 70
     1
  9
$DIMTVP
 40
0.0
  9
$DIMTIX
 70
     0
  9
$DIMSOXD
 70
     0
  9
$DIMSAH
 70
     0
  9
$DIMBLK1
  1

  9
$DIMBLK2
  1

  9
$DIMSTYLE
  2
ISO-25
  9
$DIMCLRD
 70
     0
  9
$DIMCLRE
 70
     0
  9
$DIMCLRT
 70
     0
  9
$DIMTFAC
 40
1.0
  9
$DIMGAP
 40
0.625
  9
$DIMJUST
 70
     0
  9
$DIMSD1
 70
     0
  9
$DIMSD2
 70
     0
  9
$DIMTOLJ
 70
     0
  9
$DIMTZIN
 70
     8
  9
$DIMALTZ
 70
     0
  9
$DIMALTTZ
 70
     0
  9
$DIMUPT
 70
     0
  9
$DIMDEC
 70
     2
  9
$DIMTDEC
 70
     2
  9
$DIMALTU
 70
     2
  9
$DIMALTTD
 70
     3
  9
$DIMTXSTY
  7
Standard
  9
$DIMAUNIT
 70
     0
  9
$DIMADEC
 70
     0
  9
$DIMALTRND
 40
0.0
  9
$DIMAZIN
 70
     0
  9
$DIMDSEP
 70
    44
  9
$DIMATFIT
 70
     3
  9
$DIMFRAC
 70
     0
  9
$DIMLDRBLK
  1

  9
$DIMLUNIT
 70
     2
  9
$DIMLWD
 70
    -2
  9
$DIMLWE
 70
    -2
  9
$DIMTMOVE
 70
     0
  9
$DIMFXL
 40
1.0
  9
$DIMFXLON
 70
     0
  9
$DIMJOGANG
 40
0.7853981633974483
  9
$DIMTFILL
 70
     0
  9
$DIMTFILLCLR
 70
     0
  9
$DIMARCSYM
 70
     0
  9
$DIMLTYPE
  6

  9
$DIMLTEX1
  6

  9
$DIMLTEX2
  6

  9
$DIMTXTDIRECTION
 70
     0
  9
$LUNITS
 70
     2
  9
$LUPREC
 70
     4
  9
$SKETCHINC
 40
1.0
  9
$FILLETRAD
 40
10.0
  9
$AUNITS
 70
     0
  9
$AUPREC
 70
     0
  9
$MENU
  1
.
  9
$ELEVATION
 40
0.0
  9
$PELEVATION
 40
0.0
  9
$THICKNESS
 40
0.0
  9
$LIMCHECK
 70
     0
  9
$CHAMFERA
 40
10.0
  9
$CHAMFERB
 40
10.0
  9
$CHAMFERC
 40
20.0
  9
$CHAMFERD
 40
0.0
  9
$SKPOLY
 70
     0
  9
$TDCREATE
 40
2459380.625714607
  9
$TDUCREATE
 40
2459380.250714607
  9
$TDUPDATE
 40
2459380.625714618
  9
$TDUUPDATE
 40
2459380.250714618
  9
$TDINDWG
 40
0.0000000116
  9
$TDUSRTIMER
 40
0.0000000116
  9
$USRTIMER
 70
     1
  9
$ANGBASE
 50
0.0
  9
$ANGDIR
 70
     0
  9
$PDMODE
 70
     0
  9
$PDSIZE
 40
0.0
  9
$PLINEWID
 40
0.0
  9
$SPLFRAME
 70
     0
  9
$SPLINETYPE
 70
     6
  9
$SPLINESEGS
 70
     8
  9
$HANDSEED
  5
3CC
  9
$SURFTAB1
 70
     6
  9
$SURFTAB2
 70
     6
  9
$SURFTYPE
 70
     6
  9
$SURFU
 70
     6
  9
$SURFV
 70
     6
  9
$UCSBASE
  2

  9
$UCSNAME
  2

  9
$UCSORG
 10
0.0
 20
0.0
 30
0.0
  9
$UCSXDIR
 10
1.0
 20
0.0
 30
0.0
  9
$UCSYDIR
 10
0.0
 20
1.0
 30
0.0
  9
$UCSORTHOREF
  2

  9
$UCSORTHOVIEW
 70
     0
  9
$UCSORGTOP
 10
0.0
 20
0.0
 30
0.0
  9
$UCSORGBOTTOM
 10
0.0
 20
0.0
 30
0.0
  9
$UCSORGLEFT
 10
0.0
 20
0.0
 30
0.0
  9
$UCSORGRIGHT
 10
0.0
 20
0.0
 30
0.0
  9
$UCSORGFRONT
 10
0.0
 20
0.0
 30
0.0
  9
$UCSORGBACK
 10
0.0
 20
0.0
 30
0.0
  9
$PUCSBASE
  2

  9
$PUCSNAME
  2

  9
$PUCSORG
 10
0.0
 20
0.0
 30
0.0
  9
$PUCSXDIR
 10
1.0
 20
0.0
 30
0.0
  9
$PUCSYDIR
 10
0.0
 20
1.0
 30
0.0
  9
$PUCSORTHOREF
  2

  9
$PUCSORTHOVIEW
 70
     0
  9
$PUCSORGTOP
 10
0.0
 20
0.0
 30
0.0
  9
$PUCSORGBOTTOM
 10
0.0
 20
0.0
 30
0.0
  9
$PUCSORGLEFT
 10
0.0
 20
0.0
 30
0.0
  9
$PUCSORGRIGHT
 10
0.0
 20
0.0
 30
0.0
  9
$PUCSORGFRONT
 10
0.0
 20
0.0
 30
0.0
  9
$PUCSORGBACK
 10
0.0
 20
0.0
 30
0.0
  9
$USERI1
 70
     0
  9
$USERI2
 70
     0
  9
$USERI3
 70
     0
  9
$USERI4
 70
     0
  9
$USERI5
 70
     0
  9
$USERR1
 40
0.0
  9
$USERR2
 40
0.0
  9
$USERR3
 40
0.0
  9
$USERR4
 40
0.0
  9
$USERR5
 40
0.0
  9
$WORLDVIEW
 70
     1
  9
$SHADEDGE
 70
     3
  9
$SHADEDIF
 70
    70
  9
$TILEMODE
 70
     1
  9
$MAXACTVP
 70
    64
  9
$PINSBASE
 10
0.0
 20
0.0
 30
0.0
  9
$PLIMCHECK
 70
     0
  9
$PEXTMIN
 10
1.000000000000000E+20
 20
1.000000000000000E+20
 30
1.000000000000000E+20
  9
$PEXTMAX
 10
-1.000000000000000E+20
 20
-1.000000000000000E+20
 30
-1.000000000000000E+20
  9
$PLIMMIN
 10
0.0
 20
0.0
  9
$PLIMMAX
 10
420.0
 20
297.0
  9
$UNITMODE
 70
     0
  9
$VISRETAIN
 70
     1
  9
$PLINEGEN
 70
     0
  9
$PSLTSCALE
 70
     1
  9
$TREEDEPTH
 70
  3020
  9
$CMLSTYLE
  2
Standard
  9
$CMLJUST
 70
     0
  9
$CMLSCALE
 40
20.0
  9
$PROXYGRAPHICS
 70
     1
  9
$MEASUREMENT
 70
     1
  9
$CELWEIGHT
370
    -1
  9
$ENDCAPS
280
     0
  9
$JOINSTYLE
280
     0
  9
$LWDISPLAY
290
     0
  9
$INSUNITS
 70
     4
  9
$HYPERLINKBASE
  1

  9
$STYLESHEET
  1

  9
$XEDIT
290
     1
  9
$CEPSNTYPE
380
     0
  9
$PSTYLEMODE
290
     1
  9
$FINGERPRINTGUID
  2
{ECF14EE9-48E5-457C-A68F-F5067A4F733A}
  9
$VERSIONGUID
  2
{FAEB1C32-E019-11D5-929B-00C0DF256EC4}
  9
$EXTNAMES
290
     1
  9
$PSVPSCALE
 40
0.0
  9
$OLESTARTUP
290
     0
  9
$SORTENTS
280
   127
  9
$INDEXCTL
280
     0
  9
$HIDETEXT
280
     1
  9
$XCLIPFRAME
280
     2
  9
$HALOGAP
280
     0
  9
$OBSCOLOR
 70
   257
  9
$OBSLTYPE
280
     0
  9
$INTERSECTIONDISPLAY
280
     0
  9
$INTERSECTIONCOLOR
 70
   257
  9
$DIMASSOC
280
     2
  9
$PROJECTNAME
  1

  9
$CAMERADISPLAY
290
     0
  9
$LENSLENGTH
 40
50.0
  9
$CAMERAHEIGHT
 40
0.0
  9
$STEPSPERSEC
 40
2.0
  9
$STEPSIZE
 40
6.0
  9
$3DDWFPREC
 40
2.0
  9
$PSOLWIDTH
 40
5.0
  9
$PSOLHEIGHT
 40
80.0
  9
$LOFTANG1
 40
1.570796326794897
  9
$LOFTANG2
 40
1.570796326794897
  9
$LOFTMAG1
 40
0.0
  9
$LOFTMAG2
 40
0.0
  9
$LOFTPARAM
 70
     7
  9
$LOFTNORMALS
280
     1
  9
$LATITUDE
 40
37.795
  9
$LONGITUDE
 40
-122.394
  9
$NORTHDIRECTION
 40
0.0
  9
$TIMEZONE
 70
 -8000
  9
$LIGHTGLYPHDISPLAY
280
     1
  9
$TILEMODELIGHTSYNCH
280
     1
  9
$SOLIDHIST
280
     1
  9
$SHOWHIST
280
     1
  9
$DWFFRAME
280
     2
  9
$DGNFRAME
280
     2
  9
$REALWORLDSCALE
290
     1
  9
$INTERFERECOLOR
 62
   256
  9
$CSHADOW
280
     0
  9
$SHADOWPLANELOCATION
 40
0.0
  0
ENDSEC
  0
SECTION
  2
CLASSES
  0
CLASS
  1
ACDBDICTIONARYWDFLT
  2
AcDbDictionaryWithDefault
  3
ObjectDBX Classes
 90
        0
 91
        4
280
     0
281
     0
  0
CLASS
  1
VISUALSTYLE
  2
AcDbVisualStyle
  3
ObjectDBX Classes
 90
     4095
 91
        4
280
     0
281
     0
  0
CLASS
  1
MATERIAL
  2
AcDbMaterial
  3
ObjectDBX Classes
 90
     1153
 91
        4
280
     0
281
     0
  0
ENDSEC
  0
SECTION
  2
TABLES
  0
TABLE
  2
VPORT
  5
8
330
0
100
AcDbSymbolTable
 70
     1
  0
VPORT
  5
29
330
8
100
AcDbSymbolTableRecord
100
AcDbViewportTableRecord
  2
*Active
 70
     0
 10
0.0
 20
0.0
 11
1.0
 21
1.0
 12
0.0
 22
0.0
 13
0.0
 23
0.0
 14
10.0
 24
10.0
 15
10.0
 25
10.0
 16
0.0
 26
0.0
 36
1.0
 17
0.0
 27
0.0
 37
0.0
 40
9801.0
 41
1.414141414141414
 42
50.0
 43
0.0
 44
0.0
 50
0.0
 51
0.0
 71
     0
 72
 10000
 73
     1
 74
     3
 75
     0
 76
     0
 77
     0
 78
     0
281
     0
 65
     1
110
0.0
120
0.0
130
0.0
111
1.0
121
0.0
131
0.0
112
0.0
122
1.0
132
0.0
 79
     0
146
0.0
 60
     3
 61
     5
292
     1
282
     1
141
0.0
142
0.0
 63
   250
  0
ENDTAB
  0
TABLE
  2
LTYPE
  5
5
330
0
100
AcDbSymbolTable
 70
     4
  0
LTYPE
  5
14
330
5
100
AcDbSymbolTableRecord
100
AcDbLinetypeTableRecord
  2
ByBlock
 70
     0
  3

 72
    65
 73
     0
 40
0.0
  0
LTYPE
  5
15
330
5
100
AcDbSymbolTableRecord
100
AcDbLinetypeTableRecord
  2
ByLayer
 70
     0
  3

 72
    65
 73
     0
 40
0.0
  0
LTYPE
  5
16
330
5
100
AcDbSymbolTableRecord
100
AcDbLinetypeTableRecord
  2
Continuous
 70
     0
  3
Solid line
 72
    65
 73
     0
 40
0.0
  0
LTYPE
  5
3F
330
5
100
AcDbSymbolTableRecord
100
AcDbLinetypeTableRecord
  2
JWW_HOJO
 70
     0
  3
  -   -   -   -   -   -   -   - 
 72
    65
 73
     2
 40
1.693333333333333
 49
-1.27
 74
     0
 49
0.4233333333333333
 74
     0
  0
LTYPE
  5
40
330
5
100
AcDbSymbolTableRecord
100
AcDbLinetypeTableRecord
  2
JWW_DASHED1
 70
     0
  3
-  --  --  --  --  --  --  --  -
 72
    65
 73
     2
 40
1.693333333333333
 49
0.8466666666666667
 74
     0
 49
-0.8466666666666667
 74
     0
  0
LTYPE
  5
41
330
5
100
AcDbSymbolTableRecord
100
AcDbLinetypeTableRecord
  2
JWW_CENTER1
 70
     0
  3
-----  --  ----------  --  -----
 72
    65
 73
     4
 40
6.773333333333333
 49
4.233333333333333
 74
     0
 49
-0.8466666666666667
 74
     0
 49
0.8466666666666667
 74
     0
 49
-0.8466666666666667
 74
     0
  0
ENDTAB
  0
TABLE
  2
LAYER
  5
2
330
0
100
AcDbSymbolTable
 70
    13
  0
LAYER
  5
10
330
2
100
AcDbSymbolTableRecord
100
AcDbLayerTableRecord
  2
0
 70
     0
 62
     7
  6
Continuous
370
    -3
390
F
347
3E
  0
LAYER
  5
42
330
2
100
AcDbSymbolTableRecord
100
AcDbLayerTableRecord
  2
0-A_文字
 70
     0
 62
     7
  6
Continuous
370
    -3
390
F
347
3E
  0
LAYER
  5
43
330
2
100
AcDbSymbolTableRecord
100
AcDbLayerTableRecord
  2
F-0_補助線
 70
     0
 62
     7
  6
Continuous
370
    -3
390
F
347
3E
  0
LAYER
  5
44
330
2
100
AcDbSymbolTableRecord
100
AcDbLayerTableRecord
  2
F-1_枠
 70
     0
 62
     7
  6
Continuous
370
    -3
390
F
347
3E
  0
LAYER
  5
45
330
2
100
AcDbSymbolTableRecord
100
AcDbLayerTableRecord
  2
F-A_文字
 70
     0
 62
     7
  6
Continuous
370
    -3
390
F
347
3E
  0
LAYER
  5
46
330
2
100
AcDbSymbolTableRecord
100
AcDbLayerTableRecord
  2
0-0_補助線
 70
     0
 62
     7
  6
Continuous
370
    -3
390
F
347
3E
  0
LAYER
  5
47
330
2
100
AcDbSymbolTableRecord
100
AcDbLayerTableRecord
  2
0-C_ハッチ
 70
     0
 62
     7
  6
Continuous
370
    -3
390
F
347
3E
  0
LAYER
  5
48
330
2
100
AcDbSymbolTableRecord
100
AcDbLayerTableRecord
  2
0-7_金物
 70
     0
 62
     7
  6
Continuous
370
    -3
390
F
347
3E
  0
LAYER
  5
49
330
2
100
AcDbSymbolTableRecord
100
AcDbLayerTableRecord
  2
0-4_枠
 70
     0
 62
     7
  6
Continuous
370
    -3
390
F
347
3E
  0
LAYER
  5
4A
330
2
100
AcDbSymbolTableRecord
100
AcDbLayerTableRecord
  2
0-B_寸法
 70
     0
 62
     7
  6
Continuous
370
    -3
390
F
347
3E
  0
LAYER
  5
4B
330
2
100
AcDbSymbolTableRecord
100
AcDbLayerTableRecord
  2
0-3_仕上げ
 70
     0
 62
     7
  6
Continuous
370
    -3
390
F
347
3E
  0
LAYER
  5
4C
330
2
100
AcDbSymbolTableRecord
100
AcDbLayerTableRecord
  2
0-6_扉
 70
     0
 62
     7
  6
Continuous
370
    -3
390
F
347
3E
  0
LAYER
  5
4D
330
2
100
AcDbSymbolTableRecord
100
AcDbLayerTableRecord
  2
0-1_通り芯
 70
     0
 62
     7
  6
Continuous
370
    -3
390
F
347
3E
  0
ENDTAB
  0
TABLE
  2
STYLE
  5
3
330
0
100
AcDbSymbolTable
 70
     1
  0
STYLE
  5
11
330
3
100
AcDbSymbolTableRecord
100
AcDbTextStyleTableRecord
  2
Standard
 70
     0
 40
0.0
 41
1.0
 50
0.0
 71
     0
 42
2.5
  3
txt
  4

  0
ENDTAB
  0
TABLE
  2
VIEW
  5
6
330
0
100
AcDbSymbolTable
 70
     0
  0
ENDTAB
  0
TABLE
  2
UCS
  5
7
330
0
100
AcDbSymbolTable
 70
     0
  0
ENDTAB
  0
TABLE
  2
APPID
  5
9
330
0
100
AcDbSymbolTable
 70
     1
  0
APPID
  5
12
330
9
100
AcDbSymbolTableRecord
100
AcDbRegAppTableRecord
  2
ACAD
 70
     0
  0
ENDTAB
  0
TABLE
  2
DIMSTYLE
  5
A
330
0
100
AcDbSymbolTable
 70
     1
100
AcDbDimStyleTable
  0
DIMSTYLE
105
27
330
A
100
AcDbSymbolTableRecord
100
AcDbDimStyleTableRecord
  2
ISO-25
 70
     0
 41
2.5
 42
0.625
 43
3.75
 44
1.25
 73
     0
 74
     0
 77
     1
 78
     8
140
2.5
141
2.5
143
0.03937007874016
147
0.625
171
     3
172
     1
178
     0
271
     2
272
     2
274
     3
278
    44
283
     0
284
     8
340
11
  0
ENDTAB
  0
TABLE
  2
BLOCK_RECORD
  5
1
330
0
100
AcDbSymbolTable
 70
     1
  0
BLOCK_RECORD
  5
1F
330
1
100
AcDbSymbolTableRecord
100
AcDbBlockTableRecord
  2
*Model_Space
340
22
 70
     0
280
     1
281
     0
  0
BLOCK_RECORD
  5
1B
330
1
100
AcDbSymbolTableRecord
100
AcDbBlockTableRecord
  2
*Paper_Space
340
1E
 70
     0
280
     1
281
     0
  0
BLOCK_RECORD
  5
23
330
1
100
AcDbSymbolTableRecord
100
AcDbBlockTableRecord
  2
*Paper_Space0
340
26
 70
     0
280
     1
281
     0
  0
ENDTAB
  0
ENDSEC
  0
SECTION
  2
BLOCKS
  0
BLOCK
  5
20
330
1F
100
AcDbEntity
  8
0
100
AcDbBlockBegin
  2
*Model_Space
 70
     0
 10
0.0
 20
0.0
 30
0.0
  3
*Model_Space
  1

  0
ENDBLK
  5
21
330
1F
100
AcDbEntity
  8
0
100
AcDbBlockEnd
  0
BLOCK
  5
1C
330
1B
100
AcDbEntity
 67
     1
  8
0
100
AcDbBlockBegin
  2
*Paper_Space
 70
     0
 10
0.0
 20
0.0
 30
0.0
  3
*Paper_Space
  1

  0
ENDBLK
  5
1D
330
1B
100
AcDbEntity
 67
     1
  8
0
100
AcDbBlockEnd
  0
BLOCK
  5
24
330
23
100
AcDbEntity
  8
0
100
AcDbBlockBegin
  2
*Paper_Space0
 70
     0
 10
0.0
 20
0.0
 30
0.0
  3
*Paper_Space0
  1

  0
ENDBLK
  5
25
330
23
100
AcDbEntity
  8
0
100
AcDbBlockEnd
  0
ENDSEC
  0
SECTION
  2
ENTITIES
  0
MTEXT
  5
4E
330
1F
100
AcDbEntity
  8
0-A_文字
  6
Continuous
 62
     7
370
     0
100
AcDbMText
 10
2253.012887271592
 20
953.3149450542629
 30
0.0
 40
79.62899999999982
 41
3134.999999999992
 46
0.0
 71
     7
 72
     1
  1
{\fＭＳ ゴシック|b0|i0|c128|p49;※Ｈ＝３尺、４尺の竪枠には躯体接合金具は装備されていません。}
 73
     1
 44
1.0
  0
MTEXT
  5
4F
330
1F
100
AcDbEntity
  8
0-A_文字
  6
Continuous
 62
     7
370
     0
100
AcDbMText
 10
2249.497354497354
 20
821.2113012505367
 30
0.0
 40
79.248
 41
1560.0
 46
0.0
 71
     7
 72
     1
  1
{\fＭＳ ゴシック|b0|i0|c128|p49;※扉厚（　）内はルーバーの場合}
 73
     1
 44
1.0
  0
LINE
  5
50
330
1F
100
AcDbEntity
  8
F-0_補助線
  6
JWW_HOJO
 62
   120
370
     5
100
AcDbLine
 10
-6140.081333436773
 20
-4455.0
 30
0.0
 11
-6140.081333436773
 21
4424.999604096284
 31
0.0
  0
LINE
  5
51
330
1F
100
AcDbEntity
  8
F-0_補助線
  6
JWW_HOJO
 62
   120
370
     5
100
AcDbLine
 10
-6140.081333436773
 20
4424.999604096284
 30
0.0
 11
6159.917676803936
 21
4424.999604096284
 31
0.0
  0
LINE
  5
52
330
1F
100
AcDbEntity
  8
F-0_補助線
  6
JWW_HOJO
 62
   120
370
     5
100
AcDbLine
 10
6159.917676803936
 20
4424.999604096284
 30
0.0
 11
6159.917676803936
 21
-4455.0
 31
0.0
  0
LINE
  5
53
330
1F
100
AcDbEntity
  8
F-0_補助線
  6
JWW_HOJO
 62
   120
370
     5
100
AcDbLine
 10
6159.917676803936
 20
-4455.0
 30
0.0
 11
-6140.081333436773
 21
-4455.0
 31
0.0
  0
LINE
  5
54
330
1F
100
AcDbEntity
  8
F-0_補助線
  6
JWW_HOJO
 62
     7
370
     9
100
AcDbLine
 10
509.9185840832865
 20
-3795.000003092998
 30
0.0
 11
509.9185840832865
 21
-4195.000008247994
 31
0.0
  0
LINE
  5
55
330
1F
100
AcDbEntity
  8
F-1_枠
  6
Continuous
 62
   200
370
    20
100
AcDbLine
 10
5859.917429364114
 20
4174.999769056166
 30
0.0
 11
5859.917429364114
 21
-4205.000164959882
 31
0.0
  0
LINE
  5
56
330
1F
100
AcDbEntity
  8
F-1_枠
  6
Continuous
 62
   200
370
    20
100
AcDbLine
 10
-5840.081317971782
 20
4174.999769056166
 30
0.0
 11
-5840.081317971782
 21
-4205.000164959882
 31
0.0
  0
LINE
  5
57
330
1F
100
AcDbEntity
  8
F-1_枠
  6
Continuous
 62
   200
370
    20
100
AcDbLine
 10
5859.917429364114
 20
-4205.000002577498
 30
0.0
 11
-5840.081085996952
 21
-4205.000002577498
 31
0.0
  0
LINE
  5
58
330
1F
100
AcDbEntity
  8
F-1_枠
  6
Continuous
 62
   200
370
    20
100
AcDbLine
 10
-5835.081309208291
 20
4174.999769056166
 30
0.0
 11
-5835.081309208291
 21
-4205.000164959882
 31
0.0
  0
LINE
  5
59
330
1F
100
AcDbEntity
  8
F-1_枠
  6
Continuous
 62
   200
370
    20
100
AcDbLine
 10
5854.917165428304
 20
4174.999769056166
 30
0.0
 11
5854.917165428304
 21
-4205.000164959882
 31
0.0
  0
LINE
  5
5A
330
1F
100
AcDbEntity
  8
F-1_枠
  6
Continuous
 62
   200
370
    20
100
AcDbLine
 10
5849.917643811961
 20
4174.999769056166
 30
0.0
 11
5849.917643811961
 21
-4205.000164959882
 31
0.0
  0
LINE
  5
5B
330
1F
100
AcDbEntity
  8
F-1_枠
  6
Continuous
 62
   200
370
    20
100
AcDbLine
 10
5859.917429364114
 20
-4199.999993814004
 30
0.0
 11
-5840.081085996952
 21
-4199.999993814004
 31
0.0
  0
LINE
  5
5C
330
1F
100
AcDbEntity
  8
F-1_枠
  6
Continuous
 62
   200
370
    20
100
AcDbLine
 10
5859.917429364114
 20
-4195.000008247994
 30
0.0
 11
-5840.081085996952
 21
-4195.000008247994
 31
0.0
  0
LINE
  5
5D
330
1F
100
AcDbEntity
  8
F-1_枠
  6
Continuous
 62
   200
370
    20
100
AcDbLine
 10
4349.917891251784
 20
-3795.000003092998
 30
0.0
 11
4349.917891251784
 21
-4195.000008247994
 31
0.0
  0
LINE
  5
5E
330
1F
100
AcDbEntity
  8
F-1_枠
  6
Continuous
 62
   200
370
    20
100
AcDbLine
 10
2849.917396372139
 20
-3795.000003092998
 30
0.0
 11
2849.917396372139
 21
-4195.000008247994
 31
0.0
  0
LINE
  5
5F
330
1F
100
AcDbEntity
  8
F-1_枠
  6
Continuous
 62
   200
370
    20
100
AcDbLine
 10
9.918542843316231
 20
-3795.000003092998
 30
0.0
 11
9.918542843316231
 21
-4195.000008247994
 31
0.0
  0
LINE
  5
60
330
1F
100
AcDbEntity
  8
F-1_枠
  6
Continuous
 62
   200
370
    20
100
AcDbLine
 10
9.918542843316231
 20
-3994.999936078046
 30
0.0
 11
5849.917643811961
 21
-3995.005364289155
 31
0.0
  0
LINE
  5
61
330
1F
100
AcDbEntity
  8
F-1_枠
  6
Continuous
 62
   200
370
    20
100
AcDbLine
 10
-5840.081085996952
 20
4174.999769056166
 30
0.0
 11
5859.917429364114
 21
4174.999769056166
 31
0.0
  0
LINE
  5
62
330
1F
100
AcDbEntity
  8
F-1_枠
  6
Continuous
 62
   200
370
    20
100
AcDbLine
 10
-5840.081085996952
 20
4164.999983504013
 30
0.0
 11
5859.917429364114
 21
4164.999983504013
 31
0.0
  0
LINE
  5
63
330
1F
100
AcDbEntity
  8
F-1_枠
  6
Continuous
 62
   200
370
    20
100
AcDbLine
 10
-5840.081085996952
 20
4169.999505120355
 30
0.0
 11
5859.917429364114
 21
4169.999505120355
 31
0.0
  0
LINE
  5
64
330
1F
100
AcDbEntity
  8
F-0_補助線
  6
JWW_HOJO
 62
     7
370
     9
100
AcDbLine
 10
-5830.081323642279
 20
-3994.99993607839
 30
0.0
 11
9.918542843316231
 21
-3994.99993607839
 31
0.0
  0
LINE
  5
65
330
1F
100
AcDbEntity
  8
F-0_補助線
  6
JWW_HOJO
 62
     7
370
     9
100
AcDbLine
 10
-5830.081323642279
 20
-3904.99993607839
 30
0.0
 11
9.918542843316231
 21
-3904.99993607839
 31
0.0
  0
LINE
  5
66
330
1F
100
AcDbEntity
  8
F-0_補助線
  6
JWW_HOJO
 62
     7
370
     9
100
AcDbLine
 10
-5830.081323642279
 20
-4084.99993607839
 30
0.0
 11
9.918542843316231
 21
-4084.99993607839
 31
0.0
  0
LINE
  5
67
330
1F
100
AcDbEntity
  8
F-0_補助線
  6
JWW_HOJO
 62
     7
370
     9
100
AcDbLine
 10
9.918408067688347
 20
-4139.999739777983
 30
0.0
 11
5849.917509036332
 21
-4140.005167989091
 31
0.0
  0
LINE
  5
68
330
1F
100
AcDbEntity
  8
F-0_補助線
  6
JWW_HOJO
 62
     7
370
     9
100
AcDbLine
 10
9.918491721639953
 20
-4049.999739778022
 30
0.0
 11
5849.917592690284
 21
-4050.005167989131
 31
0.0
  0
LINE
  5
69
330
1F
100
AcDbEntity
  8
F-0_補助線
  6
JWW_HOJO
 62
     7
370
     9
100
AcDbLine
 10
9.918593965360003
 20
-3939.99973721807
 30
0.0
 11
5849.917694934004
 21
-3940.005165429179
 31
0.0
  0
LINE
  5
6A
330
1F
100
AcDbEntity
  8
F-0_補助線
  6
JWW_HOJO
 62
     7
370
     9
100
AcDbLine
 10
9.918677619311609
 20
-3849.999737218109
 30
0.0
 11
5849.917778587956
 21
-3850.005165429218
 31
0.0
  0
LINE
  5
6B
330
1F
100
AcDbEntity
  8
F-0_補助線
  6
JWW_HOJO
 62
     7
370
     9
100
AcDbLine
 10
2939.917396372139
 20
-3795.000003092998
 30
0.0
 11
2939.917396372139
 21
-4195.000008247994
 31
0.0
  0
LINE
  5
6C
330
1F
100
AcDbEntity
  8
F-0_補助線
  6
JWW_HOJO
 62
     7
370
     9
100
AcDbLine
 10
99.91854284331623
 20
-3795.000003092998
 30
0.0
 11
99.91854284331623
 21
-4195.000008247994
 31
0.0
  0
LINE
  5
6D
330
1F
100
AcDbEntity
  8
F-0_補助線
  6
JWW_HOJO
 62
     7
370
     9
100
AcDbLine
 10
4439.917891251784
 20
-3795.000003092998
 30
0.0
 11
4439.917891251784
 21
-4195.000008247994
 31
0.0
  0
MTEXT
  5
6E
330
1F
100
AcDbEntity
  8
F-A_文字
  6
Continuous
 62
     7
370
     0
100
AcDbMText
 10
99.91854284331623
 20
-3887.139820871936
 30
0.0
 40
45.72
 41
180.0
 46
0.0
 71
     7
 72
     1
  1
{\fＭＳ ゴシック|b0|i0|c128|p49;図面名}
 73
     1
 44
1.0
  0
MTEXT
  5
6F
330
1F
100
AcDbEntity
  8
F-A_文字
  6
Continuous
 62
     7
370
     0
100
AcDbMText
 10
2939.917396372139
 20
-3887.142460617774
 30
0.0
 40
45.72
 41
300.0
 46
0.0
 71
     7
 72
     1
  1
{\fＭＳ ゴシック|b0|i0|c128|p49;ＳＣＡＬＥ}
 73
     1
 44
1.0
  0
MTEXT
  5
70
330
1F
100
AcDbEntity
  8
F-A_文字
  6
Continuous
 62
     7
370
     0
100
AcDbMText
 10
4439.917891251784
 20
-3887.143854850754
 30
0.0
 40
45.72
 41
240.0
 46
0.0
 71
     7
 72
     1
  1
{\fＭＳ ゴシック|b0|i0|c128|p49;ＤＡＴＥ}
 73
     1
 44
1.0
  0
LINE
  5
71
330
1F
100
AcDbEntity
  8
F-1_枠
  6
Continuous
 62
   200
370
    20
100
AcDbLine
 10
5859.917429364114
 20
-3795.000003092998
 30
0.0
 11
-5840.081085996952
 21
-3795.000003092998
 31
0.0
  0
LINE
  5
72
330
1F
100
AcDbEntity
  8
F-1_枠
  6
Continuous
 62
   200
370
    20
100
AcDbLine
 10
5859.917429364114
 20
-3790.000017526987
 30
0.0
 11
-5840.081085996952
 21
-3790.000017526987
 31
0.0
  0
LINE
  5
73
330
1F
100
AcDbEntity
  8
F-0_補助線
  6
JWW_HOJO
 62
     7
370
     9
100
AcDbLine
 10
-5087.628710189611
 20
-3795.000003092999
 30
0.0
 11
-5087.628710189611
 21
-4205.000164959882
 31
0.0
  0
LINE
  5
74
330
1F
100
AcDbEntity
  8
F-0_補助線
  6
JWW_HOJO
 62
     7
370
     9
100
AcDbLine
 10
-50.08145715668377
 20
-3795.000003092998
 30
0.0
 11
-50.08145715668377
 21
-4195.000008247994
 31
0.0
  0
MTEXT
  5
75
330
1F
100
AcDbEntity
  8
F-A_文字
  6
Continuous
 62
     7
370
     0
100
AcDbMText
 10
2939.917396372139
 20
-4087.14246317786
 30
0.0
 40
45.72
 41
240.0
 46
0.0
 71
     7
 72
     1
  1
{\fＭＳ ゴシック|b0|i0|c128|p49;ＦＩＬＥ}
 73
     1
 44
1.0
  0
MTEXT
  5
76
330
1F
100
AcDbEntity
  8
F-A_文字
  6
Continuous
 62
     7
370
     0
100
AcDbMText
 10
4439.917891251784
 20
-4087.143857410839
 30
0.0
 40
45.72
 41
180.0
 46
0.0
 71
     7
 72
     1
  1
{\fＭＳ ゴシック|b0|i0|c128|p49;ＮＯ．}
 73
     1
 44
1.0
  0
MTEXT
  5
77
330
1F
100
AcDbEntity
  8
F-A_文字
  6
Continuous
 62
     7
370
     0
100
AcDbMText
 10
1394.917396372138
 20
-4096.140669266149
 30
0.0
 40
45.72
 41
120.0
 46
0.0
 71
     7
 72
     1
  1
{\fＭＳ ゴシック|b0|i0|c128|p49;株式}
 73
     1
 44
1.0
  0
MTEXT
  5
78
330
1F
100
AcDbEntity
  8
F-A_文字
  6
Continuous
 62
     7
370
     0
100
AcDbMText
 10
1604.917396372138
 20
-4164.281754523929
 30
0.0
 40
101.44125
 41
1065.0
 46
0.0
 71
     7
 72
     1
  1
{\fＭＳ ゴシック|b0|i0|c128|p49;ウッドワン・・・}
 73
     1
 44
1.0
  0
MTEXT
  5
79
330
1F
100
AcDbEntity
  8
F-A_文字
  6
Continuous
 62
     7
370
     0
100
AcDbMText
 10
1394.917396372138
 20
-4168.140669266187
 30
0.0
 40
45.72
 41
120.0
 46
0.0
 71
     7
 72
     1
  1
{\fＭＳ ゴシック|b0|i0|c128|p49;会社}
 73
     1
 44
1.0
  0
MTEXT
  5
7A
330
1F
100
AcDbEntity
  8
F-A_文字
  6
Continuous
 62
     7
370
     0
100
AcDbMText
 10
5768.321977672939
 20
-4314.841419020919
 30
0.0
 40
68.58
 41
90.0
 46
0.0
 71
     7
 72
     1
  1
{\fＭＳ ゴシック|b0|i0|c128|p49;）}
 73
     1
 44
1.0
  0
MTEXT
  5
7B
330
1F
100
AcDbEntity
  8
F-A_文字
  6
Continuous
 62
     7
370
     0
100
AcDbMText
 10
5350.114617405298
 20
-4316.235443869856
 30
0.0
 40
68.58
 41
45.0
 46
0.0
 71
     7
 72
     1
  1
{\fＭＳ ゴシック|b0|i0|c128|p49;,}
 73
     1
 44
1.0
  0
MTEXT
  5
7C
330
1F
100
AcDbEntity
  8
F-A_文字
  6
Continuous
 62
     7
370
     0
100
AcDbMText
 10
5083.855928478601
 20
-4314.771967288282
 30
0.0
 40
74.295
 41
97.5
 46
0.0
 71
     7
 72
     1
  1
{\fＭＳ ゴシック|b0|i0|c128|p49;$y}
 73
     1
 44
1.0
  0
MTEXT
  5
7D
330
1F
100
AcDbEntity
  8
F-A_文字
  6
Continuous
 62
     7
370
     0
100
AcDbMText
 10
5238.592649517422
 20
-4314.771967288282
 30
0.0
 40
74.295
 41
97.5
 46
0.0
 71
     7
 72
     1
  1
{\fＭＳ ゴシック|b0|i0|c128|p49;$m}
 73
     1
 44
1.0
  0
MTEXT
  5
7E
330
1F
100
AcDbEntity
  8
F-A_文字
  6
Continuous
 62
     7
370
     0
100
AcDbMText
 10
5393.32938200033
 20
-4314.771967288282
 30
0.0
 40
74.295
 41
97.5
 46
0.0
 71
     7
 72
     1
  1
{\fＭＳ ゴシック|b0|i0|c128|p49;$d}
 73
     1
 44
1.0
  0
MTEXT
  5
7F
330
1F
100
AcDbEntity
  8
F-A_文字
  6
Continuous
 62
     7
370
     0
100
AcDbMText
 10
5548.066114483239
 20
-4314.771967288282
 30
0.0
 40
74.295
 41
195.0
 46
0.0
 71
     7
 72
     1
  1
{\fＭＳ ゴシック|b0|i0|c128|p49;印刷}
 73
     1
 44
1.0
  0
MTEXT
  5
80
330
1F
100
AcDbEntity
  8
F-A_文字
  6
Continuous
 62
     7
370
     0
100
AcDbMText
 10
4943.952040816226
 20
-4319.023493567732
 30
0.0
 40
68.58
 41
90.0
 46
0.0
 71
     7
 72
     1
  1
{\fＭＳ ゴシック|b0|i0|c128|p49;（}
 73
     1
 44
1.0
  0
MTEXT
  5
81
330
1F
100
AcDbEntity
  8
F-A_文字
  6
Continuous
 62
     7
370
     0
100
AcDbMText
 10
5191.195810375571
 20
-4319.023493567732
 30
0.0
 40
68.58
 41
45.0
 46
0.0
 71
     7
 72
     1
  1
{\fＭＳ ゴシック|b0|i0|c128|p49;,}
 73
     1
 44
1.0
  0
MTEXT
  5
82
330
1F
100
AcDbEntity
  8
F-A_文字
  6
Continuous
 62
     7
370
     9
100
AcDbMText
 10
5096.167700144058
 20
-4147.857012699985
 30
0.0
 40
74.295
 41
97.5
 46
0.0
 71
     7
 72
     1
  1
{\fＭＳ ゴシック|b0|i0|c128|p49;01}
 73
     1
 44
1.0
  0
LINE
  5
83
330
1F
100
AcDbEntity
  8
F-0_補助線
  6
JWW_HOJO
 62
     7
370
     9
100
AcDbLine
 10
3764.917643811961
 20
-3795.000003092998
 30
0.0
 11
3764.917643811961
 21
-4195.000008247994
 31
0.0
  0
MTEXT
  5
84
330
1F
100
AcDbEntity
  8
F-A_文字
  6
Continuous
 62
     7
370
     0
100
AcDbMText
 10
3689.917643811961
 20
-3946.903115907308
 30
0.0
 40
76.19999999999999
 41
150.0
 46
0.0
 71
     7
 72
     1
  1
{\fＭＳ ゴシック|b0|i0|c128|p49;1/5}
 73
     1
 44
1.0
  0
LINE
  5
85
330
1F
100
AcDbEntity
  8
0-0_補助線
  6
JWW_HOJO
 62
   120
370
     5
100
AcDbLine
 10
-6140.081333436773
 20
4000.000181455871
 30
0.0
 11
6159.917676803938
 21
4000.000181455871
 31
0.0
  0
LINE
  5
86
330
1F
100
AcDbEntity
  8
0-0_補助線
  6
JWW_HOJO
 62
   120
370
     5
100
AcDbLine
 10
-6140.081333436773
 20
3730.000181455871
 30
0.0
 11
6159.917676803938
 21
3730.000181455871
 31
0.0
  0
LINE
  5
87
330
1F
100
AcDbEntity
  8
0-0_補助線
  6
JWW_HOJO
 62
   120
370
     5
100
AcDbLine
 10
-6140.081333436773
 20
194.9998020481414
 30
0.0
 11
6159.917676803938
 21
194.9998020481414
 31
0.0
  0
LINE
  5
88
330
1F
100
AcDbEntity
  8
0-0_補助線
  6
JWW_HOJO
 62
   120
370
     5
100
AcDbLine
 10
-6140.081333436773
 20
-3159.000197951857
 30
0.0
 11
6159.917676803938
 21
-3159.000197951857
 31
0.0
  0
LINE
  5
89
330
1F
100
AcDbEntity
  8
0-0_補助線
  6
JWW_HOJO
 62
   120
370
     5
100
AcDbLine
 10
5679.835838693025
 20
4424.999604096284
 30
0.0
 11
5679.835838693025
 21
-4455.000000000002
 31
0.0
  0
LINE
  5
8A
330
1F
100
AcDbEntity
  8
0-0_補助線
  6
JWW_HOJO
 62
   120
370
     5
100
AcDbLine
 10
2844.877005188304
 20
-4455.000000000002
 30
0.0
 11
2844.877005188304
 21
4424.999604096284
 31
0.0
  0
LINE
  5
8B
330
1F
100
AcDbEntity
  8
0-0_補助線
  6
JWW_HOJO
 62
   120
370
     5
100
AcDbLine
 10
9.91817168358267
 20
-4455.000000000002
 30
0.0
 11
9.91817168358267
 21
4424.999604096284
 31
0.0
  0
LINE
  5
8C
330
1F
100
AcDbEntity
  8
0-0_補助線
  6
JWW_HOJO
 62
   120
370
     5
100
AcDbLine
 10
-2825.040661821139
 20
4424.999604096284
 30
0.0
 11
-2825.040661821139
 21
-4455.000000000002
 31
0.0
  0
LINE
  5
8D
330
1F
100
AcDbEntity
  8
0-0_補助線
  6
JWW_HOJO
 62
   120
370
     5
100
AcDbLine
 10
-5659.999495325861
 20
4424.999604096284
 30
0.0
 11
-5659.999495325861
 21
-4455.000000000002
 31
0.0
  0
LINE
  5
8E
330
1F
100
AcDbEntity
  8
0-0_補助線
  6
JWW_HOJO
 62
   120
370
     5
100
AcDbLine
 10
-6140.081333436773
 20
2438.999683277028
 30
0.0
 11
6159.917676803938
 21
2438.999683277028
 31
0.0
  0
LINE
  5
8F
330
1F
100
AcDbEntity
  8
0-0_補助線
  6
JWW_HOJO
 62
   120
370
     5
100
AcDbLine
 10
-5387.041255676696
 20
2946.000445391029
 30
0.0
 11
-5387.041255676696
 21
980.9992032437724
 31
0.0
  0
LINE
  5
90
330
1F
100
AcDbEntity
  8
0-C_ハッチ
  6
Continuous
 62
   120
370
     5
100
AcDbLine
 10
-715.9188561186807
 20
2123.999683277028
 30
0.0
 11
-623.0400679655756
 21
2216.878471430144
 31
0.0
  0
LINE
  5
91
330
1F
100
AcDbEntity
  8
0-C_ハッチ
  6
Continuous
 62
   120
370
     5
100
AcDbLine
 10
-656.52188649903
 20
2123.999683277028
 30
0.0
 11
-623.0400679655756
 21
2157.481501810485
 31
0.0
  0
LINE
  5
92
330
1F
100
AcDbEntity
  8
0-C_ハッチ
  6
Continuous
 62
   120
370
     5
100
AcDbLine
 10
-775.3158257383382
 20
2123.999683277028
 30
0.0
 11
-623.0400679655645
 21
2276.275441049802
 31
0.0
  0
LINE
  5
93
330
1F
100
AcDbEntity
  8
0-7_金物
  6
Continuous
 62
     7
370
     9
100
AcDbLine
 10
-5027.040513357255
 20
2531.999717609306
 30
0.0
 11
-5033.040582021796
 21
2531.999717609306
 31
0.0
  0
LINE
  5
94
330
1F
100
AcDbEntity
  8
0-7_金物
  6
Continuous
 62
     7
370
     9
100
AcDbLine
 10
-5033.040582021796
 20
2423.999648944755
 30
0.0
 11
-5027.040513357255
 21
2423.999648944755
 31
0.0
  0
LINE
  5
95
330
1F
100
AcDbEntity
  8
0-7_金物
  6
Continuous
 62
     7
370
     9
100
AcDbLine
 10
-5033.040582021796
 20
2417.999483005424
 30
0.0
 11
-5033.040582021796
 21
2537.99913968267
 31
0.0
  0
LINE
  5
96
330
1F
100
AcDbEntity
  8
0-7_金物
  6
Continuous
 62
     7
370
     9
100
AcDbLine
 10
-5045.040175756535
 20
2537.99913968267
 30
0.0
 11
-5033.040582021796
 21
2537.99913968267
 31
0.0
  0
LINE
  5
97
330
1F
100
AcDbEntity
  8
0-7_金物
  6
Continuous
 62
     7
370
     9
100
AcDbLine
 10
-5045.040175756535
 20
2417.999483005424
 30
0.0
 11
-5033.040582021796
 21
2417.999483005424
 31
0.0
  0
LINE
  5
98
330
1F
100
AcDbEntity
  8
0-7_金物
  6
Continuous
 62
     7
370
     9
100
AcDbLine
 10
-5057.040513357243
 20
2387.999380008599
 30
0.0
 11
-5057.040513357243
 21
2567.999242679496
 31
0.0
  0
LINE
  5
99
330
1F
100
AcDbEntity
  8
0-7_金物
  6
Continuous
 62
     7
370
     9
100
AcDbLine
 10
-5057.040513357243
 20
2387.999380008599
 30
0.0
 11
-5045.040175756535
 21
2387.999380008599
 31
0.0
  0
LINE
  5
9A
330
1F
100
AcDbEntity
  8
0-7_金物
  6
Continuous
 62
     7
370
     9
100
AcDbLine
 10
-5057.040513357243
 20
2567.999242679496
 30
0.0
 11
-5045.040175756535
 21
2567.999242679496
 31
0.0
  0
LINE
  5
9B
330
1F
100
AcDbEntity
  8
0-7_金物
  6
Continuous
 62
     7
370
     9
100
AcDbLine
 10
-5045.040175756535
 20
2387.999380008599
 30
0.0
 11
-5045.040175756535
 21
2567.999242679496
 31
0.0
  0
LINE
  5
9C
330
1F
100
AcDbEntity
  8
0-7_金物
  6
Continuous
 62
     7
370
     9
100
AcDbLine
 10
-623.0400679655816
 20
2531.999717609306
 30
0.0
 11
-617.0399993010403
 21
2531.999717609306
 31
0.0
  0
LINE
  5
9D
330
1F
100
AcDbEntity
  8
0-7_金物
  6
Continuous
 62
     7
370
     9
100
AcDbLine
 10
-617.0399993010403
 20
2423.999648944755
 30
0.0
 11
-623.0400679655816
 21
2423.999648944755
 31
0.0
  0
LINE
  5
9E
330
1F
100
AcDbEntity
  8
0-7_金物
  6
Continuous
 62
     7
370
     9
100
AcDbLine
 10
-617.0399993010403
 20
2417.999483005424
 30
0.0
 11
-617.0399993010403
 21
2537.99913968267
 31
0.0
  0
LINE
  5
9F
330
1F
100
AcDbEntity
  8
0-7_金物
  6
Continuous
 62
     7
370
     9
100
AcDbLine
 10
-605.0404055662987
 20
2537.99913968267
 30
0.0
 11
-617.0399993010403
 21
2537.99913968267
 31
0.0
  0
LINE
  5
A0
330
1F
100
AcDbEntity
  8
0-7_金物
  6
Continuous
 62
     7
370
     9
100
AcDbLine
 10
-605.0404055662987
 20
2417.999483005424
 30
0.0
 11
-617.0399993010403
 21
2417.999483005424
 31
0.0
  0
LINE
  5
A1
330
1F
100
AcDbEntity
  8
0-7_金物
  6
Continuous
 62
     7
370
     9
100
AcDbLine
 10
-593.0400679655893
 20
2387.999380008599
 30
0.0
 11
-593.0400679655893
 21
2567.999242679496
 31
0.0
  0
LINE
  5
A2
330
1F
100
AcDbEntity
  8
0-7_金物
  6
Continuous
 62
     7
370
     9
100
AcDbLine
 10
-593.0400679655893
 20
2387.999380008599
 30
0.0
 11
-605.0404055662987
 21
2387.999380008599
 31
0.0
  0
LINE
  5
A3
330
1F
100
AcDbEntity
  8
0-7_金物
  6
Continuous
 62
     7
370
     9
100
AcDbLine
 10
-593.0400679655893
 20
2567.999242679496
 30
0.0
 11
-605.0404055662987
 21
2567.999242679496
 31
0.0
  0
LINE
  5
A4
330
1F
100
AcDbEntity
  8
0-7_金物
  6
Continuous
 62
     7
370
     9
100
AcDbLine
 10
-605.0404055662987
 20
2387.999380008599
 30
0.0
 11
-605.0404055662987
 21
2567.999242679496
 31
0.0
  0
ARC
  5
A5
330
1F
100
AcDbEntity
  8
0-4_枠
  6
Continuous
 62
    92
370
    13
100
AcDbCircle
 10
-4877.040661821135
 20
2723.999683277028
 30
0.0
 40
30.0
100
AcDbArc
 50
0.0
 51
90.00000000000001
  0
LINE
  5
A6
330
1F
100
AcDbEntity
  8
0-C_ハッチ
  6
Continuous
 62
   120
370
     5
100
AcDbLine
 10
-5027.040884516979
 20
2304.321325183303
 30
0.0
 11
-4847.040661821135
 21
2484.321547879145
 31
0.0
  0
LINE
  5
A7
330
1F
100
AcDbEntity
  8
0-C_ハッチ
  6
Continuous
 62
   120
370
     5
100
AcDbLine
 10
-5027.040884516979
 20
2363.718294803005
 30
0.0
 11
-4847.040661821135
 21
2543.718517498847
 31
0.0
  0
LINE
  5
A8
330
1F
100
AcDbEntity
  8
0-C_ハッチ
  6
Continuous
 62
   120
370
     5
100
AcDbLine
 10
-5027.040884516982
 20
2423.115264422648
 30
0.0
 11
-4847.040661821138
 21
2603.115487118491
 31
0.0
  0
LINE
  5
A9
330
1F
100
AcDbEntity
  8
0-C_ハッチ
  6
Continuous
 62
   120
370
     5
100
AcDbLine
 10
-5027.040884516982
 20
2482.51223404235
 30
0.0
 11
-4847.040661821138
 21
2662.512456738193
 31
0.0
  0
LINE
  5
AA
330
1F
100
AcDbEntity
  8
0-C_ハッチ
  6
Continuous
 62
   120
370
     5
100
AcDbLine
 10
-5027.040884516986
 20
2541.909203661993
 30
0.0
 11
-4847.040661821142
 21
2721.909426357837
 31
0.0
  0
LINE
  5
AB
330
1F
100
AcDbEntity
  8
0-C_ハッチ
  6
Continuous
 62
   120
370
     5
100
AcDbLine
 10
-5027.040884516969
 20
2601.306173281711
 30
0.0
 11
-4874.347374521662
 21
2753.99968327702
 31
0.0
  0
LINE
  5
AC
330
1F
100
AcDbEntity
  8
0-4_枠
  6
Continuous
 62
    92
370
    13
100
AcDbLine
 10
-4877.040661821135
 20
2753.999683277028
 30
0.0
 11
-5027.040884516975
 21
2753.999683277028
 31
0.0
  0
LINE
  5
AD
330
1F
100
AcDbEntity
  8
0-C_ハッチ
  6
Continuous
 62
   120
370
     5
100
AcDbLine
 10
-5027.040884516972
 20
2660.703142901355
 30
0.0
 11
-4933.744344141302
 21
2753.999683277026
 31
0.0
  0
LINE
  5
AE
330
1F
100
AcDbEntity
  8
0-C_ハッチ
  6
Continuous
 62
   120
370
     5
100
AcDbLine
 10
-5027.040884516975
 20
2720.100112520999
 30
0.0
 11
-4993.141313760945
 21
2753.999683277029
 31
0.0
  0
LINE
  5
AF
330
1F
100
AcDbEntity
  8
0-4_枠
  6
Continuous
 62
    92
370
    13
100
AcDbLine
 10
-623.0400679655816
 20
2753.999683277028
 30
0.0
 11
-773.0406618211532
 21
2753.999683277028
 31
0.0
  0
ARC
  5
B0
330
1F
100
AcDbEntity
  8
0-4_枠
  6
Continuous
 62
    92
370
    13
100
AcDbCircle
 10
-773.0406618211532
 20
2723.999683277028
 30
0.0
 40
30.0
100
AcDbArc
 50
90.0
 51
180.0
  0
LINE
  5
B1
330
1F
100
AcDbEntity
  8
0-C_ハッチ
  6
Continuous
 62
   120
370
     5
100
AcDbLine
 10
-803.0406618211532
 20
2274.465756053212
 30
0.0
 11
-623.0400679655867
 21
2454.466349908775
 31
0.0
  0
LINE
  5
B2
330
1F
100
AcDbEntity
  8
0-C_ハッチ
  6
Continuous
 62
   120
370
     5
100
AcDbLine
 10
-803.0406618211532
 20
2333.862725672914
 30
0.0
 11
-623.0400679655713
 21
2513.863319528494
 31
0.0
  0
LINE
  5
B3
330
1F
100
AcDbEntity
  8
0-C_ハッチ
  6
Continuous
 62
   120
370
     5
100
AcDbLine
 10
-803.0406618211396
 20
2393.259695292573
 30
0.0
 11
-623.0400679655594
 21
2573.260289148153
 31
0.0
  0
LINE
  5
B4
330
1F
100
AcDbEntity
  8
0-C_ハッチ
  6
Continuous
 62
   120
370
     5
100
AcDbLine
 10
-803.04066182116
 20
2452.656664912201
 30
0.0
 11
-623.0400679655781
 21
2632.65725876778
 31
0.0
  0
LINE
  5
B5
330
1F
100
AcDbEntity
  8
0-C_ハッチ
  6
Continuous
 62
   120
370
     5
100
AcDbLine
 10
-803.040661821143
 20
2512.053634531918
 30
0.0
 11
-623.040067965562
 21
2692.054228387499
 31
0.0
  0
LINE
  5
B6
330
1F
100
AcDbEntity
  8
0-C_ハッチ
  6
Continuous
 62
   120
370
     5
100
AcDbLine
 10
-803.0406618211464
 20
2571.450604151562
 30
0.0
 11
-623.0400679655825
 21
2751.451198007126
 31
0.0
  0
LINE
  5
B7
330
1F
100
AcDbEntity
  8
0-C_ハッチ
  6
Continuous
 62
   120
370
     5
100
AcDbLine
 10
-803.0406618211464
 20
2630.847573771265
 30
0.0
 11
-679.8885523153939
 21
2753.999683277015
 31
0.0
  0
LINE
  5
B8
330
1F
100
AcDbEntity
  8
0-C_ハッチ
  6
Continuous
 62
   120
370
     5
100
AcDbLine
 10
-803.0406618211362
 20
2690.244543390922
 30
0.0
 11
-739.2855219350463
 21
2753.999683277012
 31
0.0
  0
LINE
  5
B9
330
1F
100
AcDbEntity
  8
0-0_補助線
  6
JWW_HOJO
 62
   120
370
     5
100
AcDbLine
 10
-3803.040661821141
 20
2933.999683277028
 30
0.0
 11
-3803.040661821141
 21
1943.999683277028
 31
0.0
  0
LINE
  5
BA
330
1F
100
AcDbEntity
  8
0-0_補助線
  6
JWW_HOJO
 62
   120
370
     5
100
AcDbLine
 10
-1787.040661821138
 20
2933.999683277028
 30
0.0
 11
-1787.040661821138
 21
1943.999683277028
 31
0.0
  0
LINE
  5
BB
330
1F
100
AcDbEntity
  8
0-0_補助線
  6
JWW_HOJO
 62
   120
370
     5
100
AcDbLine
 10
-2825.040661821139
 20
2933.999683277028
 30
0.0
 11
-2825.040661821139
 21
1943.999683277028
 31
0.0
  0
LINE
  5
BC
330
1F
100
AcDbEntity
  8
0-0_補助線
  6
JWW_HOJO
 62
   120
370
     5
100
AcDbLine
 10
-3923.040661821141
 20
2933.999683277028
 30
0.0
 11
-3923.040661821141
 21
1943.999683277028
 31
0.0
  0
LINE
  5
BD
330
1F
100
AcDbEntity
  8
0-0_補助線
  6
JWW_HOJO
 62
   120
370
     5
100
AcDbLine
 10
-1907.040661821139
 20
2933.999683277028
 30
0.0
 11
-1907.040661821139
 21
1943.999683277028
 31
0.0
  0
LWPOLYLINE
  5
BE
330
1F
100
AcDbEntity
  8
0-B_寸法
  6
Continuous
 62
     7
370
     9
100
AcDbPolyline
 90
        4
 70
     1
 43
3.0
 10
-5025.540884516975
 20
1190.999648635452
 42
0.4142135623731
 10
-5027.040884516975
 20
1192.499648635452
 42
0.4142135623731
 10
-5028.540884516976
 20
1190.999648635452
 42
0.4142135623731
 10
-5027.040884516975
 20
1189.499648635453
 42
0.4142135623731
  0
LWPOLYLINE
  5
BF
330
1F
100
AcDbEntity
  8
0-B_寸法
  6
Continuous
 62
     7
370
     9
100
AcDbPolyline
 90
        4
 70
     1
 43
3.0
 10
-621.5400679655816
 20
1190.999648635452
 42
0.4142135623731
 10
-623.0400679655816
 20
1192.499648635452
 42
0.4142135623731
 10
-624.5400679655816
 20
1190.999648635452
 42
0.4142135623731
 10
-623.0400679655816
 20
1189.499648635453
 42
0.4142135623731
  0
LINE
  5
C0
330
1F
100
AcDbEntity
  8
0-B_寸法
  6
Continuous
 62
   120
370
     5
100
AcDbLine
 10
-2831.04066182114
 20
1550.999648635452
 30
0.0
 11
-2831.04066182114
 21
1943.999683277028
 31
0.0
  0
LINE
  5
C1
330
1F
100
AcDbEntity
  8
0-B_寸法
  6
Continuous
 62
   120
370
     5
100
AcDbLine
 10
-2819.040661821139
 20
1550.999648635452
 30
0.0
 11
-2819.040661821139
 21
1943.999683277028
 31
0.0
  0
MTEXT
  5
C2
330
1F
100
AcDbEntity
  8
0-B_寸法
  6
Continuous
 62
     7
370
     0
100
AcDbMText
 10
-3095.040476241279
 20
1188.719203243772
 30
0.0
 40
91.43999999999998
 41
540.0
 46
0.0
 71
     7
 72
     1
  1
{\fＭＳ ゴシック|b0|i0|c128|p49;枠外＝734}
 73
     1
 44
1.0
  0
MTEXT
  5
C3
330
1F
100
AcDbEntity
  8
0-B_寸法
  6
Continuous
 62
     7
370
     0
100
AcDbMText
 10
-3095.040476241279
 20
1368.719425939612
 30
0.0
 40
91.43999999999998
 41
540.0
 46
0.0
 71
     7
 72
     1
  1
{\fＭＳ ゴシック|b0|i0|c128|p49;枠内＝674}
 73
     1
 44
1.0
  0
MTEXT
  5
C4
330
1F
100
AcDbEntity
  8
0-B_寸法
  6
Continuous
 62
     7
370
   211
100
AcDbMText
 10
-2087.04066182114
 20
1551.719648635452
 30
0.0
 40
91.44000000000007
 41
540.0000000000005
 46
0.0
 71
     7
 72
     1
  1
{\fＭＳ ゴシック|b0|i0|c128|p49;ＤＷ＝334}
 73
     1
 44
1.0
  0
LINE
  5
C5
330
1F
100
AcDbEntity
  8
0-B_寸法
  6
Continuous
 62
   120
370
     5
100
AcDbLine
 10
-623.0400679655816
 20
1943.999683277028
 30
0.0
 11
-623.0400679655816
 21
1190.999203243772
 31
0.0
  0
LINE
  5
C6
330
1F
100
AcDbEntity
  8
0-B_寸法
  6
Continuous
 62
   120
370
     5
100
AcDbLine
 10
-803.0399195016878
 20
1943.999683277028
 30
0.0
 11
-803.0399195016878
 21
1370.999425939612
 31
0.0
  0
LINE
  5
C7
330
1F
100
AcDbEntity
  8
0-B_寸法
  6
Continuous
 62
   120
370
     5
100
AcDbLine
 10
-815.0406618211389
 20
1550.999648635452
 30
0.0
 11
-815.0406618211389
 21
1943.999683277028
 31
0.0
  0
LINE
  5
C8
330
1F
100
AcDbEntity
  8
0-B_寸法
  6
Continuous
 62
   120
370
     5
100
AcDbLine
 10
-4835.040661821142
 20
1550.999648635452
 30
0.0
 11
-4835.040661821142
 21
1943.999683277028
 31
0.0
  0
LINE
  5
C9
330
1F
100
AcDbEntity
  8
0-B_寸法
  6
Continuous
 62
   120
370
     5
100
AcDbLine
 10
-4847.041032980869
 20
1943.999683277028
 30
0.0
 11
-4847.041032980869
 21
1370.999425939612
 31
0.0
  0
LINE
  5
CA
330
1F
100
AcDbEntity
  8
0-B_寸法
  6
Continuous
 62
   120
370
     5
100
AcDbLine
 10
-5027.040884516975
 20
1190.999203243772
 30
0.0
 11
-5027.040884516975
 21
1943.999683277028
 31
0.0
  0
MTEXT
  5
CB
330
1F
100
AcDbEntity
  8
0-B_寸法
  6
Continuous
 62
     7
370
   211
100
AcDbMText
 10
-4103.04066182114
 20
1551.719648635452
 30
0.0
 40
91.4399999999997
 41
539.9999999999983
 46
0.0
 71
     7
 72
     1
  1
{\fＭＳ ゴシック|b0|i0|c128|p49;ＤＷ＝334}
 73
     1
 44
1.0
  0
LINE
  5
CC
330
1F
100
AcDbEntity
  8
0-B_寸法
  6
Continuous
 62
   120
370
     5
100
AcDbLine
 10
-803.0399195016878
 20
1550.999648635452
 30
0.0
 11
-4847.041032980869
 21
1550.999648635452
 31
0.0
  0
LINE
  5
CD
330
1F
100
AcDbEntity
  8
0-B_寸法
  6
Continuous
 62
   120
370
     5
100
AcDbLine
 10
-5027.040884516975
 20
1190.999203243772
 30
0.0
 11
-623.0400679655816
 21
1190.999203243772
 31
0.0
  0
LINE
  5
CE
330
1F
100
AcDbEntity
  8
0-B_寸法
  6
Continuous
 62
   120
370
     5
100
AcDbLine
 10
-5027.040884516975
 20
1370.999425939612
 30
0.0
 11
-623.0400679655816
 21
1370.999425939612
 31
0.0
  0
MTEXT
  5
CF
330
1F
100
AcDbEntity
  8
0-B_寸法
  6
Continuous
 62
     7
370
     0
100
AcDbMText
 10
-776.7898205257572
 20
1371.719475427577
 30
0.0
 40
91.44
 41
120.0
 46
0.0
 71
     7
 72
     1
  1
{\fＭＳ ゴシック|b0|i0|c128|p49;30}
 73
     1
 44
1.0
  0
MTEXT
  5
D0
330
1F
100
AcDbEntity
  8
0-B_寸法
  6
Continuous
 62
     7
370
   211
100
AcDbMText
 10
-877.6872622745287
 20
1551.719648635452
 30
0.0
 40
91.44
 41
60.0
 46
0.0
 71
     7
 72
     1
  1
{\fＭＳ ゴシック|b0|i0|c128|p49;2}
 73
     1
 44
1.0
  0
LINE
  5
D1
330
1F
100
AcDbEntity
  8
0-B_寸法
  6
Continuous
 62
   120
370
     5
100
AcDbLine
 10
-803.0406618211532
 20
1550.999648635452
 30
0.0
 11
-803.0406618211532
 21
1880.999920819258
 31
0.0
  0
LWPOLYLINE
  5
D2
330
1F
100
AcDbEntity
  8
0-B_寸法
  6
Continuous
 62
     7
370
     9
100
AcDbPolyline
 90
        4
 70
     1
 43
3.0
 10
-801.5406618211532
 20
1550.999648635452
 42
0.4142135623731
 10
-803.0406618211532
 20
1552.499648635452
 42
0.4142135623731
 10
-804.5406618211532
 20
1550.999648635452
 42
0.4142135623731
 10
-803.0406618211532
 20
1549.499648635453
 42
0.4142135623731
  0
LWPOLYLINE
  5
D3
330
1F
100
AcDbEntity
  8
0-B_寸法
  6
Continuous
 62
     7
370
     9
100
AcDbPolyline
 90
        4
 70
     1
 43
3.0
 10
-813.5406618211389
 20
1550.999648635452
 42
0.4142135623731
 10
-815.0406618211389
 20
1552.499648635452
 42
0.4142135623731
 10
-816.5406618211389
 20
1550.999648635452
 42
0.4142135623731
 10
-815.0406618211389
 20
1549.499648635453
 42
0.4142135623731
  0
LWPOLYLINE
  5
D4
330
1F
100
AcDbEntity
  8
0-B_寸法
  6
Continuous
 62
     7
370
     9
100
AcDbPolyline
 90
        4
 70
     1
 43
3.0
 10
-621.5400679655816
 20
1370.999425939612
 42
0.4142135623731
 10
-623.0400679655816
 20
1372.499425939612
 42
0.4142135623731
 10
-624.5400679655816
 20
1370.999425939612
 42
0.4142135623731
 10
-623.0400679655816
 20
1369.499425939612
 42
0.4142135623731
  0
LWPOLYLINE
  5
D5
330
1F
100
AcDbEntity
  8
0-B_寸法
  6
Continuous
 62
     7
370
     9
100
AcDbPolyline
 90
        4
 70
     1
 43
3.0
 10
-621.5400679655816
 20
1190.999203243772
 42
0.4142135623731
 10
-623.0400679655816
 20
1192.499203243772
 42
0.4142135623731
 10
-624.5400679655816
 20
1190.999203243772
 42
0.4142135623731
 10
-623.0400679655816
 20
1189.499203243772
 42
0.4142135623731
  0
LWPOLYLINE
  5
D6
330
1F
100
AcDbEntity
  8
0-B_寸法
  6
Continuous
 62
     7
370
     9
100
AcDbPolyline
 90
        4
 70
     1
 43
3.0
 10
-801.5399195016878
 20
1370.999425939612
 42
0.4142135623731
 10
-803.0399195016878
 20
1372.499425939612
 42
0.4142135623731
 10
-804.5399195016878
 20
1370.999425939612
 42
0.4142135623731
 10
-803.0399195016878
 20
1369.499425939612
 42
0.4142135623731
  0
MTEXT
  5
D7
330
1F
100
AcDbEntity
  8
0-B_寸法
  6
Continuous
 62
     7
370
   211
100
AcDbMText
 10
-2813.871035356437
 20
1551.719648635452
 30
0.0
 40
91.44
 41
60.0
 46
0.0
 71
     7
 72
     1
  1
{\fＭＳ ゴシック|b0|i0|c128|p49;2}
 73
     1
 44
1.0
  0
LWPOLYLINE
  5
D8
330
1F
100
AcDbEntity
  8
0-B_寸法
  6
Continuous
 62
     7
370
     9
100
AcDbPolyline
 90
        4
 70
     1
 43
3.0
 10
-2817.540661821139
 20
1550.999648635452
 42
0.4142135623731
 10
-2819.040661821139
 20
1552.499648635452
 42
0.4142135623731
 10
-2820.540661821139
 20
1550.999648635452
 42
0.4142135623731
 10
-2819.040661821139
 20
1549.499648635453
 42
0.4142135623731
  0
LWPOLYLINE
  5
D9
330
1F
100
AcDbEntity
  8
0-B_寸法
  6
Continuous
 62
     7
370
     9
100
AcDbPolyline
 90
        4
 70
     1
 43
3.0
 10
-2829.54066182114
 20
1550.999648635452
 42
0.4142135623731
 10
-2831.04066182114
 20
1552.499648635452
 42
0.4142135623731
 10
-2832.54066182114
 20
1550.999648635452
 42
0.4142135623731
 10
-2831.04066182114
 20
1549.499648635453
 42
0.4142135623731
  0
MTEXT
  5
DA
330
1F
100
AcDbEntity
  8
0-B_寸法
  6
Continuous
 62
     7
370
     0
100
AcDbMText
 10
-5000.790971120913
 20
1371.719475427577
 30
0.0
 40
91.44
 41
120.0
 46
0.0
 71
     7
 72
     1
  1
{\fＭＳ ゴシック|b0|i0|c128|p49;30}
 73
     1
 44
1.0
  0
MTEXT
  5
DB
330
1F
100
AcDbEntity
  8
0-B_寸法
  6
Continuous
 62
     7
370
   211
100
AcDbMText
 10
-4833.319502850699
 20
1551.719648635452
 30
0.0
 40
91.44
 41
60.0
 46
0.0
 71
     7
 72
     1
  1
{\fＭＳ ゴシック|b0|i0|c128|p49;2}
 73
     1
 44
1.0
  0
LWPOLYLINE
  5
DC
330
1F
100
AcDbEntity
  8
0-B_寸法
  6
Continuous
 62
     7
370
     9
100
AcDbPolyline
 90
        4
 70
     1
 43
3.0
 10
-4833.540661821142
 20
1550.999648635452
 42
0.4142135623731
 10
-4835.040661821142
 20
1552.499648635452
 42
0.4142135623731
 10
-4836.540661821143
 20
1550.999648635452
 42
0.4142135623731
 10
-4835.040661821142
 20
1549.499648635453
 42
0.4142135623731
  0
LWPOLYLINE
  5
DD
330
1F
100
AcDbEntity
  8
0-B_寸法
  6
Continuous
 62
     7
370
     9
100
AcDbPolyline
 90
        4
 70
     1
 43
3.0
 10
-4845.541032980869
 20
1550.999648635452
 42
0.4142135623731
 10
-4847.041032980869
 20
1552.499648635452
 42
0.4142135623731
 10
-4848.541032980869
 20
1550.999648635452
 42
0.4142135623731
 10
-4847.041032980869
 20
1549.499648635453
 42
0.4142135623731
  0
LWPOLYLINE
  5
DE
330
1F
100
AcDbEntity
  8
0-B_寸法
  6
Continuous
 62
     7
370
     9
100
AcDbPolyline
 90
        4
 70
     1
 43
3.0
 10
-5025.540884516975
 20
1370.999425939612
 42
0.4142135623731
 10
-5027.040884516975
 20
1372.499425939612
 42
0.4142135623731
 10
-5028.540884516976
 20
1370.999425939612
 42
0.4142135623731
 10
-5027.040884516975
 20
1369.499425939612
 42
0.4142135623731
  0
LWPOLYLINE
  5
DF
330
1F
100
AcDbEntity
  8
0-B_寸法
  6
Continuous
 62
     7
370
     9
100
AcDbPolyline
 90
        4
 70
     1
 43
3.0
 10
-4845.541032980869
 20
1370.999425939612
 42
0.4142135623731
 10
-4847.041032980869
 20
1372.499425939612
 42
0.4142135623731
 10
-4848.541032980869
 20
1370.999425939612
 42
0.4142135623731
 10
-4847.041032980869
 20
1369.499425939612
 42
0.4142135623731
  0
LWPOLYLINE
  5
E0
330
1F
100
AcDbEntity
  8
0-B_寸法
  6
Continuous
 62
     7
370
     9
100
AcDbPolyline
 90
        4
 70
     1
 43
3.0
 10
-5025.540884516975
 20
1190.999203243772
 42
0.4142135623731
 10
-5027.040884516975
 20
1192.499203243772
 42
0.4142135623731
 10
-5028.540884516976
 20
1190.999203243772
 42
0.4142135623731
 10
-5027.040884516975
 20
1189.499203243772
 42
0.4142135623731
  0
LINE
  5
E1
330
1F
100
AcDbEntity
  8
0-B_寸法
  6
Continuous
 62
   120
370
     5
100
AcDbLine
 10
-593.039597829931
 20
1190.999203243772
 30
0.0
 11
-623.0400679655816
 21
1190.999203243772
 31
0.0
  0
LWPOLYLINE
  5
E2
330
1F
100
AcDbEntity
  8
0-B_寸法
  6
Continuous
 62
     7
370
     9
100
AcDbPolyline
 90
        4
 70
     1
 43
3.0
 10
-591.5400679655892
 20
1190.999203243772
 42
0.4142135623731
 10
-593.0400679655893
 20
1192.499203243772
 42
0.4142135623731
 10
-594.5400679655893
 20
1190.999203243772
 42
0.4142135623731
 10
-593.0400679655893
 20
1189.499203243772
 42
0.4142135623731
  0
LINE
  5
E3
330
1F
100
AcDbEntity
  8
0-B_寸法
  6
Continuous
 62
   120
370
     5
100
AcDbLine
 10
-593.0400679655893
 20
1190.999203243772
 30
0.0
 11
-593.0400679655893
 21
1943.999683277028
 31
0.0
  0
LWPOLYLINE
  5
E4
330
1F
100
AcDbEntity
  8
0-B_寸法
  6
Continuous
 62
     7
370
     9
100
AcDbPolyline
 90
        4
 70
     1
 43
3.0
 10
-591.539597829931
 20
1190.999203243772
 42
0.4142135623731
 10
-593.039597829931
 20
1192.499203243772
 42
0.4142135623731
 10
-594.539597829931
 20
1190.999203243772
 42
0.4142135623731
 10
-593.039597829931
 20
1189.499203243772
 42
0.4142135623731
  0
LINE
  5
E5
330
1F
100
AcDbEntity
  8
0-B_寸法
  6
Continuous
 62
   120
370
     5
100
AcDbLine
 10
-593.039597829931
 20
980.9992032437724
 30
0.0
 11
-593.039597829931
 21
1943.999683277028
 31
0.0
  0
LINE
  5
E6
330
1F
100
AcDbEntity
  8
0-B_寸法
  6
Continuous
 62
   120
370
     5
100
AcDbLine
 10
-5057.040513357243
 20
1190.999203243772
 30
0.0
 11
-5027.040884516975
 21
1190.999203243772
 31
0.0
  0
LWPOLYLINE
  5
E7
330
1F
100
AcDbEntity
  8
0-B_寸法
  6
Continuous
 62
     7
370
     9
100
AcDbPolyline
 90
        4
 70
     1
 43
3.0
 10
-5055.540513357242
 20
1190.999203243772
 42
0.4142135623731
 10
-5057.040513357243
 20
1192.499203243772
 42
0.4142135623731
 10
-5058.540513357243
 20
1190.999203243772
 42
0.4142135623731
 10
-5057.040513357243
 20
1189.499203243772
 42
0.4142135623731
  0
LINE
  5
E8
330
1F
100
AcDbEntity
  8
0-B_寸法
  6
Continuous
 62
   120
370
     5
100
AcDbLine
 10
-5057.040513357243
 20
980.9992032437724
 30
0.0
 11
-5057.040513357243
 21
1943.999683277028
 31
0.0
  0
LINE
  5
E9
330
1F
100
AcDbEntity
  8
0-B_寸法
  6
Continuous
 62
   120
370
     5
100
AcDbLine
 10
-5057.040513357243
 20
980.9992032437724
 30
0.0
 11
-593.039597829931
 21
980.9992032437724
 31
0.0
  0
LWPOLYLINE
  5
EA
330
1F
100
AcDbEntity
  8
0-B_寸法
  6
Continuous
 62
     7
370
     9
100
AcDbPolyline
 90
        4
 70
     1
 43
3.0
 10
-5055.540513357242
 20
980.9992032437724
 42
0.4142135623731
 10
-5057.040513357243
 20
982.4992032437723
 42
0.4142135623731
 10
-5058.540513357243
 20
980.9992032437724
 42
0.4142135623731
 10
-5057.040513357243
 20
979.4992032437724
 42
0.4142135623731
  0
LWPOLYLINE
  5
EB
330
1F
100
AcDbEntity
  8
0-B_寸法
  6
Continuous
 62
     7
370
     9
100
AcDbPolyline
 90
        4
 70
     1
 43
3.0
 10
-591.539597829931
 20
980.9992032437724
 42
0.4142135623731
 10
-593.039597829931
 20
982.4992032437723
 42
0.4142135623731
 10
-594.539597829931
 20
980.9992032437724
 42
0.4142135623731
 10
-593.039597829931
 20
979.4992032437724
 42
0.4142135623731
  0
MTEXT
  5
EC
330
1F
100
AcDbEntity
  8
0-B_寸法
  6
Continuous
 62
     7
370
   211
100
AcDbMText
 10
-5005.080651764781
 20
1191.719203243772
 30
0.0
 40
91.44
 41
60.0
 46
0.0
 71
     7
 72
     1
  1
{\fＭＳ ゴシック|b0|i0|c128|p49;5}
 73
     1
 44
1.0
  0
MTEXT
  5
ED
330
1F
100
AcDbEntity
  8
0-B_寸法
  6
Continuous
 62
     7
370
   211
100
AcDbMText
 10
-701.5977047556629
 20
1191.719203243772
 30
0.0
 40
91.44
 41
60.0
 46
0.0
 71
     7
 72
     1
  1
{\fＭＳ ゴシック|b0|i0|c128|p49;5}
 73
     1
 44
1.0
  0
MTEXT
  5
EE
330
1F
100
AcDbEntity
  8
0-B_寸法
  6
Continuous
 62
     7
370
   211
100
AcDbMText
 10
-3192.540055593587
 20
986.9146577892269
 30
0.0
 40
101.8309090909091
 41
735.0
 46
0.0
 71
     7
 72
     1
  1
{\fＭＳ ゴシック|b0|i0|c128|p49;ＲＯＷ＝744}
 73
     1
 44
1.0
  0
ARC
  5
EF
330
1F
100
AcDbEntity
  8
0-4_枠
  6
Continuous
 62
    92
370
    13
100
AcDbCircle
 10
-4865.040795438641
 20
2141.999445734799
 30
0.0
 40
17.99999878213213
100
AcDbArc
 50
270.0
 51
0.0
  0
LINE
  5
F0
330
1F
100
AcDbEntity
  8
0-4_枠
  6
Continuous
 62
    92
370
    13
100
AcDbLine
 10
-4847.040661821135
 20
2723.999683277028
 30
0.0
 11
-4847.040661821135
 21
2141.999445734799
 31
0.0
  0
LINE
  5
F1
330
1F
100
AcDbEntity
  8
0-4_枠
  6
Continuous
 62
    92
370
    13
100
AcDbLine
 10
-4865.040795438641
 20
2123.999683277028
 30
0.0
 11
-5027.040884516975
 21
2123.999683277028
 31
0.0
  0
LINE
  5
F2
330
1F
100
AcDbEntity
  8
0-4_枠
  6
Continuous
 62
    92
370
    13
100
AcDbLine
 10
-5027.040884516975
 20
2123.999683277028
 30
0.0
 11
-5027.040884516975
 21
2753.999683277028
 31
0.0
  0
LINE
  5
F3
330
1F
100
AcDbEntity
  8
0-4_枠
  6
Continuous
 62
    92
370
    13
100
AcDbLine
 10
-623.0400679655816
 20
2123.999683277028
 30
0.0
 11
-623.0400679655816
 21
2753.999683277028
 31
0.0
  0
LINE
  5
F4
330
1F
100
AcDbEntity
  8
0-4_枠
  6
Continuous
 62
    92
370
    13
100
AcDbLine
 10
-623.0400679655816
 20
2123.999683277028
 30
0.0
 11
-785.0401570439158
 21
2123.999683277028
 31
0.0
  0
ARC
  5
F5
330
1F
100
AcDbEntity
  8
0-4_枠
  6
Continuous
 62
    92
370
    13
100
AcDbCircle
 10
-785.0401570439158
 20
2141.999445734799
 30
0.0
 40
17.99999878213213
100
AcDbArc
 50
180.0
 51
270.0
  0
LINE
  5
F6
330
1F
100
AcDbEntity
  8
0-4_枠
  6
Continuous
 62
    92
370
    13
100
AcDbLine
 10
-803.0406618211566
 20
2723.999683277028
 30
0.0
 11
-803.0406618211566
 21
2141.999445734799
 31
0.0
  0
LINE
  5
F7
330
1F
100
AcDbEntity
  8
0-C_ハッチ
  6
Continuous
 62
   120
370
     5
100
AcDbLine
 10
-4847.040661821142
 20
2424.924578259493
 30
0.0
 11
-5027.040884516975
 21
2244.924355563659
 31
0.0
  0
LINE
  5
F8
330
1F
100
AcDbEntity
  8
0-C_ハッチ
  6
Continuous
 62
   120
370
     5
100
AcDbLine
 10
-4847.040661821145
 20
2306.13063902014
 30
0.0
 11
-5027.040884516975
 21
2126.13041632431
 31
0.0
  0
LINE
  5
F9
330
1F
100
AcDbEntity
  8
0-C_ハッチ
  6
Continuous
 62
   120
370
     5
100
AcDbLine
 10
-4847.040661821128
 20
2365.527608639859
 30
0.0
 11
-5027.040884516975
 21
2185.527385944011
 31
0.0
  0
LINE
  5
FA
330
1F
100
AcDbEntity
  8
0-C_ハッチ
  6
Continuous
 62
   120
370
     5
100
AcDbLine
 10
-4969.774647944606
 20
2123.999683277028
 30
0.0
 11
-4847.040661821142
 21
2246.733669400497
 31
0.0
  0
LINE
  5
FB
330
1F
100
AcDbEntity
  8
0-C_ハッチ
  6
Continuous
 62
   120
370
     5
100
AcDbLine
 10
-4910.377678324963
 20
2123.999683277028
 30
0.0
 11
-4847.040661821142
 21
2187.336699780853
 31
0.0
  0
LINE
  5
FC
330
1F
100
AcDbEntity
  8
0-C_ハッチ
  6
Continuous
 62
   120
370
     5
100
AcDbLine
 10
-803.0406618211566
 20
2215.068786433561
 30
0.0
 11
-623.0400679655679
 21
2395.069380289148
 31
0.0
  0
LINE
  5
FD
330
1F
100
AcDbEntity
  8
0-C_ハッチ
  6
Continuous
 62
   120
370
     5
100
AcDbLine
 10
-803.0406618211566
 20
2155.671816813858
 30
0.0
 11
-623.0400679655825
 21
2335.67241066943
 31
0.0
  0
LINE
  5
FE
330
1F
100
AcDbEntity
  8
0-C_ハッチ
  6
JWW_DASHED1
 62
   120
370
     5
100
AcDbLine
 10
-465.7767194119469
 20
2195.999683277028
 30
0.0
 11
-390.7764719721251
 21
2270.999930716853
 31
0.0
  0
LINE
  5
FF
330
1F
100
AcDbEntity
  8
0-C_ハッチ
  6
JWW_DASHED1
 62
   120
370
     5
100
AcDbLine
 10
-508.2032462806126
 20
2195.999683277028
 30
0.0
 11
-433.2029988407908
 21
2270.999930716853
 31
0.0
  0
LINE
  5
100
330
1F
100
AcDbEntity
  8
0-C_ハッチ
  6
JWW_DASHED1
 62
   120
370
     5
100
AcDbLine
 10
-550.6297731492782
 20
2195.999683277028
 30
0.0
 11
-475.6295257094564
 21
2270.999930716853
 31
0.0
  0
LINE
  5
101
330
1F
100
AcDbEntity
  8
0-C_ハッチ
  6
JWW_DASHED1
 62
   120
370
     5
100
AcDbLine
 10
-593.0563000179438
 20
2195.999683277028
 30
0.0
 11
-518.056052578122
 21
2270.999930716853
 31
0.0
  0
LINE
  5
102
330
1F
100
AcDbEntity
  8
0-C_ハッチ
  6
JWW_DASHED1
 62
   120
370
     5
100
AcDbLine
 10
-623.0400679655816
 20
2208.441699878591
 30
0.0
 11
-560.4818371273188
 21
2270.999930716853
 31
0.0
  0
LINE
  5
103
330
1F
100
AcDbEntity
  8
0-C_ハッチ
  6
JWW_DASHED1
 62
   120
370
     5
100
AcDbLine
 10
-5384.941308133952
 20
2195.999683277028
 30
0.0
 11
-5309.941060694126
 21
2270.999930716853
 31
0.0
  0
LINE
  5
104
330
1F
100
AcDbEntity
  8
0-C_ハッチ
  6
JWW_DASHED1
 62
   120
370
     5
100
AcDbLine
 10
-5342.514781265285
 20
2195.999683277028
 30
0.0
 11
-5267.514533825462
 21
2270.999930716853
 31
0.0
  0
LINE
  5
105
330
1F
100
AcDbEntity
  8
0-C_ハッチ
  6
JWW_DASHED1
 62
   120
370
     5
100
AcDbLine
 10
-5300.088254396621
 20
2195.999683277028
 30
0.0
 11
-5225.088006956796
 21
2270.999930716853
 31
0.0
  0
LINE
  5
106
330
1F
100
AcDbEntity
  8
0-C_ハッチ
  6
JWW_DASHED1
 62
   120
370
     5
100
AcDbLine
 10
-5257.662469847421
 20
2195.999683277028
 30
0.0
 11
-5182.6622224076
 21
2270.999930716853
 31
0.0
  0
LINE
  5
107
330
1F
100
AcDbEntity
  8
0-C_ハッチ
  6
JWW_DASHED1
 62
   120
370
     5
100
AcDbLine
 10
-5215.235942978755
 20
2195.999683277028
 30
0.0
 11
-5140.235695538933
 21
2270.999930716853
 31
0.0
  0
LINE
  5
108
330
1F
100
AcDbEntity
  8
0-C_ハッチ
  6
JWW_DASHED1
 62
   120
370
     5
100
AcDbLine
 10
-5172.809416110091
 20
2195.999683277028
 30
0.0
 11
-5097.809168670267
 21
2270.999930716853
 31
0.0
  0
LINE
  5
109
330
1F
100
AcDbEntity
  8
0-C_ハッチ
  6
JWW_DASHED1
 62
   120
370
     5
100
AcDbLine
 10
-5130.383260401158
 20
2195.999683277028
 30
0.0
 11
-5055.383012961336
 21
2270.999930716853
 31
0.0
  0
LINE
  5
10A
330
1F
100
AcDbEntity
  8
0-C_ハッチ
  6
JWW_DASHED1
 62
   120
370
     5
100
AcDbLine
 10
-5087.956733532494
 20
2195.999683277028
 30
0.0
 11
-5027.040884516975
 21
2256.915903452283
 31
0.0
  0
LINE
  5
10B
330
1F
100
AcDbEntity
  8
0-C_ハッチ
  6
JWW_DASHED1
 62
   120
370
     5
100
AcDbLine
 10
-5045.530206663827
 20
2195.999683277028
 30
0.0
 11
-5027.040884516975
 21
2214.48863426415
 31
0.0
  0
LINE
  5
10C
330
1F
100
AcDbEntity
  8
0-3_仕上げ
  6
Continuous
 62
    92
370
    13
100
AcDbLine
 10
-593.039597829931
 20
2270.999930716853
 30
0.0
 11
-593.039597829931
 21
2761.879977170366
 31
0.0
  0
LINE
  5
10D
330
1F
100
AcDbEntity
  8
0-3_仕上げ
  6
Continuous
 62
    92
370
    13
100
AcDbLine
 10
-5057.040612333183
 20
2270.999930716853
 30
0.0
 11
-5057.040612333183
 21
2794.491195545198
 31
0.0
  0
LINE
  5
10E
330
1F
100
AcDbEntity
  8
0-B_寸法
  6
Continuous
 62
   120
370
     5
100
AcDbLine
 10
-4454.434427657285
 20
2753.999683277026
 30
0.0
 11
-4454.434427657285
 21
2123.999683277028
 31
0.0
  0
LWPOLYLINE
  5
10F
330
1F
100
AcDbEntity
  8
0-B_寸法
  6
Continuous
 62
     7
370
     9
100
AcDbPolyline
 90
        4
 70
     1
 43
3.0
 10
-4452.934427657285
 20
2753.999683277026
 42
0.4142135623731
 10
-4454.434427657285
 20
2755.499683277026
 42
0.4142135623731
 10
-4455.934427657286
 20
2753.999683277026
 42
0.4142135623731
 10
-4454.434427657285
 20
2752.499683277026
 42
0.4142135623731
  0
LWPOLYLINE
  5
110
330
1F
100
AcDbEntity
  8
0-B_寸法
  6
Continuous
 62
     7
370
     9
100
AcDbPolyline
 90
        4
 70
     1
 43
3.0
 10
-4452.934427657285
 20
2123.999683277028
 42
0.4142135623731
 10
-4454.434427657285
 20
2125.499683277028
 42
0.4142135623731
 10
-4455.934427657286
 20
2123.999683277028
 42
0.4142135623731
 10
-4454.434427657285
 20
2122.499683277029
 42
0.4142135623731
  0
LINE
  5
111
330
1F
100
AcDbEntity
  8
0-B_寸法
  6
Continuous
 62
   120
370
     5
100
AcDbLine
 10
-4454.434427657285
 20
2753.999683277026
 30
0.0
 11
-4634.434427657285
 21
2753.999683277026
 31
0.0
  0
LINE
  5
112
330
1F
100
AcDbEntity
  8
0-B_寸法
  6
Continuous
 62
   120
370
     5
100
AcDbLine
 10
-4454.434427657285
 20
2123.999683277028
 30
0.0
 11
-4634.434427657285
 21
2123.999683277028
 31
0.0
  0
MTEXT
  5
113
330
1F
100
AcDbEntity
  8
0-B_寸法
  6
Continuous
 62
     7
370
   211
100
AcDbMText
 10
-4469.434427657285
 20
2331.029683277028
 30
0.0
 40
99.06
 41
195.0
 46
0.0
 71
     7
 72
     1
  1
{\fＭＳ ゴシック|b0|i0|c128|p49;105}
 11
6.123031769111886E-17
 21
1.0
 31
0.0
 73
     1
 44
1.0
  0
MTEXT
  5
114
330
1F
100
AcDbEntity
  8
0-B_寸法
  6
Continuous
 62
     7
370
     0
100
AcDbMText
 10
-4048.604508846834
 20
2114.968416385137
 30
0.0
 40
91.44
 41
240.0
 46
0.0
 71
     7
 72
     1
  1
{\fＭＳ ゴシック|b0|i0|c128|p49;(24)}
 11
6.123031769111886E-17
 21
1.0
 31
0.0
 73
     1
 44
1.0
  0
LINE
  5
115
330
1F
100
AcDbEntity
  8
0-6_扉
  6
Continuous
 62
   200
370
    20
100
AcDbLine
 10
-4835.040661821142
 20
2333.999772355364
 30
0.0
 11
-4835.040661821142
 21
2171.999683277028
 31
0.0
  0
LINE
  5
116
330
1F
100
AcDbEntity
  8
0-6_扉
  6
Continuous
 62
   200
370
    20
100
AcDbLine
 10
-815.0406618211389
 20
2333.999772355364
 30
0.0
 11
-815.0406618211389
 21
2171.999683277028
 31
0.0
  0
MTEXT
  5
117
330
1F
100
AcDbEntity
  8
0-B_寸法
  6
Continuous
 62
     7
370
     0
100
AcDbMText
 10
-4198.604607822762
 20
2174.968416385137
 30
0.0
 40
91.44
 41
120.0
 46
0.0
 71
     7
 72
     1
  1
{\fＭＳ ゴシック|b0|i0|c128|p49;27}
 11
6.123031769111886E-17
 21
1.0
 31
0.0
 73
     1
 44
1.0
  0
LINE
  5
118
330
1F
100
AcDbEntity
  8
0-B_寸法
  6
Continuous
 62
   120
370
     5
100
AcDbLine
 10
-4183.604558334798
 20
2333.999772355364
 30
0.0
 11
-4183.604558334798
 21
2171.997456318625
 31
0.0
  0
LINE
  5
119
330
1F
100
AcDbEntity
  8
0-B_寸法
  6
Continuous
 62
   120
370
     5
100
AcDbLine
 10
-4254.965955742948
 20
2333.999772355364
 30
0.0
 11
-4183.604558334798
 21
2333.999772355364
 31
0.0
  0
LINE
  5
11A
330
1F
100
AcDbEntity
  8
0-B_寸法
  6
Continuous
 62
   120
370
     5
100
AcDbLine
 10
-4254.965955742948
 20
2171.997456318625
 30
0.0
 11
-4183.604558334798
 21
2171.997456318625
 31
0.0
  0
LWPOLYLINE
  5
11B
330
1F
100
AcDbEntity
  8
0-B_寸法
  6
Continuous
 62
     7
370
     9
100
AcDbPolyline
 90
        4
 70
     1
 43
3.0
 10
-4182.104558334797
 20
2333.999772355364
 42
0.4142135623731
 10
-4183.604558334798
 20
2335.499772355364
 42
0.4142135623731
 10
-4185.104558334798
 20
2333.999772355364
 42
0.4142135623731
 10
-4183.604558334798
 20
2332.499772355364
 42
0.4142135623731
  0
LWPOLYLINE
  5
11C
330
1F
100
AcDbEntity
  8
0-B_寸法
  6
Continuous
 62
     7
370
     9
100
AcDbPolyline
 90
        4
 70
     1
 43
3.0
 10
-4182.104558334797
 20
2171.997456318625
 42
0.4142135623731
 10
-4183.604558334798
 20
2173.497456318624
 42
0.4142135623731
 10
-4185.104558334798
 20
2171.997456318625
 42
0.4142135623731
 10
-4183.604558334798
 20
2170.497456318625
 42
0.4142135623731
  0
LINE
  5
11D
330
1F
100
AcDbEntity
  8
0-6_扉
  6
Continuous
 62
   200
370
    20
100
AcDbLine
 10
-1787.040661821138
 20
2333.999772355364
 30
0.0
 11
-815.0406618211389
 21
2333.999772355364
 31
0.0
  0
LINE
  5
11E
330
1F
100
AcDbEntity
  8
0-6_扉
  6
Continuous
 62
   200
370
    20
100
AcDbLine
 10
-1787.040661821138
 20
2171.999683277028
 30
0.0
 11
-815.0406618211389
 21
2171.999683277028
 31
0.0
  0
LINE
  5
11F
330
1F
100
AcDbEntity
  8
0-6_扉
  6
Continuous
 62
   200
370
    20
100
AcDbLine
 10
-3803.040661821141
 20
2333.999772355364
 30
0.0
 11
-2831.04066182114
 21
2333.999772355364
 31
0.0
  0
LINE
  5
120
330
1F
100
AcDbEntity
  8
0-6_扉
  6
Continuous
 62
   200
370
    20
100
AcDbLine
 10
-2831.04066182114
 20
2333.999772355364
 30
0.0
 11
-2831.04066182114
 21
2171.999683277028
 31
0.0
  0
LINE
  5
121
330
1F
100
AcDbEntity
  8
0-6_扉
  6
Continuous
 62
   200
370
    20
100
AcDbLine
 10
-2819.040661821139
 20
2333.999772355364
 30
0.0
 11
-2819.040661821139
 21
2171.999683277028
 31
0.0
  0
LINE
  5
122
330
1F
100
AcDbEntity
  8
0-6_扉
  6
Continuous
 62
   200
370
    20
100
AcDbLine
 10
-3803.040661821141
 20
2171.999683277028
 30
0.0
 11
-2831.04066182114
 21
2171.999683277028
 31
0.0
  0
LINE
  5
123
330
1F
100
AcDbEntity
  8
0-6_扉
  6
Continuous
 62
   200
370
    20
100
AcDbLine
 10
-4835.040661821142
 20
2333.999772355364
 30
0.0
 11
-3923.040661821141
 21
2333.999772355364
 31
0.0
  0
LINE
  5
124
330
1F
100
AcDbEntity
  8
0-6_扉
  6
Continuous
 62
   200
370
    20
100
AcDbLine
 10
-4835.040661821142
 20
2171.999683277028
 30
0.0
 11
-3923.040661821141
 21
2171.999683277028
 31
0.0
  0
LINE
  5
125
330
1F
100
AcDbEntity
  8
0-6_扉
  6
Continuous
 62
   200
370
    20
100
AcDbLine
 10
-2819.040661821139
 20
2333.999772355364
 30
0.0
 11
-1907.040661821139
 21
2333.999772355364
 31
0.0
  0
LINE
  5
126
330
1F
100
AcDbEntity
  8
0-6_扉
  6
Continuous
 62
   200
370
    20
100
AcDbLine
 10
-2819.040661821139
 20
2171.999683277028
 30
0.0
 11
-1907.040661821139
 21
2171.999683277028
 31
0.0
  0
LINE
  5
127
330
1F
100
AcDbEntity
  8
0-7_金物
  6
Continuous
 62
     7
370
     9
100
AcDbLine
 10
-885.4216458053611
 20
2729.999772355364
 30
0.0
 11
-827.0406618211621
 21
2729.999772355364
 31
0.0
  0
LINE
  5
128
330
1F
100
AcDbEntity
  8
0-7_金物
  6
JWW_DASHED1
 62
     7
370
     9
100
AcDbLine
 10
-1049.040661821145
 20
2333.999772355364
 30
0.0
 11
-1049.040661821145
 21
2270.999772355365
 31
0.0
  0
LINE
  5
129
330
1F
100
AcDbEntity
  8
0-7_金物
  6
JWW_DASHED1
 62
     7
370
     9
100
AcDbLine
 10
-1049.040661821145
 20
2270.999772355365
 30
0.0
 11
-839.0406618211452
 21
2270.999772355365
 31
0.0
  0
LINE
  5
12A
330
1F
100
AcDbEntity
  8
0-7_金物
  6
JWW_DASHED1
 62
     7
370
     9
100
AcDbLine
 10
-839.0406618211452
 20
2333.999772355364
 30
0.0
 11
-839.0406618211452
 21
2270.999772355365
 31
0.0
  0
LINE
  5
12B
330
1F
100
AcDbEntity
  8
0-7_金物
  6
Continuous
 62
     7
370
     9
100
AcDbLine
 10
-1061.040661821144
 20
2351.999772355364
 30
0.0
 11
-1061.040661821144
 21
2333.999772355364
 31
0.0
  0
LINE
  5
12C
330
1F
100
AcDbEntity
  8
0-7_金物
  6
Continuous
 62
     7
370
     9
100
AcDbLine
 10
-941.0406618211437
 20
2351.999772355364
 30
0.0
 11
-1061.040661821144
 21
2351.999772355364
 31
0.0
  0
LINE
  5
12D
330
1F
100
AcDbEntity
  8
0-7_金物
  6
Continuous
 62
     7
370
     9
100
AcDbLine
 10
-941.0406618211437
 20
2351.999772355364
 30
0.0
 11
-941.0406618211437
 21
2333.999772355364
 31
0.0
  0
LINE
  5
12E
330
1F
100
AcDbEntity
  8
0-7_金物
  6
Continuous
 62
     7
370
     9
100
AcDbLine
 10
-1031.040661821162
 20
2351.999772355364
 30
0.0
 11
-1031.040661821162
 21
2376.965583449049
 31
0.0
  0
LINE
  5
12F
330
1F
100
AcDbEntity
  8
0-7_金物
  6
Continuous
 62
     7
370
     9
100
AcDbLine
 10
-935.6683365820311
 20
2447.31112830628
 30
0.0
 11
-1031.040661821162
 21
2376.965583449049
 31
0.0
  0
LINE
  5
130
330
1F
100
AcDbEntity
  8
0-7_金物
  6
Continuous
 62
     7
370
     9
100
AcDbLine
 10
-911.6357700458639
 20
2489.106351651315
 30
0.0
 11
-885.4216458053611
 21
2729.999772355364
 31
0.0
  0
ARC
  5
131
330
1F
100
AcDbEntity
  8
0-7_金物
  6
Continuous
 62
     7
370
     9
100
AcDbCircle
 10
-971.28363786725
 20
2495.597257933358
 30
0.0
 40
60.0
100
AcDbArc
 50
306.4120644035237
 51
353.7894867559143
  0
LINE
  5
132
330
1F
100
AcDbEntity
  8
0-7_金物
  6
Continuous
 62
     7
370
     9
100
AcDbLine
 10
-861.7514698606371
 20
2383.217398185177
 30
0.0
 11
-941.0406618211437
 21
2346.364675161279
 31
0.0
  0
LINE
  5
133
330
1F
100
AcDbEntity
  8
0-7_金物
  6
Continuous
 62
     7
370
     9
100
AcDbLine
 10
-827.0406618211621
 20
2437.627477857822
 30
0.0
 11
-827.0406618211621
 21
2729.999772355364
 31
0.0
  0
ARC
  5
134
330
1F
100
AcDbEntity
  8
0-7_金物
  6
Continuous
 62
     7
370
     9
100
AcDbCircle
 10
-887.0406618211621
 20
2437.627477857822
 30
0.0
 40
60.0
100
AcDbArc
 50
294.9284741354608
 51
0.0000000000000254
  0
LINE
  5
135
330
1F
100
AcDbEntity
  8
0-7_金物
  6
Continuous
 62
     7
370
     9
100
AcDbLine
 10
-827.0406618211621
 20
2666.999772355365
 30
0.0
 11
-803.04066182116
 21
2666.999772355365
 31
0.0
  0
LINE
  5
136
330
1F
100
AcDbEntity
  8
0-7_金物
  6
Continuous
 62
     7
370
     9
100
AcDbLine
 10
-827.0406618211621
 20
2456.999772355365
 30
0.0
 11
-803.0406618211575
 21
2456.999772355365
 31
0.0
  0
LINE
  5
137
330
1F
100
AcDbEntity
  8
0-7_金物
  6
JWW_CENTER1
 62
     7
370
     9
100
AcDbLine
 10
-876.4455369682128
 20
2561.999772355365
 30
0.0
 11
-747.9368953047674
 21
2561.999772355365
 31
0.0
  0
LINE
  5
138
330
1F
100
AcDbEntity
  8
0-7_金物
  6
Continuous
 62
     7
370
     9
100
AcDbLine
 10
-4764.659677836932
 20
2729.999772355364
 30
0.0
 11
-4823.040661821131
 21
2729.999772355364
 31
0.0
  0
LINE
  5
139
330
1F
100
AcDbEntity
  8
0-7_金物
  6
JWW_DASHED1
 62
     7
370
     9
100
AcDbLine
 10
-4601.040661821147
 20
2333.999772355364
 30
0.0
 11
-4601.040661821147
 21
2270.999772355365
 31
0.0
  0
LINE
  5
13A
330
1F
100
AcDbEntity
  8
0-7_金物
  6
JWW_DASHED1
 62
     7
370
     9
100
AcDbLine
 10
-4601.040661821147
 20
2270.999772355365
 30
0.0
 11
-4811.040661821147
 21
2270.999772355365
 31
0.0
  0
LINE
  5
13B
330
1F
100
AcDbEntity
  8
0-7_金物
  6
JWW_DASHED1
 62
     7
370
     9
100
AcDbLine
 10
-4811.040661821147
 20
2333.999772355364
 30
0.0
 11
-4811.040661821147
 21
2270.999772355365
 31
0.0
  0
LINE
  5
13C
330
1F
100
AcDbEntity
  8
0-7_金物
  6
Continuous
 62
     7
370
     9
100
AcDbLine
 10
-4589.040661821147
 20
2351.999772355364
 30
0.0
 11
-4589.040661821147
 21
2333.999772355364
 31
0.0
  0
LINE
  5
13D
330
1F
100
AcDbEntity
  8
0-7_金物
  6
Continuous
 62
     7
370
     9
100
AcDbLine
 10
-4709.040661821147
 20
2351.999772355364
 30
0.0
 11
-4589.040661821147
 21
2351.999772355364
 31
0.0
  0
LINE
  5
13E
330
1F
100
AcDbEntity
  8
0-7_金物
  6
Continuous
 62
     7
370
     9
100
AcDbLine
 10
-4709.040661821147
 20
2351.999772355364
 30
0.0
 11
-4709.040661821147
 21
2333.999772355364
 31
0.0
  0
LINE
  5
13F
330
1F
100
AcDbEntity
  8
0-7_金物
  6
Continuous
 62
     7
370
     9
100
AcDbLine
 10
-4619.040661821131
 20
2351.999772355364
 30
0.0
 11
-4619.040661821131
 21
2376.965583449049
 31
0.0
  0
LINE
  5
140
330
1F
100
AcDbEntity
  8
0-7_金物
  6
Continuous
 62
     7
370
     9
100
AcDbLine
 10
-4714.412987060262
 20
2447.31112830628
 30
0.0
 11
-4619.040661821131
 21
2376.965583449049
 31
0.0
  0
LINE
  5
141
330
1F
100
AcDbEntity
  8
0-7_金物
  6
Continuous
 62
     7
370
     9
100
AcDbLine
 10
-4738.445553596429
 20
2489.106351651315
 30
0.0
 11
-4764.659677836932
 21
2729.999772355364
 31
0.0
  0
ARC
  5
142
330
1F
100
AcDbEntity
  8
0-7_金物
  6
Continuous
 62
     7
370
     9
100
AcDbCircle
 10
-4678.797685775043
 20
2495.597257933358
 30
0.0
 40
60.0
100
AcDbArc
 50
186.2105132440857
 51
233.5879355964763
  0
LINE
  5
143
330
1F
100
AcDbEntity
  8
0-7_金物
  6
Continuous
 62
     7
370
     9
100
AcDbLine
 10
-4788.329853781655
 20
2383.217398185177
 30
0.0
 11
-4709.040661821147
 21
2346.364675161279
 31
0.0
  0
LINE
  5
144
330
1F
100
AcDbEntity
  8
0-7_金物
  6
Continuous
 62
     7
370
     9
100
AcDbLine
 10
-4823.040661821131
 20
2437.627477857822
 30
0.0
 11
-4823.040661821131
 21
2729.999772355364
 31
0.0
  0
ARC
  5
145
330
1F
100
AcDbEntity
  8
0-7_金物
  6
Continuous
 62
     7
370
     9
100
AcDbCircle
 10
-4763.040661821131
 20
2437.627477857822
 30
0.0
 40
60.0
100
AcDbArc
 50
180.0
 51
245.0715258645393
  0
LINE
  5
146
330
1F
100
AcDbEntity
  8
0-7_金物
  6
Continuous
 62
     7
370
     9
100
AcDbLine
 10
-4823.040661821131
 20
2666.999772355365
 30
0.0
 11
-4847.040661821131
 21
2666.999772355365
 31
0.0
  0
LINE
  5
147
330
1F
100
AcDbEntity
  8
0-7_金物
  6
Continuous
 62
     7
370
     9
100
AcDbLine
 10
-4823.040661821131
 20
2456.999772355365
 30
0.0
 11
-4847.040661821135
 21
2456.999772355365
 31
0.0
  0
LINE
  5
148
330
1F
100
AcDbEntity
  8
0-7_金物
  6
JWW_CENTER1
 62
     7
370
     9
100
AcDbLine
 10
-4773.63578667408
 20
2561.999772355365
 30
0.0
 11
-4902.144428337524
 21
2561.999772355365
 31
0.0
  0
LINE
  5
149
330
1F
100
AcDbEntity
  8
0-3_仕上げ
  6
Continuous
 62
    40
370
    15
100
AcDbLine
 10
-623.0400679655816
 20
2195.999683277028
 30
0.0
 11
-263.0400679655816
 21
2195.999683277028
 31
0.0
  0
LINE
  5
14A
330
1F
100
AcDbEntity
  8
0-3_仕上げ
  6
Continuous
 62
    40
370
    15
100
AcDbLine
 10
-623.0400679655816
 20
2270.999930716853
 30
0.0
 11
-263.0400679655816
 21
2270.999930716853
 31
0.0
  0
LINE
  5
14B
330
1F
100
AcDbEntity
  8
0-B_寸法
  6
Continuous
 62
   120
370
     5
100
AcDbLine
 10
-23.04006796558156
 20
2123.999683277028
 30
0.0
 11
-23.04006796558156
 21
2171.999683277028
 31
0.0
  0
LWPOLYLINE
  5
14C
330
1F
100
AcDbEntity
  8
0-B_寸法
  6
Continuous
 62
     7
370
     9
100
AcDbPolyline
 90
        4
 70
     1
 43
3.0
 10
-21.54006796558156
 20
2123.999683277028
 42
0.4142135623731
 10
-23.04006796558156
 20
2125.499683277028
 42
0.4142135623731
 10
-24.54006796558156
 20
2123.999683277028
 42
0.4142135623731
 10
-23.04006796558156
 20
2122.499683277029
 42
0.4142135623731
  0
LWPOLYLINE
  5
14D
330
1F
100
AcDbEntity
  8
0-B_寸法
  6
Continuous
 62
     7
370
     9
100
AcDbPolyline
 90
        4
 70
     1
 43
3.0
 10
-21.54006796558156
 20
2171.999683277028
 42
0.4142135623731
 10
-23.04006796558156
 20
2173.499683277028
 42
0.4142135623731
 10
-24.54006796558156
 20
2171.999683277028
 42
0.4142135623731
 10
-23.04006796558156
 20
2170.499683277028
 42
0.4142135623731
  0
LINE
  5
14E
330
1F
100
AcDbEntity
  8
0-B_寸法
  6
Continuous
 62
   120
370
     5
100
AcDbLine
 10
-23.04006796558156
 20
2123.999683277028
 30
0.0
 11
-203.0400679655816
 21
2123.999683277028
 31
0.0
  0
LINE
  5
14F
330
1F
100
AcDbEntity
  8
0-B_寸法
  6
Continuous
 62
   120
370
     5
100
AcDbLine
 10
-23.04006796558156
 20
2171.999683277028
 30
0.0
 11
-203.0400679655816
 21
2171.999683277028
 31
0.0
  0
MTEXT
  5
150
330
1F
100
AcDbEntity
  8
0-B_寸法
  6
Continuous
 62
     7
370
   211
100
AcDbMText
 10
-38.04006796558156
 20
2103.719683277028
 30
0.0
 40
91.44
 41
60.0
 46
0.0
 71
     7
 72
     1
  1
{\fＭＳ ゴシック|b0|i0|c128|p49;8}
 11
6.123031769111886E-17
 21
1.0
 31
0.0
 73
     1
 44
1.0
  0
LINE
  5
151
330
1F
100
AcDbEntity
  8
0-B_寸法
  6
Continuous
 62
   120
370
     5
100
AcDbLine
 10
-23.04006796558156
 20
2171.999683277028
 30
0.0
 11
-23.04006796558156
 21
2333.999772355364
 31
0.0
  0
LWPOLYLINE
  5
152
330
1F
100
AcDbEntity
  8
0-B_寸法
  6
Continuous
 62
     7
370
     9
100
AcDbPolyline
 90
        4
 70
     1
 43
3.0
 10
-21.54006796558156
 20
2333.999772355364
 42
0.4142135623731
 10
-23.04006796558156
 20
2335.499772355364
 42
0.4142135623731
 10
-24.54006796558156
 20
2333.999772355364
 42
0.4142135623731
 10
-23.04006796558156
 20
2332.499772355364
 42
0.4142135623731
  0
LINE
  5
153
330
1F
100
AcDbEntity
  8
0-B_寸法
  6
Continuous
 62
   120
370
     5
100
AcDbLine
 10
-23.04006796558156
 20
2333.999772355364
 30
0.0
 11
-203.0400679655816
 21
2333.999772355364
 31
0.0
  0
MTEXT
  5
154
330
1F
100
AcDbEntity
  8
0-B_寸法
  6
Continuous
 62
     7
370
   211
100
AcDbMText
 10
-38.04006796558156
 20
2177.827227816196
 30
0.0
 40
97.15499999999999
 41
127.5
 46
0.0
 71
     7
 72
     1
  1
{\fＭＳ ゴシック|b0|i0|c128|p49;27}
 11
6.123031769111886E-17
 21
1.0
 31
0.0
 73
     1
 44
1.0
  0
LINE
  5
155
330
1F
100
AcDbEntity
  8
0-C_ハッチ
  6
JWW_DASHED1
 62
   120
370
     5
100
AcDbLine
 10
-423.3501925432813
 20
2195.999683277028
 30
0.0
 11
-348.3499451034595
 21
2270.999930716853
 31
0.0
  0
LINE
  5
156
330
1F
100
AcDbEntity
  8
0-C_ハッチ
  6
JWW_DASHED1
 62
   120
370
     5
100
AcDbLine
 10
-380.9236656746157
 20
2195.999683277028
 30
0.0
 11
-305.9234182347939
 21
2270.999930716853
 31
0.0
  0
LINE
  5
157
330
1F
100
AcDbEntity
  8
0-C_ハッチ
  6
JWW_DASHED1
 62
   120
370
     5
100
AcDbLine
 10
-338.49713880595
 20
2195.999683277028
 30
0.0
 11
-263.4968913661282
 21
2270.999930716853
 31
0.0
  0
LINE
  5
158
330
1F
100
AcDbEntity
  8
0-C_ハッチ
  6
JWW_DASHED1
 62
   120
370
     5
100
AcDbLine
 10
-296.0706119372844
 20
2195.999683277028
 30
0.0
 11
-263.0400679655816
 21
2229.030227248733
 31
0.0
  0
LINE
  5
159
330
1F
100
AcDbEntity
  8
0-3_仕上げ
  6
Continuous
 62
    40
370
    15
100
AcDbLine
 10
-5027.040884516975
 20
2270.999930716853
 30
0.0
 11
-5387.041255676696
 21
2270.999930716853
 31
0.0
  0
LINE
  5
15A
330
1F
100
AcDbEntity
  8
0-3_仕上げ
  6
Continuous
 62
    40
370
    15
100
AcDbLine
 10
-5027.040884516975
 20
2195.999683277028
 30
0.0
 11
-5387.041255676696
 21
2195.999683277028
 31
0.0
  0
LINE
  5
15B
330
1F
100
AcDbEntity
  8
0-1_通り芯
  6
JWW_CENTER1
 62
   120
370
     5
100
AcDbLine
 10
-263.0400679655816
 20
2438.999683277028
 30
0.0
 11
-5387.041255676696
 21
2438.999683277028
 31
0.0
  0
LINE
  5
15C
330
1F
100
AcDbEntity
  8
0-C_ハッチ
  6
JWW_DASHED1
 62
   120
370
     5
100
AcDbLine
 10
-5387.041255676696
 20
2236.32626260295
 30
0.0
 11
-5352.367587562792
 21
2270.999930716853
 31
0.0
  0
LINE
  5
15D
330
1F
100
AcDbEntity
  8
0-0_補助線
  6
JWW_HOJO
 62
   120
370
     5
100
AcDbLine
 10
-23.04006796558156
 20
1943.999683277028
 30
0.0
 11
-5387.041255676696
 21
1943.999683277028
 31
0.0
  0
LINE
  5
15E
330
1F
100
AcDbEntity
  8
0-0_補助線
  6
JWW_HOJO
 62
   120
370
     5
100
AcDbLine
 10
-23.04006796558156
 20
1550.999648635452
 30
0.0
 11
-5387.041255676696
 21
1550.999648635452
 31
0.0
  0
LINE
  5
15F
330
1F
100
AcDbEntity
  8
0-0_補助線
  6
JWW_HOJO
 62
   120
370
     5
100
AcDbLine
 10
-23.04006796558156
 20
2946.000445391029
 30
0.0
 11
-5387.041255676696
 21
2946.000445391029
 31
0.0
  0
LINE
  5
160
330
1F
100
AcDbEntity
  8
0-0_補助線
  6
JWW_HOJO
 62
   120
370
     5
100
AcDbLine
 10
-5387.041255676696
 20
980.9992032437724
 30
0.0
 11
-23.04006796558156
 21
980.9992032437724
 31
0.0
  0
LINE
  5
161
330
1F
100
AcDbEntity
  8
0-0_補助線
  6
JWW_HOJO
 62
   120
370
     5
100
AcDbLine
 10
-5387.041255676696
 20
1190.999648635452
 30
0.0
 11
-23.04006796558156
 21
1190.999648635452
 31
0.0
  0
LINE
  5
162
330
1F
100
AcDbEntity
  8
0-0_補助線
  6
JWW_HOJO
 62
   120
370
     5
100
AcDbLine
 10
-23.04006796558156
 20
1370.999648635452
 30
0.0
 11
-5387.041255676696
 21
1370.999648635452
 31
0.0
  0
MTEXT
  5
163
330
1F
100
AcDbEntity
  8
0-A_文字
  6
Continuous
 62
     7
370
     9
100
AcDbMText
 10
-5375.978274287697
 20
3047.661009999628
 30
0.0
 40
91.4399999999998
 41
1919.999999999997
 46
0.0
 71
     7
 72
     1
  1
{\fＭＳ ゴシック|b0|i0|c128|p49;■横断面図　Ｈ＝８尺、７尺、６尺}
 73
     1
 44
1.0
  0
LINE
  5
164
330
1F
100
AcDbEntity
  8
0-0_補助線
  6
JWW_HOJO
 62
   120
370
     5
100
AcDbLine
 10
5646.877599043863
 20
2946.000445391029
 30
0.0
 11
5646.877599043863
 21
1190.999648635452
 31
0.0
  0
LINE
  5
165
330
1F
100
AcDbEntity
  8
0-C_ハッチ
  6
Continuous
 62
   120
370
     5
100
AcDbLine
 10
4953.998810890763
 20
2123.999683277028
 30
0.0
 11
5046.877599043866
 21
2216.878471430144
 31
0.0
  0
LINE
  5
166
330
1F
100
AcDbEntity
  8
0-C_ハッチ
  6
Continuous
 62
   120
370
     5
100
AcDbLine
 10
5013.395780510415
 20
2123.999683277028
 30
0.0
 11
5046.877599043866
 21
2157.481501810485
 31
0.0
  0
LINE
  5
167
330
1F
100
AcDbEntity
  8
0-C_ハッチ
  6
Continuous
 62
   120
370
     5
100
AcDbLine
 10
4894.601841271106
 20
2123.999683277028
 30
0.0
 11
5046.877599043879
 21
2276.275441049802
 31
0.0
  0
ARC
  5
168
330
1F
100
AcDbEntity
  8
0-4_枠
  6
Continuous
 62
    92
370
    13
100
AcDbCircle
 10
792.8770051883091
 20
2723.999683277028
 30
0.0
 40
30.0
100
AcDbArc
 50
0.0
 51
90.00000000000001
  0
LINE
  5
169
330
1F
100
AcDbEntity
  8
0-C_ハッチ
  6
Continuous
 62
   120
370
     5
100
AcDbLine
 10
642.876782492465
 20
2304.321325183303
 30
0.0
 11
822.8770051883091
 21
2484.321547879145
 31
0.0
  0
LINE
  5
16A
330
1F
100
AcDbEntity
  8
0-C_ハッチ
  6
Continuous
 62
   120
370
     5
100
AcDbLine
 10
642.876782492465
 20
2363.718294803005
 30
0.0
 11
822.8770051883091
 21
2543.718517498847
 31
0.0
  0
LINE
  5
16B
330
1F
100
AcDbEntity
  8
0-C_ハッチ
  6
Continuous
 62
   120
370
     5
100
AcDbLine
 10
642.8767824924608
 20
2423.115264422648
 30
0.0
 11
822.8770051883049
 21
2603.115487118491
 31
0.0
  0
LINE
  5
16C
330
1F
100
AcDbEntity
  8
0-C_ハッチ
  6
Continuous
 62
   120
370
     5
100
AcDbLine
 10
642.8767824924608
 20
2482.51223404235
 30
0.0
 11
822.8770051883049
 21
2662.512456738193
 31
0.0
  0
LINE
  5
16D
330
1F
100
AcDbEntity
  8
0-C_ハッチ
  6
Continuous
 62
   120
370
     5
100
AcDbLine
 10
642.8767824924582
 20
2541.909203661993
 30
0.0
 11
822.8770051883023
 21
2721.909426357837
 31
0.0
  0
LINE
  5
16E
330
1F
100
AcDbEntity
  8
0-C_ハッチ
  6
Continuous
 62
   120
370
     5
100
AcDbLine
 10
642.8767824924745
 20
2601.306173281711
 30
0.0
 11
795.5702924877826
 21
2753.99968327702
 31
0.0
  0
LINE
  5
16F
330
1F
100
AcDbEntity
  8
0-4_枠
  6
Continuous
 62
    92
370
    13
100
AcDbLine
 10
792.8770051883091
 20
2753.999683277028
 30
0.0
 11
642.8767824924677
 21
2753.999683277028
 31
0.0
  0
LINE
  5
170
330
1F
100
AcDbEntity
  8
0-C_ハッチ
  6
Continuous
 62
   120
370
     5
100
AcDbLine
 10
642.8767824924719
 20
2660.703142901355
 30
0.0
 11
736.1733228681421
 21
2753.999683277026
 31
0.0
  0
LINE
  5
171
330
1F
100
AcDbEntity
  8
0-C_ハッチ
  6
Continuous
 62
   120
370
     5
100
AcDbLine
 10
642.8767824924677
 20
2720.100112520999
 30
0.0
 11
676.7763532484975
 21
2753.999683277029
 31
0.0
  0
LINE
  5
172
330
1F
100
AcDbEntity
  8
0-4_枠
  6
Continuous
 62
    92
370
    13
100
AcDbLine
 10
5046.877599043863
 20
2753.999683277028
 30
0.0
 11
4896.877005188288
 21
2753.999683277028
 31
0.0
  0
ARC
  5
173
330
1F
100
AcDbEntity
  8
0-4_枠
  6
Continuous
 62
    92
370
    13
100
AcDbCircle
 10
4896.877005188288
 20
2723.999683277028
 30
0.0
 40
30.0
100
AcDbArc
 50
90.0
 51
180.0
  0
LINE
  5
174
330
1F
100
AcDbEntity
  8
0-C_ハッチ
  6
Continuous
 62
   120
370
     5
100
AcDbLine
 10
4866.87700518829
 20
2274.465756053212
 30
0.0
 11
5046.877599043856
 21
2454.466349908775
 31
0.0
  0
LINE
  5
175
330
1F
100
AcDbEntity
  8
0-C_ハッチ
  6
Continuous
 62
   120
370
     5
100
AcDbLine
 10
4866.87700518829
 20
2333.862725672914
 30
0.0
 11
5046.877599043872
 21
2513.863319528494
 31
0.0
  0
LINE
  5
176
330
1F
100
AcDbEntity
  8
0-C_ハッチ
  6
Continuous
 62
   120
370
     5
100
AcDbLine
 10
4866.877005188304
 20
2393.259695292573
 30
0.0
 11
5046.877599043883
 21
2573.260289148153
 31
0.0
  0
LINE
  5
177
330
1F
100
AcDbEntity
  8
0-C_ハッチ
  6
Continuous
 62
   120
370
     5
100
AcDbLine
 10
4866.877005188283
 20
2452.656664912201
 30
0.0
 11
5046.877599043865
 21
2632.65725876778
 31
0.0
  0
LINE
  5
178
330
1F
100
AcDbEntity
  8
0-C_ハッチ
  6
Continuous
 62
   120
370
     5
100
AcDbLine
 10
4866.877005188302
 20
2512.053634531918
 30
0.0
 11
5046.877599043881
 21
2692.054228387499
 31
0.0
  0
LINE
  5
179
330
1F
100
AcDbEntity
  8
0-C_ハッチ
  6
Continuous
 62
   120
370
     5
100
AcDbLine
 10
4866.877005188297
 20
2571.450604151562
 30
0.0
 11
5046.877599043862
 21
2751.451198007126
 31
0.0
  0
LINE
  5
17A
330
1F
100
AcDbEntity
  8
0-C_ハッチ
  6
Continuous
 62
   120
370
     5
100
AcDbLine
 10
4866.877005188297
 20
2630.847573771265
 30
0.0
 11
4990.029114694049
 21
2753.999683277015
 31
0.0
  0
LINE
  5
17B
330
1F
100
AcDbEntity
  8
0-C_ハッチ
  6
Continuous
 62
   120
370
     5
100
AcDbLine
 10
4866.877005188308
 20
2690.244543390922
 30
0.0
 11
4930.632145074397
 21
2753.999683277012
 31
0.0
  0
LINE
  5
17C
330
1F
100
AcDbEntity
  8
0-0_補助線
  6
JWW_HOJO
 62
   120
370
     5
100
AcDbLine
 10
1866.877005188302
 20
2933.999683277028
 30
0.0
 11
1866.877005188302
 21
1943.999683277028
 31
0.0
  0
LINE
  5
17D
330
1F
100
AcDbEntity
  8
0-0_補助線
  6
JWW_HOJO
 62
   120
370
     5
100
AcDbLine
 10
3882.877005188305
 20
2933.999683277028
 30
0.0
 11
3882.877005188305
 21
1943.999683277028
 31
0.0
  0
LINE
  5
17E
330
1F
100
AcDbEntity
  8
0-0_補助線
  6
JWW_HOJO
 62
   120
370
     5
100
AcDbLine
 10
1746.877005188302
 20
2933.999683277028
 30
0.0
 11
1746.877005188302
 21
1943.999683277028
 31
0.0
  0
LINE
  5
17F
330
1F
100
AcDbEntity
  8
0-0_補助線
  6
JWW_HOJO
 62
   120
370
     5
100
AcDbLine
 10
3762.877005188305
 20
2933.999683277028
 30
0.0
 11
3762.877005188305
 21
1943.999683277028
 31
0.0
  0
LWPOLYLINE
  5
180
330
1F
100
AcDbEntity
  8
0-B_寸法
  6
Continuous
 62
     7
370
     9
100
AcDbPolyline
 90
        4
 70
     1
 43
3.0
 10
644.3767824924677
 20
1190.999648635452
 42
0.4142135623731
 10
642.8767824924677
 20
1192.499648635452
 42
0.4142135623731
 10
641.3767824924677
 20
1190.999648635452
 42
0.4142135623731
 10
642.8767824924677
 20
1189.499648635453
 42
0.4142135623731
  0
LWPOLYLINE
  5
181
330
1F
100
AcDbEntity
  8
0-B_寸法
  6
Continuous
 62
     7
370
     9
100
AcDbPolyline
 90
        4
 70
     1
 43
3.0
 10
5048.377599043863
 20
1190.999648635452
 42
0.4142135623731
 10
5046.877599043863
 20
1192.499648635452
 42
0.4142135623731
 10
5045.377599043863
 20
1190.999648635452
 42
0.4142135623731
 10
5046.877599043863
 20
1189.499648635453
 42
0.4142135623731
  0
LINE
  5
182
330
1F
100
AcDbEntity
  8
0-B_寸法
  6
Continuous
 62
   120
370
     5
100
AcDbLine
 10
2838.877005188303
 20
1550.999648635452
 30
0.0
 11
2838.877005188303
 21
1943.999683277028
 31
0.0
  0
LINE
  5
183
330
1F
100
AcDbEntity
  8
0-B_寸法
  6
Continuous
 62
   120
370
     5
100
AcDbLine
 10
2850.877005188306
 20
1550.999648635452
 30
0.0
 11
2850.877005188306
 21
1943.999683277028
 31
0.0
  0
MTEXT
  5
184
330
1F
100
AcDbEntity
  8
0-B_寸法
  6
Continuous
 62
     7
370
     0
100
AcDbMText
 10
2574.877190768165
 20
1188.719203243772
 30
0.0
 40
91.43999999999998
 41
540.0
 46
0.0
 71
     7
 72
     1
  1
{\fＭＳ ゴシック|b0|i0|c128|p49;枠外＝734}
 73
     1
 44
1.0
  0
MTEXT
  5
185
330
1F
100
AcDbEntity
  8
0-B_寸法
  6
Continuous
 62
     7
370
     0
100
AcDbMText
 10
2574.877190768165
 20
1368.719425939612
 30
0.0
 40
91.43999999999998
 41
540.0
 46
0.0
 71
     7
 72
     1
  1
{\fＭＳ ゴシック|b0|i0|c128|p49;枠内＝674}
 73
     1
 44
1.0
  0
MTEXT
  5
186
330
1F
100
AcDbEntity
  8
0-B_寸法
  6
Continuous
 62
     7
370
   211
100
AcDbMText
 10
3582.877005188303
 20
1551.719648635452
 30
0.0
 40
91.43999999999998
 41
540.0
 46
0.0
 71
     7
 72
     1
  1
{\fＭＳ ゴシック|b0|i0|c128|p49;ＤＷ＝334}
 73
     1
 44
1.0
  0
LINE
  5
187
330
1F
100
AcDbEntity
  8
0-B_寸法
  6
Continuous
 62
   120
370
     5
100
AcDbLine
 10
5046.877599043863
 20
1943.999683277028
 30
0.0
 11
5046.877599043863
 21
1190.999203243772
 31
0.0
  0
LINE
  5
188
330
1F
100
AcDbEntity
  8
0-B_寸法
  6
Continuous
 62
   120
370
     5
100
AcDbLine
 10
4866.877747507757
 20
1943.999683277028
 30
0.0
 11
4866.877747507757
 21
1370.999425939612
 31
0.0
  0
LINE
  5
189
330
1F
100
AcDbEntity
  8
0-B_寸法
  6
Continuous
 62
   120
370
     5
100
AcDbLine
 10
4854.877005188306
 20
1550.999648635452
 30
0.0
 11
4854.877005188306
 21
1943.999683277028
 31
0.0
  0
LINE
  5
18A
330
1F
100
AcDbEntity
  8
0-B_寸法
  6
Continuous
 62
   120
370
     5
100
AcDbLine
 10
834.8770051883008
 20
1550.999648635452
 30
0.0
 11
834.8770051883008
 21
1943.999683277028
 31
0.0
  0
LINE
  5
18B
330
1F
100
AcDbEntity
  8
0-B_寸法
  6
Continuous
 62
   120
370
     5
100
AcDbLine
 10
822.8766340285739
 20
1943.999683277028
 30
0.0
 11
822.8766340285739
 21
1370.999425939612
 31
0.0
  0
LINE
  5
18C
330
1F
100
AcDbEntity
  8
0-B_寸法
  6
Continuous
 62
   120
370
     5
100
AcDbLine
 10
642.8767824924677
 20
1190.999203243772
 30
0.0
 11
642.8767824924677
 21
1943.999683277028
 31
0.0
  0
MTEXT
  5
18D
330
1F
100
AcDbEntity
  8
0-B_寸法
  6
Continuous
 62
     7
370
   211
100
AcDbMText
 10
1566.877005188302
 20
1551.719648635452
 30
0.0
 40
91.43999999999998
 41
540.0
 46
0.0
 71
     7
 72
     1
  1
{\fＭＳ ゴシック|b0|i0|c128|p49;ＤＷ＝334}
 73
     1
 44
1.0
  0
LINE
  5
18E
330
1F
100
AcDbEntity
  8
0-B_寸法
  6
Continuous
 62
   120
370
     5
100
AcDbLine
 10
4866.877747507757
 20
1550.999648635452
 30
0.0
 11
822.8766340285739
 21
1550.999648635452
 31
0.0
  0
LINE
  5
18F
330
1F
100
AcDbEntity
  8
0-B_寸法
  6
Continuous
 62
   120
370
     5
100
AcDbLine
 10
642.8767824924677
 20
1190.999203243772
 30
0.0
 11
5046.877599043863
 21
1190.999203243772
 31
0.0
  0
LINE
  5
190
330
1F
100
AcDbEntity
  8
0-B_寸法
  6
Continuous
 62
   120
370
     5
100
AcDbLine
 10
642.8767824924677
 20
1370.999425939612
 30
0.0
 11
5046.877599043863
 21
1370.999425939612
 31
0.0
  0
MTEXT
  5
191
330
1F
100
AcDbEntity
  8
0-B_寸法
  6
Continuous
 62
     7
370
     0
100
AcDbMText
 10
4893.127846483685
 20
1371.719475427577
 30
0.0
 40
91.44
 41
120.0
 46
0.0
 71
     7
 72
     1
  1
{\fＭＳ ゴシック|b0|i0|c128|p49;30}
 73
     1
 44
1.0
  0
MTEXT
  5
192
330
1F
100
AcDbEntity
  8
0-B_寸法
  6
Continuous
 62
     7
370
   211
100
AcDbMText
 10
4792.230404734916
 20
1551.719648635452
 30
0.0
 40
91.44
 41
60.0
 46
0.0
 71
     7
 72
     1
  1
{\fＭＳ ゴシック|b0|i0|c128|p49;2}
 73
     1
 44
1.0
  0
LINE
  5
193
330
1F
100
AcDbEntity
  8
0-B_寸法
  6
Continuous
 62
   120
370
     5
100
AcDbLine
 10
4866.87700518829
 20
1550.999648635452
 30
0.0
 11
4866.87700518829
 21
1880.999920819258
 31
0.0
  0
LWPOLYLINE
  5
194
330
1F
100
AcDbEntity
  8
0-B_寸法
  6
Continuous
 62
     7
370
     9
100
AcDbPolyline
 90
        4
 70
     1
 43
3.0
 10
4868.37700518829
 20
1550.999648635452
 42
0.4142135623731
 10
4866.87700518829
 20
1552.499648635452
 42
0.4142135623731
 10
4865.377005188289
 20
1550.999648635452
 42
0.4142135623731
 10
4866.87700518829
 20
1549.499648635453
 42
0.4142135623731
  0
LWPOLYLINE
  5
195
330
1F
100
AcDbEntity
  8
0-B_寸法
  6
Continuous
 62
     7
370
     9
100
AcDbPolyline
 90
        4
 70
     1
 43
3.0
 10
4856.377005188307
 20
1550.999648635452
 42
0.4142135623731
 10
4854.877005188306
 20
1552.499648635452
 42
0.4142135623731
 10
4853.377005188306
 20
1550.999648635452
 42
0.4142135623731
 10
4854.877005188306
 20
1549.499648635453
 42
0.4142135623731
  0
LWPOLYLINE
  5
196
330
1F
100
AcDbEntity
  8
0-B_寸法
  6
Continuous
 62
     7
370
     9
100
AcDbPolyline
 90
        4
 70
     1
 43
3.0
 10
5048.377599043863
 20
1370.999425939612
 42
0.4142135623731
 10
5046.877599043863
 20
1372.499425939612
 42
0.4142135623731
 10
5045.377599043863
 20
1370.999425939612
 42
0.4142135623731
 10
5046.877599043863
 20
1369.499425939612
 42
0.4142135623731
  0
LWPOLYLINE
  5
197
330
1F
100
AcDbEntity
  8
0-B_寸法
  6
Continuous
 62
     7
370
     9
100
AcDbPolyline
 90
        4
 70
     1
 43
3.0
 10
5048.377599043863
 20
1190.999203243772
 42
0.4142135623731
 10
5046.877599043863
 20
1192.499203243772
 42
0.4142135623731
 10
5045.377599043863
 20
1190.999203243772
 42
0.4142135623731
 10
5046.877599043863
 20
1189.499203243772
 42
0.4142135623731
  0
LWPOLYLINE
  5
198
330
1F
100
AcDbEntity
  8
0-B_寸法
  6
Continuous
 62
     7
370
     9
100
AcDbPolyline
 90
        4
 70
     1
 43
3.0
 10
4868.377747507758
 20
1370.999425939612
 42
0.4142135623731
 10
4866.877747507757
 20
1372.499425939612
 42
0.4142135623731
 10
4865.377747507757
 20
1370.999425939612
 42
0.4142135623731
 10
4866.877747507757
 20
1369.499425939612
 42
0.4142135623731
  0
MTEXT
  5
199
330
1F
100
AcDbEntity
  8
0-B_寸法
  6
Continuous
 62
     7
370
   211
100
AcDbMText
 10
2856.046631653006
 20
1551.719648635452
 30
0.0
 40
91.44
 41
60.0
 46
0.0
 71
     7
 72
     1
  1
{\fＭＳ ゴシック|b0|i0|c128|p49;2}
 73
     1
 44
1.0
  0
LWPOLYLINE
  5
19A
330
1F
100
AcDbEntity
  8
0-B_寸法
  6
Continuous
 62
     7
370
     9
100
AcDbPolyline
 90
        4
 70
     1
 43
3.0
 10
2852.377005188306
 20
1550.999648635452
 42
0.4142135623731
 10
2850.877005188306
 20
1552.499648635452
 42
0.4142135623731
 10
2849.377005188306
 20
1550.999648635452
 42
0.4142135623731
 10
2850.877005188306
 20
1549.499648635453
 42
0.4142135623731
  0
LWPOLYLINE
  5
19B
330
1F
100
AcDbEntity
  8
0-B_寸法
  6
Continuous
 62
     7
370
     9
100
AcDbPolyline
 90
        4
 70
     1
 43
3.0
 10
2840.377005188303
 20
1550.999648635452
 42
0.4142135623731
 10
2838.877005188303
 20
1552.499648635452
 42
0.4142135623731
 10
2837.377005188303
 20
1550.999648635452
 42
0.4142135623731
 10
2838.877005188303
 20
1549.499648635453
 42
0.4142135623731
  0
MTEXT
  5
19C
330
1F
100
AcDbEntity
  8
0-B_寸法
  6
Continuous
 62
     7
370
     0
100
AcDbMText
 10
669.126695888531
 20
1371.719475427577
 30
0.0
 40
91.44
 41
120.0
 46
0.0
 71
     7
 72
     1
  1
{\fＭＳ ゴシック|b0|i0|c128|p49;30}
 73
     1
 44
1.0
  0
MTEXT
  5
19D
330
1F
100
AcDbEntity
  8
0-B_寸法
  6
Continuous
 62
     7
370
   211
100
AcDbMText
 10
836.5981641587445
 20
1551.719648635452
 30
0.0
 40
91.44
 41
60.0
 46
0.0
 71
     7
 72
     1
  1
{\fＭＳ ゴシック|b0|i0|c128|p49;2}
 73
     1
 44
1.0
  0
LWPOLYLINE
  5
19E
330
1F
100
AcDbEntity
  8
0-B_寸法
  6
Continuous
 62
     7
370
     9
100
AcDbPolyline
 90
        4
 70
     1
 43
3.0
 10
836.3770051883008
 20
1550.999648635452
 42
0.4142135623731
 10
834.8770051883008
 20
1552.499648635452
 42
0.4142135623731
 10
833.3770051883008
 20
1550.999648635452
 42
0.4142135623731
 10
834.8770051883008
 20
1549.499648635453
 42
0.4142135623731
  0
LWPOLYLINE
  5
19F
330
1F
100
AcDbEntity
  8
0-B_寸法
  6
Continuous
 62
     7
370
     9
100
AcDbPolyline
 90
        4
 70
     1
 43
3.0
 10
824.3766340285739
 20
1550.999648635452
 42
0.4142135623731
 10
822.8766340285739
 20
1552.499648635452
 42
0.4142135623731
 10
821.3766340285739
 20
1550.999648635452
 42
0.4142135623731
 10
822.8766340285739
 20
1549.499648635453
 42
0.4142135623731
  0
LWPOLYLINE
  5
1A0
330
1F
100
AcDbEntity
  8
0-B_寸法
  6
Continuous
 62
     7
370
     9
100
AcDbPolyline
 90
        4
 70
     1
 43
3.0
 10
644.3767824924677
 20
1370.999425939612
 42
0.4142135623731
 10
642.8767824924677
 20
1372.499425939612
 42
0.4142135623731
 10
641.3767824924677
 20
1370.999425939612
 42
0.4142135623731
 10
642.8767824924677
 20
1369.499425939612
 42
0.4142135623731
  0
LWPOLYLINE
  5
1A1
330
1F
100
AcDbEntity
  8
0-B_寸法
  6
Continuous
 62
     7
370
     9
100
AcDbPolyline
 90
        4
 70
     1
 43
3.0
 10
824.3766340285739
 20
1370.999425939612
 42
0.4142135623731
 10
822.8766340285739
 20
1372.499425939612
 42
0.4142135623731
 10
821.3766340285739
 20
1370.999425939612
 42
0.4142135623731
 10
822.8766340285739
 20
1369.499425939612
 42
0.4142135623731
  0
LWPOLYLINE
  5
1A2
330
1F
100
AcDbEntity
  8
0-B_寸法
  6
Continuous
 62
     7
370
     9
100
AcDbPolyline
 90
        4
 70
     1
 43
3.0
 10
644.3767824924677
 20
1190.999203243772
 42
0.4142135623731
 10
642.8767824924677
 20
1192.499203243772
 42
0.4142135623731
 10
641.3767824924677
 20
1190.999203243772
 42
0.4142135623731
 10
642.8767824924677
 20
1189.499203243772
 42
0.4142135623731
  0
ARC
  5
1A3
330
1F
100
AcDbEntity
  8
0-4_枠
  6
Continuous
 62
    92
370
    13
100
AcDbCircle
 10
804.8768715708027
 20
2141.999445734799
 30
0.0
 40
17.99999878213213
100
AcDbArc
 50
270.0
 51
0.0
  0
LINE
  5
1A4
330
1F
100
AcDbEntity
  8
0-4_枠
  6
Continuous
 62
    92
370
    13
100
AcDbLine
 10
822.8770051883091
 20
2723.999683277028
 30
0.0
 11
822.8770051883091
 21
2141.999445734799
 31
0.0
  0
LINE
  5
1A5
330
1F
100
AcDbEntity
  8
0-4_枠
  6
Continuous
 62
    92
370
    13
100
AcDbLine
 10
804.8768715708027
 20
2123.999683277028
 30
0.0
 11
642.8767824924677
 21
2123.999683277028
 31
0.0
  0
LINE
  5
1A6
330
1F
100
AcDbEntity
  8
0-4_枠
  6
Continuous
 62
    92
370
    13
100
AcDbLine
 10
642.8767824924677
 20
2123.999683277028
 30
0.0
 11
642.8767824924677
 21
2753.999683277028
 31
0.0
  0
LINE
  5
1A7
330
1F
100
AcDbEntity
  8
0-4_枠
  6
Continuous
 62
    92
370
    13
100
AcDbLine
 10
5046.877599043863
 20
2123.999683277028
 30
0.0
 11
5046.877599043863
 21
2753.999683277028
 31
0.0
  0
LINE
  5
1A8
330
1F
100
AcDbEntity
  8
0-4_枠
  6
Continuous
 62
    92
370
    13
100
AcDbLine
 10
5046.877599043863
 20
2123.999683277028
 30
0.0
 11
4884.877509965526
 21
2123.999683277028
 31
0.0
  0
ARC
  5
1A9
330
1F
100
AcDbEntity
  8
0-4_枠
  6
Continuous
 62
    92
370
    13
100
AcDbCircle
 10
4884.877509965526
 20
2141.999445734799
 30
0.0
 40
17.99999878213213
100
AcDbArc
 50
180.0
 51
270.0
  0
LINE
  5
1AA
330
1F
100
AcDbEntity
  8
0-4_枠
  6
Continuous
 62
    92
370
    13
100
AcDbLine
 10
4866.877005188288
 20
2723.999683277028
 30
0.0
 11
4866.877005188288
 21
2141.999445734799
 31
0.0
  0
LINE
  5
1AB
330
1F
100
AcDbEntity
  8
0-C_ハッチ
  6
Continuous
 62
   120
370
     5
100
AcDbLine
 10
822.8770051883023
 20
2424.924578259493
 30
0.0
 11
642.8767824924677
 21
2244.924355563659
 31
0.0
  0
LINE
  5
1AC
330
1F
100
AcDbEntity
  8
0-C_ハッチ
  6
Continuous
 62
   120
370
     5
100
AcDbLine
 10
822.8770051882981
 20
2306.13063902014
 30
0.0
 11
642.8767824924677
 21
2126.13041632431
 31
0.0
  0
LINE
  5
1AD
330
1F
100
AcDbEntity
  8
0-C_ハッチ
  6
Continuous
 62
   120
370
     5
100
AcDbLine
 10
822.8770051883159
 20
2365.527608639859
 30
0.0
 11
642.8767824924677
 21
2185.527385944011
 31
0.0
  0
LINE
  5
1AE
330
1F
100
AcDbEntity
  8
0-C_ハッチ
  6
Continuous
 62
   120
370
     5
100
AcDbLine
 10
700.1430190648375
 20
2123.999683277028
 30
0.0
 11
822.8770051883023
 21
2246.733669400497
 31
0.0
  0
LINE
  5
1AF
330
1F
100
AcDbEntity
  8
0-C_ハッチ
  6
Continuous
 62
   120
370
     5
100
AcDbLine
 10
759.5399886844805
 20
2123.999683277028
 30
0.0
 11
822.8770051883023
 21
2187.336699780853
 31
0.0
  0
LINE
  5
1B0
330
1F
100
AcDbEntity
  8
0-C_ハッチ
  6
Continuous
 62
   120
370
     5
100
AcDbLine
 10
4866.877005188288
 20
2215.068786433561
 30
0.0
 11
5046.877599043877
 21
2395.069380289148
 31
0.0
  0
LINE
  5
1B1
330
1F
100
AcDbEntity
  8
0-C_ハッチ
  6
Continuous
 62
   120
370
     5
100
AcDbLine
 10
4866.877005188288
 20
2155.671816813857
 30
0.0
 11
5046.877599043862
 21
2335.67241066943
 31
0.0
  0
LINE
  5
1B2
330
1F
100
AcDbEntity
  8
0-C_ハッチ
  6
JWW_DASHED1
 62
   120
370
     5
100
AcDbLine
 10
5204.140947597496
 20
2195.999683277028
 30
0.0
 11
5279.141195037319
 21
2270.999930716853
 31
0.0
  0
LINE
  5
1B3
330
1F
100
AcDbEntity
  8
0-C_ハッチ
  6
JWW_DASHED1
 62
   120
370
     5
100
AcDbLine
 10
5161.714420728832
 20
2195.999683277028
 30
0.0
 11
5236.714668168653
 21
2270.999930716853
 31
0.0
  0
LINE
  5
1B4
330
1F
100
AcDbEntity
  8
0-C_ハッチ
  6
JWW_DASHED1
 62
   120
370
     5
100
AcDbLine
 10
5119.287893860165
 20
2195.999683277028
 30
0.0
 11
5194.288141299989
 21
2270.999930716853
 31
0.0
  0
LINE
  5
1B5
330
1F
100
AcDbEntity
  8
0-C_ハッチ
  6
JWW_DASHED1
 62
   120
370
     5
100
AcDbLine
 10
5076.861366991501
 20
2195.999683277028
 30
0.0
 11
5151.861614431321
 21
2270.999930716853
 31
0.0
  0
LINE
  5
1B6
330
1F
100
AcDbEntity
  8
0-C_ハッチ
  6
JWW_DASHED1
 62
   120
370
     5
100
AcDbLine
 10
5046.877599043863
 20
2208.441699878591
 30
0.0
 11
5109.435829882126
 21
2270.999930716853
 31
0.0
  0
LINE
  5
1B7
330
1F
100
AcDbEntity
  8
0-C_ハッチ
  6
JWW_DASHED1
 62
   120
370
     5
100
AcDbLine
 10
284.9763588754911
 20
2195.999683277028
 30
0.0
 11
359.9766063153163
 21
2270.999930716853
 31
0.0
  0
LINE
  5
1B8
330
1F
100
AcDbEntity
  8
0-C_ハッチ
  6
JWW_DASHED1
 62
   120
370
     5
100
AcDbLine
 10
327.4028857441593
 20
2195.999683277028
 30
0.0
 11
402.4031331839802
 21
2270.999930716853
 31
0.0
  0
LINE
  5
1B9
330
1F
100
AcDbEntity
  8
0-C_ハッチ
  6
JWW_DASHED1
 62
   120
370
     5
100
AcDbLine
 10
369.8294126128224
 20
2195.999683277028
 30
0.0
 11
444.8296600526476
 21
2270.999930716853
 31
0.0
  0
LINE
  5
1BA
330
1F
100
AcDbEntity
  8
0-C_ハッチ
  6
JWW_DASHED1
 62
   120
370
     5
100
AcDbLine
 10
412.2551971620226
 20
2195.999683277028
 30
0.0
 11
487.2554446018427
 21
2270.999930716853
 31
0.0
  0
LINE
  5
1BB
330
1F
100
AcDbEntity
  8
0-C_ハッチ
  6
JWW_DASHED1
 62
   120
370
     5
100
AcDbLine
 10
454.6817240306882
 20
2195.999683277028
 30
0.0
 11
529.68197147051
 21
2270.999930716853
 31
0.0
  0
LINE
  5
1BC
330
1F
100
AcDbEntity
  8
0-C_ハッチ
  6
JWW_DASHED1
 62
   120
370
     5
100
AcDbLine
 10
497.108250899353
 20
2195.999683277028
 30
0.0
 11
572.1084983391765
 21
2270.999930716853
 31
0.0
  0
LINE
  5
1BD
330
1F
100
AcDbEntity
  8
0-C_ハッチ
  6
JWW_DASHED1
 62
   120
370
     5
100
AcDbLine
 10
539.534406608285
 20
2195.999683277028
 30
0.0
 11
614.5346540481078
 21
2270.999930716853
 31
0.0
  0
LINE
  5
1BE
330
1F
100
AcDbEntity
  8
0-C_ハッチ
  6
JWW_DASHED1
 62
   120
370
     5
100
AcDbLine
 10
581.960933476949
 20
2195.999683277028
 30
0.0
 11
642.8767824924677
 21
2256.915903452283
 31
0.0
  0
LINE
  5
1BF
330
1F
100
AcDbEntity
  8
0-C_ハッチ
  6
JWW_DASHED1
 62
   120
370
     5
100
AcDbLine
 10
624.3874603456163
 20
2195.999683277028
 30
0.0
 11
642.8767824924677
 21
2214.48863426415
 31
0.0
  0
LINE
  5
1C0
330
1F
100
AcDbEntity
  8
0-B_寸法
  6
Continuous
 62
   120
370
     5
100
AcDbLine
 10
1215.483239352159
 20
2753.999683277026
 30
0.0
 11
1215.483239352159
 21
2123.999683277028
 31
0.0
  0
LWPOLYLINE
  5
1C1
330
1F
100
AcDbEntity
  8
0-B_寸法
  6
Continuous
 62
     7
370
     9
100
AcDbPolyline
 90
        4
 70
     1
 43
3.0
 10
1216.983239352159
 20
2753.999683277026
 42
0.4142135623731
 10
1215.483239352159
 20
2755.499683277026
 42
0.4142135623731
 10
1213.983239352159
 20
2753.999683277026
 42
0.4142135623731
 10
1215.483239352159
 20
2752.499683277026
 42
0.4142135623731
  0
LWPOLYLINE
  5
1C2
330
1F
100
AcDbEntity
  8
0-B_寸法
  6
Continuous
 62
     7
370
     9
100
AcDbPolyline
 90
        4
 70
     1
 43
3.0
 10
1216.983239352159
 20
2123.999683277028
 42
0.4142135623731
 10
1215.483239352159
 20
2125.499683277028
 42
0.4142135623731
 10
1213.983239352159
 20
2123.999683277028
 42
0.4142135623731
 10
1215.483239352159
 20
2122.499683277029
 42
0.4142135623731
  0
LINE
  5
1C3
330
1F
100
AcDbEntity
  8
0-B_寸法
  6
Continuous
 62
   120
370
     5
100
AcDbLine
 10
1215.483239352159
 20
2753.999683277026
 30
0.0
 11
1035.483239352159
 21
2753.999683277026
 31
0.0
  0
LINE
  5
1C4
330
1F
100
AcDbEntity
  8
0-B_寸法
  6
Continuous
 62
   120
370
     5
100
AcDbLine
 10
1215.483239352159
 20
2123.999683277028
 30
0.0
 11
1035.483239352159
 21
2123.999683277028
 31
0.0
  0
MTEXT
  5
1C5
330
1F
100
AcDbEntity
  8
0-B_寸法
  6
Continuous
 62
     7
370
   211
100
AcDbMText
 10
1200.483239352159
 20
2331.029683277027
 30
0.0
 40
99.06
 41
195.0
 46
0.0
 71
     7
 72
     1
  1
{\fＭＳ ゴシック|b0|i0|c128|p49;105}
 11
6.123031769111886E-17
 21
1.0
 31
0.0
 73
     1
 44
1.0
  0
MTEXT
  5
1C6
330
1F
100
AcDbEntity
  8
0-B_寸法
  6
Continuous
 62
     7
370
     0
100
AcDbMText
 10
1621.313158162609
 20
2114.968416385137
 30
0.0
 40
91.44
 41
240.0
 46
0.0
 71
     7
 72
     1
  1
{\fＭＳ ゴシック|b0|i0|c128|p49;(24)}
 11
6.123031769111886E-17
 21
1.0
 31
0.0
 73
     1
 44
1.0
  0
LINE
  5
1C7
330
1F
100
AcDbEntity
  8
0-6_扉
  6
Continuous
 62
   200
370
    20
100
AcDbLine
 10
834.8770051883008
 20
2333.999772355364
 30
0.0
 11
834.8770051883008
 21
2171.999683277028
 31
0.0
  0
LINE
  5
1C8
330
1F
100
AcDbEntity
  8
0-6_扉
  6
Continuous
 62
   200
370
    20
100
AcDbLine
 10
4854.877005188306
 20
2333.999772355364
 30
0.0
 11
4854.877005188306
 21
2171.999683277028
 31
0.0
  0
MTEXT
  5
1C9
330
1F
100
AcDbEntity
  8
0-B_寸法
  6
Continuous
 62
     7
370
     0
100
AcDbMText
 10
1471.313059186682
 20
2174.968416385137
 30
0.0
 40
91.44
 41
120.0
 46
0.0
 71
     7
 72
     1
  1
{\fＭＳ ゴシック|b0|i0|c128|p49;27}
 11
6.123031769111886E-17
 21
1.0
 31
0.0
 73
     1
 44
1.0
  0
LINE
  5
1CA
330
1F
100
AcDbEntity
  8
0-B_寸法
  6
Continuous
 62
   120
370
     5
100
AcDbLine
 10
1486.313108674645
 20
2333.999772355364
 30
0.0
 11
1486.313108674645
 21
2171.997456318625
 31
0.0
  0
LINE
  5
1CB
330
1F
100
AcDbEntity
  8
0-B_寸法
  6
Continuous
 62
   120
370
     5
100
AcDbLine
 10
1414.951711266496
 20
2333.999772355364
 30
0.0
 11
1486.313108674645
 21
2333.999772355364
 31
0.0
  0
LINE
  5
1CC
330
1F
100
AcDbEntity
  8
0-B_寸法
  6
Continuous
 62
   120
370
     5
100
AcDbLine
 10
1414.951711266496
 20
2171.997456318625
 30
0.0
 11
1486.313108674645
 21
2171.997456318625
 31
0.0
  0
LWPOLYLINE
  5
1CD
330
1F
100
AcDbEntity
  8
0-B_寸法
  6
Continuous
 62
     7
370
     9
100
AcDbPolyline
 90
        4
 70
     1
 43
3.0
 10
1487.813108674645
 20
2333.999772355364
 42
0.4142135623731
 10
1486.313108674645
 20
2335.499772355364
 42
0.4142135623731
 10
1484.813108674645
 20
2333.999772355364
 42
0.4142135623731
 10
1486.313108674645
 20
2332.499772355364
 42
0.4142135623731
  0
LWPOLYLINE
  5
1CE
330
1F
100
AcDbEntity
  8
0-B_寸法
  6
Continuous
 62
     7
370
     9
100
AcDbPolyline
 90
        4
 70
     1
 43
3.0
 10
1487.813108674645
 20
2171.997456318625
 42
0.4142135623731
 10
1486.313108674645
 20
2173.497456318624
 42
0.4142135623731
 10
1484.813108674645
 20
2171.997456318625
 42
0.4142135623731
 10
1486.313108674645
 20
2170.497456318625
 42
0.4142135623731
  0
LINE
  5
1CF
330
1F
100
AcDbEntity
  8
0-6_扉
  6
Continuous
 62
   200
370
    20
100
AcDbLine
 10
3882.877005188305
 20
2333.999772355364
 30
0.0
 11
4854.877005188306
 21
2333.999772355364
 31
0.0
  0
LINE
  5
1D0
330
1F
100
AcDbEntity
  8
0-6_扉
  6
Continuous
 62
   200
370
    20
100
AcDbLine
 10
3882.877005188305
 20
2171.999683277028
 30
0.0
 11
4854.877005188306
 21
2171.999683277028
 31
0.0
  0
LINE
  5
1D1
330
1F
100
AcDbEntity
  8
0-6_扉
  6
Continuous
 62
   200
370
    20
100
AcDbLine
 10
1866.877005188302
 20
2333.999772355364
 30
0.0
 11
2838.877005188303
 21
2333.999772355364
 31
0.0
  0
LINE
  5
1D2
330
1F
100
AcDbEntity
  8
0-6_扉
  6
Continuous
 62
   200
370
    20
100
AcDbLine
 10
2838.877005188303
 20
2333.999772355364
 30
0.0
 11
2838.877005188303
 21
2171.999683277028
 31
0.0
  0
LINE
  5
1D3
330
1F
100
AcDbEntity
  8
0-6_扉
  6
Continuous
 62
   200
370
    20
100
AcDbLine
 10
2850.877005188306
 20
2333.999772355364
 30
0.0
 11
2850.877005188306
 21
2171.999683277028
 31
0.0
  0
LINE
  5
1D4
330
1F
100
AcDbEntity
  8
0-6_扉
  6
Continuous
 62
   200
370
    20
100
AcDbLine
 10
1866.877005188302
 20
2171.999683277028
 30
0.0
 11
2838.877005188303
 21
2171.999683277028
 31
0.0
  0
LINE
  5
1D5
330
1F
100
AcDbEntity
  8
0-6_扉
  6
Continuous
 62
   200
370
    20
100
AcDbLine
 10
834.8770051883008
 20
2333.999772355364
 30
0.0
 11
1746.877005188302
 21
2333.999772355364
 31
0.0
  0
LINE
  5
1D6
330
1F
100
AcDbEntity
  8
0-6_扉
  6
Continuous
 62
   200
370
    20
100
AcDbLine
 10
834.8770051883008
 20
2171.999683277028
 30
0.0
 11
1746.877005188302
 21
2171.999683277028
 31
0.0
  0
LINE
  5
1D7
330
1F
100
AcDbEntity
  8
0-6_扉
  6
Continuous
 62
   200
370
    20
100
AcDbLine
 10
2850.877005188306
 20
2333.999772355364
 30
0.0
 11
3762.877005188305
 21
2333.999772355364
 31
0.0
  0
LINE
  5
1D8
330
1F
100
AcDbEntity
  8
0-6_扉
  6
Continuous
 62
   200
370
    20
100
AcDbLine
 10
2850.877005188306
 20
2171.999683277028
 30
0.0
 11
3762.877005188305
 21
2171.999683277028
 31
0.0
  0
LINE
  5
1D9
330
1F
100
AcDbEntity
  8
0-7_金物
  6
Continuous
 62
     7
370
     9
100
AcDbLine
 10
4784.496021204082
 20
2729.999772355365
 30
0.0
 11
4842.877005188283
 21
2729.999772355365
 31
0.0
  0
LINE
  5
1DA
330
1F
100
AcDbEntity
  8
0-7_金物
  6
JWW_DASHED1
 62
     7
370
     9
100
AcDbLine
 10
4620.877005188297
 20
2333.999772355364
 30
0.0
 11
4620.877005188297
 21
2270.999772355365
 31
0.0
  0
LINE
  5
1DB
330
1F
100
AcDbEntity
  8
0-7_金物
  6
JWW_DASHED1
 62
     7
370
     9
100
AcDbLine
 10
4620.877005188297
 20
2270.999772355365
 30
0.0
 11
4830.877005188297
 21
2270.999772355365
 31
0.0
  0
LINE
  5
1DC
330
1F
100
AcDbEntity
  8
0-7_金物
  6
JWW_DASHED1
 62
     7
370
     9
100
AcDbLine
 10
4830.877005188297
 20
2333.999772355364
 30
0.0
 11
4830.877005188297
 21
2270.999772355365
 31
0.0
  0
LINE
  5
1DD
330
1F
100
AcDbEntity
  8
0-7_金物
  6
Continuous
 62
     7
370
     9
100
AcDbLine
 10
4608.877005188298
 20
2351.999772355364
 30
0.0
 11
4608.877005188298
 21
2333.999772355364
 31
0.0
  0
LINE
  5
1DE
330
1F
100
AcDbEntity
  8
0-7_金物
  6
Continuous
 62
     7
370
     9
100
AcDbLine
 10
4728.877005188298
 20
2351.999772355364
 30
0.0
 11
4608.877005188298
 21
2351.999772355364
 31
0.0
  0
LINE
  5
1DF
330
1F
100
AcDbEntity
  8
0-7_金物
  6
Continuous
 62
     7
370
     9
100
AcDbLine
 10
4728.877005188298
 20
2351.999772355364
 30
0.0
 11
4728.877005188298
 21
2333.999772355364
 31
0.0
  0
LINE
  5
1E0
330
1F
100
AcDbEntity
  8
0-7_金物
  6
Continuous
 62
     7
370
     9
100
AcDbLine
 10
4638.87700518828
 20
2351.999772355364
 30
0.0
 11
4638.87700518828
 21
2376.965583449049
 31
0.0
  0
LINE
  5
1E1
330
1F
100
AcDbEntity
  8
0-7_金物
  6
Continuous
 62
     7
370
     9
100
AcDbLine
 10
4734.249330427414
 20
2447.311128306281
 30
0.0
 11
4638.87700518828
 21
2376.965583449049
 31
0.0
  0
LINE
  5
1E2
330
1F
100
AcDbEntity
  8
0-7_金物
  6
Continuous
 62
     7
370
     9
100
AcDbLine
 10
4758.281896963579
 20
2489.106351651315
 30
0.0
 11
4784.496021204082
 21
2729.999772355365
 31
0.0
  0
ARC
  5
1E3
330
1F
100
AcDbEntity
  8
0-7_金物
  6
Continuous
 62
     7
370
     9
100
AcDbCircle
 10
4698.634029142193
 20
2495.597257933358
 30
0.0
 40
60.0
100
AcDbArc
 50
306.4120644035237
 51
353.7894867559143
  0
LINE
  5
1E4
330
1F
100
AcDbEntity
  8
0-7_金物
  6
Continuous
 62
     7
370
     9
100
AcDbLine
 10
4808.166197148805
 20
2383.217398185177
 30
0.0
 11
4728.877005188298
 21
2346.364675161279
 31
0.0
  0
LINE
  5
1E5
330
1F
100
AcDbEntity
  8
0-7_金物
  6
Continuous
 62
     7
370
     9
100
AcDbLine
 10
4842.877005188283
 20
2437.627477857822
 30
0.0
 11
4842.877005188283
 21
2729.999772355365
 31
0.0
  0
ARC
  5
1E6
330
1F
100
AcDbEntity
  8
0-7_金物
  6
Continuous
 62
     7
370
     9
100
AcDbCircle
 10
4782.877005188283
 20
2437.627477857822
 30
0.0
 40
60.0
100
AcDbArc
 50
294.9284741354608
 51
0.0000000000000254
  0
LINE
  5
1E7
330
1F
100
AcDbEntity
  8
0-7_金物
  6
Continuous
 62
     7
370
     9
100
AcDbLine
 10
4842.877005188283
 20
2666.999772355364
 30
0.0
 11
4866.877005188281
 21
2666.999772355364
 31
0.0
  0
LINE
  5
1E8
330
1F
100
AcDbEntity
  8
0-7_金物
  6
Continuous
 62
     7
370
     9
100
AcDbLine
 10
4842.877005188283
 20
2456.999772355364
 30
0.0
 11
4866.877005188287
 21
2456.999772355364
 31
0.0
  0
LINE
  5
1E9
330
1F
100
AcDbEntity
  8
0-7_金物
  6
JWW_CENTER1
 62
     7
370
     9
100
AcDbLine
 10
4793.47213004123
 20
2561.999772355364
 30
0.0
 11
4921.980771704674
 21
2561.999772355364
 31
0.0
  0
LINE
  5
1EA
330
1F
100
AcDbEntity
  8
0-7_金物
  6
Continuous
 62
     7
370
     9
100
AcDbLine
 10
905.2579891725111
 20
2729.999772355365
 30
0.0
 11
846.877005188313
 21
2729.999772355365
 31
0.0
  0
LINE
  5
1EB
330
1F
100
AcDbEntity
  8
0-7_金物
  6
JWW_DASHED1
 62
     7
370
     9
100
AcDbLine
 10
1068.877005188297
 20
2333.999772355364
 30
0.0
 11
1068.877005188297
 21
2270.999772355365
 31
0.0
  0
LINE
  5
1EC
330
1F
100
AcDbEntity
  8
0-7_金物
  6
JWW_DASHED1
 62
     7
370
     9
100
AcDbLine
 10
1068.877005188297
 20
2270.999772355365
 30
0.0
 11
858.8770051882968
 21
2270.999772355365
 31
0.0
  0
LINE
  5
1ED
330
1F
100
AcDbEntity
  8
0-7_金物
  6
JWW_DASHED1
 62
     7
370
     9
100
AcDbLine
 10
858.8770051882968
 20
2333.999772355364
 30
0.0
 11
858.8770051882968
 21
2270.999772355365
 31
0.0
  0
LINE
  5
1EE
330
1F
100
AcDbEntity
  8
0-7_金物
  6
Continuous
 62
     7
370
     9
100
AcDbLine
 10
1080.877005188295
 20
2351.999772355364
 30
0.0
 11
1080.877005188295
 21
2333.999772355364
 31
0.0
  0
LINE
  5
1EF
330
1F
100
AcDbEntity
  8
0-7_金物
  6
Continuous
 62
     7
370
     9
100
AcDbLine
 10
960.8770051882954
 20
2351.999772355364
 30
0.0
 11
1080.877005188295
 21
2351.999772355364
 31
0.0
  0
LINE
  5
1F0
330
1F
100
AcDbEntity
  8
0-7_金物
  6
Continuous
 62
     7
370
     9
100
AcDbLine
 10
960.8770051882954
 20
2351.999772355364
 30
0.0
 11
960.8770051882954
 21
2333.999772355364
 31
0.0
  0
LINE
  5
1F1
330
1F
100
AcDbEntity
  8
0-7_金物
  6
Continuous
 62
     7
370
     9
100
AcDbLine
 10
1050.877005188313
 20
2351.999772355364
 30
0.0
 11
1050.877005188313
 21
2376.965583449049
 31
0.0
  0
LINE
  5
1F2
330
1F
100
AcDbEntity
  8
0-7_金物
  6
Continuous
 62
     7
370
     9
100
AcDbLine
 10
955.504679949182
 20
2447.311128306281
 30
0.0
 11
1050.877005188313
 21
2376.965583449049
 31
0.0
  0
LINE
  5
1F3
330
1F
100
AcDbEntity
  8
0-7_金物
  6
Continuous
 62
     7
370
     9
100
AcDbLine
 10
931.4721134130139
 20
2489.106351651315
 30
0.0
 11
905.2579891725111
 21
2729.999772355365
 31
0.0
  0
ARC
  5
1F4
330
1F
100
AcDbEntity
  8
0-7_金物
  6
Continuous
 62
     7
370
     9
100
AcDbCircle
 10
991.1199812344
 20
2495.597257933358
 30
0.0
 40
60.0
100
AcDbArc
 50
186.2105132440857
 51
233.5879355964763
  0
LINE
  5
1F5
330
1F
100
AcDbEntity
  8
0-7_金物
  6
Continuous
 62
     7
370
     9
100
AcDbLine
 10
881.5878132277887
 20
2383.217398185177
 30
0.0
 11
960.8770051882954
 21
2346.364675161279
 31
0.0
  0
LINE
  5
1F6
330
1F
100
AcDbEntity
  8
0-7_金物
  6
Continuous
 62
     7
370
     9
100
AcDbLine
 10
846.877005188313
 20
2437.627477857822
 30
0.0
 11
846.877005188313
 21
2729.999772355365
 31
0.0
  0
ARC
  5
1F7
330
1F
100
AcDbEntity
  8
0-7_金物
  6
Continuous
 62
     7
370
     9
100
AcDbCircle
 10
906.877005188313
 20
2437.627477857822
 30
0.0
 40
60.0
100
AcDbArc
 50
180.0
 51
245.0715258645393
  0
LINE
  5
1F8
330
1F
100
AcDbEntity
  8
0-7_金物
  6
Continuous
 62
     7
370
     9
100
AcDbLine
 10
846.877005188313
 20
2666.999772355364
 30
0.0
 11
822.8770051883117
 21
2666.999772355364
 31
0.0
  0
LINE
  5
1F9
330
1F
100
AcDbEntity
  8
0-7_金物
  6
Continuous
 62
     7
370
     9
100
AcDbLine
 10
846.877005188313
 20
2456.999772355364
 30
0.0
 11
822.8770051883091
 21
2456.999772355364
 31
0.0
  0
LINE
  5
1FA
330
1F
100
AcDbEntity
  8
0-7_金物
  6
JWW_CENTER1
 62
     7
370
     9
100
AcDbLine
 10
896.2818803353628
 20
2561.999772355364
 30
0.0
 11
767.7732386719191
 21
2561.999772355364
 31
0.0
  0
LINE
  5
1FB
330
1F
100
AcDbEntity
  8
0-0_補助線
  6
JWW_HOJO
 62
   120
370
     5
100
AcDbLine
 10
2844.877005188304
 20
2933.999683277028
 30
0.0
 11
2844.877005188304
 21
1944.75519856681
 31
0.0
  0
LINE
  5
1FC
330
1F
100
AcDbEntity
  8
0-0_補助線
  6
JWW_HOJO
 62
   120
370
     5
100
AcDbLine
 10
5406.877599043863
 20
2946.000445391029
 30
0.0
 11
5406.877599043863
 21
1190.999648635452
 31
0.0
  0
LINE
  5
1FD
330
1F
100
AcDbEntity
  8
0-3_仕上げ
  6
Continuous
 62
    40
370
    15
100
AcDbLine
 10
5046.877599043863
 20
2195.999683277028
 30
0.0
 11
5406.877599043863
 21
2195.999683277028
 31
0.0
  0
LINE
  5
1FE
330
1F
100
AcDbEntity
  8
0-3_仕上げ
  6
Continuous
 62
    40
370
    15
100
AcDbLine
 10
5046.877599043863
 20
2270.999930716853
 30
0.0
 11
5406.877599043863
 21
2270.999930716853
 31
0.0
  0
LINE
  5
1FF
330
1F
100
AcDbEntity
  8
0-0_補助線
  6
JWW_HOJO
 62
   120
370
     5
100
AcDbLine
 10
5466.877599043863
 20
2946.000445391029
 30
0.0
 11
5466.877599043863
 21
1190.999648635452
 31
0.0
  0
LINE
  5
200
330
1F
100
AcDbEntity
  8
0-B_寸法
  6
Continuous
 62
   120
370
     5
100
AcDbLine
 10
5646.877599043863
 20
2123.999683277028
 30
0.0
 11
5646.877599043863
 21
2171.999683277028
 31
0.0
  0
LWPOLYLINE
  5
201
330
1F
100
AcDbEntity
  8
0-B_寸法
  6
Continuous
 62
     7
370
     9
100
AcDbPolyline
 90
        4
 70
     1
 43
3.0
 10
5648.377599043863
 20
2123.999683277028
 42
0.4142135623731
 10
5646.877599043863
 20
2125.499683277028
 42
0.4142135623731
 10
5645.377599043863
 20
2123.999683277028
 42
0.4142135623731
 10
5646.877599043863
 20
2122.499683277029
 42
0.4142135623731
  0
LWPOLYLINE
  5
202
330
1F
100
AcDbEntity
  8
0-B_寸法
  6
Continuous
 62
     7
370
     9
100
AcDbPolyline
 90
        4
 70
     1
 43
3.0
 10
5648.377599043863
 20
2171.999683277028
 42
0.4142135623731
 10
5646.877599043863
 20
2173.499683277028
 42
0.4142135623731
 10
5645.377599043863
 20
2171.999683277028
 42
0.4142135623731
 10
5646.877599043863
 20
2170.499683277028
 42
0.4142135623731
  0
LINE
  5
203
330
1F
100
AcDbEntity
  8
0-B_寸法
  6
Continuous
 62
   120
370
     5
100
AcDbLine
 10
5646.877599043863
 20
2123.999683277028
 30
0.0
 11
5466.877599043863
 21
2123.999683277028
 31
0.0
  0
LINE
  5
204
330
1F
100
AcDbEntity
  8
0-B_寸法
  6
Continuous
 62
   120
370
     5
100
AcDbLine
 10
5646.877599043863
 20
2171.999683277028
 30
0.0
 11
5466.877599043863
 21
2171.999683277028
 31
0.0
  0
MTEXT
  5
205
330
1F
100
AcDbEntity
  8
0-B_寸法
  6
Continuous
 62
     7
370
   211
100
AcDbMText
 10
5631.877599043863
 20
2103.719683277029
 30
0.0
 40
91.44
 41
60.0
 46
0.0
 71
     7
 72
     1
  1
{\fＭＳ ゴシック|b0|i0|c128|p49;8}
 11
6.123031769111886E-17
 21
1.0
 31
0.0
 73
     1
 44
1.0
  0
LINE
  5
206
330
1F
100
AcDbEntity
  8
0-B_寸法
  6
Continuous
 62
   120
370
     5
100
AcDbLine
 10
5646.877599043863
 20
2171.999683277028
 30
0.0
 11
5646.877599043863
 21
2333.999772355364
 31
0.0
  0
LWPOLYLINE
  5
207
330
1F
100
AcDbEntity
  8
0-B_寸法
  6
Continuous
 62
     7
370
     9
100
AcDbPolyline
 90
        4
 70
     1
 43
3.0
 10
5648.377599043863
 20
2333.999772355364
 42
0.4142135623731
 10
5646.877599043863
 20
2335.499772355364
 42
0.4142135623731
 10
5645.377599043863
 20
2333.999772355364
 42
0.4142135623731
 10
5646.877599043863
 20
2332.499772355364
 42
0.4142135623731
  0
LINE
  5
208
330
1F
100
AcDbEntity
  8
0-B_寸法
  6
Continuous
 62
   120
370
     5
100
AcDbLine
 10
5646.877599043863
 20
2333.999772355364
 30
0.0
 11
5466.877599043863
 21
2333.999772355364
 31
0.0
  0
MTEXT
  5
209
330
1F
100
AcDbEntity
  8
0-B_寸法
  6
Continuous
 62
     7
370
   211
100
AcDbMText
 10
5631.877599043863
 20
2177.827227816196
 30
0.0
 40
97.15499999999999
 41
127.5
 46
0.0
 71
     7
 72
     1
  1
{\fＭＳ ゴシック|b0|i0|c128|p49;27}
 11
6.123031769111886E-17
 21
1.0
 31
0.0
 73
     1
 44
1.0
  0
LINE
  5
20A
330
1F
100
AcDbEntity
  8
0-C_ハッチ
  6
JWW_DASHED1
 62
   120
370
     5
100
AcDbLine
 10
5246.567474466164
 20
2195.999683277028
 30
0.0
 11
5321.567721905983
 21
2270.999930716853
 31
0.0
  0
LINE
  5
20B
330
1F
100
AcDbEntity
  8
0-C_ハッチ
  6
JWW_DASHED1
 62
   120
370
     5
100
AcDbLine
 10
5288.994001334828
 20
2195.999683277028
 30
0.0
 11
5363.994248774651
 21
2270.999930716853
 31
0.0
  0
LINE
  5
20C
330
1F
100
AcDbEntity
  8
0-C_ハッチ
  6
JWW_DASHED1
 62
   120
370
     5
100
AcDbLine
 10
5331.420528203495
 20
2195.999683277028
 30
0.0
 11
5406.420775643315
 21
2270.999930716853
 31
0.0
  0
LINE
  5
20D
330
1F
100
AcDbEntity
  8
0-C_ハッチ
  6
JWW_DASHED1
 62
   120
370
     5
100
AcDbLine
 10
5373.847055072159
 20
2195.999683277028
 30
0.0
 11
5406.877599043863
 21
2229.030227248732
 31
0.0
  0
LINE
  5
20E
330
1F
100
AcDbEntity
  8
0-0_補助線
  6
JWW_HOJO
 62
   120
370
     5
100
AcDbLine
 10
282.8764113327486
 20
2946.000445391029
 30
0.0
 11
282.8764113327486
 21
1190.999648635452
 31
0.0
  0
LINE
  5
20F
330
1F
100
AcDbEntity
  8
0-0_補助線
  6
JWW_HOJO
 62
   120
370
     5
100
AcDbLine
 10
5646.877599043865
 20
2946.000445391029
 30
0.0
 11
282.8764113327486
 21
2946.000445391029
 31
0.0
  0
LINE
  5
210
330
1F
100
AcDbEntity
  8
0-1_通り芯
  6
JWW_CENTER1
 62
   120
370
     5
100
AcDbLine
 10
5406.877599043863
 20
2438.999683277027
 30
0.0
 11
282.8764113327486
 21
2438.999683277027
 31
0.0
  0
LINE
  5
211
330
1F
100
AcDbEntity
  8
0-3_仕上げ
  6
Continuous
 62
    40
370
    15
100
AcDbLine
 10
642.8767824924677
 20
2270.999930716853
 30
0.0
 11
282.8764113327486
 21
2270.999930716853
 31
0.0
  0
LINE
  5
212
330
1F
100
AcDbEntity
  8
0-C_ハッチ
  6
JWW_DASHED1
 62
   120
370
     5
100
AcDbLine
 10
282.8764113327486
 20
2236.326262602951
 30
0.0
 11
317.5500794466507
 21
2270.999930716853
 31
0.0
  0
LINE
  5
213
330
1F
100
AcDbEntity
  8
0-3_仕上げ
  6
Continuous
 62
    40
370
    15
100
AcDbLine
 10
642.8767824924677
 20
2195.999683277028
 30
0.0
 11
282.8764113327486
 21
2195.999683277028
 31
0.0
  0
LINE
  5
214
330
1F
100
AcDbEntity
  8
0-0_補助線
  6
JWW_HOJO
 62
   120
370
     5
100
AcDbLine
 10
5646.877599043863
 20
1943.999683277028
 30
0.0
 11
282.8764113327486
 21
1943.999683277028
 31
0.0
  0
LINE
  5
215
330
1F
100
AcDbEntity
  8
0-0_補助線
  6
JWW_HOJO
 62
   120
370
     5
100
AcDbLine
 10
5646.877599043863
 20
1550.999648635452
 30
0.0
 11
282.8764113327486
 21
1550.999648635452
 31
0.0
  0
LINE
  5
216
330
1F
100
AcDbEntity
  8
0-0_補助線
  6
JWW_HOJO
 62
   120
370
     5
100
AcDbLine
 10
5646.877599043863
 20
1370.999648635452
 30
0.0
 11
282.8764113327486
 21
1370.999648635452
 31
0.0
  0
LINE
  5
217
330
1F
100
AcDbEntity
  8
0-0_補助線
  6
JWW_HOJO
 62
   120
370
     5
100
AcDbLine
 10
282.8764113327486
 20
1190.999648635452
 30
0.0
 11
5646.877599043863
 21
1190.999648635452
 31
0.0
  0
MTEXT
  5
218
330
1F
100
AcDbEntity
  8
0-A_文字
  6
Continuous
 62
     7
370
     9
100
AcDbMText
 10
293.939392721748
 20
3047.661009999628
 30
0.0
 40
91.43999999999957
 41
1559.999999999993
 46
0.0
 71
     7
 72
     1
  1
{\fＭＳ ゴシック|b0|i0|c128|p49;■横断面図　Ｈ＝４尺、３尺}
 73
     1
 44
1.0
  0
LINE
  5
219
330
1F
100
AcDbEntity
  8
0-0_補助線
  6
JWW_HOJO
 62
   120
370
     5
100
AcDbLine
 10
-263.0400679655816
 20
2946.000445391029
 30
0.0
 11
-263.0400679655816
 21
980.9992032437724
 31
0.0
  0
LINE
  5
21A
330
1F
100
AcDbEntity
  8
0-0_補助線
  6
JWW_HOJO
 62
   120
370
     5
100
AcDbLine
 10
219.9181716835827
 20
-4455.000000000002
 30
0.0
 11
219.9181716835827
 21
500.9998017915296
 31
0.0
  0
LINE
  5
21B
330
1F
100
AcDbEntity
  8
0-0_補助線
  6
JWW_HOJO
 62
   120
370
     5
100
AcDbLine
 10
-200.0818283164165
 20
-4455.000000000002
 30
0.0
 11
-200.0818283164165
 21
500.9998017915296
 31
0.0
  0
LINE
  5
21C
330
1F
100
AcDbEntity
  8
0-0_補助線
  6
Continuous
 62
    92
370
    13
100
AcDbLine
 10
-1278.933591960712
 20
-1496.847511051957
 30
0.0
 11
-1908.933591960712
 21
-1496.847511051957
 31
0.0
  0
LINE
  5
21D
330
1F
100
AcDbEntity
  8
0-0_補助線
  6
Continuous
 62
    92
370
    13
100
AcDbLine
 10
-2351.039771037775
 20
-261.0002126162744
 30
0.0
 11
-851.0397710377786
 21
-261.0002126162744
 31
0.0
  0
LINE
  5
21E
330
1F
100
AcDbEntity
  8
0-0_補助線
  6
Continuous
 62
    92
370
    13
100
AcDbLine
 10
-2351.039771037775
 20
-81.00021261627421
 30
0.0
 11
-851.0397710377786
 21
-81.00021261627421
 31
0.0
  0
LINE
  5
21F
330
1F
100
AcDbEntity
  8
0-0_補助線
  6
Continuous
 62
    92
370
    13
100
AcDbLine
 10
-2351.039771037773
 20
-2112.02953062506
 30
0.0
 11
-2351.039771037775
 21
-81.00021261627421
 31
0.0
  0
LINE
  5
220
330
1F
100
AcDbEntity
  8
0-0_補助線
  6
Continuous
 62
    92
370
    13
100
AcDbLine
 10
-851.0397710377767
 20
-2112.02953062506
 30
0.0
 11
-2351.039771037773
 21
-2112.02953062506
 31
0.0
  0
LINE
  5
221
330
1F
100
AcDbEntity
  8
0-0_補助線
  6
Continuous
 62
    92
370
    13
100
AcDbLine
 10
-851.0397710377767
 20
-2112.02953062506
 30
0.0
 11
-851.0397710377786
 21
-81.00021261627421
 31
0.0
  0
LINE
  5
222
330
1F
100
AcDbEntity
  8
0-0_補助線
  6
Continuous
 62
     7
370
     9
100
AcDbLine
 10
-1812.52022113826
 20
-1369.547094116787
 30
0.0
 11
-1690.42019998337
 21
-1369.547094116787
 31
0.0
  0
MTEXT
  5
223
330
1F
100
AcDbEntity
  8
0-0_補助線
  6
Continuous
 62
     7
370
     0
100
AcDbMText
 10
-1701.338848724373
 20
-1428.827094116787
 30
0.0
 40
91.44
 41
420.0
 46
0.0
 71
     7
 72
     1
  1
{\fＭＳ ゴシック|b0|i0|c128|p49;現場ｶｯﾄ}
 73
     1
 44
1.0
  0
LINE
  5
224
330
1F
100
AcDbEntity
  8
0-0_補助線
  6
Continuous
 62
     7
370
     9
100
AcDbLine
 10
-1893.926609093997
 20
-1510.547094116785
 30
0.0
 11
-1812.52022113826
 21
-1369.547094116787
 31
0.0
  0
LINE
  5
225
330
1F
100
AcDbEntity
  8
0-0_補助線
  6
Continuous
 62
     7
370
     9
100
AcDbLine
 10
-1893.926609093997
 20
-1510.547094116785
 30
0.0
 11
-1878.397466387844
 21
-1452.591544539441
 31
0.0
  0
LINE
  5
226
330
1F
100
AcDbEntity
  8
0-0_補助線
  6
Continuous
 62
   120
370
     5
100
AcDbLine
 10
-1908.933591960712
 20
-560.9282187489498
 30
0.0
 11
-1278.933591960712
 21
-560.9282187489498
 31
0.0
  0
LWPOLYLINE
  5
227
330
1F
100
AcDbEntity
  8
0-0_補助線
  6
Continuous
 62
     7
370
     9
100
AcDbPolyline
 90
        4
 70
     1
 43
3.0
 10
-1907.433591960712
 20
-560.9282187489498
 42
0.4142135623731
 10
-1908.933591960712
 20
-559.4282187489498
 42
0.4142135623731
 10
-1910.433591960712
 20
-560.9282187489498
 42
0.4142135623731
 10
-1908.933591960712
 20
-562.4282187489498
 42
0.4142135623731
  0
LWPOLYLINE
  5
228
330
1F
100
AcDbEntity
  8
0-0_補助線
  6
Continuous
 62
     7
370
     9
100
AcDbPolyline
 90
        4
 70
     1
 43
3.0
 10
-1277.433591960712
 20
-560.9282187489498
 42
0.4142135623731
 10
-1278.933591960712
 20
-559.4282187489498
 42
0.4142135623731
 10
-1280.433591960712
 20
-560.9282187489498
 42
0.4142135623731
 10
-1278.933591960712
 20
-562.4282187489498
 42
0.4142135623731
  0
LINE
  5
229
330
1F
100
AcDbEntity
  8
0-0_補助線
  6
Continuous
 62
   120
370
     5
100
AcDbLine
 10
-1908.933591960712
 20
-560.9282187489498
 30
0.0
 11
-1908.933591960712
 21
-723.727582815682
 31
0.0
  0
LINE
  5
22A
330
1F
100
AcDbEntity
  8
0-0_補助線
  6
Continuous
 62
   120
370
     5
100
AcDbLine
 10
-1278.933591960712
 20
-560.9282187489498
 30
0.0
 11
-1278.933591960712
 21
-723.727582815682
 31
0.0
  0
MTEXT
  5
22B
330
1F
100
AcDbEntity
  8
0-0_補助線
  6
Continuous
 62
     7
370
   211
100
AcDbMText
 10
-1688.070379743094
 20
-556.3982187489498
 30
0.0
 40
99.06
 41
195.0
 46
0.0
 71
     7
 72
     1
  1
{\fＭＳ ゴシック|b0|i0|c128|p49;105}
 73
     1
 44
1.0
  0
MTEXT
  5
22C
330
1F
100
AcDbEntity
  8
0-0_補助線
  6
Continuous
 62
     7
370
     0
100
AcDbMText
 10
-2043.539771037775
 20
-245.280212616274
 30
0.0
 40
91.44
 41
840.0
 46
0.0
 71
     7
 72
     1
  1
{\fＭＳ ゴシック|b0|i0|c128|p49;竪枠下端加工図}
 73
     1
 44
1.0
  0
LINE
  5
22D
330
1F
100
AcDbEntity
  8
0-0_補助線
  6
Continuous
 62
    92
370
    13
100
AcDbLine
 10
-1395.933591960713
 20
-1516.647511051957
 30
0.0
 11
-1395.933591960713
 21
-1550.847511051957
 31
0.0
  0
LINE
  5
22E
330
1F
100
AcDbEntity
  8
0-0_補助線
  6
Continuous
 62
    92
370
    13
100
AcDbLine
 10
-1689.933591960713
 20
-1516.647511051957
 30
0.0
 11
-1689.933591960713
 21
-1550.847511051957
 31
0.0
  0
LINE
  5
22F
330
1F
100
AcDbEntity
  8
0-0_補助線
  6
Continuous
 62
    92
370
    13
100
AcDbLine
 10
-1908.933591960712
 20
-1550.847511051957
 30
0.0
 11
-1689.933591960713
 21
-1550.847511051957
 31
0.0
  0
LINE
  5
230
330
1F
100
AcDbEntity
  8
0-0_補助線
  6
Continuous
 62
    92
370
    13
100
AcDbLine
 10
-1689.933591960713
 20
-1516.647511051957
 30
0.0
 11
-1395.933591960713
 21
-1516.647511051957
 31
0.0
  0
LINE
  5
231
330
1F
100
AcDbEntity
  8
0-0_補助線
  6
Continuous
 62
    92
370
    13
100
AcDbLine
 10
-1395.933591960713
 20
-1550.847511051957
 30
0.0
 11
-1278.933591960712
 21
-1550.847511051957
 31
0.0
  0
LINE
  5
232
330
1F
100
AcDbEntity
  8
0-0_補助線
  6
Continuous
 62
    92
370
    13
100
AcDbLine
 10
-1278.933591960712
 20
-816.651958795473
 30
0.0
 11
-1278.933591960712
 21
-1550.847511051957
 31
0.0
  0
LINE
  5
233
330
1F
100
AcDbEntity
  8
0-0_補助線
  6
Continuous
 62
    92
370
    13
100
AcDbLine
 10
-1908.933591960712
 20
-816.6519587954733
 30
0.0
 11
-1908.933591960712
 21
-1550.847511051957
 31
0.0
  0
LWPOLYLINE
  5
234
330
1F
100
AcDbEntity
  8
0-0_補助線
  6
Continuous
 62
     7
370
     9
100
AcDbPolyline
 90
        4
 70
     1
 43
3.0
 10
-1277.433591960712
 20
-1927.945609563221
 42
0.4142135623731
 10
-1278.933591960712
 20
-1926.445609563221
 42
0.4142135623731
 10
-1280.433591960712
 20
-1927.945609563221
 42
0.4142135623731
 10
-1278.933591960712
 20
-1929.445609563221
 42
0.4142135623731
  0
LWPOLYLINE
  5
235
330
1F
100
AcDbEntity
  8
0-0_補助線
  6
Continuous
 62
     7
370
     9
100
AcDbPolyline
 90
        4
 70
     1
 43
3.0
 10
-1394.433591960713
 20
-1927.945609563221
 42
0.4142135623731
 10
-1395.933591960713
 20
-1926.445609563221
 42
0.4142135623731
 10
-1397.433591960713
 20
-1927.945609563221
 42
0.4142135623731
 10
-1395.933591960713
 20
-1929.445609563221
 42
0.4142135623731
  0
LINE
  5
236
330
1F
100
AcDbEntity
  8
0-0_補助線
  6
Continuous
 62
   120
370
     5
100
AcDbLine
 10
-1278.933591960712
 20
-1927.945609563221
 30
0.0
 11
-1278.933591960712
 21
-1701.393087872678
 31
0.0
  0
LINE
  5
237
330
1F
100
AcDbEntity
  8
0-0_補助線
  6
Continuous
 62
   120
370
     5
100
AcDbLine
 10
-1395.933591960713
 20
-1927.945609563221
 30
0.0
 11
-1395.933591960713
 21
-1701.393087872678
 31
0.0
  0
LINE
  5
238
330
1F
100
AcDbEntity
  8
0-0_補助線
  6
Continuous
 62
   120
370
     5
100
AcDbLine
 10
-1395.933591960713
 20
-1927.945609563221
 30
0.0
 11
-1689.933591960713
 21
-1927.945609563221
 31
0.0
  0
LWPOLYLINE
  5
239
330
1F
100
AcDbEntity
  8
0-0_補助線
  6
Continuous
 62
     7
370
     9
100
AcDbPolyline
 90
        4
 70
     1
 43
3.0
 10
-1688.433591960714
 20
-1927.945609563221
 42
0.4142135623731
 10
-1689.933591960713
 20
-1926.445609563221
 42
0.4142135623731
 10
-1691.433591960713
 20
-1927.945609563221
 42
0.4142135623731
 10
-1689.933591960713
 20
-1929.445609563221
 42
0.4142135623731
  0
LINE
  5
23A
330
1F
100
AcDbEntity
  8
0-0_補助線
  6
Continuous
 62
   120
370
     5
100
AcDbLine
 10
-1689.933591960713
 20
-1927.945609563221
 30
0.0
 11
-1689.933591960713
 21
-1701.393087872678
 31
0.0
  0
LWPOLYLINE
  5
23B
330
1F
100
AcDbEntity
  8
0-0_補助線
  6
Continuous
 62
     7
370
     9
100
AcDbPolyline
 90
        4
 70
     1
 43
3.0
 10
-1907.433591960712
 20
-1927.945609563221
 42
0.4142135623731
 10
-1908.933591960712
 20
-1926.445609563221
 42
0.4142135623731
 10
-1910.433591960712
 20
-1927.945609563221
 42
0.4142135623731
 10
-1908.933591960712
 20
-1929.445609563221
 42
0.4142135623731
  0
LINE
  5
23C
330
1F
100
AcDbEntity
  8
0-0_補助線
  6
Continuous
 62
   120
370
     5
100
AcDbLine
 10
-1908.933591960712
 20
-1927.945609563221
 30
0.0
 11
-1908.933591960712
 21
-1701.393087872678
 31
0.0
  0
MTEXT
  5
23D
330
1F
100
AcDbEntity
  8
0-0_補助線
  6
Continuous
 62
     7
370
   211
100
AcDbMText
 10
-1621.683591960714
 20
-1924.368109563221
 30
0.0
 40
97.15499999999999
 41
127.5
 46
0.0
 71
     7
 72
     1
  1
{\fＭＳ ゴシック|b0|i0|c128|p49;49}
 73
     1
 44
1.0
  0
MTEXT
  5
23E
330
1F
100
AcDbEntity
  8
0-0_補助線
  6
Continuous
 62
     7
370
   211
100
AcDbMText
 10
-2196.555940055861
 20
-1922.939359563221
 30
0.0
 40
100.0125
 41
262.5
 46
0.0
 71
     7
 72
     1
  1
{\fＭＳ ゴシック|b0|i0|c128|p49;36.5}
 73
     1
 44
1.0
  0
LINE
  5
23F
330
1F
100
AcDbEntity
  8
0-0_補助線
  6
Continuous
 62
   120
370
     5
100
AcDbLine
 10
-973.4047729435761
 20
-1927.945609563221
 30
0.0
 11
-1395.933591960713
 21
-1927.945609563221
 31
0.0
  0
LINE
  5
240
330
1F
100
AcDbEntity
  8
0-0_補助線
  6
Continuous
 62
   120
370
     5
100
AcDbLine
 10
-1689.933591960713
 20
-1927.945609563221
 30
0.0
 11
-2288.539067554373
 21
-1927.945609563221
 31
0.0
  0
MTEXT
  5
241
330
1F
100
AcDbEntity
  8
0-0_補助線
  6
Continuous
 62
     7
370
   211
100
AcDbMText
 10
-1247.006332507844
 20
-1922.939359563221
 30
0.0
 40
100.0125
 41
262.5
 46
0.0
 71
     7
 72
     1
  1
{\fＭＳ ゴシック|b0|i0|c128|p49;19.5}
 73
     1
 44
1.0
  0
LINE
  5
242
330
1F
100
AcDbEntity
  8
0-0_補助線
  6
Continuous
 62
   120
370
     5
100
AcDbLine
 10
-2122.378201037356
 20
-1550.847511051957
 30
0.0
 11
-2122.378201037356
 21
-1496.847511051957
 31
0.0
  0
LWPOLYLINE
  5
243
330
1F
100
AcDbEntity
  8
0-0_補助線
  6
Continuous
 62
     7
370
     9
100
AcDbPolyline
 90
        4
 70
     1
 43
3.0
 10
-2120.878201037356
 20
-1550.847511051957
 42
0.4142135623731
 10
-2122.378201037356
 20
-1549.347511051957
 42
0.4142135623731
 10
-2123.878201037356
 20
-1550.847511051957
 42
0.4142135623731
 10
-2122.378201037356
 20
-1552.347511051957
 42
0.4142135623731
  0
LWPOLYLINE
  5
244
330
1F
100
AcDbEntity
  8
0-0_補助線
  6
Continuous
 62
     7
370
     9
100
AcDbPolyline
 90
        4
 70
     1
 43
3.0
 10
-2120.878201037356
 20
-1496.847511051957
 42
0.4142135623731
 10
-2122.378201037356
 20
-1495.347511051957
 42
0.4142135623731
 10
-2123.878201037356
 20
-1496.847511051957
 42
0.4142135623731
 10
-2122.378201037356
 20
-1498.347511051957
 42
0.4142135623731
  0
LINE
  5
245
330
1F
100
AcDbEntity
  8
0-0_補助線
  6
Continuous
 62
   120
370
     5
100
AcDbLine
 10
-2122.378201037356
 20
-1550.847511051957
 30
0.0
 11
-1975.601511641104
 21
-1550.847511051957
 31
0.0
  0
LINE
  5
246
330
1F
100
AcDbEntity
  8
0-0_補助線
  6
Continuous
 62
   120
370
     5
100
AcDbLine
 10
-2122.378201037356
 20
-1496.847511051957
 30
0.0
 11
-1975.601511641104
 21
-1496.847511051957
 31
0.0
  0
MTEXT
  5
247
330
1F
100
AcDbEntity
  8
0-0_補助線
  6
Continuous
 62
     7
370
   211
100
AcDbMText
 10
-2137.378201037356
 20
-1566.188265123475
 30
0.0
 40
91.44
 41
60.0
 46
0.0
 71
     7
 72
     1
  1
{\fＭＳ ゴシック|b0|i0|c128|p49;9}
 11
6.123031769111886E-17
 21
1.0
 31
0.0
 73
     1
 44
1.0
  0
LINE
  5
248
330
1F
100
AcDbEntity
  8
0-0_補助線
  6
JWW_DASHED1
 62
   120
370
     5
100
AcDbLine
 10
-1864.340402890802
 20
-1496.847511051957
 30
0.0
 11
-1908.933591960712
 21
-1541.440700121868
 31
0.0
  0
LINE
  5
249
330
1F
100
AcDbEntity
  8
0-0_補助線
  6
JWW_DASHED1
 62
   120
370
     5
100
AcDbLine
 10
-1779.487589148404
 20
-1496.847511051957
 30
0.0
 11
-1833.487589148396
 21
-1550.847511051952
 31
0.0
  0
LINE
  5
24A
330
1F
100
AcDbEntity
  8
0-0_補助線
  6
JWW_DASHED1
 62
   120
370
     5
100
AcDbLine
 10
-1821.913996019602
 20
-1496.847511051957
 30
0.0
 11
-1875.913996019598
 21
-1550.847511051952
 31
0.0
  0
LINE
  5
24B
330
1F
100
AcDbEntity
  8
0-0_補助線
  6
JWW_DASHED1
 62
   120
370
     5
100
AcDbLine
 10
-1737.061182277204
 20
-1496.847511051957
 30
0.0
 11
-1791.061182277199
 21
-1550.847511051952
 31
0.0
  0
LINE
  5
24C
330
1F
100
AcDbEntity
  8
0-0_補助線
  6
JWW_DASHED1
 62
   120
370
     5
100
AcDbLine
 10
-1694.634775406004
 20
-1496.847511051957
 30
0.0
 11
-1748.634775405999
 21
-1550.847511051952
 31
0.0
  0
LINE
  5
24D
330
1F
100
AcDbEntity
  8
0-0_補助線
  6
JWW_DASHED1
 62
   120
370
     5
100
AcDbLine
 10
-1278.933591960705
 20
-1505.410396318657
 30
0.0
 11
-1324.370706693999
 21
-1550.847511051952
 31
0.0
  0
LINE
  5
24E
330
1F
100
AcDbEntity
  8
0-0_補助線
  6
JWW_DASHED1
 62
   120
370
     5
100
AcDbLine
 10
-1312.797113565204
 20
-1496.847511051957
 30
0.0
 11
-1366.797113565199
 21
-1550.847511051952
 31
0.0
  0
LINE
  5
24F
330
1F
100
AcDbEntity
  8
0-0_補助線
  6
JWW_DASHED1
 62
   120
370
     5
100
AcDbLine
 10
-1355.223520436404
 20
-1496.847511051957
 30
0.0
 11
-1395.933591960713
 21
-1537.557582576265
 31
0.0
  0
LINE
  5
250
330
1F
100
AcDbEntity
  8
0-0_補助線
  6
JWW_DASHED1
 62
   120
370
     5
100
AcDbLine
 10
-1397.649927307604
 20
-1496.847511051957
 30
0.0
 11
-1417.449927307605
 21
-1516.647511051957
 31
0.0
  0
LINE
  5
251
330
1F
100
AcDbEntity
  8
0-0_補助線
  6
JWW_DASHED1
 62
   120
370
     5
100
AcDbLine
 10
-1440.076334178804
 20
-1496.847511051957
 30
0.0
 11
-1459.876334178803
 21
-1516.647511051957
 31
0.0
  0
LINE
  5
252
330
1F
100
AcDbEntity
  8
0-0_補助線
  6
JWW_DASHED1
 62
   120
370
     5
100
AcDbLine
 10
-1482.502741050004
 20
-1496.847511051957
 30
0.0
 11
-1502.302741050003
 21
-1516.647511051957
 31
0.0
  0
LINE
  5
253
330
1F
100
AcDbEntity
  8
0-0_補助線
  6
JWW_DASHED1
 62
   120
370
     5
100
AcDbLine
 10
-1524.929147921204
 20
-1496.847511051957
 30
0.0
 11
-1544.729147921203
 21
-1516.647511051957
 31
0.0
  0
LINE
  5
254
330
1F
100
AcDbEntity
  8
0-0_補助線
  6
JWW_DASHED1
 62
   120
370
     5
100
AcDbLine
 10
-1567.355554792404
 20
-1496.847511051957
 30
0.0
 11
-1587.155554792403
 21
-1516.647511051957
 31
0.0
  0
LINE
  5
255
330
1F
100
AcDbEntity
  8
0-0_補助線
  6
JWW_DASHED1
 62
   120
370
     5
100
AcDbLine
 10
-1609.781961663604
 20
-1496.847511051957
 30
0.0
 11
-1629.581961663603
 21
-1516.647511051957
 31
0.0
  0
LINE
  5
256
330
1F
100
AcDbEntity
  8
0-0_補助線
  6
JWW_DASHED1
 62
   120
370
     5
100
AcDbLine
 10
-1652.208368534804
 20
-1496.847511051957
 30
0.0
 11
-1672.008368534803
 21
-1516.647511051957
 31
0.0
  0
LINE
  5
257
330
1F
100
AcDbEntity
  8
0-0_補助線
  6
JWW_DASHED1
 62
   120
370
     5
100
AcDbLine
 10
-1689.933591960713
 20
-1534.572734477867
 30
0.0
 11
-1706.208368534799
 21
-1550.847511051952
 31
0.0
  0
LINE
  5
258
330
1F
100
AcDbEntity
  8
0-B_寸法
  6
Continuous
 62
   120
370
     5
100
AcDbLine
 10
-3974.039028718301
 20
-2937.49667988559
 30
0.0
 11
-3974.039028718301
 21
-2809.356937428944
 31
0.0
  0
LINE
  5
259
330
1F
100
AcDbEntity
  8
0-B_寸法
  6
Continuous
 62
   120
370
     5
100
AcDbLine
 10
-3974.039028718301
 20
-2809.356937428944
 30
0.0
 11
-4424.039028718305
 21
-2809.356937428944
 31
0.0
  0
LWPOLYLINE
  5
25A
330
1F
100
AcDbEntity
  8
0-B_寸法
  6
Continuous
 62
     7
370
     9
100
AcDbPolyline
 90
        4
 70
     1
 43
3.0
 10
-3972.539028718301
 20
-2809.356937428944
 42
0.4142135623731
 10
-3974.039028718301
 20
-2807.856937428944
 42
0.4142135623731
 10
-3975.539028718301
 20
-2809.356937428944
 42
0.4142135623731
 10
-3974.039028718301
 20
-2810.856937428944
 42
0.4142135623731
  0
LWPOLYLINE
  5
25B
330
1F
100
AcDbEntity
  8
0-B_寸法
  6
Continuous
 62
     7
370
     9
100
AcDbPolyline
 90
        4
 70
     1
 43
3.0
 10
-4422.539028718304
 20
-2809.356937428944
 42
0.4142135623731
 10
-4424.039028718305
 20
-2807.856937428944
 42
0.4142135623731
 10
-4425.539028718305
 20
-2809.356937428944
 42
0.4142135623731
 10
-4424.039028718305
 20
-2810.856937428944
 42
0.4142135623731
  0
LINE
  5
25C
330
1F
100
AcDbEntity
  8
0-B_寸法
  6
Continuous
 62
   120
370
     5
100
AcDbLine
 10
-4424.039028718305
 20
-2937.49667988559
 30
0.0
 11
-4424.039028718305
 21
-2809.356937428944
 31
0.0
  0
MTEXT
  5
25D
330
1F
100
AcDbEntity
  8
0-B_寸法
  6
Continuous
 62
     7
370
     0
100
AcDbMText
 10
-4247.038828109911
 20
-2808.636145621511
 30
0.0
 40
91.44
 41
120.0
 46
0.0
 71
     7
 72
     1
  1
{\fＭＳ ゴシック|b0|i0|c128|p49;75}
 73
     1
 44
1.0
  0
LINE
  5
25E
330
1F
100
AcDbEntity
  8
0-4_枠
  6
Continuous
 62
     7
370
     9
100
AcDbLine
 10
-4315.561108380322
 20
-3057.000405801309
 30
0.0
 11
-4285.561108380322
 21
-3087.000405801309
 31
0.0
  0
LINE
  5
25F
330
1F
100
AcDbEntity
  8
0-4_枠
  6
Continuous
 62
     7
370
     9
100
AcDbLine
 10
-4273.134701509129
 20
-3057.000405801309
 30
0.0
 11
-4243.134701509129
 21
-3087.000405801309
 31
0.0
  0
LINE
  5
260
330
1F
100
AcDbEntity
  8
0-4_枠
  6
Continuous
 62
     7
370
     9
100
AcDbLine
 10
-4230.708294637936
 20
-3057.000405801309
 30
0.0
 11
-4200.708294637936
 21
-3087.000405801309
 31
0.0
  0
LINE
  5
261
330
1F
100
AcDbEntity
  8
0-4_枠
  6
Continuous
 62
     7
370
     9
100
AcDbLine
 10
-4188.281887766742
 20
-3057.000405801309
 30
0.0
 11
-4158.281887766742
 21
-3087.000405801309
 31
0.0
  0
LINE
  5
262
330
1F
100
AcDbEntity
  8
0-4_枠
  6
Continuous
 62
     7
370
     9
100
AcDbLine
 10
-4145.85548089555
 20
-3057.000405801309
 30
0.0
 11
-4115.85548089555
 21
-3087.000405801309
 31
0.0
  0
LINE
  5
263
330
1F
100
AcDbEntity
  8
0-4_枠
  6
Continuous
 62
     7
370
     9
100
AcDbLine
 10
-4103.429074024356
 20
-3057.000405801309
 30
0.0
 11
-4073.429074024356
 21
-3087.000405801309
 31
0.0
  0
LINE
  5
264
330
1F
100
AcDbEntity
  8
0-4_枠
  6
Continuous
 62
     7
370
     9
100
AcDbLine
 10
-4061.002667153166
 20
-3057.000405801309
 30
0.0
 11
-4052.039028718302
 21
-3065.964044236173
 31
0.0
  0
LINE
  5
265
330
1F
100
AcDbEntity
  8
0-4_枠
  6
Continuous
 62
     7
370
     9
100
AcDbLine
 10
-4346.0390287183
 20
-3068.94889233452
 30
0.0
 11
-4327.987515251515
 21
-3087.000405801309
 31
0.0
  0
LINE
  5
266
330
1F
100
AcDbEntity
  8
0-4_枠
  6
Continuous
 62
    92
370
    13
100
AcDbLine
 10
-3994.785903449147
 20
-2997.000405801309
 30
0.0
 11
-4054.785903449147
 21
-3057.000405801309
 31
0.0
  0
LINE
  5
267
330
1F
100
AcDbEntity
  8
0-4_枠
  6
Continuous
 62
    92
370
    13
100
AcDbLine
 10
-4079.638717191533
 20
-2997.000405801309
 30
0.0
 11
-4139.638717191534
 21
-3057.000405801309
 31
0.0
  0
LINE
  5
268
330
1F
100
AcDbEntity
  8
0-4_枠
  6
Continuous
 62
    92
370
    13
100
AcDbLine
 10
-4164.491530933917
 20
-2997.000405801309
 30
0.0
 11
-4224.491530933917
 21
-3057.000405801309
 31
0.0
  0
LINE
  5
269
330
1F
100
AcDbEntity
  8
0-4_枠
  6
Continuous
 62
    92
370
    13
100
AcDbLine
 10
-4249.344344676303
 20
-2997.000405801309
 30
0.0
 11
-4309.344344676303
 21
-3057.000405801309
 31
0.0
  0
LINE
  5
26A
330
1F
100
AcDbEntity
  8
0-4_枠
  6
Continuous
 62
    92
370
    13
100
AcDbLine
 10
-3974.039028718305
 20
-3061.106344812849
 30
0.0
 11
-3999.933089706764
 21
-3087.000405801309
 31
0.0
  0
LINE
  5
26B
330
1F
100
AcDbEntity
  8
0-4_枠
  6
Continuous
 62
    92
370
    13
100
AcDbLine
 10
-3986.0390287183
 20
-2997.000405801309
 30
0.0
 11
-4412.039028718302
 21
-2997.000405801309
 31
0.0
  0
ARC
  5
26C
330
1F
100
AcDbEntity
  8
0-4_枠
  6
Continuous
 62
    92
370
    13
100
AcDbCircle
 10
-4412.039028718302
 20
-3009.000405801309
 30
0.0
 40
12.0
100
AcDbArc
 50
90.0
 51
180.0
  0
LINE
  5
26D
330
1F
100
AcDbEntity
  8
0-4_枠
  6
Continuous
 62
    92
370
    13
100
AcDbLine
 10
-4424.039028718305
 20
-3009.000405801309
 30
0.0
 11
-4424.039028718305
 21
-3087.000405801309
 31
0.0
  0
LINE
  5
26E
330
1F
100
AcDbEntity
  8
0-4_枠
  6
Continuous
 62
    92
370
    13
100
AcDbLine
 10
-3974.039028718305
 20
-3009.000405801309
 30
0.0
 11
-3974.039028718305
 21
-3087.000405801309
 31
0.0
  0
ARC
  5
26F
330
1F
100
AcDbEntity
  8
0-4_枠
  6
Continuous
 62
    92
370
    13
100
AcDbCircle
 10
-3986.0390287183
 20
-3009.000405801309
 30
0.0
 40
12.0
100
AcDbArc
 50
0.0
 51
90.00000000000001
  0
LINE
  5
270
330
1F
100
AcDbEntity
  8
0-4_枠
  6
Continuous
 62
    92
370
    13
100
AcDbLine
 10
-4334.197158418689
 20
-2997.000405801309
 30
0.0
 11
-4424.197158418689
 21
-3087.000405801309
 31
0.0
  0
LINE
  5
271
330
1F
100
AcDbEntity
  8
0-4_枠
  6
Continuous
 62
     7
370
     9
100
AcDbLine
 10
-4052.039028718302
 20
-3057.000405801309
 30
0.0
 11
-4052.039028718302
 21
-3087.000405801309
 31
0.0
  0
LINE
  5
272
330
1F
100
AcDbEntity
  8
0-4_枠
  6
Continuous
 62
     7
370
     9
100
AcDbLine
 10
-4346.0390287183
 20
-3057.000405801309
 30
0.0
 11
-4346.0390287183
 21
-3087.000405801309
 31
0.0
  0
LINE
  5
273
330
1F
100
AcDbEntity
  8
0-4_枠
  6
Continuous
 62
     7
370
     9
100
AcDbLine
 10
-4052.039028718302
 20
-3057.000405801309
 30
0.0
 11
-4346.0390287183
 21
-3057.000405801309
 31
0.0
  0
LINE
  5
274
330
1F
100
AcDbEntity
  8
0-6_扉
  6
Continuous
 62
   200
370
    20
100
AcDbLine
 10
-4163.039117796638
 20
-2973.000405801309
 30
0.0
 11
-4001.039028718304
 21
-2973.000405801309
 31
0.0
  0
LINE
  5
275
330
1F
100
AcDbEntity
  8
0-B_寸法
  6
Continuous
 62
   120
370
     5
100
AcDbLine
 10
-5057.040513357243
 20
-3159.000198071857
 30
0.0
 11
-4847.040513357243
 21
-3159.000198071857
 31
0.0
  0
LWPOLYLINE
  5
276
330
1F
100
AcDbEntity
  8
0-B_寸法
  6
Continuous
 62
     7
370
     9
100
AcDbPolyline
 90
        4
 70
     1
 43
3.0
 10
-5055.540513357242
 20
-3159.000198071857
 42
0.4142135623731
 10
-5057.040513357243
 20
-3157.500198071857
 42
0.4142135623731
 10
-5058.540513357243
 20
-3159.000198071857
 42
0.4142135623731
 10
-5057.040513357243
 20
-3160.500198071857
 42
0.4142135623731
  0
LWPOLYLINE
  5
277
330
1F
100
AcDbEntity
  8
0-B_寸法
  6
Continuous
 62
     7
370
     9
100
AcDbPolyline
 90
        4
 70
     1
 43
3.0
 10
-3189.539771037774
 20
-3087.000287030195
 42
0.4142135623731
 10
-3191.039771037774
 20
-3085.500287030195
 42
0.4142135623731
 10
-3192.539771037774
 20
-3087.000287030195
 42
0.4142135623731
 10
-3191.039771037774
 20
-3088.500287030195
 42
0.4142135623731
  0
LWPOLYLINE
  5
278
330
1F
100
AcDbEntity
  8
0-B_寸法
  6
Continuous
 62
     7
370
     9
100
AcDbPolyline
 90
        4
 70
     1
 43
3.0
 10
-3189.539771037774
 20
-3087.000524572423
 42
0.4142135623731
 10
-3191.039771037774
 20
-3085.500524572423
 42
0.4142135623731
 10
-3192.539771037774
 20
-3087.000524572423
 42
0.4142135623731
 10
-3191.039771037774
 20
-3088.500524572423
 42
0.4142135623731
  0
LWPOLYLINE
  5
279
330
1F
100
AcDbEntity
  8
0-B_寸法
  6
Continuous
 62
     7
370
     9
100
AcDbPolyline
 90
        4
 70
     1
 43
3.0
 10
-2979.539771037774
 20
-3087.000524572424
 42
0.4142135623731
 10
-2981.039771037774
 20
-3085.500524572424
 42
0.4142135623731
 10
-2982.539771037774
 20
-3087.000524572424
 42
0.4142135623731
 10
-2981.039771037774
 20
-3088.500524572424
 42
0.4142135623731
  0
LWPOLYLINE
  5
27A
330
1F
100
AcDbEntity
  8
0-B_寸法
  6
Continuous
 62
     7
370
     9
100
AcDbPolyline
 90
        4
 70
     1
 43
3.0
 10
-2979.539771037774
 20
-3087.000762114653
 42
0.4142135623731
 10
-2981.039771037774
 20
-3085.500762114653
 42
0.4142135623731
 10
-2982.539771037774
 20
-3087.000762114653
 42
0.4142135623731
 10
-2981.039771037774
 20
-3088.500762114653
 42
0.4142135623731
  0
LINE
  5
27B
330
1F
100
AcDbEntity
  8
0-B_寸法
  6
Continuous
 62
   120
370
     5
100
AcDbLine
 10
-3611.039771037772
 20
-3087.000643343538
 30
0.0
 11
-2981.039771037774
 21
-3087.000643343538
 31
0.0
  0
LWPOLYLINE
  5
27C
330
1F
100
AcDbEntity
  8
0-B_寸法
  6
Continuous
 62
     7
370
     9
100
AcDbPolyline
 90
        4
 70
     1
 43
3.0
 10
-3189.539771037774
 20
-2997.000405801309
 42
0.4142135623731
 10
-3191.039771037774
 20
-2995.500405801309
 42
0.4142135623731
 10
-3192.539771037774
 20
-2997.000405801309
 42
0.4142135623731
 10
-3191.039771037774
 20
-2998.500405801309
 42
0.4142135623731
  0
LWPOLYLINE
  5
27D
330
1F
100
AcDbEntity
  8
0-B_寸法
  6
Continuous
 62
     7
370
     9
100
AcDbPolyline
 90
        4
 70
     1
 43
3.0
 10
-3189.539771037774
 20
-2997.000643343537
 42
0.4142135623731
 10
-3191.039771037774
 20
-2995.500643343538
 42
0.4142135623731
 10
-3192.539771037774
 20
-2997.000643343537
 42
0.4142135623731
 10
-3191.039771037774
 20
-2998.500643343537
 42
0.4142135623731
  0
LINE
  5
27E
330
1F
100
AcDbEntity
  8
0-B_寸法
  6
Continuous
 62
   120
370
     5
100
AcDbLine
 10
-3611.039771037772
 20
-2997.000643343537
 30
0.0
 11
-3191.039771037774
 21
-2997.000643343537
 31
0.0
  0
LWPOLYLINE
  5
27F
330
1F
100
AcDbEntity
  8
0-B_寸法
  6
Continuous
 62
     7
370
     9
100
AcDbPolyline
 90
        4
 70
     1
 43
3.0
 10
-3399.539771037774
 20
-2997.000643343537
 42
0.4142135623731
 10
-3401.039771037774
 20
-2995.500643343538
 42
0.4142135623731
 10
-3402.539771037774
 20
-2997.000643343537
 42
0.4142135623731
 10
-3401.039771037774
 20
-2998.500643343537
 42
0.4142135623731
  0
LWPOLYLINE
  5
280
330
1F
100
AcDbEntity
  8
0-B_寸法
  6
Continuous
 62
     7
370
     9
100
AcDbPolyline
 90
        4
 70
     1
 43
3.0
 10
-3399.539771037774
 20
-2973.000405801309
 42
0.4142135623731
 10
-3401.039771037774
 20
-2971.500405801309
 42
0.4142135623731
 10
-3402.539771037774
 20
-2973.000405801309
 42
0.4142135623731
 10
-3401.039771037774
 20
-2974.500405801309
 42
0.4142135623731
  0
LINE
  5
281
330
1F
100
AcDbEntity
  8
0-B_寸法
  6
Continuous
 62
   120
370
     5
100
AcDbLine
 10
-3611.039771037772
 20
-2973.000405801309
 30
0.0
 11
-3401.039771037774
 21
-2973.000405801309
 31
0.0
  0
LINE
  5
282
330
1F
100
AcDbEntity
  8
0-3_仕上げ
  6
Continuous
 62
     7
370
     9
100
AcDbLine
 10
-3611.039771037772
 20
-3123.000673036317
 30
0.0
 11
-4847.040513357243
 21
-3123.000673036317
 31
0.0
  0
LINE
  5
283
330
1F
100
AcDbEntity
  8
0-3_仕上げ
  6
Continuous
 62
     7
370
     9
100
AcDbLine
 10
-3611.039771037772
 20
-3099.000742319467
 30
0.0
 11
-4847.040513357243
 21
-3099.000742319467
 31
0.0
  0
LINE
  5
284
330
1F
100
AcDbEntity
  8
0-3_仕上げ
  6
Continuous
 62
     7
370
     9
100
AcDbLine
 10
-3611.039771037772
 20
-3111.000336518158
 30
0.0
 11
-4847.040513357243
 21
-3111.000336518158
 31
0.0
  0
LINE
  5
285
330
1F
100
AcDbEntity
  8
0-3_仕上げ
  6
Continuous
 62
     7
370
     9
100
AcDbLine
 10
-3611.039771037772
 20
-3147.000603753166
 30
0.0
 11
-4847.040513357243
 21
-3147.000603753166
 31
0.0
  0
LINE
  5
286
330
1F
100
AcDbEntity
  8
0-3_仕上げ
  6
Continuous
 62
     7
370
     9
100
AcDbLine
 10
-3611.039771037772
 20
-3135.001009554475
 30
0.0
 11
-4847.040513357243
 21
-3135.001009554475
 31
0.0
  0
LINE
  5
287
330
1F
100
AcDbEntity
  8
0-3_仕上げ
  6
Continuous
 62
    40
370
    15
100
AcDbLine
 10
-4847.040513357243
 20
-3159.000197951857
 30
0.0
 11
-3611.039771037772
 21
-3159.000197951857
 31
0.0
  0
LINE
  5
288
330
1F
100
AcDbEntity
  8
0-3_仕上げ
  6
Continuous
 62
    40
370
    15
100
AcDbLine
 10
-4847.040513357243
 20
-3087.000405801309
 30
0.0
 11
-3611.039771037772
 21
-3087.000405801309
 31
0.0
  0
LINE
  5
289
330
1F
100
AcDbEntity
  8
0-0_補助線
  6
JWW_HOJO
 62
   120
370
     5
100
AcDbLine
 10
-2981.039177182199
 20
-3159.000198071857
 30
0.0
 11
-5057.040513357243
 21
-3159.000198071857
 31
0.0
  0
LINE
  5
28A
330
1F
100
AcDbEntity
  8
0-B_寸法
  6
Continuous
 62
   120
370
     5
100
AcDbLine
 10
-3605.602953971686
 20
-3159.000197951857
 30
0.0
 11
-2981.039771037774
 21
-3159.000197951857
 31
0.0
  0
LINE
  5
28B
330
1F
100
AcDbEntity
  8
0-B_寸法
  6
Continuous
 62
   120
370
     5
100
AcDbLine
 10
-3401.039771037774
 20
-3087.000405801309
 30
0.0
 11
-3191.039771037774
 21
-3087.000405801309
 31
0.0
  0
LWPOLYLINE
  5
28C
330
1F
100
AcDbEntity
  8
0-B_寸法
  6
Continuous
 62
     7
370
     9
100
AcDbPolyline
 90
        4
 70
     1
 43
3.0
 10
-2979.539771037774
 20
-3159.000197951857
 42
0.4142135623731
 10
-2981.039771037774
 20
-3157.500197951857
 42
0.4142135623731
 10
-2982.539771037774
 20
-3159.000197951857
 42
0.4142135623731
 10
-2981.039771037774
 20
-3160.500197951857
 42
0.4142135623731
  0
MTEXT
  5
28D
330
1F
100
AcDbEntity
  8
0-B_寸法
  6
Continuous
 62
     7
370
     0
100
AcDbMText
 10
-4198.289060885479
 20
-1180.343118417054
 30
0.0
 40
91.44
 41
240.0
 46
0.0
 71
     7
 72
     1
  1
{\fＭＳ ゴシック|b0|i0|c128|p49;(24)}
 73
     1
 44
1.0
  0
LINE
  5
28E
330
1F
100
AcDbEntity
  8
0-6_扉
  6
Continuous
 62
   200
370
    20
100
AcDbLine
 10
-4001.039028718304
 20
-327.0001977693535
 30
0.0
 11
-4163.039117796638
 21
-327.0001977693535
 31
0.0
  0
LWPOLYLINE
  5
28F
330
1F
100
AcDbEntity
  8
0-B_寸法
  6
Continuous
 62
     7
370
     9
100
AcDbPolyline
 90
        4
 70
     1
 43
3.0
 10
-4161.539117796638
 20
-1031.063068929089
 42
0.4142135623731
 10
-4163.039117796638
 20
-1029.563068929089
 42
0.4142135623731
 10
-4164.539117796638
 20
-1031.063068929089
 42
0.4142135623731
 10
-4163.039117796638
 20
-1032.563068929089
 42
0.4142135623731
  0
LWPOLYLINE
  5
290
330
1F
100
AcDbEntity
  8
0-B_寸法
  6
Continuous
 62
     7
370
     9
100
AcDbPolyline
 90
        4
 70
     1
 43
3.0
 10
-3999.539028718304
 20
-1031.063068929089
 42
0.4142135623731
 10
-4001.039028718304
 20
-1029.563068929089
 42
0.4142135623731
 10
-4002.539028718304
 20
-1031.063068929089
 42
0.4142135623731
 10
-4001.039028718304
 20
-1032.563068929089
 42
0.4142135623731
  0
MTEXT
  5
291
330
1F
100
AcDbEntity
  8
0-B_寸法
  6
Continuous
 62
     7
370
     0
100
AcDbMText
 10
-4138.289060885479
 20
-1030.343019441124
 30
0.0
 40
91.44
 41
120.0
 46
0.0
 71
     7
 72
     1
  1
{\fＭＳ ゴシック|b0|i0|c128|p49;27}
 73
     1
 44
1.0
  0
LINE
  5
292
330
1F
100
AcDbEntity
  8
0-B_寸法
  6
Continuous
 62
   120
370
     5
100
AcDbLine
 10
-4163.039117796638
 20
-965.5719338731336
 30
0.0
 11
-4163.039117796638
 21
-1031.063068929089
 31
0.0
  0
LINE
  5
293
330
1F
100
AcDbEntity
  8
0-B_寸法
  6
Continuous
 62
   120
370
     5
100
AcDbLine
 10
-4001.039028718304
 20
-965.5719338731336
 30
0.0
 11
-4001.039028718304
 21
-1031.063068929089
 31
0.0
  0
LINE
  5
294
330
1F
100
AcDbEntity
  8
0-B_寸法
  6
Continuous
 62
   120
370
     5
100
AcDbLine
 10
-4001.039028718304
 20
-1031.063068929089
 30
0.0
 11
-4163.039117796638
 21
-1031.063068929089
 31
0.0
  0
LINE
  5
295
330
1F
100
AcDbEntity
  8
0-3_仕上げ
  6
Continuous
 62
   120
370
     5
100
AcDbLine
 10
-4100.038533838659
 20
98.99978738372589
 30
0.0
 11
-4492.065877588664
 21
-81.00021261627411
 31
0.0
  0
LINE
  5
296
330
1F
100
AcDbEntity
  8
0-3_仕上げ
  6
Continuous
 62
   120
370
     5
100
AcDbLine
 10
-4100.038533838659
 20
98.99978738372589
 30
0.0
 11
-4492.065877588664
 21
98.99978738372589
 31
0.0
  0
LINE
  5
297
330
1F
100
AcDbEntity
  8
0-3_仕上げ
  6
Continuous
 62
   120
370
     5
100
AcDbLine
 10
-4100.038533838659
 20
-81.00021261627411
 30
0.0
 11
-4100.038533838659
 21
98.99978738372589
 31
0.0
  0
LINE
  5
298
330
1F
100
AcDbEntity
  8
0-3_仕上げ
  6
Continuous
 62
   120
370
     5
100
AcDbLine
 10
-4492.065877588664
 20
-81.00021261627411
 30
0.0
 11
-4100.038533838659
 21
-81.00021261627411
 31
0.0
  0
LINE
  5
299
330
1F
100
AcDbEntity
  8
0-3_仕上げ
  6
Continuous
 62
    40
370
    15
100
AcDbLine
 10
-4100.038533838659
 20
-129.000212615743
 30
0.0
 11
-4025.039028718302
 21
-129.0002126157438
 31
0.0
  0
LINE
  5
29A
330
1F
100
AcDbEntity
  8
0-C_ハッチ
  6
JWW_DASHED1
 62
   120
370
     5
100
AcDbLine
 10
-4025.039028718302
 20
114.9578842750938
 30
0.0
 11
-4100.038533838659
 21
189.9573893954485
 31
0.0
  0
LINE
  5
29B
330
1F
100
AcDbEntity
  8
0-3_仕上げ
  6
Continuous
 62
    40
370
    15
100
AcDbLine
 10
-4100.038533838659
 20
-129.0002126157438
 30
0.0
 11
-4100.038533838659
 21
194.9998020481414
 31
0.0
  0
LINE
  5
29C
330
1F
100
AcDbEntity
  8
0-3_仕上げ
  6
Continuous
 62
    40
370
    15
100
AcDbLine
 10
-4025.039028718302
 20
-129.0002126157438
 30
0.0
 11
-4025.039028718302
 21
194.9998020481414
 31
0.0
  0
LINE
  5
29D
330
1F
100
AcDbEntity
  8
0-C_ハッチ
  6
JWW_DASHED1
 62
   120
370
     5
100
AcDbLine
 10
-4025.039028718302
 20
157.3844111437595
 30
0.0
 11
-4062.654419622684
 21
194.9998020481414
 31
0.0
  0
LINE
  5
29E
330
1F
100
AcDbEntity
  8
0-C_ハッチ
  6
JWW_DASHED1
 62
   120
370
     5
100
AcDbLine
 10
-4025.039028718302
 20
72.53135740642819
 30
0.0
 11
-4100.038533838659
 21
147.5308625267837
 31
0.0
  0
LINE
  5
29F
330
1F
100
AcDbEntity
  8
0-C_ハッチ
  6
JWW_DASHED1
 62
   120
370
     5
100
AcDbLine
 10
-4025.039028718302
 20
30.10520169749697
 30
0.0
 11
-4100.038533838659
 21
105.1047068178525
 31
0.0
  0
LINE
  5
2A0
330
1F
100
AcDbEntity
  8
0-C_ハッチ
  6
JWW_DASHED1
 62
   120
370
     5
100
AcDbLine
 10
-4025.039028718302
 20
-12.32132517116867
 30
0.0
 11
-4100.038533838659
 21
62.67817994918516
 31
0.0
  0
LINE
  5
2A1
330
1F
100
AcDbEntity
  8
0-C_ハッチ
  6
JWW_DASHED1
 62
   120
370
     5
100
AcDbLine
 10
-4025.039028718302
 20
-54.7478520398343
 30
0.0
 11
-4100.038533838659
 21
20.25165308051868
 31
0.0
  0
LINE
  5
2A2
330
1F
100
AcDbEntity
  8
0-C_ハッチ
  6
JWW_DASHED1
 62
   120
370
     5
100
AcDbLine
 10
-4025.039028718302
 20
-97.17326542929754
 30
0.0
 11
-4100.038533838659
 21
-22.17376030894371
 31
0.0
  0
LINE
  5
2A3
330
1F
100
AcDbEntity
  8
0-C_ハッチ
  6
JWW_DASHED1
 62
   120
370
     5
100
AcDbLine
 10
-4035.638608400524
 20
-129.0002126157438
 30
0.0
 11
-4100.038533838659
 21
-64.6002871776085
 31
0.0
  0
LINE
  5
2A4
330
1F
100
AcDbEntity
  8
0-C_ハッチ
  6
JWW_DASHED1
 62
   120
370
     5
100
AcDbLine
 10
-4078.06513526919
 20
-129.0002126157438
 30
0.0
 11
-4100.038533838659
 21
-107.026814046275
 31
0.0
  0
LINE
  5
2A5
330
1F
100
AcDbEntity
  8
0-1_通り芯
  6
JWW_CENTER1
 62
   120
370
     5
100
AcDbLine
 10
-4268.039028718303
 20
-3367.795601509712
 30
0.0
 11
-4268.039028718303
 21
194.9998020481414
 31
0.0
  0
MTEXT
  5
2A6
330
1F
100
AcDbEntity
  8
0-B_寸法
  6
Continuous
 62
     7
370
   211
100
AcDbMText
 10
-4331.789028718306
 20
-640.4083281140535
 30
0.0
 40
97.15499999999999
 41
127.5
 46
0.0
 71
     7
 72
     1
  1
{\fＭＳ ゴシック|b0|i0|c128|p49;99}
 73
     1
 44
1.0
  0
LINE
  5
2A7
330
1F
100
AcDbEntity
  8
0-B_寸法
  6
Continuous
 62
   120
370
     5
100
AcDbLine
 10
-4565.039028718304
 20
-643.9858281140534
 30
0.0
 11
-4565.039028718304
 21
-491.7606017890961
 31
0.0
  0
LINE
  5
2A8
330
1F
100
AcDbEntity
  8
0-B_寸法
  6
Continuous
 62
   120
370
     5
100
AcDbLine
 10
-3971.03902871831
 20
-643.9858281140534
 30
0.0
 11
-3971.03902871831
 21
-491.7606017890961
 31
0.0
  0
LWPOLYLINE
  5
2A9
330
1F
100
AcDbEntity
  8
0-B_寸法
  6
Continuous
 62
     7
370
     9
100
AcDbPolyline
 90
        4
 70
     1
 43
3.0
 10
-4563.539028718304
 20
-643.9858281140534
 42
0.4142135623731
 10
-4565.039028718304
 20
-642.4858281140534
 42
0.4142135623731
 10
-4566.539028718305
 20
-643.9858281140534
 42
0.4142135623731
 10
-4565.039028718304
 20
-645.4858281140534
 42
0.4142135623731
  0
LWPOLYLINE
  5
2AA
330
1F
100
AcDbEntity
  8
0-B_寸法
  6
Continuous
 62
     7
370
     9
100
AcDbPolyline
 90
        4
 70
     1
 43
3.0
 10
-3969.53902871831
 20
-643.9858281140534
 42
0.4142135623731
 10
-3971.03902871831
 20
-642.4858281140534
 42
0.4142135623731
 10
-3972.539028718311
 20
-643.9858281140534
 42
0.4142135623731
 10
-3971.03902871831
 20
-645.4858281140534
 42
0.4142135623731
  0
LINE
  5
2AB
330
1F
100
AcDbEntity
  8
0-B_寸法
  6
Continuous
 62
   120
370
     5
100
AcDbLine
 10
-3971.03902871831
 20
-643.9858281140534
 30
0.0
 11
-4565.039028718304
 21
-643.9858281140534
 31
0.0
  0
LINE
  5
2AC
330
1F
100
AcDbEntity
  8
0-C_ハッチ
  6
Continuous
 62
   120
370
     5
100
AcDbLine
 10
-4460.805083309181
 20
-309.0004353115751
 30
0.0
 11
-4565.039028718304
 21
-204.7664899024691
 31
0.0
  0
LINE
  5
2AD
330
1F
100
AcDbEntity
  8
0-C_ハッチ
  6
Continuous
 62
   120
370
     5
100
AcDbLine
 10
-4520.202052928834
 20
-309.0004353115751
 30
0.0
 11
-4565.039028718304
 21
-264.1634595221119
 31
0.0
  0
LINE
  5
2AE
330
1F
100
AcDbEntity
  8
0-C_ハッチ
  6
Continuous
 62
   120
370
     5
100
AcDbLine
 10
-4401.408113689527
 20
-309.0004353115849
 30
0.0
 11
-4565.039028718304
 21
-145.3695202828021
 31
0.0
  0
LINE
  5
2AF
330
1F
100
AcDbEntity
  8
0-C_ハッチ
  6
Continuous
 62
   120
370
     5
100
AcDbLine
 10
-4342.011144069839
 20
-309.0004353115734
 30
0.0
 11
-4522.011366765666
 21
-129.000212615743
 31
0.0
  0
LINE
  5
2B0
330
1F
100
AcDbEntity
  8
0-C_ハッチ
  6
Continuous
 62
   120
370
     5
100
AcDbLine
 10
-4282.614174450178
 20
-309.0004353115862
 30
0.0
 11
-4462.614397146021
 21
-129.000212615743
 31
0.0
  0
LINE
  5
2B1
330
1F
100
AcDbEntity
  8
0-4_枠
  6
Continuous
 62
   120
370
     5
100
AcDbLine
 10
-3971.039028718304
 20
-129.000212615743
 30
0.0
 11
-3953.039028718303
 21
-129.000212615743
 31
0.0
  0
LINE
  5
2B2
330
1F
100
AcDbEntity
  8
0-4_枠
  6
Continuous
 62
   120
370
     5
100
AcDbLine
 10
-4487.039771037774
 20
-129.000212615743
 30
0.0
 11
-4583.039028718305
 21
-129.000212615743
 31
0.0
  0
ARC
  5
2B3
330
1F
100
AcDbEntity
  8
0-4_枠
  6
Continuous
 62
    92
370
    13
100
AcDbCircle
 10
-4535.039028718304
 20
-279.0004353115836
 30
0.0
 40
30.0
100
AcDbArc
 50
180.0
 51
270.0
  0
LINE
  5
2B4
330
1F
100
AcDbEntity
  8
0-4_枠
  6
Continuous
 62
    92
370
    13
100
AcDbLine
 10
-4535.039028718304
 20
-309.0004353115836
 30
0.0
 11
-3989.038791176076
 21
-309.0004353115836
 31
0.0
  0
LINE
  5
2B5
330
1F
100
AcDbEntity
  8
0-4_枠
  6
Continuous
 62
    92
370
    13
100
AcDbLine
 10
-3971.039028718304
 20
-129.000212615743
 30
0.0
 11
-4565.039028718304
 21
-129.000212615743
 31
0.0
  0
LINE
  5
2B6
330
1F
100
AcDbEntity
  8
0-4_枠
  6
Continuous
 62
    92
370
    13
100
AcDbLine
 10
-4565.039028718304
 20
-279.0004353115836
 30
0.0
 11
-4565.039028718304
 21
-129.000212615743
 31
0.0
  0
LINE
  5
2B7
330
1F
100
AcDbEntity
  8
0-B_寸法
  6
Continuous
 62
   120
370
     5
100
AcDbLine
 10
-5057.040513357243
 20
-81.00021261627433
 30
0.0
 11
-4847.040513357243
 21
-81.00021261627433
 31
0.0
  0
LWPOLYLINE
  5
2B8
330
1F
100
AcDbEntity
  8
0-B_寸法
  6
Continuous
 62
     7
370
     9
100
AcDbPolyline
 90
        4
 70
     1
 43
3.0
 10
-5055.540513357242
 20
-81.00021261627433
 42
0.4142135623731
 10
-5057.040513357243
 20
-79.50021261627433
 42
0.4142135623731
 10
-5058.540513357243
 20
-81.00021261627433
 42
0.4142135623731
 10
-5057.040513357243
 20
-82.50021261627433
 42
0.4142135623731
  0
LINE
  5
2B9
330
1F
100
AcDbEntity
  8
0-B_寸法
  6
Continuous
 62
   120
370
     5
100
AcDbLine
 10
-5057.040513357243
 20
-3159.000198071857
 30
0.0
 11
-5057.040513357243
 21
-81.00021261627433
 31
0.0
  0
LINE
  5
2BA
330
1F
100
AcDbEntity
  8
0-B_寸法
  6
Continuous
 62
   120
370
     5
100
AcDbLine
 10
-2981.039771037774
 20
-81.00021261627421
 30
0.0
 11
-3611.039771037772
 21
-81.00021261627421
 31
0.0
  0
LWPOLYLINE
  5
2BB
330
1F
100
AcDbEntity
  8
0-B_寸法
  6
Continuous
 62
     7
370
     9
100
AcDbPolyline
 90
        4
 70
     1
 43
3.0
 10
-2979.539771037774
 20
-81.00021261627421
 42
0.4142135623731
 10
-2981.039771037774
 20
-79.50021261627423
 42
0.4142135623731
 10
-2982.539771037774
 20
-81.00021261627421
 42
0.4142135623731
 10
-2981.039771037774
 20
-82.50021261627421
 42
0.4142135623731
  0
LINE
  5
2BC
330
1F
100
AcDbEntity
  8
0-B_寸法
  6
Continuous
 62
   120
370
     5
100
AcDbLine
 10
-2981.039771037774
 20
-129.0002126157431
 30
0.0
 11
-2981.039771037774
 21
-81.00021261627421
 31
0.0
  0
LINE
  5
2BD
330
1F
100
AcDbEntity
  8
0-3_仕上げ
  6
Continuous
 62
   120
370
     5
100
AcDbLine
 10
-4492.065877588664
 20
98.99978738372589
 30
0.0
 11
-4492.065877588664
 21
-81.00021261627411
 31
0.0
  0
LINE
  5
2BE
330
1F
100
AcDbEntity
  8
0-0_補助線
  6
JWW_HOJO
 62
   120
370
     5
100
AcDbLine
 10
-5057.040513357243
 20
194.9998020481414
 30
0.0
 11
-2981.038583326624
 21
194.9998020481414
 31
0.0
  0
LINE
  5
2BF
330
1F
100
AcDbEntity
  8
0-0_補助線
  6
JWW_HOJO
 62
   120
370
     5
100
AcDbLine
 10
-5057.040513357243
 20
-3159.000198071857
 30
0.0
 11
-5057.040513357243
 21
194.9998020481414
 31
0.0
  0
LINE
  5
2C0
330
1F
100
AcDbEntity
  8
0-0_補助線
  6
JWW_HOJO
 62
   120
370
     5
100
AcDbLine
 10
-2981.038583326624
 20
-3159.000198071857
 30
0.0
 11
-2981.038583326624
 21
194.9998020481414
 31
0.0
  0
LINE
  5
2C1
330
1F
100
AcDbEntity
  8
0-0_補助線
  6
JWW_HOJO
 62
   120
370
     5
100
AcDbLine
 10
-4847.040513357243
 20
-3159.000198071857
 30
0.0
 11
-4847.040513357243
 21
194.9998020481414
 31
0.0
  0
LINE
  5
2C2
330
1F
100
AcDbEntity
  8
0-0_補助線
  6
JWW_HOJO
 62
   120
370
     5
100
AcDbLine
 10
-3611.039771037772
 20
-3159.000198071857
 30
0.0
 11
-3611.039771037772
 21
194.9998020481414
 31
0.0
  0
LINE
  5
2C3
330
1F
100
AcDbEntity
  8
0-B_寸法
  6
Continuous
 62
   120
370
     5
100
AcDbLine
 10
-3191.039771037774
 20
-129.000212615743
 30
0.0
 11
-3191.039771037774
 21
-3087.000524572424
 31
0.0
  0
LINE
  5
2C4
330
1F
100
AcDbEntity
  8
0-0_補助線
  6
JWW_HOJO
 62
   120
370
     5
100
AcDbLine
 10
-3191.039474109987
 20
-2997.000405801309
 30
0.0
 11
-3191.039474109987
 21
-81.00021261627518
 31
0.0
  0
LINE
  5
2C5
330
1F
100
AcDbEntity
  8
0-B_寸法
  6
Continuous
 62
   120
370
     5
100
AcDbLine
 10
-3401.039771037774
 20
-2997.000643343537
 30
0.0
 11
-3401.039771037774
 21
-309.0000641518492
 31
0.0
  0
LINE
  5
2C6
330
1F
100
AcDbEntity
  8
0-B_寸法
  6
Continuous
 62
   120
370
     5
100
AcDbLine
 10
-2981.039771037774
 20
-3159.000197951857
 30
0.0
 11
-2981.039771037774
 21
-129.000212615743
 31
0.0
  0
LWPOLYLINE
  5
2C7
330
1F
100
AcDbEntity
  8
0-B_寸法
  6
Continuous
 62
     7
370
     9
100
AcDbPolyline
 90
        4
 70
     1
 43
3.0
 10
-2979.539771037774
 20
-128.9994702962746
 42
0.4142135623731
 10
-2981.039771037774
 20
-127.4994702962746
 42
0.4142135623731
 10
-2982.539771037774
 20
-128.9994702962746
 42
0.4142135623731
 10
-2981.039771037774
 20
-130.4994702962746
 42
0.4142135623731
  0
LINE
  5
2C8
330
1F
100
AcDbEntity
  8
0-B_寸法
  6
Continuous
 62
   120
370
     5
100
AcDbLine
 10
-2981.039771037774
 20
-128.9994702962746
 30
0.0
 11
-3527.040384688528
 21
-128.9994702962746
 31
0.0
  0
LINE
  5
2C9
330
1F
100
AcDbEntity
  8
0-B_寸法
  6
Continuous
 62
   120
370
     5
100
AcDbLine
 10
-3611.039771037772
 20
-129.000212615743
 30
0.0
 11
-2981.039771037774
 21
-129.000212615743
 31
0.0
  0
LWPOLYLINE
  5
2CA
330
1F
100
AcDbEntity
  8
0-B_寸法
  6
Continuous
 62
     7
370
     9
100
AcDbPolyline
 90
        4
 70
     1
 43
3.0
 10
-2979.539771037774
 20
-129.000212615743
 42
0.4142135623731
 10
-2981.039771037774
 20
-127.500212615743
 42
0.4142135623731
 10
-2982.539771037774
 20
-129.000212615743
 42
0.4142135623731
 10
-2981.039771037774
 20
-130.500212615743
 42
0.4142135623731
  0
LWPOLYLINE
  5
2CB
330
1F
100
AcDbEntity
  8
0-B_寸法
  6
Continuous
 62
     7
370
     9
100
AcDbPolyline
 90
        4
 70
     1
 43
3.0
 10
-3189.539771037774
 20
-129.000212615743
 42
0.4142135623731
 10
-3191.039771037774
 20
-127.500212615743
 42
0.4142135623731
 10
-3192.539771037774
 20
-129.000212615743
 42
0.4142135623731
 10
-3191.039771037774
 20
-130.500212615743
 42
0.4142135623731
  0
LWPOLYLINE
  5
2CC
330
1F
100
AcDbEntity
  8
0-B_寸法
  6
Continuous
 62
     7
370
     9
100
AcDbPolyline
 90
        4
 70
     1
 43
3.0
 10
-3189.539771037774
 20
-307.0418253955148
 42
0.4142135623731
 10
-3191.039771037774
 20
-305.5418253955148
 42
0.4142135623731
 10
-3192.539771037774
 20
-307.0418253955148
 42
0.4142135623731
 10
-3191.039771037774
 20
-308.5418253955148
 42
0.4142135623731
  0
MTEXT
  5
2CD
330
1F
100
AcDbEntity
  8
0-B_寸法
  6
Continuous
 62
     7
370
     0
100
AcDbMText
 10
-3206.039820525737
 20
-296.0510313776203
 30
0.0
 40
91.44
 41
120.0
 46
0.0
 71
     7
 72
     1
  1
{\fＭＳ ゴシック|b0|i0|c128|p49;30}
 11
6.123031769111886E-17
 21
1.0
 31
0.0
 73
     1
 44
1.0
  0
LINE
  5
2CE
330
1F
100
AcDbEntity
  8
0-B_寸法
  6
Continuous
 62
   120
370
     5
100
AcDbLine
 10
-3401.039771037774
 20
-307.0418253955148
 30
0.0
 11
-3191.039771037774
 21
-307.0418253955148
 31
0.0
  0
LWPOLYLINE
  5
2CF
330
1F
100
AcDbEntity
  8
0-B_寸法
  6
Continuous
 62
     7
370
     9
100
AcDbPolyline
 90
        4
 70
     1
 43
3.0
 10
-3399.539771037774
 20
-309.0000641518492
 42
0.4142135623731
 10
-3401.039771037774
 20
-307.5000641518492
 42
0.4142135623731
 10
-3402.539771037774
 20
-309.0000641518492
 42
0.4142135623731
 10
-3401.039771037774
 20
-310.5000641518492
 42
0.4142135623731
  0
LWPOLYLINE
  5
2D0
330
1F
100
AcDbEntity
  8
0-B_寸法
  6
Continuous
 62
     7
370
     9
100
AcDbPolyline
 90
        4
 70
     1
 43
3.0
 10
-3399.539771037774
 20
-327.0001977693535
 42
0.4142135623731
 10
-3401.039771037774
 20
-325.5001977693535
 42
0.4142135623731
 10
-3402.539771037774
 20
-327.0001977693535
 42
0.4142135623731
 10
-3401.039771037774
 20
-328.5001977693535
 42
0.4142135623731
  0
LINE
  5
2D1
330
1F
100
AcDbEntity
  8
0-B_寸法
  6
Continuous
 62
   120
370
     5
100
AcDbLine
 10
-3611.039771037772
 20
-309.0000641518492
 30
0.0
 11
-3401.039771037774
 21
-309.0000641518492
 31
0.0
  0
LINE
  5
2D2
330
1F
100
AcDbEntity
  8
0-B_寸法
  6
Continuous
 62
   120
370
     5
100
AcDbLine
 10
-3611.039771037772
 20
-327.0001977693535
 30
0.0
 11
-3401.039771037774
 21
-327.0001977693535
 31
0.0
  0
LINE
  5
2D3
330
1F
100
AcDbEntity
  8
0-C_ハッチ
  6
Continuous
 62
   120
370
     5
100
AcDbLine
 10
-3971.03902871831
 20
-204.7967937057534
 30
0.0
 11
-4046.835609808317
 21
-129.0002126157489
 31
0.0
  0
LINE
  5
2D4
330
1F
100
AcDbEntity
  8
0-C_ハッチ
  6
Continuous
 62
   120
370
     5
100
AcDbLine
 10
-3971.039028718304
 20
-264.1937633254117
 30
0.0
 11
-4106.232579427981
 21
-129.0002126157361
 31
0.0
  0
LINE
  5
2D5
330
1F
100
AcDbEntity
  8
0-C_ハッチ
  6
Continuous
 62
   120
370
     5
100
AcDbLine
 10
-3985.629326351836
 20
-309.0004353115806
 30
0.0
 11
-4165.629549047677
 21
-129.00021261574
 31
0.0
  0
LINE
  5
2D6
330
1F
100
AcDbEntity
  8
0-C_ハッチ
  6
Continuous
 62
   120
370
     5
100
AcDbLine
 10
-4045.02629597148
 20
-309.0004353115827
 30
0.0
 11
-4225.026518667327
 21
-129.0002126157374
 31
0.0
  0
LINE
  5
2D7
330
1F
100
AcDbEntity
  8
0-C_ハッチ
  6
Continuous
 62
   120
370
     5
100
AcDbLine
 10
-4104.42326559112
 20
-309.0004353115904
 30
0.0
 11
-4284.423488286964
 21
-129.0002126157502
 31
0.0
  0
LINE
  5
2D8
330
1F
100
AcDbEntity
  8
0-C_ハッチ
  6
Continuous
 62
   120
370
     5
100
AcDbLine
 10
-4163.820235210829
 20
-309.0004353115849
 30
0.0
 11
-4343.820457906673
 21
-129.0002126157387
 31
0.0
  0
LINE
  5
2D9
330
1F
100
AcDbEntity
  8
0-C_ハッチ
  6
Continuous
 62
   120
370
     5
100
AcDbLine
 10
-4223.21720483049
 20
-309.0004353115712
 30
0.0
 11
-4403.217427526334
 21
-129.0002126157263
 31
0.0
  0
ARC
  5
2DA
330
1F
100
AcDbEntity
  8
0-4_枠
  6
Continuous
 62
    92
370
    13
100
AcDbCircle
 10
-3989.038791176076
 20
-291.0003016940784
 30
0.0
 40
17.99999878213213
100
AcDbArc
 50
270.0
 51
0.0
  0
LINE
  5
2DB
330
1F
100
AcDbEntity
  8
0-4_枠
  6
Continuous
 62
    92
370
    13
100
AcDbLine
 10
-3971.039028718304
 20
-129.000212615743
 30
0.0
 11
-3971.039028718304
 21
-291.0003016940784
 31
0.0
  0
LINE
  5
2DC
330
1F
100
AcDbEntity
  8
0-7_金物
  6
Continuous
 62
     7
370
     9
100
AcDbLine
 10
-4358.038960053751
 20
-93.00055021698263
 30
0.0
 11
-4178.039097382854
 21
-93.00055021698263
 31
0.0
  0
LINE
  5
2DD
330
1F
100
AcDbEntity
  8
0-7_金物
  6
Continuous
 62
     7
370
     9
100
AcDbLine
 10
-4178.039097382854
 20
-81.00021261627421
 30
0.0
 11
-4178.039097382854
 21
-93.00055021698263
 31
0.0
  0
LINE
  5
2DE
330
1F
100
AcDbEntity
  8
0-7_金物
  6
Continuous
 62
     7
370
     9
100
AcDbLine
 10
-4358.038960053751
 20
-81.00021261627421
 30
0.0
 11
-4358.038960053751
 21
-93.00055021698263
 31
0.0
  0
LINE
  5
2DF
330
1F
100
AcDbEntity
  8
0-7_金物
  6
Continuous
 62
     7
370
     9
100
AcDbLine
 10
-4358.038960053751
 20
-81.00021261627421
 30
0.0
 11
-4178.039097382854
 21
-81.00021261627421
 31
0.0
  0
LINE
  5
2E0
330
1F
100
AcDbEntity
  8
0-7_金物
  6
Continuous
 62
     7
370
     9
100
AcDbLine
 10
-4328.038857056925
 20
-93.00055021698263
 30
0.0
 11
-4328.038857056925
 21
-105.0001439517235
 31
0.0
  0
LINE
  5
2E1
330
1F
100
AcDbEntity
  8
0-7_金物
  6
Continuous
 62
     7
370
     9
100
AcDbLine
 10
-4208.039200379679
 20
-93.00055021698263
 30
0.0
 11
-4208.039200379679
 21
-105.0001439517235
 31
0.0
  0
LINE
  5
2E2
330
1F
100
AcDbEntity
  8
0-7_金物
  6
Continuous
 62
     7
370
     9
100
AcDbLine
 10
-4328.038857056925
 20
-105.0001439517235
 30
0.0
 11
-4208.039200379679
 21
-105.0001439517235
 31
0.0
  0
LINE
  5
2E3
330
1F
100
AcDbEntity
  8
0-7_金物
  6
Continuous
 62
     7
370
     9
100
AcDbLine
 10
-4322.038691117594
 20
-105.0001439517235
 30
0.0
 11
-4322.038691117594
 21
-129.0002126157421
 31
0.0
  0
LINE
  5
2E4
330
1F
100
AcDbEntity
  8
0-7_金物
  6
Continuous
 62
     7
370
     9
100
AcDbLine
 10
-4214.038622453043
 20
-129.0002126157421
 30
0.0
 11
-4214.038622453043
 21
-105.0001439517235
 31
0.0
  0
LINE
  5
2E5
330
1F
100
AcDbEntity
  8
0-0_補助線
  6
JWW_HOJO
 62
   120
370
     5
100
AcDbLine
 10
-3593.775967787495
 20
-1638.000420556446
 30
0.0
 11
-4864.303574288063
 21
-1638.000420556446
 31
0.0
  0
LINE
  5
2E6
330
1F
100
AcDbEntity
  8
0-0_補助線
  6
JWW_HOJO
 62
   120
370
     5
100
AcDbLine
 10
-3593.775967787495
 20
-1758.000420556447
 30
0.0
 11
-4864.303574288063
 21
-1758.000420556447
 31
0.0
  0
LINE
  5
2E7
330
1F
100
AcDbEntity
  8
0-6_扉
  6
Continuous
 62
   200
370
    20
100
AcDbLine
 10
-4163.039117796638
 20
-327.0001977693535
 30
0.0
 11
-4163.039117796638
 21
-1638.000420556446
 31
0.0
  0
LINE
  5
2E8
330
1F
100
AcDbEntity
  8
0-6_扉
  6
Continuous
 62
   200
370
    20
100
AcDbLine
 10
-4001.039028718304
 20
-327.0001977693535
 30
0.0
 11
-4001.039028718304
 21
-1638.000420556446
 31
0.0
  0
LINE
  5
2E9
330
1F
100
AcDbEntity
  8
0-4_枠
  6
Continuous
 62
   120
370
     5
100
AcDbLine
 10
-3953.039028718303
 20
-1638.000420556446
 30
0.0
 11
-3953.039028718303
 21
-129.000212615743
 31
0.0
  0
LINE
  5
2EA
330
1F
100
AcDbEntity
  8
0-4_枠
  6
Continuous
 62
   120
370
     5
100
AcDbLine
 10
-4583.039028718305
 20
-1638.000420556446
 30
0.0
 11
-4583.039028718305
 21
-129.000212615743
 31
0.0
  0
LINE
  5
2EB
330
1F
100
AcDbEntity
  8
0-4_枠
  6
Continuous
 62
   120
370
     5
100
AcDbLine
 10
-4583.039028718305
 20
-3087.000405801309
 30
0.0
 11
-4583.039028718305
 21
-1758.000420556447
 31
0.0
  0
LINE
  5
2EC
330
1F
100
AcDbEntity
  8
0-6_扉
  6
Continuous
 62
   200
370
    20
100
AcDbLine
 10
-4163.039117796638
 20
-1758.000420556447
 30
0.0
 11
-4163.039117796638
 21
-2973.000405801309
 31
0.0
  0
LINE
  5
2ED
330
1F
100
AcDbEntity
  8
0-6_扉
  6
Continuous
 62
   200
370
    20
100
AcDbLine
 10
-4001.039028718304
 20
-1758.000420556447
 30
0.0
 11
-4001.039028718304
 21
-2973.000405801309
 31
0.0
  0
LINE
  5
2EE
330
1F
100
AcDbEntity
  8
0-4_枠
  6
Continuous
 62
   120
370
     5
100
AcDbLine
 10
-3953.039028718303
 20
-3087.000405801309
 30
0.0
 11
-3953.039028718303
 21
-1758.000420556447
 31
0.0
  0
MTEXT
  5
2EF
330
1F
100
AcDbEntity
  8
0-B_寸法
  6
Continuous
 62
     7
370
     0
100
AcDbMText
 10
-3617.098294271083
 20
-3035.452159113641
 30
0.0
 40
91.44
 41
60.0
 46
0.0
 71
     7
 72
     1
  1
{\fＭＳ ゴシック|b0|i0|c128|p49;4}
 11
6.123031769111886E-17
 21
1.0
 31
0.0
 73
     1
 44
1.0
  0
MTEXT
  5
2F0
330
1F
100
AcDbEntity
  8
0-B_寸法
  6
Continuous
 62
     7
370
     0
100
AcDbMText
 10
-3632.346831610244
 20
-370.4704761904753
 30
0.0
 40
91.44
 41
60.0
 46
0.0
 71
     7
 72
     1
  1
{\fＭＳ ゴシック|b0|i0|c128|p49;3}
 11
6.123031769111886E-17
 21
1.0
 31
0.0
 73
     1
 44
1.0
  0
MTEXT
  5
2F1
330
1F
100
AcDbEntity
  8
0-B_寸法
  6
Continuous
 62
     7
370
   211
100
AcDbMText
 10
-2822.823022086435
 20
-156.184761904761
 30
0.0
 40
91.44
 41
60.0
 46
0.0
 71
     7
 72
     1
  1
{\fＭＳ ゴシック|b0|i0|c128|p49;8}
 11
6.123031769111886E-17
 21
1.0
 31
0.0
 73
     1
 44
1.0
  0
MTEXT
  5
2F2
330
1F
100
AcDbEntity
  8
0-B_寸法
  6
Continuous
 62
     7
370
     0
100
AcDbMText
 10
-2822.823022086435
 20
-3195.70857142857
 30
0.0
 40
91.44
 41
120.0
 46
0.0
 71
     7
 72
     1
  1
{\fＭＳ ゴシック|b0|i0|c128|p49;12}
 11
6.123031769111886E-17
 21
1.0
 31
0.0
 73
     1
 44
1.0
  0
MTEXT
  5
2F3
330
1F
100
AcDbEntity
  8
0-B_寸法
  6
Continuous
 62
     7
370
     0
100
AcDbMText
 10
-3214.589545428594
 20
-3133.360143161392
 30
0.0
 40
91.44
 41
120.0
 46
0.0
 71
     7
 72
     1
  1
{\fＭＳ ゴシック|b0|i0|c128|p49;15}
 11
6.123031769111886E-17
 21
1.0
 31
0.0
 73
     1
 44
1.0
  0
LINE
  5
2F4
330
1F
100
AcDbEntity
  8
0-0_補助線
  6
Continuous
 62
    92
370
    13
100
AcDbLine
 10
4420.983703888998
 20
-1496.847511051957
 30
0.0
 11
3790.983703888998
 21
-1496.847511051957
 31
0.0
  0
LINE
  5
2F5
330
1F
100
AcDbEntity
  8
0-0_補助線
  6
Continuous
 62
    92
370
    13
100
AcDbLine
 10
3348.877524811935
 20
-261.0002126162744
 30
0.0
 11
4848.877524811932
 21
-261.0002126162744
 31
0.0
  0
LINE
  5
2F6
330
1F
100
AcDbEntity
  8
0-0_補助線
  6
Continuous
 62
    92
370
    13
100
AcDbLine
 10
3348.877524811935
 20
-81.00021261627421
 30
0.0
 11
4848.877524811932
 21
-81.00021261627421
 31
0.0
  0
LINE
  5
2F7
330
1F
100
AcDbEntity
  8
0-0_補助線
  6
Continuous
 62
    92
370
    13
100
AcDbLine
 10
3348.877524811937
 20
-2112.02953062506
 30
0.0
 11
3348.877524811935
 21
-81.00021261627421
 31
0.0
  0
LINE
  5
2F8
330
1F
100
AcDbEntity
  8
0-0_補助線
  6
Continuous
 62
    92
370
    13
100
AcDbLine
 10
4848.877524811934
 20
-2112.02953062506
 30
0.0
 11
3348.877524811937
 21
-2112.02953062506
 31
0.0
  0
LINE
  5
2F9
330
1F
100
AcDbEntity
  8
0-0_補助線
  6
Continuous
 62
    92
370
    13
100
AcDbLine
 10
4848.877524811934
 20
-2112.02953062506
 30
0.0
 11
4848.877524811932
 21
-81.00021261627421
 31
0.0
  0
LINE
  5
2FA
330
1F
100
AcDbEntity
  8
0-0_補助線
  6
Continuous
 62
     7
370
     9
100
AcDbLine
 10
3887.39707471145
 20
-1369.547094116787
 30
0.0
 11
4009.49709586634
 21
-1369.547094116787
 31
0.0
  0
MTEXT
  5
2FB
330
1F
100
AcDbEntity
  8
0-0_補助線
  6
Continuous
 62
     7
370
     0
100
AcDbMText
 10
3998.578447125337
 20
-1428.827094116787
 30
0.0
 40
91.44
 41
420.0
 46
0.0
 71
     7
 72
     1
  1
{\fＭＳ ゴシック|b0|i0|c128|p49;現場ｶｯﾄ}
 73
     1
 44
1.0
  0
LINE
  5
2FC
330
1F
100
AcDbEntity
  8
0-0_補助線
  6
Continuous
 62
     7
370
     9
100
AcDbLine
 10
3805.990686755714
 20
-1510.547094116785
 30
0.0
 11
3887.39707471145
 21
-1369.547094116787
 31
0.0
  0
LINE
  5
2FD
330
1F
100
AcDbEntity
  8
0-0_補助線
  6
Continuous
 62
     7
370
     9
100
AcDbLine
 10
3805.990686755714
 20
-1510.547094116785
 30
0.0
 11
3821.519829461866
 21
-1452.591544539441
 31
0.0
  0
LINE
  5
2FE
330
1F
100
AcDbEntity
  8
0-0_補助線
  6
Continuous
 62
   120
370
     5
100
AcDbLine
 10
3790.983703888998
 20
-560.9282187489498
 30
0.0
 11
4420.983703888998
 21
-560.9282187489498
 31
0.0
  0
LWPOLYLINE
  5
2FF
330
1F
100
AcDbEntity
  8
0-0_補助線
  6
Continuous
 62
     7
370
     9
100
AcDbPolyline
 90
        4
 70
     1
 43
3.0
 10
3792.483703888998
 20
-560.9282187489498
 42
0.4142135623731
 10
3790.983703888998
 20
-559.4282187489498
 42
0.4142135623731
 10
3789.483703888999
 20
-560.9282187489498
 42
0.4142135623731
 10
3790.983703888998
 20
-562.4282187489498
 42
0.4142135623731
  0
LWPOLYLINE
  5
300
330
1F
100
AcDbEntity
  8
0-0_補助線
  6
Continuous
 62
     7
370
     9
100
AcDbPolyline
 90
        4
 70
     1
 43
3.0
 10
4422.483703888999
 20
-560.9282187489498
 42
0.4142135623731
 10
4420.983703888998
 20
-559.4282187489498
 42
0.4142135623731
 10
4419.483703888998
 20
-560.9282187489498
 42
0.4142135623731
 10
4420.983703888998
 20
-562.4282187489498
 42
0.4142135623731
  0
LINE
  5
301
330
1F
100
AcDbEntity
  8
0-0_補助線
  6
Continuous
 62
   120
370
     5
100
AcDbLine
 10
3790.983703888998
 20
-560.9282187489498
 30
0.0
 11
3790.983703888998
 21
-723.727582815682
 31
0.0
  0
LINE
  5
302
330
1F
100
AcDbEntity
  8
0-0_補助線
  6
Continuous
 62
   120
370
     5
100
AcDbLine
 10
4420.983703888998
 20
-560.9282187489498
 30
0.0
 11
4420.983703888998
 21
-723.727582815682
 31
0.0
  0
MTEXT
  5
303
330
1F
100
AcDbEntity
  8
0-0_補助線
  6
Continuous
 62
     7
370
   211
100
AcDbMText
 10
4011.846916106616
 20
-556.3982187489498
 30
0.0
 40
99.06
 41
195.0
 46
0.0
 71
     7
 72
     1
  1
{\fＭＳ ゴシック|b0|i0|c128|p49;105}
 73
     1
 44
1.0
  0
MTEXT
  5
304
330
1F
100
AcDbEntity
  8
0-0_補助線
  6
Continuous
 62
     7
370
     0
100
AcDbMText
 10
3656.377524811935
 20
-245.280212616274
 30
0.0
 40
91.44
 41
840.0
 46
0.0
 71
     7
 72
     1
  1
{\fＭＳ ゴシック|b0|i0|c128|p49;竪枠下端加工図}
 73
     1
 44
1.0
  0
LINE
  5
305
330
1F
100
AcDbEntity
  8
0-0_補助線
  6
Continuous
 62
    92
370
    13
100
AcDbLine
 10
4303.983703888997
 20
-1516.647511051957
 30
0.0
 11
4303.983703888997
 21
-1550.847511051957
 31
0.0
  0
LINE
  5
306
330
1F
100
AcDbEntity
  8
0-0_補助線
  6
Continuous
 62
    92
370
    13
100
AcDbLine
 10
4009.983703888997
 20
-1516.647511051957
 30
0.0
 11
4009.983703888997
 21
-1550.847511051957
 31
0.0
  0
LINE
  5
307
330
1F
100
AcDbEntity
  8
0-0_補助線
  6
Continuous
 62
    92
370
    13
100
AcDbLine
 10
3790.983703888998
 20
-1550.847511051957
 30
0.0
 11
4009.983703888997
 21
-1550.847511051957
 31
0.0
  0
LINE
  5
308
330
1F
100
AcDbEntity
  8
0-0_補助線
  6
Continuous
 62
    92
370
    13
100
AcDbLine
 10
4009.983703888997
 20
-1516.647511051957
 30
0.0
 11
4303.983703888997
 21
-1516.647511051957
 31
0.0
  0
LINE
  5
309
330
1F
100
AcDbEntity
  8
0-0_補助線
  6
Continuous
 62
    92
370
    13
100
AcDbLine
 10
4303.983703888997
 20
-1550.847511051957
 30
0.0
 11
4420.983703888998
 21
-1550.847511051957
 31
0.0
  0
LINE
  5
30A
330
1F
100
AcDbEntity
  8
0-0_補助線
  6
Continuous
 62
    92
370
    13
100
AcDbLine
 10
4420.983703888998
 20
-816.651958795473
 30
0.0
 11
4420.983703888998
 21
-1550.847511051957
 31
0.0
  0
LINE
  5
30B
330
1F
100
AcDbEntity
  8
0-0_補助線
  6
Continuous
 62
    92
370
    13
100
AcDbLine
 10
3790.983703888998
 20
-816.6519587954733
 30
0.0
 11
3790.983703888998
 21
-1550.847511051957
 31
0.0
  0
LWPOLYLINE
  5
30C
330
1F
100
AcDbEntity
  8
0-0_補助線
  6
Continuous
 62
     7
370
     9
100
AcDbPolyline
 90
        4
 70
     1
 43
3.0
 10
4422.483703888999
 20
-1927.945609563221
 42
0.4142135623731
 10
4420.983703888998
 20
-1926.445609563221
 42
0.4142135623731
 10
4419.483703888998
 20
-1927.945609563221
 42
0.4142135623731
 10
4420.983703888998
 20
-1929.445609563221
 42
0.4142135623731
  0
LWPOLYLINE
  5
30D
330
1F
100
AcDbEntity
  8
0-0_補助線
  6
Continuous
 62
     7
370
     9
100
AcDbPolyline
 90
        4
 70
     1
 43
3.0
 10
4305.483703888997
 20
-1927.945609563221
 42
0.4142135623731
 10
4303.983703888997
 20
-1926.445609563221
 42
0.4142135623731
 10
4302.483703888997
 20
-1927.945609563221
 42
0.4142135623731
 10
4303.983703888997
 20
-1929.445609563221
 42
0.4142135623731
  0
LINE
  5
30E
330
1F
100
AcDbEntity
  8
0-0_補助線
  6
Continuous
 62
   120
370
     5
100
AcDbLine
 10
4420.983703888998
 20
-1927.945609563221
 30
0.0
 11
4420.983703888998
 21
-1701.393087872678
 31
0.0
  0
LINE
  5
30F
330
1F
100
AcDbEntity
  8
0-0_補助線
  6
Continuous
 62
   120
370
     5
100
AcDbLine
 10
4303.983703888997
 20
-1927.945609563221
 30
0.0
 11
4303.983703888997
 21
-1701.393087872678
 31
0.0
  0
LINE
  5
310
330
1F
100
AcDbEntity
  8
0-0_補助線
  6
Continuous
 62
   120
370
     5
100
AcDbLine
 10
4303.983703888997
 20
-1927.945609563221
 30
0.0
 11
4009.983703888997
 21
-1927.945609563221
 31
0.0
  0
LWPOLYLINE
  5
311
330
1F
100
AcDbEntity
  8
0-0_補助線
  6
Continuous
 62
     7
370
     9
100
AcDbPolyline
 90
        4
 70
     1
 43
3.0
 10
4011.483703888997
 20
-1927.945609563221
 42
0.4142135623731
 10
4009.983703888997
 20
-1926.445609563221
 42
0.4142135623731
 10
4008.483703888997
 20
-1927.945609563221
 42
0.4142135623731
 10
4009.983703888997
 20
-1929.445609563221
 42
0.4142135623731
  0
LINE
  5
312
330
1F
100
AcDbEntity
  8
0-0_補助線
  6
Continuous
 62
   120
370
     5
100
AcDbLine
 10
4009.983703888997
 20
-1927.945609563221
 30
0.0
 11
4009.983703888997
 21
-1701.393087872678
 31
0.0
  0
LWPOLYLINE
  5
313
330
1F
100
AcDbEntity
  8
0-0_補助線
  6
Continuous
 62
     7
370
     9
100
AcDbPolyline
 90
        4
 70
     1
 43
3.0
 10
3792.483703888998
 20
-1927.945609563221
 42
0.4142135623731
 10
3790.983703888998
 20
-1926.445609563221
 42
0.4142135623731
 10
3789.483703888999
 20
-1927.945609563221
 42
0.4142135623731
 10
3790.983703888998
 20
-1929.445609563221
 42
0.4142135623731
  0
LINE
  5
314
330
1F
100
AcDbEntity
  8
0-0_補助線
  6
Continuous
 62
   120
370
     5
100
AcDbLine
 10
3790.983703888998
 20
-1927.945609563221
 30
0.0
 11
3790.983703888998
 21
-1701.393087872678
 31
0.0
  0
MTEXT
  5
315
330
1F
100
AcDbEntity
  8
0-0_補助線
  6
Continuous
 62
     7
370
   211
100
AcDbMText
 10
4078.233703888996
 20
-1924.368109563221
 30
0.0
 40
97.15499999999999
 41
127.5
 46
0.0
 71
     7
 72
     1
  1
{\fＭＳ ゴシック|b0|i0|c128|p49;49}
 73
     1
 44
1.0
  0
MTEXT
  5
316
330
1F
100
AcDbEntity
  8
0-0_補助線
  6
Continuous
 62
     7
370
   211
100
AcDbMText
 10
3503.361355793849
 20
-1922.939359563221
 30
0.0
 40
100.0125
 41
262.5
 46
0.0
 71
     7
 72
     1
  1
{\fＭＳ ゴシック|b0|i0|c128|p49;36.5}
 73
     1
 44
1.0
  0
LINE
  5
317
330
1F
100
AcDbEntity
  8
0-0_補助線
  6
Continuous
 62
   120
370
     5
100
AcDbLine
 10
4726.512522906134
 20
-1927.945609563221
 30
0.0
 11
4303.983703888997
 21
-1927.945609563221
 31
0.0
  0
LINE
  5
318
330
1F
100
AcDbEntity
  8
0-0_補助線
  6
Continuous
 62
   120
370
     5
100
AcDbLine
 10
4009.983703888997
 20
-1927.945609563221
 30
0.0
 11
3411.378228295338
 21
-1927.945609563221
 31
0.0
  0
MTEXT
  5
319
330
1F
100
AcDbEntity
  8
0-0_補助線
  6
Continuous
 62
     7
370
   211
100
AcDbMText
 10
4452.910963341867
 20
-1922.939359563221
 30
0.0
 40
100.0125
 41
262.5
 46
0.0
 71
     7
 72
     1
  1
{\fＭＳ ゴシック|b0|i0|c128|p49;19.5}
 73
     1
 44
1.0
  0
LINE
  5
31A
330
1F
100
AcDbEntity
  8
0-0_補助線
  6
Continuous
 62
   120
370
     5
100
AcDbLine
 10
3577.539094812355
 20
-1550.847511051957
 30
0.0
 11
3577.539094812355
 21
-1496.847511051957
 31
0.0
  0
LWPOLYLINE
  5
31B
330
1F
100
AcDbEntity
  8
0-0_補助線
  6
Continuous
 62
     7
370
     9
100
AcDbPolyline
 90
        4
 70
     1
 43
3.0
 10
3579.039094812355
 20
-1550.847511051957
 42
0.4142135623731
 10
3577.539094812355
 20
-1549.347511051957
 42
0.4142135623731
 10
3576.039094812355
 20
-1550.847511051957
 42
0.4142135623731
 10
3577.539094812355
 20
-1552.347511051957
 42
0.4142135623731
  0
LWPOLYLINE
  5
31C
330
1F
100
AcDbEntity
  8
0-0_補助線
  6
Continuous
 62
     7
370
     9
100
AcDbPolyline
 90
        4
 70
     1
 43
3.0
 10
3579.039094812355
 20
-1496.847511051957
 42
0.4142135623731
 10
3577.539094812355
 20
-1495.347511051957
 42
0.4142135623731
 10
3576.039094812355
 20
-1496.847511051957
 42
0.4142135623731
 10
3577.539094812355
 20
-1498.347511051957
 42
0.4142135623731
  0
LINE
  5
31D
330
1F
100
AcDbEntity
  8
0-0_補助線
  6
Continuous
 62
   120
370
     5
100
AcDbLine
 10
3577.539094812355
 20
-1550.847511051957
 30
0.0
 11
3724.315784208606
 21
-1550.847511051957
 31
0.0
  0
LINE
  5
31E
330
1F
100
AcDbEntity
  8
0-0_補助線
  6
Continuous
 62
   120
370
     5
100
AcDbLine
 10
3577.539094812355
 20
-1496.847511051957
 30
0.0
 11
3724.315784208606
 21
-1496.847511051957
 31
0.0
  0
MTEXT
  5
31F
330
1F
100
AcDbEntity
  8
0-0_補助線
  6
Continuous
 62
     7
370
   211
100
AcDbMText
 10
3562.539094812355
 20
-1566.188265123475
 30
0.0
 40
91.44
 41
60.0
 46
0.0
 71
     7
 72
     1
  1
{\fＭＳ ゴシック|b0|i0|c128|p49;9}
 11
6.123031769111886E-17
 21
1.0
 31
0.0
 73
     1
 44
1.0
  0
LINE
  5
320
330
1F
100
AcDbEntity
  8
0-0_補助線
  6
JWW_DASHED1
 62
   120
370
     5
100
AcDbLine
 10
3835.576892958908
 20
-1496.847511051957
 30
0.0
 11
3790.983703888998
 21
-1541.440700121868
 31
0.0
  0
LINE
  5
321
330
1F
100
AcDbEntity
  8
0-0_補助線
  6
JWW_DASHED1
 62
   120
370
     5
100
AcDbLine
 10
3920.429706701306
 20
-1496.847511051957
 30
0.0
 11
3866.429706701314
 21
-1550.847511051952
 31
0.0
  0
LINE
  5
322
330
1F
100
AcDbEntity
  8
0-0_補助線
  6
JWW_DASHED1
 62
   120
370
     5
100
AcDbLine
 10
3878.003299830108
 20
-1496.847511051957
 30
0.0
 11
3824.003299830113
 21
-1550.847511051952
 31
0.0
  0
LINE
  5
323
330
1F
100
AcDbEntity
  8
0-0_補助線
  6
JWW_DASHED1
 62
   120
370
     5
100
AcDbLine
 10
3962.856113572506
 20
-1496.847511051957
 30
0.0
 11
3908.856113572511
 21
-1550.847511051952
 31
0.0
  0
LINE
  5
324
330
1F
100
AcDbEntity
  8
0-0_補助線
  6
JWW_DASHED1
 62
   120
370
     5
100
AcDbLine
 10
4005.282520443706
 20
-1496.847511051957
 30
0.0
 11
3951.282520443711
 21
-1550.847511051952
 31
0.0
  0
LINE
  5
325
330
1F
100
AcDbEntity
  8
0-0_補助線
  6
JWW_DASHED1
 62
   120
370
     5
100
AcDbLine
 10
4420.983703889005
 20
-1505.410396318657
 30
0.0
 11
4375.546589155711
 21
-1550.847511051952
 31
0.0
  0
LINE
  5
326
330
1F
100
AcDbEntity
  8
0-0_補助線
  6
JWW_DASHED1
 62
   120
370
     5
100
AcDbLine
 10
4387.120182284507
 20
-1496.847511051957
 30
0.0
 11
4333.120182284511
 21
-1550.847511051952
 31
0.0
  0
LINE
  5
327
330
1F
100
AcDbEntity
  8
0-0_補助線
  6
JWW_DASHED1
 62
   120
370
     5
100
AcDbLine
 10
4344.693775413307
 20
-1496.847511051957
 30
0.0
 11
4303.983703888997
 21
-1537.557582576265
 31
0.0
  0
LINE
  5
328
330
1F
100
AcDbEntity
  8
0-0_補助線
  6
JWW_DASHED1
 62
   120
370
     5
100
AcDbLine
 10
4302.267368542107
 20
-1496.847511051957
 30
0.0
 11
4282.467368542106
 21
-1516.647511051957
 31
0.0
  0
LINE
  5
329
330
1F
100
AcDbEntity
  8
0-0_補助線
  6
JWW_DASHED1
 62
   120
370
     5
100
AcDbLine
 10
4259.840961670907
 20
-1496.847511051957
 30
0.0
 11
4240.040961670908
 21
-1516.647511051957
 31
0.0
  0
LINE
  5
32A
330
1F
100
AcDbEntity
  8
0-0_補助線
  6
JWW_DASHED1
 62
   120
370
     5
100
AcDbLine
 10
4217.414554799707
 20
-1496.847511051957
 30
0.0
 11
4197.614554799708
 21
-1516.647511051957
 31
0.0
  0
LINE
  5
32B
330
1F
100
AcDbEntity
  8
0-0_補助線
  6
JWW_DASHED1
 62
   120
370
     5
100
AcDbLine
 10
4174.988147928507
 20
-1496.847511051957
 30
0.0
 11
4155.188147928508
 21
-1516.647511051957
 31
0.0
  0
LINE
  5
32C
330
1F
100
AcDbEntity
  8
0-0_補助線
  6
JWW_DASHED1
 62
   120
370
     5
100
AcDbLine
 10
4132.561741057307
 20
-1496.847511051957
 30
0.0
 11
4112.761741057308
 21
-1516.647511051957
 31
0.0
  0
LINE
  5
32D
330
1F
100
AcDbEntity
  8
0-0_補助線
  6
JWW_DASHED1
 62
   120
370
     5
100
AcDbLine
 10
4090.135334186106
 20
-1496.847511051957
 30
0.0
 11
4070.335334186108
 21
-1516.647511051957
 31
0.0
  0
LINE
  5
32E
330
1F
100
AcDbEntity
  8
0-0_補助線
  6
JWW_DASHED1
 62
   120
370
     5
100
AcDbLine
 10
4047.708927314906
 20
-1496.847511051957
 30
0.0
 11
4027.908927314907
 21
-1516.647511051957
 31
0.0
  0
LINE
  5
32F
330
1F
100
AcDbEntity
  8
0-0_補助線
  6
JWW_DASHED1
 62
   120
370
     5
100
AcDbLine
 10
4009.983703888997
 20
-1534.572734477867
 30
0.0
 11
3993.708927314911
 21
-1550.847511051952
 31
0.0
  0
LINE
  5
330
330
1F
100
AcDbEntity
  8
0-B_寸法
  6
Continuous
 62
   120
370
     5
100
AcDbLine
 10
1725.878267131409
 20
-2937.49667988559
 30
0.0
 11
1725.878267131409
 21
-2809.356937428944
 31
0.0
  0
LINE
  5
331
330
1F
100
AcDbEntity
  8
0-B_寸法
  6
Continuous
 62
   120
370
     5
100
AcDbLine
 10
1725.878267131409
 20
-2809.356937428944
 30
0.0
 11
1275.878267131406
 21
-2809.356937428944
 31
0.0
  0
LWPOLYLINE
  5
332
330
1F
100
AcDbEntity
  8
0-B_寸法
  6
Continuous
 62
     7
370
     9
100
AcDbPolyline
 90
        4
 70
     1
 43
3.0
 10
1727.378267131409
 20
-2809.356937428944
 42
0.4142135623731
 10
1725.878267131409
 20
-2807.856937428944
 42
0.4142135623731
 10
1724.37826713141
 20
-2809.356937428944
 42
0.4142135623731
 10
1725.878267131409
 20
-2810.856937428944
 42
0.4142135623731
  0
LWPOLYLINE
  5
333
330
1F
100
AcDbEntity
  8
0-B_寸法
  6
Continuous
 62
     7
370
     9
100
AcDbPolyline
 90
        4
 70
     1
 43
3.0
 10
1277.378267131406
 20
-2809.356937428944
 42
0.4142135623731
 10
1275.878267131406
 20
-2807.856937428944
 42
0.4142135623731
 10
1274.378267131406
 20
-2809.356937428944
 42
0.4142135623731
 10
1275.878267131406
 20
-2810.856937428944
 42
0.4142135623731
  0
LINE
  5
334
330
1F
100
AcDbEntity
  8
0-B_寸法
  6
Continuous
 62
   120
370
     5
100
AcDbLine
 10
1275.878267131406
 20
-2937.49667988559
 30
0.0
 11
1275.878267131406
 21
-2809.356937428944
 31
0.0
  0
MTEXT
  5
335
330
1F
100
AcDbEntity
  8
0-B_寸法
  6
Continuous
 62
     7
370
     0
100
AcDbMText
 10
1452.878467739799
 20
-2808.636145621511
 30
0.0
 40
91.44
 41
120.0
 46
0.0
 71
     7
 72
     1
  1
{\fＭＳ ゴシック|b0|i0|c128|p49;75}
 73
     1
 44
1.0
  0
LINE
  5
336
330
1F
100
AcDbEntity
  8
0-4_枠
  6
Continuous
 62
     7
370
     9
100
AcDbLine
 10
1384.356187469388
 20
-3057.000405801309
 30
0.0
 11
1414.356187469388
 21
-3087.000405801309
 31
0.0
  0
LINE
  5
337
330
1F
100
AcDbEntity
  8
0-4_枠
  6
Continuous
 62
     7
370
     9
100
AcDbLine
 10
1426.782594340581
 20
-3057.000405801309
 30
0.0
 11
1456.782594340581
 21
-3087.000405801309
 31
0.0
  0
LINE
  5
338
330
1F
100
AcDbEntity
  8
0-4_枠
  6
Continuous
 62
     7
370
     9
100
AcDbLine
 10
1469.209001211775
 20
-3057.000405801309
 30
0.0
 11
1499.209001211775
 21
-3087.000405801309
 31
0.0
  0
LINE
  5
339
330
1F
100
AcDbEntity
  8
0-4_枠
  6
Continuous
 62
     7
370
     9
100
AcDbLine
 10
1511.635408082968
 20
-3057.000405801309
 30
0.0
 11
1541.635408082968
 21
-3087.000405801309
 31
0.0
  0
LINE
  5
33A
330
1F
100
AcDbEntity
  8
0-4_枠
  6
Continuous
 62
     7
370
     9
100
AcDbLine
 10
1554.061814954161
 20
-3057.000405801309
 30
0.0
 11
1584.061814954161
 21
-3087.000405801309
 31
0.0
  0
LINE
  5
33B
330
1F
100
AcDbEntity
  8
0-4_枠
  6
Continuous
 62
     7
370
     9
100
AcDbLine
 10
1596.488221825354
 20
-3057.000405801309
 30
0.0
 11
1626.488221825354
 21
-3087.000405801309
 31
0.0
  0
LINE
  5
33C
330
1F
100
AcDbEntity
  8
0-4_枠
  6
Continuous
 62
     7
370
     9
100
AcDbLine
 10
1638.914628696544
 20
-3057.000405801309
 30
0.0
 11
1647.878267131409
 21
-3065.964044236173
 31
0.0
  0
LINE
  5
33D
330
1F
100
AcDbEntity
  8
0-4_枠
  6
Continuous
 62
     7
370
     9
100
AcDbLine
 10
1353.87826713141
 20
-3068.94889233452
 30
0.0
 11
1371.929780598195
 21
-3087.000405801309
 31
0.0
  0
LINE
  5
33E
330
1F
100
AcDbEntity
  8
0-4_枠
  6
Continuous
 62
    92
370
    13
100
AcDbLine
 10
1705.131392400563
 20
-2997.000405801309
 30
0.0
 11
1645.131392400563
 21
-3057.000405801309
 31
0.0
  0
LINE
  5
33F
330
1F
100
AcDbEntity
  8
0-4_枠
  6
Continuous
 62
    92
370
    13
100
AcDbLine
 10
1620.278578658177
 20
-2997.000405801309
 30
0.0
 11
1560.278578658177
 21
-3057.000405801309
 31
0.0
  0
LINE
  5
340
330
1F
100
AcDbEntity
  8
0-4_枠
  6
Continuous
 62
    92
370
    13
100
AcDbLine
 10
1535.425764915794
 20
-2997.000405801309
 30
0.0
 11
1475.425764915794
 21
-3057.000405801309
 31
0.0
  0
LINE
  5
341
330
1F
100
AcDbEntity
  8
0-4_枠
  6
Continuous
 62
    92
370
    13
100
AcDbLine
 10
1450.572951173408
 20
-2997.000405801309
 30
0.0
 11
1390.572951173408
 21
-3057.000405801309
 31
0.0
  0
LINE
  5
342
330
1F
100
AcDbEntity
  8
0-4_枠
  6
Continuous
 62
    92
370
    13
100
AcDbLine
 10
1725.878267131406
 20
-3061.106344812849
 30
0.0
 11
1699.984206142946
 21
-3087.000405801309
 31
0.0
  0
LINE
  5
343
330
1F
100
AcDbEntity
  8
0-4_枠
  6
Continuous
 62
    92
370
    13
100
AcDbLine
 10
1713.87826713141
 20
-2997.000405801309
 30
0.0
 11
1287.878267131409
 21
-2997.000405801309
 31
0.0
  0
ARC
  5
344
330
1F
100
AcDbEntity
  8
0-4_枠
  6
Continuous
 62
    92
370
    13
100
AcDbCircle
 10
1287.878267131409
 20
-3009.000405801309
 30
0.0
 40
12.0
100
AcDbArc
 50
90.0
 51
180.0
  0
LINE
  5
345
330
1F
100
AcDbEntity
  8
0-4_枠
  6
Continuous
 62
    92
370
    13
100
AcDbLine
 10
1275.878267131406
 20
-3009.000405801309
 30
0.0
 11
1275.878267131406
 21
-3087.000405801309
 31
0.0
  0
LINE
  5
346
330
1F
100
AcDbEntity
  8
0-4_枠
  6
Continuous
 62
    92
370
    13
100
AcDbLine
 10
1725.878267131406
 20
-3009.000405801309
 30
0.0
 11
1725.878267131406
 21
-3087.000405801309
 31
0.0
  0
ARC
  5
347
330
1F
100
AcDbEntity
  8
0-4_枠
  6
Continuous
 62
    92
370
    13
100
AcDbCircle
 10
1713.87826713141
 20
-3009.000405801309
 30
0.0
 40
12.0
100
AcDbArc
 50
0.0
 51
90.00000000000001
  0
LINE
  5
348
330
1F
100
AcDbEntity
  8
0-4_枠
  6
Continuous
 62
    92
370
    13
100
AcDbLine
 10
1365.720137431021
 20
-2997.000405801309
 30
0.0
 11
1275.720137431021
 21
-3087.000405801309
 31
0.0
  0
LINE
  5
349
330
1F
100
AcDbEntity
  8
0-4_枠
  6
Continuous
 62
     7
370
     9
100
AcDbLine
 10
1647.878267131409
 20
-3057.000405801309
 30
0.0
 11
1647.878267131409
 21
-3087.000405801309
 31
0.0
  0
LINE
  5
34A
330
1F
100
AcDbEntity
  8
0-4_枠
  6
Continuous
 62
     7
370
     9
100
AcDbLine
 10
1353.87826713141
 20
-3057.000405801309
 30
0.0
 11
1353.87826713141
 21
-3087.000405801309
 31
0.0
  0
LINE
  5
34B
330
1F
100
AcDbEntity
  8
0-4_枠
  6
Continuous
 62
     7
370
     9
100
AcDbLine
 10
1647.878267131409
 20
-3057.000405801309
 30
0.0
 11
1353.87826713141
 21
-3057.000405801309
 31
0.0
  0
LINE
  5
34C
330
1F
100
AcDbEntity
  8
0-6_扉
  6
Continuous
 62
   200
370
    20
100
AcDbLine
 10
1536.878178053073
 20
-2973.000405801309
 30
0.0
 11
1698.878267131407
 21
-2973.000405801309
 31
0.0
  0
LWPOLYLINE
  5
34D
330
1F
100
AcDbEntity
  8
0-B_寸法
  6
Continuous
 62
     7
370
     9
100
AcDbPolyline
 90
        4
 70
     1
 43
3.0
 10
2510.377524811936
 20
-3087.000287030195
 42
0.4142135623731
 10
2508.877524811936
 20
-3085.500287030195
 42
0.4142135623731
 10
2507.377524811936
 20
-3087.000287030195
 42
0.4142135623731
 10
2508.877524811936
 20
-3088.500287030195
 42
0.4142135623731
  0
LWPOLYLINE
  5
34E
330
1F
100
AcDbEntity
  8
0-B_寸法
  6
Continuous
 62
     7
370
     9
100
AcDbPolyline
 90
        4
 70
     1
 43
3.0
 10
2510.377524811936
 20
-3087.000524572423
 42
0.4142135623731
 10
2508.877524811936
 20
-3085.500524572423
 42
0.4142135623731
 10
2507.377524811936
 20
-3087.000524572423
 42
0.4142135623731
 10
2508.877524811936
 20
-3088.500524572423
 42
0.4142135623731
  0
LWPOLYLINE
  5
34F
330
1F
100
AcDbEntity
  8
0-B_寸法
  6
Continuous
 62
     7
370
     9
100
AcDbPolyline
 90
        4
 70
     1
 43
3.0
 10
2720.377524811936
 20
-3087.000524572424
 42
0.4142135623731
 10
2718.877524811936
 20
-3085.500524572424
 42
0.4142135623731
 10
2717.377524811936
 20
-3087.000524572424
 42
0.4142135623731
 10
2718.877524811936
 20
-3088.500524572424
 42
0.4142135623731
  0
LWPOLYLINE
  5
350
330
1F
100
AcDbEntity
  8
0-B_寸法
  6
Continuous
 62
     7
370
     9
100
AcDbPolyline
 90
        4
 70
     1
 43
3.0
 10
2720.377524811936
 20
-3087.000762114653
 42
0.4142135623731
 10
2718.877524811936
 20
-3085.500762114653
 42
0.4142135623731
 10
2717.377524811936
 20
-3087.000762114653
 42
0.4142135623731
 10
2718.877524811936
 20
-3088.500762114653
 42
0.4142135623731
  0
LINE
  5
351
330
1F
100
AcDbEntity
  8
0-B_寸法
  6
Continuous
 62
   120
370
     5
100
AcDbLine
 10
2088.877524811938
 20
-3087.000643343538
 30
0.0
 11
2718.877524811936
 21
-3087.000643343538
 31
0.0
  0
LWPOLYLINE
  5
352
330
1F
100
AcDbEntity
  8
0-B_寸法
  6
Continuous
 62
     7
370
     9
100
AcDbPolyline
 90
        4
 70
     1
 43
3.0
 10
2510.377524811936
 20
-2997.000405801309
 42
0.4142135623731
 10
2508.877524811936
 20
-2995.500405801309
 42
0.4142135623731
 10
2507.377524811936
 20
-2997.000405801309
 42
0.4142135623731
 10
2508.877524811936
 20
-2998.500405801309
 42
0.4142135623731
  0
LWPOLYLINE
  5
353
330
1F
100
AcDbEntity
  8
0-B_寸法
  6
Continuous
 62
     7
370
     9
100
AcDbPolyline
 90
        4
 70
     1
 43
3.0
 10
2510.377524811936
 20
-2997.000643343537
 42
0.4142135623731
 10
2508.877524811936
 20
-2995.500643343538
 42
0.4142135623731
 10
2507.377524811936
 20
-2997.000643343537
 42
0.4142135623731
 10
2508.877524811936
 20
-2998.500643343537
 42
0.4142135623731
  0
LINE
  5
354
330
1F
100
AcDbEntity
  8
0-B_寸法
  6
Continuous
 62
   120
370
     5
100
AcDbLine
 10
2088.877524811938
 20
-2997.000643343537
 30
0.0
 11
2508.877524811936
 21
-2997.000643343537
 31
0.0
  0
LWPOLYLINE
  5
355
330
1F
100
AcDbEntity
  8
0-B_寸法
  6
Continuous
 62
     7
370
     9
100
AcDbPolyline
 90
        4
 70
     1
 43
3.0
 10
2300.377524811936
 20
-2997.000643343537
 42
0.4142135623731
 10
2298.877524811936
 20
-2995.500643343538
 42
0.4142135623731
 10
2297.377524811936
 20
-2997.000643343537
 42
0.4142135623731
 10
2298.877524811936
 20
-2998.500643343537
 42
0.4142135623731
  0
LWPOLYLINE
  5
356
330
1F
100
AcDbEntity
  8
0-B_寸法
  6
Continuous
 62
     7
370
     9
100
AcDbPolyline
 90
        4
 70
     1
 43
3.0
 10
2300.377524811936
 20
-2973.000405801309
 42
0.4142135623731
 10
2298.877524811936
 20
-2971.500405801309
 42
0.4142135623731
 10
2297.377524811936
 20
-2973.000405801309
 42
0.4142135623731
 10
2298.877524811936
 20
-2974.500405801309
 42
0.4142135623731
  0
LINE
  5
357
330
1F
100
AcDbEntity
  8
0-B_寸法
  6
Continuous
 62
   120
370
     5
100
AcDbLine
 10
2088.877524811938
 20
-2973.000405801309
 30
0.0
 11
2298.877524811936
 21
-2973.000405801309
 31
0.0
  0
LINE
  5
358
330
1F
100
AcDbEntity
  8
0-3_仕上げ
  6
Continuous
 62
     7
370
     9
100
AcDbLine
 10
2088.877524811938
 20
-3123.000673036317
 30
0.0
 11
852.8767824924677
 21
-3123.000673036317
 31
0.0
  0
LINE
  5
359
330
1F
100
AcDbEntity
  8
0-3_仕上げ
  6
Continuous
 62
     7
370
     9
100
AcDbLine
 10
2088.877524811938
 20
-3099.000742319467
 30
0.0
 11
852.8767824924677
 21
-3099.000742319467
 31
0.0
  0
LINE
  5
35A
330
1F
100
AcDbEntity
  8
0-3_仕上げ
  6
Continuous
 62
     7
370
     9
100
AcDbLine
 10
2088.877524811938
 20
-3111.000336518158
 30
0.0
 11
852.8767824924677
 21
-3111.000336518158
 31
0.0
  0
LINE
  5
35B
330
1F
100
AcDbEntity
  8
0-3_仕上げ
  6
Continuous
 62
     7
370
     9
100
AcDbLine
 10
2088.877524811938
 20
-3147.000603753166
 30
0.0
 11
852.8767824924677
 21
-3147.000603753166
 31
0.0
  0
LINE
  5
35C
330
1F
100
AcDbEntity
  8
0-3_仕上げ
  6
Continuous
 62
     7
370
     9
100
AcDbLine
 10
2088.877524811938
 20
-3135.001009554475
 30
0.0
 11
852.8767824924677
 21
-3135.001009554475
 31
0.0
  0
LINE
  5
35D
330
1F
100
AcDbEntity
  8
0-3_仕上げ
  6
Continuous
 62
    40
370
    15
100
AcDbLine
 10
852.8767824924677
 20
-3159.000197951857
 30
0.0
 11
2088.877524811938
 21
-3159.000197951857
 31
0.0
  0
LINE
  5
35E
330
1F
100
AcDbEntity
  8
0-3_仕上げ
  6
Continuous
 62
    40
370
    15
100
AcDbLine
 10
852.8767824924677
 20
-3087.000405801309
 30
0.0
 11
2088.877524811938
 21
-3087.000405801309
 31
0.0
  0
LINE
  5
35F
330
1F
100
AcDbEntity
  8
0-0_補助線
  6
JWW_HOJO
 62
   120
370
     5
100
AcDbLine
 10
2718.878118667511
 20
-3159.000198071857
 30
0.0
 11
642.8767824924677
 21
-3159.000198071857
 31
0.0
  0
LINE
  5
360
330
1F
100
AcDbEntity
  8
0-B_寸法
  6
Continuous
 62
   120
370
     5
100
AcDbLine
 10
2094.314341878024
 20
-3159.000197951857
 30
0.0
 11
2718.877524811936
 21
-3159.000197951857
 31
0.0
  0
LINE
  5
361
330
1F
100
AcDbEntity
  8
0-B_寸法
  6
Continuous
 62
   120
370
     5
100
AcDbLine
 10
2298.877524811936
 20
-3087.000405801309
 30
0.0
 11
2508.877524811936
 21
-3087.000405801309
 31
0.0
  0
LWPOLYLINE
  5
362
330
1F
100
AcDbEntity
  8
0-B_寸法
  6
Continuous
 62
     7
370
     9
100
AcDbPolyline
 90
        4
 70
     1
 43
3.0
 10
2720.377524811936
 20
-3159.000197951857
 42
0.4142135623731
 10
2718.877524811936
 20
-3157.500197951857
 42
0.4142135623731
 10
2717.377524811936
 20
-3159.000197951857
 42
0.4142135623731
 10
2718.877524811936
 20
-3160.500197951857
 42
0.4142135623731
  0
MTEXT
  5
363
330
1F
100
AcDbEntity
  8
0-B_寸法
  6
Continuous
 62
     7
370
     0
100
AcDbMText
 10
1501.628234964232
 20
-1180.343118417054
 30
0.0
 40
91.44
 41
240.0
 46
0.0
 71
     7
 72
     1
  1
{\fＭＳ ゴシック|b0|i0|c128|p49;(24)}
 73
     1
 44
1.0
  0
LINE
  5
364
330
1F
100
AcDbEntity
  8
0-6_扉
  6
Continuous
 62
   200
370
    20
100
AcDbLine
 10
1698.878267131407
 20
-327.0001977693535
 30
0.0
 11
1536.878178053073
 21
-327.0001977693535
 31
0.0
  0
LWPOLYLINE
  5
365
330
1F
100
AcDbEntity
  8
0-B_寸法
  6
Continuous
 62
     7
370
     9
100
AcDbPolyline
 90
        4
 70
     1
 43
3.0
 10
1538.378178053072
 20
-1031.063068929089
 42
0.4142135623731
 10
1536.878178053073
 20
-1029.563068929089
 42
0.4142135623731
 10
1535.378178053073
 20
-1031.063068929089
 42
0.4142135623731
 10
1536.878178053073
 20
-1032.563068929089
 42
0.4142135623731
  0
LWPOLYLINE
  5
366
330
1F
100
AcDbEntity
  8
0-B_寸法
  6
Continuous
 62
     7
370
     9
100
AcDbPolyline
 90
        4
 70
     1
 43
3.0
 10
1700.378267131407
 20
-1031.063068929089
 42
0.4142135623731
 10
1698.878267131407
 20
-1029.563068929089
 42
0.4142135623731
 10
1697.378267131407
 20
-1031.063068929089
 42
0.4142135623731
 10
1698.878267131407
 20
-1032.563068929089
 42
0.4142135623731
  0
MTEXT
  5
367
330
1F
100
AcDbEntity
  8
0-B_寸法
  6
Continuous
 62
     7
370
     0
100
AcDbMText
 10
1561.628234964232
 20
-1030.343019441124
 30
0.0
 40
91.44
 41
120.0
 46
0.0
 71
     7
 72
     1
  1
{\fＭＳ ゴシック|b0|i0|c128|p49;27}
 73
     1
 44
1.0
  0
LINE
  5
368
330
1F
100
AcDbEntity
  8
0-B_寸法
  6
Continuous
 62
   120
370
     5
100
AcDbLine
 10
1536.878178053073
 20
-965.5719338731336
 30
0.0
 11
1536.878178053073
 21
-1031.063068929089
 31
0.0
  0
LINE
  5
369
330
1F
100
AcDbEntity
  8
0-B_寸法
  6
Continuous
 62
   120
370
     5
100
AcDbLine
 10
1698.878267131407
 20
-965.5719338731336
 30
0.0
 11
1698.878267131407
 21
-1031.063068929089
 31
0.0
  0
LINE
  5
36A
330
1F
100
AcDbEntity
  8
0-B_寸法
  6
Continuous
 62
   120
370
     5
100
AcDbLine
 10
1698.878267131407
 20
-1031.063068929089
 30
0.0
 11
1536.878178053073
 21
-1031.063068929089
 31
0.0
  0
LINE
  5
36B
330
1F
100
AcDbEntity
  8
0-3_仕上げ
  6
Continuous
 62
    40
370
    15
100
AcDbLine
 10
1599.878762011052
 20
-129.000212615743
 30
0.0
 11
1674.878267131408
 21
-129.0002126157438
 31
0.0
  0
LINE
  5
36C
330
1F
100
AcDbEntity
  8
0-C_ハッチ
  6
JWW_DASHED1
 62
   120
370
     5
100
AcDbLine
 10
1674.878267131408
 20
114.9578842750938
 30
0.0
 11
1599.878762011052
 21
189.9573893954485
 31
0.0
  0
LINE
  5
36D
330
1F
100
AcDbEntity
  8
0-3_仕上げ
  6
Continuous
 62
    40
370
    15
100
AcDbLine
 10
1599.878762011052
 20
-129.0002126157438
 30
0.0
 11
1599.878762011052
 21
194.9998020481414
 31
0.0
  0
LINE
  5
36E
330
1F
100
AcDbEntity
  8
0-3_仕上げ
  6
Continuous
 62
    40
370
    15
100
AcDbLine
 10
1674.878267131408
 20
-129.0002126157438
 30
0.0
 11
1674.878267131408
 21
194.9998020481414
 31
0.0
  0
LINE
  5
36F
330
1F
100
AcDbEntity
  8
0-C_ハッチ
  6
JWW_DASHED1
 62
   120
370
     5
100
AcDbLine
 10
1674.878267131408
 20
157.3844111437595
 30
0.0
 11
1637.262876227026
 21
194.9998020481414
 31
0.0
  0
LINE
  5
370
330
1F
100
AcDbEntity
  8
0-C_ハッチ
  6
JWW_DASHED1
 62
   120
370
     5
100
AcDbLine
 10
1674.878267131408
 20
72.53135740642819
 30
0.0
 11
1599.878762011052
 21
147.5308625267837
 31
0.0
  0
LINE
  5
371
330
1F
100
AcDbEntity
  8
0-C_ハッチ
  6
JWW_DASHED1
 62
   120
370
     5
100
AcDbLine
 10
1674.878267131408
 20
30.10520169749697
 30
0.0
 11
1599.878762011052
 21
105.1047068178525
 31
0.0
  0
LINE
  5
372
330
1F
100
AcDbEntity
  8
0-C_ハッチ
  6
JWW_DASHED1
 62
   120
370
     5
100
AcDbLine
 10
1674.878267131408
 20
-12.32132517116867
 30
0.0
 11
1599.878762011052
 21
62.67817994918516
 31
0.0
  0
LINE
  5
373
330
1F
100
AcDbEntity
  8
0-C_ハッチ
  6
JWW_DASHED1
 62
   120
370
     5
100
AcDbLine
 10
1674.878267131408
 20
-54.7478520398343
 30
0.0
 11
1599.878762011052
 21
20.25165308051868
 31
0.0
  0
LINE
  5
374
330
1F
100
AcDbEntity
  8
0-C_ハッチ
  6
JWW_DASHED1
 62
   120
370
     5
100
AcDbLine
 10
1674.878267131408
 20
-97.17326542929754
 30
0.0
 11
1599.878762011052
 21
-22.17376030894371
 31
0.0
  0
LINE
  5
375
330
1F
100
AcDbEntity
  8
0-C_ハッチ
  6
JWW_DASHED1
 62
   120
370
     5
100
AcDbLine
 10
1664.278687449186
 20
-129.0002126157438
 30
0.0
 11
1599.878762011052
 21
-64.6002871776085
 31
0.0
  0
LINE
  5
376
330
1F
100
AcDbEntity
  8
0-C_ハッチ
  6
JWW_DASHED1
 62
   120
370
     5
100
AcDbLine
 10
1621.85216058052
 20
-129.0002126157438
 30
0.0
 11
1599.878762011052
 21
-107.026814046275
 31
0.0
  0
MTEXT
  5
377
330
1F
100
AcDbEntity
  8
0-B_寸法
  6
Continuous
 62
     7
370
   211
100
AcDbMText
 10
1368.128267131404
 20
-640.4083281140535
 30
0.0
 40
97.15499999999999
 41
127.5
 46
0.0
 71
     7
 72
     1
  1
{\fＭＳ ゴシック|b0|i0|c128|p49;99}
 73
     1
 44
1.0
  0
LINE
  5
378
330
1F
100
AcDbEntity
  8
0-B_寸法
  6
Continuous
 62
   120
370
     5
100
AcDbLine
 10
1134.878267131406
 20
-643.9858281140534
 30
0.0
 11
1134.878267131406
 21
-491.7606017890961
 31
0.0
  0
LINE
  5
379
330
1F
100
AcDbEntity
  8
0-B_寸法
  6
Continuous
 62
   120
370
     5
100
AcDbLine
 10
1728.8782671314
 20
-643.9858281140534
 30
0.0
 11
1728.8782671314
 21
-491.7606017890961
 31
0.0
  0
LWPOLYLINE
  5
37A
330
1F
100
AcDbEntity
  8
0-B_寸法
  6
Continuous
 62
     7
370
     9
100
AcDbPolyline
 90
        4
 70
     1
 43
3.0
 10
1136.378267131406
 20
-643.9858281140534
 42
0.4142135623731
 10
1134.878267131406
 20
-642.4858281140534
 42
0.4142135623731
 10
1133.378267131406
 20
-643.9858281140534
 42
0.4142135623731
 10
1134.878267131406
 20
-645.4858281140534
 42
0.4142135623731
  0
LWPOLYLINE
  5
37B
330
1F
100
AcDbEntity
  8
0-B_寸法
  6
Continuous
 62
     7
370
     9
100
AcDbPolyline
 90
        4
 70
     1
 43
3.0
 10
1730.3782671314
 20
-643.9858281140534
 42
0.4142135623731
 10
1728.8782671314
 20
-642.4858281140534
 42
0.4142135623731
 10
1727.3782671314
 20
-643.9858281140534
 42
0.4142135623731
 10
1728.8782671314
 20
-645.4858281140534
 42
0.4142135623731
  0
LINE
  5
37C
330
1F
100
AcDbEntity
  8
0-B_寸法
  6
Continuous
 62
   120
370
     5
100
AcDbLine
 10
1728.8782671314
 20
-643.9858281140534
 30
0.0
 11
1134.878267131406
 21
-643.9858281140534
 31
0.0
  0
LINE
  5
37D
330
1F
100
AcDbEntity
  8
0-C_ハッチ
  6
Continuous
 62
   120
370
     5
100
AcDbLine
 10
1239.112212540529
 20
-309.0004353115751
 30
0.0
 11
1134.878267131406
 21
-204.7664899024691
 31
0.0
  0
LINE
  5
37E
330
1F
100
AcDbEntity
  8
0-C_ハッチ
  6
Continuous
 62
   120
370
     5
100
AcDbLine
 10
1179.715242920877
 20
-309.0004353115751
 30
0.0
 11
1134.878267131406
 21
-264.1634595221119
 31
0.0
  0
LINE
  5
37F
330
1F
100
AcDbEntity
  8
0-C_ハッチ
  6
Continuous
 62
   120
370
     5
100
AcDbLine
 10
1298.509182160183
 20
-309.0004353115849
 30
0.0
 11
1134.878267131406
 21
-145.3695202828021
 31
0.0
  0
LINE
  5
380
330
1F
100
AcDbEntity
  8
0-C_ハッチ
  6
Continuous
 62
   120
370
     5
100
AcDbLine
 10
1357.906151779871
 20
-309.0004353115734
 30
0.0
 11
1177.905929084045
 21
-129.000212615743
 31
0.0
  0
LINE
  5
381
330
1F
100
AcDbEntity
  8
0-C_ハッチ
  6
Continuous
 62
   120
370
     5
100
AcDbLine
 10
1417.303121399532
 20
-309.0004353115862
 30
0.0
 11
1237.30289870369
 21
-129.000212615743
 31
0.0
  0
LINE
  5
382
330
1F
100
AcDbEntity
  8
0-4_枠
  6
Continuous
 62
   120
370
     5
100
AcDbLine
 10
1728.878267131407
 20
-129.000212615743
 30
0.0
 11
1746.878267131407
 21
-129.000212615743
 31
0.0
  0
LINE
  5
383
330
1F
100
AcDbEntity
  8
0-4_枠
  6
Continuous
 62
   120
370
     5
100
AcDbLine
 10
1212.877524811936
 20
-129.000212615743
 30
0.0
 11
1116.878267131406
 21
-129.000212615743
 31
0.0
  0
ARC
  5
384
330
1F
100
AcDbEntity
  8
0-4_枠
  6
Continuous
 62
    92
370
    13
100
AcDbCircle
 10
1164.878267131406
 20
-279.0004353115836
 30
0.0
 40
30.0
100
AcDbArc
 50
180.0
 51
270.0
  0
LINE
  5
385
330
1F
100
AcDbEntity
  8
0-4_枠
  6
Continuous
 62
    92
370
    13
100
AcDbLine
 10
1164.878267131406
 20
-309.0004353115836
 30
0.0
 11
1710.878504673635
 21
-309.0004353115836
 31
0.0
  0
LINE
  5
386
330
1F
100
AcDbEntity
  8
0-4_枠
  6
Continuous
 62
    92
370
    13
100
AcDbLine
 10
1728.878267131407
 20
-129.000212615743
 30
0.0
 11
1134.878267131406
 21
-129.000212615743
 31
0.0
  0
LINE
  5
387
330
1F
100
AcDbEntity
  8
0-4_枠
  6
Continuous
 62
    92
370
    13
100
AcDbLine
 10
1134.878267131406
 20
-279.0004353115836
 30
0.0
 11
1134.878267131406
 21
-129.000212615743
 31
0.0
  0
LINE
  5
388
330
1F
100
AcDbEntity
  8
0-0_補助線
  6
JWW_HOJO
 62
   120
370
     5
100
AcDbLine
 10
642.8767824924677
 20
194.9998020481414
 30
0.0
 11
2718.878712523087
 21
194.9998020481414
 31
0.0
  0
LINE
  5
389
330
1F
100
AcDbEntity
  8
0-0_補助線
  6
JWW_HOJO
 62
   120
370
     5
100
AcDbLine
 10
642.8767824924677
 20
-3159.000198071857
 30
0.0
 11
642.8767824924677
 21
194.9998020481414
 31
0.0
  0
LINE
  5
38A
330
1F
100
AcDbEntity
  8
0-0_補助線
  6
JWW_HOJO
 62
   120
370
     5
100
AcDbLine
 10
2718.878712523087
 20
-3159.000198071857
 30
0.0
 11
2718.878712523087
 21
194.9998020481414
 31
0.0
  0
LINE
  5
38B
330
1F
100
AcDbEntity
  8
0-0_補助線
  6
JWW_HOJO
 62
   120
370
     5
100
AcDbLine
 10
852.8767824924677
 20
-3159.000198071857
 30
0.0
 11
852.8767824924677
 21
194.9998020481414
 31
0.0
  0
LINE
  5
38C
330
1F
100
AcDbEntity
  8
0-0_補助線
  6
JWW_HOJO
 62
   120
370
     5
100
AcDbLine
 10
2088.877524811938
 20
-3159.000198071857
 30
0.0
 11
2088.877524811938
 21
194.9998020481414
 31
0.0
  0
LINE
  5
38D
330
1F
100
AcDbEntity
  8
0-B_寸法
  6
Continuous
 62
   120
370
     5
100
AcDbLine
 10
2508.877524811936
 20
-129.000212615743
 30
0.0
 11
2508.877524811936
 21
-3087.000524572424
 31
0.0
  0
LINE
  5
38E
330
1F
100
AcDbEntity
  8
0-B_寸法
  6
Continuous
 62
   120
370
     5
100
AcDbLine
 10
2298.877524811936
 20
-2997.000643343537
 30
0.0
 11
2298.877524811936
 21
-309.0000641518492
 31
0.0
  0
LINE
  5
38F
330
1F
100
AcDbEntity
  8
0-B_寸法
  6
Continuous
 62
   120
370
     5
100
AcDbLine
 10
2718.877524811936
 20
-3159.000197951857
 30
0.0
 11
2718.877524811936
 21
-129.000212615743
 31
0.0
  0
LWPOLYLINE
  5
390
330
1F
100
AcDbEntity
  8
0-B_寸法
  6
Continuous
 62
     7
370
     9
100
AcDbPolyline
 90
        4
 70
     1
 43
3.0
 10
2720.377524811936
 20
-128.9994702962746
 42
0.4142135623731
 10
2718.877524811936
 20
-127.4994702962746
 42
0.4142135623731
 10
2717.377524811936
 20
-128.9994702962746
 42
0.4142135623731
 10
2718.877524811936
 20
-130.4994702962746
 42
0.4142135623731
  0
LINE
  5
391
330
1F
100
AcDbEntity
  8
0-B_寸法
  6
Continuous
 62
   120
370
     5
100
AcDbLine
 10
2718.877524811936
 20
-128.9994702962746
 30
0.0
 11
2172.876911161182
 21
-128.9994702962746
 31
0.0
  0
LINE
  5
392
330
1F
100
AcDbEntity
  8
0-B_寸法
  6
Continuous
 62
   120
370
     5
100
AcDbLine
 10
2088.877524811938
 20
-129.000212615743
 30
0.0
 11
2718.877524811936
 21
-129.000212615743
 31
0.0
  0
LWPOLYLINE
  5
393
330
1F
100
AcDbEntity
  8
0-B_寸法
  6
Continuous
 62
     7
370
     9
100
AcDbPolyline
 90
        4
 70
     1
 43
3.0
 10
2510.377524811936
 20
-129.000212615743
 42
0.4142135623731
 10
2508.877524811936
 20
-127.500212615743
 42
0.4142135623731
 10
2507.377524811936
 20
-129.000212615743
 42
0.4142135623731
 10
2508.877524811936
 20
-130.500212615743
 42
0.4142135623731
  0
LWPOLYLINE
  5
394
330
1F
100
AcDbEntity
  8
0-B_寸法
  6
Continuous
 62
     7
370
     9
100
AcDbPolyline
 90
        4
 70
     1
 43
3.0
 10
2510.377524811936
 20
-307.0418253955148
 42
0.4142135623731
 10
2508.877524811936
 20
-305.5418253955148
 42
0.4142135623731
 10
2507.377524811936
 20
-307.0418253955148
 42
0.4142135623731
 10
2508.877524811936
 20
-308.5418253955148
 42
0.4142135623731
  0
MTEXT
  5
395
330
1F
100
AcDbEntity
  8
0-B_寸法
  6
Continuous
 62
     7
370
     0
100
AcDbMText
 10
2493.877475323974
 20
-296.0510313776203
 30
0.0
 40
91.44
 41
120.0
 46
0.0
 71
     7
 72
     1
  1
{\fＭＳ ゴシック|b0|i0|c128|p49;30}
 11
6.123031769111886E-17
 21
1.0
 31
0.0
 73
     1
 44
1.0
  0
LINE
  5
396
330
1F
100
AcDbEntity
  8
0-B_寸法
  6
Continuous
 62
   120
370
     5
100
AcDbLine
 10
2298.877524811936
 20
-307.0418253955148
 30
0.0
 11
2508.877524811936
 21
-307.0418253955148
 31
0.0
  0
LWPOLYLINE
  5
397
330
1F
100
AcDbEntity
  8
0-B_寸法
  6
Continuous
 62
     7
370
     9
100
AcDbPolyline
 90
        4
 70
     1
 43
3.0
 10
2300.377524811936
 20
-309.0000641518492
 42
0.4142135623731
 10
2298.877524811936
 20
-307.5000641518492
 42
0.4142135623731
 10
2297.377524811936
 20
-309.0000641518492
 42
0.4142135623731
 10
2298.877524811936
 20
-310.5000641518492
 42
0.4142135623731
  0
LWPOLYLINE
  5
398
330
1F
100
AcDbEntity
  8
0-B_寸法
  6
Continuous
 62
     7
370
     9
100
AcDbPolyline
 90
        4
 70
     1
 43
3.0
 10
2300.377524811936
 20
-327.0001977693535
 42
0.4142135623731
 10
2298.877524811936
 20
-325.5001977693535
 42
0.4142135623731
 10
2297.377524811936
 20
-327.0001977693535
 42
0.4142135623731
 10
2298.877524811936
 20
-328.5001977693535
 42
0.4142135623731
  0
LINE
  5
399
330
1F
100
AcDbEntity
  8
0-B_寸法
  6
Continuous
 62
   120
370
     5
100
AcDbLine
 10
2088.877524811938
 20
-309.0000641518492
 30
0.0
 11
2298.877524811936
 21
-309.0000641518492
 31
0.0
  0
LINE
  5
39A
330
1F
100
AcDbEntity
  8
0-B_寸法
  6
Continuous
 62
   120
370
     5
100
AcDbLine
 10
2088.877524811938
 20
-327.0001977693535
 30
0.0
 11
2298.877524811936
 21
-327.0001977693535
 31
0.0
  0
LINE
  5
39B
330
1F
100
AcDbEntity
  8
0-C_ハッチ
  6
Continuous
 62
   120
370
     5
100
AcDbLine
 10
1728.8782671314
 20
-204.7967937057534
 30
0.0
 11
1653.081686041393
 21
-129.0002126157489
 31
0.0
  0
LINE
  5
39C
330
1F
100
AcDbEntity
  8
0-C_ハッチ
  6
Continuous
 62
   120
370
     5
100
AcDbLine
 10
1728.878267131407
 20
-264.1937633254117
 30
0.0
 11
1593.684716421729
 21
-129.0002126157361
 31
0.0
  0
LINE
  5
39D
330
1F
100
AcDbEntity
  8
0-C_ハッチ
  6
Continuous
 62
   120
370
     5
100
AcDbLine
 10
1714.287969497875
 20
-309.0004353115806
 30
0.0
 11
1534.287746802034
 21
-129.00021261574
 31
0.0
  0
LINE
  5
39E
330
1F
100
AcDbEntity
  8
0-C_ハッチ
  6
Continuous
 62
   120
370
     5
100
AcDbLine
 10
1654.890999878231
 20
-309.0004353115827
 30
0.0
 11
1474.890777182383
 21
-129.0002126157374
 31
0.0
  0
LINE
  5
39F
330
1F
100
AcDbEntity
  8
0-C_ハッチ
  6
Continuous
 62
   120
370
     5
100
AcDbLine
 10
1595.49403025859
 20
-309.0004353115904
 30
0.0
 11
1415.493807562746
 21
-129.0002126157502
 31
0.0
  0
LINE
  5
3A0
330
1F
100
AcDbEntity
  8
0-C_ハッチ
  6
Continuous
 62
   120
370
     5
100
AcDbLine
 10
1536.097060638881
 20
-309.0004353115849
 30
0.0
 11
1356.096837943037
 21
-129.0002126157387
 31
0.0
  0
LINE
  5
3A1
330
1F
100
AcDbEntity
  8
0-C_ハッチ
  6
Continuous
 62
   120
370
     5
100
AcDbLine
 10
1476.700091019221
 20
-309.0004353115712
 30
0.0
 11
1296.699868323376
 21
-129.0002126157263
 31
0.0
  0
ARC
  5
3A2
330
1F
100
AcDbEntity
  8
0-4_枠
  6
Continuous
 62
    92
370
    13
100
AcDbCircle
 10
1710.878504673635
 20
-291.0003016940784
 30
0.0
 40
17.99999878213213
100
AcDbArc
 50
270.0
 51
0.0
  0
LINE
  5
3A3
330
1F
100
AcDbEntity
  8
0-4_枠
  6
Continuous
 62
    92
370
    13
100
AcDbLine
 10
1728.878267131407
 20
-129.000212615743
 30
0.0
 11
1728.878267131407
 21
-291.0003016940784
 31
0.0
  0
LINE
  5
3A4
330
1F
100
AcDbEntity
  8
0-0_補助線
  6
JWW_HOJO
 62
   120
370
     5
100
AcDbLine
 10
2106.141328062216
 20
-1638.000420556446
 30
0.0
 11
835.613721561647
 21
-1638.000420556446
 31
0.0
  0
LINE
  5
3A5
330
1F
100
AcDbEntity
  8
0-0_補助線
  6
JWW_HOJO
 62
   120
370
     5
100
AcDbLine
 10
2106.141328062216
 20
-1758.000420556447
 30
0.0
 11
835.613721561647
 21
-1758.000420556447
 31
0.0
  0
LINE
  5
3A6
330
1F
100
AcDbEntity
  8
0-6_扉
  6
Continuous
 62
   200
370
    20
100
AcDbLine
 10
1536.878178053073
 20
-327.0001977693535
 30
0.0
 11
1536.878178053073
 21
-1638.000420556446
 31
0.0
  0
LINE
  5
3A7
330
1F
100
AcDbEntity
  8
0-6_扉
  6
Continuous
 62
   200
370
    20
100
AcDbLine
 10
1698.878267131407
 20
-327.0001977693535
 30
0.0
 11
1698.878267131407
 21
-1638.000420556446
 31
0.0
  0
LINE
  5
3A8
330
1F
100
AcDbEntity
  8
0-4_枠
  6
Continuous
 62
   120
370
     5
100
AcDbLine
 10
1746.878267131407
 20
-1638.000420556446
 30
0.0
 11
1746.878267131407
 21
-129.000212615743
 31
0.0
  0
LINE
  5
3A9
330
1F
100
AcDbEntity
  8
0-4_枠
  6
Continuous
 62
   120
370
     5
100
AcDbLine
 10
1116.878267131406
 20
-1638.000420556446
 30
0.0
 11
1116.878267131406
 21
-129.000212615743
 31
0.0
  0
LINE
  5
3AA
330
1F
100
AcDbEntity
  8
0-4_枠
  6
Continuous
 62
   120
370
     5
100
AcDbLine
 10
1116.878267131406
 20
-3087.000405801309
 30
0.0
 11
1116.878267131406
 21
-1758.000420556447
 31
0.0
  0
LINE
  5
3AB
330
1F
100
AcDbEntity
  8
0-6_扉
  6
Continuous
 62
   200
370
    20
100
AcDbLine
 10
1536.878178053073
 20
-1758.000420556447
 30
0.0
 11
1536.878178053073
 21
-2973.000405801309
 31
0.0
  0
LINE
  5
3AC
330
1F
100
AcDbEntity
  8
0-6_扉
  6
Continuous
 62
   200
370
    20
100
AcDbLine
 10
1698.878267131407
 20
-1758.000420556447
 30
0.0
 11
1698.878267131407
 21
-2973.000405801309
 31
0.0
  0
LINE
  5
3AD
330
1F
100
AcDbEntity
  8
0-4_枠
  6
Continuous
 62
   120
370
     5
100
AcDbLine
 10
1746.878267131407
 20
-3087.000405801309
 30
0.0
 11
1746.878267131407
 21
-1758.000420556447
 31
0.0
  0
MTEXT
  5
3AE
330
1F
100
AcDbEntity
  8
0-B_寸法
  6
Continuous
 62
     7
370
     0
100
AcDbMText
 10
2082.819001578627
 20
-3035.452159113641
 30
0.0
 40
91.44
 41
60.0
 46
0.0
 71
     7
 72
     1
  1
{\fＭＳ ゴシック|b0|i0|c128|p49;4}
 11
6.123031769111886E-17
 21
1.0
 31
0.0
 73
     1
 44
1.0
  0
MTEXT
  5
3AF
330
1F
100
AcDbEntity
  8
0-B_寸法
  6
Continuous
 62
     7
370
     0
100
AcDbMText
 10
2067.570464239467
 20
-370.4704761904753
 30
0.0
 40
91.44
 41
60.0
 46
0.0
 71
     7
 72
     1
  1
{\fＭＳ ゴシック|b0|i0|c128|p49;3}
 11
6.123031769111886E-17
 21
1.0
 31
0.0
 73
     1
 44
1.0
  0
MTEXT
  5
3B0
330
1F
100
AcDbEntity
  8
0-B_寸法
  6
Continuous
 62
     7
370
     0
100
AcDbMText
 10
2877.094273763276
 20
-3195.70857142857
 30
0.0
 40
91.44
 41
120.0
 46
0.0
 71
     7
 72
     1
  1
{\fＭＳ ゴシック|b0|i0|c128|p49;12}
 11
6.123031769111886E-17
 21
1.0
 31
0.0
 73
     1
 44
1.0
  0
MTEXT
  5
3B1
330
1F
100
AcDbEntity
  8
0-B_寸法
  6
Continuous
 62
     7
370
     0
100
AcDbMText
 10
2485.327750421116
 20
-3133.360143161392
 30
0.0
 40
91.44
 41
120.0
 46
0.0
 71
     7
 72
     1
  1
{\fＭＳ ゴシック|b0|i0|c128|p49;15}
 11
6.123031769111886E-17
 21
1.0
 31
0.0
 73
     1
 44
1.0
  0
MTEXT
  5
3B2
330
1F
100
AcDbEntity
  8
0-A_文字
  6
Continuous
 62
     7
370
     9
100
AcDbMText
 10
-5057.040513357243
 20
326.5488344438604
 30
0.0
 40
91.43999999999998
 41
2160.0
 46
0.0
 71
     7
 72
     1
  1
{\fＭＳ ゴシック|b0|i0|c128|p49;■縦断面図　Ｈ＝８尺　(７尺)　<６尺>}
 73
     1
 44
1.0
  0
MTEXT
  5
3B3
330
1F
100
AcDbEntity
  8
0-A_文字
  6
Continuous
 62
     7
370
     9
100
AcDbMText
 10
642.8767824924685
 20
326.5488344438604
 30
0.0
 40
91.43999999999996
 41
1800.0
 46
0.0
 71
     7
 72
     1
  1
{\fＭＳ ゴシック|b0|i0|c128|p49;■縦断面図　Ｈ＝４尺　〔３尺〕}
 73
     1
 44
1.0
  0
MTEXT
  5
3B4
330
1F
100
AcDbEntity
  8
0-A_文字
  6
Continuous
 62
     7
370
     0
100
AcDbMText
 10
2724.876337100791
 20
-2192.851428908194
 30
0.0
 40
91.43999999999998
 41
1080.0
 46
0.0
 71
     7
 72
     1
  1
{\fＭＳ ゴシック|b0|i0|c128|p49;枠外＝1,187〔832〕}
 11
6.123031769111886E-17
 21
1.0
 31
0.0
 73
     1
 44
1.0
  0
MTEXT
  5
3B5
330
1F
100
AcDbEntity
  8
0-A_文字
  6
Continuous
 62
     7
370
     0
100
AcDbMText
 10
2514.876930956367
 20
-2192.851428908194
 30
0.0
 40
91.43999999999998
 41
1080.0
 46
0.0
 71
     7
 72
     1
  1
{\fＭＳ ゴシック|b0|i0|c128|p49;枠内＝1,142〔787〕}
 11
6.123031769111886E-17
 21
1.0
 31
0.0
 73
     1
 44
1.0
  0
MTEXT
  5
3B6
330
1F
100
AcDbEntity
  8
0-A_文字
  6
Continuous
 62
     7
370
     0
100
AcDbMText
 10
2304.877524811937
 20
-2192.851428908194
 30
0.0
 40
91.43999999999998
 41
1080.0
 46
0.0
 71
     7
 72
     1
  1
{\fＭＳ ゴシック|b0|i0|c128|p49;ＤＨ＝1,135〔780〕}
 11
6.123031769111886E-17
 21
1.0
 31
0.0
 73
     1
 44
1.0
  0
MTEXT
  5
3B7
330
1F
100
AcDbEntity
  8
0-A_文字
  6
Continuous
 62
     7
370
   211
100
AcDbMText
 10
-5074.188046545204
 20
-2603.762274586348
 30
0.0
 40
102.4758620689655
 41
1950.0
 46
0.0
 71
     7
 72
     1
  1
{\fＭＳ ゴシック|b0|i0|c128|p49;ＲＯＨ＝2,356 (2,055) <1,805>}
 11
6.123031769111886E-17
 21
1.0
 31
0.0
 73
     1
 44
1.0
  0
MTEXT
  5
3B8
330
1F
100
AcDbEntity
  8
0-A_文字
  6
Continuous
 62
     7
370
     0
100
AcDbMText
 10
-3395.039771037773
 20
-2299.994286051051
 30
0.0
 40
91.43999999999996
 41
1620.0
 46
0.0
 71
     7
 72
     1
  1
{\fＭＳ ゴシック|b0|i0|c128|p49;ＤＨ＝2,284 (1,983) <1,733>}
 11
6.123031769111886E-17
 21
1.0
 31
0.0
 73
     1
 44
1.0
  0
MTEXT
  5
3B9
330
1F
100
AcDbEntity
  8
0-A_文字
  6
Continuous
 62
     7
370
     0
100
AcDbMText
 10
-3185.039771037773
 20
-2299.99428605105
 30
0.0
 40
91.43999999999991
 41
1619.999999999999
 46
0.0
 71
     7
 72
     1
  1
{\fＭＳ ゴシック|b0|i0|c128|p49;枠内＝2,291 (1,990) <1,740>}
 11
6.123031769111886E-17
 21
1.0
 31
0.0
 73
     1
 44
1.0
  0
MTEXT
  5
3BA
330
1F
100
AcDbEntity
  8
0-A_文字
  6
Continuous
 62
     7
370
     0
100
AcDbMText
 10
-2975.039771037773
 20
-2299.994286051051
 30
0.0
 40
91.43999999999996
 41
1620.0
 46
0.0
 71
     7
 72
     1
  1
{\fＭＳ ゴシック|b0|i0|c128|p49;枠外＝2,336 (2,035) <1,825>}
 11
6.123031769111886E-17
 21
1.0
 31
0.0
 73
     1
 44
1.0
  0
MTEXT
  5
3BB
330
1F
100
AcDbEntity
  8
0-A_文字
  6
Continuous
 62
     7
370
     0
100
AcDbMText
 10
-4419.376637342843
 20
-3524.434136733194
 30
0.0
 40
79.24799999999985
 41
1559.999999999997
 46
0.0
 71
     7
 72
     1
  1
{\fＭＳ ゴシック|b0|i0|c128|p49;※扉厚（　）内はルーバーの場合}
 73
     1
 44
1.0
  0
MTEXT
  5
3BC
330
1F
100
AcDbEntity
  8
0-A_文字
  6
Continuous
 62
     7
370
     0
100
AcDbMText
 10
1280.540658506868
 20
-3524.434136733194
 30
0.0
 40
79.24799999999965
 41
1559.999999999993
 46
0.0
 71
     7
 72
     1
  1
{\fＭＳ ゴシック|b0|i0|c128|p49;※扉厚（　）内はルーバーの場合}
 73
     1
 44
1.0
  0
MTEXT
  5
3BD
330
1F
100
AcDbEntity
  8
0-A_文字
  6
Continuous
 62
     7
370
     0
100
AcDbMText
 10
1268.08201058201
 20
-3396.684456141367
 30
0.0
 40
79.629
 41
3135.0
 46
0.0
 71
     7
 72
     1
  1
{\fＭＳ ゴシック|b0|i0|c128|p49;※Ｈ＝３尺、４尺の竪枠には躯体接合金具は装備されていません。}
 73
     1
 44
1.0
  0
MTEXT
  5
3BE
330
1F
100
AcDbEntity
  8
0-A_文字
  6
Continuous
 62
     7
370
     0
100
AcDbMText
 10
-2165.846560846561
 20
778.3541583933934
 30
0.0
 40
79.248
 41
1560.0
 46
0.0
 71
     7
 72
     1
  1
{\fＭＳ ゴシック|b0|i0|c128|p49;※扉厚（　）内はルーバーの場合}
 73
     1
 44
1.0
  0
LINE
  5
3BF
330
1F
100
AcDbEntity
  8
0-A_文字
  6
Continuous
 62
    92
370
    13
100
AcDbLine
 10
-5659.999495325861
 20
4000.000181455871
 30
0.0
 11
-5659.999495325861
 21
3730.000181455871
 31
0.0
  0
MTEXT
  5
3C0
330
1F
100
AcDbEntity
  8
0-A_文字
  6
Continuous
 62
    92
370
    13
100
AcDbMText
 10
-5573.749495325862
 20
3758.886967170157
 30
0.0
 40
147.7735714285715
 41
2715.0
 46
0.0
 71
     7
 72
     1
  1
{\fＭＳ ゴシック|b0|i0|c128|p49;収納両開き戸　固定枠　４方枠}
 73
     1
 44
1.0
  0
LINE
  5
3C1
330
1F
100
AcDbEntity
  8
0-A_文字
  6
Continuous
 62
    92
370
    13
100
AcDbLine
 10
-2758.734621254599
 20
4000.000181455871
 30
0.0
 11
-2758.734621254599
 21
3730.000181455871
 31
0.0
  0
LINE
  5
3C2
330
1F
100
AcDbEntity
  8
0-A_文字
  6
Continuous
 62
    92
370
    13
100
AcDbLine
 10
-5659.999495325861
 20
3730.000181455871
 30
0.0
 11
-2758.734621254599
 21
3730.000181455871
 31
0.0
  0
LINE
  5
3C3
330
1F
100
AcDbEntity
  8
0-A_文字
  6
Continuous
 62
    92
370
    13
100
AcDbLine
 10
-5659.999495325861
 20
4000.000181455871
 30
0.0
 11
-2758.734621254599
 21
4000.000181455871
 31
0.0
  0
MTEXT
  5
3C4
330
1F
100
AcDbEntity
  8
0-0_補助線
  6
Continuous
 62
     7
370
     0
100
AcDbMText
 10
-5090.178924476078
 20
-4041.803645591143
 30
0.0
 40
79.78139999999998
 41
2617.5
 46
0.0
 71
     7
 72
     1
  1
{\fＭＳ ゴシック|b0|i0|c128|p49;ピノアース　収納両開き戸　固定枠　４方枠　枠外W734}
 73
     1
 44
1.0
  0
LINE
  5
3C5
330
1F
100
AcDbEntity
  8
F-0_補助線
  6
JWW_HOJO
 62
     7
370
     9
100
AcDbLine
 10
1349.918584083287
 20
-3795.000003092998
 30
0.0
 11
1349.918584083287
 21
-4195.000008247994
 31
0.0
  0
LINE
  5
3C6
330
1F
100
AcDbEntity
  8
F-0_補助線
  6
JWW_HOJO
 62
     7
370
     9
100
AcDbLine
 10
4889.917891251784
 20
-3795.000003092998
 30
0.0
 11
4889.917891251784
 21
-4195.000008247994
 31
0.0
  0
MTEXT
  5
3C7
330
1F
100
AcDbEntity
  8
F-A_文字
  6
Continuous
 62
     7
370
     0
100
AcDbMText
 10
4889.917891251784
 20
-3945.570773120548
 30
0.0
 40
78.86699999999999
 41
517.5
 46
0.0
 71
     7
 72
     1
  1
{\fＭＳ ゴシック|b0|i0|c128|p49;2021.04.01}
 73
     1
 44
1.0
  0
MTEXT
  5
3C8
330
1F
100
AcDbEntity
  8
F-A_文字
  6
Continuous
 62
     7
370
     0
100
AcDbMText
 10
1349.918584083287
 20
-3945.948482732445
 30
0.0
 40
78.105
 41
615.0
 46
0.0
 71
     7
 72
     1
  1
{\fＭＳ ゴシック|b0|i0|c128|p49;建具納まり図}
 73
     1
 44
1.0
  0
MTEXT
  5
3C9
330
1F
100
AcDbEntity
  8
F-A_文字
  6
Continuous
 62
     7
370
     0
100
AcDbMText
 10
509.9185840832865
 20
-3956.425201962234
 30
0.0
 40
57.15
 41
675.0
 46
0.0
 71
     7
 72
     1
  1
{\fＭＳ ゴシック|b0|i0|c128|p49;ＰＩＮＯＥＡＲＴＨ}
 73
     1
 44
1.0
  0
ENDSEC
  0
SECTION
  2
OBJECTS
  0
DICTIONARY
  5
C
330
0
100
AcDbDictionary
281
     1
  3
ACAD_GROUP
350
D
  3
ACAD_LAYOUT
350
1A
  3
ACAD_MATERIAL
350
3B
  3
ACAD_MLEADERSTYLE
350
3CB
  3
ACAD_MLINESTYLE
350
17
  3
ACAD_PLOTSETTINGS
350
19
  3
ACAD_PLOTSTYLENAME
350
E
  3
ACAD_TABLESTYLE
350
3CA
  3
ACAD_VISUALSTYLE
350
2A
  0
DICTIONARY
  5
D
102
{ACAD_REACTORS
330
C
102
}
330
C
100
AcDbDictionary
281
     1
  0
DICTIONARY
  5
1A
102
{ACAD_REACTORS
330
C
102
}
330
C
100
AcDbDictionary
281
     1
  3
Layout1
350
1E
  3
Layout2
350
26
  3
Model
350
22
  0
DICTIONARY
  5
3B
102
{ACAD_REACTORS
330
C
102
}
330
C
100
AcDbDictionary
281
     1
  3
ByBlock
350
3D
  3
ByLayer
350
3C
  3
Global
350
3E
  0
DICTIONARY
  5
3CB
102
{ACAD_REACTORS
330
C
102
}
330
C
100
AcDbDictionary
281
     1
  0
DICTIONARY
  5
17
102
{ACAD_REACTORS
330
C
102
}
330
C
100
AcDbDictionary
281
     1
  3
Standard
350
18
  0
DICTIONARY
  5
19
102
{ACAD_REACTORS
330
C
102
}
330
C
100
AcDbDictionary
281
     1
  0
ACDBDICTIONARYWDFLT
  5
E
102
{ACAD_REACTORS
330
C
102
}
330
C
100
AcDbDictionary
281
     1
  3
Normal
350
F
100
AcDbDictionaryWithDefault
340
F
  0
DICTIONARY
  5
3CA
102
{ACAD_REACTORS
330
C
102
}
330
C
100
AcDbDictionary
281
     1
  0
DICTIONARY
  5
2A
102
{ACAD_REACTORS
330
C
102
}
330
C
100
AcDbDictionary
281
     1
  3
2dWireframe
350
2F
  3
3D Hidden
350
31
  3
3dWireframe
350
30
  3
Basic
350
32
  3
Brighten
350
36
  3
ColorChange
350
3A
  3
Conceptual
350
34
  3
Dim
350
35
  3
Facepattern
350
39
  3
Flat
350
2B
  3
FlatWithEdges
350
2C
  3
Gouraud
350
2D
  3
GouraudWithEdges
350
2E
  3
Linepattern
350
38
  3
Realistic
350
33
  3
Thicken
350
37
  0
LAYOUT
  5
1E
102
{ACAD_REACTORS
330
1A
102
}
330
1A
100
AcDbPlotSettings
  1

  2
none_device
  4

  6

 40
0.0
 41
0.0
 42
0.0
 43
0.0
 44
0.0
 45
0.0
 46
0.0
 47
0.0
 48
0.0
 49
0.0
140
0.0
141
0.0
142
1.0
143
1.0
 70
   688
 72
     0
 73
     0
 74
     5
  7

 75
    16
 76
     0
 77
     5
 78
   300
147
1.0
148
0.0
149
0.0
100
AcDbLayout
  1
Layout1
 70
     1
 71
     1
 10
0.0
 20
0.0
 11
420.0
 21
297.0
 12
0.0
 22
0.0
 32
0.0
 14
1.000000000000000E+20
 24
1.000000000000000E+20
 34
1.000000000000000E+20
 15
-1.000000000000000E+20
 25
-1.000000000000000E+20
 35
-1.000000000000000E+20
146
0.0
 13
0.0
 23
0.0
 33
0.0
 16
1.0
 26
0.0
 36
0.0
 17
0.0
 27
1.0
 37
0.0
 76
     0
330
1B
  0
LAYOUT
  5
26
102
{ACAD_REACTORS
330
1A
102
}
330
1A
100
AcDbPlotSettings
  1

  2
none_device
  4

  6

 40
0.0
 41
0.0
 42
0.0
 43
0.0
 44
0.0
 45
0.0
 46
0.0
 47
0.0
 48
0.0
 49
0.0
140
0.0
141
0.0
142
1.0
143
1.0
 70
   688
 72
     0
 73
     0
 74
     5
  7

 75
    16
 76
     0
 77
     5
 78
   300
147
1.0
148
0.0
149
0.0
100
AcDbLayout
  1
Layout2
 70
     1
 71
     2
 10
0.0
 20
0.0
 11
0.0
 21
0.0
 12
0.0
 22
0.0
 32
0.0
 14
0.0
 24
0.0
 34
0.0
 15
0.0
 25
0.0
 35
0.0
146
0.0
 13
0.0
 23
0.0
 33
0.0
 16
1.0
 26
0.0
 36
0.0
 17
0.0
 27
1.0
 37
0.0
 76
     0
330
23
  0
LAYOUT
  5
22
102
{ACAD_REACTORS
330
1A
102
}
330
1A
100
AcDbPlotSettings
  1

  2
none_device
  4

  6

 40
0.0
 41
0.0
 42
0.0
 43
0.0
 44
0.0
 45
0.0
 46
0.0
 47
0.0
 48
0.0
 49
0.0
140
0.0
141
0.0
142
1.0
143
1.0
 70
  1712
 72
     0
 73
     0
 74
     0
  7

 75
     0
 76
     0
 77
     5
 78
   300
147
1.0
148
0.0
149
0.0
100
AcDbLayout
  1
Model
 70
     1
 71
     0
 10
-6300.0
 20
-4455.0
 11
6300.0
 21
4455.0
 12
0.0
 22
0.0
 32
0.0
 14
-6300.0
 24
-4455.0
 34
0.0
 15
6300.0
 25
4455.0
 35
0.0
146
0.0
 13
0.0
 23
0.0
 33
0.0
 16
1.0
 26
0.0
 36
0.0
 17
0.0
 27
1.0
 37
0.0
 76
     0
330
1F
331
29
  0
MATERIAL
  5
3D
102
{ACAD_REACTORS
330
3B
102
}
330
3B
100
AcDbMaterial
  1
ByBlock
 72
     1
 94
      127
  0
MATERIAL
  5
3C
102
{ACAD_REACTORS
330
3B
102
}
330
3B
100
AcDbMaterial
  1
ByLayer
 72
     1
 94
      127
  0
MATERIAL
  5
3E
102
{ACAD_REACTORS
330
3B
102
}
330
3B
100
AcDbMaterial
  1
Global
 72
     1
 94
      127
  0
MLINESTYLE
  5
18
102
{ACAD_REACTORS
330
17
102
}
330
17
100
AcDbMlineStyle
  2
Standard
 70
     0
  3

 62
   256
 51
90.0
 52
90.0
 71
     2
 49
0.5
 62
   256
  6
BYLAYER
 49
-0.5
 62
   256
  6
BYLAYER
  0
ACDBPLACEHOLDER
  5
F
102
{ACAD_REACTORS
330
E
102
}
330
E
  0
VISUALSTYLE
  5
2F
102
{ACAD_REACTORS
330
2A
102
}
330
2A
100
AcDbVisualStyle
  2
2dWireframe
 70
     4
177
     2
291
     0
 71
     0
176
     1
 72
     2
176
     1
 73
     0
176
     1
 90
        0
176
     1
 40
-0.6
176
     1
 41
-30.0
176
     1
 62
     5
 63
     7
421
 16777215
176
     1
 74
     1
176
     1
 91
        4
176
     1
 64
     7
176
     1
 65
   257
176
     1
 75
     1
176
     1
175
     1
176
     1
 42
1.0
176
     1
 92
        0
176
     1
 66
   257
176
     1
 43
1.0
176
     1
 76
     1
176
     1
 77
     6
176
     1
 78
     2
176
     1
 67
     7
176
     1
 79
     5
176
     1
170
     0
176
     1
171
     0
176
     1
290
     0
176
     1
 93
        1
176
     1
 44
0.0
176
     1
173
     0
176
     1
  0
VISUALSTYLE
  5
31
102
{ACAD_REACTORS
330
2A
102
}
330
2A
100
AcDbVisualStyle
  2
3D Hidden
 70
     6
177
     2
291
     0
 71
     1
176
     1
 72
     2
176
     1
 73
     2
176
     1
 90
        0
176
     1
 40
-0.6
176
     1
 41
-30.0
176
     1
 62
     5
 63
     7
421
 16777215
176
     1
 74
     2
176
     1
 91
        2
176
     1
 64
     7
176
     1
 65
   257
176
     1
 75
     2
176
     1
175
     1
176
     1
 42
40.0
176
     1
 92
        0
176
     1
 66
   257
176
     1
 43
1.0
176
     1
 76
     1
176
     1
 77
     6
176
     1
 78
     2
176
     1
 67
     7
176
     1
 79
     3
176
     1
170
     0
176
     1
171
     0
176
     1
290
     0
176
     1
 93
        1
176
     1
 44
0.0
176
     1
173
     0
176
     1
  0
VISUALSTYLE
  5
30
102
{ACAD_REACTORS
330
2A
102
}
330
2A
100
AcDbVisualStyle
  2
3dWireframe
 70
     5
177
     2
291
     0
 71
     0
176
     1
 72
     2
176
     1
 73
     0
176
     1
 90
        0
176
     1
 40
-0.6
176
     1
 41
-30.0
176
     1
 62
     5
 63
     7
421
 16777215
176
     1
 74
     1
176
     1
 91
        4
176
     1
 64
     7
176
     1
 65
   257
176
     1
 75
     1
176
     1
175
     1
176
     1
 42
1.0
176
     1
 92
        0
176
     1
 66
   257
176
     1
 43
1.0
176
     1
 76
     1
176
     1
 77
     6
176
     1
 78
     2
176
     1
 67
     7
176
     1
 79
     5
176
     1
170
     0
176
     1
171
     0
176
     1
290
     0
176
     1
 93
        1
176
     1
 44
0.0
176
     1
173
     0
176
     1
  0
VISUALSTYLE
  5
32
102
{ACAD_REACTORS
330
2A
102
}
330
2A
100
AcDbVisualStyle
  2
Basic
 70
     7
177
     2
291
     1
 71
     1
176
     1
 72
     0
176
     1
 73
     1
176
     1
 90
        0
176
     1
 40
-0.6
176
     1
 41
-30.0
176
     1
 62
     5
 63
     7
421
 16777215
176
     1
 74
     0
176
     1
 91
        4
176
     1
 64
     7
176
     1
 65
   257
176
     1
 75
     1
176
     1
175
     1
176
     1
 42
1.0
176
     1
 92
        8
176
     1
 66
     7
176
     1
 43
1.0
176
     1
 76
     1
176
     1
 77
     6
176
     1
 78
     2
176
     1
 67
     7
176
     1
 79
     5
176
     1
170
     0
176
     1
171
     0
176
     1
290
     0
176
     1
 93
        1
176
     1
 44
0.0
176
     1
173
     0
176
     1
  0
VISUALSTYLE
  5
36
102
{ACAD_REACTORS
330
2A
102
}
330
2A
100
AcDbVisualStyle
  2
Brighten
 70
    12
177
     2
291
     1
 71
     2
176
     1
 72
     2
176
     1
 73
     0
176
     1
 90
        0
176
     1
 40
-0.6
176
     1
 41
-30.0
176
     1
 62
     5
 63
     7
421
 16777215
176
     1
 74
     1
176
     1
 91
        4
176
     1
 64
     7
176
     1
 65
   257
176
     1
 75
     1
176
     1
175
     1
176
     1
 42
1.0
176
     1
 92
        8
176
     1
 66
     7
176
     1
 43
1.0
176
     1
 76
     1
176
     1
 77
     6
176
     1
 78
     2
176
     1
 67
     7
176
     1
 79
     5
176
     1
170
     0
176
     1
171
     0
176
     1
290
     0
176
     1
 93
        1
176
     1
 44
50.0
176
     1
173
     0
176
     1
  0
VISUALSTYLE
  5
3A
102
{ACAD_REACTORS
330
2A
102
}
330
2A
100
AcDbVisualStyle
  2
ColorChange
 70
    16
177
     2
291
     1
 71
     2
176
     1
 72
     2
176
     1
 73
     3
176
     1
 90
        0
176
     1
 40
-0.6
176
     1
 41
-30.0
176
     1
 62
     5
 63
     8
421
  8421504
176
     1
 74
     1
176
     1
 91
        4
176
     1
 64
     7
176
     1
 65
   257
176
     1
 75
     1
176
     1
175
     1
176
     1
 42
1.0
176
     1
 92
        8
176
     1
 66
     8
424
  8421504
176
     1
 43
1.0
176
     1
 76
     1
176
     1
 77
     6
176
     1
 78
     2
176
     1
 67
     7
176
     1
 79
     5
176
     1
170
     0
176
     1
171
     0
176
     1
290
     0
176
     1
 93
        1
176
     1
 44
0.0
176
     1
173
     0
176
     1
  0
VISUALSTYLE
  5
34
102
{ACAD_REACTORS
330
2A
102
}
330
2A
100
AcDbVisualStyle
  2
Conceptual
 70
     9
177
     2
291
     0
 71
     3
176
     1
 72
     2
176
     1
 73
     0
176
     1
 90
        0
176
     1
 40
-0.6
176
     1
 41
-30.0
176
     1
 62
     5
 63
     7
421
 16777215
176
     1
 74
     2
176
     1
 91
        2
176
     1
 64
     7
176
     1
 65
   257
176
     1
 75
     1
176
     1
175
     1
176
     1
 42
40.0
176
     1
 92
        8
176
     1
 66
     7
176
     1
 43
1.0
176
     1
 76
     1
176
     1
 77
     6
176
     1
 78
     2
176
     1
 67
     7
176
     1
 79
     3
176
     1
170
     0
176
     1
171
     0
176
     1
290
     0
176
     1
 93
        1
176
     1
 44
0.0
176
     1
173
     0
176
     1
  0
VISUALSTYLE
  5
35
102
{ACAD_REACTORS
330
2A
102
}
330
2A
100
AcDbVisualStyle
  2
Dim
 70
    11
177
     2
291
     1
 71
     2
176
     1
 72
     2
176
     1
 73
     0
176
     1
 90
        0
176
     1
 40
-0.6
176
     1
 41
-30.0
176
     1
 62
     5
 63
     7
421
 16777215
176
     1
 74
     1
176
     1
 91
        4
176
     1
 64
     7
176
     1
 65
   257
176
     1
 75
     1
176
     1
175
     1
176
     1
 42
1.0
176
     1
 92
        8
176
     1
 66
     7
176
     1
 43
1.0
176
     1
 76
     1
176
     1
 77
     6
176
     1
 78
     2
176
     1
 67
     7
176
     1
 79
     5
176
     1
170
     0
176
     1
171
     0
176
     1
290
     0
176
     1
 93
        1
176
     1
 44
-50.0
176
     1
173
     0
176
     1
  0
VISUALSTYLE
  5
39
102
{ACAD_REACTORS
330
2A
102
}
330
2A
100
AcDbVisualStyle
  2
Facepattern
 70
    15
177
     2
291
     1
 71
     2
176
     1
 72
     2
176
     1
 73
     0
176
     1
 90
        0
176
     1
 40
-0.6
176
     1
 41
-30.0
176
     1
 62
     5
 63
     7
421
 16777215
176
     1
 74
     1
176
     1
 91
        4
176
     1
 64
     7
176
     1
 65
   257
176
     1
 75
     1
176
     1
175
     1
176
     1
 42
1.0
176
     1
 92
        8
176
     1
 66
     7
176
     1
 43
1.0
176
     1
 76
     1
176
     1
 77
     6
176
     1
 78
     2
176
     1
 67
     7
176
     1
 79
     5
176
     1
170
     0
176
     1
171
     0
176
     1
290
     0
176
     1
 93
        1
176
     1
 44
0.0
176
     1
173
     0
176
     1
  0
VISUALSTYLE
  5
2B
102
{ACAD_REACTORS
330
2A
102
}
330
2A
100
AcDbVisualStyle
  2
Flat
 70
     0
177
     2
291
     1
 71
     2
176
     1
 72
     1
176
     1
 73
     1
176
     1
 90
        2
176
     1
 40
-0.6
176
     1
 41
30.0
176
     1
 62
     5
 63
     7
421
 16777215
176
     1
 74
     0
176
     1
 91
        4
176
     1
 64
     7
176
     1
 65
   257
176
     1
 75
     1
176
     1
175
     1
176
     1
 42
1.0
176
     1
 92
        8
176
     1
 66
     7
176
     1
 43
1.0
176
     1
 76
     1
176
     1
 77
     6
176
     1
 78
     2
176
     1
 67
     7
176
     1
 79
     5
176
     1
170
     0
176
     1
171
     0
176
     1
290
     0
176
     1
 93
       13
176
     1
 44
0.0
176
     1
173
     0
176
     1
  0
VISUALSTYLE
  5
2C
102
{ACAD_REACTORS
330
2A
102
}
330
2A
100
AcDbVisualStyle
  2
FlatWithEdges
 70
     1
177
     2
291
     1
 71
     2
176
     1
 72
     1
176
     1
 73
     1
176
     1
 90
        2
176
     1
 40
-0.6
176
     1
 41
30.0
176
     1
 62
     5
 63
     7
421
 16777215
176
     1
 74
     1
176
     1
 91
        4
176
     1
 64
     7
176
     1
 65
   257
176
     1
 75
     1
176
     1
175
     1
176
     1
 42
1.0
176
     1
 92
        0
176
     1
 66
   257
176
     1
 43
1.0
176
     1
 76
     1
176
     1
 77
     6
176
     1
 78
     2
176
     1
 67
     7
176
     1
 79
     5
176
     1
170
     0
176
     1
171
     0
176
     1
290
     0
176
     1
 93
       13
176
     1
 44
0.0
176
     1
173
     0
176
     1
  0
VISUALSTYLE
  5
2D
102
{ACAD_REACTORS
330
2A
102
}
330
2A
100
AcDbVisualStyle
  2
Gouraud
 70
     2
177
     2
291
     1
 71
     2
176
     1
 72
     2
176
     1
 73
     1
176
     1
 90
        2
176
     1
 40
-0.6
176
     1
 41
30.0
176
     1
 62
     5
 63
     7
421
 16777215
176
     1
 74
     0
176
     1
 91
        4
176
     1
 64
     7
176
     1
 65
   257
176
     1
 75
     1
176
     1
175
     1
176
     1
 42
1.0
176
     1
 92
        0
176
     1
 66
     7
176
     1
 43
1.0
176
     1
 76
     1
176
     1
 77
     6
176
     1
 78
     2
176
     1
 67
     7
176
     1
 79
     5
176
     1
170
     0
176
     1
171
     0
176
     1
290
     0
176
     1
 93
       13
176
     1
 44
0.0
176
     1
173
     0
176
     1
  0
VISUALSTYLE
  5
2E
102
{ACAD_REACTORS
330
2A
102
}
330
2A
100
AcDbVisualStyle
  2
GouraudWithEdges
 70
     3
177
     2
291
     1
 71
     2
176
     1
 72
     2
176
     1
 73
     1
176
     1
 90
        2
176
     1
 40
-0.6
176
     1
 41
30.0
176
     1
 62
     5
 63
     7
421
 16777215
176
     1
 74
     1
176
     1
 91
        4
176
     1
 64
     7
176
     1
 65
   257
176
     1
 75
     1
176
     1
175
     1
176
     1
 42
1.0
176
     1
 92
        0
176
     1
 66
   257
176
     1
 43
1.0
176
     1
 76
     1
176
     1
 77
     6
176
     1
 78
     2
176
     1
 67
     7
176
     1
 79
     5
176
     1
170
     0
176
     1
171
     0
176
     1
290
     0
176
     1
 93
       13
176
     1
 44
0.0
176
     1
173
     0
176
     1
  0
VISUALSTYLE
  5
38
102
{ACAD_REACTORS
330
2A
102
}
330
2A
100
AcDbVisualStyle
  2
Linepattern
 70
    14
177
     2
291
     1
 71
     2
176
     1
 72
     2
176
     1
 73
     0
176
     1
 90
        0
176
     1
 40
-0.6
176
     1
 41
-30.0
176
     1
 62
     5
 63
     7
421
 16777215
176
     1
 74
     1
176
     1
 91
        4
176
     1
 64
     7
176
     1
 65
   257
176
     1
 75
     7
176
     1
175
     7
176
     1
 42
1.0
176
     1
 92
        8
176
     1
 66
     7
176
     1
 43
1.0
176
     1
 76
     1
176
     1
 77
     6
176
     1
 78
     2
176
     1
 67
     7
176
     1
 79
     5
176
     1
170
     0
176
     1
171
     0
176
     1
290
     0
176
     1
 93
        1
176
     1
 44
0.0
176
     1
173
     0
176
     1
  0
VISUALSTYLE
  5
33
102
{ACAD_REACTORS
330
2A
102
}
330
2A
100
AcDbVisualStyle
  2
Realistic
 70
     8
177
     2
291
     0
 71
     2
176
     1
 72
     2
176
     1
 73
     0
176
     1
 90
        0
176
     1
 40
-0.6
176
     1
 41
-30.0
176
     1
 62
     5
 63
     7
421
 16777215
176
     1
 74
     1
176
     1
 91
        0
176
     1
 64
     7
176
     1
 65
   257
176
     1
 75
     1
176
     1
175
     1
176
     1
 42
1.0
176
     1
 92
        8
176
     1
 66
     8
424
  7895160
176
     1
 43
1.0
176
     1
 76
     1
176
     1
 77
     6
176
     1
 78
     2
176
     1
 67
     7
176
     1
 79
     5
176
     1
170
     0
176
     1
171
     0
176
     1
290
     0
176
     1
 93
       13
176
     1
 44
0.0
176
     1
173
     0
176
     1
  0
VISUALSTYLE
  5
37
102
{ACAD_REACTORS
330
2A
102
}
330
2A
100
AcDbVisualStyle
  2
Thicken
 70
    13
177
     2
291
     1
 71
     2
176
     1
 72
     2
176
     1
 73
     0
176
     1
 90
        0
176
     1
 40
-0.6
176
     1
 41
-30.0
176
     1
 62
     5
 63
     7
421
 16777215
176
     1
 74
     1
176
     1
 91
        4
176
     1
 64
     7
176
     1
 65
   257
176
     1
 75
     1
176
     1
175
     1
176
     1
 42
1.0
176
     1
 92
       12
176
     1
 66
     7
176
     1
 43
1.0
176
     1
 76
     1
176
     1
 77
     6
176
     1
 78
     2
176
     1
 67
     7
176
     1
 79
     5
176
     1
170
     0
176
     1
171
     0
176
     1
290
     0
176
     1
 93
        1
176
     1
 44
0.0
176
     1
173
     0
176
     1
  0
ENDSEC
  0
EOF
