  0
SECTION
  2
HEADER
  9
$ACADVER
  1
AC1024
  9
$ACADMAINTVER
 70
     6
  9
$DWGCODEPAGE
  3
ANSI_932
  9
$INSBASE
 10
0.0
 20
0.0
 30
0.0
  9
$EXTMIN
 10
-4455.0
 20
-3150.0
 30
0.0
  9
$EXTMAX
 10
4455.0
 20
3150.0
 30
0.0
  9
$LIMMIN
 10
-4455.0
 20
-3150.0
  9
$LIMMAX
 10
4455.0
 20
3150.0
  9
$ORTHOMODE
 70
     0
  9
$REGENMODE
 70
     1
  9
$FILLMODE
 70
     1
  9
$QTEXTMODE
 70
     0
  9
$MIRRTEXT
 70
     1
  9
$LTSCALE
 40
30.0
  9
$ATTMODE
 70
     1
  9
$TEXTSIZE
 40
2.5
  9
$TRACEWID
 40
1.0
  9
$TEXTSTYLE
  7
Standard
  9
$CLAYER
  8
0
  9
$CELTYPE
  6
ByLayer
  9
$CECOLOR
 62
   256
  9
$CELTSCALE
 40
1.0
  9
$DISPSILH
 70
     0
  9
$DIMSCALE
 40
1.0
  9
$DIMASZ
 40
2.5
  9
$DIMEXO
 40
0.625
  9
$DIMDLI
 40
3.75
  9
$DIMRND
 40
0.0
  9
$DIMDLE
 40
0.0
  9
$DIMEXE
 40
1.25
  9
$DIMTP
 40
0.0
  9
$DIMTM
 40
0.0
  9
$DIMTXT
 40
2.5
  9
$DIMCEN
 40
2.5
  9
$DIMTSZ
 40
0.0
  9
$DIMTOL
 70
     0
  9
$DIMLIM
 70
     0
  9
$DIMTIH
 70
     0
  9
$DIMTOH
 70
     0
  9
$DIMSE1
 70
     0
  9
$DIMSE2
 70
     0
  9
$DIMTAD
 70
     1
  9
$DIMZIN
 70
     8
  9
$DIMBLK
  1

  9
$DIMASO
 70
     1
  9
$DIMSHO
 70
     1
  9
$DIMPOST
  1

  9
$DIMAPOST
  1

  9
$DIMALT
 70
     0
  9
$DIMALTD
 70
     3
  9
$DIMALTF
 40
0.03937007874016
  9
$DIMLFAC
 40
1.0
  9
$DIMTOFL
 70
     1
  9
$DIMTVP
 40
0.0
  9
$DIMTIX
 70
     0
  9
$DIMSOXD
 70
     0
  9
$DIMSAH
 70
     0
  9
$DIMBLK1
  1

  9
$DIMBLK2
  1

  9
$DIMSTYLE
  2
ISO-25
  9
$DIMCLRD
 70
     0
  9
$DIMCLRE
 70
     0
  9
$DIMCLRT
 70
     0
  9
$DIMTFAC
 40
1.0
  9
$DIMGAP
 40
0.625
  9
$DIMJUST
 70
     0
  9
$DIMSD1
 70
     0
  9
$DIMSD2
 70
     0
  9
$DIMTOLJ
 70
     0
  9
$DIMTZIN
 70
     8
  9
$DIMALTZ
 70
     0
  9
$DIMALTTZ
 70
     0
  9
$DIMUPT
 70
     0
  9
$DIMDEC
 70
     2
  9
$DIMTDEC
 70
     2
  9
$DIMALTU
 70
     2
  9
$DIMALTTD
 70
     3
  9
$DIMTXSTY
  7
Standard
  9
$DIMAUNIT
 70
     0
  9
$DIMADEC
 70
     0
  9
$DIMALTRND
 40
0.0
  9
$DIMAZIN
 70
     0
  9
$DIMDSEP
 70
    44
  9
$DIMATFIT
 70
     3
  9
$DIMFRAC
 70
     0
  9
$DIMLDRBLK
  1

  9
$DIMLUNIT
 70
     2
  9
$DIMLWD
 70
    -2
  9
$DIMLWE
 70
    -2
  9
$DIMTMOVE
 70
     0
  9
$DIMFXL
 40
1.0
  9
$DIMFXLON
 70
     0
  9
$DIMJOGANG
 40
0.7853981633974483
  9
$DIMTFILL
 70
     0
  9
$DIMTFILLCLR
 70
     0
  9
$DIMARCSYM
 70
     0
  9
$DIMLTYPE
  6

  9
$DIMLTEX1
  6

  9
$DIMLTEX2
  6

  9
$DIMTXTDIRECTION
 70
     0
  9
$LUNITS
 70
     2
  9
$LUPREC
 70
     4
  9
$SKETCHINC
 40
1.0
  9
$FILLETRAD
 40
10.0
  9
$AUNITS
 70
     0
  9
$AUPREC
 70
     0
  9
$MENU
  1
.
  9
$ELEVATION
 40
0.0
  9
$PELEVATION
 40
0.0
  9
$THICKNESS
 40
0.0
  9
$LIMCHECK
 70
     0
  9
$CHAMFERA
 40
10.0
  9
$CHAMFERB
 40
10.0
  9
$CHAMFERC
 40
20.0
  9
$CHAMFERD
 40
0.0
  9
$SKPOLY
 70
     0
  9
$TDCREATE
 40
2459411.614083021
  9
$TDUCREATE
 40
2459411.239083021
  9
$TDUPDATE
 40
2459411.614083033
  9
$TDUUPDATE
 40
2459411.239083033
  9
$TDINDWG
 40
0.0000000116
  9
$TDUSRTIMER
 40
0.0000000116
  9
$USRTIMER
 70
     1
  9
$ANGBASE
 50
0.0
  9
$ANGDIR
 70
     0
  9
$PDMODE
 70
     0
  9
$PDSIZE
 40
0.0
  9
$PLINEWID
 40
0.0
  9
$SPLFRAME
 70
     0
  9
$SPLINETYPE
 70
     6
  9
$SPLINESEGS
 70
     8
  9
$HANDSEED
  5
207
  9
$SURFTAB1
 70
     6
  9
$SURFTAB2
 70
     6
  9
$SURFTYPE
 70
     6
  9
$SURFU
 70
     6
  9
$SURFV
 70
     6
  9
$UCSBASE
  2

  9
$UCSNAME
  2

  9
$UCSORG
 10
0.0
 20
0.0
 30
0.0
  9
$UCSXDIR
 10
1.0
 20
0.0
 30
0.0
  9
$UCSYDIR
 10
0.0
 20
1.0
 30
0.0
  9
$UCSORTHOREF
  2

  9
$UCSORTHOVIEW
 70
     0
  9
$UCSORGTOP
 10
0.0
 20
0.0
 30
0.0
  9
$UCSORGBOTTOM
 10
0.0
 20
0.0
 30
0.0
  9
$UCSORGLEFT
 10
0.0
 20
0.0
 30
0.0
  9
$UCSORGRIGHT
 10
0.0
 20
0.0
 30
0.0
  9
$UCSORGFRONT
 10
0.0
 20
0.0
 30
0.0
  9
$UCSORGBACK
 10
0.0
 20
0.0
 30
0.0
  9
$PUCSBASE
  2

  9
$PUCSNAME
  2

  9
$PUCSORG
 10
0.0
 20
0.0
 30
0.0
  9
$PUCSXDIR
 10
1.0
 20
0.0
 30
0.0
  9
$PUCSYDIR
 10
0.0
 20
1.0
 30
0.0
  9
$PUCSORTHOREF
  2

  9
$PUCSORTHOVIEW
 70
     0
  9
$PUCSORGTOP
 10
0.0
 20
0.0
 30
0.0
  9
$PUCSORGBOTTOM
 10
0.0
 20
0.0
 30
0.0
  9
$PUCSORGLEFT
 10
0.0
 20
0.0
 30
0.0
  9
$PUCSORGRIGHT
 10
0.0
 20
0.0
 30
0.0
  9
$PUCSORGFRONT
 10
0.0
 20
0.0
 30
0.0
  9
$PUCSORGBACK
 10
0.0
 20
0.0
 30
0.0
  9
$USERI1
 70
     0
  9
$USERI2
 70
     0
  9
$USERI3
 70
     0
  9
$USERI4
 70
     0
  9
$USERI5
 70
     0
  9
$USERR1
 40
0.0
  9
$USERR2
 40
0.0
  9
$USERR3
 40
0.0
  9
$USERR4
 40
0.0
  9
$USERR5
 40
0.0
  9
$WORLDVIEW
 70
     1
  9
$SHADEDGE
 70
     3
  9
$SHADEDIF
 70
    70
  9
$TILEMODE
 70
     1
  9
$MAXACTVP
 70
    64
  9
$PINSBASE
 10
0.0
 20
0.0
 30
0.0
  9
$PLIMCHECK
 70
     0
  9
$PEXTMIN
 10
1.000000000000000E+20
 20
1.000000000000000E+20
 30
1.000000000000000E+20
  9
$PEXTMAX
 10
-1.000000000000000E+20
 20
-1.000000000000000E+20
 30
-1.000000000000000E+20
  9
$PLIMMIN
 10
0.0
 20
0.0
  9
$PLIMMAX
 10
420.0
 20
297.0
  9
$UNITMODE
 70
     0
  9
$VISRETAIN
 70
     1
  9
$PLINEGEN
 70
     0
  9
$PSLTSCALE
 70
     1
  9
$TREEDEPTH
 70
  3020
  9
$CMLSTYLE
  2
Standard
  9
$CMLJUST
 70
     0
  9
$CMLSCALE
 40
20.0
  9
$PROXYGRAPHICS
 70
     1
  9
$MEASUREMENT
 70
     1
  9
$CELWEIGHT
370
    -1
  9
$ENDCAPS
280
     0
  9
$JOINSTYLE
280
     0
  9
$LWDISPLAY
290
     0
  9
$INSUNITS
 70
     4
  9
$HYPERLINKBASE
  1

  9
$STYLESHEET
  1

  9
$XEDIT
290
     1
  9
$CEPSNTYPE
380
     0
  9
$PSTYLEMODE
290
     1
  9
$FINGERPRINTGUID
  2
{94C90554-157F-41A8-8471-6880A54CD934}
  9
$VERSIONGUID
  2
{FAEB1C32-E019-11D5-929B-00C0DF256EC4}
  9
$EXTNAMES
290
     1
  9
$PSVPSCALE
 40
0.0
  9
$OLESTARTUP
290
     0
  9
$SORTENTS
280
   127
  9
$INDEXCTL
280
     0
  9
$HIDETEXT
280
     1
  9
$XCLIPFRAME
280
     2
  9
$HALOGAP
280
     0
  9
$OBSCOLOR
 70
   257
  9
$OBSLTYPE
280
     0
  9
$INTERSECTIONDISPLAY
280
     0
  9
$INTERSECTIONCOLOR
 70
   257
  9
$DIMASSOC
280
     2
  9
$PROJECTNAME
  1

  9
$CAMERADISPLAY
290
     0
  9
$LENSLENGTH
 40
50.0
  9
$CAMERAHEIGHT
 40
0.0
  9
$STEPSPERSEC
 40
2.0
  9
$STEPSIZE
 40
6.0
  9
$3DDWFPREC
 40
2.0
  9
$PSOLWIDTH
 40
5.0
  9
$PSOLHEIGHT
 40
80.0
  9
$LOFTANG1
 40
1.570796326794897
  9
$LOFTANG2
 40
1.570796326794897
  9
$LOFTMAG1
 40
0.0
  9
$LOFTMAG2
 40
0.0
  9
$LOFTPARAM
 70
     7
  9
$LOFTNORMALS
280
     1
  9
$LATITUDE
 40
37.795
  9
$LONGITUDE
 40
-122.394
  9
$NORTHDIRECTION
 40
0.0
  9
$TIMEZONE
 70
 -8000
  9
$LIGHTGLYPHDISPLAY
280
     1
  9
$TILEMODELIGHTSYNCH
280
     1
  9
$SOLIDHIST
280
     1
  9
$SHOWHIST
280
     1
  9
$DWFFRAME
280
     2
  9
$DGNFRAME
280
     2
  9
$REALWORLDSCALE
290
     1
  9
$INTERFERECOLOR
 62
   256
  9
$CSHADOW
280
     0
  9
$SHADOWPLANELOCATION
 40
0.0
  0
ENDSEC
  0
SECTION
  2
CLASSES
  0
CLASS
  1
ACDBDICTIONARYWDFLT
  2
AcDbDictionaryWithDefault
  3
ObjectDBX Classes
 90
        0
 91
        4
280
     0
281
     0
  0
CLASS
  1
VISUALSTYLE
  2
AcDbVisualStyle
  3
ObjectDBX Classes
 90
     4095
 91
        4
280
     0
281
     0
  0
CLASS
  1
MATERIAL
  2
AcDbMaterial
  3
ObjectDBX Classes
 90
     1153
 91
        4
280
     0
281
     0
  0
ENDSEC
  0
SECTION
  2
TABLES
  0
TABLE
  2
VPORT
  5
8
330
0
100
AcDbSymbolTable
 70
     1
  0
VPORT
  5
29
330
8
100
AcDbSymbolTableRecord
100
AcDbViewportTableRecord
  2
*Active
 70
     0
 10
0.0
 20
0.0
 11
1.0
 21
1.0
 12
0.0
 22
0.0
 13
0.0
 23
0.0
 14
10.0
 24
10.0
 15
10.0
 25
10.0
 16
0.0
 26
0.0
 36
1.0
 17
0.0
 27
0.0
 37
0.0
 40
6930.000000000001
 41
1.414285714285714
 42
50.0
 43
0.0
 44
0.0
 50
0.0
 51
0.0
 71
     0
 72
 10000
 73
     1
 74
     3
 75
     0
 76
     0
 77
     0
 78
     0
281
     0
 65
     1
110
0.0
120
0.0
130
0.0
111
1.0
121
0.0
131
0.0
112
0.0
122
1.0
132
0.0
 79
     0
146
0.0
 60
     3
 61
     5
292
     1
282
     1
141
0.0
142
0.0
 63
   250
  0
ENDTAB
  0
TABLE
  2
LTYPE
  5
5
330
0
100
AcDbSymbolTable
 70
     2
  0
LTYPE
  5
14
330
5
100
AcDbSymbolTableRecord
100
AcDbLinetypeTableRecord
  2
ByBlock
 70
     0
  3

 72
    65
 73
     0
 40
0.0
  0
LTYPE
  5
15
330
5
100
AcDbSymbolTableRecord
100
AcDbLinetypeTableRecord
  2
ByLayer
 70
     0
  3

 72
    65
 73
     0
 40
0.0
  0
LTYPE
  5
16
330
5
100
AcDbSymbolTableRecord
100
AcDbLinetypeTableRecord
  2
Continuous
 70
     0
  3
Solid line
 72
    65
 73
     0
 40
0.0
  0
LTYPE
  5
3F
330
5
100
AcDbSymbolTableRecord
100
AcDbLinetypeTableRecord
  2
JWW_CENTER1
 70
     0
  3
-----  --  ----------  --  -----
 72
    65
 73
     4
 40
6.773333333333333
 49
4.233333333333333
 74
     0
 49
-0.8466666666666667
 74
     0
 49
0.8466666666666667
 74
     0
 49
-0.8466666666666667
 74
     0
  0
ENDTAB
  0
TABLE
  2
LAYER
  5
2
330
0
100
AcDbSymbolTable
 70
     3
  0
LAYER
  5
10
330
2
100
AcDbSymbolTableRecord
100
AcDbLayerTableRecord
  2
0
 70
     0
 62
     7
  6
Continuous
370
    -3
390
F
347
3E
  0
LAYER
  5
40
330
2
100
AcDbSymbolTableRecord
100
AcDbLayerTableRecord
  2
0-1
 70
     0
 62
     7
  6
Continuous
370
    -3
390
F
347
3E
  0
LAYER
  5
41
330
2
100
AcDbSymbolTableRecord
100
AcDbLayerTableRecord
  2
文字
 70
     0
 62
     7
  6
Continuous
370
    -3
390
F
347
3E
  0
ENDTAB
  0
TABLE
  2
STYLE
  5
3
330
0
100
AcDbSymbolTable
 70
     1
  0
STYLE
  5
11
330
3
100
AcDbSymbolTableRecord
100
AcDbTextStyleTableRecord
  2
Standard
 70
     0
 40
0.0
 41
1.0
 50
0.0
 71
     0
 42
2.5
  3
txt
  4

  0
ENDTAB
  0
TABLE
  2
VIEW
  5
6
330
0
100
AcDbSymbolTable
 70
     0
  0
ENDTAB
  0
TABLE
  2
UCS
  5
7
330
0
100
AcDbSymbolTable
 70
     0
  0
ENDTAB
  0
TABLE
  2
APPID
  5
9
330
0
100
AcDbSymbolTable
 70
     1
  0
APPID
  5
12
330
9
100
AcDbSymbolTableRecord
100
AcDbRegAppTableRecord
  2
ACAD
 70
     0
  0
ENDTAB
  0
TABLE
  2
DIMSTYLE
  5
A
330
0
100
AcDbSymbolTable
 70
     1
100
AcDbDimStyleTable
  0
DIMSTYLE
105
27
330
A
100
AcDbSymbolTableRecord
100
AcDbDimStyleTableRecord
  2
ISO-25
 70
     0
 41
2.5
 42
0.625
 43
3.75
 44
1.25
 73
     0
 74
     0
 77
     1
 78
     8
140
2.5
141
2.5
143
0.03937007874016
147
0.625
171
     3
172
     1
178
     0
271
     2
272
     2
274
     3
278
    44
283
     0
284
     8
340
11
  0
ENDTAB
  0
TABLE
  2
BLOCK_RECORD
  5
1
330
0
100
AcDbSymbolTable
 70
     1
  0
BLOCK_RECORD
  5
1F
330
1
100
AcDbSymbolTableRecord
100
AcDbBlockTableRecord
  2
*Model_Space
340
22
 70
     0
280
     1
281
     0
  0
BLOCK_RECORD
  5
1B
330
1
100
AcDbSymbolTableRecord
100
AcDbBlockTableRecord
  2
*Paper_Space
340
1E
 70
     0
280
     1
281
     0
  0
BLOCK_RECORD
  5
23
330
1
100
AcDbSymbolTableRecord
100
AcDbBlockTableRecord
  2
*Paper_Space0
340
26
 70
     0
280
     1
281
     0
  0
ENDTAB
  0
ENDSEC
  0
SECTION
  2
BLOCKS
  0
BLOCK
  5
20
330
1F
100
AcDbEntity
  8
0
100
AcDbBlockBegin
  2
*Model_Space
 70
     0
 10
0.0
 20
0.0
 30
0.0
  3
*Model_Space
  1

  0
ENDBLK
  5
21
330
1F
100
AcDbEntity
  8
0
100
AcDbBlockEnd
  0
BLOCK
  5
1C
330
1B
100
AcDbEntity
 67
     1
  8
0
100
AcDbBlockBegin
  2
*Paper_Space
 70
     0
 10
0.0
 20
0.0
 30
0.0
  3
*Paper_Space
  1

  0
ENDBLK
  5
1D
330
1B
100
AcDbEntity
 67
     1
  8
0
100
AcDbBlockEnd
  0
BLOCK
  5
24
330
23
100
AcDbEntity
  8
0
100
AcDbBlockBegin
  2
*Paper_Space0
 70
     0
 10
0.0
 20
0.0
 30
0.0
  3
*Paper_Space0
  1

  0
ENDBLK
  5
25
330
23
100
AcDbEntity
  8
0
100
AcDbBlockEnd
  0
ENDSEC
  0
SECTION
  2
ENTITIES
  0
LINE
  5
42
330
1F
100
AcDbEntity
  8
0-1
  6
Continuous
 62
    92
370
    13
100
AcDbLine
 10
-2475.540770064898
 20
1383.911059571383
 30
0.0
 11
-1884.540770064897
 21
1383.911059571383
 31
0.0
  0
LINE
  5
43
330
1F
100
AcDbEntity
  8
0-1
  6
Continuous
 62
    92
370
    13
100
AcDbLine
 10
-2475.540770064898
 20
-1860.58894042862
 30
0.0
 11
-1884.540770064897
 21
-1860.58894042862
 31
0.0
  0
LINE
  5
44
330
1F
100
AcDbEntity
  8
0-1
  6
Continuous
 62
    92
370
    13
100
AcDbLine
 10
-1884.540770064897
 20
1383.911059571383
 30
0.0
 11
-1884.540770064897
 21
-1860.58894042862
 31
0.0
  0
LINE
  5
45
330
1F
100
AcDbEntity
  8
0-1
  6
Continuous
 62
    92
370
    13
100
AcDbLine
 10
-2475.540770064898
 20
1383.911059571383
 30
0.0
 11
-2475.540770064898
 21
-1860.58894042862
 31
0.0
  0
LINE
  5
46
330
1F
100
AcDbEntity
  8
0-1
  6
Continuous
 62
    92
370
    13
100
AcDbLine
 10
-1988.040770344136
 20
-1716.588940428622
 30
0.0
 11
-1988.040770344136
 21
1239.911059571379
 31
0.0
  0
LINE
  5
47
330
1F
100
AcDbEntity
  8
0-1
  6
Continuous
 62
    92
370
    13
100
AcDbLine
 10
-1988.040770344136
 20
1239.911059571379
 30
0.0
 11
-2372.040770344135
 21
1239.911059571379
 31
0.0
  0
LINE
  5
48
330
1F
100
AcDbEntity
  8
0-1
  6
Continuous
 62
    92
370
    13
100
AcDbLine
 10
-1988.040770344136
 20
1239.911059571379
 30
0.0
 11
-1970.040770344136
 21
1257.911059571379
 31
0.0
  0
LINE
  5
49
330
1F
100
AcDbEntity
  8
0-1
  6
Continuous
 62
    92
370
    13
100
AcDbLine
 10
-1970.040770344136
 20
1257.911059571379
 30
0.0
 11
-2390.040770344136
 21
1257.911059571379
 31
0.0
  0
LINE
  5
4A
330
1F
100
AcDbEntity
  8
0-1
  6
Continuous
 62
    92
370
    13
100
AcDbLine
 10
-2010.540770344136
 20
-1694.088940428622
 30
0.0
 11
-2349.540770344135
 21
-1694.088940428622
 31
0.0
  0
LINE
  5
4B
330
1F
100
AcDbEntity
  8
0-1
  6
Continuous
 62
    92
370
    13
100
AcDbLine
 10
-1988.040770344136
 20
-1716.588940428622
 30
0.0
 11
-2372.040770344135
 21
-1716.588940428622
 31
0.0
  0
LINE
  5
4C
330
1F
100
AcDbEntity
  8
0-1
  6
Continuous
 62
    92
370
    13
100
AcDbLine
 10
-1970.040770344136
 20
-1734.588940428624
 30
0.0
 11
-2390.040770344136
 21
-1734.588940428624
 31
0.0
  0
LINE
  5
4D
330
1F
100
AcDbEntity
  8
0-1
  6
Continuous
 62
    92
370
    13
100
AcDbLine
 10
-2010.540770344136
 20
1217.411059571379
 30
0.0
 11
-2349.540770344135
 21
1217.411059571379
 31
0.0
  0
LINE
  5
4E
330
1F
100
AcDbEntity
  8
0-1
  6
Continuous
 62
    92
370
    13
100
AcDbLine
 10
-1970.040770344136
 20
-1860.588940428622
 30
0.0
 11
-1970.040770344136
 21
1383.911059571379
 31
0.0
  0
LINE
  5
4F
330
1F
100
AcDbEntity
  8
0-1
  6
Continuous
 62
    92
370
    13
100
AcDbLine
 10
-2010.540770344136
 20
-1694.088940428622
 30
0.0
 11
-2010.540770344136
 21
1217.411059571379
 31
0.0
  0
LINE
  5
50
330
1F
100
AcDbEntity
  8
0-1
  6
Continuous
 62
    92
370
    13
100
AcDbLine
 10
-2010.540770344136
 20
1217.411059571379
 30
0.0
 11
-1996.095770344135
 21
1231.36105957138
 31
0.0
  0
LINE
  5
51
330
1F
100
AcDbEntity
  8
0-1
  6
Continuous
 62
    92
370
    13
100
AcDbLine
 10
-2010.540770344136
 20
-1694.088940428622
 30
0.0
 11
-1996.095770344135
 21
-1708.533940428623
 31
0.0
  0
LINE
  5
52
330
1F
100
AcDbEntity
  8
0-1
  6
Continuous
 62
    92
370
    13
100
AcDbLine
 10
-1988.040770344135
 20
-1716.588940428624
 30
0.0
 11
-1970.040770344136
 21
-1734.588940428624
 31
0.0
  0
LINE
  5
53
330
1F
100
AcDbEntity
  8
0-1
  6
Continuous
 62
    92
370
    13
100
AcDbLine
 10
-2390.040770344136
 20
-1860.588940428622
 30
0.0
 11
-2390.040770344136
 21
1383.911059571379
 31
0.0
  0
LINE
  5
54
330
1F
100
AcDbEntity
  8
0-1
  6
Continuous
 62
    92
370
    13
100
AcDbLine
 10
-2372.040770344135
 20
-1716.588940428622
 30
0.0
 11
-2372.040770344135
 21
1239.911059571379
 31
0.0
  0
LINE
  5
55
330
1F
100
AcDbEntity
  8
0-1
  6
Continuous
 62
    92
370
    13
100
AcDbLine
 10
-2349.540770344135
 20
-1694.088940428622
 30
0.0
 11
-2349.540770344135
 21
1217.411059571379
 31
0.0
  0
LINE
  5
56
330
1F
100
AcDbEntity
  8
0-1
  6
Continuous
 62
    92
370
    13
100
AcDbLine
 10
-2363.985770344134
 20
1231.36105957138
 30
0.0
 11
-2349.540770344135
 21
1217.411059571379
 31
0.0
  0
LINE
  5
57
330
1F
100
AcDbEntity
  8
0-1
  6
Continuous
 62
    92
370
    13
100
AcDbLine
 10
-2390.040770344136
 20
1257.911059571379
 30
0.0
 11
-2372.040770344135
 21
1239.911059571379
 31
0.0
  0
LINE
  5
58
330
1F
100
AcDbEntity
  8
0-1
  6
Continuous
 62
    92
370
    13
100
AcDbLine
 10
-2363.985770344134
 20
-1708.533940428623
 30
0.0
 11
-2349.540770344135
 21
-1694.088940428622
 31
0.0
  0
LINE
  5
59
330
1F
100
AcDbEntity
  8
0-1
  6
Continuous
 62
    92
370
    13
100
AcDbLine
 10
-2372.040770344135
 20
-1716.588940428624
 30
0.0
 11
-2390.040770344136
 21
-1734.588940428624
 31
0.0
  0
LINE
  5
5A
330
1F
100
AcDbEntity
  8
0-1
  6
JWW_CENTER1
 62
     7
370
     9
100
AcDbLine
 10
-1884.540770344133
 20
1383.911059571381
 30
0.0
 11
-2475.540770344135
 21
-238.3389404286215
 31
0.0
  0
LINE
  5
5B
330
1F
100
AcDbEntity
  8
0-1
  6
JWW_CENTER1
 62
     7
370
     9
100
AcDbLine
 10
-2475.540770344135
 20
-238.3389404286215
 30
0.0
 11
-1884.540770344133
 21
-1860.588940428622
 31
0.0
  0
LWPOLYLINE
  5
5C
330
1F
100
AcDbEntity
  8
0-1
  6
Continuous
 62
     7
370
     9
100
AcDbPolyline
 90
        4
 70
     1
 43
3.0
 10
-2474.040770064898
 20
1613.411059571381
 42
0.4142135623731
 10
-2475.540770064898
 20
1614.911059571381
 42
0.4142135623731
 10
-2477.040770064898
 20
1613.411059571381
 42
0.4142135623731
 10
-2475.540770064898
 20
1611.911059571381
 42
0.4142135623731
  0
LINE
  5
5D
330
1F
100
AcDbEntity
  8
0-1
  6
Continuous
 62
   120
370
     5
100
AcDbLine
 10
-2475.540770064898
 20
1613.411059571381
 30
0.0
 11
-2475.540770064898
 21
1463.411059571381
 31
0.0
  0
LINE
  5
5E
330
1F
100
AcDbEntity
  8
0-1
  6
Continuous
 62
   120
370
     5
100
AcDbLine
 10
-2475.540770064898
 20
1613.411059571381
 30
0.0
 11
-1884.540770064897
 21
1613.411059571381
 31
0.0
  0
LWPOLYLINE
  5
5F
330
1F
100
AcDbEntity
  8
0-1
  6
Continuous
 62
     7
370
     9
100
AcDbPolyline
 90
        4
 70
     1
 43
3.0
 10
-1883.040770064897
 20
1613.411059571381
 42
0.4142135623731
 10
-1884.540770064897
 20
1614.911059571381
 42
0.4142135623731
 10
-1886.040770064897
 20
1613.411059571381
 42
0.4142135623731
 10
-1884.540770064897
 20
1611.911059571381
 42
0.4142135623731
  0
LINE
  5
60
330
1F
100
AcDbEntity
  8
0-1
  6
Continuous
 62
   120
370
     5
100
AcDbLine
 10
-1884.540770064897
 20
1613.411059571381
 30
0.0
 11
-1884.540770064897
 21
1463.411059571381
 31
0.0
  0
MTEXT
  5
61
330
1F
100
AcDbEntity
  8
0-1
  6
Continuous
 62
     7
370
   211
100
AcDbMText
 10
-2382.540770064898
 20
1617.70105957138
 30
0.0
 40
68.58
 41
405.0
 46
0.0
 71
     7
 72
     1
  1
{\fＭＳ ゴシック|b0|i0|c128|p49;ＤＷ＝394}
 73
     1
 44
1.0
  0
MTEXT
  5
62
330
1F
100
AcDbEntity
  8
0-1
  6
Continuous
 62
     7
370
   211
100
AcDbMText
 10
-2718.540770064899
 20
-496.5489404286197
 30
0.0
 40
68.57999999999998
 41
494.9999999999999
 46
0.0
 71
     7
 72
     1
  1
{\fＭＳ ゴシック|b0|i0|c128|p49;ＤＨ＝2,163}
 11
6.123031769111886E-17
 21
1.0
 31
0.0
 73
     1
 44
1.0
  0
LINE
  5
63
330
1F
100
AcDbEntity
  8
0-1
  6
Continuous
 62
   120
370
     5
100
AcDbLine
 10
-2703.540770064899
 20
-1860.58894042862
 30
0.0
 11
-2703.540770064899
 21
-1856.088959892414
 31
0.0
  0
LWPOLYLINE
  5
64
330
1F
100
AcDbEntity
  8
0-1
  6
Continuous
 62
     7
370
     9
100
AcDbPolyline
 90
        4
 70
     1
 43
3.0
 10
-2702.040770064899
 20
-1860.58894042862
 42
0.4142135623731
 10
-2703.540770064899
 20
-1859.088940428621
 42
0.4142135623731
 10
-2705.040770064899
 20
-1860.58894042862
 42
0.4142135623731
 10
-2703.540770064899
 20
-1862.08894042862
 42
0.4142135623731
  0
LINE
  5
65
330
1F
100
AcDbEntity
  8
0-1
  6
Continuous
 62
   120
370
     5
100
AcDbLine
 10
-2703.540770064899
 20
-1860.58894042862
 30
0.0
 11
-2553.540770064899
 21
-1860.58894042862
 31
0.0
  0
LINE
  5
66
330
1F
100
AcDbEntity
  8
0-1
  6
Continuous
 62
   120
370
     5
100
AcDbLine
 10
-2703.540770064899
 20
1379.411059571385
 30
0.0
 11
-2703.540770064899
 21
1383.911059571383
 31
0.0
  0
LWPOLYLINE
  5
67
330
1F
100
AcDbEntity
  8
0-1
  6
Continuous
 62
     7
370
     9
100
AcDbPolyline
 90
        4
 70
     1
 43
3.0
 10
-2702.040770064899
 20
1383.911059571383
 42
0.4142135623731
 10
-2703.540770064899
 20
1385.411059571382
 42
0.4142135623731
 10
-2705.040770064899
 20
1383.911059571383
 42
0.4142135623731
 10
-2703.540770064899
 20
1382.411059571383
 42
0.4142135623731
  0
LINE
  5
68
330
1F
100
AcDbEntity
  8
0-1
  6
Continuous
 62
   120
370
     5
100
AcDbLine
 10
-2703.540770064899
 20
1383.911059571383
 30
0.0
 11
-2553.540770064899
 21
1383.911059571383
 31
0.0
  0
LINE
  5
69
330
1F
100
AcDbEntity
  8
0-1
  6
Continuous
 62
   120
370
     5
100
AcDbLine
 10
-2703.540770064899
 20
-1856.088959892414
 30
0.0
 11
-2703.540770064899
 21
1379.411059571385
 31
0.0
  0
ARC
  5
6A
330
1F
100
AcDbEntity
  8
0-1
  6
Continuous
 62
    92
370
    13
100
AcDbCircle
 10
-1951.290770064894
 20
-347.0889404286189
 30
0.0
 40
1.5
100
AcDbArc
 50
90.0
 51
180.0
  0
LINE
  5
6B
330
1F
100
AcDbEntity
  8
0-1
  6
Continuous
 62
    92
370
    13
100
AcDbLine
 10
-1939.290770064898
 20
-345.5889404286203
 30
0.0
 11
-1951.290770064894
 21
-345.5889404286203
 31
0.0
  0
ARC
  5
6C
330
1F
100
AcDbEntity
  8
0-1
  6
Continuous
 62
    92
370
    13
100
AcDbCircle
 10
-1939.290770064898
 20
-347.0889404286189
 30
0.0
 40
1.5
100
AcDbArc
 50
0.0000000000000127
 51
90.00000000000001
  0
LINE
  5
6D
330
1F
100
AcDbEntity
  8
0-1
  6
Continuous
 62
    92
370
    13
100
AcDbLine
 10
-1937.790770064898
 20
-545.0889404286179
 30
0.0
 11
-1937.790770064898
 21
-347.0889404286189
 31
0.0
  0
ARC
  5
6E
330
1F
100
AcDbEntity
  8
0-1
  6
Continuous
 62
    92
370
    13
100
AcDbCircle
 10
-1939.290770064898
 20
-545.0889404286179
 30
0.0
 40
1.5
100
AcDbArc
 50
270.0
 51
0.0
  0
LINE
  5
6F
330
1F
100
AcDbEntity
  8
0-1
  6
Continuous
 62
    92
370
    13
100
AcDbLine
 10
-1951.290770064894
 20
-546.588940428619
 30
0.0
 11
-1939.290770064898
 21
-546.588940428619
 31
0.0
  0
LINE
  5
70
330
1F
100
AcDbEntity
  8
0-1
  6
Continuous
 62
    92
370
    13
100
AcDbLine
 10
-1952.790770064896
 20
-545.0889404286179
 30
0.0
 11
-1952.790770064896
 21
-347.0889404286189
 31
0.0
  0
ARC
  5
71
330
1F
100
AcDbEntity
  8
0-1
  6
Continuous
 62
    92
370
    13
100
AcDbCircle
 10
-1951.290770064894
 20
-545.0889404286179
 30
0.0
 40
1.5
100
AcDbArc
 50
180.0
 51
270.0
  0
ARC
  5
72
330
1F
100
AcDbEntity
  8
0-1
  6
Continuous
 62
     7
370
     9
100
AcDbCircle
 10
-1952.790770064896
 20
-350.0889404286179
 30
0.0
 40
1.5
100
AcDbArc
 50
90.0
 51
180.0
  0
ARC
  5
73
330
1F
100
AcDbEntity
  8
0-1
  6
Continuous
 62
     7
370
     9
100
AcDbCircle
 10
-1937.790770064898
 20
-350.0889404286179
 30
0.0
 40
1.5
100
AcDbArc
 50
0.0000000000000127
 51
90.00000000000001
  0
LINE
  5
74
330
1F
100
AcDbEntity
  8
0-1
  6
Continuous
 62
     7
370
     9
100
AcDbLine
 10
-1936.290770064896
 20
-377.0889404286189
 30
0.0
 11
-1936.290770064896
 21
-350.0889404286179
 31
0.0
  0
ARC
  5
75
330
1F
100
AcDbEntity
  8
0-1
  6
Continuous
 62
     7
370
     9
100
AcDbCircle
 10
-1937.790770064898
 20
-377.0889404286189
 30
0.0
 40
1.5
100
AcDbArc
 50
270.0
 51
0.0
  0
LINE
  5
76
330
1F
100
AcDbEntity
  8
0-1
  6
Continuous
 62
     7
370
     9
100
AcDbLine
 10
-1954.290770064898
 20
-377.0889404286189
 30
0.0
 11
-1954.290770064898
 21
-350.0889404286179
 31
0.0
  0
ARC
  5
77
330
1F
100
AcDbEntity
  8
0-1
  6
Continuous
 62
     7
370
     9
100
AcDbCircle
 10
-1952.790770064896
 20
-377.0889404286189
 30
0.0
 40
1.5
100
AcDbArc
 50
180.0
 51
270.0
  0
ARC
  5
78
330
1F
100
AcDbEntity
  8
0-1
  6
Continuous
 62
     7
370
     9
100
AcDbCircle
 10
-1952.790770064896
 20
-515.0889404286179
 30
0.0
 40
1.5
100
AcDbArc
 50
90.0
 51
180.0
  0
ARC
  5
79
330
1F
100
AcDbEntity
  8
0-1
  6
Continuous
 62
     7
370
     9
100
AcDbCircle
 10
-1937.790770064898
 20
-515.0889404286179
 30
0.0
 40
1.5
100
AcDbArc
 50
0.0000000000000127
 51
90.00000000000001
  0
LINE
  5
7A
330
1F
100
AcDbEntity
  8
0-1
  6
Continuous
 62
     7
370
     9
100
AcDbLine
 10
-1936.290770064896
 20
-542.0889404286188
 30
0.0
 11
-1936.290770064896
 21
-515.0889404286179
 31
0.0
  0
ARC
  5
7B
330
1F
100
AcDbEntity
  8
0-1
  6
Continuous
 62
     7
370
     9
100
AcDbCircle
 10
-1937.790770064898
 20
-542.0889404286188
 30
0.0
 40
1.5
100
AcDbArc
 50
270.0
 51
0.0
  0
LINE
  5
7C
330
1F
100
AcDbEntity
  8
0-1
  6
Continuous
 62
     7
370
     9
100
AcDbLine
 10
-1954.290770064898
 20
-542.0889404286188
 30
0.0
 11
-1954.290770064898
 21
-515.0889404286179
 31
0.0
  0
ARC
  5
7D
330
1F
100
AcDbEntity
  8
0-1
  6
Continuous
 62
     7
370
     9
100
AcDbCircle
 10
-1952.790770064896
 20
-542.0889404286188
 30
0.0
 40
1.5
100
AcDbArc
 50
180.0
 51
270.0
  0
LINE
  5
7E
330
1F
100
AcDbEntity
  8
0-1
  6
Continuous
 62
    92
370
    13
100
AcDbLine
 10
-1143.540770064894
 20
1383.911059571379
 30
0.0
 11
-1734.540770064895
 21
1383.911059571379
 31
0.0
  0
LINE
  5
7F
330
1F
100
AcDbEntity
  8
0-1
  6
Continuous
 62
    92
370
    13
100
AcDbLine
 10
-1143.540770064894
 20
-1860.588940428624
 30
0.0
 11
-1734.540770064895
 21
-1860.588940428624
 31
0.0
  0
LINE
  5
80
330
1F
100
AcDbEntity
  8
0-1
  6
Continuous
 62
    92
370
    13
100
AcDbLine
 10
-1734.540770064895
 20
1383.911059571379
 30
0.0
 11
-1734.540770064895
 21
-1860.588940428624
 31
0.0
  0
LINE
  5
81
330
1F
100
AcDbEntity
  8
0-1
  6
Continuous
 62
    92
370
    13
100
AcDbLine
 10
-1143.540770064894
 20
1383.911059571379
 30
0.0
 11
-1143.540770064894
 21
-1860.588940428624
 31
0.0
  0
LINE
  5
82
330
1F
100
AcDbEntity
  8
0-1
  6
Continuous
 62
    92
370
    13
100
AcDbLine
 10
-1631.040769785657
 20
-1716.588940428625
 30
0.0
 11
-1631.040769785657
 21
1239.911059571375
 31
0.0
  0
LINE
  5
83
330
1F
100
AcDbEntity
  8
0-1
  6
Continuous
 62
    92
370
    13
100
AcDbLine
 10
-1631.040769785657
 20
1239.911059571375
 30
0.0
 11
-1247.040769785659
 21
1239.911059571375
 31
0.0
  0
LINE
  5
84
330
1F
100
AcDbEntity
  8
0-1
  6
Continuous
 62
    92
370
    13
100
AcDbLine
 10
-1631.040769785657
 20
1239.911059571375
 30
0.0
 11
-1649.040769785658
 21
1257.911059571376
 31
0.0
  0
LINE
  5
85
330
1F
100
AcDbEntity
  8
0-1
  6
Continuous
 62
    92
370
    13
100
AcDbLine
 10
-1649.040769785658
 20
1257.911059571376
 30
0.0
 11
-1229.040769785658
 21
1257.911059571376
 31
0.0
  0
LINE
  5
86
330
1F
100
AcDbEntity
  8
0-1
  6
Continuous
 62
    92
370
    13
100
AcDbLine
 10
-1608.540769785657
 20
-1694.088940428625
 30
0.0
 11
-1269.540769785659
 21
-1694.088940428625
 31
0.0
  0
LINE
  5
87
330
1F
100
AcDbEntity
  8
0-1
  6
Continuous
 62
    92
370
    13
100
AcDbLine
 10
-1631.040769785657
 20
-1716.588940428625
 30
0.0
 11
-1247.040769785659
 21
-1716.588940428625
 31
0.0
  0
LINE
  5
88
330
1F
100
AcDbEntity
  8
0-1
  6
Continuous
 62
    92
370
    13
100
AcDbLine
 10
-1649.040769785658
 20
-1734.588940428628
 30
0.0
 11
-1229.040769785658
 21
-1734.588940428628
 31
0.0
  0
LINE
  5
89
330
1F
100
AcDbEntity
  8
0-1
  6
Continuous
 62
    92
370
    13
100
AcDbLine
 10
-1608.540769785657
 20
1217.411059571375
 30
0.0
 11
-1269.540769785659
 21
1217.411059571375
 31
0.0
  0
LINE
  5
8A
330
1F
100
AcDbEntity
  8
0-1
  6
Continuous
 62
    92
370
    13
100
AcDbLine
 10
-1649.040769785658
 20
-1860.588940428626
 30
0.0
 11
-1649.040769785658
 21
1383.911059571376
 31
0.0
  0
LINE
  5
8B
330
1F
100
AcDbEntity
  8
0-1
  6
Continuous
 62
    92
370
    13
100
AcDbLine
 10
-1608.540769785657
 20
-1694.088940428625
 30
0.0
 11
-1608.540769785657
 21
1217.411059571375
 31
0.0
  0
LINE
  5
8C
330
1F
100
AcDbEntity
  8
0-1
  6
Continuous
 62
    92
370
    13
100
AcDbLine
 10
-1608.540769785657
 20
1217.411059571375
 30
0.0
 11
-1622.985769785657
 21
1231.361059571376
 31
0.0
  0
LINE
  5
8D
330
1F
100
AcDbEntity
  8
0-1
  6
Continuous
 62
    92
370
    13
100
AcDbLine
 10
-1608.540769785657
 20
-1694.088940428625
 30
0.0
 11
-1622.985769785657
 21
-1708.533940428627
 31
0.0
  0
LINE
  5
8E
330
1F
100
AcDbEntity
  8
0-1
  6
Continuous
 62
    92
370
    13
100
AcDbLine
 10
-1631.040769785657
 20
-1716.588940428627
 30
0.0
 11
-1649.040769785658
 21
-1734.588940428628
 31
0.0
  0
LINE
  5
8F
330
1F
100
AcDbEntity
  8
0-1
  6
Continuous
 62
    92
370
    13
100
AcDbLine
 10
-1229.040769785658
 20
-1860.588940428626
 30
0.0
 11
-1229.040769785658
 21
1383.911059571376
 31
0.0
  0
LINE
  5
90
330
1F
100
AcDbEntity
  8
0-1
  6
Continuous
 62
    92
370
    13
100
AcDbLine
 10
-1247.040769785659
 20
-1716.588940428625
 30
0.0
 11
-1247.040769785659
 21
1239.911059571375
 31
0.0
  0
LINE
  5
91
330
1F
100
AcDbEntity
  8
0-1
  6
Continuous
 62
    92
370
    13
100
AcDbLine
 10
-1269.540769785659
 20
-1694.088940428625
 30
0.0
 11
-1269.540769785659
 21
1217.411059571375
 31
0.0
  0
LINE
  5
92
330
1F
100
AcDbEntity
  8
0-1
  6
Continuous
 62
    92
370
    13
100
AcDbLine
 10
-1255.095769785659
 20
1231.361059571376
 30
0.0
 11
-1269.540769785659
 21
1217.411059571375
 31
0.0
  0
LINE
  5
93
330
1F
100
AcDbEntity
  8
0-1
  6
Continuous
 62
    92
370
    13
100
AcDbLine
 10
-1229.040769785658
 20
1257.911059571376
 30
0.0
 11
-1247.040769785659
 21
1239.911059571375
 31
0.0
  0
LINE
  5
94
330
1F
100
AcDbEntity
  8
0-1
  6
Continuous
 62
    92
370
    13
100
AcDbLine
 10
-1255.095769785659
 20
-1708.533940428627
 30
0.0
 11
-1269.540769785659
 21
-1694.088940428625
 31
0.0
  0
LINE
  5
95
330
1F
100
AcDbEntity
  8
0-1
  6
Continuous
 62
    92
370
    13
100
AcDbLine
 10
-1247.040769785659
 20
-1716.588940428627
 30
0.0
 11
-1229.040769785658
 21
-1734.588940428628
 31
0.0
  0
LINE
  5
96
330
1F
100
AcDbEntity
  8
0-1
  6
JWW_CENTER1
 62
     7
370
     9
100
AcDbLine
 10
-1734.540769785659
 20
1383.911059571377
 30
0.0
 11
-1143.540769785657
 21
-238.3389404286249
 31
0.0
  0
LINE
  5
97
330
1F
100
AcDbEntity
  8
0-1
  6
JWW_CENTER1
 62
     7
370
     9
100
AcDbLine
 10
-1143.540769785657
 20
-238.3389404286249
 30
0.0
 11
-1734.540769785659
 21
-1860.588940428626
 31
0.0
  0
LWPOLYLINE
  5
98
330
1F
100
AcDbEntity
  8
0-1
  6
Continuous
 62
     7
370
     9
100
AcDbPolyline
 90
        4
 70
     1
 43
3.0
 10
-1142.040770064894
 20
1613.411059571377
 42
0.4142135623731
 10
-1143.540770064894
 20
1614.911059571377
 42
0.4142135623731
 10
-1145.040770064893
 20
1613.411059571377
 42
0.4142135623731
 10
-1143.540770064894
 20
1611.911059571377
 42
0.4142135623731
  0
LINE
  5
99
330
1F
100
AcDbEntity
  8
0-1
  6
Continuous
 62
   120
370
     5
100
AcDbLine
 10
-1143.540770064894
 20
1613.411059571377
 30
0.0
 11
-1143.540770064894
 21
1463.411059571377
 31
0.0
  0
LINE
  5
9A
330
1F
100
AcDbEntity
  8
0-1
  6
Continuous
 62
   120
370
     5
100
AcDbLine
 10
-1143.540770064894
 20
1613.411059571377
 30
0.0
 11
-1734.540770064895
 21
1613.411059571377
 31
0.0
  0
LWPOLYLINE
  5
9B
330
1F
100
AcDbEntity
  8
0-1
  6
Continuous
 62
     7
370
     9
100
AcDbPolyline
 90
        4
 70
     1
 43
3.0
 10
-1733.040770064895
 20
1613.411059571377
 42
0.4142135623731
 10
-1734.540770064895
 20
1614.911059571377
 42
0.4142135623731
 10
-1736.040770064895
 20
1613.411059571377
 42
0.4142135623731
 10
-1734.540770064895
 20
1611.911059571377
 42
0.4142135623731
  0
LINE
  5
9C
330
1F
100
AcDbEntity
  8
0-1
  6
Continuous
 62
   120
370
     5
100
AcDbLine
 10
-1734.540770064895
 20
1613.411059571377
 30
0.0
 11
-1734.540770064895
 21
1463.411059571377
 31
0.0
  0
MTEXT
  5
9D
330
1F
100
AcDbEntity
  8
0-1
  6
Continuous
 62
     7
370
   211
100
AcDbMText
 10
-1641.540770064894
 20
1617.701059571377
 30
0.0
 40
68.58
 41
405.0
 46
0.0
 71
     7
 72
     1
  1
{\fＭＳ ゴシック|b0|i0|c128|p49;ＤＷ＝394}
 73
     1
 44
1.0
  0
ARC
  5
9E
330
1F
100
AcDbEntity
  8
0-1
  6
Continuous
 62
    92
370
    13
100
AcDbCircle
 10
-1667.790770064898
 20
-347.0889404286223
 30
0.0
 40
1.5
100
AcDbArc
 50
0.0
 51
90.0
  0
LINE
  5
9F
330
1F
100
AcDbEntity
  8
0-1
  6
Continuous
 62
    92
370
    13
100
AcDbLine
 10
-1679.790770064894
 20
-345.5889404286237
 30
0.0
 11
-1667.790770064898
 21
-345.5889404286237
 31
0.0
  0
ARC
  5
A0
330
1F
100
AcDbEntity
  8
0-1
  6
Continuous
 62
    92
370
    13
100
AcDbCircle
 10
-1679.790770064894
 20
-347.0889404286223
 30
0.0
 40
1.5
100
AcDbArc
 50
89.99999999999999
 51
180.0
  0
LINE
  5
A1
330
1F
100
AcDbEntity
  8
0-1
  6
Continuous
 62
    92
370
    13
100
AcDbLine
 10
-1681.290770064896
 20
-545.0889404286213
 30
0.0
 11
-1681.290770064896
 21
-347.0889404286223
 31
0.0
  0
ARC
  5
A2
330
1F
100
AcDbEntity
  8
0-1
  6
Continuous
 62
    92
370
    13
100
AcDbCircle
 10
-1679.790770064894
 20
-545.0889404286213
 30
0.0
 40
1.5
100
AcDbArc
 50
180.0
 51
270.0
  0
LINE
  5
A3
330
1F
100
AcDbEntity
  8
0-1
  6
Continuous
 62
    92
370
    13
100
AcDbLine
 10
-1667.790770064898
 20
-546.5889404286224
 30
0.0
 11
-1679.790770064894
 21
-546.5889404286224
 31
0.0
  0
LINE
  5
A4
330
1F
100
AcDbEntity
  8
0-1
  6
Continuous
 62
    92
370
    13
100
AcDbLine
 10
-1666.290770064896
 20
-545.0889404286213
 30
0.0
 11
-1666.290770064896
 21
-347.0889404286223
 31
0.0
  0
ARC
  5
A5
330
1F
100
AcDbEntity
  8
0-1
  6
Continuous
 62
    92
370
    13
100
AcDbCircle
 10
-1667.790770064898
 20
-545.0889404286213
 30
0.0
 40
1.5
100
AcDbArc
 50
270.0
 51
0.0
  0
ARC
  5
A6
330
1F
100
AcDbEntity
  8
0-1
  6
Continuous
 62
     7
370
     9
100
AcDbCircle
 10
-1666.290770064896
 20
-350.0889404286213
 30
0.0
 40
1.5
100
AcDbArc
 50
0.0
 51
90.0
  0
ARC
  5
A7
330
1F
100
AcDbEntity
  8
0-1
  6
Continuous
 62
     7
370
     9
100
AcDbCircle
 10
-1681.290770064896
 20
-350.0889404286213
 30
0.0
 40
1.5
100
AcDbArc
 50
89.99999999999999
 51
180.0
  0
LINE
  5
A8
330
1F
100
AcDbEntity
  8
0-1
  6
Continuous
 62
     7
370
     9
100
AcDbLine
 10
-1682.790770064898
 20
-377.0889404286223
 30
0.0
 11
-1682.790770064898
 21
-350.0889404286213
 31
0.0
  0
ARC
  5
A9
330
1F
100
AcDbEntity
  8
0-1
  6
Continuous
 62
     7
370
     9
100
AcDbCircle
 10
-1681.290770064896
 20
-377.0889404286223
 30
0.0
 40
1.5
100
AcDbArc
 50
180.0
 51
270.0
  0
LINE
  5
AA
330
1F
100
AcDbEntity
  8
0-1
  6
Continuous
 62
     7
370
     9
100
AcDbLine
 10
-1664.790770064894
 20
-377.0889404286223
 30
0.0
 11
-1664.790770064894
 21
-350.0889404286213
 31
0.0
  0
ARC
  5
AB
330
1F
100
AcDbEntity
  8
0-1
  6
Continuous
 62
     7
370
     9
100
AcDbCircle
 10
-1666.290770064896
 20
-377.0889404286223
 30
0.0
 40
1.5
100
AcDbArc
 50
270.0
 51
0.0
  0
ARC
  5
AC
330
1F
100
AcDbEntity
  8
0-1
  6
Continuous
 62
     7
370
     9
100
AcDbCircle
 10
-1666.290770064896
 20
-515.0889404286213
 30
0.0
 40
1.5
100
AcDbArc
 50
0.0
 51
90.0
  0
ARC
  5
AD
330
1F
100
AcDbEntity
  8
0-1
  6
Continuous
 62
     7
370
     9
100
AcDbCircle
 10
-1681.290770064896
 20
-515.0889404286213
 30
0.0
 40
1.5
100
AcDbArc
 50
89.99999999999999
 51
180.0
  0
LINE
  5
AE
330
1F
100
AcDbEntity
  8
0-1
  6
Continuous
 62
     7
370
     9
100
AcDbLine
 10
-1682.790770064898
 20
-542.0889404286222
 30
0.0
 11
-1682.790770064898
 21
-515.0889404286213
 31
0.0
  0
ARC
  5
AF
330
1F
100
AcDbEntity
  8
0-1
  6
Continuous
 62
     7
370
     9
100
AcDbCircle
 10
-1681.290770064896
 20
-542.0889404286222
 30
0.0
 40
1.5
100
AcDbArc
 50
180.0
 51
270.0
  0
LINE
  5
B0
330
1F
100
AcDbEntity
  8
0-1
  6
Continuous
 62
     7
370
     9
100
AcDbLine
 10
-1664.790770064894
 20
-542.0889404286222
 30
0.0
 11
-1664.790770064894
 21
-515.0889404286213
 31
0.0
  0
ARC
  5
B1
330
1F
100
AcDbEntity
  8
0-1
  6
Continuous
 62
     7
370
     9
100
AcDbCircle
 10
-1666.290770064896
 20
-542.0889404286222
 30
0.0
 40
1.5
100
AcDbArc
 50
270.0
 51
0.0
  0
LINE
  5
B2
330
1F
100
AcDbEntity
  8
0-1
  6
Continuous
 62
    92
370
    13
100
AcDbLine
 10
-24.54077006489322
 20
-728.0891566733511
 30
0.0
 11
-615.5407700648929
 21
-728.0891566733511
 31
0.0
  0
LINE
  5
B3
330
1F
100
AcDbEntity
  8
0-1
  6
Continuous
 62
    92
370
    13
100
AcDbLine
 10
-24.54077006489322
 20
-728.0891566733511
 30
0.0
 11
-24.54077006489322
 21
-1860.58894042862
 31
0.0
  0
LINE
  5
B4
330
1F
100
AcDbEntity
  8
0-1
  6
Continuous
 62
    92
370
    13
100
AcDbLine
 10
-615.5407700648929
 20
-728.0891566733511
 30
0.0
 11
-615.5407700648929
 21
-1860.58894042862
 31
0.0
  0
LINE
  5
B5
330
1F
100
AcDbEntity
  8
0-1
  6
Continuous
 62
    92
370
    13
100
AcDbLine
 10
-24.54077006489322
 20
-1860.58894042862
 30
0.0
 11
-615.5407700648929
 21
-1860.58894042862
 31
0.0
  0
LINE
  5
B6
330
1F
100
AcDbEntity
  8
0-1
  6
Continuous
 62
    92
370
    13
100
AcDbLine
 10
-128.0407700648946
 20
-1716.588940428622
 30
0.0
 11
-110.0407700648939
 21
-1734.588940428622
 31
0.0
  0
LINE
  5
B7
330
1F
100
AcDbEntity
  8
0-1
  6
Continuous
 62
    92
370
    13
100
AcDbLine
 10
-136.0957700648951
 20
-1708.533940428621
 30
0.0
 11
-150.5407700648946
 21
-1694.08894042862
 31
0.0
  0
LINE
  5
B8
330
1F
100
AcDbEntity
  8
0-1
  6
Continuous
 62
    92
370
    13
100
AcDbLine
 10
-512.0407700648949
 20
-1716.588940428622
 30
0.0
 11
-530.0407700648939
 21
-1734.588940428622
 31
0.0
  0
LINE
  5
B9
330
1F
100
AcDbEntity
  8
0-1
  6
Continuous
 62
    92
370
    13
100
AcDbLine
 10
-489.5407700648932
 20
-1694.08894042862
 30
0.0
 11
-503.9857700648944
 21
-1708.533940428621
 31
0.0
  0
LINE
  5
BA
330
1F
100
AcDbEntity
  8
0-1
  6
Continuous
 62
    92
370
    13
100
AcDbLine
 10
-530.0407700648939
 20
-1734.588940428622
 30
0.0
 11
-110.0407700648939
 21
-1734.588940428622
 31
0.0
  0
LINE
  5
BB
330
1F
100
AcDbEntity
  8
0-1
  6
Continuous
 62
    92
370
    13
100
AcDbLine
 10
-512.0407700648932
 20
-1716.58894042862
 30
0.0
 11
-128.0407700648946
 21
-1716.58894042862
 31
0.0
  0
LINE
  5
BC
330
1F
100
AcDbEntity
  8
0-1
  6
Continuous
 62
    92
370
    13
100
AcDbLine
 10
-489.5407700648932
 20
-1694.08894042862
 30
0.0
 11
-150.5407700648946
 21
-1694.08894042862
 31
0.0
  0
LINE
  5
BD
330
1F
100
AcDbEntity
  8
0-1
  6
Continuous
 62
    92
370
    13
100
AcDbLine
 10
-110.0407700648939
 20
-854.08915667335
 30
0.0
 11
-128.0407700648946
 21
-872.0891566733507
 31
0.0
  0
LINE
  5
BE
330
1F
100
AcDbEntity
  8
0-1
  6
Continuous
 62
    92
370
    13
100
AcDbLine
 10
-136.0957700648951
 20
-880.6391566733497
 30
0.0
 11
-150.5407700648946
 21
-894.5891566733507
 31
0.0
  0
LINE
  5
BF
330
1F
100
AcDbEntity
  8
0-1
  6
Continuous
 62
    92
370
    13
100
AcDbLine
 10
-150.5407700648946
 20
-1694.08894042862
 30
0.0
 11
-150.5407700648946
 21
-894.5891566733507
 31
0.0
  0
LINE
  5
C0
330
1F
100
AcDbEntity
  8
0-1
  6
Continuous
 62
    92
370
    13
100
AcDbLine
 10
-128.0407700648946
 20
-1716.58894042862
 30
0.0
 11
-128.0407700648946
 21
-872.0891566733507
 31
0.0
  0
LINE
  5
C1
330
1F
100
AcDbEntity
  8
0-1
  6
Continuous
 62
    92
370
    13
100
AcDbLine
 10
-110.0407700648939
 20
-1860.588940428621
 30
0.0
 11
-110.0407700648939
 21
-728.0891566733494
 31
0.0
  0
LINE
  5
C2
330
1F
100
AcDbEntity
  8
0-1
  6
Continuous
 62
    92
370
    13
100
AcDbLine
 10
-489.5407700648932
 20
-894.5891566733507
 30
0.0
 11
-503.9857700648944
 21
-880.6391566733497
 31
0.0
  0
LINE
  5
C3
330
1F
100
AcDbEntity
  8
0-1
  6
Continuous
 62
    92
370
    13
100
AcDbLine
 10
-489.5407700648932
 20
-1694.08894042862
 30
0.0
 11
-489.5407700648932
 21
-894.5891566733507
 31
0.0
  0
LINE
  5
C4
330
1F
100
AcDbEntity
  8
0-1
  6
Continuous
 62
    92
370
    13
100
AcDbLine
 10
-530.0407700648939
 20
-1860.588940428621
 30
0.0
 11
-530.0407700648939
 21
-728.0891566733494
 31
0.0
  0
LINE
  5
C5
330
1F
100
AcDbEntity
  8
0-1
  6
Continuous
 62
    92
370
    13
100
AcDbLine
 10
-489.5407700648932
 20
-894.5891566733507
 30
0.0
 11
-150.5407700648946
 21
-894.5891566733507
 31
0.0
  0
LINE
  5
C6
330
1F
100
AcDbEntity
  8
0-1
  6
Continuous
 62
    92
370
    13
100
AcDbLine
 10
-530.0407700648939
 20
-854.08915667335
 30
0.0
 11
-110.0407700648939
 21
-854.08915667335
 31
0.0
  0
LINE
  5
C7
330
1F
100
AcDbEntity
  8
0-1
  6
Continuous
 62
    92
370
    13
100
AcDbLine
 10
-512.0407700648932
 20
-872.0891566733507
 30
0.0
 11
-530.0407700648939
 21
-854.08915667335
 31
0.0
  0
LINE
  5
C8
330
1F
100
AcDbEntity
  8
0-1
  6
Continuous
 62
    92
370
    13
100
AcDbLine
 10
-512.0407700648932
 20
-872.0891566733507
 30
0.0
 11
-128.0407700648946
 21
-872.0891566733507
 31
0.0
  0
LINE
  5
C9
330
1F
100
AcDbEntity
  8
0-1
  6
Continuous
 62
    92
370
    13
100
AcDbLine
 10
-512.0407700648932
 20
-1716.58894042862
 30
0.0
 11
-512.0407700648932
 21
-872.0891566733507
 31
0.0
  0
LINE
  5
CA
330
1F
100
AcDbEntity
  8
0-1
  6
JWW_CENTER1
 62
     7
370
     9
100
AcDbLine
 10
-615.5407700648946
 20
-1294.339048550985
 30
0.0
 11
-24.54077006489322
 21
-1860.588940428621
 31
0.0
  0
LINE
  5
CB
330
1F
100
AcDbEntity
  8
0-1
  6
JWW_CENTER1
 62
     7
370
     9
100
AcDbLine
 10
-24.54077006489322
 20
-728.0891566733494
 30
0.0
 11
-615.5407700648946
 21
-1294.339048550985
 31
0.0
  0
LINE
  5
CC
330
1F
100
AcDbEntity
  8
0-1
  6
Continuous
 62
    92
370
    13
100
AcDbLine
 10
-615.5407700648929
 20
1383.911059571383
 30
0.0
 11
-615.5407700648929
 21
539.4110595713828
 31
0.0
  0
LINE
  5
CD
330
1F
100
AcDbEntity
  8
0-1
  6
Continuous
 62
    92
370
    13
100
AcDbLine
 10
-24.54077006489493
 20
539.4110595713828
 30
0.0
 11
-615.5407700648929
 21
539.4110595713828
 31
0.0
  0
LINE
  5
CE
330
1F
100
AcDbEntity
  8
0-1
  6
Continuous
 62
    92
370
    13
100
AcDbLine
 10
-24.54077006489493
 20
1383.911059571383
 30
0.0
 11
-615.5407700648929
 21
1383.911059571383
 31
0.0
  0
LINE
  5
CF
330
1F
100
AcDbEntity
  8
0-1
  6
Continuous
 62
    92
370
    13
100
AcDbLine
 10
-24.54077006489493
 20
1383.911059571383
 30
0.0
 11
-24.54077006489493
 21
539.4110595713828
 31
0.0
  0
LINE
  5
D0
330
1F
100
AcDbEntity
  8
0-1
  6
JWW_CENTER1
 62
     7
370
     9
100
AcDbLine
 10
-24.54077006489493
 20
1383.911059571383
 30
0.0
 11
-615.5407700648963
 21
961.6610595713839
 31
0.0
  0
LINE
  5
D1
330
1F
100
AcDbEntity
  8
0-1
  6
JWW_CENTER1
 62
     7
370
     9
100
AcDbLine
 10
-615.5407700648963
 20
961.6610595713839
 30
0.0
 11
-24.54077006489493
 21
539.4110595713785
 31
0.0
  0
LINE
  5
D2
330
1F
100
AcDbEntity
  8
0-1
  6
Continuous
 62
    92
370
    13
100
AcDbLine
 10
-110.0407700648956
 20
1257.911059571383
 30
0.0
 11
-128.0407700648963
 21
1239.911059571382
 31
0.0
  0
LINE
  5
D3
330
1F
100
AcDbEntity
  8
0-1
  6
Continuous
 62
    92
370
    13
100
AcDbLine
 10
-136.0957700648968
 20
1231.361059571383
 30
0.0
 11
-150.5407700648963
 21
1217.411059571382
 31
0.0
  0
LINE
  5
D4
330
1F
100
AcDbEntity
  8
0-1
  6
Continuous
 62
    92
370
    13
100
AcDbLine
 10
-489.5407700648949
 20
1217.411059571382
 30
0.0
 11
-503.9857700648961
 21
1231.361059571383
 31
0.0
  0
LINE
  5
D5
330
1F
100
AcDbEntity
  8
0-1
  6
Continuous
 62
    92
370
    13
100
AcDbLine
 10
-489.5407700648949
 20
1217.411059571382
 30
0.0
 11
-150.5407700648963
 21
1217.411059571382
 31
0.0
  0
LINE
  5
D6
330
1F
100
AcDbEntity
  8
0-1
  6
Continuous
 62
    92
370
    13
100
AcDbLine
 10
-530.0407700648956
 20
1257.911059571383
 30
0.0
 11
-110.0407700648956
 21
1257.911059571383
 31
0.0
  0
LINE
  5
D7
330
1F
100
AcDbEntity
  8
0-1
  6
Continuous
 62
    92
370
    13
100
AcDbLine
 10
-512.0407700648949
 20
1239.911059571382
 30
0.0
 11
-530.0407700648956
 21
1257.911059571383
 31
0.0
  0
LINE
  5
D8
330
1F
100
AcDbEntity
  8
0-1
  6
Continuous
 62
    92
370
    13
100
AcDbLine
 10
-512.0407700648949
 20
1239.911059571382
 30
0.0
 11
-128.0407700648963
 21
1239.911059571382
 31
0.0
  0
LINE
  5
D9
330
1F
100
AcDbEntity
  8
0-1
  6
Continuous
 62
    92
370
    13
100
AcDbLine
 10
-128.0407700648963
 20
683.4110595713771
 30
0.0
 11
-110.0407700648956
 21
665.4110595713794
 31
0.0
  0
LINE
  5
DA
330
1F
100
AcDbEntity
  8
0-1
  6
Continuous
 62
    92
370
    13
100
AcDbLine
 10
-136.0957700648968
 20
691.4660595713785
 30
0.0
 11
-150.5407700648963
 21
705.9110595713801
 31
0.0
  0
LINE
  5
DB
330
1F
100
AcDbEntity
  8
0-1
  6
Continuous
 62
    92
370
    13
100
AcDbLine
 10
-512.0407700648966
 20
683.4110595713771
 30
0.0
 11
-530.0407700648956
 21
665.4110595713794
 31
0.0
  0
LINE
  5
DC
330
1F
100
AcDbEntity
  8
0-1
  6
Continuous
 62
    92
370
    13
100
AcDbLine
 10
-489.5407700648949
 20
705.9110595713801
 30
0.0
 11
-503.9857700648961
 21
691.4660595713785
 31
0.0
  0
LINE
  5
DD
330
1F
100
AcDbEntity
  8
0-1
  6
Continuous
 62
    92
370
    13
100
AcDbLine
 10
-530.0407700648956
 20
665.4110595713794
 30
0.0
 11
-110.0407700648956
 21
665.4110595713794
 31
0.0
  0
LINE
  5
DE
330
1F
100
AcDbEntity
  8
0-1
  6
Continuous
 62
    92
370
    13
100
AcDbLine
 10
-512.0407700648949
 20
683.4110595713801
 30
0.0
 11
-128.0407700648963
 21
683.4110595713801
 31
0.0
  0
LINE
  5
DF
330
1F
100
AcDbEntity
  8
0-1
  6
Continuous
 62
    92
370
    13
100
AcDbLine
 10
-489.5407700648949
 20
705.9110595713801
 30
0.0
 11
-150.5407700648963
 21
705.9110595713801
 31
0.0
  0
LINE
  5
E0
330
1F
100
AcDbEntity
  8
0-1
  6
Continuous
 62
    92
370
    13
100
AcDbLine
 10
-150.5407700648963
 20
705.9110595713801
 30
0.0
 11
-150.5407700648963
 21
1217.411059571382
 31
0.0
  0
LINE
  5
E1
330
1F
100
AcDbEntity
  8
0-1
  6
Continuous
 62
    92
370
    13
100
AcDbLine
 10
-128.0407700648963
 20
683.4110595713801
 30
0.0
 11
-128.0407700648963
 21
1239.911059571382
 31
0.0
  0
LINE
  5
E2
330
1F
100
AcDbEntity
  8
0-1
  6
Continuous
 62
    92
370
    13
100
AcDbLine
 10
-110.0407700648956
 20
539.4110595713785
 30
0.0
 11
-110.0407700648956
 21
1383.911059571383
 31
0.0
  0
LINE
  5
E3
330
1F
100
AcDbEntity
  8
0-1
  6
Continuous
 62
    92
370
    13
100
AcDbLine
 10
-489.5407700648949
 20
705.9110595713801
 30
0.0
 11
-489.5407700648949
 21
1217.411059571382
 31
0.0
  0
LINE
  5
E4
330
1F
100
AcDbEntity
  8
0-1
  6
Continuous
 62
    92
370
    13
100
AcDbLine
 10
-530.0407700648956
 20
539.4110595713785
 30
0.0
 11
-530.0407700648956
 21
1383.911059571383
 31
0.0
  0
LINE
  5
E5
330
1F
100
AcDbEntity
  8
0-1
  6
Continuous
 62
    92
370
    13
100
AcDbLine
 10
-512.0407700648949
 20
683.4110595713801
 30
0.0
 11
-512.0407700648949
 21
1239.911059571382
 31
0.0
  0
MTEXT
  5
E6
330
1F
100
AcDbEntity
  8
0-1
  6
Continuous
 62
     7
370
   211
100
AcDbMText
 10
-522.5407700648922
 20
-494.2991566733514
 30
0.0
 40
68.57999999999998
 41
404.9999999999999
 46
0.0
 71
     7
 72
     1
  1
{\fＭＳ ゴシック|b0|i0|c128|p49;ＤＷ＝394}
 73
     1
 44
1.0
  0
LINE
  5
E7
330
1F
100
AcDbEntity
  8
0-1
  6
Continuous
 62
   120
370
     5
100
AcDbLine
 10
-24.54077006489493
 20
-498.5891566733514
 30
0.0
 11
-24.54077006489493
 21
-648.5891566733515
 31
0.0
  0
LWPOLYLINE
  5
E8
330
1F
100
AcDbEntity
  8
0-1
  6
Continuous
 62
     7
370
     9
100
AcDbPolyline
 90
        4
 70
     1
 43
3.0
 10
-23.04077006489493
 20
-498.5891566733514
 42
0.4142135623731
 10
-24.54077006489493
 20
-497.0891566733514
 42
0.4142135623731
 10
-26.04077006489493
 20
-498.5891566733514
 42
0.4142135623731
 10
-24.54077006489493
 20
-500.0891566733514
 42
0.4142135623731
  0
LINE
  5
E9
330
1F
100
AcDbEntity
  8
0-1
  6
Continuous
 62
   120
370
     5
100
AcDbLine
 10
-615.5407700648929
 20
-498.5891566733514
 30
0.0
 11
-24.54077006489493
 21
-498.5891566733514
 31
0.0
  0
LINE
  5
EA
330
1F
100
AcDbEntity
  8
0-1
  6
Continuous
 62
   120
370
     5
100
AcDbLine
 10
-615.5407700648929
 20
-498.5891566733514
 30
0.0
 11
-615.5407700648929
 21
-648.5891566733515
 31
0.0
  0
LWPOLYLINE
  5
EB
330
1F
100
AcDbEntity
  8
0-1
  6
Continuous
 62
     7
370
     9
100
AcDbPolyline
 90
        4
 70
     1
 43
3.0
 10
-614.0407700648929
 20
-498.5891566733514
 42
0.4142135623731
 10
-615.5407700648929
 20
-497.0891566733514
 42
0.4142135623731
 10
-617.0407700648929
 20
-498.5891566733514
 42
0.4142135623731
 10
-615.5407700648929
 20
-500.0891566733514
 42
0.4142135623731
  0
LINE
  5
EC
330
1F
100
AcDbEntity
  8
0-1
  6
Continuous
 62
   120
370
     5
100
AcDbLine
 10
-843.5407700648935
 20
-1860.58894042862
 30
0.0
 11
-693.5407700648935
 21
-1860.58894042862
 31
0.0
  0
LINE
  5
ED
330
1F
100
AcDbEntity
  8
0-1
  6
Continuous
 62
   120
370
     5
100
AcDbLine
 10
-843.5407700648935
 20
-1860.58894042862
 30
0.0
 11
-843.5407700648935
 21
-728.0889404286202
 31
0.0
  0
LWPOLYLINE
  5
EE
330
1F
100
AcDbEntity
  8
0-1
  6
Continuous
 62
     7
370
     9
100
AcDbPolyline
 90
        4
 70
     1
 43
3.0
 10
-842.0407700648935
 20
-1860.58894042862
 42
0.4142135623731
 10
-843.5407700648935
 20
-1859.088940428621
 42
0.4142135623731
 10
-845.0407700648935
 20
-1860.58894042862
 42
0.4142135623731
 10
-843.5407700648935
 20
-1862.08894042862
 42
0.4142135623731
  0
MTEXT
  5
EF
330
1F
100
AcDbEntity
  8
0-1
  6
Continuous
 62
     7
370
   211
100
AcDbMText
 10
-858.5407700648918
 20
-1507.548970121398
 30
0.0
 40
68.58
 41
405.0
 46
0.0
 71
     7
 72
     1
  1
{\fＭＳ ゴシック|b0|i0|c128|p49;ＤＨ＝755}
 11
6.123031769111886E-17
 21
1.0
 31
0.0
 73
     1
 44
1.0
  0
LWPOLYLINE
  5
F0
330
1F
100
AcDbEntity
  8
0-1
  6
Continuous
 62
     7
370
     9
100
AcDbPolyline
 90
        4
 70
     1
 43
3.0
 10
-842.0407700648935
 20
-728.0889404286202
 42
0.4142135623731
 10
-843.5407700648935
 20
-726.5889404286202
 42
0.4142135623731
 10
-845.0407700648935
 20
-728.0889404286202
 42
0.4142135623731
 10
-843.5407700648935
 20
-729.5889404286203
 42
0.4142135623731
  0
LINE
  5
F1
330
1F
100
AcDbEntity
  8
0-1
  6
Continuous
 62
   120
370
     5
100
AcDbLine
 10
-843.5407700648935
 20
-728.0889404286202
 30
0.0
 11
-693.5407700648935
 21
-728.0889404286202
 31
0.0
  0
MTEXT
  5
F2
330
1F
100
AcDbEntity
  8
0-1
  6
Continuous
 62
     7
370
   211
100
AcDbMText
 10
-522.5407700648922
 20
1617.701059571383
 30
0.0
 40
68.57999999999998
 41
404.9999999999999
 46
0.0
 71
     7
 72
     1
  1
{\fＭＳ ゴシック|b0|i0|c128|p49;ＤＷ＝394}
 73
     1
 44
1.0
  0
LINE
  5
F3
330
1F
100
AcDbEntity
  8
0-1
  6
Continuous
 62
   120
370
     5
100
AcDbLine
 10
-24.54077006489493
 20
1613.411059571383
 30
0.0
 11
-24.54077006489493
 21
1463.411059571383
 31
0.0
  0
LWPOLYLINE
  5
F4
330
1F
100
AcDbEntity
  8
0-1
  6
Continuous
 62
     7
370
     9
100
AcDbPolyline
 90
        4
 70
     1
 43
3.0
 10
-23.04077006489493
 20
1613.411059571383
 42
0.4142135623731
 10
-24.54077006489493
 20
1614.911059571382
 42
0.4142135623731
 10
-26.04077006489493
 20
1613.411059571383
 42
0.4142135623731
 10
-24.54077006489493
 20
1611.911059571383
 42
0.4142135623731
  0
LINE
  5
F5
330
1F
100
AcDbEntity
  8
0-1
  6
Continuous
 62
   120
370
     5
100
AcDbLine
 10
-615.5407700648929
 20
1613.411059571383
 30
0.0
 11
-24.54077006489493
 21
1613.411059571383
 31
0.0
  0
LINE
  5
F6
330
1F
100
AcDbEntity
  8
0-1
  6
Continuous
 62
   120
370
     5
100
AcDbLine
 10
-615.5407700648929
 20
1613.411059571383
 30
0.0
 11
-615.5407700648929
 21
1463.411059571383
 31
0.0
  0
LWPOLYLINE
  5
F7
330
1F
100
AcDbEntity
  8
0-1
  6
Continuous
 62
     7
370
     9
100
AcDbPolyline
 90
        4
 70
     1
 43
3.0
 10
-614.0407700648929
 20
1613.411059571383
 42
0.4142135623731
 10
-615.5407700648929
 20
1614.911059571382
 42
0.4142135623731
 10
-617.0407700648929
 20
1613.411059571383
 42
0.4142135623731
 10
-615.5407700648929
 20
1611.911059571383
 42
0.4142135623731
  0
LINE
  5
F8
330
1F
100
AcDbEntity
  8
0-1
  6
Continuous
 62
   120
370
     5
100
AcDbLine
 10
-843.5407700648935
 20
539.4110595713828
 30
0.0
 11
-693.5407700648935
 21
539.4110595713828
 31
0.0
  0
LWPOLYLINE
  5
F9
330
1F
100
AcDbEntity
  8
0-1
  6
Continuous
 62
     7
370
     9
100
AcDbPolyline
 90
        4
 70
     1
 43
3.0
 10
-842.0407700648935
 20
539.4110595713828
 42
0.4142135623731
 10
-843.5407700648935
 20
540.9110595713828
 42
0.4142135623731
 10
-845.0407700648935
 20
539.4110595713828
 42
0.4142135623731
 10
-843.5407700648935
 20
537.9110595713828
 42
0.4142135623731
  0
LINE
  5
FA
330
1F
100
AcDbEntity
  8
0-1
  6
Continuous
 62
   120
370
     5
100
AcDbLine
 10
-843.5407700648935
 20
539.4110595713828
 30
0.0
 11
-843.5407700648935
 21
543.9110401075893
 31
0.0
  0
MTEXT
  5
FB
330
1F
100
AcDbEntity
  8
0-1
  6
Continuous
 62
     7
370
   211
100
AcDbMText
 10
-858.5407700648952
 20
748.4510595713828
 30
0.0
 40
68.58
 41
405.0
 46
0.0
 71
     7
 72
     1
  1
{\fＭＳ ゴシック|b0|i0|c128|p49;ＤＨ＝563}
 11
6.123031769111886E-17
 21
1.0
 31
0.0
 73
     1
 44
1.0
  0
LINE
  5
FC
330
1F
100
AcDbEntity
  8
0-1
  6
Continuous
 62
   120
370
     5
100
AcDbLine
 10
-843.5407700648935
 20
539.4110595713828
 30
0.0
 11
-843.5407700648935
 21
1383.911059571383
 31
0.0
  0
LWPOLYLINE
  5
FD
330
1F
100
AcDbEntity
  8
0-1
  6
Continuous
 62
     7
370
     9
100
AcDbPolyline
 90
        4
 70
     1
 43
3.0
 10
-842.0407700648935
 20
539.4110595713828
 42
0.4142135623731
 10
-843.5407700648935
 20
540.9110595713828
 42
0.4142135623731
 10
-845.0407700648935
 20
539.4110595713828
 42
0.4142135623731
 10
-843.5407700648935
 20
537.9110595713828
 42
0.4142135623731
  0
LINE
  5
FE
330
1F
100
AcDbEntity
  8
0-1
  6
Continuous
 62
   120
370
     5
100
AcDbLine
 10
-843.5407700648935
 20
1383.911059571383
 30
0.0
 11
-693.5407700648935
 21
1383.911059571383
 31
0.0
  0
LWPOLYLINE
  5
FF
330
1F
100
AcDbEntity
  8
0-1
  6
Continuous
 62
     7
370
     9
100
AcDbPolyline
 90
        4
 70
     1
 43
3.0
 10
-842.0407700648935
 20
1383.911059571383
 42
0.4142135623731
 10
-843.5407700648935
 20
1385.411059571382
 42
0.4142135623731
 10
-845.0407700648935
 20
1383.911059571383
 42
0.4142135623731
 10
-843.5407700648935
 20
1382.411059571383
 42
0.4142135623731
  0
ARC
  5
100
330
1F
100
AcDbEntity
  8
0-1
  6
Continuous
 62
    92
370
    13
100
AcDbCircle
 10
-91.2907700648939
 20
-764.0891863661294
 30
0.0
 40
1.5
100
AcDbArc
 50
90.0
 51
180.0
  0
LINE
  5
101
330
1F
100
AcDbEntity
  8
0-1
  6
Continuous
 62
    92
370
    13
100
AcDbLine
 10
-79.290770064898
 20
-762.5891863661291
 30
0.0
 11
-91.2907700648939
 21
-762.5891863661291
 31
0.0
  0
ARC
  5
102
330
1F
100
AcDbEntity
  8
0-1
  6
Continuous
 62
    92
370
    13
100
AcDbCircle
 10
-79.290770064898
 20
-764.0891863661294
 30
0.0
 40
1.5
100
AcDbArc
 50
0.0
 51
90.00000000000001
  0
LINE
  5
103
330
1F
100
AcDbEntity
  8
0-1
  6
Continuous
 62
    92
370
    13
100
AcDbLine
 10
-77.79077006489425
 20
-958.3392160589078
 30
0.0
 11
-77.79077006489425
 21
-764.0891863661294
 31
0.0
  0
LINE
  5
104
330
1F
100
AcDbEntity
  8
0-1
  6
Continuous
 62
    92
370
    13
100
AcDbLine
 10
-92.79077006489425
 20
-958.3392160589078
 30
0.0
 11
-92.79077006489425
 21
-764.0891863661294
 31
0.0
  0
ARC
  5
105
330
1F
100
AcDbEntity
  8
0-1
  6
Continuous
 62
     7
370
     9
100
AcDbCircle
 10
-92.79077006489425
 20
-767.0891863661301
 30
0.0
 40
1.5
100
AcDbArc
 50
90.0
 51
180.0
  0
ARC
  5
106
330
1F
100
AcDbEntity
  8
0-1
  6
Continuous
 62
     7
370
     9
100
AcDbCircle
 10
-77.79077006489425
 20
-767.0891863661301
 30
0.0
 40
1.5
100
AcDbArc
 50
0.0
 51
90.00000000000001
  0
LINE
  5
107
330
1F
100
AcDbEntity
  8
0-1
  6
Continuous
 62
     7
370
     9
100
AcDbLine
 10
-76.2907700648939
 20
-794.0891863661294
 30
0.0
 11
-76.2907700648939
 21
-767.0891863661301
 31
0.0
  0
ARC
  5
108
330
1F
100
AcDbEntity
  8
0-1
  6
Continuous
 62
     7
370
     9
100
AcDbCircle
 10
-77.79077006489425
 20
-794.0891863661294
 30
0.0
 40
1.5
100
AcDbArc
 50
270.0
 51
0.0
  0
LINE
  5
109
330
1F
100
AcDbEntity
  8
0-1
  6
Continuous
 62
     7
370
     9
100
AcDbLine
 10
-94.29077006489288
 20
-794.0891863661294
 30
0.0
 11
-94.29077006489288
 21
-767.0891863661301
 31
0.0
  0
ARC
  5
10A
330
1F
100
AcDbEntity
  8
0-1
  6
Continuous
 62
     7
370
     9
100
AcDbCircle
 10
-92.79077006489425
 20
-794.0891863661294
 30
0.0
 40
1.5
100
AcDbArc
 50
180.0
 51
270.0
  0
ARC
  5
10B
330
1F
100
AcDbEntity
  8
0-1
  6
Continuous
 62
     7
370
     9
100
AcDbCircle
 10
-92.79077006489425
 20
-932.0891863661292
 30
0.0
 40
1.5
100
AcDbArc
 50
90.0
 51
180.0
  0
ARC
  5
10C
330
1F
100
AcDbEntity
  8
0-1
  6
Continuous
 62
     7
370
     9
100
AcDbCircle
 10
-77.79077006489425
 20
-932.0891863661292
 30
0.0
 40
1.5
100
AcDbArc
 50
0.0
 51
90.00000000000001
  0
LINE
  5
10D
330
1F
100
AcDbEntity
  8
0-1
  6
Continuous
 62
     7
370
     9
100
AcDbLine
 10
-76.2907700648939
 20
-955.3392160589071
 30
0.0
 11
-76.2907700648939
 21
-932.0891863661292
 31
0.0
  0
LINE
  5
10E
330
1F
100
AcDbEntity
  8
0-1
  6
Continuous
 62
     7
370
     9
100
AcDbLine
 10
-94.29077006489288
 20
-955.3392160589071
 30
0.0
 11
-94.29077006489288
 21
-932.0891863661292
 31
0.0
  0
ARC
  5
10F
330
1F
100
AcDbEntity
  8
0-1
  6
Continuous
 62
    92
370
    13
100
AcDbCircle
 10
-79.290770064898
 20
-958.3392160589078
 30
0.0
 40
1.5
100
AcDbArc
 50
270.0
 51
0.0
  0
LINE
  5
110
330
1F
100
AcDbEntity
  8
0-1
  6
Continuous
 62
    92
370
    13
100
AcDbLine
 10
-91.2907700648939
 20
-959.8392160589082
 30
0.0
 11
-79.290770064898
 21
-959.8392160589082
 31
0.0
  0
ARC
  5
111
330
1F
100
AcDbEntity
  8
0-1
  6
Continuous
 62
    92
370
    13
100
AcDbCircle
 10
-91.2907700648939
 20
-958.3392160589078
 30
0.0
 40
1.5
100
AcDbArc
 50
180.0
 51
270.0
  0
ARC
  5
112
330
1F
100
AcDbEntity
  8
0-1
  6
Continuous
 62
     7
370
     9
100
AcDbCircle
 10
-77.79077006489425
 20
-955.3392160589071
 30
0.0
 40
1.5
100
AcDbArc
 50
270.0
 51
0.0
  0
ARC
  5
113
330
1F
100
AcDbEntity
  8
0-1
  6
Continuous
 62
     7
370
     9
100
AcDbCircle
 10
-92.79077006489425
 20
-955.3392160589071
 30
0.0
 40
1.5
100
AcDbArc
 50
180.0
 51
270.0
  0
ARC
  5
114
330
1F
100
AcDbEntity
  8
0-1
  6
Continuous
 62
     7
370
     9
100
AcDbCircle
 10
-92.79077006489425
 20
578.411059574034
 30
0.0
 40
1.5
100
AcDbArc
 50
180.0
 51
270.0
  0
LINE
  5
115
330
1F
100
AcDbEntity
  8
0-1
  6
Continuous
 62
     7
370
     9
100
AcDbLine
 10
-94.29077006489288
 20
578.411059574034
 30
0.0
 11
-94.29077006489288
 21
605.4110595740342
 31
0.0
  0
ARC
  5
116
330
1F
100
AcDbEntity
  8
0-1
  6
Continuous
 62
     7
370
     9
100
AcDbCircle
 10
-77.79077006489425
 20
578.411059574034
 30
0.0
 40
1.5
100
AcDbArc
 50
270.0
 51
0.0
  0
LINE
  5
117
330
1F
100
AcDbEntity
  8
0-1
  6
Continuous
 62
     7
370
     9
100
AcDbLine
 10
-76.2907700648922
 20
578.411059574034
 30
0.0
 11
-76.2907700648922
 21
605.4110595740342
 31
0.0
  0
ARC
  5
118
330
1F
100
AcDbEntity
  8
0-1
  6
Continuous
 62
     7
370
     9
100
AcDbCircle
 10
-77.79077006489425
 20
605.4110595740342
 30
0.0
 40
1.5
100
AcDbArc
 50
0.0
 51
90.00000000000001
  0
ARC
  5
119
330
1F
100
AcDbEntity
  8
0-1
  6
Continuous
 62
     7
370
     9
100
AcDbCircle
 10
-92.79077006489425
 20
605.4110595740342
 30
0.0
 40
1.5
100
AcDbArc
 50
90.0
 51
180.0
  0
ARC
  5
11A
330
1F
100
AcDbEntity
  8
0-1
  6
Continuous
 62
     7
370
     9
100
AcDbCircle
 10
-92.79077006489425
 20
743.4110595740335
 30
0.0
 40
1.5
100
AcDbArc
 50
180.0
 51
270.0
  0
LINE
  5
11B
330
1F
100
AcDbEntity
  8
0-1
  6
Continuous
 62
     7
370
     9
100
AcDbLine
 10
-94.29077006489288
 20
743.4110595740335
 30
0.0
 11
-94.29077006489288
 21
770.4110595740333
 31
0.0
  0
ARC
  5
11C
330
1F
100
AcDbEntity
  8
0-1
  6
Continuous
 62
     7
370
     9
100
AcDbCircle
 10
-77.79077006489425
 20
743.4110595740335
 30
0.0
 40
1.5
100
AcDbArc
 50
270.0
 51
0.0
  0
LINE
  5
11D
330
1F
100
AcDbEntity
  8
0-1
  6
Continuous
 62
     7
370
     9
100
AcDbLine
 10
-76.2907700648922
 20
743.4110595740335
 30
0.0
 11
-76.2907700648922
 21
770.4110595740333
 31
0.0
  0
ARC
  5
11E
330
1F
100
AcDbEntity
  8
0-1
  6
Continuous
 62
     7
370
     9
100
AcDbCircle
 10
-77.79077006489425
 20
770.4110595740333
 30
0.0
 40
1.5
100
AcDbArc
 50
0.0
 51
90.00000000000001
  0
ARC
  5
11F
330
1F
100
AcDbEntity
  8
0-1
  6
Continuous
 62
     7
370
     9
100
AcDbCircle
 10
-92.79077006489425
 20
770.4110595740333
 30
0.0
 40
1.5
100
AcDbArc
 50
90.0
 51
180.0
  0
ARC
  5
120
330
1F
100
AcDbEntity
  8
0-1
  6
Continuous
 62
    92
370
    13
100
AcDbCircle
 10
-91.2907700648922
 20
575.4110595740333
 30
0.0
 40
1.5
100
AcDbArc
 50
180.0
 51
270.0
  0
LINE
  5
121
330
1F
100
AcDbEntity
  8
0-1
  6
Continuous
 62
    92
370
    13
100
AcDbLine
 10
-92.79077006489425
 20
575.4110595740333
 30
0.0
 11
-92.79077006489425
 21
773.411059574034
 31
0.0
  0
LINE
  5
122
330
1F
100
AcDbEntity
  8
0-1
  6
Continuous
 62
    92
370
    13
100
AcDbLine
 10
-91.2907700648922
 20
573.9110595740339
 30
0.0
 11
-79.2907700648963
 21
573.9110595740339
 31
0.0
  0
ARC
  5
123
330
1F
100
AcDbEntity
  8
0-1
  6
Continuous
 62
    92
370
    13
100
AcDbCircle
 10
-79.2907700648963
 20
575.4110595740333
 30
0.0
 40
1.5
100
AcDbArc
 50
270.0
 51
0.0
  0
LINE
  5
124
330
1F
100
AcDbEntity
  8
0-1
  6
Continuous
 62
    92
370
    13
100
AcDbLine
 10
-77.79077006489425
 20
575.4110595740333
 30
0.0
 11
-77.79077006489425
 21
773.411059574034
 31
0.0
  0
ARC
  5
125
330
1F
100
AcDbEntity
  8
0-1
  6
Continuous
 62
    92
370
    13
100
AcDbCircle
 10
-79.2907700648963
 20
773.411059574034
 30
0.0
 40
1.5
100
AcDbArc
 50
0.0
 51
90.00000000000001
  0
LINE
  5
126
330
1F
100
AcDbEntity
  8
0-1
  6
Continuous
 62
    92
370
    13
100
AcDbLine
 10
-79.2907700648963
 20
774.911059574034
 30
0.0
 11
-91.2907700648922
 21
774.911059574034
 31
0.0
  0
ARC
  5
127
330
1F
100
AcDbEntity
  8
0-1
  6
Continuous
 62
    92
370
    13
100
AcDbCircle
 10
-91.2907700648922
 20
773.411059574034
 30
0.0
 40
1.5
100
AcDbArc
 50
90.0
 51
180.0
  0
LINE
  5
128
330
1F
100
AcDbEntity
  8
0-1
  6
Continuous
 62
    92
370
    13
100
AcDbLine
 10
125.4592299351085
 20
-728.0891566733545
 30
0.0
 11
716.4592299351082
 21
-728.0891566733545
 31
0.0
  0
LINE
  5
129
330
1F
100
AcDbEntity
  8
0-1
  6
Continuous
 62
    92
370
    13
100
AcDbLine
 10
125.4592299351085
 20
-728.0891566733545
 30
0.0
 11
125.4592299351085
 21
-1860.588940428624
 31
0.0
  0
LINE
  5
12A
330
1F
100
AcDbEntity
  8
0-1
  6
Continuous
 62
    92
370
    13
100
AcDbLine
 10
716.4592299351082
 20
-728.0891566733545
 30
0.0
 11
716.4592299351082
 21
-1860.588940428624
 31
0.0
  0
LINE
  5
12B
330
1F
100
AcDbEntity
  8
0-1
  6
Continuous
 62
    92
370
    13
100
AcDbLine
 10
125.4592299351085
 20
-1860.588940428624
 30
0.0
 11
716.4592299351082
 21
-1860.588940428624
 31
0.0
  0
LINE
  5
12C
330
1F
100
AcDbEntity
  8
0-1
  6
Continuous
 62
    92
370
    13
100
AcDbLine
 10
228.9592299351098
 20
-1716.588940428625
 30
0.0
 11
210.9592299351092
 21
-1734.588940428625
 31
0.0
  0
LINE
  5
12D
330
1F
100
AcDbEntity
  8
0-1
  6
Continuous
 62
    92
370
    13
100
AcDbLine
 10
237.0142299351104
 20
-1708.533940428625
 30
0.0
 11
251.4592299351098
 21
-1694.088940428624
 31
0.0
  0
LINE
  5
12E
330
1F
100
AcDbEntity
  8
0-1
  6
Continuous
 62
    92
370
    13
100
AcDbLine
 10
612.9592299351102
 20
-1716.588940428625
 30
0.0
 11
630.9592299351092
 21
-1734.588940428625
 31
0.0
  0
LINE
  5
12F
330
1F
100
AcDbEntity
  8
0-1
  6
Continuous
 62
    92
370
    13
100
AcDbLine
 10
590.4592299351085
 20
-1694.088940428624
 30
0.0
 11
604.9042299351097
 21
-1708.533940428625
 31
0.0
  0
LINE
  5
130
330
1F
100
AcDbEntity
  8
0-1
  6
Continuous
 62
    92
370
    13
100
AcDbLine
 10
630.9592299351092
 20
-1734.588940428625
 30
0.0
 11
210.9592299351092
 21
-1734.588940428625
 31
0.0
  0
LINE
  5
131
330
1F
100
AcDbEntity
  8
0-1
  6
Continuous
 62
    92
370
    13
100
AcDbLine
 10
612.9592299351085
 20
-1716.588940428624
 30
0.0
 11
228.9592299351098
 21
-1716.588940428624
 31
0.0
  0
LINE
  5
132
330
1F
100
AcDbEntity
  8
0-1
  6
Continuous
 62
    92
370
    13
100
AcDbLine
 10
590.4592299351085
 20
-1694.088940428624
 30
0.0
 11
251.4592299351098
 21
-1694.088940428624
 31
0.0
  0
LINE
  5
133
330
1F
100
AcDbEntity
  8
0-1
  6
Continuous
 62
    92
370
    13
100
AcDbLine
 10
210.9592299351092
 20
-854.0891566733534
 30
0.0
 11
228.9592299351098
 21
-872.0891566733541
 31
0.0
  0
LINE
  5
134
330
1F
100
AcDbEntity
  8
0-1
  6
Continuous
 62
    92
370
    13
100
AcDbLine
 10
237.0142299351104
 20
-880.6391566733531
 30
0.0
 11
251.4592299351098
 21
-894.5891566733541
 31
0.0
  0
LINE
  5
135
330
1F
100
AcDbEntity
  8
0-1
  6
Continuous
 62
    92
370
    13
100
AcDbLine
 10
251.4592299351098
 20
-1694.088940428624
 30
0.0
 11
251.4592299351098
 21
-894.5891566733541
 31
0.0
  0
LINE
  5
136
330
1F
100
AcDbEntity
  8
0-1
  6
Continuous
 62
    92
370
    13
100
AcDbLine
 10
228.9592299351098
 20
-1716.588940428624
 30
0.0
 11
228.9592299351098
 21
-872.0891566733541
 31
0.0
  0
LINE
  5
137
330
1F
100
AcDbEntity
  8
0-1
  6
Continuous
 62
    92
370
    13
100
AcDbLine
 10
210.9592299351092
 20
-1860.588940428624
 30
0.0
 11
210.9592299351092
 21
-728.0891566733528
 31
0.0
  0
LINE
  5
138
330
1F
100
AcDbEntity
  8
0-1
  6
Continuous
 62
    92
370
    13
100
AcDbLine
 10
590.4592299351085
 20
-894.5891566733541
 30
0.0
 11
604.9042299351097
 21
-880.6391566733531
 31
0.0
  0
LINE
  5
139
330
1F
100
AcDbEntity
  8
0-1
  6
Continuous
 62
    92
370
    13
100
AcDbLine
 10
590.4592299351085
 20
-1694.088940428624
 30
0.0
 11
590.4592299351085
 21
-894.5891566733541
 31
0.0
  0
LINE
  5
13A
330
1F
100
AcDbEntity
  8
0-1
  6
Continuous
 62
    92
370
    13
100
AcDbLine
 10
630.9592299351092
 20
-1860.588940428624
 30
0.0
 11
630.9592299351092
 21
-728.0891566733528
 31
0.0
  0
LINE
  5
13B
330
1F
100
AcDbEntity
  8
0-1
  6
Continuous
 62
    92
370
    13
100
AcDbLine
 10
590.4592299351085
 20
-894.5891566733541
 30
0.0
 11
251.4592299351098
 21
-894.5891566733541
 31
0.0
  0
LINE
  5
13C
330
1F
100
AcDbEntity
  8
0-1
  6
Continuous
 62
    92
370
    13
100
AcDbLine
 10
630.9592299351092
 20
-854.0891566733534
 30
0.0
 11
210.9592299351092
 21
-854.0891566733534
 31
0.0
  0
LINE
  5
13D
330
1F
100
AcDbEntity
  8
0-1
  6
Continuous
 62
    92
370
    13
100
AcDbLine
 10
612.9592299351085
 20
-872.0891566733541
 30
0.0
 11
630.9592299351092
 21
-854.0891566733534
 31
0.0
  0
LINE
  5
13E
330
1F
100
AcDbEntity
  8
0-1
  6
Continuous
 62
    92
370
    13
100
AcDbLine
 10
612.9592299351085
 20
-872.0891566733541
 30
0.0
 11
228.9592299351098
 21
-872.0891566733541
 31
0.0
  0
LINE
  5
13F
330
1F
100
AcDbEntity
  8
0-1
  6
Continuous
 62
    92
370
    13
100
AcDbLine
 10
612.9592299351085
 20
-1716.588940428624
 30
0.0
 11
612.9592299351085
 21
-872.0891566733541
 31
0.0
  0
LINE
  5
140
330
1F
100
AcDbEntity
  8
0-1
  6
JWW_CENTER1
 62
     7
370
     9
100
AcDbLine
 10
716.4592299351099
 20
-1294.339048550989
 30
0.0
 11
125.4592299351085
 21
-1860.588940428624
 31
0.0
  0
LINE
  5
141
330
1F
100
AcDbEntity
  8
0-1
  6
JWW_CENTER1
 62
     7
370
     9
100
AcDbLine
 10
125.4592299351085
 20
-728.0891566733528
 30
0.0
 11
716.4592299351099
 21
-1294.339048550989
 31
0.0
  0
LINE
  5
142
330
1F
100
AcDbEntity
  8
0-1
  6
Continuous
 62
    92
370
    13
100
AcDbLine
 10
716.4592299351082
 20
539.4110595713794
 30
0.0
 11
716.4592299351082
 21
1383.911059571379
 31
0.0
  0
LINE
  5
143
330
1F
100
AcDbEntity
  8
0-1
  6
Continuous
 62
    92
370
    13
100
AcDbLine
 10
125.4592299351068
 20
1383.911059571379
 30
0.0
 11
716.4592299351082
 21
1383.911059571379
 31
0.0
  0
LINE
  5
144
330
1F
100
AcDbEntity
  8
0-1
  6
Continuous
 62
    92
370
    13
100
AcDbLine
 10
125.4592299351068
 20
539.4110595713794
 30
0.0
 11
716.4592299351082
 21
539.4110595713794
 31
0.0
  0
LINE
  5
145
330
1F
100
AcDbEntity
  8
0-1
  6
Continuous
 62
    92
370
    13
100
AcDbLine
 10
125.4592299351068
 20
1383.911059571379
 30
0.0
 11
125.4592299351068
 21
539.4110595713794
 31
0.0
  0
LINE
  5
146
330
1F
100
AcDbEntity
  8
0-1
  6
JWW_CENTER1
 62
     7
370
     9
100
AcDbLine
 10
125.4592299351068
 20
1383.91105957138
 30
0.0
 11
716.4592299351082
 21
961.6610595713805
 31
0.0
  0
LINE
  5
147
330
1F
100
AcDbEntity
  8
0-1
  6
JWW_CENTER1
 62
     7
370
     9
100
AcDbLine
 10
716.4592299351082
 20
961.6610595713805
 30
0.0
 11
125.4592299351068
 21
539.4110595713751
 31
0.0
  0
LINE
  5
148
330
1F
100
AcDbEntity
  8
0-1
  6
Continuous
 62
    92
370
    13
100
AcDbLine
 10
630.9592299351092
 20
1257.911059571379
 30
0.0
 11
612.9592299351085
 21
1239.911059571379
 31
0.0
  0
LINE
  5
149
330
1F
100
AcDbEntity
  8
0-1
  6
Continuous
 62
    92
370
    13
100
AcDbLine
 10
604.904229935108
 20
1231.36105957138
 30
0.0
 11
590.4592299351085
 21
1217.411059571379
 31
0.0
  0
LINE
  5
14A
330
1F
100
AcDbEntity
  8
0-1
  6
Continuous
 62
    92
370
    13
100
AcDbLine
 10
251.4592299351098
 20
1217.411059571379
 30
0.0
 11
237.0142299351087
 21
1231.36105957138
 31
0.0
  0
LINE
  5
14B
330
1F
100
AcDbEntity
  8
0-1
  6
Continuous
 62
    92
370
    13
100
AcDbLine
 10
251.4592299351098
 20
1217.411059571379
 30
0.0
 11
590.4592299351085
 21
1217.411059571379
 31
0.0
  0
LINE
  5
14C
330
1F
100
AcDbEntity
  8
0-1
  6
Continuous
 62
    92
370
    13
100
AcDbLine
 10
210.9592299351092
 20
1257.911059571379
 30
0.0
 11
630.9592299351092
 21
1257.911059571379
 31
0.0
  0
LINE
  5
14D
330
1F
100
AcDbEntity
  8
0-1
  6
Continuous
 62
    92
370
    13
100
AcDbLine
 10
228.9592299351098
 20
1239.911059571379
 30
0.0
 11
210.9592299351092
 21
1257.911059571379
 31
0.0
  0
LINE
  5
14E
330
1F
100
AcDbEntity
  8
0-1
  6
Continuous
 62
    92
370
    13
100
AcDbLine
 10
228.9592299351098
 20
1239.911059571379
 30
0.0
 11
612.9592299351085
 21
1239.911059571379
 31
0.0
  0
LINE
  5
14F
330
1F
100
AcDbEntity
  8
0-1
  6
Continuous
 62
    92
370
    13
100
AcDbLine
 10
612.9592299351085
 20
683.4110595713737
 30
0.0
 11
630.9592299351092
 21
665.411059571376
 31
0.0
  0
LINE
  5
150
330
1F
100
AcDbEntity
  8
0-1
  6
Continuous
 62
    92
370
    13
100
AcDbLine
 10
604.904229935108
 20
691.4660595713751
 30
0.0
 11
590.4592299351085
 21
705.9110595713767
 31
0.0
  0
LINE
  5
151
330
1F
100
AcDbEntity
  8
0-1
  6
Continuous
 62
    92
370
    13
100
AcDbLine
 10
228.9592299351081
 20
683.4110595713737
 30
0.0
 11
210.9592299351092
 21
665.411059571376
 31
0.0
  0
LINE
  5
152
330
1F
100
AcDbEntity
  8
0-1
  6
Continuous
 62
    92
370
    13
100
AcDbLine
 10
251.4592299351098
 20
705.9110595713767
 30
0.0
 11
237.0142299351087
 21
691.4660595713751
 31
0.0
  0
LINE
  5
153
330
1F
100
AcDbEntity
  8
0-1
  6
Continuous
 62
    92
370
    13
100
AcDbLine
 10
210.9592299351092
 20
665.411059571376
 30
0.0
 11
630.9592299351092
 21
665.411059571376
 31
0.0
  0
LINE
  5
154
330
1F
100
AcDbEntity
  8
0-1
  6
Continuous
 62
    92
370
    13
100
AcDbLine
 10
228.9592299351098
 20
683.4110595713767
 30
0.0
 11
612.9592299351085
 21
683.4110595713767
 31
0.0
  0
LINE
  5
155
330
1F
100
AcDbEntity
  8
0-1
  6
Continuous
 62
    92
370
    13
100
AcDbLine
 10
251.4592299351098
 20
705.9110595713767
 30
0.0
 11
590.4592299351085
 21
705.9110595713767
 31
0.0
  0
LINE
  5
156
330
1F
100
AcDbEntity
  8
0-1
  6
Continuous
 62
    92
370
    13
100
AcDbLine
 10
590.4592299351085
 20
705.9110595713767
 30
0.0
 11
590.4592299351085
 21
1217.411059571379
 31
0.0
  0
LINE
  5
157
330
1F
100
AcDbEntity
  8
0-1
  6
Continuous
 62
    92
370
    13
100
AcDbLine
 10
612.9592299351085
 20
683.4110595713767
 30
0.0
 11
612.9592299351085
 21
1239.911059571379
 31
0.0
  0
LINE
  5
158
330
1F
100
AcDbEntity
  8
0-1
  6
Continuous
 62
    92
370
    13
100
AcDbLine
 10
630.9592299351092
 20
539.4110595713751
 30
0.0
 11
630.9592299351092
 21
1383.91105957138
 31
0.0
  0
LINE
  5
159
330
1F
100
AcDbEntity
  8
0-1
  6
Continuous
 62
    92
370
    13
100
AcDbLine
 10
251.4592299351098
 20
705.9110595713767
 30
0.0
 11
251.4592299351098
 21
1217.411059571379
 31
0.0
  0
LINE
  5
15A
330
1F
100
AcDbEntity
  8
0-1
  6
Continuous
 62
    92
370
    13
100
AcDbLine
 10
210.9592299351092
 20
539.4110595713751
 30
0.0
 11
210.9592299351092
 21
1383.91105957138
 31
0.0
  0
LINE
  5
15B
330
1F
100
AcDbEntity
  8
0-1
  6
Continuous
 62
    92
370
    13
100
AcDbLine
 10
228.9592299351098
 20
683.4110595713767
 30
0.0
 11
228.9592299351098
 21
1239.911059571379
 31
0.0
  0
MTEXT
  5
15C
330
1F
100
AcDbEntity
  8
0-1
  6
Continuous
 62
     7
370
   211
100
AcDbMText
 10
218.4592299351075
 20
-494.2991566733548
 30
0.0
 40
68.58000000000001
 41
405.0000000000001
 46
0.0
 71
     7
 72
     1
  1
{\fＭＳ ゴシック|b0|i0|c128|p49;ＤＷ＝394}
 73
     1
 44
1.0
  0
LINE
  5
15D
330
1F
100
AcDbEntity
  8
0-1
  6
Continuous
 62
   120
370
     5
100
AcDbLine
 10
125.4592299351102
 20
-498.5891566733548
 30
0.0
 11
125.4592299351102
 21
-648.5891566733549
 31
0.0
  0
LWPOLYLINE
  5
15E
330
1F
100
AcDbEntity
  8
0-1
  6
Continuous
 62
     7
370
     9
100
AcDbPolyline
 90
        4
 70
     1
 43
3.0
 10
126.9592299351102
 20
-498.5891566733548
 42
0.4142135623731
 10
125.4592299351102
 20
-497.0891566733548
 42
0.4142135623731
 10
123.9592299351102
 20
-498.5891566733548
 42
0.4142135623731
 10
125.4592299351102
 20
-500.0891566733548
 42
0.4142135623731
  0
LINE
  5
15F
330
1F
100
AcDbEntity
  8
0-1
  6
Continuous
 62
   120
370
     5
100
AcDbLine
 10
716.4592299351082
 20
-498.5891566733548
 30
0.0
 11
125.4592299351102
 21
-498.5891566733548
 31
0.0
  0
LINE
  5
160
330
1F
100
AcDbEntity
  8
0-1
  6
Continuous
 62
   120
370
     5
100
AcDbLine
 10
716.4592299351082
 20
-498.5891566733548
 30
0.0
 11
716.4592299351082
 21
-648.5891566733549
 31
0.0
  0
LWPOLYLINE
  5
161
330
1F
100
AcDbEntity
  8
0-1
  6
Continuous
 62
     7
370
     9
100
AcDbPolyline
 90
        4
 70
     1
 43
3.0
 10
717.9592299351082
 20
-498.5891566733548
 42
0.4142135623731
 10
716.4592299351082
 20
-497.0891566733548
 42
0.4142135623731
 10
714.9592299351082
 20
-498.5891566733548
 42
0.4142135623731
 10
716.4592299351082
 20
-500.0891566733548
 42
0.4142135623731
  0
MTEXT
  5
162
330
1F
100
AcDbEntity
  8
0-1
  6
Continuous
 62
     7
370
   211
100
AcDbMText
 10
218.4592299351075
 20
1617.701059571379
 30
0.0
 40
68.58000000000001
 41
405.0000000000001
 46
0.0
 71
     7
 72
     1
  1
{\fＭＳ ゴシック|b0|i0|c128|p49;ＤＷ＝394}
 73
     1
 44
1.0
  0
LINE
  5
163
330
1F
100
AcDbEntity
  8
0-1
  6
Continuous
 62
   120
370
     5
100
AcDbLine
 10
716.4592299351082
 20
1613.411059571379
 30
0.0
 11
716.4592299351082
 21
1463.411059571379
 31
0.0
  0
LWPOLYLINE
  5
164
330
1F
100
AcDbEntity
  8
0-1
  6
Continuous
 62
     7
370
     9
100
AcDbPolyline
 90
        4
 70
     1
 43
3.0
 10
717.9592299351082
 20
1613.411059571379
 42
0.4142135623731
 10
716.4592299351082
 20
1614.911059571379
 42
0.4142135623731
 10
714.9592299351082
 20
1613.411059571379
 42
0.4142135623731
 10
716.4592299351082
 20
1611.911059571379
 42
0.4142135623731
  0
LINE
  5
165
330
1F
100
AcDbEntity
  8
0-1
  6
Continuous
 62
   120
370
     5
100
AcDbLine
 10
125.4592299351068
 20
1613.411059571379
 30
0.0
 11
716.4592299351082
 21
1613.411059571379
 31
0.0
  0
LINE
  5
166
330
1F
100
AcDbEntity
  8
0-1
  6
Continuous
 62
   120
370
     5
100
AcDbLine
 10
125.4592299351068
 20
1613.411059571379
 30
0.0
 11
125.4592299351068
 21
1463.411059571379
 31
0.0
  0
LWPOLYLINE
  5
167
330
1F
100
AcDbEntity
  8
0-1
  6
Continuous
 62
     7
370
     9
100
AcDbPolyline
 90
        4
 70
     1
 43
3.0
 10
126.9592299351068
 20
1613.411059571379
 42
0.4142135623731
 10
125.4592299351068
 20
1614.911059571379
 42
0.4142135623731
 10
123.9592299351068
 20
1613.411059571379
 42
0.4142135623731
 10
125.4592299351068
 20
1611.911059571379
 42
0.4142135623731
  0
ARC
  5
168
330
1F
100
AcDbEntity
  8
0-1
  6
Continuous
 62
    92
370
    13
100
AcDbCircle
 10
192.2092299351092
 20
-764.0891863661328
 30
0.0
 40
1.5
100
AcDbArc
 50
0.0
 51
90.0
  0
LINE
  5
169
330
1F
100
AcDbEntity
  8
0-1
  6
Continuous
 62
    92
370
    13
100
AcDbLine
 10
180.2092299351133
 20
-762.5891863661325
 30
0.0
 11
192.2092299351092
 21
-762.5891863661325
 31
0.0
  0
ARC
  5
16A
330
1F
100
AcDbEntity
  8
0-1
  6
Continuous
 62
    92
370
    13
100
AcDbCircle
 10
180.2092299351133
 20
-764.0891863661328
 30
0.0
 40
1.5
100
AcDbArc
 50
89.99999999999999
 51
180.0
  0
LINE
  5
16B
330
1F
100
AcDbEntity
  8
0-1
  6
Continuous
 62
    92
370
    13
100
AcDbLine
 10
178.7092299351095
 20
-958.3392160589112
 30
0.0
 11
178.7092299351095
 21
-764.0891863661328
 31
0.0
  0
LINE
  5
16C
330
1F
100
AcDbEntity
  8
0-1
  6
Continuous
 62
    92
370
    13
100
AcDbLine
 10
193.7092299351095
 20
-958.3392160589112
 30
0.0
 11
193.7092299351095
 21
-764.0891863661328
 31
0.0
  0
ARC
  5
16D
330
1F
100
AcDbEntity
  8
0-1
  6
Continuous
 62
     7
370
     9
100
AcDbCircle
 10
193.7092299351095
 20
-767.0891863661335
 30
0.0
 40
1.5
100
AcDbArc
 50
0.0
 51
90.0
  0
ARC
  5
16E
330
1F
100
AcDbEntity
  8
0-1
  6
Continuous
 62
     7
370
     9
100
AcDbCircle
 10
178.7092299351095
 20
-767.0891863661335
 30
0.0
 40
1.5
100
AcDbArc
 50
89.99999999999999
 51
180.0
  0
LINE
  5
16F
330
1F
100
AcDbEntity
  8
0-1
  6
Continuous
 62
     7
370
     9
100
AcDbLine
 10
177.2092299351092
 20
-794.0891863661328
 30
0.0
 11
177.2092299351092
 21
-767.0891863661335
 31
0.0
  0
ARC
  5
170
330
1F
100
AcDbEntity
  8
0-1
  6
Continuous
 62
     7
370
     9
100
AcDbCircle
 10
178.7092299351095
 20
-794.0891863661328
 30
0.0
 40
1.5
100
AcDbArc
 50
180.0
 51
270.0
  0
LINE
  5
171
330
1F
100
AcDbEntity
  8
0-1
  6
Continuous
 62
     7
370
     9
100
AcDbLine
 10
195.2092299351081
 20
-794.0891863661328
 30
0.0
 11
195.2092299351081
 21
-767.0891863661335
 31
0.0
  0
ARC
  5
172
330
1F
100
AcDbEntity
  8
0-1
  6
Continuous
 62
     7
370
     9
100
AcDbCircle
 10
193.7092299351095
 20
-794.0891863661328
 30
0.0
 40
1.5
100
AcDbArc
 50
270.0
 51
0.0
  0
ARC
  5
173
330
1F
100
AcDbEntity
  8
0-1
  6
Continuous
 62
     7
370
     9
100
AcDbCircle
 10
193.7092299351095
 20
-932.0891863661326
 30
0.0
 40
1.5
100
AcDbArc
 50
0.0
 51
90.0
  0
ARC
  5
174
330
1F
100
AcDbEntity
  8
0-1
  6
Continuous
 62
     7
370
     9
100
AcDbCircle
 10
178.7092299351095
 20
-932.0891863661326
 30
0.0
 40
1.5
100
AcDbArc
 50
89.99999999999999
 51
180.0
  0
LINE
  5
175
330
1F
100
AcDbEntity
  8
0-1
  6
Continuous
 62
     7
370
     9
100
AcDbLine
 10
177.2092299351092
 20
-955.3392160589106
 30
0.0
 11
177.2092299351092
 21
-932.0891863661326
 31
0.0
  0
LINE
  5
176
330
1F
100
AcDbEntity
  8
0-1
  6
Continuous
 62
     7
370
     9
100
AcDbLine
 10
195.2092299351081
 20
-955.3392160589106
 30
0.0
 11
195.2092299351081
 21
-932.0891863661326
 31
0.0
  0
ARC
  5
177
330
1F
100
AcDbEntity
  8
0-1
  6
Continuous
 62
    92
370
    13
100
AcDbCircle
 10
180.2092299351133
 20
-958.3392160589112
 30
0.0
 40
1.5
100
AcDbArc
 50
180.0
 51
270.0
  0
LINE
  5
178
330
1F
100
AcDbEntity
  8
0-1
  6
Continuous
 62
    92
370
    13
100
AcDbLine
 10
192.2092299351092
 20
-959.8392160589116
 30
0.0
 11
180.2092299351133
 21
-959.8392160589116
 31
0.0
  0
ARC
  5
179
330
1F
100
AcDbEntity
  8
0-1
  6
Continuous
 62
    92
370
    13
100
AcDbCircle
 10
192.2092299351092
 20
-958.3392160589112
 30
0.0
 40
1.5
100
AcDbArc
 50
270.0
 51
0.0
  0
ARC
  5
17A
330
1F
100
AcDbEntity
  8
0-1
  6
Continuous
 62
     7
370
     9
100
AcDbCircle
 10
178.7092299351095
 20
-955.3392160589106
 30
0.0
 40
1.5
100
AcDbArc
 50
180.0
 51
270.0
  0
ARC
  5
17B
330
1F
100
AcDbEntity
  8
0-1
  6
Continuous
 62
     7
370
     9
100
AcDbCircle
 10
193.7092299351095
 20
-955.3392160589106
 30
0.0
 40
1.5
100
AcDbArc
 50
270.0
 51
0.0
  0
ARC
  5
17C
330
1F
100
AcDbEntity
  8
0-1
  6
Continuous
 62
     7
370
     9
100
AcDbCircle
 10
178.7092299351061
 20
578.4110595740306
 30
0.0
 40
1.5
100
AcDbArc
 50
180.0
 51
270.0
  0
LINE
  5
17D
330
1F
100
AcDbEntity
  8
0-1
  6
Continuous
 62
     7
370
     9
100
AcDbLine
 10
177.2092299351075
 20
578.4110595740306
 30
0.0
 11
177.2092299351075
 21
605.4110595740308
 31
0.0
  0
ARC
  5
17E
330
1F
100
AcDbEntity
  8
0-1
  6
Continuous
 62
     7
370
     9
100
AcDbCircle
 10
193.7092299351061
 20
578.4110595740306
 30
0.0
 40
1.5
100
AcDbArc
 50
270.0
 51
0.0
  0
LINE
  5
17F
330
1F
100
AcDbEntity
  8
0-1
  6
Continuous
 62
     7
370
     9
100
AcDbLine
 10
195.2092299351081
 20
578.4110595740306
 30
0.0
 11
195.2092299351081
 21
605.4110595740308
 31
0.0
  0
ARC
  5
180
330
1F
100
AcDbEntity
  8
0-1
  6
Continuous
 62
     7
370
     9
100
AcDbCircle
 10
193.7092299351061
 20
605.4110595740308
 30
0.0
 40
1.5
100
AcDbArc
 50
0.0
 51
90.00000000000001
  0
ARC
  5
181
330
1F
100
AcDbEntity
  8
0-1
  6
Continuous
 62
     7
370
     9
100
AcDbCircle
 10
178.7092299351061
 20
605.4110595740308
 30
0.0
 40
1.5
100
AcDbArc
 50
90.0
 51
180.0
  0
ARC
  5
182
330
1F
100
AcDbEntity
  8
0-1
  6
Continuous
 62
     7
370
     9
100
AcDbCircle
 10
178.7092299351061
 20
743.4110595740301
 30
0.0
 40
1.5
100
AcDbArc
 50
180.0
 51
270.0
  0
LINE
  5
183
330
1F
100
AcDbEntity
  8
0-1
  6
Continuous
 62
     7
370
     9
100
AcDbLine
 10
177.2092299351075
 20
743.4110595740301
 30
0.0
 11
177.2092299351075
 21
770.4110595740299
 31
0.0
  0
ARC
  5
184
330
1F
100
AcDbEntity
  8
0-1
  6
Continuous
 62
     7
370
     9
100
AcDbCircle
 10
193.7092299351061
 20
743.4110595740301
 30
0.0
 40
1.5
100
AcDbArc
 50
270.0
 51
0.0
  0
LINE
  5
185
330
1F
100
AcDbEntity
  8
0-1
  6
Continuous
 62
     7
370
     9
100
AcDbLine
 10
195.2092299351081
 20
743.4110595740301
 30
0.0
 11
195.2092299351081
 21
770.4110595740299
 31
0.0
  0
ARC
  5
186
330
1F
100
AcDbEntity
  8
0-1
  6
Continuous
 62
     7
370
     9
100
AcDbCircle
 10
193.7092299351061
 20
770.4110595740299
 30
0.0
 40
1.5
100
AcDbArc
 50
0.0
 51
90.00000000000001
  0
ARC
  5
187
330
1F
100
AcDbEntity
  8
0-1
  6
Continuous
 62
     7
370
     9
100
AcDbCircle
 10
178.7092299351061
 20
770.4110595740299
 30
0.0
 40
1.5
100
AcDbArc
 50
90.0
 51
180.0
  0
ARC
  5
188
330
1F
100
AcDbEntity
  8
0-1
  6
Continuous
 62
    92
370
    13
100
AcDbCircle
 10
180.2092299351081
 20
575.4110595740299
 30
0.0
 40
1.5
100
AcDbArc
 50
180.0
 51
270.0
  0
LINE
  5
189
330
1F
100
AcDbEntity
  8
0-1
  6
Continuous
 62
    92
370
    13
100
AcDbLine
 10
178.7092299351061
 20
575.4110595740299
 30
0.0
 11
178.7092299351061
 21
773.4110595740306
 31
0.0
  0
LINE
  5
18A
330
1F
100
AcDbEntity
  8
0-1
  6
Continuous
 62
    92
370
    13
100
AcDbLine
 10
180.2092299351081
 20
573.9110595740304
 30
0.0
 11
192.2092299351075
 21
573.9110595740304
 31
0.0
  0
ARC
  5
18B
330
1F
100
AcDbEntity
  8
0-1
  6
Continuous
 62
    92
370
    13
100
AcDbCircle
 10
192.2092299351075
 20
575.4110595740299
 30
0.0
 40
1.5
100
AcDbArc
 50
270.0
 51
0.0
  0
LINE
  5
18C
330
1F
100
AcDbEntity
  8
0-1
  6
Continuous
 62
    92
370
    13
100
AcDbLine
 10
193.7092299351061
 20
575.4110595740299
 30
0.0
 11
193.7092299351061
 21
773.4110595740306
 31
0.0
  0
ARC
  5
18D
330
1F
100
AcDbEntity
  8
0-1
  6
Continuous
 62
    92
370
    13
100
AcDbCircle
 10
192.2092299351075
 20
773.4110595740306
 30
0.0
 40
1.5
100
AcDbArc
 50
0.0
 51
90.00000000000001
  0
LINE
  5
18E
330
1F
100
AcDbEntity
  8
0-1
  6
Continuous
 62
    92
370
    13
100
AcDbLine
 10
192.2092299351075
 20
774.9110595740306
 30
0.0
 11
180.2092299351081
 21
774.9110595740306
 31
0.0
  0
ARC
  5
18F
330
1F
100
AcDbEntity
  8
0-1
  6
Continuous
 62
    92
370
    13
100
AcDbCircle
 10
180.2092299351081
 20
773.4110595740306
 30
0.0
 40
1.5
100
AcDbArc
 50
90.0
 51
180.0
  0
LINE
  5
190
330
1F
100
AcDbEntity
  8
0-1
  6
Continuous
 62
    92
370
    13
100
AcDbLine
 10
1016.459229935108
 20
1383.911059571383
 30
0.0
 11
1607.45922993511
 21
1383.911059571383
 31
0.0
  0
LINE
  5
191
330
1F
100
AcDbEntity
  8
0-1
  6
Continuous
 62
    92
370
    13
100
AcDbLine
 10
1016.459229935108
 20
-1860.58894042862
 30
0.0
 11
1607.45922993511
 21
-1860.58894042862
 31
0.0
  0
LINE
  5
192
330
1F
100
AcDbEntity
  8
0-1
  6
Continuous
 62
    92
370
    13
100
AcDbLine
 10
1607.45922993511
 20
1383.911059571383
 30
0.0
 11
1607.45922993511
 21
-1860.58894042862
 31
0.0
  0
LINE
  5
193
330
1F
100
AcDbEntity
  8
0-1
  6
Continuous
 62
    92
370
    13
100
AcDbLine
 10
1016.459229935108
 20
1383.911059571383
 30
0.0
 11
1016.459229935108
 21
-1860.58894042862
 31
0.0
  0
LINE
  5
194
330
1F
100
AcDbEntity
  8
0-1
  6
Continuous
 62
    92
370
    13
100
AcDbLine
 10
1503.95922965587
 20
-1716.588940428622
 30
0.0
 11
1503.95922965587
 21
1239.911059571379
 31
0.0
  0
LINE
  5
195
330
1F
100
AcDbEntity
  8
0-1
  6
Continuous
 62
    92
370
    13
100
AcDbLine
 10
1503.95922965587
 20
1239.911059571379
 30
0.0
 11
1119.959229655871
 21
1239.911059571379
 31
0.0
  0
LINE
  5
196
330
1F
100
AcDbEntity
  8
0-1
  6
Continuous
 62
    92
370
    13
100
AcDbLine
 10
1503.95922965587
 20
1239.911059571379
 30
0.0
 11
1521.959229655871
 21
1257.911059571379
 31
0.0
  0
LINE
  5
197
330
1F
100
AcDbEntity
  8
0-1
  6
Continuous
 62
    92
370
    13
100
AcDbLine
 10
1521.959229655871
 20
1257.911059571379
 30
0.0
 11
1101.959229655871
 21
1257.911059571379
 31
0.0
  0
LINE
  5
198
330
1F
100
AcDbEntity
  8
0-1
  6
Continuous
 62
    92
370
    13
100
AcDbLine
 10
1481.45922965587
 20
-1694.088940428622
 30
0.0
 11
1142.459229655871
 21
-1694.088940428622
 31
0.0
  0
LINE
  5
199
330
1F
100
AcDbEntity
  8
0-1
  6
Continuous
 62
    92
370
    13
100
AcDbLine
 10
1503.95922965587
 20
-1716.588940428622
 30
0.0
 11
1119.959229655871
 21
-1716.588940428622
 31
0.0
  0
LINE
  5
19A
330
1F
100
AcDbEntity
  8
0-1
  6
Continuous
 62
    92
370
    13
100
AcDbLine
 10
1521.959229655871
 20
-1734.588940428624
 30
0.0
 11
1101.959229655871
 21
-1734.588940428624
 31
0.0
  0
LINE
  5
19B
330
1F
100
AcDbEntity
  8
0-1
  6
Continuous
 62
    92
370
    13
100
AcDbLine
 10
1481.45922965587
 20
1217.411059571379
 30
0.0
 11
1142.459229655871
 21
1217.411059571379
 31
0.0
  0
LINE
  5
19C
330
1F
100
AcDbEntity
  8
0-1
  6
Continuous
 62
    92
370
    13
100
AcDbLine
 10
1521.959229655871
 20
-1860.588940428622
 30
0.0
 11
1521.959229655871
 21
1383.911059571379
 31
0.0
  0
LINE
  5
19D
330
1F
100
AcDbEntity
  8
0-1
  6
Continuous
 62
    92
370
    13
100
AcDbLine
 10
1481.45922965587
 20
-1694.088940428622
 30
0.0
 11
1481.45922965587
 21
1217.411059571379
 31
0.0
  0
LINE
  5
19E
330
1F
100
AcDbEntity
  8
0-1
  6
Continuous
 62
    92
370
    13
100
AcDbLine
 10
1481.45922965587
 20
1217.411059571379
 30
0.0
 11
1495.904229655871
 21
1231.36105957138
 31
0.0
  0
LINE
  5
19F
330
1F
100
AcDbEntity
  8
0-1
  6
Continuous
 62
    92
370
    13
100
AcDbLine
 10
1481.45922965587
 20
-1694.088940428622
 30
0.0
 11
1495.904229655871
 21
-1708.533940428623
 31
0.0
  0
LINE
  5
1A0
330
1F
100
AcDbEntity
  8
0-1
  6
Continuous
 62
    92
370
    13
100
AcDbLine
 10
1503.959229655872
 20
-1716.588940428624
 30
0.0
 11
1521.959229655871
 21
-1734.588940428624
 31
0.0
  0
LINE
  5
1A1
330
1F
100
AcDbEntity
  8
0-1
  6
Continuous
 62
    92
370
    13
100
AcDbLine
 10
1101.959229655871
 20
-1860.588940428622
 30
0.0
 11
1101.959229655871
 21
1383.911059571379
 31
0.0
  0
LINE
  5
1A2
330
1F
100
AcDbEntity
  8
0-1
  6
Continuous
 62
    92
370
    13
100
AcDbLine
 10
1119.959229655871
 20
-1716.588940428622
 30
0.0
 11
1119.959229655871
 21
1239.911059571379
 31
0.0
  0
LINE
  5
1A3
330
1F
100
AcDbEntity
  8
0-1
  6
Continuous
 62
    92
370
    13
100
AcDbLine
 10
1142.459229655871
 20
-1694.088940428622
 30
0.0
 11
1142.459229655871
 21
1217.411059571379
 31
0.0
  0
LINE
  5
1A4
330
1F
100
AcDbEntity
  8
0-1
  6
Continuous
 62
    92
370
    13
100
AcDbLine
 10
1128.014229655872
 20
1231.36105957138
 30
0.0
 11
1142.459229655871
 21
1217.411059571379
 31
0.0
  0
LINE
  5
1A5
330
1F
100
AcDbEntity
  8
0-1
  6
Continuous
 62
    92
370
    13
100
AcDbLine
 10
1101.959229655871
 20
1257.911059571379
 30
0.0
 11
1119.959229655871
 21
1239.911059571379
 31
0.0
  0
LINE
  5
1A6
330
1F
100
AcDbEntity
  8
0-1
  6
Continuous
 62
    92
370
    13
100
AcDbLine
 10
1128.014229655872
 20
-1708.533940428623
 30
0.0
 11
1142.459229655871
 21
-1694.088940428622
 31
0.0
  0
LINE
  5
1A7
330
1F
100
AcDbEntity
  8
0-1
  6
Continuous
 62
    92
370
    13
100
AcDbLine
 10
1119.959229655871
 20
-1716.588940428624
 30
0.0
 11
1101.959229655871
 21
-1734.588940428624
 31
0.0
  0
LWPOLYLINE
  5
1A8
330
1F
100
AcDbEntity
  8
0-1
  6
Continuous
 62
     7
370
     9
100
AcDbPolyline
 90
        4
 70
     1
 43
3.0
 10
1017.959229935108
 20
1613.411059571381
 42
0.4142135623731
 10
1016.459229935108
 20
1614.911059571381
 42
0.4142135623731
 10
1014.959229935108
 20
1613.411059571381
 42
0.4142135623731
 10
1016.459229935108
 20
1611.911059571381
 42
0.4142135623731
  0
LINE
  5
1A9
330
1F
100
AcDbEntity
  8
0-1
  6
Continuous
 62
   120
370
     5
100
AcDbLine
 10
1016.459229935108
 20
1613.411059571381
 30
0.0
 11
1016.459229935108
 21
1463.411059571381
 31
0.0
  0
LINE
  5
1AA
330
1F
100
AcDbEntity
  8
0-1
  6
Continuous
 62
   120
370
     5
100
AcDbLine
 10
1016.459229935108
 20
1613.411059571381
 30
0.0
 11
1607.45922993511
 21
1613.411059571381
 31
0.0
  0
LWPOLYLINE
  5
1AB
330
1F
100
AcDbEntity
  8
0-1
  6
Continuous
 62
     7
370
     9
100
AcDbPolyline
 90
        4
 70
     1
 43
3.0
 10
1608.959229935109
 20
1613.411059571381
 42
0.4142135623731
 10
1607.45922993511
 20
1614.911059571381
 42
0.4142135623731
 10
1605.95922993511
 20
1613.411059571381
 42
0.4142135623731
 10
1607.45922993511
 20
1611.911059571381
 42
0.4142135623731
  0
LINE
  5
1AC
330
1F
100
AcDbEntity
  8
0-1
  6
Continuous
 62
   120
370
     5
100
AcDbLine
 10
1607.45922993511
 20
1613.411059571381
 30
0.0
 11
1607.45922993511
 21
1463.411059571381
 31
0.0
  0
MTEXT
  5
1AD
330
1F
100
AcDbEntity
  8
0-1
  6
Continuous
 62
     7
370
   211
100
AcDbMText
 10
1109.459229935109
 20
1617.70105957138
 30
0.0
 40
68.58
 41
405.0
 46
0.0
 71
     7
 72
     1
  1
{\fＭＳ ゴシック|b0|i0|c128|p49;ＤＷ＝394}
 73
     1
 44
1.0
  0
ARC
  5
1AE
330
1F
100
AcDbEntity
  8
0-1
  6
Continuous
 62
    92
370
    13
100
AcDbCircle
 10
1540.709229935112
 20
-347.0889404286189
 30
0.0
 40
1.5
100
AcDbArc
 50
90.0
 51
180.0
  0
LINE
  5
1AF
330
1F
100
AcDbEntity
  8
0-1
  6
Continuous
 62
    92
370
    13
100
AcDbLine
 10
1552.709229935108
 20
-345.5889404286203
 30
0.0
 11
1540.709229935112
 21
-345.5889404286203
 31
0.0
  0
ARC
  5
1B0
330
1F
100
AcDbEntity
  8
0-1
  6
Continuous
 62
    92
370
    13
100
AcDbCircle
 10
1552.709229935108
 20
-347.0889404286189
 30
0.0
 40
1.5
100
AcDbArc
 50
0.0000000000000127
 51
90.00000000000001
  0
LINE
  5
1B1
330
1F
100
AcDbEntity
  8
0-1
  6
Continuous
 62
    92
370
    13
100
AcDbLine
 10
1554.209229935109
 20
-545.0889404286179
 30
0.0
 11
1554.209229935109
 21
-347.0889404286189
 31
0.0
  0
ARC
  5
1B2
330
1F
100
AcDbEntity
  8
0-1
  6
Continuous
 62
    92
370
    13
100
AcDbCircle
 10
1552.709229935108
 20
-545.0889404286179
 30
0.0
 40
1.5
100
AcDbArc
 50
270.0
 51
0.0
  0
LINE
  5
1B3
330
1F
100
AcDbEntity
  8
0-1
  6
Continuous
 62
    92
370
    13
100
AcDbLine
 10
1540.709229935112
 20
-546.588940428619
 30
0.0
 11
1552.709229935108
 21
-546.588940428619
 31
0.0
  0
LINE
  5
1B4
330
1F
100
AcDbEntity
  8
0-1
  6
Continuous
 62
    92
370
    13
100
AcDbLine
 10
1539.20922993511
 20
-545.0889404286179
 30
0.0
 11
1539.20922993511
 21
-347.0889404286189
 31
0.0
  0
ARC
  5
1B5
330
1F
100
AcDbEntity
  8
0-1
  6
Continuous
 62
    92
370
    13
100
AcDbCircle
 10
1540.709229935112
 20
-545.0889404286179
 30
0.0
 40
1.5
100
AcDbArc
 50
180.0
 51
270.0
  0
ARC
  5
1B6
330
1F
100
AcDbEntity
  8
0-1
  6
Continuous
 62
     7
370
     9
100
AcDbCircle
 10
1539.20922993511
 20
-350.0889404286179
 30
0.0
 40
1.5
100
AcDbArc
 50
90.0
 51
180.0
  0
ARC
  5
1B7
330
1F
100
AcDbEntity
  8
0-1
  6
Continuous
 62
     7
370
     9
100
AcDbCircle
 10
1554.209229935109
 20
-350.0889404286179
 30
0.0
 40
1.5
100
AcDbArc
 50
0.0000000000000127
 51
90.00000000000001
  0
LINE
  5
1B8
330
1F
100
AcDbEntity
  8
0-1
  6
Continuous
 62
     7
370
     9
100
AcDbLine
 10
1555.709229935111
 20
-377.0889404286189
 30
0.0
 11
1555.709229935111
 21
-350.0889404286179
 31
0.0
  0
ARC
  5
1B9
330
1F
100
AcDbEntity
  8
0-1
  6
Continuous
 62
     7
370
     9
100
AcDbCircle
 10
1554.209229935109
 20
-377.0889404286189
 30
0.0
 40
1.5
100
AcDbArc
 50
270.0
 51
0.0
  0
LINE
  5
1BA
330
1F
100
AcDbEntity
  8
0-1
  6
Continuous
 62
     7
370
     9
100
AcDbLine
 10
1537.709229935108
 20
-377.0889404286189
 30
0.0
 11
1537.709229935108
 21
-350.0889404286179
 31
0.0
  0
ARC
  5
1BB
330
1F
100
AcDbEntity
  8
0-1
  6
Continuous
 62
     7
370
     9
100
AcDbCircle
 10
1539.20922993511
 20
-377.0889404286189
 30
0.0
 40
1.5
100
AcDbArc
 50
180.0
 51
270.0
  0
ARC
  5
1BC
330
1F
100
AcDbEntity
  8
0-1
  6
Continuous
 62
     7
370
     9
100
AcDbCircle
 10
1539.20922993511
 20
-515.0889404286179
 30
0.0
 40
1.5
100
AcDbArc
 50
90.0
 51
180.0
  0
ARC
  5
1BD
330
1F
100
AcDbEntity
  8
0-1
  6
Continuous
 62
     7
370
     9
100
AcDbCircle
 10
1554.209229935109
 20
-515.0889404286179
 30
0.0
 40
1.5
100
AcDbArc
 50
0.0000000000000127
 51
90.00000000000001
  0
LINE
  5
1BE
330
1F
100
AcDbEntity
  8
0-1
  6
Continuous
 62
     7
370
     9
100
AcDbLine
 10
1555.709229935111
 20
-542.0889404286188
 30
0.0
 11
1555.709229935111
 21
-515.0889404286179
 31
0.0
  0
ARC
  5
1BF
330
1F
100
AcDbEntity
  8
0-1
  6
Continuous
 62
     7
370
     9
100
AcDbCircle
 10
1554.209229935109
 20
-542.0889404286188
 30
0.0
 40
1.5
100
AcDbArc
 50
270.0
 51
0.0
  0
LINE
  5
1C0
330
1F
100
AcDbEntity
  8
0-1
  6
Continuous
 62
     7
370
     9
100
AcDbLine
 10
1537.709229935108
 20
-542.0889404286188
 30
0.0
 11
1537.709229935108
 21
-515.0889404286179
 31
0.0
  0
ARC
  5
1C1
330
1F
100
AcDbEntity
  8
0-1
  6
Continuous
 62
     7
370
     9
100
AcDbCircle
 10
1539.20922993511
 20
-542.0889404286188
 30
0.0
 40
1.5
100
AcDbArc
 50
180.0
 51
270.0
  0
LINE
  5
1C2
330
1F
100
AcDbEntity
  8
0-1
  6
Continuous
 62
    92
370
    13
100
AcDbLine
 10
2348.459229935113
 20
1383.911059571379
 30
0.0
 11
1757.459229935111
 21
1383.911059571379
 31
0.0
  0
LINE
  5
1C3
330
1F
100
AcDbEntity
  8
0-1
  6
Continuous
 62
    92
370
    13
100
AcDbLine
 10
2348.459229935113
 20
-1860.588940428624
 30
0.0
 11
1757.459229935111
 21
-1860.588940428624
 31
0.0
  0
LINE
  5
1C4
330
1F
100
AcDbEntity
  8
0-1
  6
Continuous
 62
    92
370
    13
100
AcDbLine
 10
1757.459229935111
 20
1383.911059571379
 30
0.0
 11
1757.459229935111
 21
-1860.588940428624
 31
0.0
  0
LINE
  5
1C5
330
1F
100
AcDbEntity
  8
0-1
  6
Continuous
 62
    92
370
    13
100
AcDbLine
 10
2348.459229935113
 20
1383.911059571379
 30
0.0
 11
2348.459229935113
 21
-1860.588940428624
 31
0.0
  0
LINE
  5
1C6
330
1F
100
AcDbEntity
  8
0-1
  6
Continuous
 62
    92
370
    13
100
AcDbLine
 10
1860.959230214349
 20
-1716.588940428625
 30
0.0
 11
1860.959230214349
 21
1239.911059571375
 31
0.0
  0
LINE
  5
1C7
330
1F
100
AcDbEntity
  8
0-1
  6
Continuous
 62
    92
370
    13
100
AcDbLine
 10
1860.959230214349
 20
1239.911059571375
 30
0.0
 11
2244.959230214348
 21
1239.911059571375
 31
0.0
  0
LINE
  5
1C8
330
1F
100
AcDbEntity
  8
0-1
  6
Continuous
 62
    92
370
    13
100
AcDbLine
 10
1860.959230214349
 20
1239.911059571375
 30
0.0
 11
1842.959230214349
 21
1257.911059571376
 31
0.0
  0
LINE
  5
1C9
330
1F
100
AcDbEntity
  8
0-1
  6
Continuous
 62
    92
370
    13
100
AcDbLine
 10
1842.959230214349
 20
1257.911059571376
 30
0.0
 11
2262.959230214349
 21
1257.911059571376
 31
0.0
  0
LINE
  5
1CA
330
1F
100
AcDbEntity
  8
0-1
  6
Continuous
 62
    92
370
    13
100
AcDbLine
 10
1883.459230214349
 20
-1694.088940428625
 30
0.0
 11
2222.459230214348
 21
-1694.088940428625
 31
0.0
  0
LINE
  5
1CB
330
1F
100
AcDbEntity
  8
0-1
  6
Continuous
 62
    92
370
    13
100
AcDbLine
 10
1860.959230214349
 20
-1716.588940428625
 30
0.0
 11
2244.959230214348
 21
-1716.588940428625
 31
0.0
  0
LINE
  5
1CC
330
1F
100
AcDbEntity
  8
0-1
  6
Continuous
 62
    92
370
    13
100
AcDbLine
 10
1842.959230214349
 20
-1734.588940428628
 30
0.0
 11
2262.959230214349
 21
-1734.588940428628
 31
0.0
  0
LINE
  5
1CD
330
1F
100
AcDbEntity
  8
0-1
  6
Continuous
 62
    92
370
    13
100
AcDbLine
 10
1883.459230214349
 20
1217.411059571375
 30
0.0
 11
2222.459230214348
 21
1217.411059571375
 31
0.0
  0
LINE
  5
1CE
330
1F
100
AcDbEntity
  8
0-1
  6
Continuous
 62
    92
370
    13
100
AcDbLine
 10
1842.959230214349
 20
-1860.588940428626
 30
0.0
 11
1842.959230214349
 21
1383.911059571376
 31
0.0
  0
LINE
  5
1CF
330
1F
100
AcDbEntity
  8
0-1
  6
Continuous
 62
    92
370
    13
100
AcDbLine
 10
1883.459230214349
 20
-1694.088940428625
 30
0.0
 11
1883.459230214349
 21
1217.411059571375
 31
0.0
  0
LINE
  5
1D0
330
1F
100
AcDbEntity
  8
0-1
  6
Continuous
 62
    92
370
    13
100
AcDbLine
 10
1883.459230214349
 20
1217.411059571375
 30
0.0
 11
1869.01423021435
 21
1231.361059571376
 31
0.0
  0
LINE
  5
1D1
330
1F
100
AcDbEntity
  8
0-1
  6
Continuous
 62
    92
370
    13
100
AcDbLine
 10
1883.459230214349
 20
-1694.088940428625
 30
0.0
 11
1869.01423021435
 21
-1708.533940428627
 31
0.0
  0
LINE
  5
1D2
330
1F
100
AcDbEntity
  8
0-1
  6
Continuous
 62
    92
370
    13
100
AcDbLine
 10
1860.959230214349
 20
-1716.588940428627
 30
0.0
 11
1842.959230214349
 21
-1734.588940428628
 31
0.0
  0
LINE
  5
1D3
330
1F
100
AcDbEntity
  8
0-1
  6
Continuous
 62
    92
370
    13
100
AcDbLine
 10
2262.959230214349
 20
-1860.588940428626
 30
0.0
 11
2262.959230214349
 21
1383.911059571376
 31
0.0
  0
LINE
  5
1D4
330
1F
100
AcDbEntity
  8
0-1
  6
Continuous
 62
    92
370
    13
100
AcDbLine
 10
2244.959230214348
 20
-1716.588940428625
 30
0.0
 11
2244.959230214348
 21
1239.911059571375
 31
0.0
  0
LINE
  5
1D5
330
1F
100
AcDbEntity
  8
0-1
  6
Continuous
 62
    92
370
    13
100
AcDbLine
 10
2222.459230214348
 20
-1694.088940428625
 30
0.0
 11
2222.459230214348
 21
1217.411059571375
 31
0.0
  0
LINE
  5
1D6
330
1F
100
AcDbEntity
  8
0-1
  6
Continuous
 62
    92
370
    13
100
AcDbLine
 10
2236.904230214348
 20
1231.361059571376
 30
0.0
 11
2222.459230214348
 21
1217.411059571375
 31
0.0
  0
LINE
  5
1D7
330
1F
100
AcDbEntity
  8
0-1
  6
Continuous
 62
    92
370
    13
100
AcDbLine
 10
2262.959230214349
 20
1257.911059571376
 30
0.0
 11
2244.959230214348
 21
1239.911059571375
 31
0.0
  0
LINE
  5
1D8
330
1F
100
AcDbEntity
  8
0-1
  6
Continuous
 62
    92
370
    13
100
AcDbLine
 10
2236.904230214348
 20
-1708.533940428627
 30
0.0
 11
2222.459230214348
 21
-1694.088940428625
 31
0.0
  0
LINE
  5
1D9
330
1F
100
AcDbEntity
  8
0-1
  6
Continuous
 62
    92
370
    13
100
AcDbLine
 10
2244.959230214348
 20
-1716.588940428627
 30
0.0
 11
2262.959230214349
 21
-1734.588940428628
 31
0.0
  0
LINE
  5
1DA
330
1F
100
AcDbEntity
  8
0-1
  6
JWW_CENTER1
 62
     7
370
     9
100
AcDbLine
 10
1757.459230214348
 20
1383.911059571377
 30
0.0
 11
2348.459230214349
 21
-238.3389404286249
 31
0.0
  0
LINE
  5
1DB
330
1F
100
AcDbEntity
  8
0-1
  6
JWW_CENTER1
 62
     7
370
     9
100
AcDbLine
 10
2348.459230214349
 20
-238.3389404286249
 30
0.0
 11
1757.459230214348
 21
-1860.588940428626
 31
0.0
  0
LWPOLYLINE
  5
1DC
330
1F
100
AcDbEntity
  8
0-1
  6
Continuous
 62
     7
370
     9
100
AcDbPolyline
 90
        4
 70
     1
 43
3.0
 10
2349.959229935113
 20
1613.411059571377
 42
0.4142135623731
 10
2348.459229935113
 20
1614.911059571377
 42
0.4142135623731
 10
2346.959229935113
 20
1613.411059571377
 42
0.4142135623731
 10
2348.459229935113
 20
1611.911059571377
 42
0.4142135623731
  0
LINE
  5
1DD
330
1F
100
AcDbEntity
  8
0-1
  6
Continuous
 62
   120
370
     5
100
AcDbLine
 10
2348.459229935113
 20
1613.411059571377
 30
0.0
 11
2348.459229935113
 21
1463.411059571377
 31
0.0
  0
LINE
  5
1DE
330
1F
100
AcDbEntity
  8
0-1
  6
Continuous
 62
   120
370
     5
100
AcDbLine
 10
2348.459229935113
 20
1613.411059571377
 30
0.0
 11
1757.459229935111
 21
1613.411059571377
 31
0.0
  0
LWPOLYLINE
  5
1DF
330
1F
100
AcDbEntity
  8
0-1
  6
Continuous
 62
     7
370
     9
100
AcDbPolyline
 90
        4
 70
     1
 43
3.0
 10
1758.959229935111
 20
1613.411059571377
 42
0.4142135623731
 10
1757.459229935111
 20
1614.911059571377
 42
0.4142135623731
 10
1755.959229935111
 20
1613.411059571377
 42
0.4142135623731
 10
1757.459229935111
 20
1611.911059571377
 42
0.4142135623731
  0
LINE
  5
1E0
330
1F
100
AcDbEntity
  8
0-1
  6
Continuous
 62
   120
370
     5
100
AcDbLine
 10
1757.459229935111
 20
1613.411059571377
 30
0.0
 11
1757.459229935111
 21
1463.411059571377
 31
0.0
  0
MTEXT
  5
1E1
330
1F
100
AcDbEntity
  8
0-1
  6
Continuous
 62
     7
370
   211
100
AcDbMText
 10
1850.459229935112
 20
1617.701059571377
 30
0.0
 40
68.57999999999996
 41
404.9999999999998
 46
0.0
 71
     7
 72
     1
  1
{\fＭＳ ゴシック|b0|i0|c128|p49;ＤＷ＝394}
 73
     1
 44
1.0
  0
ARC
  5
1E2
330
1F
100
AcDbEntity
  8
0-1
  6
Continuous
 62
    92
370
    13
100
AcDbCircle
 10
1824.209229935109
 20
-347.0889404286223
 30
0.0
 40
1.5
100
AcDbArc
 50
0.0
 51
90.0
  0
LINE
  5
1E3
330
1F
100
AcDbEntity
  8
0-1
  6
Continuous
 62
    92
370
    13
100
AcDbLine
 10
1812.209229935113
 20
-345.5889404286237
 30
0.0
 11
1824.209229935109
 21
-345.5889404286237
 31
0.0
  0
ARC
  5
1E4
330
1F
100
AcDbEntity
  8
0-1
  6
Continuous
 62
    92
370
    13
100
AcDbCircle
 10
1812.209229935113
 20
-347.0889404286223
 30
0.0
 40
1.5
100
AcDbArc
 50
89.99999999999999
 51
180.0
  0
LINE
  5
1E5
330
1F
100
AcDbEntity
  8
0-1
  6
Continuous
 62
    92
370
    13
100
AcDbLine
 10
1810.709229935111
 20
-545.0889404286213
 30
0.0
 11
1810.709229935111
 21
-347.0889404286223
 31
0.0
  0
ARC
  5
1E6
330
1F
100
AcDbEntity
  8
0-1
  6
Continuous
 62
    92
370
    13
100
AcDbCircle
 10
1812.209229935113
 20
-545.0889404286213
 30
0.0
 40
1.5
100
AcDbArc
 50
180.0
 51
270.0
  0
LINE
  5
1E7
330
1F
100
AcDbEntity
  8
0-1
  6
Continuous
 62
    92
370
    13
100
AcDbLine
 10
1824.209229935109
 20
-546.5889404286224
 30
0.0
 11
1812.209229935113
 21
-546.5889404286224
 31
0.0
  0
LINE
  5
1E8
330
1F
100
AcDbEntity
  8
0-1
  6
Continuous
 62
    92
370
    13
100
AcDbLine
 10
1825.709229935111
 20
-545.0889404286213
 30
0.0
 11
1825.709229935111
 21
-347.0889404286223
 31
0.0
  0
ARC
  5
1E9
330
1F
100
AcDbEntity
  8
0-1
  6
Continuous
 62
    92
370
    13
100
AcDbCircle
 10
1824.209229935109
 20
-545.0889404286213
 30
0.0
 40
1.5
100
AcDbArc
 50
270.0
 51
0.0
  0
ARC
  5
1EA
330
1F
100
AcDbEntity
  8
0-1
  6
Continuous
 62
     7
370
     9
100
AcDbCircle
 10
1825.709229935111
 20
-350.0889404286213
 30
0.0
 40
1.5
100
AcDbArc
 50
0.0
 51
90.0
  0
ARC
  5
1EB
330
1F
100
AcDbEntity
  8
0-1
  6
Continuous
 62
     7
370
     9
100
AcDbCircle
 10
1810.709229935111
 20
-350.0889404286213
 30
0.0
 40
1.5
100
AcDbArc
 50
89.99999999999999
 51
180.0
  0
LINE
  5
1EC
330
1F
100
AcDbEntity
  8
0-1
  6
Continuous
 62
     7
370
     9
100
AcDbLine
 10
1809.209229935109
 20
-377.0889404286223
 30
0.0
 11
1809.209229935109
 21
-350.0889404286213
 31
0.0
  0
ARC
  5
1ED
330
1F
100
AcDbEntity
  8
0-1
  6
Continuous
 62
     7
370
     9
100
AcDbCircle
 10
1810.709229935111
 20
-377.0889404286223
 30
0.0
 40
1.5
100
AcDbArc
 50
180.0
 51
270.0
  0
LINE
  5
1EE
330
1F
100
AcDbEntity
  8
0-1
  6
Continuous
 62
     7
370
     9
100
AcDbLine
 10
1827.209229935113
 20
-377.0889404286223
 30
0.0
 11
1827.209229935113
 21
-350.0889404286213
 31
0.0
  0
ARC
  5
1EF
330
1F
100
AcDbEntity
  8
0-1
  6
Continuous
 62
     7
370
     9
100
AcDbCircle
 10
1825.709229935111
 20
-377.0889404286223
 30
0.0
 40
1.5
100
AcDbArc
 50
270.0
 51
0.0
  0
ARC
  5
1F0
330
1F
100
AcDbEntity
  8
0-1
  6
Continuous
 62
     7
370
     9
100
AcDbCircle
 10
1825.709229935111
 20
-515.0889404286213
 30
0.0
 40
1.5
100
AcDbArc
 50
0.0
 51
90.0
  0
ARC
  5
1F1
330
1F
100
AcDbEntity
  8
0-1
  6
Continuous
 62
     7
370
     9
100
AcDbCircle
 10
1810.709229935111
 20
-515.0889404286213
 30
0.0
 40
1.5
100
AcDbArc
 50
89.99999999999999
 51
180.0
  0
LINE
  5
1F2
330
1F
100
AcDbEntity
  8
0-1
  6
Continuous
 62
     7
370
     9
100
AcDbLine
 10
1809.209229935109
 20
-542.0889404286222
 30
0.0
 11
1809.209229935109
 21
-515.0889404286213
 31
0.0
  0
ARC
  5
1F3
330
1F
100
AcDbEntity
  8
0-1
  6
Continuous
 62
     7
370
     9
100
AcDbCircle
 10
1810.709229935111
 20
-542.0889404286222
 30
0.0
 40
1.5
100
AcDbArc
 50
180.0
 51
270.0
  0
LINE
  5
1F4
330
1F
100
AcDbEntity
  8
0-1
  6
Continuous
 62
     7
370
     9
100
AcDbLine
 10
1827.209229935113
 20
-542.0889404286222
 30
0.0
 11
1827.209229935113
 21
-515.0889404286213
 31
0.0
  0
ARC
  5
1F5
330
1F
100
AcDbEntity
  8
0-1
  6
Continuous
 62
     7
370
     9
100
AcDbCircle
 10
1825.709229935111
 20
-542.0889404286222
 30
0.0
 40
1.5
100
AcDbArc
 50
270.0
 51
0.0
  0
LINE
  5
1F6
330
1F
100
AcDbEntity
  8
0-1
  6
Continuous
 62
     7
370
     9
100
AcDbLine
 10
1481.45922965587
 20
-929.5923823835943
 30
0.0
 11
1142.459229655871
 21
-1268.592382383593
 31
0.0
  0
LINE
  5
1F7
330
1F
100
AcDbEntity
  8
0-1
  6
Continuous
 62
     7
370
     9
100
AcDbLine
 10
1481.45922965587
 20
770.875831409398
 30
0.0
 11
1142.459229655871
 21
431.8758314093992
 31
0.0
  0
LINE
  5
1F8
330
1F
100
AcDbEntity
  8
0-1
  6
Continuous
 62
     7
370
     9
100
AcDbLine
 10
1481.45922965587
 20
733.0873278069596
 30
0.0
 11
1142.459229655871
 21
394.087327806961
 31
0.0
  0
LINE
  5
1F9
330
1F
100
AcDbEntity
  8
0-1
  6
Continuous
 62
     7
370
     9
100
AcDbLine
 10
1481.45922965587
 20
644.739288055203
 30
0.0
 11
1142.459229655871
 21
305.7392880552043
 31
0.0
  0
LINE
  5
1FA
330
1F
100
AcDbEntity
  8
0-1
  6
Continuous
 62
     7
370
     9
100
AcDbLine
 10
1481.45922965587
 20
-832.1048902437252
 30
0.0
 11
1142.459229655871
 21
-1171.104890243724
 31
0.0
  0
LINE
  5
1FB
330
1F
100
AcDbEntity
  8
0-1
  6
Continuous
 62
     7
370
     9
100
AcDbLine
 10
1481.45922965587
 20
-911.3134776073694
 30
0.0
 11
1142.459229655871
 21
-1250.313477607368
 31
0.0
  0
LINE
  5
1FC
330
1F
100
AcDbEntity
  8
0-1
  6
Continuous
 62
     7
370
     9
100
AcDbLine
 10
2222.459230214348
 20
-929.5923818251167
 30
0.0
 11
1883.459230214349
 21
-1268.592381825116
 31
0.0
  0
LINE
  5
1FD
330
1F
100
AcDbEntity
  8
0-1
  6
Continuous
 62
     7
370
     9
100
AcDbLine
 10
2222.459230214348
 20
770.875831967876
 30
0.0
 11
1883.459230214349
 21
431.8758319678764
 31
0.0
  0
LINE
  5
1FE
330
1F
100
AcDbEntity
  8
0-1
  6
Continuous
 62
     7
370
     9
100
AcDbLine
 10
2222.459230214348
 20
733.0873283654377
 30
0.0
 11
1883.459230214349
 21
394.0873283654382
 31
0.0
  0
LINE
  5
1FF
330
1F
100
AcDbEntity
  8
0-1
  6
Continuous
 62
     7
370
     9
100
AcDbLine
 10
2222.459230214348
 20
644.7392886136811
 30
0.0
 11
1883.459230214349
 21
305.7392886136815
 31
0.0
  0
LINE
  5
200
330
1F
100
AcDbEntity
  8
0-1
  6
Continuous
 62
     7
370
     9
100
AcDbLine
 10
2222.459230214348
 20
-832.1048896852476
 30
0.0
 11
1883.459230214349
 21
-1171.104889685247
 31
0.0
  0
LINE
  5
201
330
1F
100
AcDbEntity
  8
0-1
  6
Continuous
 62
     7
370
     9
100
AcDbLine
 10
2222.459230214348
 20
-911.3134770488916
 30
0.0
 11
1883.459230214349
 21
-1250.313477048891
 31
0.0
  0
LINE
  5
202
330
1F
100
AcDbEntity
  8
0-1
  6
JWW_CENTER1
 62
     7
370
     9
100
AcDbLine
 10
1607.459229655873
 20
1383.911059571381
 30
0.0
 11
1016.459229655872
 21
-238.338940428621
 31
0.0
  0
LINE
  5
203
330
1F
100
AcDbEntity
  8
0-1
  6
JWW_CENTER1
 62
     7
370
     9
100
AcDbLine
 10
1016.459229655872
 20
-238.338940428621
 30
0.0
 11
1607.459229655873
 21
-1860.588940428622
 31
0.0
  0
MTEXT
  5
204
330
1F
100
AcDbEntity
  8
文字
  6
Continuous
 62
     7
370
     9
100
AcDbMText
 10
-2707.34693877551
 20
-2211.169897959184
 30
0.0
 40
57.15000000000001
 41
975.0
 46
0.0
 71
     7
 72
     1
  1
{\fＭＳ ゴシック|b0|i0|c128|p49;ドレタス　立体框組角タイプ}
 73
     1
 44
1.0
  0
ENDSEC
  0
SECTION
  2
OBJECTS
  0
DICTIONARY
  5
C
330
0
100
AcDbDictionary
281
     1
  3
ACAD_GROUP
350
D
  3
ACAD_LAYOUT
350
1A
  3
ACAD_MATERIAL
350
3B
  3
ACAD_MLEADERSTYLE
350
206
  3
ACAD_MLINESTYLE
350
17
  3
ACAD_PLOTSETTINGS
350
19
  3
ACAD_PLOTSTYLENAME
350
E
  3
ACAD_TABLESTYLE
350
205
  3
ACAD_VISUALSTYLE
350
2A
  0
DICTIONARY
  5
D
102
{ACAD_REACTORS
330
C
102
}
330
C
100
AcDbDictionary
281
     1
  0
DICTIONARY
  5
1A
102
{ACAD_REACTORS
330
C
102
}
330
C
100
AcDbDictionary
281
     1
  3
Layout1
350
1E
  3
Layout2
350
26
  3
Model
350
22
  0
DICTIONARY
  5
3B
102
{ACAD_REACTORS
330
C
102
}
330
C
100
AcDbDictionary
281
     1
  3
ByBlock
350
3D
  3
ByLayer
350
3C
  3
Global
350
3E
  0
DICTIONARY
  5
206
102
{ACAD_REACTORS
330
C
102
}
330
C
100
AcDbDictionary
281
     1
  0
DICTIONARY
  5
17
102
{ACAD_REACTORS
330
C
102
}
330
C
100
AcDbDictionary
281
     1
  3
Standard
350
18
  0
DICTIONARY
  5
19
102
{ACAD_REACTORS
330
C
102
}
330
C
100
AcDbDictionary
281
     1
  0
ACDBDICTIONARYWDFLT
  5
E
102
{ACAD_REACTORS
330
C
102
}
330
C
100
AcDbDictionary
281
     1
  3
Normal
350
F
100
AcDbDictionaryWithDefault
340
F
  0
DICTIONARY
  5
205
102
{ACAD_REACTORS
330
C
102
}
330
C
100
AcDbDictionary
281
     1
  0
DICTIONARY
  5
2A
102
{ACAD_REACTORS
330
C
102
}
330
C
100
AcDbDictionary
281
     1
  3
2dWireframe
350
2F
  3
3D Hidden
350
31
  3
3dWireframe
350
30
  3
Basic
350
32
  3
Brighten
350
36
  3
ColorChange
350
3A
  3
Conceptual
350
34
  3
Dim
350
35
  3
Facepattern
350
39
  3
Flat
350
2B
  3
FlatWithEdges
350
2C
  3
Gouraud
350
2D
  3
GouraudWithEdges
350
2E
  3
Linepattern
350
38
  3
Realistic
350
33
  3
Thicken
350
37
  0
LAYOUT
  5
1E
102
{ACAD_REACTORS
330
1A
102
}
330
1A
100
AcDbPlotSettings
  1

  2
none_device
  4

  6

 40
0.0
 41
0.0
 42
0.0
 43
0.0
 44
0.0
 45
0.0
 46
0.0
 47
0.0
 48
0.0
 49
0.0
140
0.0
141
0.0
142
1.0
143
1.0
 70
   688
 72
     0
 73
     0
 74
     5
  7

 75
    16
 76
     0
 77
     5
 78
   300
147
1.0
148
0.0
149
0.0
100
AcDbLayout
  1
Layout1
 70
     1
 71
     1
 10
0.0
 20
0.0
 11
420.0
 21
297.0
 12
0.0
 22
0.0
 32
0.0
 14
1.000000000000000E+20
 24
1.000000000000000E+20
 34
1.000000000000000E+20
 15
-1.000000000000000E+20
 25
-1.000000000000000E+20
 35
-1.000000000000000E+20
146
0.0
 13
0.0
 23
0.0
 33
0.0
 16
1.0
 26
0.0
 36
0.0
 17
0.0
 27
1.0
 37
0.0
 76
     0
330
1B
  0
LAYOUT
  5
26
102
{ACAD_REACTORS
330
1A
102
}
330
1A
100
AcDbPlotSettings
  1

  2
none_device
  4

  6

 40
0.0
 41
0.0
 42
0.0
 43
0.0
 44
0.0
 45
0.0
 46
0.0
 47
0.0
 48
0.0
 49
0.0
140
0.0
141
0.0
142
1.0
143
1.0
 70
   688
 72
     0
 73
     0
 74
     5
  7

 75
    16
 76
     0
 77
     5
 78
   300
147
1.0
148
0.0
149
0.0
100
AcDbLayout
  1
Layout2
 70
     1
 71
     2
 10
0.0
 20
0.0
 11
0.0
 21
0.0
 12
0.0
 22
0.0
 32
0.0
 14
0.0
 24
0.0
 34
0.0
 15
0.0
 25
0.0
 35
0.0
146
0.0
 13
0.0
 23
0.0
 33
0.0
 16
1.0
 26
0.0
 36
0.0
 17
0.0
 27
1.0
 37
0.0
 76
     0
330
23
  0
LAYOUT
  5
22
102
{ACAD_REACTORS
330
1A
102
}
330
1A
100
AcDbPlotSettings
  1

  2
none_device
  4

  6

 40
0.0
 41
0.0
 42
0.0
 43
0.0
 44
0.0
 45
0.0
 46
0.0
 47
0.0
 48
0.0
 49
0.0
140
0.0
141
0.0
142
1.0
143
1.0
 70
  1712
 72
     0
 73
     0
 74
     0
  7

 75
     0
 76
     0
 77
     5
 78
   300
147
1.0
148
0.0
149
0.0
100
AcDbLayout
  1
Model
 70
     1
 71
     0
 10
-4455.0
 20
-3150.0
 11
4455.0
 21
3150.0
 12
0.0
 22
0.0
 32
0.0
 14
-4455.0
 24
-3150.0
 34
0.0
 15
4455.0
 25
3150.0
 35
0.0
146
0.0
 13
0.0
 23
0.0
 33
0.0
 16
1.0
 26
0.0
 36
0.0
 17
0.0
 27
1.0
 37
0.0
 76
     0
330
1F
331
29
  0
MATERIAL
  5
3D
102
{ACAD_REACTORS
330
3B
102
}
330
3B
100
AcDbMaterial
  1
ByBlock
 72
     1
 94
      127
  0
MATERIAL
  5
3C
102
{ACAD_REACTORS
330
3B
102
}
330
3B
100
AcDbMaterial
  1
ByLayer
 72
     1
 94
      127
  0
MATERIAL
  5
3E
102
{ACAD_REACTORS
330
3B
102
}
330
3B
100
AcDbMaterial
  1
Global
 72
     1
 94
      127
  0
MLINESTYLE
  5
18
102
{ACAD_REACTORS
330
17
102
}
330
17
100
AcDbMlineStyle
  2
Standard
 70
     0
  3

 62
   256
 51
90.0
 52
90.0
 71
     2
 49
0.5
 62
   256
  6
BYLAYER
 49
-0.5
 62
   256
  6
BYLAYER
  0
ACDBPLACEHOLDER
  5
F
102
{ACAD_REACTORS
330
E
102
}
330
E
  0
VISUALSTYLE
  5
2F
102
{ACAD_REACTORS
330
2A
102
}
330
2A
100
AcDbVisualStyle
  2
2dWireframe
 70
     4
177
     2
291
     0
 71
     0
176
     1
 72
     2
176
     1
 73
     0
176
     1
 90
        0
176
     1
 40
-0.6
176
     1
 41
-30.0
176
     1
 62
     5
 63
     7
421
 16777215
176
     1
 74
     1
176
     1
 91
        4
176
     1
 64
     7
176
     1
 65
   257
176
     1
 75
     1
176
     1
175
     1
176
     1
 42
1.0
176
     1
 92
        0
176
     1
 66
   257
176
     1
 43
1.0
176
     1
 76
     1
176
     1
 77
     6
176
     1
 78
     2
176
     1
 67
     7
176
     1
 79
     5
176
     1
170
     0
176
     1
171
     0
176
     1
290
     0
176
     1
 93
        1
176
     1
 44
0.0
176
     1
173
     0
176
     1
  0
VISUALSTYLE
  5
31
102
{ACAD_REACTORS
330
2A
102
}
330
2A
100
AcDbVisualStyle
  2
3D Hidden
 70
     6
177
     2
291
     0
 71
     1
176
     1
 72
     2
176
     1
 73
     2
176
     1
 90
        0
176
     1
 40
-0.6
176
     1
 41
-30.0
176
     1
 62
     5
 63
     7
421
 16777215
176
     1
 74
     2
176
     1
 91
        2
176
     1
 64
     7
176
     1
 65
   257
176
     1
 75
     2
176
     1
175
     1
176
     1
 42
40.0
176
     1
 92
        0
176
     1
 66
   257
176
     1
 43
1.0
176
     1
 76
     1
176
     1
 77
     6
176
     1
 78
     2
176
     1
 67
     7
176
     1
 79
     3
176
     1
170
     0
176
     1
171
     0
176
     1
290
     0
176
     1
 93
        1
176
     1
 44
0.0
176
     1
173
     0
176
     1
  0
VISUALSTYLE
  5
30
102
{ACAD_REACTORS
330
2A
102
}
330
2A
100
AcDbVisualStyle
  2
3dWireframe
 70
     5
177
     2
291
     0
 71
     0
176
     1
 72
     2
176
     1
 73
     0
176
     1
 90
        0
176
     1
 40
-0.6
176
     1
 41
-30.0
176
     1
 62
     5
 63
     7
421
 16777215
176
     1
 74
     1
176
     1
 91
        4
176
     1
 64
     7
176
     1
 65
   257
176
     1
 75
     1
176
     1
175
     1
176
     1
 42
1.0
176
     1
 92
        0
176
     1
 66
   257
176
     1
 43
1.0
176
     1
 76
     1
176
     1
 77
     6
176
     1
 78
     2
176
     1
 67
     7
176
     1
 79
     5
176
     1
170
     0
176
     1
171
     0
176
     1
290
     0
176
     1
 93
        1
176
     1
 44
0.0
176
     1
173
     0
176
     1
  0
VISUALSTYLE
  5
32
102
{ACAD_REACTORS
330
2A
102
}
330
2A
100
AcDbVisualStyle
  2
Basic
 70
     7
177
     2
291
     1
 71
     1
176
     1
 72
     0
176
     1
 73
     1
176
     1
 90
        0
176
     1
 40
-0.6
176
     1
 41
-30.0
176
     1
 62
     5
 63
     7
421
 16777215
176
     1
 74
     0
176
     1
 91
        4
176
     1
 64
     7
176
     1
 65
   257
176
     1
 75
     1
176
     1
175
     1
176
     1
 42
1.0
176
     1
 92
        8
176
     1
 66
     7
176
     1
 43
1.0
176
     1
 76
     1
176
     1
 77
     6
176
     1
 78
     2
176
     1
 67
     7
176
     1
 79
     5
176
     1
170
     0
176
     1
171
     0
176
     1
290
     0
176
     1
 93
        1
176
     1
 44
0.0
176
     1
173
     0
176
     1
  0
VISUALSTYLE
  5
36
102
{ACAD_REACTORS
330
2A
102
}
330
2A
100
AcDbVisualStyle
  2
Brighten
 70
    12
177
     2
291
     1
 71
     2
176
     1
 72
     2
176
     1
 73
     0
176
     1
 90
        0
176
     1
 40
-0.6
176
     1
 41
-30.0
176
     1
 62
     5
 63
     7
421
 16777215
176
     1
 74
     1
176
     1
 91
        4
176
     1
 64
     7
176
     1
 65
   257
176
     1
 75
     1
176
     1
175
     1
176
     1
 42
1.0
176
     1
 92
        8
176
     1
 66
     7
176
     1
 43
1.0
176
     1
 76
     1
176
     1
 77
     6
176
     1
 78
     2
176
     1
 67
     7
176
     1
 79
     5
176
     1
170
     0
176
     1
171
     0
176
     1
290
     0
176
     1
 93
        1
176
     1
 44
50.0
176
     1
173
     0
176
     1
  0
VISUALSTYLE
  5
3A
102
{ACAD_REACTORS
330
2A
102
}
330
2A
100
AcDbVisualStyle
  2
ColorChange
 70
    16
177
     2
291
     1
 71
     2
176
     1
 72
     2
176
     1
 73
     3
176
     1
 90
        0
176
     1
 40
-0.6
176
     1
 41
-30.0
176
     1
 62
     5
 63
     8
421
  8421504
176
     1
 74
     1
176
     1
 91
        4
176
     1
 64
     7
176
     1
 65
   257
176
     1
 75
     1
176
     1
175
     1
176
     1
 42
1.0
176
     1
 92
        8
176
     1
 66
     8
424
  8421504
176
     1
 43
1.0
176
     1
 76
     1
176
     1
 77
     6
176
     1
 78
     2
176
     1
 67
     7
176
     1
 79
     5
176
     1
170
     0
176
     1
171
     0
176
     1
290
     0
176
     1
 93
        1
176
     1
 44
0.0
176
     1
173
     0
176
     1
  0
VISUALSTYLE
  5
34
102
{ACAD_REACTORS
330
2A
102
}
330
2A
100
AcDbVisualStyle
  2
Conceptual
 70
     9
177
     2
291
     0
 71
     3
176
     1
 72
     2
176
     1
 73
     0
176
     1
 90
        0
176
     1
 40
-0.6
176
     1
 41
-30.0
176
     1
 62
     5
 63
     7
421
 16777215
176
     1
 74
     2
176
     1
 91
        2
176
     1
 64
     7
176
     1
 65
   257
176
     1
 75
     1
176
     1
175
     1
176
     1
 42
40.0
176
     1
 92
        8
176
     1
 66
     7
176
     1
 43
1.0
176
     1
 76
     1
176
     1
 77
     6
176
     1
 78
     2
176
     1
 67
     7
176
     1
 79
     3
176
     1
170
     0
176
     1
171
     0
176
     1
290
     0
176
     1
 93
        1
176
     1
 44
0.0
176
     1
173
     0
176
     1
  0
VISUALSTYLE
  5
35
102
{ACAD_REACTORS
330
2A
102
}
330
2A
100
AcDbVisualStyle
  2
Dim
 70
    11
177
     2
291
     1
 71
     2
176
     1
 72
     2
176
     1
 73
     0
176
     1
 90
        0
176
     1
 40
-0.6
176
     1
 41
-30.0
176
     1
 62
     5
 63
     7
421
 16777215
176
     1
 74
     1
176
     1
 91
        4
176
     1
 64
     7
176
     1
 65
   257
176
     1
 75
     1
176
     1
175
     1
176
     1
 42
1.0
176
     1
 92
        8
176
     1
 66
     7
176
     1
 43
1.0
176
     1
 76
     1
176
     1
 77
     6
176
     1
 78
     2
176
     1
 67
     7
176
     1
 79
     5
176
     1
170
     0
176
     1
171
     0
176
     1
290
     0
176
     1
 93
        1
176
     1
 44
-50.0
176
     1
173
     0
176
     1
  0
VISUALSTYLE
  5
39
102
{ACAD_REACTORS
330
2A
102
}
330
2A
100
AcDbVisualStyle
  2
Facepattern
 70
    15
177
     2
291
     1
 71
     2
176
     1
 72
     2
176
     1
 73
     0
176
     1
 90
        0
176
     1
 40
-0.6
176
     1
 41
-30.0
176
     1
 62
     5
 63
     7
421
 16777215
176
     1
 74
     1
176
     1
 91
        4
176
     1
 64
     7
176
     1
 65
   257
176
     1
 75
     1
176
     1
175
     1
176
     1
 42
1.0
176
     1
 92
        8
176
     1
 66
     7
176
     1
 43
1.0
176
     1
 76
     1
176
     1
 77
     6
176
     1
 78
     2
176
     1
 67
     7
176
     1
 79
     5
176
     1
170
     0
176
     1
171
     0
176
     1
290
     0
176
     1
 93
        1
176
     1
 44
0.0
176
     1
173
     0
176
     1
  0
VISUALSTYLE
  5
2B
102
{ACAD_REACTORS
330
2A
102
}
330
2A
100
AcDbVisualStyle
  2
Flat
 70
     0
177
     2
291
     1
 71
     2
176
     1
 72
     1
176
     1
 73
     1
176
     1
 90
        2
176
     1
 40
-0.6
176
     1
 41
30.0
176
     1
 62
     5
 63
     7
421
 16777215
176
     1
 74
     0
176
     1
 91
        4
176
     1
 64
     7
176
     1
 65
   257
176
     1
 75
     1
176
     1
175
     1
176
     1
 42
1.0
176
     1
 92
        8
176
     1
 66
     7
176
     1
 43
1.0
176
     1
 76
     1
176
     1
 77
     6
176
     1
 78
     2
176
     1
 67
     7
176
     1
 79
     5
176
     1
170
     0
176
     1
171
     0
176
     1
290
     0
176
     1
 93
       13
176
     1
 44
0.0
176
     1
173
     0
176
     1
  0
VISUALSTYLE
  5
2C
102
{ACAD_REACTORS
330
2A
102
}
330
2A
100
AcDbVisualStyle
  2
FlatWithEdges
 70
     1
177
     2
291
     1
 71
     2
176
     1
 72
     1
176
     1
 73
     1
176
     1
 90
        2
176
     1
 40
-0.6
176
     1
 41
30.0
176
     1
 62
     5
 63
     7
421
 16777215
176
     1
 74
     1
176
     1
 91
        4
176
     1
 64
     7
176
     1
 65
   257
176
     1
 75
     1
176
     1
175
     1
176
     1
 42
1.0
176
     1
 92
        0
176
     1
 66
   257
176
     1
 43
1.0
176
     1
 76
     1
176
     1
 77
     6
176
     1
 78
     2
176
     1
 67
     7
176
     1
 79
     5
176
     1
170
     0
176
     1
171
     0
176
     1
290
     0
176
     1
 93
       13
176
     1
 44
0.0
176
     1
173
     0
176
     1
  0
VISUALSTYLE
  5
2D
102
{ACAD_REACTORS
330
2A
102
}
330
2A
100
AcDbVisualStyle
  2
Gouraud
 70
     2
177
     2
291
     1
 71
     2
176
     1
 72
     2
176
     1
 73
     1
176
     1
 90
        2
176
     1
 40
-0.6
176
     1
 41
30.0
176
     1
 62
     5
 63
     7
421
 16777215
176
     1
 74
     0
176
     1
 91
        4
176
     1
 64
     7
176
     1
 65
   257
176
     1
 75
     1
176
     1
175
     1
176
     1
 42
1.0
176
     1
 92
        0
176
     1
 66
     7
176
     1
 43
1.0
176
     1
 76
     1
176
     1
 77
     6
176
     1
 78
     2
176
     1
 67
     7
176
     1
 79
     5
176
     1
170
     0
176
     1
171
     0
176
     1
290
     0
176
     1
 93
       13
176
     1
 44
0.0
176
     1
173
     0
176
     1
  0
VISUALSTYLE
  5
2E
102
{ACAD_REACTORS
330
2A
102
}
330
2A
100
AcDbVisualStyle
  2
GouraudWithEdges
 70
     3
177
     2
291
     1
 71
     2
176
     1
 72
     2
176
     1
 73
     1
176
     1
 90
        2
176
     1
 40
-0.6
176
     1
 41
30.0
176
     1
 62
     5
 63
     7
421
 16777215
176
     1
 74
     1
176
     1
 91
        4
176
     1
 64
     7
176
     1
 65
   257
176
     1
 75
     1
176
     1
175
     1
176
     1
 42
1.0
176
     1
 92
        0
176
     1
 66
   257
176
     1
 43
1.0
176
     1
 76
     1
176
     1
 77
     6
176
     1
 78
     2
176
     1
 67
     7
176
     1
 79
     5
176
     1
170
     0
176
     1
171
     0
176
     1
290
     0
176
     1
 93
       13
176
     1
 44
0.0
176
     1
173
     0
176
     1
  0
VISUALSTYLE
  5
38
102
{ACAD_REACTORS
330
2A
102
}
330
2A
100
AcDbVisualStyle
  2
Linepattern
 70
    14
177
     2
291
     1
 71
     2
176
     1
 72
     2
176
     1
 73
     0
176
     1
 90
        0
176
     1
 40
-0.6
176
     1
 41
-30.0
176
     1
 62
     5
 63
     7
421
 16777215
176
     1
 74
     1
176
     1
 91
        4
176
     1
 64
     7
176
     1
 65
   257
176
     1
 75
     7
176
     1
175
     7
176
     1
 42
1.0
176
     1
 92
        8
176
     1
 66
     7
176
     1
 43
1.0
176
     1
 76
     1
176
     1
 77
     6
176
     1
 78
     2
176
     1
 67
     7
176
     1
 79
     5
176
     1
170
     0
176
     1
171
     0
176
     1
290
     0
176
     1
 93
        1
176
     1
 44
0.0
176
     1
173
     0
176
     1
  0
VISUALSTYLE
  5
33
102
{ACAD_REACTORS
330
2A
102
}
330
2A
100
AcDbVisualStyle
  2
Realistic
 70
     8
177
     2
291
     0
 71
     2
176
     1
 72
     2
176
     1
 73
     0
176
     1
 90
        0
176
     1
 40
-0.6
176
     1
 41
-30.0
176
     1
 62
     5
 63
     7
421
 16777215
176
     1
 74
     1
176
     1
 91
        0
176
     1
 64
     7
176
     1
 65
   257
176
     1
 75
     1
176
     1
175
     1
176
     1
 42
1.0
176
     1
 92
        8
176
     1
 66
     8
424
  7895160
176
     1
 43
1.0
176
     1
 76
     1
176
     1
 77
     6
176
     1
 78
     2
176
     1
 67
     7
176
     1
 79
     5
176
     1
170
     0
176
     1
171
     0
176
     1
290
     0
176
     1
 93
       13
176
     1
 44
0.0
176
     1
173
     0
176
     1
  0
VISUALSTYLE
  5
37
102
{ACAD_REACTORS
330
2A
102
}
330
2A
100
AcDbVisualStyle
  2
Thicken
 70
    13
177
     2
291
     1
 71
     2
176
     1
 72
     2
176
     1
 73
     0
176
     1
 90
        0
176
     1
 40
-0.6
176
     1
 41
-30.0
176
     1
 62
     5
 63
     7
421
 16777215
176
     1
 74
     1
176
     1
 91
        4
176
     1
 64
     7
176
     1
 65
   257
176
     1
 75
     1
176
     1
175
     1
176
     1
 42
1.0
176
     1
 92
       12
176
     1
 66
     7
176
     1
 43
1.0
176
     1
 76
     1
176
     1
 77
     6
176
     1
 78
     2
176
     1
 67
     7
176
     1
 79
     5
176
     1
170
     0
176
     1
171
     0
176
     1
290
     0
176
     1
 93
        1
176
     1
 44
0.0
176
     1
173
     0
176
     1
  0
ENDSEC
  0
EOF
