  0
SECTION
  2
HEADER
  9
$ACADVER
  1
AC1024
  9
$ACADMAINTVER
 70
     6
  9
$DWGCODEPAGE
  3
ANSI_932
  9
$INSBASE
 10
0.0
 20
0.0
 30
0.0
  9
$EXTMIN
 10
-4200.0
 20
-2970.0
 30
0.0
  9
$EXTMAX
 10
4200.0
 20
2970.0
 30
0.0
  9
$LIMMIN
 10
-4200.0
 20
-2970.0
  9
$LIMMAX
 10
4200.0
 20
2970.0
  9
$ORTHOMODE
 70
     0
  9
$REGENMODE
 70
     1
  9
$FILLMODE
 70
     1
  9
$QTEXTMODE
 70
     0
  9
$MIRRTEXT
 70
     1
  9
$LTSCALE
 40
20.0
  9
$ATTMODE
 70
     1
  9
$TEXTSIZE
 40
2.5
  9
$TRACEWID
 40
1.0
  9
$TEXTSTYLE
  7
Standard
  9
$CLAYER
  8
0
  9
$CELTYPE
  6
ByLayer
  9
$CECOLOR
 62
   256
  9
$CELTSCALE
 40
1.0
  9
$DISPSILH
 70
     0
  9
$DIMSCALE
 40
1.0
  9
$DIMASZ
 40
2.5
  9
$DIMEXO
 40
0.625
  9
$DIMDLI
 40
3.75
  9
$DIMRND
 40
0.0
  9
$DIMDLE
 40
0.0
  9
$DIMEXE
 40
1.25
  9
$DIMTP
 40
0.0
  9
$DIMTM
 40
0.0
  9
$DIMTXT
 40
2.5
  9
$DIMCEN
 40
2.5
  9
$DIMTSZ
 40
0.0
  9
$DIMTOL
 70
     0
  9
$DIMLIM
 70
     0
  9
$DIMTIH
 70
     0
  9
$DIMTOH
 70
     0
  9
$DIMSE1
 70
     0
  9
$DIMSE2
 70
     0
  9
$DIMTAD
 70
     1
  9
$DIMZIN
 70
     8
  9
$DIMBLK
  1

  9
$DIMASO
 70
     1
  9
$DIMSHO
 70
     1
  9
$DIMPOST
  1

  9
$DIMAPOST
  1

  9
$DIMALT
 70
     0
  9
$DIMALTD
 70
     3
  9
$DIMALTF
 40
0.03937007874016
  9
$DIMLFAC
 40
1.0
  9
$DIMTOFL
 70
     1
  9
$DIMTVP
 40
0.0
  9
$DIMTIX
 70
     0
  9
$DIMSOXD
 70
     0
  9
$DIMSAH
 70
     0
  9
$DIMBLK1
  1

  9
$DIMBLK2
  1

  9
$DIMSTYLE
  2
ISO-25
  9
$DIMCLRD
 70
     0
  9
$DIMCLRE
 70
     0
  9
$DIMCLRT
 70
     0
  9
$DIMTFAC
 40
1.0
  9
$DIMGAP
 40
0.625
  9
$DIMJUST
 70
     0
  9
$DIMSD1
 70
     0
  9
$DIMSD2
 70
     0
  9
$DIMTOLJ
 70
     0
  9
$DIMTZIN
 70
     8
  9
$DIMALTZ
 70
     0
  9
$DIMALTTZ
 70
     0
  9
$DIMUPT
 70
     0
  9
$DIMDEC
 70
     2
  9
$DIMTDEC
 70
     2
  9
$DIMALTU
 70
     2
  9
$DIMALTTD
 70
     3
  9
$DIMTXSTY
  7
Standard
  9
$DIMAUNIT
 70
     0
  9
$DIMADEC
 70
     0
  9
$DIMALTRND
 40
0.0
  9
$DIMAZIN
 70
     0
  9
$DIMDSEP
 70
    44
  9
$DIMATFIT
 70
     3
  9
$DIMFRAC
 70
     0
  9
$DIMLDRBLK
  1

  9
$DIMLUNIT
 70
     2
  9
$DIMLWD
 70
    -2
  9
$DIMLWE
 70
    -2
  9
$DIMTMOVE
 70
     0
  9
$DIMFXL
 40
1.0
  9
$DIMFXLON
 70
     0
  9
$DIMJOGANG
 40
0.7853981633974483
  9
$DIMTFILL
 70
     0
  9
$DIMTFILLCLR
 70
     0
  9
$DIMARCSYM
 70
     0
  9
$DIMLTYPE
  6

  9
$DIMLTEX1
  6

  9
$DIMLTEX2
  6

  9
$DIMTXTDIRECTION
 70
     0
  9
$LUNITS
 70
     2
  9
$LUPREC
 70
     4
  9
$SKETCHINC
 40
1.0
  9
$FILLETRAD
 40
10.0
  9
$AUNITS
 70
     0
  9
$AUPREC
 70
     0
  9
$MENU
  1
.
  9
$ELEVATION
 40
0.0
  9
$PELEVATION
 40
0.0
  9
$THICKNESS
 40
0.0
  9
$LIMCHECK
 70
     0
  9
$CHAMFERA
 40
10.0
  9
$CHAMFERB
 40
10.0
  9
$CHAMFERC
 40
20.0
  9
$CHAMFERD
 40
0.0
  9
$SKPOLY
 70
     0
  9
$TDCREATE
 40
2460350.651018866
  9
$TDUCREATE
 40
2460350.276018866
  9
$TDUPDATE
 40
2460350.651018878
  9
$TDUUPDATE
 40
2460350.276018878
  9
$TDINDWG
 40
0.0000000116
  9
$TDUSRTIMER
 40
0.0000000116
  9
$USRTIMER
 70
     1
  9
$ANGBASE
 50
0.0
  9
$ANGDIR
 70
     0
  9
$PDMODE
 70
     0
  9
$PDSIZE
 40
0.0
  9
$PLINEWID
 40
0.0
  9
$SPLFRAME
 70
     0
  9
$SPLINETYPE
 70
     6
  9
$SPLINESEGS
 70
     8
  9
$HANDSEED
  5
55D
  9
$SURFTAB1
 70
     6
  9
$SURFTAB2
 70
     6
  9
$SURFTYPE
 70
     6
  9
$SURFU
 70
     6
  9
$SURFV
 70
     6
  9
$UCSBASE
  2

  9
$UCSNAME
  2

  9
$UCSORG
 10
0.0
 20
0.0
 30
0.0
  9
$UCSXDIR
 10
1.0
 20
0.0
 30
0.0
  9
$UCSYDIR
 10
0.0
 20
1.0
 30
0.0
  9
$UCSORTHOREF
  2

  9
$UCSORTHOVIEW
 70
     0
  9
$UCSORGTOP
 10
0.0
 20
0.0
 30
0.0
  9
$UCSORGBOTTOM
 10
0.0
 20
0.0
 30
0.0
  9
$UCSORGLEFT
 10
0.0
 20
0.0
 30
0.0
  9
$UCSORGRIGHT
 10
0.0
 20
0.0
 30
0.0
  9
$UCSORGFRONT
 10
0.0
 20
0.0
 30
0.0
  9
$UCSORGBACK
 10
0.0
 20
0.0
 30
0.0
  9
$PUCSBASE
  2

  9
$PUCSNAME
  2

  9
$PUCSORG
 10
0.0
 20
0.0
 30
0.0
  9
$PUCSXDIR
 10
1.0
 20
0.0
 30
0.0
  9
$PUCSYDIR
 10
0.0
 20
1.0
 30
0.0
  9
$PUCSORTHOREF
  2

  9
$PUCSORTHOVIEW
 70
     0
  9
$PUCSORGTOP
 10
0.0
 20
0.0
 30
0.0
  9
$PUCSORGBOTTOM
 10
0.0
 20
0.0
 30
0.0
  9
$PUCSORGLEFT
 10
0.0
 20
0.0
 30
0.0
  9
$PUCSORGRIGHT
 10
0.0
 20
0.0
 30
0.0
  9
$PUCSORGFRONT
 10
0.0
 20
0.0
 30
0.0
  9
$PUCSORGBACK
 10
0.0
 20
0.0
 30
0.0
  9
$USERI1
 70
     0
  9
$USERI2
 70
     0
  9
$USERI3
 70
     0
  9
$USERI4
 70
     0
  9
$USERI5
 70
     0
  9
$USERR1
 40
0.0
  9
$USERR2
 40
0.0
  9
$USERR3
 40
0.0
  9
$USERR4
 40
0.0
  9
$USERR5
 40
0.0
  9
$WORLDVIEW
 70
     1
  9
$SHADEDGE
 70
     3
  9
$SHADEDIF
 70
    70
  9
$TILEMODE
 70
     1
  9
$MAXACTVP
 70
    64
  9
$PINSBASE
 10
0.0
 20
0.0
 30
0.0
  9
$PLIMCHECK
 70
     0
  9
$PEXTMIN
 10
1.000000000000000E+20
 20
1.000000000000000E+20
 30
1.000000000000000E+20
  9
$PEXTMAX
 10
-1.000000000000000E+20
 20
-1.000000000000000E+20
 30
-1.000000000000000E+20
  9
$PLIMMIN
 10
0.0
 20
0.0
  9
$PLIMMAX
 10
420.0
 20
297.0
  9
$UNITMODE
 70
     0
  9
$VISRETAIN
 70
     1
  9
$PLINEGEN
 70
     0
  9
$PSLTSCALE
 70
     1
  9
$TREEDEPTH
 70
  3020
  9
$CMLSTYLE
  2
Standard
  9
$CMLJUST
 70
     0
  9
$CMLSCALE
 40
20.0
  9
$PROXYGRAPHICS
 70
     1
  9
$MEASUREMENT
 70
     1
  9
$CELWEIGHT
370
    -1
  9
$ENDCAPS
280
     0
  9
$JOINSTYLE
280
     0
  9
$LWDISPLAY
290
     0
  9
$INSUNITS
 70
     4
  9
$HYPERLINKBASE
  1

  9
$STYLESHEET
  1

  9
$XEDIT
290
     1
  9
$CEPSNTYPE
380
     0
  9
$PSTYLEMODE
290
     1
  9
$FINGERPRINTGUID
  2
{98B88EA6-ABD4-42F5-986F-1CE8C6A832FE}
  9
$VERSIONGUID
  2
{FAEB1C32-E019-11D5-929B-00C0DF256EC4}
  9
$EXTNAMES
290
     1
  9
$PSVPSCALE
 40
0.0
  9
$OLESTARTUP
290
     0
  9
$SORTENTS
280
   127
  9
$INDEXCTL
280
     0
  9
$HIDETEXT
280
     1
  9
$XCLIPFRAME
280
     2
  9
$HALOGAP
280
     0
  9
$OBSCOLOR
 70
   257
  9
$OBSLTYPE
280
     0
  9
$INTERSECTIONDISPLAY
280
     0
  9
$INTERSECTIONCOLOR
 70
   257
  9
$DIMASSOC
280
     2
  9
$PROJECTNAME
  1

  9
$CAMERADISPLAY
290
     0
  9
$LENSLENGTH
 40
50.0
  9
$CAMERAHEIGHT
 40
0.0
  9
$STEPSPERSEC
 40
2.0
  9
$STEPSIZE
 40
6.0
  9
$3DDWFPREC
 40
2.0
  9
$PSOLWIDTH
 40
5.0
  9
$PSOLHEIGHT
 40
80.0
  9
$LOFTANG1
 40
1.570796326794897
  9
$LOFTANG2
 40
1.570796326794897
  9
$LOFTMAG1
 40
0.0
  9
$LOFTMAG2
 40
0.0
  9
$LOFTPARAM
 70
     7
  9
$LOFTNORMALS
280
     1
  9
$LATITUDE
 40
37.795
  9
$LONGITUDE
 40
-122.394
  9
$NORTHDIRECTION
 40
0.0
  9
$TIMEZONE
 70
 -8000
  9
$LIGHTGLYPHDISPLAY
280
     1
  9
$TILEMODELIGHTSYNCH
280
     1
  9
$SOLIDHIST
280
     1
  9
$SHOWHIST
280
     1
  9
$DWFFRAME
280
     2
  9
$DGNFRAME
280
     2
  9
$REALWORLDSCALE
290
     1
  9
$INTERFERECOLOR
 62
   256
  9
$CSHADOW
280
     0
  9
$SHADOWPLANELOCATION
 40
0.0
  0
ENDSEC
  0
SECTION
  2
CLASSES
  0
CLASS
  1
ACDBDICTIONARYWDFLT
  2
AcDbDictionaryWithDefault
  3
ObjectDBX Classes
 90
        0
 91
        4
280
     0
281
     0
  0
CLASS
  1
VISUALSTYLE
  2
AcDbVisualStyle
  3
ObjectDBX Classes
 90
     4095
 91
        4
280
     0
281
     0
  0
CLASS
  1
MATERIAL
  2
AcDbMaterial
  3
ObjectDBX Classes
 90
     1153
 91
        4
280
     0
281
     0
  0
ENDSEC
  0
SECTION
  2
TABLES
  0
TABLE
  2
VPORT
  5
8
330
0
100
AcDbSymbolTable
 70
     1
  0
VPORT
  5
29
330
8
100
AcDbSymbolTableRecord
100
AcDbViewportTableRecord
  2
*Active
 70
     0
 10
0.0
 20
0.0
 11
1.0
 21
1.0
 12
0.0
 22
0.0
 13
0.0
 23
0.0
 14
10.0
 24
10.0
 15
10.0
 25
10.0
 16
0.0
 26
0.0
 36
1.0
 17
0.0
 27
0.0
 37
0.0
 40
6534.000000000001
 41
1.414141414141414
 42
50.0
 43
0.0
 44
0.0
 50
0.0
 51
0.0
 71
     0
 72
 10000
 73
     1
 74
     3
 75
     0
 76
     0
 77
     0
 78
     0
281
     0
 65
     1
110
0.0
120
0.0
130
0.0
111
1.0
121
0.0
131
0.0
112
0.0
122
1.0
132
0.0
 79
     0
146
0.0
 60
     3
 61
     5
292
     1
282
     1
141
0.0
142
0.0
 63
   250
  0
ENDTAB
  0
TABLE
  2
LTYPE
  5
5
330
0
100
AcDbSymbolTable
 70
     5
  0
LTYPE
  5
14
330
5
100
AcDbSymbolTableRecord
100
AcDbLinetypeTableRecord
  2
ByBlock
 70
     0
  3

 72
    65
 73
     0
 40
0.0
  0
LTYPE
  5
15
330
5
100
AcDbSymbolTableRecord
100
AcDbLinetypeTableRecord
  2
ByLayer
 70
     0
  3

 72
    65
 73
     0
 40
0.0
  0
LTYPE
  5
16
330
5
100
AcDbSymbolTableRecord
100
AcDbLinetypeTableRecord
  2
Continuous
 70
     0
  3
Solid line
 72
    65
 73
     0
 40
0.0
  0
LTYPE
  5
3F
330
5
100
AcDbSymbolTableRecord
100
AcDbLinetypeTableRecord
  2
JWW_HOJO
 70
     0
  3
  -   -   -   -   -   -   -   - 
 72
    65
 73
     2
 40
1.693333333333333
 49
-1.27
 74
     0
 49
0.4233333333333333
 74
     0
  0
LTYPE
  5
40
330
5
100
AcDbSymbolTableRecord
100
AcDbLinetypeTableRecord
  2
JWW_DASHED2
 70
     0
  3
--    ----    ----    ----    --
 72
    65
 73
     2
 40
1.693333333333333
 49
0.8466666666666667
 74
     0
 49
-0.8466666666666667
 74
     0
  0
LTYPE
  5
41
330
5
100
AcDbSymbolTableRecord
100
AcDbLinetypeTableRecord
  2
JWW_DASHED1
 70
     0
  3
-  --  --  --  --  --  --  --  -
 72
    65
 73
     2
 40
0.3386666666666667
 49
0.1693333333333333
 74
     0
 49
-0.1693333333333333
 74
     0
  0
LTYPE
  5
42
330
5
100
AcDbSymbolTableRecord
100
AcDbLinetypeTableRecord
  2
JWW_CENTER1
 70
     0
  3
-----  --  ----------  --  -----
 72
    65
 73
     4
 40
3.386666666666667
 49
2.116666666666667
 74
     0
 49
-0.4233333333333333
 74
     0
 49
0.4233333333333333
 74
     0
 49
-0.4233333333333333
 74
     0
  0
ENDTAB
  0
TABLE
  2
LAYER
  5
2
330
0
100
AcDbSymbolTable
 70
    16
  0
LAYER
  5
10
330
2
100
AcDbSymbolTableRecord
100
AcDbLayerTableRecord
  2
0
 70
     0
 62
     7
  6
Continuous
370
    -3
390
F
347
3E
  0
LAYER
  5
43
330
2
100
AcDbSymbolTableRecord
100
AcDbLayerTableRecord
  2
F-0_補助線
 70
     0
 62
     7
  6
Continuous
370
    -3
390
F
347
3E
  0
LAYER
  5
44
330
2
100
AcDbSymbolTableRecord
100
AcDbLayerTableRecord
  2
枠
 70
     0
 62
     7
  6
Continuous
370
    -3
390
F
347
3E
  0
LAYER
  5
45
330
2
100
AcDbSymbolTableRecord
100
AcDbLayerTableRecord
  2
F-A_文字
 70
     0
 62
     7
  6
Continuous
370
    -3
390
F
347
3E
  0
LAYER
  5
46
330
2
100
AcDbSymbolTableRecord
100
AcDbLayerTableRecord
  2
0-A_文字
 70
     0
 62
     7
  6
Continuous
370
    -3
390
F
347
3E
  0
LAYER
  5
47
330
2
100
AcDbSymbolTableRecord
100
AcDbLayerTableRecord
  2
0-B_寸法
 70
     0
 62
     7
  6
Continuous
370
    -3
390
F
347
3E
  0
LAYER
  5
48
330
2
100
AcDbSymbolTableRecord
100
AcDbLayerTableRecord
  2
0-4_棚
 70
     0
 62
     7
  6
Continuous
370
    -3
390
F
347
3E
  0
LAYER
  5
49
330
2
100
AcDbSymbolTableRecord
100
AcDbLayerTableRecord
  2
0-C_ハッチ
 70
     0
 62
     7
  6
Continuous
370
    -3
390
F
347
3E
  0
LAYER
  5
4A
330
2
100
AcDbSymbolTableRecord
100
AcDbLayerTableRecord
  2
0-1_本体
 70
     0
 62
     7
  6
Continuous
370
    -3
390
F
347
3E
  0
LAYER
  5
4B
330
2
100
AcDbSymbolTableRecord
100
AcDbLayerTableRecord
  2
0-0_補助線
 70
     0
 62
     7
  6
Continuous
370
    -3
390
F
347
3E
  0
LAYER
  5
4C
330
2
100
AcDbSymbolTableRecord
100
AcDbLayerTableRecord
  2
0-2_扉
 70
     0
 62
     7
  6
Continuous
370
    -3
390
F
347
3E
  0
LAYER
  5
4D
330
2
100
AcDbSymbolTableRecord
100
AcDbLayerTableRecord
  2
0-6_桟木
 70
     0
 62
     7
  6
Continuous
370
    -3
390
F
347
3E
  0
LAYER
  5
4E
330
2
100
AcDbSymbolTableRecord
100
AcDbLayerTableRecord
  2
0-5_ダボ
 70
     0
 62
     7
  6
Continuous
370
    -3
390
F
347
3E
  0
LAYER
  5
4F
330
2
100
AcDbSymbolTableRecord
100
AcDbLayerTableRecord
  2
0-7__
 70
     0
 62
     7
  6
Continuous
370
    -3
390
F
347
3E
  0
LAYER
  5
50
330
2
100
AcDbSymbolTableRecord
100
AcDbLayerTableRecord
  2
0-3_扉仕上
 70
     0
 62
     7
  6
Continuous
370
    -3
390
F
347
3E
  0
LAYER
  5
51
330
2
100
AcDbSymbolTableRecord
100
AcDbLayerTableRecord
  2
0-9__
 70
     0
 62
     7
  6
Continuous
370
    -3
390
F
347
3E
  0
ENDTAB
  0
TABLE
  2
STYLE
  5
3
330
0
100
AcDbSymbolTable
 70
     1
  0
STYLE
  5
11
330
3
100
AcDbSymbolTableRecord
100
AcDbTextStyleTableRecord
  2
Standard
 70
     0
 40
0.0
 41
1.0
 50
0.0
 71
     0
 42
2.5
  3
txt
  4

  0
ENDTAB
  0
TABLE
  2
VIEW
  5
6
330
0
100
AcDbSymbolTable
 70
     0
  0
ENDTAB
  0
TABLE
  2
UCS
  5
7
330
0
100
AcDbSymbolTable
 70
     0
  0
ENDTAB
  0
TABLE
  2
APPID
  5
9
330
0
100
AcDbSymbolTable
 70
     1
  0
APPID
  5
12
330
9
100
AcDbSymbolTableRecord
100
AcDbRegAppTableRecord
  2
ACAD
 70
     0
  0
ENDTAB
  0
TABLE
  2
DIMSTYLE
  5
A
330
0
100
AcDbSymbolTable
 70
     1
100
AcDbDimStyleTable
  0
DIMSTYLE
105
27
330
A
100
AcDbSymbolTableRecord
100
AcDbDimStyleTableRecord
  2
ISO-25
 70
     0
 41
2.5
 42
0.625
 43
3.75
 44
1.25
 73
     0
 74
     0
 77
     1
 78
     8
140
2.5
141
2.5
143
0.03937007874016
147
0.625
171
     3
172
     1
178
     0
271
     2
272
     2
274
     3
278
    44
283
     0
284
     8
340
11
  0
ENDTAB
  0
TABLE
  2
BLOCK_RECORD
  5
1
330
0
100
AcDbSymbolTable
 70
     1
  0
BLOCK_RECORD
  5
1F
330
1
100
AcDbSymbolTableRecord
100
AcDbBlockTableRecord
  2
*Model_Space
340
22
 70
     0
280
     1
281
     0
  0
BLOCK_RECORD
  5
1B
330
1
100
AcDbSymbolTableRecord
100
AcDbBlockTableRecord
  2
*Paper_Space
340
1E
 70
     0
280
     1
281
     0
  0
BLOCK_RECORD
  5
23
330
1
100
AcDbSymbolTableRecord
100
AcDbBlockTableRecord
  2
*Paper_Space0
340
26
 70
     0
280
     1
281
     0
  0
ENDTAB
  0
ENDSEC
  0
SECTION
  2
BLOCKS
  0
BLOCK
  5
20
330
1F
100
AcDbEntity
  8
0
100
AcDbBlockBegin
  2
*Model_Space
 70
     0
 10
0.0
 20
0.0
 30
0.0
  3
*Model_Space
  1

  0
ENDBLK
  5
21
330
1F
100
AcDbEntity
  8
0
100
AcDbBlockEnd
  0
BLOCK
  5
1C
330
1B
100
AcDbEntity
 67
     1
  8
0
100
AcDbBlockBegin
  2
*Paper_Space
 70
     0
 10
0.0
 20
0.0
 30
0.0
  3
*Paper_Space
  1

  0
ENDBLK
  5
1D
330
1B
100
AcDbEntity
 67
     1
  8
0
100
AcDbBlockEnd
  0
BLOCK
  5
24
330
23
100
AcDbEntity
  8
0
100
AcDbBlockBegin
  2
*Paper_Space0
 70
     0
 10
0.0
 20
0.0
 30
0.0
  3
*Paper_Space0
  1

  0
ENDBLK
  5
25
330
23
100
AcDbEntity
  8
0
100
AcDbBlockEnd
  0
ENDSEC
  0
SECTION
  2
ENTITIES
  0
LINE
  5
52
330
1F
100
AcDbEntity
  8
F-0_補助線
  6
JWW_HOJO
 62
   120
370
     5
100
AcDbLine
 10
-4093.387555624515
 20
-2970.0
 30
0.0
 11
-4093.387555624515
 21
2949.99973606419
 31
0.0
  0
LINE
  5
53
330
1F
100
AcDbEntity
  8
F-0_補助線
  6
JWW_HOJO
 62
   120
370
     5
100
AcDbLine
 10
-4093.387555624515
 20
2949.99973606419
 30
0.0
 11
4106.611784535958
 21
2949.99973606419
 31
0.0
  0
LINE
  5
54
330
1F
100
AcDbEntity
  8
F-0_補助線
  6
JWW_HOJO
 62
   120
370
     5
100
AcDbLine
 10
4106.611784535958
 20
2949.99973606419
 30
0.0
 11
4106.611784535958
 21
-2970.0
 31
0.0
  0
LINE
  5
55
330
1F
100
AcDbEntity
  8
F-0_補助線
  6
JWW_HOJO
 62
   120
370
     5
100
AcDbLine
 10
4106.611784535958
 20
-2970.0
 30
0.0
 11
-4093.387555624515
 21
-2970.0
 31
0.0
  0
LINE
  5
56
330
1F
100
AcDbEntity
  8
F-0_補助線
  6
JWW_HOJO
 62
     7
370
     9
100
AcDbLine
 10
673.2788361090155
 20
-2530.000002061998
 30
0.0
 11
673.2788361090155
 21
-2796.666672165329
 31
0.0
  0
LINE
  5
57
330
1F
100
AcDbEntity
  8
F-0_補助線
  6
JWW_HOJO
 62
     7
370
     9
100
AcDbLine
 10
339.945722722191
 20
-2530.000002061998
 30
0.0
 11
339.945722722191
 21
-2796.666672165329
 31
0.0
  0
LINE
  5
58
330
1F
100
AcDbEntity
  8
枠
  6
Continuous
 62
   200
370
    20
100
AcDbLine
 10
3906.611619576076
 20
2783.333179370777
 30
0.0
 11
3906.611619576076
 21
-2803.333443306588
 31
0.0
  0
LINE
  5
59
330
1F
100
AcDbEntity
  8
枠
  6
Continuous
 62
   200
370
    20
100
AcDbLine
 10
-3893.387545314522
 20
2783.333179370777
 30
0.0
 11
-3893.387545314522
 21
-2803.333443306588
 31
0.0
  0
LINE
  5
5A
330
1F
100
AcDbEntity
  8
枠
  6
Continuous
 62
   200
370
    20
100
AcDbLine
 10
3906.611619576076
 20
-2803.333335051665
 30
0.0
 11
-3893.387390664634
 21
-2803.333335051665
 31
0.0
  0
LINE
  5
5B
330
1F
100
AcDbEntity
  8
枠
  6
Continuous
 62
   200
370
    20
100
AcDbLine
 10
-3886.720882428186
 20
2783.333179370777
 30
0.0
 11
-3886.720882428186
 21
-2803.333443306588
 31
0.0
  0
LINE
  5
5C
330
1F
100
AcDbEntity
  8
枠
  6
Continuous
 62
   200
370
    20
100
AcDbLine
 10
-3890.054206138861
 20
2783.333179370777
 30
0.0
 11
-3890.054206138861
 21
-2803.333443306588
 31
0.0
  0
LINE
  5
5D
330
1F
100
AcDbEntity
  8
枠
  6
Continuous
 62
   200
370
    20
100
AcDbLine
 10
3903.278110285536
 20
2783.333179370777
 30
0.0
 11
3903.278110285536
 21
-2803.333443306588
 31
0.0
  0
LINE
  5
5E
330
1F
100
AcDbEntity
  8
枠
  6
Continuous
 62
   200
370
    20
100
AcDbLine
 10
3899.945095874641
 20
2783.333179370777
 30
0.0
 11
3899.945095874641
 21
-2803.333443306588
 31
0.0
  0
LINE
  5
5F
330
1F
100
AcDbEntity
  8
枠
  6
Continuous
 62
   200
370
    20
100
AcDbLine
 10
3906.611619576076
 20
-2799.999995876003
 30
0.0
 11
-3893.387390664634
 21
-2799.999995876003
 31
0.0
  0
LINE
  5
60
330
1F
100
AcDbEntity
  8
枠
  6
Continuous
 62
   200
370
    20
100
AcDbLine
 10
3906.611619576076
 20
-2796.666672165329
 30
0.0
 11
-3893.387390664634
 21
-2796.666672165329
 31
0.0
  0
LINE
  5
61
330
1F
100
AcDbEntity
  8
枠
  6
Continuous
 62
   200
370
    20
100
AcDbLine
 10
2899.945260834522
 20
-2530.000002061998
 30
0.0
 11
2899.945260834522
 21
-2796.666672165329
 31
0.0
  0
LINE
  5
62
330
1F
100
AcDbEntity
  8
枠
  6
Continuous
 62
   200
370
    20
100
AcDbLine
 10
1899.944930914759
 20
-2530.000002061998
 30
0.0
 11
1899.944930914759
 21
-2796.666672165329
 31
0.0
  0
LINE
  5
63
330
1F
100
AcDbEntity
  8
枠
  6
Continuous
 62
   200
370
    20
100
AcDbLine
 10
6.612361895544154
 20
-2530.000002061998
 30
0.0
 11
6.612361895544154
 21
-2796.666672165329
 31
0.0
  0
LINE
  5
64
330
1F
100
AcDbEntity
  8
枠
  6
Continuous
 62
   200
370
    20
100
AcDbLine
 10
6.612361895544154
 20
-2663.333290718697
 30
0.0
 11
3899.945095874641
 21
-2663.336909526103
 31
0.0
  0
LINE
  5
65
330
1F
100
AcDbEntity
  8
枠
  6
Continuous
 62
   200
370
    20
100
AcDbLine
 10
-3893.387390664634
 20
2783.333179370777
 30
0.0
 11
3906.611619576076
 21
2783.333179370777
 31
0.0
  0
LINE
  5
66
330
1F
100
AcDbEntity
  8
枠
  6
Continuous
 62
   200
370
    20
100
AcDbLine
 10
-3893.387390664634
 20
2776.666655669342
 30
0.0
 11
3906.611619576076
 21
2776.666655669342
 31
0.0
  0
LINE
  5
67
330
1F
100
AcDbEntity
  8
枠
  6
Continuous
 62
   200
370
    20
100
AcDbLine
 10
-3893.387390664634
 20
2779.999670080237
 30
0.0
 11
3906.611619576076
 21
2779.999670080237
 31
0.0
  0
LINE
  5
68
330
1F
100
AcDbEntity
  8
F-0_補助線
  6
JWW_HOJO
 62
     7
370
     9
100
AcDbLine
 10
-3886.720882428186
 20
-2663.333290718927
 30
0.0
 11
6.612361895544154
 21
-2663.333290718927
 31
0.0
  0
LINE
  5
69
330
1F
100
AcDbEntity
  8
F-0_補助線
  6
JWW_HOJO
 62
     7
370
     9
100
AcDbLine
 10
-3886.720882428186
 20
-2603.333290718927
 30
0.0
 11
6.612361895544154
 21
-2603.333290718927
 31
0.0
  0
LINE
  5
6A
330
1F
100
AcDbEntity
  8
F-0_補助線
  6
JWW_HOJO
 62
     7
370
     9
100
AcDbLine
 10
-3886.720882428186
 20
-2723.333290718927
 30
0.0
 11
6.612361895544154
 21
-2723.333290718927
 31
0.0
  0
LINE
  5
6B
330
1F
100
AcDbEntity
  8
F-0_補助線
  6
JWW_HOJO
 62
     7
370
     9
100
AcDbLine
 10
6.612272045125565
 20
-2759.999826518655
 30
0.0
 11
3899.945006024222
 21
-2760.003445326061
 31
0.0
  0
LINE
  5
6C
330
1F
100
AcDbEntity
  8
F-0_補助線
  6
JWW_HOJO
 62
     7
370
     9
100
AcDbLine
 10
6.612327814426635
 20
-2699.999826518681
 30
0.0
 11
3899.945061793523
 21
-2700.003445326087
 31
0.0
  0
LINE
  5
6D
330
1F
100
AcDbEntity
  8
F-0_補助線
  6
JWW_HOJO
 62
     7
370
     9
100
AcDbLine
 10
6.612395976906669
 20
-2626.666491478713
 30
0.0
 11
3899.945129956002
 21
-2626.670110286119
 31
0.0
  0
LINE
  5
6E
330
1F
100
AcDbEntity
  8
F-0_補助線
  6
JWW_HOJO
 62
     7
370
     9
100
AcDbLine
 10
6.612451746207739
 20
-2566.66649147874
 30
0.0
 11
3899.945185725303
 21
-2566.670110286145
 31
0.0
  0
LINE
  5
6F
330
1F
100
AcDbEntity
  8
F-0_補助線
  6
JWW_HOJO
 62
     7
370
     9
100
AcDbLine
 10
1959.944930914759
 20
-2530.000002061998
 30
0.0
 11
1959.944930914759
 21
-2796.666672165329
 31
0.0
  0
LINE
  5
70
330
1F
100
AcDbEntity
  8
F-0_補助線
  6
JWW_HOJO
 62
     7
370
     9
100
AcDbLine
 10
66.61236189554415
 20
-2530.000002061998
 30
0.0
 11
66.61236189554415
 21
-2796.666672165329
 31
0.0
  0
LINE
  5
71
330
1F
100
AcDbEntity
  8
F-0_補助線
  6
JWW_HOJO
 62
     7
370
     9
100
AcDbLine
 10
2959.945260834522
 20
-2530.000002061998
 30
0.0
 11
2959.945260834522
 21
-2796.666672165329
 31
0.0
  0
MTEXT
  5
72
330
1F
100
AcDbEntity
  8
F-A_文字
  6
Continuous
 62
     7
370
     0
100
AcDbMText
 10
66.61236189554415
 20
-2591.426547247957
 30
0.0
 40
30.48
 41
120.0
 46
0.0
 71
     7
 72
     1
  1
{\fＭＳ ゴシック|b0|i0|c128|p49;図面名}
 73
     1
 44
1.0
  0
MTEXT
  5
73
330
1F
100
AcDbEntity
  8
F-A_文字
  6
Continuous
 62
     7
370
     0
100
AcDbMText
 10
1959.944930914759
 20
-2591.428307078516
 30
0.0
 40
30.48
 41
200.0
 46
0.0
 71
     7
 72
     1
  1
{\fＭＳ ゴシック|b0|i0|c128|p49;ＳＣＡＬＥ}
 73
     1
 44
1.0
  0
MTEXT
  5
74
330
1F
100
AcDbEntity
  8
F-A_文字
  6
Continuous
 62
     7
370
     0
100
AcDbMText
 10
2959.945260834522
 20
-2591.429236567169
 30
0.0
 40
30.48
 41
160.0
 46
0.0
 71
     7
 72
     1
  1
{\fＭＳ ゴシック|b0|i0|c128|p49;ＤＡＴＥ}
 73
     1
 44
1.0
  0
MTEXT
  5
75
330
1F
100
AcDbEntity
  8
F-A_文字
  6
Continuous
 62
     7
370
     0
100
AcDbMText
 10
893.5575789779642
 20
-2630.949274399892
 30
0.0
 40
51.435
 41
270.0
 46
0.0
 71
     7
 72
     1
  1
{\fＭＳ ゴシック|b0|i0|c128|p49;玄関収納}
 73
     1
 44
1.0
  0
MTEXT
  5
76
330
1F
100
AcDbEntity
  8
F-A_文字
  6
Continuous
 62
     7
370
     0
100
AcDbMText
 10
2362.445095874641
 20
-2630.951243938205
 30
0.0
 40
51.435
 41
135.0
 46
0.0
 71
     7
 72
     1
  1
{\fＭＳ ゴシック|b0|i0|c128|p49;1/20}
 73
     1
 44
1.0
  0
MTEXT
  5
77
330
1F
100
AcDbEntity
  8
F-A_文字
  6
Continuous
 62
     7
370
     0
100
AcDbMText
 10
339.945722722191
 20
-2634.331527915002
 30
0.0
 40
45.72
 41
240.0
 46
0.0
 71
     7
 72
     1
  1
{\fＭＳ ゴシック|b0|i0|c128|p49;DOORETUS}
 73
     1
 44
1.0
  0
LINE
  5
78
330
1F
100
AcDbEntity
  8
枠
  6
Continuous
 62
   200
370
    20
100
AcDbLine
 10
3906.611619576076
 20
-2530.000002061998
 30
0.0
 11
-3893.387390664634
 21
-2530.000002061998
 31
0.0
  0
LINE
  5
79
330
1F
100
AcDbEntity
  8
枠
  6
Continuous
 62
   200
370
    20
100
AcDbLine
 10
3906.611619576076
 20
-2526.666678351325
 30
0.0
 11
-3893.387390664634
 21
-2526.666678351325
 31
0.0
  0
LINE
  5
7A
330
1F
100
AcDbEntity
  8
F-0_補助線
  6
JWW_HOJO
 62
     7
370
     9
100
AcDbLine
 10
-3391.752473459741
 20
-2530.000002061999
 30
0.0
 11
-3391.752473459741
 21
-2803.333443306588
 31
0.0
  0
LINE
  5
7B
330
1F
100
AcDbEntity
  8
F-0_補助線
  6
JWW_HOJO
 62
     7
370
     9
100
AcDbLine
 10
-33.38763810445585
 20
-2530.000002061998
 30
0.0
 11
-33.38763810445585
 21
-2796.666672165329
 31
0.0
  0
MTEXT
  5
7C
330
1F
100
AcDbEntity
  8
F-A_文字
  6
Continuous
 62
     7
370
     0
100
AcDbMText
 10
1959.944930914759
 20
-2724.761642118573
 30
0.0
 40
30.48
 41
160.0
 46
0.0
 71
     7
 72
     1
  1
{\fＭＳ ゴシック|b0|i0|c128|p49;ＦＩＬＥ}
 73
     1
 44
1.0
  0
MTEXT
  5
7D
330
1F
100
AcDbEntity
  8
F-A_文字
  6
Continuous
 62
     7
370
     0
100
AcDbMText
 10
2959.945260834522
 20
-2724.762571607227
 30
0.0
 40
30.48
 41
120.0
 46
0.0
 71
     7
 72
     1
  1
{\fＭＳ ゴシック|b0|i0|c128|p49;ＮＯ．}
 73
     1
 44
1.0
  0
MTEXT
  5
7E
330
1F
100
AcDbEntity
  8
F-A_文字
  6
Continuous
 62
     7
370
     0
100
AcDbMText
 10
929.9449309147587
 20
-2730.760446177432
 30
0.0
 40
30.48
 41
80.0
 46
0.0
 71
     7
 72
     1
  1
{\fＭＳ ゴシック|b0|i0|c128|p49;株式}
 73
     1
 44
1.0
  0
MTEXT
  5
7F
330
1F
100
AcDbEntity
  8
F-A_文字
  6
Continuous
 62
     7
370
     9
100
AcDbMText
 10
3397.445133429372
 20
-2765.238008466657
 30
0.0
 40
49.53
 41
65.0
 46
0.0
 71
     7
 72
     1
  1
{\fＭＳ ゴシック|b0|i0|c128|p49;01}
 73
     1
 44
1.0
  0
MTEXT
  5
80
330
1F
100
AcDbEntity
  8
F-A_文字
  6
Continuous
 62
     7
370
     0
100
AcDbMText
 10
1069.944930914759
 20
-2776.187836349286
 30
0.0
 40
67.62750000000003
 41
710.0000000000002
 46
0.0
 71
     7
 72
     1
  1
{\fＭＳ ゴシック|b0|i0|c128|p49;ウッドワン・・・}
 73
     1
 44
1.0
  0
MTEXT
  5
81
330
1F
100
AcDbEntity
  8
F-A_文字
  6
Continuous
 62
     7
370
     0
100
AcDbMText
 10
929.9449309147587
 20
-2778.760446177458
 30
0.0
 40
30.48
 41
80.0
 46
0.0
 71
     7
 72
     1
  1
{\fＭＳ ゴシック|b0|i0|c128|p49;会社}
 73
     1
 44
1.0
  0
MTEXT
  5
82
330
1F
100
AcDbEntity
  8
F-A_文字
  6
Continuous
 62
     7
370
     0
100
AcDbMText
 10
3845.547985115293
 20
-2876.560946013945
 30
0.0
 40
45.72
 41
60.0
 46
0.0
 71
     7
 72
     1
  1
{\fＭＳ ゴシック|b0|i0|c128|p49;）}
 73
     1
 44
1.0
  0
MTEXT
  5
83
330
1F
100
AcDbEntity
  8
F-A_文字
  6
Continuous
 62
     7
370
     0
100
AcDbMText
 10
3566.743078270199
 20
-2877.490295913237
 30
0.0
 40
45.72
 41
30.0
 46
0.0
 71
     7
 72
     1
  1
{\fＭＳ ゴシック|b0|i0|c128|p49;,}
 73
     1
 44
1.0
  0
MTEXT
  5
84
330
1F
100
AcDbEntity
  8
F-A_文字
  6
Continuous
 62
     7
370
     0
100
AcDbMText
 10
3389.2372856524
 20
-2876.514644858855
 30
0.0
 40
49.53
 41
65.0
 46
0.0
 71
     7
 72
     1
  1
{\fＭＳ ゴシック|b0|i0|c128|p49;$y}
 73
     1
 44
1.0
  0
MTEXT
  5
85
330
1F
100
AcDbEntity
  8
F-A_文字
  6
Continuous
 62
     7
370
     0
100
AcDbMText
 10
3492.395099678281
 20
-2876.514644858855
 30
0.0
 40
49.53
 41
65.0
 46
0.0
 71
     7
 72
     1
  1
{\fＭＳ ゴシック|b0|i0|c128|p49;$m}
 73
     1
 44
1.0
  0
MTEXT
  5
86
330
1F
100
AcDbEntity
  8
F-A_文字
  6
Continuous
 62
     7
370
     0
100
AcDbMText
 10
3595.552921333554
 20
-2876.514644858855
 30
0.0
 40
49.53
 41
65.0
 46
0.0
 71
     7
 72
     1
  1
{\fＭＳ ゴシック|b0|i0|c128|p49;$d}
 73
     1
 44
1.0
  0
MTEXT
  5
87
330
1F
100
AcDbEntity
  8
F-A_文字
  6
Continuous
 62
     7
370
     0
100
AcDbMText
 10
3698.710742988826
 20
-2876.514644858855
 30
0.0
 40
49.53
 41
130.0
 46
0.0
 71
     7
 72
     1
  1
{\fＭＳ ゴシック|b0|i0|c128|p49;印刷}
 73
     1
 44
1.0
  0
MTEXT
  5
88
330
1F
100
AcDbEntity
  8
F-A_文字
  6
Continuous
 62
     7
370
     0
100
AcDbMText
 10
3295.968027210818
 20
-2879.348995711821
 30
0.0
 40
45.72
 41
60.0
 46
0.0
 71
     7
 72
     1
  1
{\fＭＳ ゴシック|b0|i0|c128|p49;（}
 73
     1
 44
1.0
  0
MTEXT
  5
89
330
1F
100
AcDbEntity
  8
F-A_文字
  6
Continuous
 62
     7
370
     0
100
AcDbMText
 10
3460.797206917048
 20
-2879.348995711821
 30
0.0
 40
45.72
 41
30.0
 46
0.0
 71
     7
 72
     1
  1
{\fＭＳ ゴシック|b0|i0|c128|p49;,}
 73
     1
 44
1.0
  0
MTEXT
  5
8A
330
1F
100
AcDbEntity
  8
F-A_文字
  6
Continuous
 62
     7
370
     0
100
AcDbMText
 10
-3386.720882428186
 20
-2696.796974929453
 30
0.0
 40
53.07263157894736
 41
1985.0
 46
0.0
 71
     7
 72
     1
  1
{\fＭＳ ゴシック|b0|i0|c128|p49;ドレタス　玄関収納　組合せプラン　床置きタイプ　Ｔ-３０１}
 73
     1
 44
1.0
  0
LINE
  5
8B
330
1F
100
AcDbEntity
  8
0-A_文字
  6
Continuous
 62
     7
370
     9
100
AcDbLine
 10
-3743.332919558964
 20
2486.666787637248
 30
0.0
 11
-3743.332919558964
 21
2636.666787637248
 31
0.0
  0
LINE
  5
8C
330
1F
100
AcDbEntity
  8
0-A_文字
  6
Continuous
 62
     7
370
     9
100
AcDbLine
 10
-3743.332919558964
 20
2636.666787637248
 30
0.0
 11
-2574.63158471731
 21
2636.666787637248
 31
0.0
  0
LINE
  5
8D
330
1F
100
AcDbEntity
  8
0-A_文字
  6
Continuous
 62
     7
370
     9
100
AcDbLine
 10
-3743.332919558964
 20
2486.666787637248
 30
0.0
 11
-2574.63158471731
 21
2486.666787637248
 31
0.0
  0
LINE
  5
8E
330
1F
100
AcDbEntity
  8
0-A_文字
  6
Continuous
 62
     7
370
     9
100
AcDbLine
 10
-2574.63158471731
 20
2486.666787637248
 30
0.0
 11
-2574.63158471731
 21
2636.666787637248
 31
0.0
  0
MTEXT
  5
8F
330
1F
100
AcDbEntity
  8
0-A_文字
  6
Continuous
 62
     7
370
     9
100
AcDbMText
 10
-3408.982252138137
 20
2499.766787637247
 30
0.0
 40
76.2
 41
500.0
 46
0.0
 71
     7
 72
     1
  1
{\fＭＳ ゴシック|b0|i0|c128|p49;Ｔ－３０１}
 73
     1
 44
1.0
  0
MTEXT
  5
90
330
1F
100
AcDbEntity
  8
0-B_寸法
  6
Continuous
 62
     7
370
   211
100
AcDbMText
 10
-1390.684957613007
 20
-454.3065463834193
 30
0.0
 40
45.72
 41
150.0
 46
0.0
 71
     7
 72
     1
  1
{\fＭＳ ゴシック|b0|i0|c128|p49;2,139}
 11
6.123031769111886E-17
 21
1.0
 31
0.0
 73
     1
 44
1.0
  0
LINE
  5
91
330
1F
100
AcDbEntity
  8
0-B_寸法
  6
Continuous
 62
   120
370
     5
100
AcDbLine
 10
-1380.684957613007
 20
712.3334536165811
 30
0.0
 11
-1180.684957613007
 21
712.3334536165811
 31
0.0
  0
MTEXT
  5
92
330
1F
100
AcDbEntity
  8
0-B_寸法
  6
Continuous
 62
     7
370
   211
100
AcDbMText
 10
-1390.684957613007
 20
635.9655753262166
 30
0.0
 40
45.72
 41
60.0
 46
0.0
 71
     7
 72
     1
  1
{\fＭＳ ゴシック|b0|i0|c128|p49;15}
 11
6.123031769111886E-17
 21
1.0
 31
0.0
 73
     1
 44
1.0
  0
LINE
  5
93
330
1F
100
AcDbEntity
  8
0-4_棚
  6
Continuous
 62
    92
370
    13
100
AcDbLine
 10
-1115.684957613007
 20
-933.6665463834206
 30
0.0
 11
-349.6849576130057
 21
-933.6665463834206
 31
0.0
  0
LINE
  5
94
330
1F
100
AcDbEntity
  8
0-4_棚
  6
Continuous
 62
    92
370
    13
100
AcDbLine
 10
-1115.684957613007
 20
-945.6665463834204
 30
0.0
 11
-349.6849576130057
 21
-945.6665463834204
 31
0.0
  0
LINE
  5
95
330
1F
100
AcDbEntity
  8
0-4_棚
  6
Continuous
 62
    92
370
    13
100
AcDbLine
 10
-1115.684957613007
 20
-689.6665463834194
 30
0.0
 11
-349.6849576130057
 21
-689.6665463834194
 31
0.0
  0
LINE
  5
96
330
1F
100
AcDbEntity
  8
0-4_棚
  6
Continuous
 62
    92
370
    13
100
AcDbLine
 10
-1115.684957613007
 20
-433.6665463834197
 30
0.0
 11
-349.6849576130057
 21
-433.6665463834197
 31
0.0
  0
LINE
  5
97
330
1F
100
AcDbEntity
  8
0-4_棚
  6
Continuous
 62
    92
370
    13
100
AcDbLine
 10
-1115.684957613007
 20
-421.666546383421
 30
0.0
 11
-349.6849576130057
 21
-421.666546383421
 31
0.0
  0
LINE
  5
98
330
1F
100
AcDbEntity
  8
0-4_棚
  6
Continuous
 62
    92
370
    13
100
AcDbLine
 10
-1115.684957613007
 20
-677.6665463834206
 30
0.0
 11
-349.6849576130057
 21
-677.6665463834206
 31
0.0
  0
LINE
  5
99
330
1F
100
AcDbEntity
  8
0-4_棚
  6
Continuous
 62
    92
370
    13
100
AcDbLine
 10
-1115.684957613007
 20
494.3334536165816
 30
0.0
 11
-349.6849576130057
 21
494.3334536165816
 31
0.0
  0
LINE
  5
9A
330
1F
100
AcDbEntity
  8
0-4_棚
  6
Continuous
 62
    92
370
    13
100
AcDbLine
 10
-1115.684957613007
 20
46.3334536165803
 30
0.0
 11
-349.6849576130057
 21
46.3334536165803
 31
0.0
  0
LINE
  5
9B
330
1F
100
AcDbEntity
  8
0-4_棚
  6
Continuous
 62
    92
370
    13
100
AcDbLine
 10
-1115.684957613007
 20
58.33345361658075
 30
0.0
 11
-349.6849576130057
 21
58.33345361658075
 31
0.0
  0
LINE
  5
9C
330
1F
100
AcDbEntity
  8
0-4_棚
  6
Continuous
 62
    92
370
    13
100
AcDbLine
 10
-1115.684957613007
 20
270.3334536165812
 30
0.0
 11
-349.6849576130057
 21
270.3334536165812
 31
0.0
  0
LINE
  5
9D
330
1F
100
AcDbEntity
  8
0-4_棚
  6
Continuous
 62
    92
370
    13
100
AcDbLine
 10
-1115.684957613007
 20
282.33345361658
 30
0.0
 11
-349.6849576130057
 21
282.33345361658
 31
0.0
  0
LINE
  5
9E
330
1F
100
AcDbEntity
  8
0-4_棚
  6
Continuous
 62
    92
370
    13
100
AcDbLine
 10
-349.6849576130057
 20
-204.6665463834233
 30
0.0
 11
-1116.814436854306
 21
-204.6665463834233
 31
0.0
  0
LINE
  5
9F
330
1F
100
AcDbEntity
  8
0-4_棚
  6
Continuous
 62
    92
370
    13
100
AcDbLine
 10
-349.6849576130057
 20
-219.6665463834233
 30
0.0
 11
-1116.814436854306
 21
-219.6665463834233
 31
0.0
  0
LINE
  5
A0
330
1F
100
AcDbEntity
  8
0-4_棚
  6
Continuous
 62
    92
370
    13
100
AcDbLine
 10
-1115.684957613007
 20
506.333453616582
 30
0.0
 11
-349.6849576130057
 21
506.333453616582
 31
0.0
  0
LINE
  5
A1
330
1F
100
AcDbEntity
  8
0-4_棚
  6
Continuous
 62
    92
370
    13
100
AcDbLine
 10
-1115.684957613007
 20
-421.666546383421
 30
0.0
 11
-1115.684957613007
 21
-433.6665463834197
 31
0.0
  0
LINE
  5
A2
330
1F
100
AcDbEntity
  8
0-4_棚
  6
Continuous
 62
    92
370
    13
100
AcDbLine
 10
-1115.684957613007
 20
-677.6665463834206
 30
0.0
 11
-1115.684957613007
 21
-689.6665463834194
 31
0.0
  0
LINE
  5
A3
330
1F
100
AcDbEntity
  8
0-4_棚
  6
Continuous
 62
    92
370
    13
100
AcDbLine
 10
-1115.684957613007
 20
-933.6665463834206
 30
0.0
 11
-1115.684957613007
 21
-945.6665463834204
 31
0.0
  0
LINE
  5
A4
330
1F
100
AcDbEntity
  8
0-4_棚
  6
Continuous
 62
    92
370
    13
100
AcDbLine
 10
-1115.684957613007
 20
506.333453616582
 30
0.0
 11
-1115.684957613007
 21
494.3334536165816
 31
0.0
  0
LINE
  5
A5
330
1F
100
AcDbEntity
  8
0-4_棚
  6
Continuous
 62
    92
370
    13
100
AcDbLine
 10
-1115.684957613007
 20
58.33345361658075
 30
0.0
 11
-1115.684957613007
 21
46.3334536165803
 31
0.0
  0
LINE
  5
A6
330
1F
100
AcDbEntity
  8
0-4_棚
  6
Continuous
 62
    92
370
    13
100
AcDbLine
 10
-1115.684957613007
 20
282.33345361658
 30
0.0
 11
-1115.684957613007
 21
270.3334536165812
 31
0.0
  0
LINE
  5
A7
330
1F
100
AcDbEntity
  8
0-4_棚
  6
Continuous
 62
    92
370
    13
100
AcDbLine
 10
-349.6849576130057
 20
-1189.66654638342
 30
0.0
 11
-1115.684957613007
 21
-1189.66654638342
 31
0.0
  0
LINE
  5
A8
330
1F
100
AcDbEntity
  8
0-4_棚
  6
Continuous
 62
    92
370
    13
100
AcDbLine
 10
-349.6849576130057
 20
-1201.666546383421
 30
0.0
 11
-1115.684957613007
 21
-1201.666546383421
 31
0.0
  0
LINE
  5
A9
330
1F
100
AcDbEntity
  8
0-B_寸法
  6
JWW_HOJO
 62
     7
370
     9
100
AcDbLine
 10
-580.1849576130058
 20
712.3334536165811
 30
0.0
 11
-580.1849576130058
 21
-1456.666546383419
 31
0.0
  0
LINE
  5
AA
330
1F
100
AcDbEntity
  8
0-B_寸法
  6
JWW_HOJO
 62
     7
370
     9
100
AcDbLine
 10
-885.1849576130058
 20
-1456.666546383419
 30
0.0
 11
-885.1849576130058
 21
712.3334536165811
 31
0.0
  0
MTEXT
  5
AB
330
1F
100
AcDbEntity
  8
0-B_寸法
  6
Continuous
 62
     7
370
   211
100
AcDbMText
 10
-1290.778065179671
 20
-249.3065463834211
 30
0.0
 40
45.72
 41
60.0
 46
0.0
 71
     7
 72
     1
  1
{\fＭＳ ゴシック|b0|i0|c128|p49;15}
 11
6.123031769111886E-17
 21
1.0
 31
0.0
 73
     1
 44
1.0
  0
LINE
  5
AC
330
1F
100
AcDbEntity
  8
0-B_寸法
  6
Continuous
 62
   120
370
     5
100
AcDbLine
 10
-1280.778065179671
 20
-204.6665463834233
 30
0.0
 11
-1179.806260943003
 21
-204.6665463834233
 31
0.0
  0
LWPOLYLINE
  5
AD
330
1F
100
AcDbEntity
  8
0-B_寸法
  6
Continuous
 62
     7
370
     9
100
AcDbPolyline
 90
        4
 70
     1
 43
2.0
 10
-1279.778065179671
 20
-204.6665463834233
 42
0.4142135623731
 10
-1280.778065179671
 20
-203.6665463834233
 42
0.4142135623731
 10
-1281.778065179671
 20
-204.6665463834233
 42
0.4142135623731
 10
-1280.778065179671
 20
-205.6665463834233
 42
0.4142135623731
  0
LINE
  5
AE
330
1F
100
AcDbEntity
  8
0-B_寸法
  6
Continuous
 62
   120
370
     5
100
AcDbLine
 10
-1280.778065179671
 20
-219.6665463834194
 30
0.0
 11
-1280.778065179671
 21
-204.6665463834233
 31
0.0
  0
MTEXT
  5
AF
330
1F
100
AcDbEntity
  8
0-B_寸法
  6
Continuous
 62
     7
370
   211
100
AcDbMText
 10
-1290.778065179671
 20
-912.8065463834201
 30
0.0
 40
45.72
 41
150.0
 46
0.0
 71
     7
 72
     1
  1
{\fＭＳ ゴシック|b0|i0|c128|p49;1,222}
 11
6.123031769111886E-17
 21
1.0
 31
0.0
 73
     1
 44
1.0
  0
LINE
  5
B0
330
1F
100
AcDbEntity
  8
0-B_寸法
  6
Continuous
 62
   120
370
     5
100
AcDbLine
 10
-1280.778065179671
 20
-219.6665463834194
 30
0.0
 11
-1179.806260943003
 21
-219.6665463834194
 31
0.0
  0
LINE
  5
B1
330
1F
100
AcDbEntity
  8
0-B_寸法
  6
Continuous
 62
   120
370
     5
100
AcDbLine
 10
-1380.684957613007
 20
-1441.666546383419
 30
0.0
 11
-1179.806260943003
 21
-1441.666546383419
 31
0.0
  0
LWPOLYLINE
  5
B2
330
1F
100
AcDbEntity
  8
0-B_寸法
  6
Continuous
 62
     7
370
     9
100
AcDbPolyline
 90
        4
 70
     1
 43
2.0
 10
-1279.778065179671
 20
-219.6665463834194
 42
0.4142135623731
 10
-1280.778065179671
 20
-218.6665463834194
 42
0.4142135623731
 10
-1281.778065179671
 20
-219.6665463834194
 42
0.4142135623731
 10
-1280.778065179671
 20
-220.6665463834194
 42
0.4142135623731
  0
LWPOLYLINE
  5
B3
330
1F
100
AcDbEntity
  8
0-B_寸法
  6
Continuous
 62
     7
370
     9
100
AcDbPolyline
 90
        4
 70
     1
 43
2.0
 10
-1279.778065179671
 20
-1441.666546383419
 42
0.4142135623731
 10
-1280.778065179671
 20
-1440.66654638342
 42
0.4142135623731
 10
-1281.778065179671
 20
-1441.666546383419
 42
0.4142135623731
 10
-1280.778065179671
 20
-1442.666546383419
 42
0.4142135623731
  0
LINE
  5
B4
330
1F
100
AcDbEntity
  8
0-B_寸法
  6
Continuous
 62
   120
370
     5
100
AcDbLine
 10
-1280.778065179671
 20
-1441.666546383419
 30
0.0
 11
-1280.778065179671
 21
-219.6665463834194
 31
0.0
  0
LINE
  5
B5
330
1F
100
AcDbEntity
  8
0-C_ハッチ
  6
Continuous
 62
   120
370
     5
100
AcDbLine
 10
-1116.814436854309
 20
-206.6538900009897
 30
0.0
 11
-1114.827093236737
 21
-204.6665463834182
 31
0.0
  0
LINE
  5
B6
330
1F
100
AcDbEntity
  8
0-C_ハッチ
  6
Continuous
 62
   120
370
     5
100
AcDbLine
 10
-1115.684957613007
 20
-219.6665463834194
 30
0.0
 11
-1100.684957613007
 21
-204.6665463834194
 31
0.0
  0
LINE
  5
B7
330
1F
100
AcDbEntity
  8
0-C_ハッチ
  6
Continuous
 62
   120
370
     5
100
AcDbLine
 10
-1101.542821989275
 20
-219.6665463834216
 30
0.0
 11
-1086.542821989274
 21
-204.6665463834211
 31
0.0
  0
LINE
  5
B8
330
1F
100
AcDbEntity
  8
0-C_ハッチ
  6
Continuous
 62
   120
370
     5
100
AcDbLine
 10
-1087.400686365542
 20
-219.6665463834228
 30
0.0
 11
-1072.400686365541
 21
-204.6665463834211
 31
0.0
  0
LINE
  5
B9
330
1F
100
AcDbEntity
  8
0-C_ハッチ
  6
Continuous
 62
   120
370
     5
100
AcDbLine
 10
-1073.25855074181
 20
-219.6665463834239
 30
0.0
 11
-1058.258550741808
 21
-204.6665463834228
 31
0.0
  0
LINE
  5
BA
330
1F
100
AcDbEntity
  8
0-C_ハッチ
  6
Continuous
 62
   120
370
     5
100
AcDbLine
 10
-1059.116415118077
 20
-219.6665463834239
 30
0.0
 11
-1044.116415118076
 21
-204.6665463834239
 31
0.0
  0
LINE
  5
BB
330
1F
100
AcDbEntity
  8
0-C_ハッチ
  6
Continuous
 62
   120
370
     5
100
AcDbLine
 10
-1044.974279494346
 20
-219.6665463834262
 30
0.0
 11
-1029.974279494343
 21
-204.6665463834239
 31
0.0
  0
LINE
  5
BC
330
1F
100
AcDbEntity
  8
0-C_ハッチ
  6
Continuous
 62
   120
370
     5
100
AcDbLine
 10
-1030.832143870612
 20
-219.6665463834273
 30
0.0
 11
-1015.832143870612
 21
-204.6665463834262
 31
0.0
  0
LINE
  5
BD
330
1F
100
AcDbEntity
  8
0-C_ハッチ
  6
Continuous
 62
   120
370
     5
100
AcDbLine
 10
-1016.690008246882
 20
-219.6665463834285
 30
0.0
 11
-1001.690008246879
 21
-204.6665463834273
 31
0.0
  0
LINE
  5
BE
330
1F
100
AcDbEntity
  8
0-C_ハッチ
  6
Continuous
 62
   120
370
     5
100
AcDbLine
 10
-1002.547872623148
 20
-219.6665463834285
 30
0.0
 11
-987.5478726231472
 21
-204.6665463834279
 31
0.0
  0
LINE
  5
BF
330
1F
100
AcDbEntity
  8
0-C_ハッチ
  6
Continuous
 62
   120
370
     5
100
AcDbLine
 10
-988.4057369994366
 20
-219.6665463834142
 30
0.0
 11
-973.4057369994457
 21
-204.6665463834233
 31
0.0
  0
LINE
  5
C0
330
1F
100
AcDbEntity
  8
0-C_ハッチ
  6
Continuous
 62
   120
370
     5
100
AcDbLine
 10
-974.2636013757038
 20
-219.6665463834148
 30
0.0
 11
-959.2636013757033
 21
-204.6665463834142
 31
0.0
  0
LINE
  5
C1
330
1F
100
AcDbEntity
  8
0-C_ハッチ
  6
Continuous
 62
   120
370
     5
100
AcDbLine
 10
-960.1214657519728
 20
-219.6665463834165
 30
0.0
 11
-945.1214657519705
 21
-204.6665463834148
 31
0.0
  0
LINE
  5
C2
330
1F
100
AcDbEntity
  8
0-C_ハッチ
  6
Continuous
 62
   120
370
     5
100
AcDbLine
 10
-945.9793301282394
 20
-219.6665463834182
 30
0.0
 11
-930.9793301282394
 21
-204.6665463834171
 31
0.0
  0
LINE
  5
C3
330
1F
100
AcDbEntity
  8
0-C_ハッチ
  6
Continuous
 62
   120
370
     5
100
AcDbLine
 10
-931.837194504509
 20
-219.6665463834194
 30
0.0
 11
-916.8371945045078
 21
-204.6665463834188
 31
0.0
  0
LINE
  5
C4
330
1F
100
AcDbEntity
  8
0-C_ハッチ
  6
Continuous
 62
   120
370
     5
100
AcDbLine
 10
-917.6950588807773
 20
-219.6665463834211
 30
0.0
 11
-902.6950588807756
 21
-204.6665463834194
 31
0.0
  0
LINE
  5
C5
330
1F
100
AcDbEntity
  8
0-C_ハッチ
  6
Continuous
 62
   120
370
     5
100
AcDbLine
 10
-903.552923257044
 20
-219.6665463834216
 30
0.0
 11
-888.552923257044
 21
-204.6665463834211
 31
0.0
  0
LINE
  5
C6
330
1F
100
AcDbEntity
  8
0-C_ハッチ
  6
Continuous
 62
   120
370
     5
100
AcDbLine
 10
-889.4107876333123
 20
-219.6665463834233
 30
0.0
 11
-874.4107876333106
 21
-204.6665463834216
 31
0.0
  0
LINE
  5
C7
330
1F
100
AcDbEntity
  8
0-C_ハッチ
  6
Continuous
 62
   120
370
     5
100
AcDbLine
 10
-875.2686520095773
 20
-219.6665463834216
 30
0.0
 11
-860.2686520095756
 21
-204.6665463834194
 31
0.0
  0
LINE
  5
C8
330
1F
100
AcDbEntity
  8
0-C_ハッチ
  6
Continuous
 62
   120
370
     5
100
AcDbLine
 10
-861.126516385844
 20
-219.6665463834228
 30
0.0
 11
-846.126516385844
 21
-204.6665463834211
 31
0.0
  0
LINE
  5
C9
330
1F
100
AcDbEntity
  8
0-C_ハッチ
  6
Continuous
 62
   120
370
     5
100
AcDbLine
 10
-846.9843807621123
 20
-219.6665463834233
 30
0.0
 11
-831.9843807621106
 21
-204.6665463834216
 31
0.0
  0
LINE
  5
CA
330
1F
100
AcDbEntity
  8
0-C_ハッチ
  6
Continuous
 62
   120
370
     5
100
AcDbLine
 10
-832.8422451383796
 20
-219.6665463834239
 30
0.0
 11
-817.842245138379
 21
-204.6665463834233
 31
0.0
  0
LINE
  5
CB
330
1F
100
AcDbEntity
  8
0-C_ハッチ
  6
Continuous
 62
   120
370
     5
100
AcDbLine
 10
-818.7001095146485
 20
-219.6665463834262
 30
0.0
 11
-803.7001095146462
 21
-204.6665463834239
 31
0.0
  0
LINE
  5
CC
330
1F
100
AcDbEntity
  8
0-C_ハッチ
  6
Continuous
 62
   120
370
     5
100
AcDbLine
 10
-804.5579738909152
 20
-219.6665463834262
 30
0.0
 11
-789.5579738909152
 21
-204.6665463834256
 31
0.0
  0
LINE
  5
CD
330
1F
100
AcDbEntity
  8
0-C_ハッチ
  6
Continuous
 62
   120
370
     5
100
AcDbLine
 10
-790.4158382671835
 20
-219.6665463834279
 30
0.0
 11
-775.4158382671818
 21
-204.6665463834262
 31
0.0
  0
LINE
  5
CE
330
1F
100
AcDbEntity
  8
0-C_ハッチ
  6
Continuous
 62
   120
370
     5
100
AcDbLine
 10
-776.2737026434735
 20
-219.6665463834148
 30
0.0
 11
-761.2737026434849
 21
-204.6665463834256
 31
0.0
  0
LINE
  5
CF
330
1F
100
AcDbEntity
  8
0-C_ハッチ
  6
Continuous
 62
   120
370
     5
100
AcDbLine
 10
-762.1315670197424
 20
-219.6665463834171
 30
0.0
 11
-747.1315670197401
 21
-204.6665463834165
 31
0.0
  0
LINE
  5
D0
330
1F
100
AcDbEntity
  8
0-C_ハッチ
  6
Continuous
 62
   120
370
     5
100
AcDbLine
 10
-747.9894313960108
 20
-219.6665463834188
 30
0.0
 11
-732.9894313960091
 21
-204.6665463834171
 31
0.0
  0
LINE
  5
D1
330
1F
100
AcDbEntity
  8
0-C_ハッチ
  6
Continuous
 62
   120
370
     5
100
AcDbLine
 10
-733.847295772278
 20
-219.6665463834194
 30
0.0
 11
-718.8472957722774
 21
-204.6665463834188
 31
0.0
  0
LINE
  5
D2
330
1F
100
AcDbEntity
  8
0-C_ハッチ
  6
Continuous
 62
   120
370
     5
100
AcDbLine
 10
-719.705160148547
 20
-219.6665463834211
 30
0.0
 11
-704.7051601485447
 21
-204.6665463834194
 31
0.0
  0
LINE
  5
D3
330
1F
100
AcDbEntity
  8
0-C_ハッチ
  6
Continuous
 62
   120
370
     5
100
AcDbLine
 10
-705.5630245248136
 20
-219.6665463834216
 30
0.0
 11
-690.5630245248136
 21
-204.6665463834211
 31
0.0
  0
LINE
  5
D4
330
1F
100
AcDbEntity
  8
0-C_ハッチ
  6
Continuous
 62
   120
370
     5
100
AcDbLine
 10
-691.420888901082
 20
-219.6665463834239
 30
0.0
 11
-676.4208889010803
 21
-204.6665463834228
 31
0.0
  0
LINE
  5
D5
330
1F
100
AcDbEntity
  8
0-C_ハッチ
  6
Continuous
 62
   120
370
     5
100
AcDbLine
 10
-677.2787532773492
 20
-219.6665463834239
 30
0.0
 11
-662.2787532773492
 21
-204.6665463834239
 31
0.0
  0
LINE
  5
D6
330
1F
100
AcDbEntity
  8
0-C_ハッチ
  6
Continuous
 62
   120
370
     5
100
AcDbLine
 10
-663.1366176536113
 20
-219.6665463834194
 30
0.0
 11
-648.1366176536108
 21
-204.6665463834188
 31
0.0
  0
LINE
  5
D7
330
1F
100
AcDbEntity
  8
0-C_ハッチ
  6
Continuous
 62
   120
370
     5
100
AcDbLine
 10
-648.9944820298803
 20
-219.6665463834211
 30
0.0
 11
-633.994482029878
 21
-204.6665463834194
 31
0.0
  0
LINE
  5
D8
330
1F
100
AcDbEntity
  8
0-C_ハッチ
  6
Continuous
 62
   120
370
     5
100
AcDbLine
 10
-634.8523464061469
 20
-219.6665463834216
 30
0.0
 11
-619.8523464061469
 21
-204.6665463834211
 31
0.0
  0
LINE
  5
D9
330
1F
100
AcDbEntity
  8
0-C_ハッチ
  6
Continuous
 62
   120
370
     5
100
AcDbLine
 10
-620.7102107824153
 20
-219.6665463834233
 30
0.0
 11
-605.7102107824136
 21
-204.6665463834216
 31
0.0
  0
LINE
  5
DA
330
1F
100
AcDbEntity
  8
0-C_ハッチ
  6
Continuous
 62
   120
370
     5
100
AcDbLine
 10
-606.5680751586825
 20
-219.6665463834239
 30
0.0
 11
-591.568075158682
 21
-204.6665463834233
 31
0.0
  0
LINE
  5
DB
330
1F
100
AcDbEntity
  8
0-C_ハッチ
  6
Continuous
 62
   120
370
     5
100
AcDbLine
 10
-592.4259395349515
 20
-219.6665463834256
 30
0.0
 11
-577.4259395349492
 21
-204.6665463834239
 31
0.0
  0
LINE
  5
DC
330
1F
100
AcDbEntity
  8
0-C_ハッチ
  6
Continuous
 62
   120
370
     5
100
AcDbLine
 10
-578.2838039112181
 20
-219.6665463834262
 30
0.0
 11
-563.2838039112181
 21
-204.6665463834256
 31
0.0
  0
LINE
  5
DD
330
1F
100
AcDbEntity
  8
0-C_ハッチ
  6
Continuous
 62
   120
370
     5
100
AcDbLine
 10
-564.1416682875121
 20
-219.6665463834171
 30
0.0
 11
-549.1416682875212
 21
-204.6665463834262
 31
0.0
  0
LINE
  5
DE
330
1F
100
AcDbEntity
  8
0-C_ハッチ
  6
Continuous
 62
   120
370
     5
100
AcDbLine
 10
-549.9995326637804
 20
-219.6665463834188
 30
0.0
 11
-534.9995326637787
 21
-204.6665463834171
 31
0.0
  0
LINE
  5
DF
330
1F
100
AcDbEntity
  8
0-C_ハッチ
  6
Continuous
 62
   120
370
     5
100
AcDbLine
 10
-535.8573970400477
 20
-219.6665463834194
 30
0.0
 11
-520.8573970400471
 21
-204.6665463834188
 31
0.0
  0
LINE
  5
E0
330
1F
100
AcDbEntity
  8
0-C_ハッチ
  6
Continuous
 62
   120
370
     5
100
AcDbLine
 10
-521.7152614163166
 20
-219.6665463834216
 30
0.0
 11
-506.7152614163143
 21
-204.6665463834194
 31
0.0
  0
LINE
  5
E1
330
1F
100
AcDbEntity
  8
0-C_ハッチ
  6
Continuous
 62
   120
370
     5
100
AcDbLine
 10
-507.5731257925833
 20
-219.6665463834228
 30
0.0
 11
-492.5731257925833
 21
-204.6665463834216
 31
0.0
  0
LINE
  5
E2
330
1F
100
AcDbEntity
  8
0-C_ハッチ
  6
Continuous
 62
   120
370
     5
100
AcDbLine
 10
-493.4309901688522
 20
-219.6665463834239
 30
0.0
 11
-478.4309901688516
 21
-204.6665463834233
 31
0.0
  0
LINE
  5
E3
330
1F
100
AcDbEntity
  8
0-C_ハッチ
  6
Continuous
 62
   120
370
     5
100
AcDbLine
 10
-479.2888545451211
 20
-219.6665463834256
 30
0.0
 11
-464.2888545451189
 21
-204.6665463834239
 31
0.0
  0
LINE
  5
E4
330
1F
100
AcDbEntity
  8
0-C_ハッチ
  6
Continuous
 62
   120
370
     5
100
AcDbLine
 10
-465.1467189213878
 20
-219.6665463834262
 30
0.0
 11
-450.1467189213878
 21
-204.6665463834256
 31
0.0
  0
LINE
  5
E5
330
1F
100
AcDbEntity
  8
0-C_ハッチ
  6
Continuous
 62
   120
370
     5
100
AcDbLine
 10
-451.0045832976471
 20
-219.6665463834188
 30
0.0
 11
-436.0045832976454
 21
-204.6665463834171
 31
0.0
  0
LINE
  5
E6
330
1F
100
AcDbEntity
  8
0-C_ハッチ
  6
Continuous
 62
   120
370
     5
100
AcDbLine
 10
-436.8624476739143
 20
-219.6665463834194
 30
0.0
 11
-421.8624476739137
 21
-204.6665463834188
 31
0.0
  0
LINE
  5
E7
330
1F
100
AcDbEntity
  8
0-C_ハッチ
  6
Continuous
 62
   120
370
     5
100
AcDbLine
 10
-422.7203120501832
 20
-219.6665463834211
 30
0.0
 11
-407.720312050181
 21
-204.6665463834194
 31
0.0
  0
LINE
  5
E8
330
1F
100
AcDbEntity
  8
0-C_ハッチ
  6
Continuous
 62
   120
370
     5
100
AcDbLine
 10
-408.5781764264499
 20
-219.6665463834216
 30
0.0
 11
-393.5781764264499
 21
-204.6665463834211
 31
0.0
  0
LINE
  5
E9
330
1F
100
AcDbEntity
  8
0-C_ハッチ
  6
Continuous
 62
   120
370
     5
100
AcDbLine
 10
-394.4360408027183
 20
-219.6665463834233
 30
0.0
 11
-379.4360408027165
 21
-204.6665463834216
 31
0.0
  0
LINE
  5
EA
330
1F
100
AcDbEntity
  8
0-C_ハッチ
  6
Continuous
 62
   120
370
     5
100
AcDbLine
 10
-380.2939051789855
 20
-219.6665463834239
 30
0.0
 11
-365.2939051789849
 21
-204.6665463834233
 31
0.0
  0
LINE
  5
EB
330
1F
100
AcDbEntity
  8
0-C_ハッチ
  6
Continuous
 62
   120
370
     5
100
AcDbLine
 10
-366.1517695552544
 20
-219.6665463834256
 30
0.0
 11
-351.1517695552521
 21
-204.6665463834239
 31
0.0
  0
LINE
  5
EC
330
1F
100
AcDbEntity
  8
0-C_ハッチ
  6
Continuous
 62
   120
370
     5
100
AcDbLine
 10
-352.0096339315501
 20
-219.6665463834194
 30
0.0
 11
-350.8144368543077
 21
-218.4713493061764
 31
0.0
  0
LINE
  5
ED
330
1F
100
AcDbEntity
  8
0-B_寸法
  6
Continuous
 62
   120
370
     5
100
AcDbLine
 10
-1380.684957613007
 20
697.3334536165811
 30
0.0
 11
-1180.684957613007
 21
697.3334536165811
 31
0.0
  0
LWPOLYLINE
  5
EE
330
1F
100
AcDbEntity
  8
0-B_寸法
  6
Continuous
 62
     7
370
     9
100
AcDbPolyline
 90
        4
 70
     1
 43
2.0
 10
-1379.684957613007
 20
697.3334536165811
 42
0.4142135623731
 10
-1380.684957613007
 20
698.333453616581
 42
0.4142135623731
 10
-1381.684957613006
 20
697.3334536165811
 42
0.4142135623731
 10
-1380.684957613007
 20
696.3334536165812
 42
0.4142135623731
  0
LWPOLYLINE
  5
EF
330
1F
100
AcDbEntity
  8
0-B_寸法
  6
Continuous
 62
     7
370
     9
100
AcDbPolyline
 90
        4
 70
     1
 43
2.0
 10
-1379.684957613007
 20
712.3334536165811
 42
0.4142135623731
 10
-1380.684957613007
 20
713.333453616581
 42
0.4142135623731
 10
-1381.684957613006
 20
712.3334536165811
 42
0.4142135623731
 10
-1380.684957613007
 20
711.3334536165812
 42
0.4142135623731
  0
LINE
  5
F0
330
1F
100
AcDbEntity
  8
0-B_寸法
  6
Continuous
 62
   120
370
     5
100
AcDbLine
 10
-1380.684957613007
 20
712.3334536165811
 30
0.0
 11
-1380.684957613007
 21
-1456.666546383419
 31
0.0
  0
MTEXT
  5
F1
330
1F
100
AcDbEntity
  8
0-B_寸法
  6
Continuous
 62
     7
370
   211
100
AcDbMText
 10
-544.8656885756583
 20
627.5984536165806
 30
0.0
 40
49.53
 41
65.0
 46
0.0
 71
     7
 72
     1
  1
{\fＭＳ ゴシック|b0|i0|c128|p49;64}
 11
6.123031769111886E-17
 21
1.0
 31
0.0
 73
     1
 44
1.0
  0
LINE
  5
F2
330
1F
100
AcDbEntity
  8
0-B_寸法
  6
Continuous
 62
   120
370
     5
100
AcDbLine
 10
-534.8656885756583
 20
633.3334536165808
 30
0.0
 11
-564.1039648589555
 21
633.3334536165808
 31
0.0
  0
LINE
  5
F3
330
1F
100
AcDbEntity
  8
0-B_寸法
  6
Continuous
 62
   120
370
     5
100
AcDbLine
 10
-534.8656885756583
 20
697.3334536165811
 30
0.0
 11
-564.1039648589555
 21
697.3334536165811
 31
0.0
  0
LWPOLYLINE
  5
F4
330
1F
100
AcDbEntity
  8
0-B_寸法
  6
Continuous
 62
     7
370
     9
100
AcDbPolyline
 90
        4
 70
     1
 43
2.0
 10
-533.8656885756583
 20
633.3334536165808
 42
0.4142135623731
 10
-534.8656885756583
 20
634.3334536165808
 42
0.4142135623731
 10
-535.8656885756583
 20
633.3334536165808
 42
0.4142135623731
 10
-534.8656885756583
 20
632.3334536165808
 42
0.4142135623731
  0
LWPOLYLINE
  5
F5
330
1F
100
AcDbEntity
  8
0-B_寸法
  6
Continuous
 62
     7
370
     9
100
AcDbPolyline
 90
        4
 70
     1
 43
2.0
 10
-533.8656885756583
 20
697.3334536165811
 42
0.4142135623731
 10
-534.8656885756583
 20
698.333453616581
 42
0.4142135623731
 10
-535.8656885756583
 20
697.3334536165811
 42
0.4142135623731
 10
-534.8656885756583
 20
696.3334536165812
 42
0.4142135623731
  0
LINE
  5
F6
330
1F
100
AcDbEntity
  8
0-B_寸法
  6
Continuous
 62
   120
370
     5
100
AcDbLine
 10
-534.8656885756583
 20
697.3334536165811
 30
0.0
 11
-534.8656885756583
 21
633.3334536165808
 31
0.0
  0
LINE
  5
F7
330
1F
100
AcDbEntity
  8
0-1_本体
  6
JWW_DASHED2
 62
     7
370
     9
100
AcDbLine
 10
-349.6849576130057
 20
633.3334536165808
 30
0.0
 11
-1115.684957613007
 21
633.3334536165808
 31
0.0
  0
LINE
  5
F8
330
1F
100
AcDbEntity
  8
0-1_本体
  6
Continuous
 62
    92
370
    13
100
AcDbLine
 10
-1130.684957613007
 20
712.3334536165811
 30
0.0
 11
-334.6849576130057
 21
712.3334536165811
 31
0.0
  0
LINE
  5
F9
330
1F
100
AcDbEntity
  8
0-1_本体
  6
Continuous
 62
    92
370
    13
100
AcDbLine
 10
-1115.684957613007
 20
697.3334536165811
 30
0.0
 11
-349.6849576130057
 21
697.3334536165811
 31
0.0
  0
LINE
  5
FA
330
1F
100
AcDbEntity
  8
0-1_本体
  6
Continuous
 62
    92
370
    13
100
AcDbLine
 10
-1115.684957613007
 20
-1456.666546383419
 30
0.0
 11
-1115.684957613007
 21
712.3334536165811
 31
0.0
  0
LINE
  5
FB
330
1F
100
AcDbEntity
  8
0-1_本体
  6
Continuous
 62
    92
370
    13
100
AcDbLine
 10
-1130.684957613007
 20
-1456.666546383419
 30
0.0
 11
-1130.684957613007
 21
712.3334536165811
 31
0.0
  0
LINE
  5
FC
330
1F
100
AcDbEntity
  8
0-1_本体
  6
Continuous
 62
    92
370
    13
100
AcDbLine
 10
-349.6849576130057
 20
712.3334536165811
 30
0.0
 11
-349.6849576130057
 21
-1456.666546383419
 31
0.0
  0
LINE
  5
FD
330
1F
100
AcDbEntity
  8
0-1_本体
  6
Continuous
 62
    92
370
    13
100
AcDbLine
 10
-334.6849576130057
 20
712.3334536165811
 30
0.0
 11
-334.6849576130057
 21
-1456.666546383419
 31
0.0
  0
MTEXT
  5
FE
330
1F
100
AcDbEntity
  8
0-B_寸法
  6
Continuous
 62
     7
370
   211
100
AcDbMText
 10
-1390.684957613007
 20
-1451.758095972124
 30
0.0
 40
45.72
 41
60.0
 46
0.0
 71
     7
 72
     1
  1
{\fＭＳ ゴシック|b0|i0|c128|p49;15}
 11
6.123031769111886E-17
 21
1.0
 31
0.0
 73
     1
 44
1.0
  0
LINE
  5
FF
330
1F
100
AcDbEntity
  8
0-B_寸法
  6
Continuous
 62
   120
370
     5
100
AcDbLine
 10
-1380.684957613007
 20
-1456.666546383419
 30
0.0
 11
-1180.684957613007
 21
-1456.666546383419
 31
0.0
  0
LWPOLYLINE
  5
100
330
1F
100
AcDbEntity
  8
0-B_寸法
  6
Continuous
 62
     7
370
     9
100
AcDbPolyline
 90
        4
 70
     1
 43
2.0
 10
-1379.684957613007
 20
-1456.666546383419
 42
0.4142135623731
 10
-1380.684957613007
 20
-1455.66654638342
 42
0.4142135623731
 10
-1381.684957613006
 20
-1456.666546383419
 42
0.4142135623731
 10
-1380.684957613007
 20
-1457.666546383419
 42
0.4142135623731
  0
LWPOLYLINE
  5
101
330
1F
100
AcDbEntity
  8
0-B_寸法
  6
Continuous
 62
     7
370
     9
100
AcDbPolyline
 90
        4
 70
     1
 43
2.0
 10
-1379.684957613007
 20
-1441.666546383419
 42
0.4142135623731
 10
-1380.684957613007
 20
-1440.66654638342
 42
0.4142135623731
 10
-1381.684957613006
 20
-1441.666546383419
 42
0.4142135623731
 10
-1380.684957613007
 20
-1442.666546383419
 42
0.4142135623731
  0
LINE
  5
102
330
1F
100
AcDbEntity
  8
0-1_本体
  6
Continuous
 62
    92
370
    13
100
AcDbLine
 10
-334.6849576130057
 20
-1456.666546383419
 30
0.0
 11
-1130.684957613007
 21
-1456.666546383419
 31
0.0
  0
LINE
  5
103
330
1F
100
AcDbEntity
  8
0-1_本体
  6
Continuous
 62
    92
370
    13
100
AcDbLine
 10
-349.6849576130057
 20
-1441.666546383419
 30
0.0
 11
-1115.684957613007
 21
-1441.666546383419
 31
0.0
  0
LINE
  5
104
330
1F
100
AcDbEntity
  8
0-1_本体
  6
Continuous
 62
    40
370
    15
100
AcDbLine
 10
-1115.684957613007
 20
1738.063356107788
 30
0.0
 11
-1130.684957613007
 21
1738.063356107788
 31
0.0
  0
LINE
  5
105
330
1F
100
AcDbEntity
  8
0-1_本体
  6
Continuous
 62
    40
370
    15
100
AcDbLine
 10
-1130.684957613007
 20
1738.063356107788
 30
0.0
 11
-1130.684957613007
 21
2083.063356107788
 31
0.0
  0
LINE
  5
106
330
1F
100
AcDbEntity
  8
0-1_本体
  6
Continuous
 62
    40
370
    15
100
AcDbLine
 10
-349.6849576130063
 20
1738.063356107788
 30
0.0
 11
-334.6849576130063
 21
1738.063356107788
 31
0.0
  0
LINE
  5
107
330
1F
100
AcDbEntity
  8
0-1_本体
  6
Continuous
 62
    40
370
    15
100
AcDbLine
 10
-334.6849576130063
 20
1738.063356107788
 30
0.0
 11
-334.6849576130063
 21
2083.063356107788
 31
0.0
  0
LINE
  5
108
330
1F
100
AcDbEntity
  8
0-1_本体
  6
Continuous
 62
    40
370
    15
100
AcDbLine
 10
-1115.684957613007
 20
2080.063356107787
 30
0.0
 11
-1115.684957613007
 21
1738.063356107788
 31
0.0
  0
LINE
  5
109
330
1F
100
AcDbEntity
  8
0-1_本体
  6
Continuous
 62
    40
370
    15
100
AcDbLine
 10
-349.6849576130063
 20
2080.063356107787
 30
0.0
 11
-349.6849576130063
 21
1738.063356107788
 31
0.0
  0
LINE
  5
10A
330
1F
100
AcDbEntity
  8
0-B_寸法
  6
Continuous
 62
   120
370
     5
100
AcDbLine
 10
-1130.684957613007
 20
1460.063356107787
 30
0.0
 11
-334.6849576130063
 21
1460.063356107787
 31
0.0
  0
LWPOLYLINE
  5
10B
330
1F
100
AcDbEntity
  8
0-B_寸法
  6
Continuous
 62
     7
370
     9
100
AcDbPolyline
 90
        4
 70
     1
 43
2.0
 10
-1129.684957613007
 20
1460.063356107787
 42
0.4142135623731
 10
-1130.684957613007
 20
1461.063356107787
 42
0.4142135623731
 10
-1131.684957613006
 20
1460.063356107787
 42
0.4142135623731
 10
-1130.684957613007
 20
1459.063356107787
 42
0.4142135623731
  0
LWPOLYLINE
  5
10C
330
1F
100
AcDbEntity
  8
0-B_寸法
  6
Continuous
 62
     7
370
     9
100
AcDbPolyline
 90
        4
 70
     1
 43
2.0
 10
-333.6849576130063
 20
1460.063356107787
 42
0.4142135623731
 10
-334.6849576130063
 20
1461.063356107787
 42
0.4142135623731
 10
-335.6849576130063
 20
1460.063356107787
 42
0.4142135623731
 10
-334.6849576130063
 20
1459.063356107787
 42
0.4142135623731
  0
LINE
  5
10D
330
1F
100
AcDbEntity
  8
0-B_寸法
  6
Continuous
 62
   120
370
     5
100
AcDbLine
 10
-1130.684957613007
 20
1460.063356107787
 30
0.0
 11
-1130.684957613007
 21
1560.063356107787
 31
0.0
  0
LINE
  5
10E
330
1F
100
AcDbEntity
  8
0-B_寸法
  6
Continuous
 62
   120
370
     5
100
AcDbLine
 10
-334.6849576130063
 20
1460.063356107787
 30
0.0
 11
-334.6849576130063
 21
1560.063356107787
 31
0.0
  0
MTEXT
  5
10F
330
1F
100
AcDbEntity
  8
0-B_寸法
  6
Continuous
 62
     7
370
   211
100
AcDbMText
 10
-777.6849576130058
 20
1462.923356107787
 30
0.0
 40
45.72
 41
90.0
 46
0.0
 71
     7
 72
     1
  1
{\fＭＳ ゴシック|b0|i0|c128|p49;796}
 73
     1
 44
1.0
  0
LINE
  5
110
330
1F
100
AcDbEntity
  8
0-4_棚
  6
Continuous
 62
    92
370
    13
100
AcDbLine
 10
-1115.684957613007
 20
1790.063356107787
 30
0.0
 11
-349.6849576130063
 21
1790.063356107787
 31
0.0
  0
LINE
  5
111
330
1F
100
AcDbEntity
  8
0-4_棚
  6
Continuous
 62
    92
370
    13
100
AcDbLine
 10
-1115.684957613007
 20
1745.063356107787
 30
0.0
 11
-349.6849576130063
 21
1745.063356107787
 31
0.0
  0
LINE
  5
112
330
1F
100
AcDbEntity
  8
0-0_補助線
  6
JWW_HOJO
 62
   120
370
     5
100
AcDbLine
 10
-1180.684957613007
 20
2133.063356107788
 30
0.0
 11
-1180.684957613007
 21
1460.063356107787
 31
0.0
  0
LINE
  5
113
330
1F
100
AcDbEntity
  8
0-0_補助線
  6
JWW_HOJO
 62
   120
370
     5
100
AcDbLine
 10
-1280.684957613007
 20
2133.063356107788
 30
0.0
 11
-1280.684957613007
 21
1460.063356107787
 31
0.0
  0
LINE
  5
114
330
1F
100
AcDbEntity
  8
0-0_補助線
  6
JWW_HOJO
 62
   120
370
     5
100
AcDbLine
 10
-1380.684957613007
 20
2133.063356107788
 30
0.0
 11
-1380.684957613007
 21
1460.063356107787
 31
0.0
  0
LINE
  5
115
330
1F
100
AcDbEntity
  8
0-0_補助線
  6
JWW_HOJO
 62
   120
370
     5
100
AcDbLine
 10
-284.6849576130063
 20
1460.063356107787
 30
0.0
 11
-284.6849576130063
 21
2133.063356107788
 31
0.0
  0
MTEXT
  5
116
330
1F
100
AcDbEntity
  8
0-A_文字
  6
Continuous
 62
     7
370
     9
100
AcDbMText
 10
-932.6849576130058
 20
1165.863356107787
 30
0.0
 40
101.6
 41
400.0
 46
0.0
 71
     7
 72
     1
  1
{\fＭＳ ゴシック|b0|i0|c128|p49;平面図}
 73
     1
 44
1.0
  0
LINE
  5
117
330
1F
100
AcDbEntity
  8
0-A_文字
  6
Continuous
 62
     7
370
     9
100
AcDbLine
 10
-1157.684957613008
 20
1160.063356107787
 30
0.0
 11
-1157.684957613008
 21
1310.063356107787
 31
0.0
  0
LINE
  5
118
330
1F
100
AcDbEntity
  8
0-A_文字
  6
Continuous
 62
     7
370
     9
100
AcDbLine
 10
-307.6849576130058
 20
1160.063356107787
 30
0.0
 11
-1157.684957613008
 21
1160.063356107787
 31
0.0
  0
LINE
  5
119
330
1F
100
AcDbEntity
  8
0-A_文字
  6
Continuous
 62
     7
370
     9
100
AcDbLine
 10
-307.6849576130058
 20
1310.063356107787
 30
0.0
 11
-307.6849576130058
 21
1160.063356107787
 31
0.0
  0
LINE
  5
11A
330
1F
100
AcDbEntity
  8
0-A_文字
  6
Continuous
 62
     7
370
     9
100
AcDbLine
 10
-1157.684957613008
 20
1310.063356107787
 30
0.0
 11
-307.6849576130058
 21
1310.063356107787
 31
0.0
  0
LINE
  5
11B
330
1F
100
AcDbEntity
  8
0-0_補助線
  6
JWW_HOJO
 62
   120
370
     5
100
AcDbLine
 10
-284.6849576130063
 20
-1851.166546383419
 30
0.0
 11
-284.6849576130063
 21
862.3334536165811
 31
0.0
  0
LINE
  5
11C
330
1F
100
AcDbEntity
  8
0-0_補助線
  6
JWW_HOJO
 62
   120
370
     5
100
AcDbLine
 10
-1180.684957613007
 20
-1851.166546383419
 30
0.0
 11
-1180.684957613007
 21
862.3334536165811
 31
0.0
  0
LINE
  5
11D
330
1F
100
AcDbEntity
  8
0-0_補助線
  6
JWW_HOJO
 62
     7
370
     9
100
AcDbLine
 10
-334.6849576130063
 20
-1851.166546383419
 30
0.0
 11
-334.6849576130063
 21
862.3334536165811
 31
0.0
  0
LINE
  5
11E
330
1F
100
AcDbEntity
  8
0-0_補助線
  6
JWW_HOJO
 62
     7
370
     9
100
AcDbLine
 10
-1130.684957613007
 20
862.3334536165811
 30
0.0
 11
-1130.684957613007
 21
-1851.166546383419
 31
0.0
  0
LINE
  5
11F
330
1F
100
AcDbEntity
  8
0-1_本体
  6
JWW_DASHED2
 62
     7
370
     9
100
AcDbLine
 10
-349.6849576130057
 20
-1377.66654638342
 30
0.0
 11
-1115.684957613007
 21
-1377.66654638342
 31
0.0
  0
MTEXT
  5
120
330
1F
100
AcDbEntity
  8
0-B_寸法
  6
Continuous
 62
     7
370
   211
100
AcDbMText
 10
-544.8656885756583
 20
-1447.40154638342
 30
0.0
 40
49.53
 41
65.0
 46
0.0
 71
     7
 72
     1
  1
{\fＭＳ ゴシック|b0|i0|c128|p49;64}
 11
6.123031769111886E-17
 21
1.0
 31
0.0
 73
     1
 44
1.0
  0
LINE
  5
121
330
1F
100
AcDbEntity
  8
0-B_寸法
  6
Continuous
 62
   120
370
     5
100
AcDbLine
 10
-534.8656885756583
 20
-1441.666546383419
 30
0.0
 11
-564.1039648589555
 21
-1441.666546383419
 31
0.0
  0
LINE
  5
122
330
1F
100
AcDbEntity
  8
0-B_寸法
  6
Continuous
 62
   120
370
     5
100
AcDbLine
 10
-534.8656885756583
 20
-1377.66654638342
 30
0.0
 11
-564.1039648589555
 21
-1377.66654638342
 31
0.0
  0
LWPOLYLINE
  5
123
330
1F
100
AcDbEntity
  8
0-B_寸法
  6
Continuous
 62
     7
370
     9
100
AcDbPolyline
 90
        4
 70
     1
 43
2.0
 10
-533.8656885756583
 20
-1441.666546383419
 42
0.4142135623731
 10
-534.8656885756583
 20
-1440.66654638342
 42
0.4142135623731
 10
-535.8656885756583
 20
-1441.666546383419
 42
0.4142135623731
 10
-534.8656885756583
 20
-1442.666546383419
 42
0.4142135623731
  0
LWPOLYLINE
  5
124
330
1F
100
AcDbEntity
  8
0-B_寸法
  6
Continuous
 62
     7
370
     9
100
AcDbPolyline
 90
        4
 70
     1
 43
2.0
 10
-533.8656885756583
 20
-1377.66654638342
 42
0.4142135623731
 10
-534.8656885756583
 20
-1376.66654638342
 42
0.4142135623731
 10
-535.8656885756583
 20
-1377.66654638342
 42
0.4142135623731
 10
-534.8656885756583
 20
-1378.66654638342
 42
0.4142135623731
  0
LINE
  5
125
330
1F
100
AcDbEntity
  8
0-B_寸法
  6
Continuous
 62
   120
370
     5
100
AcDbLine
 10
-534.8656885756583
 20
-1377.66654638342
 30
0.0
 11
-534.8656885756583
 21
-1441.666546383419
 31
0.0
  0
MTEXT
  5
126
330
1F
100
AcDbEntity
  8
0-B_寸法
  6
Continuous
 62
     7
370
   211
100
AcDbMText
 10
-2986.684957613007
 20
-544.3065463834188
 30
0.0
 40
45.71999999999998
 41
330.0
 46
0.0
 71
     7
 72
     1
  1
{\fＭＳ ゴシック|b0|i0|c128|p49;ＤＨ＝2,163}
 11
6.123031769111886E-17
 21
1.0
 31
0.0
 73
     1
 44
1.0
  0
MTEXT
  5
127
330
1F
100
AcDbEntity
  8
0-B_寸法
  6
Continuous
 62
     7
370
   211
100
AcDbMText
 10
-3086.684957613007
 20
-454.3065463834193
 30
0.0
 40
45.72
 41
150.0
 46
0.0
 71
     7
 72
     1
  1
{\fＭＳ ゴシック|b0|i0|c128|p49;2,169}
 11
6.123031769111886E-17
 21
1.0
 31
0.0
 73
     1
 44
1.0
  0
MTEXT
  5
128
330
1F
100
AcDbEntity
  8
0-B_寸法
  6
Continuous
 62
     7
370
   211
100
AcDbMText
 10
-2986.684957613007
 20
671.8669953966082
 30
0.0
 40
45.72
 41
30.0
 46
0.0
 71
     7
 72
     1
  1
{\fＭＳ ゴシック|b0|i0|c128|p49;3}
 11
6.123031769111886E-17
 21
1.0
 31
0.0
 73
     1
 44
1.0
  0
LINE
  5
129
330
1F
100
AcDbEntity
  8
0-B_寸法
  6
Continuous
 62
   120
370
     5
100
AcDbLine
 10
-3076.684957613007
 20
712.3334536165811
 30
0.0
 11
-2876.684957613007
 21
712.3334536165811
 31
0.0
  0
LINE
  5
12A
330
1F
100
AcDbEntity
  8
0-B_寸法
  6
Continuous
 62
   120
370
     5
100
AcDbLine
 10
-3076.684957613007
 20
-1456.666546383419
 30
0.0
 11
-2876.684957613007
 21
-1456.666546383419
 31
0.0
  0
LWPOLYLINE
  5
12B
330
1F
100
AcDbEntity
  8
0-B_寸法
  6
Continuous
 62
     7
370
     9
100
AcDbPolyline
 90
        4
 70
     1
 43
2.0
 10
-3075.684957613007
 20
712.3334536165811
 42
0.4142135623731
 10
-3076.684957613007
 20
713.333453616581
 42
0.4142135623731
 10
-3077.684957613007
 20
712.3334536165811
 42
0.4142135623731
 10
-3076.684957613007
 20
711.3334536165812
 42
0.4142135623731
  0
LWPOLYLINE
  5
12C
330
1F
100
AcDbEntity
  8
0-B_寸法
  6
Continuous
 62
     7
370
     9
100
AcDbPolyline
 90
        4
 70
     1
 43
2.0
 10
-3075.684957613007
 20
-1456.666546383419
 42
0.4142135623731
 10
-3076.684957613007
 20
-1455.66654638342
 42
0.4142135623731
 10
-3077.684957613007
 20
-1456.666546383419
 42
0.4142135623731
 10
-3076.684957613007
 20
-1457.666546383419
 42
0.4142135623731
  0
LINE
  5
12D
330
1F
100
AcDbEntity
  8
0-B_寸法
  6
Continuous
 62
   120
370
     5
100
AcDbLine
 10
-3076.684957613007
 20
-1456.666546383419
 30
0.0
 11
-3076.684957613007
 21
712.3334536165811
 31
0.0
  0
MTEXT
  5
12E
330
1F
100
AcDbEntity
  8
0-B_寸法
  6
Continuous
 62
     7
370
   211
100
AcDbMText
 10
-2364.684957613004
 20
865.1934536165811
 30
0.0
 40
45.71999999999999
 41
270.0
 46
0.0
 71
     7
 72
     1
  1
{\fＭＳ ゴシック|b0|i0|c128|p49;ＤＷ＝394}
 73
     1
 44
1.0
  0
MTEXT
  5
12F
330
1F
100
AcDbEntity
  8
0-B_寸法
  6
Continuous
 62
     7
370
   211
100
AcDbMText
 10
-2762.684957613006
 20
865.1934536165811
 30
0.0
 40
45.71999999999999
 41
270.0
 46
0.0
 71
     7
 72
     1
  1
{\fＭＳ ゴシック|b0|i0|c128|p49;ＤＷ＝394}
 73
     1
 44
1.0
  0
LWPOLYLINE
  5
130
330
1F
100
AcDbEntity
  8
0-B_寸法
  6
Continuous
 62
     7
370
     9
100
AcDbPolyline
 90
        4
 70
     1
 43
2.0
 10
-2975.684957613007
 20
712.3334536165811
 42
0.4142135623731
 10
-2976.684957613007
 20
713.333453616581
 42
0.4142135623731
 10
-2977.684957613007
 20
712.3334536165811
 42
0.4142135623731
 10
-2976.684957613007
 20
711.3334536165812
 42
0.4142135623731
  0
LINE
  5
131
330
1F
100
AcDbEntity
  8
0-B_寸法
  6
Continuous
 62
   120
370
     5
100
AcDbLine
 10
-2976.684957613007
 20
709.3334536165816
 30
0.0
 11
-2976.684957613007
 21
712.3334536165811
 31
0.0
  0
LINE
  5
132
330
1F
100
AcDbEntity
  8
0-B_寸法
  6
Continuous
 62
   120
370
     5
100
AcDbLine
 10
-2976.684957613007
 20
709.3334536165816
 30
0.0
 11
-2876.684957613007
 21
709.3334536165816
 31
0.0
  0
LWPOLYLINE
  5
133
330
1F
100
AcDbEntity
  8
0-B_寸法
  6
Continuous
 62
     7
370
     9
100
AcDbPolyline
 90
        4
 70
     1
 43
2.0
 10
-2975.684957613007
 20
709.3334536165816
 42
0.4142135623731
 10
-2976.684957613007
 20
710.3334536165814
 42
0.4142135623731
 10
-2977.684957613007
 20
709.3334536165816
 42
0.4142135623731
 10
-2976.684957613007
 20
708.3334536165817
 42
0.4142135623731
  0
LINE
  5
134
330
1F
100
AcDbEntity
  8
0-B_寸法
  6
Continuous
 62
   120
370
     5
100
AcDbLine
 10
-2976.684957613007
 20
-1453.666533407557
 30
0.0
 11
-2976.684957613007
 21
709.3334536165816
 31
0.0
  0
LINE
  5
135
330
1F
100
AcDbEntity
  8
0-B_寸法
  6
Continuous
 62
   120
370
     5
100
AcDbLine
 10
-2976.684957613007
 20
-1453.666533407557
 30
0.0
 11
-2876.684957613007
 21
-1453.666533407557
 31
0.0
  0
LWPOLYLINE
  5
136
330
1F
100
AcDbEntity
  8
0-B_寸法
  6
Continuous
 62
     7
370
     9
100
AcDbPolyline
 90
        4
 70
     1
 43
2.0
 10
-2975.684957613007
 20
-1453.666533407557
 42
0.4142135623731
 10
-2976.684957613007
 20
-1452.666533407557
 42
0.4142135623731
 10
-2977.684957613007
 20
-1453.666533407557
 42
0.4142135623731
 10
-2976.684957613007
 20
-1454.666533407557
 42
0.4142135623731
  0
LWPOLYLINE
  5
137
330
1F
100
AcDbEntity
  8
0-B_寸法
  6
Continuous
 62
     7
370
     9
100
AcDbPolyline
 90
        4
 70
     1
 43
2.0
 10
-2975.684957613007
 20
-1456.666546383419
 42
0.4142135623731
 10
-2976.684957613007
 20
-1455.66654638342
 42
0.4142135623731
 10
-2977.684957613007
 20
-1456.666546383419
 42
0.4142135623731
 10
-2976.684957613007
 20
-1457.666546383419
 42
0.4142135623731
  0
LINE
  5
138
330
1F
100
AcDbEntity
  8
0-B_寸法
  6
Continuous
 62
   120
370
     5
100
AcDbLine
 10
-2976.684957613007
 20
-1456.666546383419
 30
0.0
 11
-2976.684957613007
 21
-1453.666533407557
 31
0.0
  0
LINE
  5
139
330
1F
100
AcDbEntity
  8
0-1_本体
  6
Continuous
 62
     7
370
     9
100
AcDbLine
 10
-2030.684957613004
 20
-1456.666533407557
 30
0.0
 11
-2826.684957613007
 21
-1456.666533407557
 31
0.0
  0
LINE
  5
13A
330
1F
100
AcDbEntity
  8
0-1_本体
  6
Continuous
 62
     7
370
     9
100
AcDbLine
 10
-2030.684957613004
 20
-1456.666533407557
 30
0.0
 11
-2030.684957613004
 21
712.3334536165811
 31
0.0
  0
MTEXT
  5
13B
330
1F
100
AcDbEntity
  8
0-B_寸法
  6
Continuous
 62
     7
370
   211
100
AcDbMText
 10
-2046.684957613006
 20
865.1934536165811
 30
0.0
 40
45.72
 41
30.0
 46
0.0
 71
     7
 72
     1
  1
{\fＭＳ ゴシック|b0|i0|c128|p49;2}
 73
     1
 44
1.0
  0
LINE
  5
13C
330
1F
100
AcDbEntity
  8
0-B_寸法
  6
Continuous
 62
   120
370
     5
100
AcDbLine
 10
-2030.684957613006
 20
862.3334536165811
 30
0.0
 11
-2030.684957613006
 21
762.3334536165811
 31
0.0
  0
LWPOLYLINE
  5
13D
330
1F
100
AcDbEntity
  8
0-B_寸法
  6
Continuous
 62
     7
370
     9
100
AcDbPolyline
 90
        4
 70
     1
 43
2.0
 10
-2029.684957613006
 20
862.3334536165811
 42
0.4142135623731
 10
-2030.684957613006
 20
863.333453616581
 42
0.4142135623731
 10
-2031.684957613006
 20
862.3334536165811
 42
0.4142135623731
 10
-2030.684957613006
 20
861.3334536165812
 42
0.4142135623731
  0
LINE
  5
13E
330
1F
100
AcDbEntity
  8
0-B_寸法
  6
Continuous
 62
   120
370
     5
100
AcDbLine
 10
-2032.684957613004
 20
862.3334536165811
 30
0.0
 11
-2030.684957613006
 21
862.3334536165811
 31
0.0
  0
LINE
  5
13F
330
1F
100
AcDbEntity
  8
0-B_寸法
  6
Continuous
 62
   120
370
     5
100
AcDbLine
 10
-2032.684957613004
 20
862.3334536165811
 30
0.0
 11
-2032.684957613004
 21
762.3334536165811
 31
0.0
  0
LWPOLYLINE
  5
140
330
1F
100
AcDbEntity
  8
0-B_寸法
  6
Continuous
 62
     7
370
     9
100
AcDbPolyline
 90
        4
 70
     1
 43
2.0
 10
-2031.684957613004
 20
862.3334536165811
 42
0.4142135623731
 10
-2032.684957613004
 20
863.333453616581
 42
0.4142135623731
 10
-2033.684957613004
 20
862.3334536165811
 42
0.4142135623731
 10
-2032.684957613004
 20
861.3334536165812
 42
0.4142135623731
  0
LINE
  5
141
330
1F
100
AcDbEntity
  8
0-B_寸法
  6
Continuous
 62
   120
370
     5
100
AcDbLine
 10
-2426.684957613007
 20
862.3334536165811
 30
0.0
 11
-2032.684957613004
 21
862.3334536165811
 31
0.0
  0
MTEXT
  5
142
330
1F
100
AcDbEntity
  8
0-B_寸法
  6
Continuous
 62
     7
370
   211
100
AcDbMText
 10
-2443.684957613005
 20
865.1934536165811
 30
0.0
 40
45.72
 41
30.0
 46
0.0
 71
     7
 72
     1
  1
{\fＭＳ ゴシック|b0|i0|c128|p49;4}
 73
     1
 44
1.0
  0
LINE
  5
143
330
1F
100
AcDbEntity
  8
0-B_寸法
  6
Continuous
 62
   120
370
     5
100
AcDbLine
 10
-2426.684957613007
 20
862.3334536165811
 30
0.0
 11
-2426.684957613007
 21
762.3334536165811
 31
0.0
  0
LWPOLYLINE
  5
144
330
1F
100
AcDbEntity
  8
0-B_寸法
  6
Continuous
 62
     7
370
     9
100
AcDbPolyline
 90
        4
 70
     1
 43
2.0
 10
-2425.684957613007
 20
862.3334536165811
 42
0.4142135623731
 10
-2426.684957613007
 20
863.333453616581
 42
0.4142135623731
 10
-2427.684957613006
 20
862.3334536165811
 42
0.4142135623731
 10
-2426.684957613007
 20
861.3334536165812
 42
0.4142135623731
  0
LINE
  5
145
330
1F
100
AcDbEntity
  8
0-B_寸法
  6
Continuous
 62
   120
370
     5
100
AcDbLine
 10
-2430.684957613003
 20
862.3334536165811
 30
0.0
 11
-2426.684957613007
 21
862.3334536165811
 31
0.0
  0
LINE
  5
146
330
1F
100
AcDbEntity
  8
0-B_寸法
  6
Continuous
 62
   120
370
     5
100
AcDbLine
 10
-2430.684957613003
 20
862.3334536165811
 30
0.0
 11
-2430.684957613003
 21
762.3334536165811
 31
0.0
  0
LWPOLYLINE
  5
147
330
1F
100
AcDbEntity
  8
0-B_寸法
  6
Continuous
 62
     7
370
     9
100
AcDbPolyline
 90
        4
 70
     1
 43
2.0
 10
-2429.684957613004
 20
862.3334536165811
 42
0.4142135623731
 10
-2430.684957613003
 20
863.333453616581
 42
0.4142135623731
 10
-2431.684957613003
 20
862.3334536165811
 42
0.4142135623731
 10
-2430.684957613003
 20
861.3334536165812
 42
0.4142135623731
  0
LINE
  5
148
330
1F
100
AcDbEntity
  8
0-B_寸法
  6
Continuous
 62
   120
370
     5
100
AcDbLine
 10
-2824.684957613004
 20
862.3334536165811
 30
0.0
 11
-2430.684957613003
 21
862.3334536165811
 31
0.0
  0
MTEXT
  5
149
330
1F
100
AcDbEntity
  8
0-B_寸法
  6
Continuous
 62
     7
370
   211
100
AcDbMText
 10
-2840.684957613006
 20
865.1934536165811
 30
0.0
 40
45.72
 41
30.0
 46
0.0
 71
     7
 72
     1
  1
{\fＭＳ ゴシック|b0|i0|c128|p49;2}
 73
     1
 44
1.0
  0
LINE
  5
14A
330
1F
100
AcDbEntity
  8
0-B_寸法
  6
Continuous
 62
   120
370
     5
100
AcDbLine
 10
-2824.684957613004
 20
862.3334536165811
 30
0.0
 11
-2824.684957613004
 21
762.3334536165811
 31
0.0
  0
LINE
  5
14B
330
1F
100
AcDbEntity
  8
0-B_寸法
  6
Continuous
 62
   120
370
     5
100
AcDbLine
 10
-2826.684957613007
 20
862.3334536165811
 30
0.0
 11
-2826.684957613007
 21
762.3334536165811
 31
0.0
  0
LWPOLYLINE
  5
14C
330
1F
100
AcDbEntity
  8
0-B_寸法
  6
Continuous
 62
     7
370
     9
100
AcDbPolyline
 90
        4
 70
     1
 43
2.0
 10
-2823.684957613004
 20
862.3334536165811
 42
0.4142135623731
 10
-2824.684957613004
 20
863.333453616581
 42
0.4142135623731
 10
-2825.684957613005
 20
862.3334536165811
 42
0.4142135623731
 10
-2824.684957613004
 20
861.3334536165812
 42
0.4142135623731
  0
LWPOLYLINE
  5
14D
330
1F
100
AcDbEntity
  8
0-B_寸法
  6
Continuous
 62
     7
370
     9
100
AcDbPolyline
 90
        4
 70
     1
 43
2.0
 10
-2825.684957613007
 20
862.3334536165811
 42
0.4142135623731
 10
-2826.684957613007
 20
863.333453616581
 42
0.4142135623731
 10
-2827.684957613007
 20
862.3334536165811
 42
0.4142135623731
 10
-2826.684957613007
 20
861.3334536165812
 42
0.4142135623731
  0
LINE
  5
14E
330
1F
100
AcDbEntity
  8
0-B_寸法
  6
Continuous
 62
   120
370
     5
100
AcDbLine
 10
-2826.684957613007
 20
862.3334536165811
 30
0.0
 11
-2824.684957613004
 21
862.3334536165811
 31
0.0
  0
LINE
  5
14F
330
1F
100
AcDbEntity
  8
0-1_本体
  6
Continuous
 62
     7
370
     9
100
AcDbLine
 10
-2826.684957613007
 20
-1456.666546383419
 30
0.0
 11
-2826.684957613007
 21
712.3334536165811
 31
0.0
  0
LINE
  5
150
330
1F
100
AcDbEntity
  8
0-1_本体
  6
Continuous
 62
     7
370
     9
100
AcDbLine
 10
-2826.684957613007
 20
712.3334536165811
 30
0.0
 11
-2030.684957613004
 21
712.3334536165811
 31
0.0
  0
MTEXT
  5
151
330
1F
100
AcDbEntity
  8
0-B_寸法
  6
Continuous
 62
     7
370
   211
100
AcDbMText
 10
-2986.684957613007
 20
-1450.233844734415
 30
0.0
 40
45.72
 41
30.0
 46
0.0
 71
     7
 72
     1
  1
{\fＭＳ ゴシック|b0|i0|c128|p49;3}
 11
6.123031769111886E-17
 21
1.0
 31
0.0
 73
     1
 44
1.0
  0
LINE
  5
152
330
1F
100
AcDbEntity
  8
0-0_補助線
  6
JWW_HOJO
 62
   120
370
     5
100
AcDbLine
 10
-3076.684957613007
 20
862.3334536165811
 30
0.0
 11
-3076.684957613007
 21
-1851.166546383419
 31
0.0
  0
LINE
  5
153
330
1F
100
AcDbEntity
  8
0-0_補助線
  6
JWW_HOJO
 62
   120
370
     5
100
AcDbLine
 10
-1880.684957613006
 20
-1851.166546383419
 30
0.0
 11
-1880.684957613006
 21
862.3334536165811
 31
0.0
  0
LINE
  5
154
330
1F
100
AcDbEntity
  8
0-0_補助線
  6
JWW_HOJO
 62
   120
370
     5
100
AcDbLine
 10
-2976.684957613007
 20
862.3334536165811
 30
0.0
 11
-2976.684957613007
 21
-1851.166546383419
 31
0.0
  0
LINE
  5
155
330
1F
100
AcDbEntity
  8
0-0_補助線
  6
JWW_HOJO
 62
   120
370
     5
100
AcDbLine
 10
-1980.684957613006
 20
-1851.166546383419
 30
0.0
 11
-1980.684957613006
 21
862.3334536165811
 31
0.0
  0
LINE
  5
156
330
1F
100
AcDbEntity
  8
0-0_補助線
  6
JWW_HOJO
 62
   120
370
     5
100
AcDbLine
 10
-2876.684957613007
 20
-1851.166546383419
 30
0.0
 11
-2876.684957613007
 21
862.3334536165811
 31
0.0
  0
LINE
  5
157
330
1F
100
AcDbEntity
  8
0-0_補助線
  6
JWW_HOJO
 62
     7
370
     9
100
AcDbLine
 10
-2030.684957613006
 20
-1851.166546383419
 30
0.0
 11
-2030.684957613006
 21
862.3334536165811
 31
0.0
  0
LINE
  5
158
330
1F
100
AcDbEntity
  8
0-0_補助線
  6
JWW_HOJO
 62
     7
370
     9
100
AcDbLine
 10
-2826.684957613007
 20
-1851.166546383419
 30
0.0
 11
-2826.684957613007
 21
862.3334536165811
 31
0.0
  0
LINE
  5
159
330
1F
100
AcDbEntity
  8
0-2_扉
  6
Continuous
 62
    92
370
    13
100
AcDbLine
 10
-2032.684957613004
 20
709.3334536165816
 30
0.0
 11
-2032.684957613004
 21
-1453.666546383419
 31
0.0
  0
LINE
  5
15A
330
1F
100
AcDbEntity
  8
0-2_扉
  6
Continuous
 62
    92
370
    13
100
AcDbLine
 10
-2426.684957613007
 20
709.3334536165816
 30
0.0
 11
-2426.684957613007
 21
-1453.666546383419
 31
0.0
  0
LINE
  5
15B
330
1F
100
AcDbEntity
  8
0-2_扉
  6
Continuous
 62
    92
370
    13
100
AcDbLine
 10
-2430.684957613003
 20
709.3334536165816
 30
0.0
 11
-2430.684957613003
 21
-1453.666546383419
 31
0.0
  0
LINE
  5
15C
330
1F
100
AcDbEntity
  8
0-2_扉
  6
Continuous
 62
    92
370
    13
100
AcDbLine
 10
-2824.684957613004
 20
709.3334536165816
 30
0.0
 11
-2824.684957613004
 21
-1453.666546383419
 31
0.0
  0
LINE
  5
15D
330
1F
100
AcDbEntity
  8
0-2_扉
  6
Continuous
 62
    92
370
    13
100
AcDbLine
 10
-2426.684957613007
 20
-1453.666546383419
 30
0.0
 11
-2032.684957613004
 21
-1453.666546383419
 31
0.0
  0
LINE
  5
15E
330
1F
100
AcDbEntity
  8
0-2_扉
  6
Continuous
 62
    92
370
    13
100
AcDbLine
 10
-2824.684957613004
 20
-1453.666546383419
 30
0.0
 11
-2430.684957613003
 21
-1453.666546383419
 31
0.0
  0
LINE
  5
15F
330
1F
100
AcDbEntity
  8
0-2_扉
  6
Continuous
 62
    92
370
    13
100
AcDbLine
 10
-2426.684957613007
 20
709.3334536165816
 30
0.0
 11
-2032.684957613004
 21
709.3334536165816
 31
0.0
  0
LINE
  5
160
330
1F
100
AcDbEntity
  8
0-2_扉
  6
Continuous
 62
    92
370
    13
100
AcDbLine
 10
-2824.684957613004
 20
709.3334536165816
 30
0.0
 11
-2430.684957613003
 21
709.3334536165816
 31
0.0
  0
MTEXT
  5
161
330
1F
100
AcDbEntity
  8
0-A_文字
  6
Continuous
 62
     7
370
     9
100
AcDbMText
 10
763.3150423869938
 20
1165.863356107787
 30
0.0
 40
101.6
 41
400.0
 46
0.0
 71
     7
 72
     1
  1
{\fＭＳ ゴシック|b0|i0|c128|p49;平面図}
 73
     1
 44
1.0
  0
MTEXT
  5
162
330
1F
100
AcDbEntity
  8
0-B_寸法
  6
Continuous
 62
     7
370
   211
100
AcDbMText
 10
305.3150423869931
 20
635.9655753262166
 30
0.0
 40
45.72
 41
60.0
 46
0.0
 71
     7
 72
     1
  1
{\fＭＳ ゴシック|b0|i0|c128|p49;15}
 11
6.123031769111886E-17
 21
1.0
 31
0.0
 73
     1
 44
1.0
  0
MTEXT
  5
163
330
1F
100
AcDbEntity
  8
0-B_寸法
  6
Continuous
 62
     7
370
   211
100
AcDbMText
 10
832.3457821025875
 20
-1107.738540093901
 30
0.0
 40
45.72
 41
60.0
 46
0.0
 71
     7
 72
     1
  1
{\fＭＳ ゴシック|b0|i0|c128|p49;21}
 73
     1
 44
1.0
  0
LINE
  5
164
330
1F
100
AcDbEntity
  8
0-4_棚
  6
Continuous
 62
    92
370
    13
100
AcDbLine
 10
800.3150423869931
 20
-1189.66654638342
 30
0.0
 11
800.3150423869931
 21
-1189.195111195727
 31
0.0
  0
LINE
  5
165
330
1F
100
AcDbEntity
  8
0-4_棚
  6
Continuous
 62
    92
370
    13
100
AcDbLine
 10
580.3150423869931
 20
-433.6665463834197
 30
0.0
 11
799.3916060997765
 21
-433.6665463834197
 31
0.0
  0
LINE
  5
166
330
1F
100
AcDbEntity
  8
0-4_棚
  6
Continuous
 62
    92
370
    13
100
AcDbLine
 10
820.6417301749082
 20
-433.6665463834197
 30
0.0
 11
1346.315042386996
 21
-433.6665463834197
 31
0.0
  0
LINE
  5
167
330
1F
100
AcDbEntity
  8
0-4_棚
  6
Continuous
 62
    92
370
    13
100
AcDbLine
 10
580.3150423869931
 20
-421.666546383421
 30
0.0
 11
799.3916060997765
 21
-421.666546383421
 31
0.0
  0
LINE
  5
168
330
1F
100
AcDbEntity
  8
0-4_棚
  6
Continuous
 62
    92
370
    13
100
AcDbLine
 10
820.6417301749082
 20
-421.666546383421
 30
0.0
 11
1346.315042386996
 21
-421.666546383421
 31
0.0
  0
LINE
  5
169
330
1F
100
AcDbEntity
  8
0-4_棚
  6
Continuous
 62
    92
370
    13
100
AcDbLine
 10
580.3150423869931
 20
-689.6665463834194
 30
0.0
 11
799.3916060997765
 21
-689.6665463834194
 31
0.0
  0
LINE
  5
16A
330
1F
100
AcDbEntity
  8
0-4_棚
  6
Continuous
 62
    92
370
    13
100
AcDbLine
 10
820.6417301749082
 20
-689.6665463834194
 30
0.0
 11
1346.315042386996
 21
-689.6665463834194
 31
0.0
  0
LINE
  5
16B
330
1F
100
AcDbEntity
  8
0-4_棚
  6
Continuous
 62
    92
370
    13
100
AcDbLine
 10
580.3150423869931
 20
-677.6665463834206
 30
0.0
 11
799.3916060997765
 21
-677.6665463834206
 31
0.0
  0
LINE
  5
16C
330
1F
100
AcDbEntity
  8
0-4_棚
  6
Continuous
 62
    92
370
    13
100
AcDbLine
 10
820.6417301749082
 20
-677.6665463834206
 30
0.0
 11
1346.315042386996
 21
-677.6665463834206
 31
0.0
  0
LINE
  5
16D
330
1F
100
AcDbEntity
  8
0-4_棚
  6
Continuous
 62
    92
370
    13
100
AcDbLine
 10
580.3150423869931
 20
-933.6665463834206
 30
0.0
 11
799.3916060997765
 21
-933.6665463834206
 31
0.0
  0
LINE
  5
16E
330
1F
100
AcDbEntity
  8
0-4_棚
  6
Continuous
 62
    92
370
    13
100
AcDbLine
 10
820.6417301749082
 20
-933.6665463834206
 30
0.0
 11
1346.315042386996
 21
-933.6665463834206
 31
0.0
  0
LINE
  5
16F
330
1F
100
AcDbEntity
  8
0-4_棚
  6
Continuous
 62
    92
370
    13
100
AcDbLine
 10
580.3150423869931
 20
-945.6665463834204
 30
0.0
 11
799.3916060997765
 21
-945.6665463834204
 31
0.0
  0
LINE
  5
170
330
1F
100
AcDbEntity
  8
0-4_棚
  6
Continuous
 62
    92
370
    13
100
AcDbLine
 10
820.6417301749082
 20
-945.6665463834204
 30
0.0
 11
1346.315042386996
 21
-945.6665463834204
 31
0.0
  0
LINE
  5
171
330
1F
100
AcDbEntity
  8
0-4_棚
  6
Continuous
 62
    92
370
    13
100
AcDbLine
 10
580.3150423869931
 20
494.3334536165816
 30
0.0
 11
1346.315042386996
 21
494.3334536165816
 31
0.0
  0
LINE
  5
172
330
1F
100
AcDbEntity
  8
0-4_棚
  6
Continuous
 62
    92
370
    13
100
AcDbLine
 10
580.3150423869931
 20
46.3334536165803
 30
0.0
 11
1346.315042386996
 21
46.3334536165803
 31
0.0
  0
LINE
  5
173
330
1F
100
AcDbEntity
  8
0-4_棚
  6
Continuous
 62
    92
370
    13
100
AcDbLine
 10
580.3150423869931
 20
58.33345361658075
 30
0.0
 11
1346.315042386996
 21
58.33345361658075
 31
0.0
  0
LINE
  5
174
330
1F
100
AcDbEntity
  8
0-4_棚
  6
Continuous
 62
    92
370
    13
100
AcDbLine
 10
580.3150423869931
 20
270.3334536165812
 30
0.0
 11
1346.315042386996
 21
270.3334536165812
 31
0.0
  0
LINE
  5
175
330
1F
100
AcDbEntity
  8
0-4_棚
  6
Continuous
 62
    92
370
    13
100
AcDbLine
 10
580.3150423869931
 20
282.33345361658
 30
0.0
 11
1346.315042386996
 21
282.33345361658
 31
0.0
  0
LINE
  5
176
330
1F
100
AcDbEntity
  8
0-4_棚
  6
Continuous
 62
    92
370
    13
100
AcDbLine
 10
1346.315042386996
 20
-204.6665463834233
 30
0.0
 11
579.185563145694
 21
-204.6665463834233
 31
0.0
  0
LINE
  5
177
330
1F
100
AcDbEntity
  8
0-4_棚
  6
Continuous
 62
    92
370
    13
100
AcDbLine
 10
1346.315042386996
 20
-219.6665463834233
 30
0.0
 11
579.185563145694
 21
-219.6665463834233
 31
0.0
  0
LINE
  5
178
330
1F
100
AcDbEntity
  8
0-4_棚
  6
Continuous
 62
    92
370
    13
100
AcDbLine
 10
580.3150423869931
 20
506.333453616582
 30
0.0
 11
1346.315042386996
 21
506.333453616582
 31
0.0
  0
LINE
  5
179
330
1F
100
AcDbEntity
  8
0-4_棚
  6
Continuous
 62
    92
370
    13
100
AcDbLine
 10
580.3150423869931
 20
-421.666546383421
 30
0.0
 11
580.3150423869931
 21
-433.6665463834197
 31
0.0
  0
LINE
  5
17A
330
1F
100
AcDbEntity
  8
0-4_棚
  6
Continuous
 62
    92
370
    13
100
AcDbLine
 10
580.3150423869931
 20
-677.6665463834206
 30
0.0
 11
580.3150423869931
 21
-689.6665463834194
 31
0.0
  0
LINE
  5
17B
330
1F
100
AcDbEntity
  8
0-4_棚
  6
Continuous
 62
    92
370
    13
100
AcDbLine
 10
580.3150423869931
 20
-933.6665463834206
 30
0.0
 11
580.3150423869931
 21
-945.6665463834204
 31
0.0
  0
LINE
  5
17C
330
1F
100
AcDbEntity
  8
0-4_棚
  6
Continuous
 62
    92
370
    13
100
AcDbLine
 10
580.3150423869931
 20
506.333453616582
 30
0.0
 11
580.3150423869931
 21
494.3334536165816
 31
0.0
  0
LINE
  5
17D
330
1F
100
AcDbEntity
  8
0-4_棚
  6
Continuous
 62
    92
370
    13
100
AcDbLine
 10
580.3150423869931
 20
58.33345361658075
 30
0.0
 11
580.3150423869931
 21
46.3334536165803
 31
0.0
  0
LINE
  5
17E
330
1F
100
AcDbEntity
  8
0-4_棚
  6
Continuous
 62
    92
370
    13
100
AcDbLine
 10
580.3150423869931
 20
282.33345361658
 30
0.0
 11
580.3150423869931
 21
270.3334536165812
 31
0.0
  0
LINE
  5
17F
330
1F
100
AcDbEntity
  8
0-4_棚
  6
Continuous
 62
    92
370
    13
100
AcDbLine
 10
800.3150423869931
 20
-1189.66654638342
 30
0.0
 11
580.3150423869931
 21
-1189.66654638342
 31
0.0
  0
LINE
  5
180
330
1F
100
AcDbEntity
  8
0-4_棚
  6
Continuous
 62
    92
370
    13
100
AcDbLine
 10
800.3150423869931
 20
-1201.666546383421
 30
0.0
 11
580.3150423869931
 21
-1201.666546383421
 31
0.0
  0
LINE
  5
181
330
1F
100
AcDbEntity
  8
0-4_棚
  6
Continuous
 62
    92
370
    13
100
AcDbLine
 10
1346.315042386996
 20
-1189.66654638342
 30
0.0
 11
821.3150423869928
 21
-1189.66654638342
 31
0.0
  0
LINE
  5
182
330
1F
100
AcDbEntity
  8
0-4_棚
  6
Continuous
 62
    92
370
    13
100
AcDbLine
 10
1346.315042386996
 20
-1201.666546383421
 30
0.0
 11
821.3150423869928
 21
-1201.666546383421
 31
0.0
  0
LINE
  5
183
330
1F
100
AcDbEntity
  8
0-B_寸法
  6
Continuous
 62
   120
370
     5
100
AcDbLine
 10
821.3150423869911
 20
-1110.598540093901
 30
0.0
 11
821.3150423869911
 21
-1129.265596339335
 31
0.0
  0
LINE
  5
184
330
1F
100
AcDbEntity
  8
0-B_寸法
  6
Continuous
 62
   120
370
     5
100
AcDbLine
 10
800.3149945882905
 20
-1110.598540093901
 30
0.0
 11
800.3149945882905
 21
-1129.265596339335
 31
0.0
  0
LINE
  5
185
330
1F
100
AcDbEntity
  8
0-B_寸法
  6
Continuous
 62
     7
370
     9
100
AcDbLine
 10
821.3150423869911
 20
-1110.598540093901
 30
0.0
 11
879.2705919643367
 21
-1095.069397387749
 31
0.0
  0
LINE
  5
186
330
1F
100
AcDbEntity
  8
0-B_寸法
  6
Continuous
 62
     7
370
     9
100
AcDbLine
 10
821.3150423869911
 20
-1110.598540093901
 30
0.0
 11
879.2705919643367
 21
-1126.127682800052
 31
0.0
  0
LINE
  5
187
330
1F
100
AcDbEntity
  8
0-B_寸法
  6
Continuous
 62
     7
370
     9
100
AcDbLine
 10
800.3149945882905
 20
-1110.598540093901
 30
0.0
 11
742.3594450109476
 21
-1095.069397387749
 31
0.0
  0
LINE
  5
188
330
1F
100
AcDbEntity
  8
0-B_寸法
  6
Continuous
 62
     7
370
     9
100
AcDbLine
 10
800.3149945882905
 20
-1110.598540093901
 30
0.0
 11
742.3594450109476
 21
-1126.127682800052
 31
0.0
  0
LINE
  5
189
330
1F
100
AcDbEntity
  8
0-B_寸法
  6
Continuous
 62
   120
370
     5
100
AcDbLine
 10
580.3150423869931
 20
-1110.598540093901
 30
0.0
 11
821.3150423869911
 21
-1110.598540093901
 31
0.0
  0
LINE
  5
18A
330
1F
100
AcDbEntity
  8
0-B_寸法
  6
Continuous
 62
   120
370
     5
100
AcDbLine
 10
821.3150423869911
 20
-1110.598540093901
 30
0.0
 11
1346.315042386996
 21
-1110.598540093901
 31
0.0
  0
MTEXT
  5
18B
330
1F
100
AcDbEntity
  8
0-B_寸法
  6
Continuous
 62
     7
370
   211
100
AcDbMText
 10
1038.815042386993
 20
-1107.738540093901
 30
0.0
 40
45.72
 41
90.0
 46
0.0
 71
     7
 72
     1
  1
{\fＭＳ ゴシック|b0|i0|c128|p49;525}
 73
     1
 44
1.0
  0
LINE
  5
18C
330
1F
100
AcDbEntity
  8
0-B_寸法
  6
Continuous
 62
   120
370
     5
100
AcDbLine
 10
1346.315042386996
 20
-1110.598540093901
 30
0.0
 11
1346.315042386996
 21
-1129.265596339335
 31
0.0
  0
LINE
  5
18D
330
1F
100
AcDbEntity
  8
0-B_寸法
  6
Continuous
 62
     7
370
     9
100
AcDbLine
 10
1346.315042386996
 20
-1110.598540093901
 30
0.0
 11
1288.359492809651
 21
-1126.127682800052
 31
0.0
  0
LINE
  5
18E
330
1F
100
AcDbEntity
  8
0-B_寸法
  6
Continuous
 62
     7
370
     9
100
AcDbLine
 10
1346.315042386996
 20
-1110.598540093901
 30
0.0
 11
1288.359492809651
 21
-1095.069397387749
 31
0.0
  0
MTEXT
  5
18F
330
1F
100
AcDbEntity
  8
0-B_寸法
  6
Continuous
 62
     7
370
   211
100
AcDbMText
 10
645.3150423869931
 20
-1107.738540093901
 30
0.0
 40
45.72
 41
90.0
 46
0.0
 71
     7
 72
     1
  1
{\fＭＳ ゴシック|b0|i0|c128|p49;220}
 73
     1
 44
1.0
  0
LINE
  5
190
330
1F
100
AcDbEntity
  8
0-B_寸法
  6
Continuous
 62
   120
370
     5
100
AcDbLine
 10
800.3150423869931
 20
-1110.598540093901
 30
0.0
 11
800.3150423869931
 21
-1129.265596339335
 31
0.0
  0
LINE
  5
191
330
1F
100
AcDbEntity
  8
0-B_寸法
  6
Continuous
 62
   120
370
     5
100
AcDbLine
 10
580.3150423869931
 20
-1110.598540093901
 30
0.0
 11
580.3150423869931
 21
-1129.265596339335
 31
0.0
  0
LINE
  5
192
330
1F
100
AcDbEntity
  8
0-B_寸法
  6
Continuous
 62
     7
370
     9
100
AcDbLine
 10
800.3150423869931
 20
-1110.598540093901
 30
0.0
 11
742.359492809648
 21
-1126.127682800052
 31
0.0
  0
LINE
  5
193
330
1F
100
AcDbEntity
  8
0-B_寸法
  6
Continuous
 62
     7
370
     9
100
AcDbLine
 10
800.3150423869931
 20
-1110.598540093901
 30
0.0
 11
742.359492809648
 21
-1095.069397387749
 31
0.0
  0
LINE
  5
194
330
1F
100
AcDbEntity
  8
0-B_寸法
  6
Continuous
 62
     7
370
     9
100
AcDbLine
 10
580.3150423869931
 20
-1110.598540093901
 30
0.0
 11
638.2705919643377
 21
-1126.127682800052
 31
0.0
  0
LINE
  5
195
330
1F
100
AcDbEntity
  8
0-B_寸法
  6
Continuous
 62
     7
370
     9
100
AcDbLine
 10
580.3150423869931
 20
-1110.598540093901
 30
0.0
 11
638.2705919643377
 21
-1095.069397387749
 31
0.0
  0
LINE
  5
196
330
1F
100
AcDbEntity
  8
0-B_寸法
  6
Continuous
 62
   120
370
     5
100
AcDbLine
 10
816.0558476423648
 20
-219.6665463834165
 30
0.0
 11
821.3150423869973
 21
-224.9257411280502
 31
0.0
  0
LINE
  5
197
330
1F
100
AcDbEntity
  8
0-B_寸法
  6
Continuous
 62
   120
370
     5
100
AcDbLine
 10
801.9137120186332
 20
-219.6665463834194
 30
0.0
 11
821.3150423869968
 21
-239.0678767517829
 31
0.0
  0
LINE
  5
198
330
1F
100
AcDbEntity
  8
0-B_寸法
  6
Continuous
 62
   120
370
     5
100
AcDbLine
 10
800.315042386992
 20
-232.2100123755109
 30
0.0
 11
821.3150423869956
 21
-253.2100123755146
 31
0.0
  0
LINE
  5
199
330
1F
100
AcDbEntity
  8
0-B_寸法
  6
Continuous
 62
   120
370
     5
100
AcDbLine
 10
800.3150423869891
 20
-246.3521479992437
 30
0.0
 11
821.3150423869928
 21
-267.3521479992473
 31
0.0
  0
LINE
  5
19A
330
1F
100
AcDbEntity
  8
0-B_寸法
  6
Continuous
 62
   120
370
     5
100
AcDbLine
 10
800.3150423869886
 20
-260.4942836229748
 30
0.0
 11
821.3150423869922
 21
-281.494283622979
 31
0.0
  0
LINE
  5
19B
330
1F
100
AcDbEntity
  8
0-B_寸法
  6
Continuous
 62
   120
370
     5
100
AcDbLine
 10
800.3150423869977
 20
-274.6364192467172
 30
0.0
 11
821.3150423870013
 21
-295.6364192467208
 31
0.0
  0
LINE
  5
19C
330
1F
100
AcDbEntity
  8
0-B_寸法
  6
Continuous
 62
   120
370
     5
100
AcDbLine
 10
800.3150423869965
 20
-288.7785548704505
 30
0.0
 11
821.3150423870013
 21
-309.7785548704542
 31
0.0
  0
LINE
  5
19D
330
1F
100
AcDbEntity
  8
0-B_寸法
  6
Continuous
 62
   120
370
     5
100
AcDbLine
 10
800.3150423869954
 20
-302.9206904941822
 30
0.0
 11
821.315042386999
 21
-323.9206904941858
 31
0.0
  0
LINE
  5
19E
330
1F
100
AcDbEntity
  8
0-B_寸法
  6
Continuous
 62
   120
370
     5
100
AcDbLine
 10
800.3150423869937
 20
-317.0628261179132
 30
0.0
 11
821.3150423869973
 21
-338.0628261179169
 31
0.0
  0
LINE
  5
19F
330
1F
100
AcDbEntity
  8
0-B_寸法
  6
Continuous
 62
   120
370
     5
100
AcDbLine
 10
800.3150423869931
 20
-331.204961741646
 30
0.0
 11
821.3150423869968
 21
-352.2049617416496
 31
0.0
  0
LINE
  5
1A0
330
1F
100
AcDbEntity
  8
0-B_寸法
  6
Continuous
 62
   120
370
     5
100
AcDbLine
 10
800.315042386992
 20
-345.3470973653788
 30
0.0
 11
821.3150423869956
 21
-366.3470973653824
 31
0.0
  0
LINE
  5
1A1
330
1F
100
AcDbEntity
  8
0-B_寸法
  6
Continuous
 62
   120
370
     5
100
AcDbLine
 10
800.315042386992
 20
-359.4892329891104
 30
0.0
 11
821.3150423869956
 21
-380.489232989114
 31
0.0
  0
LINE
  5
1A2
330
1F
100
AcDbEntity
  8
0-B_寸法
  6
Continuous
 62
   120
370
     5
100
AcDbLine
 10
800.3150423869891
 20
-373.631368612842
 30
0.0
 11
821.3150423869928
 21
-394.6313686128457
 31
0.0
  0
LINE
  5
1A3
330
1F
100
AcDbEntity
  8
0-B_寸法
  6
Continuous
 62
   120
370
     5
100
AcDbLine
 10
800.3150423869886
 20
-387.7735042365748
 30
0.0
 11
821.3150423869922
 21
-408.7735042365784
 31
0.0
  0
LINE
  5
1A4
330
1F
100
AcDbEntity
  8
0-B_寸法
  6
Continuous
 62
   120
370
     5
100
AcDbLine
 10
800.3150423869977
 20
-401.9156398603172
 30
0.0
 11
821.3150423869911
 21
-422.9156398603112
 31
0.0
  0
LINE
  5
1A5
330
1F
100
AcDbEntity
  8
0-B_寸法
  6
Continuous
 62
   120
370
     5
100
AcDbLine
 10
800.3150423869931
 20
-416.0577754840097
 30
0.0
 11
821.3150423869968
 21
-437.0577754840133
 31
0.0
  0
LINE
  5
1A6
330
1F
100
AcDbEntity
  8
0-B_寸法
  6
Continuous
 62
   120
370
     5
100
AcDbLine
 10
800.315042386992
 20
-430.1999111077424
 30
0.0
 11
821.3150423869956
 21
-451.1999111077466
 31
0.0
  0
LINE
  5
1A7
330
1F
100
AcDbEntity
  8
0-B_寸法
  6
Continuous
 62
   120
370
     5
100
AcDbLine
 10
800.315042386992
 20
-444.3420467314741
 30
0.0
 11
821.3150423869956
 21
-465.3420467314777
 31
0.0
  0
LINE
  5
1A8
330
1F
100
AcDbEntity
  8
0-B_寸法
  6
Continuous
 62
   120
370
     5
100
AcDbLine
 10
800.3150423869891
 20
-458.484182355206
 30
0.0
 11
821.3150423869928
 21
-479.4841823552096
 31
0.0
  0
LINE
  5
1A9
330
1F
100
AcDbEntity
  8
0-B_寸法
  6
Continuous
 62
   120
370
     5
100
AcDbLine
 10
800.3150423869886
 20
-472.6263179789385
 30
0.0
 11
821.3150423869922
 21
-493.6263179789421
 31
0.0
  0
LINE
  5
1AA
330
1F
100
AcDbEntity
  8
0-B_寸法
  6
Continuous
 62
   120
370
     5
100
AcDbLine
 10
800.3150423869954
 20
-486.7684536026786
 30
0.0
 11
821.315042386999
 21
-507.7684536026823
 31
0.0
  0
LINE
  5
1AB
330
1F
100
AcDbEntity
  8
0-B_寸法
  6
Continuous
 62
   120
370
     5
100
AcDbLine
 10
800.3150423869965
 20
-500.9105892264137
 30
0.0
 11
821.3150423870002
 21
-521.9105892264173
 31
0.0
  0
LINE
  5
1AC
330
1F
100
AcDbEntity
  8
0-B_寸法
  6
Continuous
 62
   120
370
     5
100
AcDbLine
 10
800.3150423869954
 20
-515.0527248501453
 30
0.0
 11
821.315042386999
 21
-536.0527248501489
 31
0.0
  0
LINE
  5
1AD
330
1F
100
AcDbEntity
  8
0-B_寸法
  6
Continuous
 62
   120
370
     5
100
AcDbLine
 10
800.3150423869937
 20
-529.1948604738773
 30
0.0
 11
821.3150423869973
 21
-550.1948604738809
 31
0.0
  0
LINE
  5
1AE
330
1F
100
AcDbEntity
  8
0-B_寸法
  6
Continuous
 62
   120
370
     5
100
AcDbLine
 10
800.3150423869931
 20
-543.3369960976097
 30
0.0
 11
821.3150423869968
 21
-564.3369960976133
 31
0.0
  0
LINE
  5
1AF
330
1F
100
AcDbEntity
  8
0-B_寸法
  6
Continuous
 62
   120
370
     5
100
AcDbLine
 10
800.315042386992
 20
-557.4791317213425
 30
0.0
 11
821.3150423869956
 21
-578.4791317213461
 31
0.0
  0
LINE
  5
1B0
330
1F
100
AcDbEntity
  8
0-B_寸法
  6
Continuous
 62
   120
370
     5
100
AcDbLine
 10
800.315042386992
 20
-571.6212673450741
 30
0.0
 11
821.3150423869956
 21
-592.6212673450777
 31
0.0
  0
LINE
  5
1B1
330
1F
100
AcDbEntity
  8
0-B_寸法
  6
Continuous
 62
   120
370
     5
100
AcDbLine
 10
800.3150423869891
 20
-585.7634029688052
 30
0.0
 11
821.3150423869928
 21
-606.7634029688097
 31
0.0
  0
LINE
  5
1B2
330
1F
100
AcDbEntity
  8
0-B_寸法
  6
Continuous
 62
   120
370
     5
100
AcDbLine
 10
800.3150423869874
 20
-599.9055385925385
 30
0.0
 11
821.3150423869922
 21
-620.9055385925421
 31
0.0
  0
LINE
  5
1B3
330
1F
100
AcDbEntity
  8
0-B_寸法
  6
Continuous
 62
   120
370
     5
100
AcDbLine
 10
800.3150423869863
 20
-614.0476742162696
 30
0.0
 11
821.31504238699
 21
-635.0476742162734
 31
0.0
  0
LINE
  5
1B4
330
1F
100
AcDbEntity
  8
0-B_寸法
  6
Continuous
 62
   120
370
     5
100
AcDbLine
 10
800.3150423869931
 20
-628.1898098399733
 30
0.0
 11
821.3150423869968
 21
-649.189809839977
 31
0.0
  0
LINE
  5
1B5
330
1F
100
AcDbEntity
  8
0-B_寸法
  6
Continuous
 62
   120
370
     5
100
AcDbLine
 10
800.315042386992
 20
-642.3319454637061
 30
0.0
 11
821.3150423869956
 21
-663.3319454637098
 31
0.0
  0
LINE
  5
1B6
330
1F
100
AcDbEntity
  8
0-B_寸法
  6
Continuous
 62
   120
370
     5
100
AcDbLine
 10
800.315042386992
 20
-656.4740810874378
 30
0.0
 11
821.3150423869956
 21
-677.4740810874414
 31
0.0
  0
LINE
  5
1B7
330
1F
100
AcDbEntity
  8
0-B_寸法
  6
Continuous
 62
   120
370
     5
100
AcDbLine
 10
800.3150423869891
 20
-670.6162167111694
 30
0.0
 11
821.3150423869928
 21
-691.616216711173
 31
0.0
  0
LINE
  5
1B8
330
1F
100
AcDbEntity
  8
0-B_寸法
  6
Continuous
 62
   120
370
     5
100
AcDbLine
 10
800.3150423869886
 20
-684.7583523349022
 30
0.0
 11
821.3150423869922
 21
-705.7583523349058
 31
0.0
  0
LINE
  5
1B9
330
1F
100
AcDbEntity
  8
0-B_寸法
  6
Continuous
 62
   120
370
     5
100
AcDbLine
 10
800.3150423869931
 20
-698.90048795864
 30
0.0
 11
821.3150423869968
 21
-719.9004879586437
 31
0.0
  0
LINE
  5
1BA
330
1F
100
AcDbEntity
  8
0-B_寸法
  6
Continuous
 62
   120
370
     5
100
AcDbLine
 10
800.3150423869965
 20
-713.0426235823774
 30
0.0
 11
821.3150423870002
 21
-734.042623582381
 31
0.0
  0
LINE
  5
1BB
330
1F
100
AcDbEntity
  8
0-B_寸法
  6
Continuous
 62
   120
370
     5
100
AcDbLine
 10
800.3150423869954
 20
-727.184759206109
 30
0.0
 11
821.315042386999
 21
-748.1847592061126
 31
0.0
  0
LINE
  5
1BC
330
1F
100
AcDbEntity
  8
0-B_寸法
  6
Continuous
 62
   120
370
     5
100
AcDbLine
 10
800.3150423869937
 20
-741.3268948298403
 30
0.0
 11
821.3150423869973
 21
-762.3268948298443
 31
0.0
  0
LINE
  5
1BD
330
1F
100
AcDbEntity
  8
0-B_寸法
  6
Continuous
 62
   120
370
     5
100
AcDbLine
 10
800.3150423869931
 20
-755.4690304535734
 30
0.0
 11
821.3150423869968
 21
-776.469030453577
 31
0.0
  0
LINE
  5
1BE
330
1F
100
AcDbEntity
  8
0-B_寸法
  6
Continuous
 62
   120
370
     5
100
AcDbLine
 10
800.315042386992
 20
-769.6111660773047
 30
0.0
 11
821.3150423869956
 21
-790.6111660773083
 31
0.0
  0
LINE
  5
1BF
330
1F
100
AcDbEntity
  8
0-B_寸法
  6
Continuous
 62
   120
370
     5
100
AcDbLine
 10
800.3150423869891
 20
-783.7533017010378
 30
0.0
 11
821.3150423869928
 21
-804.7533017010414
 31
0.0
  0
LINE
  5
1C0
330
1F
100
AcDbEntity
  8
0-B_寸法
  6
Continuous
 62
   120
370
     5
100
AcDbLine
 10
800.3150423869886
 20
-797.8954373247691
 30
0.0
 11
821.3150423869922
 21
-818.8954373247727
 31
0.0
  0
LINE
  5
1C1
330
1F
100
AcDbEntity
  8
0-B_寸法
  6
Continuous
 62
   120
370
     5
100
AcDbLine
 10
800.3150423869874
 20
-812.0375729485016
 30
0.0
 11
821.3150423869911
 21
-833.0375729485058
 31
0.0
  0
LINE
  5
1C2
330
1F
100
AcDbEntity
  8
0-B_寸法
  6
Continuous
 62
   120
370
     5
100
AcDbLine
 10
800.3150423869863
 20
-826.1797085722333
 30
0.0
 11
821.31504238699
 21
-847.1797085722369
 31
0.0
  0
LINE
  5
1C3
330
1F
100
AcDbEntity
  8
0-B_寸法
  6
Continuous
 62
   120
370
     5
100
AcDbLine
 10
800.3150423869931
 20
-840.321844195937
 30
0.0
 11
821.3150423869865
 21
-861.3218441959295
 31
0.0
  0
LINE
  5
1C4
330
1F
100
AcDbEntity
  8
0-B_寸法
  6
Continuous
 62
   120
370
     5
100
AcDbLine
 10
800.315042386992
 20
-854.4639798196683
 30
0.0
 11
821.3150423869956
 21
-875.4639798196735
 31
0.0
  0
LINE
  5
1C5
330
1F
100
AcDbEntity
  8
0-B_寸法
  6
Continuous
 62
   120
370
     5
100
AcDbLine
 10
800.315042386992
 20
-868.6061154434014
 30
0.0
 11
821.3150423869956
 21
-889.6061154434051
 31
0.0
  0
LINE
  5
1C6
330
1F
100
AcDbEntity
  8
0-B_寸法
  6
Continuous
 62
   120
370
     5
100
AcDbLine
 10
800.3150423869891
 20
-882.7482510671327
 30
0.0
 11
821.3150423869928
 21
-903.7482510671364
 31
0.0
  0
LINE
  5
1C7
330
1F
100
AcDbEntity
  8
0-B_寸法
  6
Continuous
 62
   120
370
     5
100
AcDbLine
 10
800.3150423869886
 20
-896.8903866908659
 30
0.0
 11
821.3150423869922
 21
-917.8903866908695
 31
0.0
  0
LINE
  5
1C8
330
1F
100
AcDbEntity
  8
0-B_寸法
  6
Continuous
 62
   120
370
     5
100
AcDbLine
 10
800.315042386992
 20
-911.0325223146015
 30
0.0
 11
821.3150423869956
 21
-932.0325223146051
 31
0.0
  0
LINE
  5
1C9
330
1F
100
AcDbEntity
  8
0-B_寸法
  6
Continuous
 62
   120
370
     5
100
AcDbLine
 10
800.3150423869965
 20
-925.1746579383396
 30
0.0
 11
821.3150423870002
 21
-946.1746579383432
 31
0.0
  0
LINE
  5
1CA
330
1F
100
AcDbEntity
  8
0-B_寸法
  6
Continuous
 62
   120
370
     5
100
AcDbLine
 10
800.3150423869954
 20
-939.3167935620727
 30
0.0
 11
821.315042386999
 21
-960.3167935620763
 31
0.0
  0
LINE
  5
1CB
330
1F
100
AcDbEntity
  8
0-B_寸法
  6
Continuous
 62
   120
370
     5
100
AcDbLine
 10
800.3150423869931
 20
-953.4589291858038
 30
0.0
 11
821.3150423869973
 21
-974.4589291858076
 31
0.0
  0
LINE
  5
1CC
330
1F
100
AcDbEntity
  8
0-B_寸法
  6
Continuous
 62
   120
370
     5
100
AcDbLine
 10
800.315042386992
 20
-967.6010648095365
 30
0.0
 11
821.3150423869956
 21
-988.6010648095407
 31
0.0
  0
LINE
  5
1CD
330
1F
100
AcDbEntity
  8
0-B_寸法
  6
Continuous
 62
   120
370
     5
100
AcDbLine
 10
800.315042386992
 20
-981.7432004332682
 30
0.0
 11
821.3150423869956
 21
-1002.743200433272
 31
0.0
  0
LINE
  5
1CE
330
1F
100
AcDbEntity
  8
0-B_寸法
  6
Continuous
 62
   120
370
     5
100
AcDbLine
 10
800.3150423869891
 20
-995.8853360570001
 30
0.0
 11
821.3150423869928
 21
-1016.885336057004
 31
0.0
  0
LINE
  5
1CF
330
1F
100
AcDbEntity
  8
0-B_寸法
  6
Continuous
 62
   120
370
     5
100
AcDbLine
 10
800.3150423869886
 20
-1010.027471680733
 30
0.0
 11
821.3150423869922
 21
-1031.027471680736
 31
0.0
  0
LINE
  5
1D0
330
1F
100
AcDbEntity
  8
0-B_寸法
  6
Continuous
 62
   120
370
     5
100
AcDbLine
 10
800.3150423869874
 20
-1024.169607304465
 30
0.0
 11
821.3150423869911
 21
-1045.169607304469
 31
0.0
  0
LINE
  5
1D1
330
1F
100
AcDbEntity
  8
0-B_寸法
  6
Continuous
 62
   120
370
     5
100
AcDbLine
 10
800.3150423869863
 20
-1038.311742928197
 30
0.0
 11
821.31504238699
 21
-1059.311742928201
 31
0.0
  0
LINE
  5
1D2
330
1F
100
AcDbEntity
  8
0-B_寸法
  6
Continuous
 62
   120
370
     5
100
AcDbLine
 10
800.3150423869954
 20
-1052.453878551939
 30
0.0
 11
821.3150423869882
 21
-1073.453878551933
 31
0.0
  0
LINE
  5
1D3
330
1F
100
AcDbEntity
  8
0-B_寸法
  6
Continuous
 62
   120
370
     5
100
AcDbLine
 10
800.315042386992
 20
-1066.596014175632
 30
0.0
 11
821.3150423869956
 21
-1087.596014175636
 31
0.0
  0
LINE
  5
1D4
330
1F
100
AcDbEntity
  8
0-B_寸法
  6
Continuous
 62
   120
370
     5
100
AcDbLine
 10
800.3150423869891
 20
-1080.738149799364
 30
0.0
 11
821.3150423869928
 21
-1101.738149799367
 31
0.0
  0
LINE
  5
1D5
330
1F
100
AcDbEntity
  8
0-B_寸法
  6
Continuous
 62
   120
370
     5
100
AcDbLine
 10
800.3150423869886
 20
-1094.880285423096
 30
0.0
 11
821.3150423869922
 21
-1115.8802854231
 31
0.0
  0
LINE
  5
1D6
330
1F
100
AcDbEntity
  8
0-B_寸法
  6
Continuous
 62
   120
370
     5
100
AcDbLine
 10
800.3150423869874
 20
-1109.022421046829
 30
0.0
 11
821.3150423869911
 21
-1130.022421046833
 31
0.0
  0
LINE
  5
1D7
330
1F
100
AcDbEntity
  8
0-B_寸法
  6
Continuous
 62
   120
370
     5
100
AcDbLine
 10
800.3150423869863
 20
-1123.164556670561
 30
0.0
 11
821.31504238699
 21
-1144.164556670564
 31
0.0
  0
LINE
  5
1D8
330
1F
100
AcDbEntity
  8
0-B_寸法
  6
Continuous
 62
   120
370
     5
100
AcDbLine
 10
800.3150423869954
 20
-1137.306692294303
 30
0.0
 11
821.315042386999
 21
-1158.306692294307
 31
0.0
  0
LINE
  5
1D9
330
1F
100
AcDbEntity
  8
0-B_寸法
  6
Continuous
 62
   120
370
     5
100
AcDbLine
 10
800.3150423869937
 20
-1151.448827918035
 30
0.0
 11
821.3150423869973
 21
-1172.448827918039
 31
0.0
  0
LINE
  5
1DA
330
1F
100
AcDbEntity
  8
0-B_寸法
  6
Continuous
 62
   120
370
     5
100
AcDbLine
 10
800.3150423869931
 20
-1165.590963541767
 30
0.0
 11
821.3150423869968
 21
-1186.590963541771
 31
0.0
  0
LINE
  5
1DB
330
1F
100
AcDbEntity
  8
0-B_寸法
  6
Continuous
 62
   120
370
     5
100
AcDbLine
 10
800.315042386992
 20
-1179.7330991655
 30
0.0
 11
821.3150423869956
 21
-1200.733099165504
 31
0.0
  0
LINE
  5
1DC
330
1F
100
AcDbEntity
  8
0-B_寸法
  6
Continuous
 62
   120
370
     5
100
AcDbLine
 10
800.315042386992
 20
-1193.875234789232
 30
0.0
 11
821.3150423869956
 21
-1214.875234789235
 31
0.0
  0
LINE
  5
1DD
330
1F
100
AcDbEntity
  8
0-B_寸法
  6
Continuous
 62
   120
370
     5
100
AcDbLine
 10
800.3150423869891
 20
-1208.017370412964
 30
0.0
 11
821.3150423869928
 21
-1229.017370412967
 31
0.0
  0
LINE
  5
1DE
330
1F
100
AcDbEntity
  8
0-B_寸法
  6
Continuous
 62
   120
370
     5
100
AcDbLine
 10
800.3150423869886
 20
-1222.159506036696
 30
0.0
 11
821.3150423869922
 21
-1243.1595060367
 31
0.0
  0
LINE
  5
1DF
330
1F
100
AcDbEntity
  8
0-B_寸法
  6
Continuous
 62
   120
370
     5
100
AcDbLine
 10
800.3150423869874
 20
-1236.301641660429
 30
0.0
 11
821.3150423869911
 21
-1257.301641660433
 31
0.0
  0
LINE
  5
1E0
330
1F
100
AcDbEntity
  8
0-B_寸法
  6
Continuous
 62
   120
370
     5
100
AcDbLine
 10
800.3150423869863
 20
-1250.443777284161
 30
0.0
 11
821.31504238699
 21
-1271.443777284164
 31
0.0
  0
LINE
  5
1E1
330
1F
100
AcDbEntity
  8
0-B_寸法
  6
Continuous
 62
   120
370
     5
100
AcDbLine
 10
800.3150423869954
 20
-1264.585912907903
 30
0.0
 11
821.3150423869882
 21
-1285.585912907896
 31
0.0
  0
LINE
  5
1E2
330
1F
100
AcDbEntity
  8
0-B_寸法
  6
Continuous
 62
   120
370
     5
100
AcDbLine
 10
800.315042386992
 20
-1278.728048531596
 30
0.0
 11
821.3150423869956
 21
-1299.728048531599
 31
0.0
  0
LINE
  5
1E3
330
1F
100
AcDbEntity
  8
0-B_寸法
  6
Continuous
 62
   120
370
     5
100
AcDbLine
 10
800.3150423869891
 20
-1292.870184155327
 30
0.0
 11
821.3150423869928
 21
-1313.870184155331
 31
0.0
  0
LINE
  5
1E4
330
1F
100
AcDbEntity
  8
0-B_寸法
  6
Continuous
 62
   120
370
     5
100
AcDbLine
 10
800.3150423869886
 20
-1307.01231977906
 30
0.0
 11
821.3150423869922
 21
-1328.012319779064
 31
0.0
  0
LINE
  5
1E5
330
1F
100
AcDbEntity
  8
0-B_寸法
  6
Continuous
 62
   120
370
     5
100
AcDbLine
 10
800.3150423869874
 20
-1321.154455402793
 30
0.0
 11
821.3150423869911
 21
-1342.154455402796
 31
0.0
  0
LINE
  5
1E6
330
1F
100
AcDbEntity
  8
0-B_寸法
  6
Continuous
 62
   120
370
     5
100
AcDbLine
 10
800.3150423869863
 20
-1335.296591026525
 30
0.0
 11
821.31504238699
 21
-1356.296591026528
 31
0.0
  0
LINE
  5
1E7
330
1F
100
AcDbEntity
  8
0-B_寸法
  6
Continuous
 62
   120
370
     5
100
AcDbLine
 10
800.3150423869846
 20
-1349.438726650256
 30
0.0
 11
821.3150423869882
 21
-1370.43872665026
 31
0.0
  0
LINE
  5
1E8
330
1F
100
AcDbEntity
  8
0-B_寸法
  6
Continuous
 62
   120
370
     5
100
AcDbLine
 10
800.3150423869937
 20
-1363.580862273999
 30
0.0
 11
821.3150423869973
 21
-1384.580862274003
 31
0.0
  0
LINE
  5
1E9
330
1F
100
AcDbEntity
  8
0-B_寸法
  6
Continuous
 62
   120
370
     5
100
AcDbLine
 10
800.3150423869931
 20
-1377.722997897731
 30
0.0
 11
821.3150423869968
 21
-1398.722997897735
 31
0.0
  0
LINE
  5
1EA
330
1F
100
AcDbEntity
  8
0-B_寸法
  6
Continuous
 62
   120
370
     5
100
AcDbLine
 10
800.315042386992
 20
-1391.865133521464
 30
0.0
 11
821.3150423869956
 21
-1412.865133521468
 31
0.0
  0
LINE
  5
1EB
330
1F
100
AcDbEntity
  8
0-B_寸法
  6
Continuous
 62
   120
370
     5
100
AcDbLine
 10
800.315042386992
 20
-1406.007269145196
 30
0.0
 11
821.3150423869956
 21
-1427.007269145199
 31
0.0
  0
LINE
  5
1EC
330
1F
100
AcDbEntity
  8
0-B_寸法
  6
Continuous
 62
   120
370
     5
100
AcDbLine
 10
800.3150423869891
 20
-1420.149404768928
 30
0.0
 11
821.3150423869928
 21
-1441.149404768931
 31
0.0
  0
LINE
  5
1ED
330
1F
100
AcDbEntity
  8
0-B_寸法
  6
Continuous
 62
   120
370
     5
100
AcDbLine
 10
800.3150423869874
 20
-1434.291540392659
 30
0.0
 11
807.6900483777507
 21
-1441.666546383423
 31
0.0
  0
LINE
  5
1EE
330
1F
100
AcDbEntity
  8
0-B_寸法
  6
Continuous
 62
    92
370
    13
100
AcDbLine
 10
800.3150423869931
 20
-219.6665463834188
 30
0.0
 11
800.3150423869931
 21
-1441.666546383419
 31
0.0
  0
LINE
  5
1EF
330
1F
100
AcDbEntity
  8
0-B_寸法
  6
Continuous
 62
    92
370
    13
100
AcDbLine
 10
821.3150423869928
 20
-219.6665463834188
 30
0.0
 11
800.3150423869931
 21
-219.6665463834188
 31
0.0
  0
LINE
  5
1F0
330
1F
100
AcDbEntity
  8
0-B_寸法
  6
Continuous
 62
    92
370
    13
100
AcDbLine
 10
821.3150423869928
 20
-1441.666546383419
 30
0.0
 11
821.3150423869928
 21
-219.6665463834188
 31
0.0
  0
LINE
  5
1F1
330
1F
100
AcDbEntity
  8
0-B_寸法
  6
Continuous
 62
    92
370
    13
100
AcDbLine
 10
800.3150423869931
 20
-1441.666546383419
 30
0.0
 11
821.3150423869928
 21
-1441.666546383419
 31
0.0
  0
LINE
  5
1F2
330
1F
100
AcDbEntity
  8
0-B_寸法
  6
JWW_HOJO
 62
     7
370
     9
100
AcDbLine
 10
1115.815042386994
 20
712.3334536165811
 30
0.0
 11
1115.815042386994
 21
-1456.666546383419
 31
0.0
  0
LINE
  5
1F3
330
1F
100
AcDbEntity
  8
0-B_寸法
  6
JWW_HOJO
 62
     7
370
     9
100
AcDbLine
 10
810.8150423869938
 20
-1456.666546383419
 30
0.0
 11
810.8150423869938
 21
712.3334536165811
 31
0.0
  0
MTEXT
  5
1F4
330
1F
100
AcDbEntity
  8
0-B_寸法
  6
Continuous
 62
     7
370
   211
100
AcDbMText
 10
405.2219348203289
 20
-249.3065463834211
 30
0.0
 40
45.72
 41
60.0
 46
0.0
 71
     7
 72
     1
  1
{\fＭＳ ゴシック|b0|i0|c128|p49;15}
 11
6.123031769111886E-17
 21
1.0
 31
0.0
 73
     1
 44
1.0
  0
LINE
  5
1F5
330
1F
100
AcDbEntity
  8
0-B_寸法
  6
Continuous
 62
   120
370
     5
100
AcDbLine
 10
415.2219348203289
 20
-204.6665463834233
 30
0.0
 11
516.1937390569983
 21
-204.6665463834233
 31
0.0
  0
LWPOLYLINE
  5
1F6
330
1F
100
AcDbEntity
  8
0-B_寸法
  6
Continuous
 62
     7
370
     9
100
AcDbPolyline
 90
        4
 70
     1
 43
2.0
 10
416.2219348203289
 20
-204.6665463834233
 42
0.4142135623731
 10
415.2219348203289
 20
-203.6665463834233
 42
0.4142135623731
 10
414.2219348203289
 20
-204.6665463834233
 42
0.4142135623731
 10
415.2219348203289
 20
-205.6665463834233
 42
0.4142135623731
  0
LINE
  5
1F7
330
1F
100
AcDbEntity
  8
0-B_寸法
  6
Continuous
 62
   120
370
     5
100
AcDbLine
 10
415.2219348203289
 20
-219.6665463834194
 30
0.0
 11
415.2219348203289
 21
-204.6665463834233
 31
0.0
  0
MTEXT
  5
1F8
330
1F
100
AcDbEntity
  8
0-B_寸法
  6
Continuous
 62
     7
370
   211
100
AcDbMText
 10
405.2219348203289
 20
-912.8065463834201
 30
0.0
 40
45.72
 41
150.0
 46
0.0
 71
     7
 72
     1
  1
{\fＭＳ ゴシック|b0|i0|c128|p49;1,222}
 11
6.123031769111886E-17
 21
1.0
 31
0.0
 73
     1
 44
1.0
  0
LINE
  5
1F9
330
1F
100
AcDbEntity
  8
0-B_寸法
  6
Continuous
 62
   120
370
     5
100
AcDbLine
 10
415.2219348203289
 20
-219.6665463834194
 30
0.0
 11
516.1937390569983
 21
-219.6665463834194
 31
0.0
  0
LINE
  5
1FA
330
1F
100
AcDbEntity
  8
0-B_寸法
  6
Continuous
 62
   120
370
     5
100
AcDbLine
 10
315.3150423869931
 20
-1441.666546383419
 30
0.0
 11
516.1937390569983
 21
-1441.666546383419
 31
0.0
  0
LWPOLYLINE
  5
1FB
330
1F
100
AcDbEntity
  8
0-B_寸法
  6
Continuous
 62
     7
370
     9
100
AcDbPolyline
 90
        4
 70
     1
 43
2.0
 10
416.2219348203289
 20
-219.6665463834194
 42
0.4142135623731
 10
415.2219348203289
 20
-218.6665463834194
 42
0.4142135623731
 10
414.2219348203289
 20
-219.6665463834194
 42
0.4142135623731
 10
415.2219348203289
 20
-220.6665463834194
 42
0.4142135623731
  0
LWPOLYLINE
  5
1FC
330
1F
100
AcDbEntity
  8
0-B_寸法
  6
Continuous
 62
     7
370
     9
100
AcDbPolyline
 90
        4
 70
     1
 43
2.0
 10
416.2219348203289
 20
-1441.666546383419
 42
0.4142135623731
 10
415.2219348203289
 20
-1440.66654638342
 42
0.4142135623731
 10
414.2219348203289
 20
-1441.666546383419
 42
0.4142135623731
 10
415.2219348203289
 20
-1442.666546383419
 42
0.4142135623731
  0
LINE
  5
1FD
330
1F
100
AcDbEntity
  8
0-B_寸法
  6
Continuous
 62
   120
370
     5
100
AcDbLine
 10
415.2219348203289
 20
-1441.666546383419
 30
0.0
 11
415.2219348203289
 21
-219.6665463834194
 31
0.0
  0
LINE
  5
1FE
330
1F
100
AcDbEntity
  8
0-C_ハッチ
  6
Continuous
 62
   120
370
     5
100
AcDbLine
 10
579.18556314569
 20
-206.6538900009897
 30
0.0
 11
581.1729067632632
 21
-204.6665463834182
 31
0.0
  0
LINE
  5
1FF
330
1F
100
AcDbEntity
  8
0-C_ハッチ
  6
Continuous
 62
   120
370
     5
100
AcDbLine
 10
580.3150423869931
 20
-219.6665463834194
 30
0.0
 11
595.3150423869931
 21
-204.6665463834194
 31
0.0
  0
LINE
  5
200
330
1F
100
AcDbEntity
  8
0-C_ハッチ
  6
Continuous
 62
   120
370
     5
100
AcDbLine
 10
594.4571780107253
 20
-219.6665463834216
 30
0.0
 11
609.4571780107253
 21
-204.6665463834211
 31
0.0
  0
LINE
  5
201
330
1F
100
AcDbEntity
  8
0-C_ハッチ
  6
Continuous
 62
   120
370
     5
100
AcDbLine
 10
608.5993136344587
 20
-219.6665463834228
 30
0.0
 11
623.5993136344587
 21
-204.6665463834211
 31
0.0
  0
LINE
  5
202
330
1F
100
AcDbEntity
  8
0-C_ハッチ
  6
Continuous
 62
   120
370
     5
100
AcDbLine
 10
622.7414492581892
 20
-219.6665463834239
 30
0.0
 11
637.741449258192
 21
-204.6665463834228
 31
0.0
  0
LINE
  5
203
330
1F
100
AcDbEntity
  8
0-C_ハッチ
  6
Continuous
 62
   120
370
     5
100
AcDbLine
 10
636.8835848819225
 20
-219.6665463834239
 30
0.0
 11
651.8835848819253
 21
-204.6665463834239
 31
0.0
  0
LINE
  5
204
330
1F
100
AcDbEntity
  8
0-C_ハッチ
  6
Continuous
 62
   120
370
     5
100
AcDbLine
 10
651.0257205056541
 20
-219.6665463834262
 30
0.0
 11
666.0257205056558
 21
-204.6665463834239
 31
0.0
  0
LINE
  5
205
330
1F
100
AcDbEntity
  8
0-C_ハッチ
  6
Continuous
 62
   120
370
     5
100
AcDbLine
 10
665.1678561293875
 20
-219.6665463834273
 30
0.0
 11
680.1678561293875
 21
-204.6665463834262
 31
0.0
  0
LINE
  5
206
330
1F
100
AcDbEntity
  8
0-C_ハッチ
  6
Continuous
 62
   120
370
     5
100
AcDbLine
 10
679.3099917531174
 20
-219.6665463834285
 30
0.0
 11
694.3099917531208
 21
-204.6665463834273
 31
0.0
  0
LINE
  5
207
330
1F
100
AcDbEntity
  8
0-C_ハッチ
  6
Continuous
 62
   120
370
     5
100
AcDbLine
 10
693.4521273768507
 20
-219.6665463834285
 30
0.0
 11
708.452127376853
 21
-204.6665463834279
 31
0.0
  0
LINE
  5
208
330
1F
100
AcDbEntity
  8
0-C_ハッチ
  6
Continuous
 62
   120
370
     5
100
AcDbLine
 10
707.5942630005648
 20
-219.6665463834142
 30
0.0
 11
722.5942630005557
 21
-204.6665463834233
 31
0.0
  0
LINE
  5
209
330
1F
100
AcDbEntity
  8
0-C_ハッチ
  6
Continuous
 62
   120
370
     5
100
AcDbLine
 10
721.7363986242952
 20
-219.6665463834148
 30
0.0
 11
736.7363986242981
 21
-204.6665463834142
 31
0.0
  0
LINE
  5
20A
330
1F
100
AcDbEntity
  8
0-C_ハッチ
  6
Continuous
 62
   120
370
     5
100
AcDbLine
 10
735.8785342480269
 20
-219.6665463834165
 30
0.0
 11
750.8785342480286
 21
-204.6665463834148
 31
0.0
  0
LINE
  5
20B
330
1F
100
AcDbEntity
  8
0-C_ハッチ
  6
Continuous
 62
   120
370
     5
100
AcDbLine
 10
750.0206698717602
 20
-219.6665463834182
 30
0.0
 11
765.0206698717602
 21
-204.6665463834171
 31
0.0
  0
LINE
  5
20C
330
1F
100
AcDbEntity
  8
0-C_ハッチ
  6
Continuous
 62
   120
370
     5
100
AcDbLine
 10
764.1628054954901
 20
-219.6665463834194
 30
0.0
 11
779.1628054954924
 21
-204.6665463834188
 31
0.0
  0
LINE
  5
20D
330
1F
100
AcDbEntity
  8
0-C_ハッチ
  6
Continuous
 62
   120
370
     5
100
AcDbLine
 10
778.3049411192223
 20
-219.6665463834211
 30
0.0
 11
793.3049411192235
 21
-204.6665463834194
 31
0.0
  0
LINE
  5
20E
330
1F
100
AcDbEntity
  8
0-C_ハッチ
  6
Continuous
 62
   120
370
     5
100
AcDbLine
 10
792.4470767429557
 20
-219.6665463834216
 30
0.0
 11
807.4470767429557
 21
-204.6665463834211
 31
0.0
  0
LINE
  5
20F
330
1F
100
AcDbEntity
  8
0-C_ハッチ
  6
Continuous
 62
   120
370
     5
100
AcDbLine
 10
806.589212366689
 20
-219.6665463834233
 30
0.0
 11
821.589212366689
 21
-204.6665463834216
 31
0.0
  0
LINE
  5
210
330
1F
100
AcDbEntity
  8
0-C_ハッチ
  6
Continuous
 62
   120
370
     5
100
AcDbLine
 10
820.7313479904224
 20
-219.6665463834216
 30
0.0
 11
835.7313479904235
 21
-204.6665463834194
 31
0.0
  0
LINE
  5
211
330
1F
100
AcDbEntity
  8
0-C_ハッチ
  6
Continuous
 62
   120
370
     5
100
AcDbLine
 10
834.8734836141557
 20
-219.6665463834228
 30
0.0
 11
849.8734836141557
 21
-204.6665463834211
 31
0.0
  0
LINE
  5
212
330
1F
100
AcDbEntity
  8
0-C_ハッチ
  6
Continuous
 62
   120
370
     5
100
AcDbLine
 10
849.015619237889
 20
-219.6665463834233
 30
0.0
 11
864.015619237889
 21
-204.6665463834216
 31
0.0
  0
LINE
  5
213
330
1F
100
AcDbEntity
  8
0-C_ハッチ
  6
Continuous
 62
   120
370
     5
100
AcDbLine
 10
863.1577548616195
 20
-219.6665463834239
 30
0.0
 11
878.1577548616224
 21
-204.6665463834233
 31
0.0
  0
LINE
  5
214
330
1F
100
AcDbEntity
  8
0-C_ハッチ
  6
Continuous
 62
   120
370
     5
100
AcDbLine
 10
877.2998904853512
 20
-219.6665463834262
 30
0.0
 11
892.2998904853533
 21
-204.6665463834239
 31
0.0
  0
LINE
  5
215
330
1F
100
AcDbEntity
  8
0-C_ハッチ
  6
Continuous
 62
   120
370
     5
100
AcDbLine
 10
891.4420261090845
 20
-219.6665463834262
 30
0.0
 11
906.4420261090845
 21
-204.6665463834256
 31
0.0
  0
LINE
  5
216
330
1F
100
AcDbEntity
  8
0-C_ハッチ
  6
Continuous
 62
   120
370
     5
100
AcDbLine
 10
905.5841617328167
 20
-219.6665463834279
 30
0.0
 11
920.5841617328178
 21
-204.6665463834262
 31
0.0
  0
LINE
  5
217
330
1F
100
AcDbEntity
  8
0-C_ハッチ
  6
Continuous
 62
   120
370
     5
100
AcDbLine
 10
919.7262973565261
 20
-219.6665463834148
 30
0.0
 11
934.7262973565148
 21
-204.6665463834256
 31
0.0
  0
LINE
  5
218
330
1F
100
AcDbEntity
  8
0-C_ハッチ
  6
Continuous
 62
   120
370
     5
100
AcDbLine
 10
933.8684329802572
 20
-219.6665463834171
 30
0.0
 11
948.8684329802594
 21
-204.6665463834165
 31
0.0
  0
LINE
  5
219
330
1F
100
AcDbEntity
  8
0-C_ハッチ
  6
Continuous
 62
   120
370
     5
100
AcDbLine
 10
948.0105686039894
 20
-219.6665463834188
 30
0.0
 11
963.0105686039906
 21
-204.6665463834171
 31
0.0
  0
LINE
  5
21A
330
1F
100
AcDbEntity
  8
0-C_ハッチ
  6
Continuous
 62
   120
370
     5
100
AcDbLine
 10
962.1527042277215
 20
-219.6665463834194
 30
0.0
 11
977.1527042277228
 21
-204.6665463834188
 31
0.0
  0
LINE
  5
21B
330
1F
100
AcDbEntity
  8
0-C_ハッチ
  6
Continuous
 62
   120
370
     5
100
AcDbLine
 10
976.2948398514527
 20
-219.6665463834211
 30
0.0
 11
991.2948398514549
 21
-204.6665463834194
 31
0.0
  0
LINE
  5
21C
330
1F
100
AcDbEntity
  8
0-C_ハッチ
  6
Continuous
 62
   120
370
     5
100
AcDbLine
 10
990.436975475186
 20
-219.6665463834216
 30
0.0
 11
1005.436975475186
 21
-204.6665463834211
 31
0.0
  0
LINE
  5
21D
330
1F
100
AcDbEntity
  8
0-C_ハッチ
  6
Continuous
 62
   120
370
     5
100
AcDbLine
 10
1004.579111098919
 20
-219.6665463834239
 30
0.0
 11
1019.579111098919
 21
-204.6665463834228
 31
0.0
  0
LINE
  5
21E
330
1F
100
AcDbEntity
  8
0-C_ハッチ
  6
Continuous
 62
   120
370
     5
100
AcDbLine
 10
1018.72124672265
 20
-219.6665463834239
 30
0.0
 11
1033.72124672265
 21
-204.6665463834239
 31
0.0
  0
LINE
  5
21F
330
1F
100
AcDbEntity
  8
0-C_ハッチ
  6
Continuous
 62
   120
370
     5
100
AcDbLine
 10
1032.863382346388
 20
-219.6665463834194
 30
0.0
 11
1047.863382346389
 21
-204.6665463834188
 31
0.0
  0
LINE
  5
220
330
1F
100
AcDbEntity
  8
0-C_ハッチ
  6
Continuous
 62
   120
370
     5
100
AcDbLine
 10
1047.005517970119
 20
-219.6665463834211
 30
0.0
 11
1062.005517970121
 21
-204.6665463834194
 31
0.0
  0
LINE
  5
221
330
1F
100
AcDbEntity
  8
0-C_ハッチ
  6
Continuous
 62
   120
370
     5
100
AcDbLine
 10
1061.147653593853
 20
-219.6665463834216
 30
0.0
 11
1076.147653593853
 21
-204.6665463834211
 31
0.0
  0
LINE
  5
222
330
1F
100
AcDbEntity
  8
0-C_ハッチ
  6
Continuous
 62
   120
370
     5
100
AcDbLine
 10
1075.289789217586
 20
-219.6665463834233
 30
0.0
 11
1090.289789217586
 21
-204.6665463834216
 31
0.0
  0
LINE
  5
223
330
1F
100
AcDbEntity
  8
0-C_ハッチ
  6
Continuous
 62
   120
370
     5
100
AcDbLine
 10
1089.431924841317
 20
-219.6665463834239
 30
0.0
 11
1104.431924841319
 21
-204.6665463834233
 31
0.0
  0
LINE
  5
224
330
1F
100
AcDbEntity
  8
0-C_ハッチ
  6
Continuous
 62
   120
370
     5
100
AcDbLine
 10
1103.574060465048
 20
-219.6665463834256
 30
0.0
 11
1118.57406046505
 21
-204.6665463834239
 31
0.0
  0
LINE
  5
225
330
1F
100
AcDbEntity
  8
0-C_ハッチ
  6
Continuous
 62
   120
370
     5
100
AcDbLine
 10
1117.716196088782
 20
-219.6665463834262
 30
0.0
 11
1132.716196088782
 21
-204.6665463834256
 31
0.0
  0
LINE
  5
226
330
1F
100
AcDbEntity
  8
0-C_ハッチ
  6
Continuous
 62
   120
370
     5
100
AcDbLine
 10
1131.858331712488
 20
-219.6665463834171
 30
0.0
 11
1146.858331712479
 21
-204.6665463834262
 31
0.0
  0
LINE
  5
227
330
1F
100
AcDbEntity
  8
0-C_ハッチ
  6
Continuous
 62
   120
370
     5
100
AcDbLine
 10
1146.00046733622
 20
-219.6665463834188
 30
0.0
 11
1161.000467336221
 21
-204.6665463834171
 31
0.0
  0
LINE
  5
228
330
1F
100
AcDbEntity
  8
0-C_ハッチ
  6
Continuous
 62
   120
370
     5
100
AcDbLine
 10
1160.142602959952
 20
-219.6665463834194
 30
0.0
 11
1175.142602959953
 21
-204.6665463834188
 31
0.0
  0
LINE
  5
229
330
1F
100
AcDbEntity
  8
0-C_ハッチ
  6
Continuous
 62
   120
370
     5
100
AcDbLine
 10
1174.284738583683
 20
-219.6665463834216
 30
0.0
 11
1189.284738583685
 21
-204.6665463834194
 31
0.0
  0
LINE
  5
22A
330
1F
100
AcDbEntity
  8
0-C_ハッチ
  6
Continuous
 62
   120
370
     5
100
AcDbLine
 10
1188.426874207418
 20
-219.6665463834228
 30
0.0
 11
1203.426874207418
 21
-204.6665463834216
 31
0.0
  0
LINE
  5
22B
330
1F
100
AcDbEntity
  8
0-C_ハッチ
  6
Continuous
 62
   120
370
     5
100
AcDbLine
 10
1202.569009831147
 20
-219.6665463834239
 30
0.0
 11
1217.56900983115
 21
-204.6665463834233
 31
0.0
  0
LINE
  5
22C
330
1F
100
AcDbEntity
  8
0-C_ハッチ
  6
Continuous
 62
   120
370
     5
100
AcDbLine
 10
1216.71114545488
 20
-219.6665463834256
 30
0.0
 11
1231.711145454881
 21
-204.6665463834239
 31
0.0
  0
LINE
  5
22D
330
1F
100
AcDbEntity
  8
0-C_ハッチ
  6
Continuous
 62
   120
370
     5
100
AcDbLine
 10
1230.853281078613
 20
-219.6665463834262
 30
0.0
 11
1245.853281078613
 21
-204.6665463834256
 31
0.0
  0
LINE
  5
22E
330
1F
100
AcDbEntity
  8
0-C_ハッチ
  6
Continuous
 62
   120
370
     5
100
AcDbLine
 10
1244.995416702353
 20
-219.6665463834188
 30
0.0
 11
1259.995416702355
 21
-204.6665463834171
 31
0.0
  0
LINE
  5
22F
330
1F
100
AcDbEntity
  8
0-C_ハッチ
  6
Continuous
 62
   120
370
     5
100
AcDbLine
 10
1259.137552326085
 20
-219.6665463834194
 30
0.0
 11
1274.137552326087
 21
-204.6665463834188
 31
0.0
  0
LINE
  5
230
330
1F
100
AcDbEntity
  8
0-C_ハッチ
  6
Continuous
 62
   120
370
     5
100
AcDbLine
 10
1273.279687949818
 20
-219.6665463834211
 30
0.0
 11
1288.279687949818
 21
-204.6665463834194
 31
0.0
  0
LINE
  5
231
330
1F
100
AcDbEntity
  8
0-C_ハッチ
  6
Continuous
 62
   120
370
     5
100
AcDbLine
 10
1287.421823573551
 20
-219.6665463834216
 30
0.0
 11
1302.421823573551
 21
-204.6665463834211
 31
0.0
  0
LINE
  5
232
330
1F
100
AcDbEntity
  8
0-C_ハッチ
  6
Continuous
 62
   120
370
     5
100
AcDbLine
 10
1301.563959197283
 20
-219.6665463834233
 30
0.0
 11
1316.563959197284
 21
-204.6665463834216
 31
0.0
  0
LINE
  5
233
330
1F
100
AcDbEntity
  8
0-C_ハッチ
  6
Continuous
 62
   120
370
     5
100
AcDbLine
 10
1315.706094821014
 20
-219.6665463834239
 30
0.0
 11
1330.706094821016
 21
-204.6665463834233
 31
0.0
  0
LINE
  5
234
330
1F
100
AcDbEntity
  8
0-C_ハッチ
  6
Continuous
 62
   120
370
     5
100
AcDbLine
 10
1329.848230444746
 20
-219.6665463834256
 30
0.0
 11
1344.848230444747
 21
-204.6665463834239
 31
0.0
  0
LINE
  5
235
330
1F
100
AcDbEntity
  8
0-C_ハッチ
  6
Continuous
 62
   120
370
     5
100
AcDbLine
 10
1343.99036606845
 20
-219.6665463834194
 30
0.0
 11
1345.185563145693
 21
-218.4713493061764
 31
0.0
  0
LINE
  5
236
330
1F
100
AcDbEntity
  8
0-B_寸法
  6
Continuous
 62
   120
370
     5
100
AcDbLine
 10
315.3150423869931
 20
697.3334536165811
 30
0.0
 11
515.3150423869931
 21
697.3334536165811
 31
0.0
  0
LWPOLYLINE
  5
237
330
1F
100
AcDbEntity
  8
0-B_寸法
  6
Continuous
 62
     7
370
     9
100
AcDbPolyline
 90
        4
 70
     1
 43
2.0
 10
316.3150423869931
 20
697.3334536165811
 42
0.4142135623731
 10
315.3150423869931
 20
698.333453616581
 42
0.4142135623731
 10
314.3150423869931
 20
697.3334536165811
 42
0.4142135623731
 10
315.3150423869931
 20
696.3334536165812
 42
0.4142135623731
  0
LWPOLYLINE
  5
238
330
1F
100
AcDbEntity
  8
0-B_寸法
  6
Continuous
 62
     7
370
     9
100
AcDbPolyline
 90
        4
 70
     1
 43
2.0
 10
316.3150423869931
 20
712.3334536165811
 42
0.4142135623731
 10
315.3150423869931
 20
713.333453616581
 42
0.4142135623731
 10
314.3150423869931
 20
712.3334536165811
 42
0.4142135623731
 10
315.3150423869931
 20
711.3334536165812
 42
0.4142135623731
  0
LINE
  5
239
330
1F
100
AcDbEntity
  8
0-B_寸法
  6
Continuous
 62
   120
370
     5
100
AcDbLine
 10
315.3150423869931
 20
712.3334536165811
 30
0.0
 11
315.3150423869931
 21
-1456.666546383419
 31
0.0
  0
MTEXT
  5
23A
330
1F
100
AcDbEntity
  8
0-B_寸法
  6
Continuous
 62
     7
370
   211
100
AcDbMText
 10
1151.134311424341
 20
627.5984536165806
 30
0.0
 40
49.53
 41
65.0
 46
0.0
 71
     7
 72
     1
  1
{\fＭＳ ゴシック|b0|i0|c128|p49;64}
 11
6.123031769111886E-17
 21
1.0
 31
0.0
 73
     1
 44
1.0
  0
LINE
  5
23B
330
1F
100
AcDbEntity
  8
0-B_寸法
  6
Continuous
 62
   120
370
     5
100
AcDbLine
 10
1161.134311424341
 20
633.3334536165808
 30
0.0
 11
1131.896035141044
 21
633.3334536165808
 31
0.0
  0
LINE
  5
23C
330
1F
100
AcDbEntity
  8
0-B_寸法
  6
Continuous
 62
   120
370
     5
100
AcDbLine
 10
1161.134311424341
 20
697.3334536165811
 30
0.0
 11
1131.896035141044
 21
697.3334536165811
 31
0.0
  0
LWPOLYLINE
  5
23D
330
1F
100
AcDbEntity
  8
0-B_寸法
  6
Continuous
 62
     7
370
     9
100
AcDbPolyline
 90
        4
 70
     1
 43
2.0
 10
1162.134311424341
 20
633.3334536165808
 42
0.4142135623731
 10
1161.134311424341
 20
634.3334536165808
 42
0.4142135623731
 10
1160.134311424341
 20
633.3334536165808
 42
0.4142135623731
 10
1161.134311424341
 20
632.3334536165808
 42
0.4142135623731
  0
LWPOLYLINE
  5
23E
330
1F
100
AcDbEntity
  8
0-B_寸法
  6
Continuous
 62
     7
370
     9
100
AcDbPolyline
 90
        4
 70
     1
 43
2.0
 10
1162.134311424341
 20
697.3334536165811
 42
0.4142135623731
 10
1161.134311424341
 20
698.333453616581
 42
0.4142135623731
 10
1160.134311424341
 20
697.3334536165811
 42
0.4142135623731
 10
1161.134311424341
 20
696.3334536165812
 42
0.4142135623731
  0
LINE
  5
23F
330
1F
100
AcDbEntity
  8
0-B_寸法
  6
Continuous
 62
   120
370
     5
100
AcDbLine
 10
1161.134311424341
 20
697.3334536165811
 30
0.0
 11
1161.134311424341
 21
633.3334536165808
 31
0.0
  0
LINE
  5
240
330
1F
100
AcDbEntity
  8
0-1_本体
  6
JWW_DASHED2
 62
     7
370
     9
100
AcDbLine
 10
1346.315042386996
 20
633.3334536165808
 30
0.0
 11
580.3150423869931
 21
633.3334536165808
 31
0.0
  0
LINE
  5
241
330
1F
100
AcDbEntity
  8
0-1_本体
  6
Continuous
 62
    92
370
    13
100
AcDbLine
 10
565.3150423869931
 20
712.3334536165811
 30
0.0
 11
1361.315042386996
 21
712.3334536165811
 31
0.0
  0
LINE
  5
242
330
1F
100
AcDbEntity
  8
0-1_本体
  6
Continuous
 62
    92
370
    13
100
AcDbLine
 10
580.3150423869931
 20
697.3334536165811
 30
0.0
 11
1346.315042386996
 21
697.3334536165811
 31
0.0
  0
LINE
  5
243
330
1F
100
AcDbEntity
  8
0-1_本体
  6
Continuous
 62
    92
370
    13
100
AcDbLine
 10
580.3150423869931
 20
-1456.666546383419
 30
0.0
 11
580.3150423869931
 21
712.3334536165811
 31
0.0
  0
LINE
  5
244
330
1F
100
AcDbEntity
  8
0-1_本体
  6
Continuous
 62
    92
370
    13
100
AcDbLine
 10
565.3150423869931
 20
-1456.666546383419
 30
0.0
 11
565.3150423869931
 21
712.3334536165811
 31
0.0
  0
LINE
  5
245
330
1F
100
AcDbEntity
  8
0-1_本体
  6
Continuous
 62
    92
370
    13
100
AcDbLine
 10
1346.315042386996
 20
712.3334536165811
 30
0.0
 11
1346.315042386996
 21
-1456.666546383419
 31
0.0
  0
LINE
  5
246
330
1F
100
AcDbEntity
  8
0-1_本体
  6
Continuous
 62
    92
370
    13
100
AcDbLine
 10
1361.315042386996
 20
712.3334536165811
 30
0.0
 11
1361.315042386996
 21
-1456.666546383419
 31
0.0
  0
MTEXT
  5
247
330
1F
100
AcDbEntity
  8
0-B_寸法
  6
Continuous
 62
     7
370
   211
100
AcDbMText
 10
305.3150423869931
 20
-1451.758095972124
 30
0.0
 40
45.72
 41
60.0
 46
0.0
 71
     7
 72
     1
  1
{\fＭＳ ゴシック|b0|i0|c128|p49;15}
 11
6.123031769111886E-17
 21
1.0
 31
0.0
 73
     1
 44
1.0
  0
LINE
  5
248
330
1F
100
AcDbEntity
  8
0-B_寸法
  6
Continuous
 62
   120
370
     5
100
AcDbLine
 10
315.3150423869931
 20
-1456.666546383419
 30
0.0
 11
515.3150423869931
 21
-1456.666546383419
 31
0.0
  0
LWPOLYLINE
  5
249
330
1F
100
AcDbEntity
  8
0-B_寸法
  6
Continuous
 62
     7
370
     9
100
AcDbPolyline
 90
        4
 70
     1
 43
2.0
 10
316.3150423869931
 20
-1456.666546383419
 42
0.4142135623731
 10
315.3150423869931
 20
-1455.66654638342
 42
0.4142135623731
 10
314.3150423869931
 20
-1456.666546383419
 42
0.4142135623731
 10
315.3150423869931
 20
-1457.666546383419
 42
0.4142135623731
  0
LWPOLYLINE
  5
24A
330
1F
100
AcDbEntity
  8
0-B_寸法
  6
Continuous
 62
     7
370
     9
100
AcDbPolyline
 90
        4
 70
     1
 43
2.0
 10
316.3150423869931
 20
-1441.666546383419
 42
0.4142135623731
 10
315.3150423869931
 20
-1440.66654638342
 42
0.4142135623731
 10
314.3150423869931
 20
-1441.666546383419
 42
0.4142135623731
 10
315.3150423869931
 20
-1442.666546383419
 42
0.4142135623731
  0
LINE
  5
24B
330
1F
100
AcDbEntity
  8
0-1_本体
  6
Continuous
 62
    92
370
    13
100
AcDbLine
 10
1361.315042386996
 20
-1456.666546383419
 30
0.0
 11
565.3150423869931
 21
-1456.666546383419
 31
0.0
  0
LINE
  5
24C
330
1F
100
AcDbEntity
  8
0-1_本体
  6
Continuous
 62
    92
370
    13
100
AcDbLine
 10
1346.315042386996
 20
-1441.666546383419
 30
0.0
 11
580.3150423869931
 21
-1441.666546383419
 31
0.0
  0
MTEXT
  5
24D
330
1F
100
AcDbEntity
  8
0-B_寸法
  6
Continuous
 62
     7
370
   211
100
AcDbMText
 10
305.3150423869931
 20
-502.30654638342
 30
0.0
 40
45.72
 41
150.0
 46
0.0
 71
     7
 72
     1
  1
{\fＭＳ ゴシック|b0|i0|c128|p49;2,139}
 11
6.123031769111886E-17
 21
1.0
 31
0.0
 73
     1
 44
1.0
  0
LINE
  5
24E
330
1F
100
AcDbEntity
  8
0-1_本体
  6
Continuous
 62
    40
370
    15
100
AcDbLine
 10
580.3150423869931
 20
1738.063356107788
 30
0.0
 11
565.3150423869931
 21
1738.063356107788
 31
0.0
  0
LINE
  5
24F
330
1F
100
AcDbEntity
  8
0-1_本体
  6
Continuous
 62
    40
370
    15
100
AcDbLine
 10
565.3150423869931
 20
1738.063356107788
 30
0.0
 11
565.3150423869931
 21
2083.063356107788
 31
0.0
  0
LINE
  5
250
330
1F
100
AcDbEntity
  8
0-1_本体
  6
Continuous
 62
    40
370
    15
100
AcDbLine
 10
1346.315042386993
 20
1738.063356107788
 30
0.0
 11
1361.315042386993
 21
1738.063356107788
 31
0.0
  0
LINE
  5
251
330
1F
100
AcDbEntity
  8
0-1_本体
  6
Continuous
 62
    40
370
    15
100
AcDbLine
 10
1361.315042386993
 20
1738.063356107788
 30
0.0
 11
1361.315042386993
 21
2083.063356107788
 31
0.0
  0
LINE
  5
252
330
1F
100
AcDbEntity
  8
0-1_本体
  6
Continuous
 62
    40
370
    15
100
AcDbLine
 10
580.3150423869931
 20
2080.063356107787
 30
0.0
 11
580.3150423869931
 21
1738.063356107788
 31
0.0
  0
LINE
  5
253
330
1F
100
AcDbEntity
  8
0-1_本体
  6
Continuous
 62
    40
370
    15
100
AcDbLine
 10
1346.315042386993
 20
2080.063356107787
 30
0.0
 11
1346.315042386993
 21
1738.063356107788
 31
0.0
  0
LINE
  5
254
330
1F
100
AcDbEntity
  8
0-B_寸法
  6
Continuous
 62
   120
370
     5
100
AcDbLine
 10
565.3150423869931
 20
1460.063356107787
 30
0.0
 11
1361.315042386993
 21
1460.063356107787
 31
0.0
  0
LWPOLYLINE
  5
255
330
1F
100
AcDbEntity
  8
0-B_寸法
  6
Continuous
 62
     7
370
     9
100
AcDbPolyline
 90
        4
 70
     1
 43
2.0
 10
566.3150423869931
 20
1460.063356107787
 42
0.4142135623731
 10
565.3150423869931
 20
1461.063356107787
 42
0.4142135623731
 10
564.3150423869931
 20
1460.063356107787
 42
0.4142135623731
 10
565.3150423869931
 20
1459.063356107787
 42
0.4142135623731
  0
LWPOLYLINE
  5
256
330
1F
100
AcDbEntity
  8
0-B_寸法
  6
Continuous
 62
     7
370
     9
100
AcDbPolyline
 90
        4
 70
     1
 43
2.0
 10
1362.315042386993
 20
1460.063356107787
 42
0.4142135623731
 10
1361.315042386993
 20
1461.063356107787
 42
0.4142135623731
 10
1360.315042386993
 20
1460.063356107787
 42
0.4142135623731
 10
1361.315042386993
 20
1459.063356107787
 42
0.4142135623731
  0
LINE
  5
257
330
1F
100
AcDbEntity
  8
0-B_寸法
  6
Continuous
 62
   120
370
     5
100
AcDbLine
 10
565.3150423869931
 20
1460.063356107787
 30
0.0
 11
565.3150423869931
 21
1560.063356107787
 31
0.0
  0
LINE
  5
258
330
1F
100
AcDbEntity
  8
0-B_寸法
  6
Continuous
 62
   120
370
     5
100
AcDbLine
 10
1361.315042386993
 20
1460.063356107787
 30
0.0
 11
1361.315042386993
 21
1560.063356107787
 31
0.0
  0
MTEXT
  5
259
330
1F
100
AcDbEntity
  8
0-B_寸法
  6
Continuous
 62
     7
370
   211
100
AcDbMText
 10
918.315042386995
 20
1462.923356107787
 30
0.0
 40
45.72
 41
90.0
 46
0.0
 71
     7
 72
     1
  1
{\fＭＳ ゴシック|b0|i0|c128|p49;796}
 73
     1
 44
1.0
  0
LINE
  5
25A
330
1F
100
AcDbEntity
  8
0-4_棚
  6
Continuous
 62
    92
370
    13
100
AcDbLine
 10
580.3150423869931
 20
1790.063356107787
 30
0.0
 11
1346.315042386993
 21
1790.063356107787
 31
0.0
  0
LINE
  5
25B
330
1F
100
AcDbEntity
  8
0-4_棚
  6
Continuous
 62
    92
370
    13
100
AcDbLine
 10
580.3150423869931
 20
1745.063356107787
 30
0.0
 11
1346.315042386993
 21
1745.063356107787
 31
0.0
  0
LINE
  5
25C
330
1F
100
AcDbEntity
  8
0-0_補助線
  6
JWW_HOJO
 62
   120
370
     5
100
AcDbLine
 10
1411.315042386993
 20
1460.063356107787
 30
0.0
 11
1411.315042386993
 21
2133.063356107788
 31
0.0
  0
LINE
  5
25D
330
1F
100
AcDbEntity
  8
0-0_補助線
  6
JWW_HOJO
 62
   120
370
     5
100
AcDbLine
 10
515.3150423869931
 20
2133.063356107788
 30
0.0
 11
515.3150423869931
 21
1460.063356107787
 31
0.0
  0
LINE
  5
25E
330
1F
100
AcDbEntity
  8
0-0_補助線
  6
JWW_HOJO
 62
   120
370
     5
100
AcDbLine
 10
415.3150423869931
 20
2133.063356107788
 30
0.0
 11
415.3150423869931
 21
1460.063356107787
 31
0.0
  0
LINE
  5
25F
330
1F
100
AcDbEntity
  8
0-0_補助線
  6
JWW_HOJO
 62
   120
370
     5
100
AcDbLine
 10
315.3150423869931
 20
2133.063356107788
 30
0.0
 11
315.3150423869931
 21
1460.063356107787
 31
0.0
  0
LINE
  5
260
330
1F
100
AcDbEntity
  8
0-A_文字
  6
Continuous
 62
     7
370
     9
100
AcDbLine
 10
538.3150423869938
 20
1160.063356107787
 30
0.0
 11
538.3150423869938
 21
1310.063356107787
 31
0.0
  0
LINE
  5
261
330
1F
100
AcDbEntity
  8
0-A_文字
  6
Continuous
 62
     7
370
     9
100
AcDbLine
 10
1388.315042386994
 20
1160.063356107787
 30
0.0
 11
538.3150423869938
 21
1160.063356107787
 31
0.0
  0
LINE
  5
262
330
1F
100
AcDbEntity
  8
0-A_文字
  6
Continuous
 62
     7
370
     9
100
AcDbLine
 10
1388.315042386994
 20
1310.063356107787
 30
0.0
 11
1388.315042386994
 21
1160.063356107787
 31
0.0
  0
LINE
  5
263
330
1F
100
AcDbEntity
  8
0-A_文字
  6
Continuous
 62
     7
370
     9
100
AcDbLine
 10
538.3150423869938
 20
1310.063356107787
 30
0.0
 11
1388.315042386994
 21
1310.063356107787
 31
0.0
  0
LINE
  5
264
330
1F
100
AcDbEntity
  8
0-0_補助線
  6
JWW_HOJO
 62
   120
370
     5
100
AcDbLine
 10
1511.315042386993
 20
-1851.166546383419
 30
0.0
 11
1511.315042386993
 21
862.3334536165811
 31
0.0
  0
LINE
  5
265
330
1F
100
AcDbEntity
  8
0-0_補助線
  6
JWW_HOJO
 62
   120
370
     5
100
AcDbLine
 10
515.3150423869931
 20
-1851.166546383419
 30
0.0
 11
515.3150423869931
 21
862.3334536165811
 31
0.0
  0
LINE
  5
266
330
1F
100
AcDbEntity
  8
0-0_補助線
  6
JWW_HOJO
 62
   120
370
     5
100
AcDbLine
 10
1411.315042386993
 20
-1851.166546383419
 30
0.0
 11
1411.315042386993
 21
862.3334536165811
 31
0.0
  0
LINE
  5
267
330
1F
100
AcDbEntity
  8
0-0_補助線
  6
JWW_HOJO
 62
     7
370
     9
100
AcDbLine
 10
565.3150423869931
 20
862.3334536165811
 30
0.0
 11
565.3150423869931
 21
-1851.166546383419
 31
0.0
  0
LINE
  5
268
330
1F
100
AcDbEntity
  8
0-0_補助線
  6
JWW_HOJO
 62
     7
370
     9
100
AcDbLine
 10
1361.315042386993
 20
-1851.166546383419
 30
0.0
 11
1361.315042386993
 21
862.3334536165811
 31
0.0
  0
MTEXT
  5
269
330
1F
100
AcDbEntity
  8
0-B_寸法
  6
Continuous
 62
     7
370
   211
100
AcDbMText
 10
1151.134311424341
 20
-1447.40154638342
 30
0.0
 40
49.53
 41
65.0
 46
0.0
 71
     7
 72
     1
  1
{\fＭＳ ゴシック|b0|i0|c128|p49;64}
 11
6.123031769111886E-17
 21
1.0
 31
0.0
 73
     1
 44
1.0
  0
LINE
  5
26A
330
1F
100
AcDbEntity
  8
0-B_寸法
  6
Continuous
 62
   120
370
     5
100
AcDbLine
 10
1161.134311424341
 20
-1441.666546383419
 30
0.0
 11
1131.896035141044
 21
-1441.666546383419
 31
0.0
  0
LINE
  5
26B
330
1F
100
AcDbEntity
  8
0-B_寸法
  6
Continuous
 62
   120
370
     5
100
AcDbLine
 10
1161.134311424341
 20
-1377.66654638342
 30
0.0
 11
1131.896035141044
 21
-1377.66654638342
 31
0.0
  0
LWPOLYLINE
  5
26C
330
1F
100
AcDbEntity
  8
0-B_寸法
  6
Continuous
 62
     7
370
     9
100
AcDbPolyline
 90
        4
 70
     1
 43
2.0
 10
1162.134311424341
 20
-1441.666546383419
 42
0.4142135623731
 10
1161.134311424341
 20
-1440.66654638342
 42
0.4142135623731
 10
1160.134311424341
 20
-1441.666546383419
 42
0.4142135623731
 10
1161.134311424341
 20
-1442.666546383419
 42
0.4142135623731
  0
LWPOLYLINE
  5
26D
330
1F
100
AcDbEntity
  8
0-B_寸法
  6
Continuous
 62
     7
370
     9
100
AcDbPolyline
 90
        4
 70
     1
 43
2.0
 10
1162.134311424341
 20
-1377.66654638342
 42
0.4142135623731
 10
1161.134311424341
 20
-1376.66654638342
 42
0.4142135623731
 10
1160.134311424341
 20
-1377.66654638342
 42
0.4142135623731
 10
1161.134311424341
 20
-1378.66654638342
 42
0.4142135623731
  0
LINE
  5
26E
330
1F
100
AcDbEntity
  8
0-B_寸法
  6
Continuous
 62
   120
370
     5
100
AcDbLine
 10
1161.134311424341
 20
-1377.66654638342
 30
0.0
 11
1161.134311424341
 21
-1441.666546383419
 31
0.0
  0
LINE
  5
26F
330
1F
100
AcDbEntity
  8
0-1_本体
  6
JWW_DASHED2
 62
     7
370
     9
100
AcDbLine
 10
800.3150423869931
 20
-1377.66654638342
 30
0.0
 11
580.3150423869931
 21
-1377.66654638342
 31
0.0
  0
LINE
  5
270
330
1F
100
AcDbEntity
  8
0-1_本体
  6
JWW_DASHED2
 62
     7
370
     9
100
AcDbLine
 10
1346.315042386996
 20
-1377.66654638342
 30
0.0
 11
821.3150423869928
 21
-1377.66654638342
 31
0.0
  0
LINE
  5
271
330
1F
100
AcDbEntity
  8
0-0_補助線
  6
JWW_HOJO
 62
   120
370
     5
100
AcDbLine
 10
-1380.684957613007
 20
2133.063356107788
 30
0.0
 11
1411.315042386993
 21
2133.063356107788
 31
0.0
  0
LINE
  5
272
330
1F
100
AcDbEntity
  8
0-0_補助線
  6
JWW_HOJO
 62
   120
370
     5
100
AcDbLine
 10
-1380.684957613007
 20
1460.063356107787
 30
0.0
 11
1411.315042386993
 21
1460.063356107787
 31
0.0
  0
LINE
  5
273
330
1F
100
AcDbEntity
  8
0-0_補助線
  6
JWW_HOJO
 62
     7
370
     9
100
AcDbLine
 10
-1380.684957613007
 20
2083.063356107788
 30
0.0
 11
1411.315042386993
 21
2083.063356107788
 31
0.0
  0
LINE
  5
274
330
1F
100
AcDbEntity
  8
0-0_補助線
  6
JWW_HOJO
 62
     7
370
     9
100
AcDbLine
 10
-1380.684957613007
 20
1738.063356107788
 30
0.0
 11
1411.315042386993
 21
1738.063356107788
 31
0.0
  0
LINE
  5
275
330
1F
100
AcDbEntity
  8
0-0_補助線
  6
JWW_HOJO
 62
   120
370
     5
100
AcDbLine
 10
-1380.684957613007
 20
1660.063356107787
 30
0.0
 11
1411.315042386993
 21
1660.063356107787
 31
0.0
  0
LINE
  5
276
330
1F
100
AcDbEntity
  8
0-0_補助線
  6
JWW_HOJO
 62
   120
370
     5
100
AcDbLine
 10
-1380.684957613007
 20
1560.063356107787
 30
0.0
 11
1411.315042386993
 21
1560.063356107787
 31
0.0
  0
CIRCLE
  5
277
330
1F
100
AcDbEntity
  8
0-6_桟木
  6
Continuous
 62
     7
370
     9
100
AcDbCircle
 10
2717.815233786994
 20
-1393.666546383419
 30
0.0
 40
4.0
  0
CIRCLE
  5
278
330
1F
100
AcDbEntity
  8
0-6_桟木
  6
Continuous
 62
     7
370
     9
100
AcDbCircle
 10
2717.815233786994
 20
-1425.666546383419
 30
0.0
 40
4.0
  0
MTEXT
  5
279
330
1F
100
AcDbEntity
  8
0-B_寸法
  6
Continuous
 62
     7
370
   211
100
AcDbMText
 10
2533.56736658792
 20
373.8405113299648
 30
0.0
 40
45.71999999999986
 41
89.99999999999972
 46
0.0
 71
     7
 72
     1
  1
{\fＭＳ ゴシック|b0|i0|c128|p49;P32}
 73
     1
 44
1.0
  0
LWPOLYLINE
  5
27A
330
1F
100
AcDbEntity
  8
0-B_寸法
  6
Continuous
 62
     7
370
     9
100
AcDbPolyline
 90
        4
 70
     1
 43
2.0
 10
2518.315233786995
 20
395.8334536165825
 42
0.4142135623731
 10
2517.315233786995
 20
396.8334536165825
 42
0.4142135623731
 10
2516.315233786996
 20
395.8334536165825
 42
0.4142135623731
 10
2517.315233786995
 20
394.8334536165825
 42
0.4142135623731
  0
LWPOLYLINE
  5
27B
330
1F
100
AcDbEntity
  8
0-B_寸法
  6
Continuous
 62
     7
370
     9
100
AcDbPolyline
 90
        4
 70
     1
 43
2.0
 10
2518.315233786995
 20
427.8334536165812
 42
0.4142135623731
 10
2517.315233786995
 20
428.8334536165812
 42
0.4142135623731
 10
2516.315233786996
 20
427.8334536165812
 42
0.4142135623731
 10
2517.315233786995
 20
426.8334536165812
 42
0.4142135623731
  0
LINE
  5
27C
330
1F
100
AcDbEntity
  8
0-B_寸法
  6
Continuous
 62
   120
370
     5
100
AcDbLine
 10
2517.315233786995
 20
427.8334536165812
 30
0.0
 11
2517.315233786995
 21
395.8334536165825
 31
0.0
  0
LINE
  5
27D
330
1F
100
AcDbEntity
  8
0-B_寸法
  6
Continuous
 62
   120
370
     5
100
AcDbLine
 10
2517.315233786995
 20
395.8334536165825
 30
0.0
 11
2467.315233786995
 21
395.8334536165825
 31
0.0
  0
LINE
  5
27E
330
1F
100
AcDbEntity
  8
0-B_寸法
  6
Continuous
 62
   120
370
     5
100
AcDbLine
 10
2517.315233786995
 20
427.8334536165812
 30
0.0
 11
2467.315233786995
 21
427.8334536165812
 31
0.0
  0
CIRCLE
  5
27F
330
1F
100
AcDbEntity
  8
0-5_ダボ
  6
Continuous
 62
     7
370
     9
100
AcDbCircle
 10
2420.315233786994
 20
-1320.666546383419
 30
0.0
 40
4.0
  0
CIRCLE
  5
280
330
1F
100
AcDbEntity
  8
0-5_ダボ
  6
Continuous
 62
     7
370
     9
100
AcDbCircle
 10
2420.315233786994
 20
-1352.66654638342
 30
0.0
 40
4.0
  0
MTEXT
  5
281
330
1F
100
AcDbEntity
  8
0-B_寸法
  6
Continuous
 62
     7
370
   211
100
AcDbMText
 10
2542.367639069921
 20
-947.5988540757279
 30
0.0
 40
28.13538461538461
 41
240.0
 46
0.0
 71
     7
 72
     1
  1
{\fＭＳ ゴシック|b0|i0|c128|p49;1,222(仕切棚)}
 11
6.123031769111886E-17
 21
1.0
 31
0.0
 73
     1
 44
1.0
  0
LINE
  5
282
330
1F
100
AcDbEntity
  8
0-4_棚
  6
Continuous
 62
    40
370
    15
100
AcDbLine
 10
2435.315233786995
 20
506.333453616582
 30
0.0
 11
2725.315233786994
 21
506.333453616582
 31
0.0
  0
LINE
  5
283
330
1F
100
AcDbEntity
  8
0-4_棚
  6
Continuous
 62
    40
370
    15
100
AcDbLine
 10
2435.315233786995
 20
506.333453616582
 30
0.0
 11
2435.315233786995
 21
494.3334536165816
 31
0.0
  0
LINE
  5
284
330
1F
100
AcDbEntity
  8
0-4_棚
  6
Continuous
 62
    40
370
    15
100
AcDbLine
 10
2435.315233786995
 20
494.3334536165816
 30
0.0
 11
2725.315233786994
 21
494.3334536165816
 31
0.0
  0
LINE
  5
285
330
1F
100
AcDbEntity
  8
0-4_棚
  6
Continuous
 62
    40
370
    15
100
AcDbLine
 10
2435.315233786995
 20
46.3334536165803
 30
0.0
 11
2725.315233786994
 21
46.3334536165803
 31
0.0
  0
LINE
  5
286
330
1F
100
AcDbEntity
  8
0-4_棚
  6
Continuous
 62
    40
370
    15
100
AcDbLine
 10
2435.315233786995
 20
58.33345361658075
 30
0.0
 11
2725.315233786994
 21
58.33345361658075
 31
0.0
  0
LINE
  5
287
330
1F
100
AcDbEntity
  8
0-4_棚
  6
Continuous
 62
    40
370
    15
100
AcDbLine
 10
2435.315233786995
 20
58.33345361658075
 30
0.0
 11
2435.315233786995
 21
46.3334536165803
 31
0.0
  0
LINE
  5
288
330
1F
100
AcDbEntity
  8
0-4_棚
  6
Continuous
 62
    40
370
    15
100
AcDbLine
 10
2435.315233786995
 20
270.3334536165812
 30
0.0
 11
2725.315233786994
 21
270.3334536165812
 31
0.0
  0
LINE
  5
289
330
1F
100
AcDbEntity
  8
0-4_棚
  6
Continuous
 62
    40
370
    15
100
AcDbLine
 10
2435.315233786995
 20
282.33345361658
 30
0.0
 11
2725.315233786994
 21
282.33345361658
 31
0.0
  0
LINE
  5
28A
330
1F
100
AcDbEntity
  8
0-4_棚
  6
Continuous
 62
    40
370
    15
100
AcDbLine
 10
2435.315233786995
 20
282.33345361658
 30
0.0
 11
2435.315233786995
 21
270.3334536165812
 31
0.0
  0
LINE
  5
28B
330
1F
100
AcDbEntity
  8
0-4_棚
  6
Continuous
 62
    40
370
    15
100
AcDbLine
 10
2435.315233786995
 20
-433.6665463834197
 30
0.0
 11
2725.315233786994
 21
-433.6665463834197
 31
0.0
  0
LINE
  5
28C
330
1F
100
AcDbEntity
  8
0-4_棚
  6
Continuous
 62
    40
370
    15
100
AcDbLine
 10
2435.315233786995
 20
-421.666546383421
 30
0.0
 11
2725.315233786994
 21
-421.666546383421
 31
0.0
  0
LINE
  5
28D
330
1F
100
AcDbEntity
  8
0-4_棚
  6
Continuous
 62
    40
370
    15
100
AcDbLine
 10
2435.315233786995
 20
-421.666546383421
 30
0.0
 11
2435.315233786995
 21
-433.6665463834197
 31
0.0
  0
LINE
  5
28E
330
1F
100
AcDbEntity
  8
0-4_棚
  6
Continuous
 62
    40
370
    15
100
AcDbLine
 10
2435.315233786995
 20
-689.6665463834194
 30
0.0
 11
2725.315233786994
 21
-689.6665463834194
 31
0.0
  0
LINE
  5
28F
330
1F
100
AcDbEntity
  8
0-4_棚
  6
Continuous
 62
    40
370
    15
100
AcDbLine
 10
2435.315233786995
 20
-677.6665463834206
 30
0.0
 11
2725.315233786994
 21
-677.6665463834206
 31
0.0
  0
LINE
  5
290
330
1F
100
AcDbEntity
  8
0-4_棚
  6
Continuous
 62
    40
370
    15
100
AcDbLine
 10
2435.315233786995
 20
-677.6665463834206
 30
0.0
 11
2435.315233786995
 21
-689.6665463834194
 31
0.0
  0
LINE
  5
291
330
1F
100
AcDbEntity
  8
0-4_棚
  6
Continuous
 62
    40
370
    15
100
AcDbLine
 10
2435.315233786995
 20
-945.6665463834204
 30
0.0
 11
2725.315233786994
 21
-945.6665463834204
 31
0.0
  0
LINE
  5
292
330
1F
100
AcDbEntity
  8
0-4_棚
  6
Continuous
 62
    40
370
    15
100
AcDbLine
 10
2435.315233786995
 20
-933.6665463834206
 30
0.0
 11
2725.315233786994
 21
-933.6665463834206
 31
0.0
  0
LINE
  5
293
330
1F
100
AcDbEntity
  8
0-4_棚
  6
Continuous
 62
    40
370
    15
100
AcDbLine
 10
2435.315233786995
 20
-933.6665463834206
 30
0.0
 11
2435.315233786995
 21
-945.6665463834204
 31
0.0
  0
LINE
  5
294
330
1F
100
AcDbEntity
  8
0-4_棚
  6
Continuous
 62
    40
370
    15
100
AcDbLine
 10
2435.315233786995
 20
-1189.666546383421
 30
0.0
 11
2435.315233786995
 21
-1201.666546383421
 31
0.0
  0
LINE
  5
295
330
1F
100
AcDbEntity
  8
0-4_棚
  6
Continuous
 62
    40
370
    15
100
AcDbLine
 10
2435.315233786995
 20
-1189.666546383421
 30
0.0
 11
2725.315233786994
 21
-1189.666546383421
 31
0.0
  0
LINE
  5
296
330
1F
100
AcDbEntity
  8
0-4_棚
  6
Continuous
 62
    40
370
    15
100
AcDbLine
 10
2435.315233786995
 20
-1201.666546383421
 30
0.0
 11
2725.315233786994
 21
-1201.666546383421
 31
0.0
  0
LINE
  5
297
330
1F
100
AcDbEntity
  8
0-B_寸法
  6
Continuous
 62
   120
370
     5
100
AcDbLine
 10
2383.315233786996
 20
862.3334536165811
 30
0.0
 11
2383.315233786996
 21
762.3334536165811
 31
0.0
  0
LWPOLYLINE
  5
298
330
1F
100
AcDbEntity
  8
0-B_寸法
  6
Continuous
 62
     7
370
     9
100
AcDbPolyline
 90
        4
 70
     1
 43
2.0
 10
2384.315233786996
 20
862.3334536165811
 42
0.4142135623731
 10
2383.315233786996
 20
863.333453616581
 42
0.4142135623731
 10
2382.315233786996
 20
862.3334536165811
 42
0.4142135623731
 10
2383.315233786996
 20
861.3334536165812
 42
0.4142135623731
  0
LINE
  5
299
330
1F
100
AcDbEntity
  8
0-B_寸法
  6
Continuous
 62
   120
370
     5
100
AcDbLine
 10
2420.315233786994
 20
862.3334536165811
 30
0.0
 11
2383.315233786996
 21
862.3334536165811
 31
0.0
  0
LINE
  5
29A
330
1F
100
AcDbEntity
  8
0-B_寸法
  6
Continuous
 62
   120
370
     5
100
AcDbLine
 10
2420.315233786994
 20
862.3334536165811
 30
0.0
 11
2420.315233786994
 21
762.3334536165811
 31
0.0
  0
LWPOLYLINE
  5
29B
330
1F
100
AcDbEntity
  8
0-B_寸法
  6
Continuous
 62
     7
370
     9
100
AcDbPolyline
 90
        4
 70
     1
 43
2.0
 10
2421.315233786994
 20
862.3334536165811
 42
0.4142135623731
 10
2420.315233786994
 20
863.333453616581
 42
0.4142135623731
 10
2419.315233786994
 20
862.3334536165811
 42
0.4142135623731
 10
2420.315233786994
 20
861.3334536165812
 42
0.4142135623731
  0
LINE
  5
29C
330
1F
100
AcDbEntity
  8
0-B_寸法
  6
Continuous
 62
   120
370
     5
100
AcDbLine
 10
2706.315233786994
 20
862.3334536165811
 30
0.0
 11
2706.315233786994
 21
762.3334536165811
 31
0.0
  0
LINE
  5
29D
330
1F
100
AcDbEntity
  8
0-B_寸法
  6
Continuous
 62
   120
370
     5
100
AcDbLine
 10
2728.315233786993
 20
862.3334536165811
 30
0.0
 11
2728.315233786993
 21
762.3334536165811
 31
0.0
  0
LWPOLYLINE
  5
29E
330
1F
100
AcDbEntity
  8
0-B_寸法
  6
Continuous
 62
     7
370
     9
100
AcDbPolyline
 90
        4
 70
     1
 43
2.0
 10
2707.315233786994
 20
862.3334536165811
 42
0.4142135623731
 10
2706.315233786994
 20
863.333453616581
 42
0.4142135623731
 10
2705.315233786994
 20
862.3334536165811
 42
0.4142135623731
 10
2706.315233786994
 20
861.3334536165812
 42
0.4142135623731
  0
LWPOLYLINE
  5
29F
330
1F
100
AcDbEntity
  8
0-B_寸法
  6
Continuous
 62
     7
370
     9
100
AcDbPolyline
 90
        4
 70
     1
 43
2.0
 10
2729.315233786993
 20
862.3334536165811
 42
0.4142135623731
 10
2728.315233786993
 20
863.333453616581
 42
0.4142135623731
 10
2727.315233786993
 20
862.3334536165811
 42
0.4142135623731
 10
2728.315233786993
 20
861.3334536165812
 42
0.4142135623731
  0
LINE
  5
2A0
330
1F
100
AcDbEntity
  8
0-B_寸法
  6
Continuous
 62
   120
370
     5
100
AcDbLine
 10
2728.315233786993
 20
862.3334536165811
 30
0.0
 11
2706.315233786994
 21
862.3334536165811
 31
0.0
  0
LINE
  5
2A1
330
1F
100
AcDbEntity
  8
0-6_桟木
  6
Continuous
 62
    92
370
    13
100
AcDbLine
 10
2725.315233786994
 20
-1441.666546383419
 30
0.0
 11
2725.315233786994
 21
-1377.66654638342
 31
0.0
  0
CIRCLE
  5
2A2
330
1F
100
AcDbEntity
  8
0-5_ダボ
  6
Continuous
 62
     7
370
     9
100
AcDbCircle
 10
2706.315233786994
 20
43.8334536165803
 30
0.0
 40
2.5
  0
CIRCLE
  5
2A3
330
1F
100
AcDbEntity
  8
0-5_ダボ
  6
Continuous
 62
     7
370
     9
100
AcDbCircle
 10
2706.315233786994
 20
11.83345361657985
 30
0.0
 40
2.5
  0
CIRCLE
  5
2A4
330
1F
100
AcDbEntity
  8
0-5_ダボ
  6
Continuous
 62
     7
370
     9
100
AcDbCircle
 10
2706.315233786994
 20
267.8334536165806
 30
0.0
 40
2.5
  0
CIRCLE
  5
2A5
330
1F
100
AcDbEntity
  8
0-5_ダボ
  6
Continuous
 62
     7
370
     9
100
AcDbCircle
 10
2706.315233786994
 20
299.83345361658
 30
0.0
 40
2.5
  0
LINE
  5
2A6
330
1F
100
AcDbEntity
  8
0-B_寸法
  6
Continuous
 62
     7
370
     9
100
AcDbLine
 10
2552.367639069921
 20
-219.6665463834165
 30
0.0
 11
2536.838496363769
 21
-277.6220959607605
 31
0.0
  0
LINE
  5
2A7
330
1F
100
AcDbEntity
  8
0-B_寸法
  6
Continuous
 62
     7
370
     9
100
AcDbLine
 10
2552.367639069921
 20
-219.6665463834165
 30
0.0
 11
2567.896781776072
 21
-277.6220959607605
 31
0.0
  0
LINE
  5
2A8
330
1F
100
AcDbEntity
  8
0-B_寸法
  6
Continuous
 62
   120
370
     5
100
AcDbLine
 10
2552.367639069921
 20
-219.6665463834165
 30
0.0
 11
2552.367639069921
 21
-1441.666546383419
 31
0.0
  0
MTEXT
  5
2A9
330
1F
100
AcDbEntity
  8
0-A_文字
  6
Continuous
 62
     7
370
     9
100
AcDbMText
 10
2502.491098857618
 20
-165.9601628073335
 30
0.0
 40
45.72
 41
180.0
 46
0.0
 71
     7
 72
     1
  1
{\fＭＳ ゴシック|b0|i0|c128|p49;固定棚}
 73
     1
 44
1.0
  0
LINE
  5
2AA
330
1F
100
AcDbEntity
  8
0-A_文字
  6
Continuous
 62
     7
370
     9
100
AcDbLine
 10
2489.352138871213
 20
-160.9502042038417
 30
0.0
 11
2683.325510640448
 21
-160.9502042038417
 31
0.0
  0
LINE
  5
2AB
330
1F
100
AcDbEntity
  8
0-A_文字
  6
Continuous
 62
     7
370
     9
100
AcDbLine
 10
2465.000539076172
 20
-203.1284122944362
 30
0.0
 11
2489.352138871213
 21
-160.9502042038417
 31
0.0
  0
LINE
  5
2AC
330
1F
100
AcDbEntity
  8
0-B_寸法
  6
Continuous
 62
     7
370
     9
100
AcDbLine
 10
2719.073884649038
 20
-212.1665463834194
 30
0.0
 11
2735.842379212376
 21
-212.1665463834194
 31
0.0
  0
LINE
  5
2AD
330
1F
100
AcDbEntity
  8
0-C_ハッチ
  6
Continuous
 62
   120
370
     5
100
AcDbLine
 10
2390.315233786994
 20
-207.8927055435139
 30
0.0
 11
2393.541392947089
 21
-204.6665463834194
 31
0.0
  0
LINE
  5
2AE
330
1F
100
AcDbEntity
  8
0-C_ハッチ
  6
Continuous
 62
   120
370
     5
100
AcDbLine
 10
2392.683528570818
 20
-219.6665463834228
 30
0.0
 11
2407.683528570822
 21
-204.6665463834211
 31
0.0
  0
LINE
  5
2AF
330
1F
100
AcDbEntity
  8
0-C_ハッチ
  6
Continuous
 62
   120
370
     5
100
AcDbLine
 10
2406.825664194552
 20
-219.6665463834233
 30
0.0
 11
2421.825664194552
 21
-204.6665463834216
 31
0.0
  0
LINE
  5
2B0
330
1F
100
AcDbEntity
  8
0-C_ハッチ
  6
Continuous
 62
   120
370
     5
100
AcDbLine
 10
2420.967799818282
 20
-219.6665463834239
 30
0.0
 11
2435.967799818285
 21
-204.6665463834233
 31
0.0
  0
LINE
  5
2B1
330
1F
100
AcDbEntity
  8
0-C_ハッチ
  6
Continuous
 62
   120
370
     5
100
AcDbLine
 10
2435.109935442016
 20
-219.6665463834256
 30
0.0
 11
2450.109935442016
 21
-204.6665463834239
 31
0.0
  0
LINE
  5
2B2
330
1F
100
AcDbEntity
  8
0-C_ハッチ
  6
Continuous
 62
   120
370
     5
100
AcDbLine
 10
2449.252071065747
 20
-219.6665463834262
 30
0.0
 11
2464.252071065749
 21
-204.6665463834256
 31
0.0
  0
LINE
  5
2B3
330
1F
100
AcDbEntity
  8
0-C_ハッチ
  6
Continuous
 62
   120
370
     5
100
AcDbLine
 10
2463.394206689449
 20
-219.6665463834228
 30
0.0
 11
2478.39420668945
 21
-204.6665463834216
 31
0.0
  0
LINE
  5
2B4
330
1F
100
AcDbEntity
  8
0-C_ハッチ
  6
Continuous
 62
   120
370
     5
100
AcDbLine
 10
2477.536342313195
 20
-219.6665463834103
 30
0.0
 11
2492.536342313186
 21
-204.6665463834194
 31
0.0
  0
LINE
  5
2B5
330
1F
100
AcDbEntity
  8
0-C_ハッチ
  6
Continuous
 62
   120
370
     5
100
AcDbLine
 10
2491.678477936928
 20
-219.666546383412
 30
0.0
 11
2506.678477936916
 21
-204.6665463834216
 31
0.0
  0
LINE
  5
2B6
330
1F
100
AcDbEntity
  8
0-C_ハッチ
  6
Continuous
 62
   120
370
     5
100
AcDbLine
 10
2505.820613560659
 20
-219.6665463834125
 30
0.0
 11
2520.820613560662
 21
-204.666546383412
 31
0.0
  0
LINE
  5
2B7
330
1F
100
AcDbEntity
  8
0-C_ハッチ
  6
Continuous
 62
   120
370
     5
100
AcDbLine
 10
2519.962749184392
 20
-219.6665463834142
 30
0.0
 11
2534.962749184392
 21
-204.6665463834125
 31
0.0
  0
LINE
  5
2B8
330
1F
100
AcDbEntity
  8
0-C_ハッチ
  6
Continuous
 62
   120
370
     5
100
AcDbLine
 10
2534.104884808122
 20
-219.6665463834148
 30
0.0
 11
2549.104884808125
 21
-204.6665463834142
 31
0.0
  0
LINE
  5
2B9
330
1F
100
AcDbEntity
  8
0-C_ハッチ
  6
Continuous
 62
   120
370
     5
100
AcDbLine
 10
2548.247020431855
 20
-219.6665463834165
 30
0.0
 11
2563.247020431855
 21
-204.6665463834148
 31
0.0
  0
LINE
  5
2BA
330
1F
100
AcDbEntity
  8
0-C_ハッチ
  6
Continuous
 62
   120
370
     5
100
AcDbLine
 10
2562.389156055587
 20
-219.6665463834171
 30
0.0
 11
2577.389156055589
 21
-204.6665463834165
 31
0.0
  0
LINE
  5
2BB
330
1F
100
AcDbEntity
  8
0-C_ハッチ
  6
Continuous
 62
   120
370
     5
100
AcDbLine
 10
2576.53129167932
 20
-219.6665463834188
 30
0.0
 11
2591.53129167932
 21
-204.6665463834171
 31
0.0
  0
LINE
  5
2BC
330
1F
100
AcDbEntity
  8
0-C_ハッチ
  6
Continuous
 62
   120
370
     5
100
AcDbLine
 10
2590.673427303052
 20
-219.6665463834194
 30
0.0
 11
2605.673427303053
 21
-204.6665463834188
 31
0.0
  0
LINE
  5
2BD
330
1F
100
AcDbEntity
  8
0-C_ハッチ
  6
Continuous
 62
   120
370
     5
100
AcDbLine
 10
2604.815562926783
 20
-219.6665463834211
 30
0.0
 11
2619.815562926783
 21
-204.6665463834194
 31
0.0
  0
LINE
  5
2BE
330
1F
100
AcDbEntity
  8
0-C_ハッチ
  6
Continuous
 62
   120
370
     5
100
AcDbLine
 10
2618.957698550515
 20
-219.6665463834216
 30
0.0
 11
2633.957698550516
 21
-204.6665463834211
 31
0.0
  0
LINE
  5
2BF
330
1F
100
AcDbEntity
  8
0-C_ハッチ
  6
Continuous
 62
   120
370
     5
100
AcDbLine
 10
2633.099834174249
 20
-219.6665463834233
 30
0.0
 11
2648.099834174249
 21
-204.6665463834216
 31
0.0
  0
LINE
  5
2C0
330
1F
100
AcDbEntity
  8
0-C_ハッチ
  6
Continuous
 62
   120
370
     5
100
AcDbLine
 10
2647.241969797979
 20
-219.6665463834239
 30
0.0
 11
2662.241969797982
 21
-204.6665463834233
 31
0.0
  0
LINE
  5
2C1
330
1F
100
AcDbEntity
  8
0-C_ハッチ
  6
Continuous
 62
   120
370
     5
100
AcDbLine
 10
2661.384105421713
 20
-219.6665463834256
 30
0.0
 11
2676.384105421713
 21
-204.6665463834239
 31
0.0
  0
LINE
  5
2C2
330
1F
100
AcDbEntity
  8
0-C_ハッチ
  6
Continuous
 62
   120
370
     5
100
AcDbLine
 10
2675.526241045407
 20
-219.6665463834285
 30
0.0
 11
2690.526241045407
 21
-204.6665463834273
 31
0.0
  0
LINE
  5
2C3
330
1F
100
AcDbEntity
  8
0-C_ハッチ
  6
Continuous
 62
   120
370
     5
100
AcDbLine
 10
2689.668376669159
 20
-219.6665463834097
 30
0.0
 11
2704.668376669149
 21
-204.6665463834194
 31
0.0
  0
LINE
  5
2C4
330
1F
100
AcDbEntity
  8
0-C_ハッチ
  6
Continuous
 62
   120
370
     5
100
AcDbLine
 10
2703.810512292889
 20
-219.6665463834103
 30
0.0
 11
2718.81051229288
 21
-204.6665463834194
 31
0.0
  0
LINE
  5
2C5
330
1F
100
AcDbEntity
  8
0-C_ハッチ
  6
Continuous
 62
   120
370
     5
100
AcDbLine
 10
2717.952647916622
 20
-219.666546383412
 30
0.0
 11
2725.315233786985
 21
-212.3039605130498
 31
0.0
  0
LINE
  5
2C6
330
1F
100
AcDbEntity
  8
0-4_棚
  6
Continuous
 62
    40
370
    15
100
AcDbLine
 10
2390.315233786995
 20
-219.6665463834194
 30
0.0
 11
2725.315233786994
 21
-219.6665463834194
 31
0.0
  0
LINE
  5
2C7
330
1F
100
AcDbEntity
  8
0-4_棚
  6
Continuous
 62
    40
370
    15
100
AcDbLine
 10
2390.315233786995
 20
-204.6665463834194
 30
0.0
 11
2725.315233786994
 21
-204.6665463834194
 31
0.0
  0
LINE
  5
2C8
330
1F
100
AcDbEntity
  8
0-4_棚
  6
Continuous
 62
    40
370
    15
100
AcDbLine
 10
2390.315233786995
 20
-204.6665463834194
 30
0.0
 11
2390.315233786995
 21
-219.6665463834194
 31
0.0
  0
CIRCLE
  5
2C9
330
1F
100
AcDbEntity
  8
0-5_ダボ
  6
Continuous
 62
     7
370
     9
100
AcDbCircle
 10
2420.315233786994
 20
-356.6154406332953
 30
0.0
 40
4.0
  0
CIRCLE
  5
2CA
330
1F
100
AcDbEntity
  8
0-5_ダボ
  6
Continuous
 62
     7
370
     9
100
AcDbCircle
 10
2420.315233786994
 20
-388.6154406332957
 30
0.0
 40
4.0
  0
CIRCLE
  5
2CB
330
1F
100
AcDbEntity
  8
0-5_ダボ
  6
Continuous
 62
     7
370
     9
100
AcDbCircle
 10
2420.315233786994
 20
576.3334536165826
 30
0.0
 40
2.5
  0
LINE
  5
2CC
330
1F
100
AcDbEntity
  8
0-B_寸法
  6
JWW_HOJO
 62
     7
370
     9
100
AcDbLine
 10
2706.315233786994
 20
704.3334536165816
 30
0.0
 11
2706.315233786994
 21
-1448.666546383421
 31
0.0
  0
LINE
  5
2CD
330
1F
100
AcDbEntity
  8
0-6_桟木
  6
Continuous
 62
    92
370
    13
100
AcDbLine
 10
2725.315233786994
 20
633.3334536165808
 30
0.0
 11
2725.315233786994
 21
697.3334536165817
 31
0.0
  0
LINE
  5
2CE
330
1F
100
AcDbEntity
  8
0-1_本体
  6
Continuous
 62
    40
370
    15
100
AcDbLine
 10
2383.315233786996
 20
697.3334536165817
 30
0.0
 11
2725.315233786994
 21
697.3334536165817
 31
0.0
  0
LINE
  5
2CF
330
1F
100
AcDbEntity
  8
0-1_本体
  6
Continuous
 62
    40
370
    15
100
AcDbLine
 10
2725.315233786994
 20
704.3334536165816
 30
0.0
 11
2728.315233786993
 21
704.3334536165816
 31
0.0
  0
LINE
  5
2D0
330
1F
100
AcDbEntity
  8
0-1_本体
  6
Continuous
 62
    40
370
    15
100
AcDbLine
 10
2727.315233786993
 20
704.3334536165816
 30
0.0
 11
2727.315233786993
 21
-1448.666546383421
 31
0.0
  0
LINE
  5
2D1
330
1F
100
AcDbEntity
  8
0-1_本体
  6
Continuous
 62
    40
370
    15
100
AcDbLine
 10
2725.315233786994
 20
704.3334536165816
 30
0.0
 11
2725.315233786994
 21
-1448.666546383421
 31
0.0
  0
LINE
  5
2D2
330
1F
100
AcDbEntity
  8
0-1_本体
  6
Continuous
 62
    40
370
    15
100
AcDbLine
 10
2383.315233786996
 20
712.3334536165817
 30
0.0
 11
2383.315233786996
 21
697.3334536165817
 31
0.0
  0
LINE
  5
2D3
330
1F
100
AcDbEntity
  8
0-1_本体
  6
Continuous
 62
    40
370
    15
100
AcDbLine
 10
2728.315233786993
 20
712.3334536165817
 30
0.0
 11
2383.315233786996
 21
712.3334536165817
 31
0.0
  0
CIRCLE
  5
2D4
330
1F
100
AcDbEntity
  8
0-5_ダボ
  6
Continuous
 62
     7
370
     9
100
AcDbCircle
 10
2420.315233786994
 20
608.3334536165808
 30
0.0
 40
2.5
  0
LINE
  5
2D5
330
1F
100
AcDbEntity
  8
0-B_寸法
  6
Continuous
 62
     7
370
     9
100
AcDbLine
 10
2552.367639069921
 20
-1441.666546383419
 30
0.0
 11
2536.838496363769
 21
-1383.710996806076
 31
0.0
  0
LINE
  5
2D6
330
1F
100
AcDbEntity
  8
0-B_寸法
  6
Continuous
 62
     7
370
     9
100
AcDbLine
 10
2552.367639069921
 20
-1441.666546383419
 30
0.0
 11
2567.896781776072
 21
-1383.710996806076
 31
0.0
  0
CIRCLE
  5
2D7
330
1F
100
AcDbEntity
  8
0-5_ダボ
  6
Continuous
 62
     7
370
     9
100
AcDbCircle
 10
2706.315233786994
 20
-1204.166546383421
 30
0.0
 40
2.5
  0
CIRCLE
  5
2D8
330
1F
100
AcDbEntity
  8
0-5_ダボ
  6
Continuous
 62
     7
370
     9
100
AcDbCircle
 10
2706.315233786994
 20
-1172.166546383421
 30
0.0
 40
2.5
  0
CIRCLE
  5
2D9
330
1F
100
AcDbEntity
  8
0-5_ダボ
  6
Continuous
 62
     7
370
     9
100
AcDbCircle
 10
2706.315233786994
 20
-1140.166546383421
 30
0.0
 40
2.5
  0
CIRCLE
  5
2DA
330
1F
100
AcDbEntity
  8
0-5_ダボ
  6
Continuous
 62
     7
370
     9
100
AcDbCircle
 10
2706.315233786994
 20
-1108.16654638342
 30
0.0
 40
2.5
  0
CIRCLE
  5
2DB
330
1F
100
AcDbEntity
  8
0-5_ダボ
  6
Continuous
 62
     7
370
     9
100
AcDbCircle
 10
2706.315233786994
 20
-1076.16654638342
 30
0.0
 40
2.5
  0
CIRCLE
  5
2DC
330
1F
100
AcDbEntity
  8
0-5_ダボ
  6
Continuous
 62
     7
370
     9
100
AcDbCircle
 10
2706.315233786994
 20
-1044.166546383419
 30
0.0
 40
2.5
  0
CIRCLE
  5
2DD
330
1F
100
AcDbEntity
  8
0-5_ダボ
  6
Continuous
 62
     7
370
     9
100
AcDbCircle
 10
2706.315233786994
 20
-1012.166546383421
 30
0.0
 40
2.5
  0
CIRCLE
  5
2DE
330
1F
100
AcDbEntity
  8
0-5_ダボ
  6
Continuous
 62
     7
370
     9
100
AcDbCircle
 10
2706.315233786994
 20
-980.1665463834206
 30
0.0
 40
2.5
  0
CIRCLE
  5
2DF
330
1F
100
AcDbEntity
  8
0-5_ダボ
  6
Continuous
 62
     7
370
     9
100
AcDbCircle
 10
2706.315233786994
 20
-948.1665463834204
 30
0.0
 40
2.5
  0
CIRCLE
  5
2E0
330
1F
100
AcDbEntity
  8
0-5_ダボ
  6
Continuous
 62
     7
370
     9
100
AcDbCircle
 10
2706.315233786994
 20
-916.1665463834199
 30
0.0
 40
2.5
  0
CIRCLE
  5
2E1
330
1F
100
AcDbEntity
  8
0-5_ダボ
  6
Continuous
 62
     7
370
     9
100
AcDbCircle
 10
2706.315233786994
 20
-884.1665463834195
 30
0.0
 40
2.5
  0
CIRCLE
  5
2E2
330
1F
100
AcDbEntity
  8
0-5_ダボ
  6
Continuous
 62
     7
370
     9
100
AcDbCircle
 10
2706.315233786994
 20
-852.1665463834194
 30
0.0
 40
2.5
  0
CIRCLE
  5
2E3
330
1F
100
AcDbEntity
  8
0-5_ダボ
  6
Continuous
 62
     7
370
     9
100
AcDbCircle
 10
2706.315233786994
 20
-820.1665463834206
 30
0.0
 40
2.5
  0
CIRCLE
  5
2E4
330
1F
100
AcDbEntity
  8
0-5_ダボ
  6
Continuous
 62
     7
370
     9
100
AcDbCircle
 10
2706.315233786994
 20
-788.1665463834204
 30
0.0
 40
2.5
  0
CIRCLE
  5
2E5
330
1F
100
AcDbEntity
  8
0-5_ダボ
  6
Continuous
 62
     7
370
     9
100
AcDbCircle
 10
2706.315233786994
 20
-756.1665463834199
 30
0.0
 40
2.5
  0
CIRCLE
  5
2E6
330
1F
100
AcDbEntity
  8
0-5_ダボ
  6
Continuous
 62
     7
370
     9
100
AcDbCircle
 10
2706.315233786994
 20
-724.1665463834195
 30
0.0
 40
2.5
  0
CIRCLE
  5
2E7
330
1F
100
AcDbEntity
  8
0-5_ダボ
  6
Continuous
 62
     7
370
     9
100
AcDbCircle
 10
2706.315233786994
 20
-692.1665463834194
 30
0.0
 40
2.5
  0
CIRCLE
  5
2E8
330
1F
100
AcDbEntity
  8
0-5_ダボ
  6
Continuous
 62
     7
370
     9
100
AcDbCircle
 10
2706.315233786994
 20
-660.16654638342
 30
0.0
 40
2.5
  0
CIRCLE
  5
2E9
330
1F
100
AcDbEntity
  8
0-5_ダボ
  6
Continuous
 62
     7
370
     9
100
AcDbCircle
 10
2706.315233786994
 20
-628.1665463834202
 30
0.0
 40
2.5
  0
CIRCLE
  5
2EA
330
1F
100
AcDbEntity
  8
0-5_ダボ
  6
Continuous
 62
     7
370
     9
100
AcDbCircle
 10
2706.315233786994
 20
-596.1665463834197
 30
0.0
 40
2.5
  0
CIRCLE
  5
2EB
330
1F
100
AcDbEntity
  8
0-5_ダボ
  6
Continuous
 62
     7
370
     9
100
AcDbCircle
 10
2706.315233786994
 20
-564.1665463834192
 30
0.0
 40
2.5
  0
CIRCLE
  5
2EC
330
1F
100
AcDbEntity
  8
0-5_ダボ
  6
Continuous
 62
     7
370
     9
100
AcDbCircle
 10
2706.315233786994
 20
-532.1665463834188
 30
0.0
 40
2.5
  0
CIRCLE
  5
2ED
330
1F
100
AcDbEntity
  8
0-5_ダボ
  6
Continuous
 62
     7
370
     9
100
AcDbCircle
 10
2706.315233786994
 20
-500.16654638342
 30
0.0
 40
2.5
  0
CIRCLE
  5
2EE
330
1F
100
AcDbEntity
  8
0-5_ダボ
  6
Continuous
 62
     7
370
     9
100
AcDbCircle
 10
2706.315233786994
 20
-468.1665463834202
 30
0.0
 40
2.5
  0
CIRCLE
  5
2EF
330
1F
100
AcDbEntity
  8
0-5_ダボ
  6
Continuous
 62
     7
370
     9
100
AcDbCircle
 10
2706.315233786994
 20
-436.1665463834197
 30
0.0
 40
2.5
  0
CIRCLE
  5
2F0
330
1F
100
AcDbEntity
  8
0-5_ダボ
  6
Continuous
 62
     7
370
     9
100
AcDbCircle
 10
2706.315233786994
 20
-404.1665463834198
 30
0.0
 40
2.5
  0
CIRCLE
  5
2F1
330
1F
100
AcDbEntity
  8
0-5_ダボ
  6
Continuous
 62
     7
370
     9
100
AcDbCircle
 10
2706.315233786994
 20
-372.1665463834194
 30
0.0
 40
2.5
  0
CIRCLE
  5
2F2
330
1F
100
AcDbEntity
  8
0-5_ダボ
  6
Continuous
 62
     7
370
     9
100
AcDbCircle
 10
2706.315233786994
 20
-340.16654638342
 30
0.0
 40
2.5
  0
CIRCLE
  5
2F3
330
1F
100
AcDbEntity
  8
0-5_ダボ
  6
Continuous
 62
     7
370
     9
100
AcDbCircle
 10
2706.315233786994
 20
-308.1665463834202
 30
0.0
 40
2.5
  0
CIRCLE
  5
2F4
330
1F
100
AcDbEntity
  8
0-5_ダボ
  6
Continuous
 62
     7
370
     9
100
AcDbCircle
 10
2706.315233786994
 20
-276.1665463834203
 30
0.0
 40
2.5
  0
CIRCLE
  5
2F5
330
1F
100
AcDbEntity
  8
0-5_ダボ
  6
Continuous
 62
     7
370
     9
100
AcDbCircle
 10
2706.315233786994
 20
-244.1665463834198
 30
0.0
 40
2.5
  0
CIRCLE
  5
2F6
330
1F
100
AcDbEntity
  8
0-5_ダボ
  6
Continuous
 62
     7
370
     9
100
AcDbCircle
 10
2706.315233786994
 20
-212.1665463834194
 30
0.0
 40
2.5
  0
CIRCLE
  5
2F7
330
1F
100
AcDbEntity
  8
0-5_ダボ
  6
Continuous
 62
     7
370
     9
100
AcDbCircle
 10
2706.315233786994
 20
-180.1665463834189
 30
0.0
 40
2.5
  0
CIRCLE
  5
2F8
330
1F
100
AcDbEntity
  8
0-5_ダボ
  6
Continuous
 62
     7
370
     9
100
AcDbCircle
 10
2706.315233786994
 20
-148.1665463834202
 30
0.0
 40
2.5
  0
CIRCLE
  5
2F9
330
1F
100
AcDbEntity
  8
0-5_ダボ
  6
Continuous
 62
     7
370
     9
100
AcDbCircle
 10
2706.315233786994
 20
-116.1665463834197
 30
0.0
 40
2.5
  0
CIRCLE
  5
2FA
330
1F
100
AcDbEntity
  8
0-5_ダボ
  6
Continuous
 62
     7
370
     9
100
AcDbCircle
 10
2706.315233786994
 20
-84.16654638341981
 30
0.0
 40
2.5
  0
CIRCLE
  5
2FB
330
1F
100
AcDbEntity
  8
0-5_ダボ
  6
Continuous
 62
     7
370
     9
100
AcDbCircle
 10
2706.315233786994
 20
-52.16654638341936
 30
0.0
 40
2.5
  0
CIRCLE
  5
2FC
330
1F
100
AcDbEntity
  8
0-5_ダボ
  6
Continuous
 62
     7
370
     9
100
AcDbCircle
 10
2706.315233786994
 20
-20.1665463834189
 30
0.0
 40
2.5
  0
CIRCLE
  5
2FD
330
1F
100
AcDbEntity
  8
0-5_ダボ
  6
Continuous
 62
     7
370
     9
100
AcDbCircle
 10
2706.315233786994
 20
107.8334536165812
 30
0.0
 40
2.5
  0
CIRCLE
  5
2FE
330
1F
100
AcDbEntity
  8
0-5_ダボ
  6
Continuous
 62
     7
370
     9
100
AcDbCircle
 10
2706.315233786994
 20
139.83345361658
 30
0.0
 40
2.5
  0
CIRCLE
  5
2FF
330
1F
100
AcDbEntity
  8
0-5_ダボ
  6
Continuous
 62
     7
370
     9
100
AcDbCircle
 10
2706.315233786994
 20
171.833453616581
 30
0.0
 40
2.5
  0
CIRCLE
  5
300
330
1F
100
AcDbEntity
  8
0-5_ダボ
  6
Continuous
 62
     7
370
     9
100
AcDbCircle
 10
2706.315233786994
 20
203.8334536165803
 30
0.0
 40
2.5
  0
CIRCLE
  5
301
330
1F
100
AcDbEntity
  8
0-5_ダボ
  6
Continuous
 62
     7
370
     9
100
AcDbCircle
 10
2706.315233786994
 20
235.8334536165808
 30
0.0
 40
2.5
  0
CIRCLE
  5
302
330
1F
100
AcDbEntity
  8
0-5_ダボ
  6
Continuous
 62
     7
370
     9
100
AcDbCircle
 10
2706.315233786994
 20
-1300.166546383421
 30
0.0
 40
2.5
  0
CIRCLE
  5
303
330
1F
100
AcDbEntity
  8
0-5_ダボ
  6
Continuous
 62
     7
370
     9
100
AcDbCircle
 10
2706.315233786994
 20
-1268.16654638342
 30
0.0
 40
2.5
  0
CIRCLE
  5
304
330
1F
100
AcDbEntity
  8
0-5_ダボ
  6
Continuous
 62
     7
370
     9
100
AcDbCircle
 10
2706.315233786994
 20
-1236.166546383421
 30
0.0
 40
2.5
  0
CIRCLE
  5
305
330
1F
100
AcDbEntity
  8
0-5_ダボ
  6
Continuous
 62
     7
370
     9
100
AcDbCircle
 10
2706.315233786994
 20
331.8334536165816
 30
0.0
 40
2.5
  0
CIRCLE
  5
306
330
1F
100
AcDbEntity
  8
0-5_ダボ
  6
Continuous
 62
     7
370
     9
100
AcDbCircle
 10
2706.315233786994
 20
363.8334536165803
 30
0.0
 40
2.5
  0
CIRCLE
  5
307
330
1F
100
AcDbEntity
  8
0-5_ダボ
  6
Continuous
 62
     7
370
     9
100
AcDbCircle
 10
2706.315233786994
 20
395.8334536165808
 30
0.0
 40
2.5
  0
CIRCLE
  5
308
330
1F
100
AcDbEntity
  8
0-5_ダボ
  6
Continuous
 62
     7
370
     9
100
AcDbCircle
 10
2706.315233786994
 20
427.8334536165812
 30
0.0
 40
2.5
  0
CIRCLE
  5
309
330
1F
100
AcDbEntity
  8
0-5_ダボ
  6
Continuous
 62
     7
370
     9
100
AcDbCircle
 10
2706.315233786994
 20
459.8334536165811
 30
0.0
 40
2.5
  0
CIRCLE
  5
30A
330
1F
100
AcDbEntity
  8
0-5_ダボ
  6
Continuous
 62
     7
370
     9
100
AcDbCircle
 10
2706.315233786994
 20
491.8334536165816
 30
0.0
 40
2.5
  0
CIRCLE
  5
30B
330
1F
100
AcDbEntity
  8
0-5_ダボ
  6
Continuous
 62
     7
370
     9
100
AcDbCircle
 10
2706.315233786994
 20
523.8334536165803
 30
0.0
 40
2.5
  0
CIRCLE
  5
30C
330
1F
100
AcDbEntity
  8
0-5_ダボ
  6
Continuous
 62
     7
370
     9
100
AcDbCircle
 10
2706.315233786994
 20
555.8334536165808
 30
0.0
 40
2.5
  0
LINE
  5
30D
330
1F
100
AcDbEntity
  8
0-1_本体
  6
Continuous
 62
    40
370
    15
100
AcDbLine
 10
2383.315233786996
 20
-1441.666546383419
 30
0.0
 11
2383.315233786996
 21
-1456.666546383419
 31
0.0
  0
LINE
  5
30E
330
1F
100
AcDbEntity
  8
0-1_本体
  6
Continuous
 62
    40
370
    15
100
AcDbLine
 10
2383.315233786996
 20
-1441.666546383419
 30
0.0
 11
2725.315233786994
 21
-1441.666546383419
 31
0.0
  0
LINE
  5
30F
330
1F
100
AcDbEntity
  8
0-1_本体
  6
Continuous
 62
    40
370
    15
100
AcDbLine
 10
2725.315233786994
 20
-1448.666546383421
 30
0.0
 11
2728.315233786993
 21
-1448.666546383421
 31
0.0
  0
LINE
  5
310
330
1F
100
AcDbEntity
  8
0-1_本体
  6
Continuous
 62
    40
370
    15
100
AcDbLine
 10
2728.315233786993
 20
-1456.666546383419
 30
0.0
 11
2383.315233786996
 21
-1456.666546383419
 31
0.0
  0
CIRCLE
  5
311
330
1F
100
AcDbEntity
  8
0-5_ダボ
  6
Continuous
 62
     7
370
     9
100
AcDbCircle
 10
2706.315233786994
 20
75.83345361658019
 30
0.0
 40
2.5
  0
LINE
  5
312
330
1F
100
AcDbEntity
  8
0-1_本体
  6
Continuous
 62
     7
370
     9
100
AcDbLine
 10
2728.315233786993
 20
-1456.666546383421
 30
0.0
 11
2728.315233786993
 21
712.3334536165817
 31
0.0
  0
LINE
  5
313
330
1F
100
AcDbEntity
  8
0-1_本体
  6
Continuous
 62
    40
370
    15
100
AcDbLine
 10
2728.315233786993
 20
704.3334536165816
 30
0.0
 11
2728.315233786993
 21
712.3334536165817
 31
0.0
  0
LINE
  5
314
330
1F
100
AcDbEntity
  8
0-1_本体
  6
Continuous
 62
    40
370
    15
100
AcDbLine
 10
2728.315233786993
 20
-1448.666546383421
 30
0.0
 11
2728.315233786993
 21
-1456.666546383419
 31
0.0
  0
MTEXT
  5
315
330
1F
100
AcDbEntity
  8
0-A_文字
  6
Continuous
 62
     7
370
     9
100
AcDbMText
 10
2822.051871095308
 20
845.4020911167655
 30
0.0
 40
45.71999999999497
 41
329.9999999999636
 46
0.0
 71
     7
 72
     1
  1
{\fＭＳ ゴシック|b0|i0|c128|p49;30×105程度}
 73
     1
 44
1.0
  0
MTEXT
  5
316
330
1F
100
AcDbEntity
  8
0-A_文字
  6
Continuous
 62
     7
370
     9
100
AcDbMText
 10
2822.051871095292
 20
919.9445204012943
 30
0.0
 40
45.72
 41
240.0
 46
0.0
 71
     7
 72
     1
  1
{\fＭＳ ゴシック|b0|i0|c128|p49;下地位置}
 73
     1
 44
1.0
  0
LINE
  5
317
330
1F
100
AcDbEntity
  8
0-A_文字
  6
Continuous
 62
     7
370
     9
100
AcDbLine
 10
2741.790205870285
 20
690.8692182069058
 30
0.0
 11
2818.823299924711
 21
824.2944509734042
 31
0.0
  0
LINE
  5
318
330
1F
100
AcDbEntity
  8
0-A_文字
  6
Continuous
 62
     7
370
     9
100
AcDbLine
 10
2818.823299924711
 20
824.2944509734042
 30
0.0
 11
3111.842960021158
 21
824.2944509734042
 31
0.0
  0
MTEXT
  5
319
330
1F
100
AcDbEntity
  8
0-A_文字
  6
Continuous
 62
     7
370
     9
100
AcDbMText
 10
2822.051871095292
 20
996.5575727215008
 30
0.0
 40
45.72
 41
180.0
 46
0.0
 71
     7
 72
     1
  1
{\fＭＳ ゴシック|b0|i0|c128|p49;補強材}
 73
     1
 44
1.0
  0
MTEXT
  5
31A
330
1F
100
AcDbEntity
  8
0-B_寸法
  6
Continuous
 62
     7
370
   211
100
AcDbMText
 10
2389.664909036318
 20
865.1934536165811
 30
0.0
 40
45.72
 41
60.0
 46
0.0
 71
     7
 72
     1
  1
{\fＭＳ ゴシック|b0|i0|c128|p49;37}
 73
     1
 44
1.0
  0
MTEXT
  5
31B
330
1F
100
AcDbEntity
  8
0-B_寸法
  6
Continuous
 62
     7
370
   211
100
AcDbMText
 10
2666.886480121451
 20
865.1934536165811
 30
0.0
 40
45.72
 41
60.0
 46
0.0
 71
     7
 72
     1
  1
{\fＭＳ ゴシック|b0|i0|c128|p49;22}
 73
     1
 44
1.0
  0
LINE
  5
31C
330
1F
100
AcDbEntity
  8
0-6_桟木
  6
Continuous
 62
    92
370
    13
100
AcDbLine
 10
2710.315233786994
 20
-1441.666546383419
 30
0.0
 11
2725.315233786994
 21
-1441.666546383419
 31
0.0
  0
LINE
  5
31D
330
1F
100
AcDbEntity
  8
0-6_桟木
  6
Continuous
 62
    92
370
    13
100
AcDbLine
 10
2710.315233786994
 20
-1377.66654638342
 30
0.0
 11
2710.315233786994
 21
-1441.666546383419
 31
0.0
  0
LINE
  5
31E
330
1F
100
AcDbEntity
  8
0-6_桟木
  6
Continuous
 62
    92
370
    13
100
AcDbLine
 10
2725.315233786994
 20
-1377.66654638342
 30
0.0
 11
2710.315233786994
 21
-1377.66654638342
 31
0.0
  0
LINE
  5
31F
330
1F
100
AcDbEntity
  8
0-6_桟木
  6
Continuous
 62
    92
370
    13
100
AcDbLine
 10
2710.315233786994
 20
633.3334536165808
 30
0.0
 11
2725.315233786994
 21
633.3334536165808
 31
0.0
  0
LINE
  5
320
330
1F
100
AcDbEntity
  8
0-6_桟木
  6
Continuous
 62
    92
370
    13
100
AcDbLine
 10
2710.315233786994
 20
697.3334536165817
 30
0.0
 11
2710.315233786994
 21
633.3334536165808
 31
0.0
  0
LINE
  5
321
330
1F
100
AcDbEntity
  8
0-6_桟木
  6
Continuous
 62
    92
370
    13
100
AcDbLine
 10
2725.315233786994
 20
697.3334536165817
 30
0.0
 11
2710.315233786994
 21
697.3334536165817
 31
0.0
  0
MTEXT
  5
322
330
1F
100
AcDbEntity
  8
0-B_寸法
  6
Continuous
 62
     7
370
   211
100
AcDbMText
 10
2101.315233786994
 20
-454.3065463834193
 30
0.0
 40
45.72
 41
150.0
 46
0.0
 71
     7
 72
     1
  1
{\fＭＳ ゴシック|b0|i0|c128|p49;1,856}
 11
6.123031769111886E-17
 21
1.0
 31
0.0
 73
     1
 44
1.0
  0
MTEXT
  5
323
330
1F
100
AcDbEntity
  8
0-B_寸法
  6
Continuous
 62
     7
370
   211
100
AcDbMText
 10
2101.315233786994
 20
-1460.55654638342
 30
0.0
 40
45.72
 41
150.0
 46
0.0
 71
     7
 72
     1
  1
{\fＭＳ ゴシック|b0|i0|c128|p49;156.5}
 11
6.123031769111886E-17
 21
1.0
 31
0.0
 73
     1
 44
1.0
  0
LINE
  5
324
330
1F
100
AcDbEntity
  8
0-B_寸法
  6
Continuous
 62
   120
370
     5
100
AcDbLine
 10
2011.315233786995
 20
-1456.666546383419
 30
0.0
 11
2311.315233786995
 21
-1456.666546383419
 31
0.0
  0
LWPOLYLINE
  5
325
330
1F
100
AcDbEntity
  8
0-B_寸法
  6
Continuous
 62
     7
370
     9
100
AcDbPolyline
 90
        4
 70
     1
 43
2.0
 10
2112.315233786994
 20
-1456.666546383419
 42
0.4142135623731
 10
2111.315233786994
 20
-1455.66654638342
 42
0.4142135623731
 10
2110.315233786994
 20
-1456.666546383419
 42
0.4142135623731
 10
2111.315233786994
 20
-1457.666546383419
 42
0.4142135623731
  0
LINE
  5
326
330
1F
100
AcDbEntity
  8
0-B_寸法
  6
Continuous
 62
   120
370
     5
100
AcDbLine
 10
2111.315233786994
 20
-1300.166546383421
 30
0.0
 11
2111.315233786994
 21
-1456.666546383419
 31
0.0
  0
LINE
  5
327
330
1F
100
AcDbEntity
  8
0-B_寸法
  6
Continuous
 62
   120
370
     5
100
AcDbLine
 10
2111.315233786994
 20
-1300.166546383421
 30
0.0
 11
2211.315233786994
 21
-1300.166546383421
 31
0.0
  0
LWPOLYLINE
  5
328
330
1F
100
AcDbEntity
  8
0-B_寸法
  6
Continuous
 62
     7
370
     9
100
AcDbPolyline
 90
        4
 70
     1
 43
2.0
 10
2112.315233786994
 20
-1300.166546383421
 42
0.4142135623731
 10
2111.315233786994
 20
-1299.166546383421
 42
0.4142135623731
 10
2110.315233786994
 20
-1300.166546383421
 42
0.4142135623731
 10
2111.315233786994
 20
-1301.166546383421
 42
0.4142135623731
  0
LINE
  5
329
330
1F
100
AcDbEntity
  8
0-B_寸法
  6
Continuous
 62
   120
370
     5
100
AcDbLine
 10
2111.315233786994
 20
555.8334536165808
 30
0.0
 11
2111.315233786994
 21
-1300.166546383421
 31
0.0
  0
MTEXT
  5
32A
330
1F
100
AcDbEntity
  8
0-B_寸法
  6
Continuous
 62
     7
370
   211
100
AcDbMText
 10
2101.315233786994
 20
551.9434536165812
 30
0.0
 40
45.72
 41
150.0
 46
0.0
 71
     7
 72
     1
  1
{\fＭＳ ゴシック|b0|i0|c128|p49;156.5}
 11
6.123031769111886E-17
 21
1.0
 31
0.0
 73
     1
 44
1.0
  0
LINE
  5
32B
330
1F
100
AcDbEntity
  8
0-B_寸法
  6
Continuous
 62
   120
370
     5
100
AcDbLine
 10
2111.315233786994
 20
555.8334536165808
 30
0.0
 11
2211.315233786994
 21
555.8334536165808
 31
0.0
  0
LINE
  5
32C
330
1F
100
AcDbEntity
  8
0-B_寸法
  6
Continuous
 62
   120
370
     5
100
AcDbLine
 10
2011.315233786995
 20
712.3334536165817
 30
0.0
 11
2311.315233786995
 21
712.3334536165817
 31
0.0
  0
LWPOLYLINE
  5
32D
330
1F
100
AcDbEntity
  8
0-B_寸法
  6
Continuous
 62
     7
370
     9
100
AcDbPolyline
 90
        4
 70
     1
 43
2.0
 10
2112.315233786994
 20
555.8334536165808
 42
0.4142135623731
 10
2111.315233786994
 20
556.8334536165808
 42
0.4142135623731
 10
2110.315233786994
 20
555.8334536165808
 42
0.4142135623731
 10
2111.315233786994
 20
554.8334536165808
 42
0.4142135623731
  0
LWPOLYLINE
  5
32E
330
1F
100
AcDbEntity
  8
0-B_寸法
  6
Continuous
 62
     7
370
     9
100
AcDbPolyline
 90
        4
 70
     1
 43
2.0
 10
2112.315233786994
 20
712.3334536165811
 42
0.4142135623731
 10
2111.315233786994
 20
713.333453616581
 42
0.4142135623731
 10
2110.315233786994
 20
712.3334536165811
 42
0.4142135623731
 10
2111.315233786994
 20
711.3334536165812
 42
0.4142135623731
  0
LINE
  5
32F
330
1F
100
AcDbEntity
  8
0-B_寸法
  6
Continuous
 62
   120
370
     5
100
AcDbLine
 10
2111.315233786994
 20
712.3334536165811
 30
0.0
 11
2111.315233786994
 21
555.8334536165808
 31
0.0
  0
MTEXT
  5
330
330
1F
100
AcDbEntity
  8
0-B_寸法
  6
Continuous
 62
     7
370
   211
100
AcDbMText
 10
2201.315233786994
 20
-936.5565463834201
 30
0.0
 40
45.72
 41
150.0
 46
0.0
 71
     7
 72
     1
  1
{\fＭＳ ゴシック|b0|i0|c128|p49;964.5}
 11
6.123031769111886E-17
 21
1.0
 31
0.0
 73
     1
 44
1.0
  0
LINE
  5
331
330
1F
100
AcDbEntity
  8
0-B_寸法
  6
Continuous
 62
   120
370
     5
100
AcDbLine
 10
2211.315233786994
 20
-372.1665463834194
 30
0.0
 11
2311.315233786994
 21
-372.1665463834194
 31
0.0
  0
LWPOLYLINE
  5
332
330
1F
100
AcDbEntity
  8
0-B_寸法
  6
Continuous
 62
     7
370
     9
100
AcDbPolyline
 90
        4
 70
     1
 43
2.0
 10
2212.315233786994
 20
-372.1665463834194
 42
0.4142135623731
 10
2211.315233786994
 20
-371.1665463834194
 42
0.4142135623731
 10
2210.315233786994
 20
-372.1665463834194
 42
0.4142135623731
 10
2211.315233786994
 20
-373.1665463834194
 42
0.4142135623731
  0
LINE
  5
333
330
1F
100
AcDbEntity
  8
0-B_寸法
  6
Continuous
 62
   120
370
     5
100
AcDbLine
 10
2211.315233786994
 20
-1336.666546383419
 30
0.0
 11
2211.315233786994
 21
-372.1665463834194
 31
0.0
  0
MTEXT
  5
334
330
1F
100
AcDbEntity
  8
0-B_寸法
  6
Continuous
 62
     7
370
   211
100
AcDbMText
 10
2201.315233786994
 20
-1448.80654638342
 30
0.0
 40
45.72
 41
90.0
 46
0.0
 71
     7
 72
     1
  1
{\fＭＳ ゴシック|b0|i0|c128|p49;120}
 11
6.123031769111886E-17
 21
1.0
 31
0.0
 73
     1
 44
1.0
  0
LINE
  5
335
330
1F
100
AcDbEntity
  8
0-B_寸法
  6
Continuous
 62
   120
370
     5
100
AcDbLine
 10
2211.315233786994
 20
-1336.666546383419
 30
0.0
 11
2311.315233786994
 21
-1336.666546383419
 31
0.0
  0
LWPOLYLINE
  5
336
330
1F
100
AcDbEntity
  8
0-B_寸法
  6
Continuous
 62
     7
370
     9
100
AcDbPolyline
 90
        4
 70
     1
 43
2.0
 10
2212.315233786994
 20
-1336.666546383419
 42
0.4142135623731
 10
2211.315233786994
 20
-1335.66654638342
 42
0.4142135623731
 10
2210.315233786994
 20
-1336.666546383419
 42
0.4142135623731
 10
2211.315233786994
 20
-1337.666546383419
 42
0.4142135623731
  0
LWPOLYLINE
  5
337
330
1F
100
AcDbEntity
  8
0-B_寸法
  6
Continuous
 62
     7
370
     9
100
AcDbPolyline
 90
        4
 70
     1
 43
2.0
 10
2212.315233786994
 20
-1456.666546383419
 42
0.4142135623731
 10
2211.315233786994
 20
-1455.66654638342
 42
0.4142135623731
 10
2210.315233786994
 20
-1456.666546383419
 42
0.4142135623731
 10
2211.315233786994
 20
-1457.666546383419
 42
0.4142135623731
  0
LINE
  5
338
330
1F
100
AcDbEntity
  8
0-B_寸法
  6
Continuous
 62
   120
370
     5
100
AcDbLine
 10
2211.315233786994
 20
-1456.666546383419
 30
0.0
 11
2211.315233786994
 21
-1336.666546383419
 31
0.0
  0
MTEXT
  5
339
330
1F
100
AcDbEntity
  8
0-B_寸法
  6
Continuous
 62
     7
370
   211
100
AcDbMText
 10
2201.315233786994
 20
27.94345361658087
 30
0.0
 40
45.72
 41
150.0
 46
0.0
 71
     7
 72
     1
  1
{\fＭＳ ゴシック|b0|i0|c128|p49;964.5}
 11
6.123031769111886E-17
 21
1.0
 31
0.0
 73
     1
 44
1.0
  0
LINE
  5
33A
330
1F
100
AcDbEntity
  8
0-B_寸法
  6
Continuous
 62
   120
370
     5
100
AcDbLine
 10
2211.315233786994
 20
592.3334536165817
 30
0.0
 11
2211.315233786994
 21
-372.1665463834194
 31
0.0
  0
MTEXT
  5
33B
330
1F
100
AcDbEntity
  8
0-B_寸法
  6
Continuous
 62
     7
370
   211
100
AcDbMText
 10
2201.315233786994
 20
600.1934536165822
 30
0.0
 40
45.72
 41
90.0
 46
0.0
 71
     7
 72
     1
  1
{\fＭＳ ゴシック|b0|i0|c128|p49;120}
 11
6.123031769111886E-17
 21
1.0
 31
0.0
 73
     1
 44
1.0
  0
LINE
  5
33C
330
1F
100
AcDbEntity
  8
0-B_寸法
  6
Continuous
 62
   120
370
     5
100
AcDbLine
 10
2211.315233786994
 20
592.3334536165817
 30
0.0
 11
2311.315233786994
 21
592.3334536165817
 31
0.0
  0
LWPOLYLINE
  5
33D
330
1F
100
AcDbEntity
  8
0-B_寸法
  6
Continuous
 62
     7
370
     9
100
AcDbPolyline
 90
        4
 70
     1
 43
2.0
 10
2212.315233786994
 20
592.3334536165817
 42
0.4142135623731
 10
2211.315233786994
 20
593.3334536165817
 42
0.4142135623731
 10
2210.315233786994
 20
592.3334536165817
 42
0.4142135623731
 10
2211.315233786994
 20
591.3334536165817
 42
0.4142135623731
  0
LWPOLYLINE
  5
33E
330
1F
100
AcDbEntity
  8
0-B_寸法
  6
Continuous
 62
     7
370
     9
100
AcDbPolyline
 90
        4
 70
     1
 43
2.0
 10
2212.315233786994
 20
712.3334536165811
 42
0.4142135623731
 10
2211.315233786994
 20
713.333453616581
 42
0.4142135623731
 10
2210.315233786994
 20
712.3334536165811
 42
0.4142135623731
 10
2211.315233786994
 20
711.3334536165812
 42
0.4142135623731
  0
LINE
  5
33F
330
1F
100
AcDbEntity
  8
0-B_寸法
  6
Continuous
 62
   120
370
     5
100
AcDbLine
 10
2211.315233786994
 20
712.3334536165811
 30
0.0
 11
2211.315233786994
 21
592.3334536165817
 31
0.0
  0
CIRCLE
  5
340
330
1F
100
AcDbEntity
  8
0-5_ダボ
  6
Continuous
 62
     7
370
     9
100
AcDbCircle
 10
2450.315233786994
 20
43.8334536165803
 30
0.0
 40
2.5
  0
CIRCLE
  5
341
330
1F
100
AcDbEntity
  8
0-5_ダボ
  6
Continuous
 62
     7
370
     9
100
AcDbCircle
 10
2450.315233786994
 20
11.83345361657985
 30
0.0
 40
2.5
  0
CIRCLE
  5
342
330
1F
100
AcDbEntity
  8
0-5_ダボ
  6
Continuous
 62
     7
370
     9
100
AcDbCircle
 10
2450.315233786994
 20
267.8334536165806
 30
0.0
 40
2.5
  0
CIRCLE
  5
343
330
1F
100
AcDbEntity
  8
0-5_ダボ
  6
Continuous
 62
     7
370
     9
100
AcDbCircle
 10
2450.315233786994
 20
299.83345361658
 30
0.0
 40
2.5
  0
CIRCLE
  5
344
330
1F
100
AcDbEntity
  8
0-5_ダボ
  6
Continuous
 62
     7
370
     9
100
AcDbCircle
 10
2450.315233786994
 20
395.8334536165808
 30
0.0
 40
2.5
  0
CIRCLE
  5
345
330
1F
100
AcDbEntity
  8
0-5_ダボ
  6
Continuous
 62
     7
370
     9
100
AcDbCircle
 10
2450.315233786994
 20
427.8334536165812
 30
0.0
 40
2.5
  0
CIRCLE
  5
346
330
1F
100
AcDbEntity
  8
0-5_ダボ
  6
Continuous
 62
     7
370
     9
100
AcDbCircle
 10
2450.315233786994
 20
139.83345361658
 30
0.0
 40
2.5
  0
CIRCLE
  5
347
330
1F
100
AcDbEntity
  8
0-5_ダボ
  6
Continuous
 62
     7
370
     9
100
AcDbCircle
 10
2450.315233786994
 20
171.833453616581
 30
0.0
 40
2.5
  0
CIRCLE
  5
348
330
1F
100
AcDbEntity
  8
0-5_ダボ
  6
Continuous
 62
     7
370
     9
100
AcDbCircle
 10
2450.315233786994
 20
-116.1665463834197
 30
0.0
 40
2.5
  0
CIRCLE
  5
349
330
1F
100
AcDbEntity
  8
0-5_ダボ
  6
Continuous
 62
     7
370
     9
100
AcDbCircle
 10
2450.315233786994
 20
-84.16654638341981
 30
0.0
 40
2.5
  0
CIRCLE
  5
34A
330
1F
100
AcDbEntity
  8
0-5_ダボ
  6
Continuous
 62
     7
370
     9
100
AcDbCircle
 10
2450.315233786994
 20
-372.1665463834194
 30
0.0
 40
2.5
  0
CIRCLE
  5
34B
330
1F
100
AcDbEntity
  8
0-5_ダボ
  6
Continuous
 62
     7
370
     9
100
AcDbCircle
 10
2450.315233786994
 20
-340.16654638342
 30
0.0
 40
2.5
  0
CIRCLE
  5
34C
330
1F
100
AcDbEntity
  8
0-5_ダボ
  6
Continuous
 62
     7
370
     9
100
AcDbCircle
 10
2450.315233786994
 20
-628.1665463834202
 30
0.0
 40
2.5
  0
CIRCLE
  5
34D
330
1F
100
AcDbEntity
  8
0-5_ダボ
  6
Continuous
 62
     7
370
     9
100
AcDbCircle
 10
2450.315233786994
 20
-596.1665463834197
 30
0.0
 40
2.5
  0
CIRCLE
  5
34E
330
1F
100
AcDbEntity
  8
0-5_ダボ
  6
Continuous
 62
     7
370
     9
100
AcDbCircle
 10
2450.315233786994
 20
-884.1665463834195
 30
0.0
 40
2.5
  0
CIRCLE
  5
34F
330
1F
100
AcDbEntity
  8
0-5_ダボ
  6
Continuous
 62
     7
370
     9
100
AcDbCircle
 10
2450.315233786994
 20
-852.1665463834194
 30
0.0
 40
2.5
  0
CIRCLE
  5
350
330
1F
100
AcDbEntity
  8
0-5_ダボ
  6
Continuous
 62
     7
370
     9
100
AcDbCircle
 10
2450.315233786994
 20
-1140.166546383421
 30
0.0
 40
2.5
  0
CIRCLE
  5
351
330
1F
100
AcDbEntity
  8
0-5_ダボ
  6
Continuous
 62
     7
370
     9
100
AcDbCircle
 10
2450.315233786994
 20
-1108.16654638342
 30
0.0
 40
2.5
  0
CIRCLE
  5
352
330
1F
100
AcDbEntity
  8
0-5_ダボ
  6
Continuous
 62
     7
370
     9
100
AcDbCircle
 10
2450.315233786994
 20
-1204.166546383421
 30
0.0
 40
2.5
  0
CIRCLE
  5
353
330
1F
100
AcDbEntity
  8
0-5_ダボ
  6
Continuous
 62
     7
370
     9
100
AcDbCircle
 10
2450.315233786994
 20
-1172.166546383421
 30
0.0
 40
2.5
  0
CIRCLE
  5
354
330
1F
100
AcDbEntity
  8
0-5_ダボ
  6
Continuous
 62
     7
370
     9
100
AcDbCircle
 10
2450.315233786994
 20
-1076.16654638342
 30
0.0
 40
2.5
  0
CIRCLE
  5
355
330
1F
100
AcDbEntity
  8
0-5_ダボ
  6
Continuous
 62
     7
370
     9
100
AcDbCircle
 10
2450.315233786994
 20
-1044.166546383419
 30
0.0
 40
2.5
  0
CIRCLE
  5
356
330
1F
100
AcDbEntity
  8
0-5_ダボ
  6
Continuous
 62
     7
370
     9
100
AcDbCircle
 10
2450.315233786994
 20
-1012.166546383421
 30
0.0
 40
2.5
  0
CIRCLE
  5
357
330
1F
100
AcDbEntity
  8
0-5_ダボ
  6
Continuous
 62
     7
370
     9
100
AcDbCircle
 10
2450.315233786994
 20
-980.1665463834206
 30
0.0
 40
2.5
  0
CIRCLE
  5
358
330
1F
100
AcDbEntity
  8
0-5_ダボ
  6
Continuous
 62
     7
370
     9
100
AcDbCircle
 10
2450.315233786994
 20
-948.1665463834204
 30
0.0
 40
2.5
  0
CIRCLE
  5
359
330
1F
100
AcDbEntity
  8
0-5_ダボ
  6
Continuous
 62
     7
370
     9
100
AcDbCircle
 10
2450.315233786994
 20
-916.1665463834199
 30
0.0
 40
2.5
  0
CIRCLE
  5
35A
330
1F
100
AcDbEntity
  8
0-5_ダボ
  6
Continuous
 62
     7
370
     9
100
AcDbCircle
 10
2450.315233786994
 20
-820.1665463834206
 30
0.0
 40
2.5
  0
CIRCLE
  5
35B
330
1F
100
AcDbEntity
  8
0-5_ダボ
  6
Continuous
 62
     7
370
     9
100
AcDbCircle
 10
2450.315233786994
 20
-788.1665463834204
 30
0.0
 40
2.5
  0
CIRCLE
  5
35C
330
1F
100
AcDbEntity
  8
0-5_ダボ
  6
Continuous
 62
     7
370
     9
100
AcDbCircle
 10
2450.315233786994
 20
-756.1665463834199
 30
0.0
 40
2.5
  0
CIRCLE
  5
35D
330
1F
100
AcDbEntity
  8
0-5_ダボ
  6
Continuous
 62
     7
370
     9
100
AcDbCircle
 10
2450.315233786994
 20
-724.1665463834195
 30
0.0
 40
2.5
  0
CIRCLE
  5
35E
330
1F
100
AcDbEntity
  8
0-5_ダボ
  6
Continuous
 62
     7
370
     9
100
AcDbCircle
 10
2450.315233786994
 20
-692.1665463834194
 30
0.0
 40
2.5
  0
CIRCLE
  5
35F
330
1F
100
AcDbEntity
  8
0-5_ダボ
  6
Continuous
 62
     7
370
     9
100
AcDbCircle
 10
2450.315233786994
 20
-660.16654638342
 30
0.0
 40
2.5
  0
CIRCLE
  5
360
330
1F
100
AcDbEntity
  8
0-5_ダボ
  6
Continuous
 62
     7
370
     9
100
AcDbCircle
 10
2450.315233786994
 20
-564.1665463834192
 30
0.0
 40
2.5
  0
CIRCLE
  5
361
330
1F
100
AcDbEntity
  8
0-5_ダボ
  6
Continuous
 62
     7
370
     9
100
AcDbCircle
 10
2450.315233786994
 20
-532.1665463834188
 30
0.0
 40
2.5
  0
CIRCLE
  5
362
330
1F
100
AcDbEntity
  8
0-5_ダボ
  6
Continuous
 62
     7
370
     9
100
AcDbCircle
 10
2450.315233786994
 20
-500.16654638342
 30
0.0
 40
2.5
  0
CIRCLE
  5
363
330
1F
100
AcDbEntity
  8
0-5_ダボ
  6
Continuous
 62
     7
370
     9
100
AcDbCircle
 10
2450.315233786994
 20
-468.1665463834202
 30
0.0
 40
2.5
  0
CIRCLE
  5
364
330
1F
100
AcDbEntity
  8
0-5_ダボ
  6
Continuous
 62
     7
370
     9
100
AcDbCircle
 10
2450.315233786994
 20
-436.1665463834197
 30
0.0
 40
2.5
  0
CIRCLE
  5
365
330
1F
100
AcDbEntity
  8
0-5_ダボ
  6
Continuous
 62
     7
370
     9
100
AcDbCircle
 10
2450.315233786994
 20
-404.1665463834198
 30
0.0
 40
2.5
  0
CIRCLE
  5
366
330
1F
100
AcDbEntity
  8
0-5_ダボ
  6
Continuous
 62
     7
370
     9
100
AcDbCircle
 10
2450.315233786994
 20
-308.1665463834202
 30
0.0
 40
2.5
  0
CIRCLE
  5
367
330
1F
100
AcDbEntity
  8
0-5_ダボ
  6
Continuous
 62
     7
370
     9
100
AcDbCircle
 10
2450.315233786994
 20
-276.1665463834203
 30
0.0
 40
2.5
  0
CIRCLE
  5
368
330
1F
100
AcDbEntity
  8
0-5_ダボ
  6
Continuous
 62
     7
370
     9
100
AcDbCircle
 10
2450.315233786994
 20
-244.1665463834198
 30
0.0
 40
2.5
  0
CIRCLE
  5
369
330
1F
100
AcDbEntity
  8
0-5_ダボ
  6
Continuous
 62
     7
370
     9
100
AcDbCircle
 10
2450.315233786994
 20
-212.1665463834194
 30
0.0
 40
2.5
  0
CIRCLE
  5
36A
330
1F
100
AcDbEntity
  8
0-5_ダボ
  6
Continuous
 62
     7
370
     9
100
AcDbCircle
 10
2450.315233786994
 20
-180.1665463834189
 30
0.0
 40
2.5
  0
CIRCLE
  5
36B
330
1F
100
AcDbEntity
  8
0-5_ダボ
  6
Continuous
 62
     7
370
     9
100
AcDbCircle
 10
2450.315233786994
 20
-148.1665463834202
 30
0.0
 40
2.5
  0
CIRCLE
  5
36C
330
1F
100
AcDbEntity
  8
0-5_ダボ
  6
Continuous
 62
     7
370
     9
100
AcDbCircle
 10
2450.315233786994
 20
-52.16654638341936
 30
0.0
 40
2.5
  0
CIRCLE
  5
36D
330
1F
100
AcDbEntity
  8
0-5_ダボ
  6
Continuous
 62
     7
370
     9
100
AcDbCircle
 10
2450.315233786994
 20
-20.1665463834189
 30
0.0
 40
2.5
  0
CIRCLE
  5
36E
330
1F
100
AcDbEntity
  8
0-5_ダボ
  6
Continuous
 62
     7
370
     9
100
AcDbCircle
 10
2450.315233786994
 20
107.8334536165812
 30
0.0
 40
2.5
  0
CIRCLE
  5
36F
330
1F
100
AcDbEntity
  8
0-5_ダボ
  6
Continuous
 62
     7
370
     9
100
AcDbCircle
 10
2450.315233786994
 20
203.8334536165803
 30
0.0
 40
2.5
  0
CIRCLE
  5
370
330
1F
100
AcDbEntity
  8
0-5_ダボ
  6
Continuous
 62
     7
370
     9
100
AcDbCircle
 10
2450.315233786994
 20
235.8334536165808
 30
0.0
 40
2.5
  0
CIRCLE
  5
371
330
1F
100
AcDbEntity
  8
0-5_ダボ
  6
Continuous
 62
     7
370
     9
100
AcDbCircle
 10
2450.315233786994
 20
331.8334536165816
 30
0.0
 40
2.5
  0
CIRCLE
  5
372
330
1F
100
AcDbEntity
  8
0-5_ダボ
  6
Continuous
 62
     7
370
     9
100
AcDbCircle
 10
2450.315233786994
 20
363.8334536165803
 30
0.0
 40
2.5
  0
CIRCLE
  5
373
330
1F
100
AcDbEntity
  8
0-5_ダボ
  6
Continuous
 62
     7
370
     9
100
AcDbCircle
 10
2450.315233786994
 20
459.8334536165811
 30
0.0
 40
2.5
  0
CIRCLE
  5
374
330
1F
100
AcDbEntity
  8
0-5_ダボ
  6
Continuous
 62
     7
370
     9
100
AcDbCircle
 10
2450.315233786994
 20
491.8334536165816
 30
0.0
 40
2.5
  0
CIRCLE
  5
375
330
1F
100
AcDbEntity
  8
0-5_ダボ
  6
Continuous
 62
     7
370
     9
100
AcDbCircle
 10
2450.315233786994
 20
523.8334536165803
 30
0.0
 40
2.5
  0
CIRCLE
  5
376
330
1F
100
AcDbEntity
  8
0-5_ダボ
  6
Continuous
 62
     7
370
     9
100
AcDbCircle
 10
2450.315233786994
 20
555.8334536165808
 30
0.0
 40
2.5
  0
CIRCLE
  5
377
330
1F
100
AcDbEntity
  8
0-5_ダボ
  6
Continuous
 62
     7
370
     9
100
AcDbCircle
 10
2450.315233786994
 20
-1268.16654638342
 30
0.0
 40
2.5
  0
CIRCLE
  5
378
330
1F
100
AcDbEntity
  8
0-5_ダボ
  6
Continuous
 62
     7
370
     9
100
AcDbCircle
 10
2450.315233786994
 20
-1236.166546383421
 30
0.0
 40
2.5
  0
CIRCLE
  5
379
330
1F
100
AcDbEntity
  8
0-5_ダボ
  6
Continuous
 62
     7
370
     9
100
AcDbCircle
 10
2450.315233786994
 20
-1300.166546383421
 30
0.0
 40
2.5
  0
CIRCLE
  5
37A
330
1F
100
AcDbEntity
  8
0-5_ダボ
  6
Continuous
 62
     7
370
     9
100
AcDbCircle
 10
2450.315233786994
 20
75.83345361658019
 30
0.0
 40
2.5
  0
LINE
  5
37B
330
1F
100
AcDbEntity
  8
0-B_寸法
  6
JWW_HOJO
 62
     7
370
     9
100
AcDbLine
 10
2450.315233786994
 20
710.3334536165806
 30
0.0
 11
2450.315233786994
 21
-1456.666546383419
 31
0.0
  0
LINE
  5
37C
330
1F
100
AcDbEntity
  8
0-B_寸法
  6
Continuous
 62
   120
370
     5
100
AcDbLine
 10
2450.315233786994
 20
862.3334536165811
 30
0.0
 11
2420.315233786994
 21
862.3334536165811
 31
0.0
  0
LINE
  5
37D
330
1F
100
AcDbEntity
  8
0-B_寸法
  6
Continuous
 62
   120
370
     5
100
AcDbLine
 10
2450.315233786994
 20
862.3334536165811
 30
0.0
 11
2450.315233786994
 21
762.3334536165811
 31
0.0
  0
LWPOLYLINE
  5
37E
330
1F
100
AcDbEntity
  8
0-B_寸法
  6
Continuous
 62
     7
370
     9
100
AcDbPolyline
 90
        4
 70
     1
 43
2.0
 10
2451.315233786994
 20
862.3334536165811
 42
0.4142135623731
 10
2450.315233786994
 20
863.333453616581
 42
0.4142135623731
 10
2449.315233786994
 20
862.3334536165811
 42
0.4142135623731
 10
2450.315233786994
 20
861.3334536165812
 42
0.4142135623731
  0
LINE
  5
37F
330
1F
100
AcDbEntity
  8
0-B_寸法
  6
Continuous
 62
   120
370
     5
100
AcDbLine
 10
2706.315233786994
 20
862.3334536165811
 30
0.0
 11
2450.315233786994
 21
862.3334536165811
 31
0.0
  0
MTEXT
  5
380
330
1F
100
AcDbEntity
  8
0-B_寸法
  6
Continuous
 62
     7
370
   211
100
AcDbMText
 10
2466.655574578524
 20
863.5793914042017
 30
0.0
 40
45.72
 41
60.0
 46
0.0
 71
     7
 72
     1
  1
{\fＭＳ ゴシック|b0|i0|c128|p49;30}
 73
     1
 44
1.0
  0
MTEXT
  5
381
330
1F
100
AcDbEntity
  8
0-B_寸法
  6
Continuous
 62
     7
370
   211
100
AcDbMText
 10
2550.664909036318
 20
865.1934536165811
 30
0.0
 40
45.72000000000014
 41
90.00000000000028
 46
0.0
 71
     7
 72
     1
  1
{\fＭＳ ゴシック|b0|i0|c128|p49;256}
 73
     1
 44
1.0
  0
CIRCLE
  5
382
330
1F
100
AcDbEntity
  8
0-6_桟木
  6
Continuous
 62
     7
370
     9
100
AcDbCircle
 10
2717.815233786994
 20
681.333453616582
 30
0.0
 40
4.0
  0
CIRCLE
  5
383
330
1F
100
AcDbEntity
  8
0-6_桟木
  6
Continuous
 62
     7
370
     9
100
AcDbCircle
 10
2717.815233786994
 20
649.3334536165816
 30
0.0
 40
4.0
  0
LINE
  5
384
330
1F
100
AcDbEntity
  8
0-0_補助線
  6
JWW_HOJO
 62
   120
370
     5
100
AcDbLine
 10
2878.315233786994
 20
862.3334536165811
 30
0.0
 11
2878.315233786994
 21
-1851.166546383419
 31
0.0
  0
LINE
  5
385
330
1F
100
AcDbEntity
  8
0-0_補助線
  6
JWW_HOJO
 62
   120
370
     5
100
AcDbLine
 10
2695.314679475254
 20
862.3334536165811
 30
0.0
 11
2695.314679475254
 21
-1851.166546383419
 31
0.0
  0
LINE
  5
386
330
1F
100
AcDbEntity
  8
0-0_補助線
  6
JWW_HOJO
 62
   120
370
     5
100
AcDbLine
 10
2390.315233786994
 20
-1851.166546383419
 30
0.0
 11
2390.315233786994
 21
862.3334536165811
 31
0.0
  0
LINE
  5
387
330
1F
100
AcDbEntity
  8
0-0_補助線
  6
JWW_HOJO
 62
   120
370
     5
100
AcDbLine
 10
2455.314877427112
 20
862.3334536165811
 30
0.0
 11
2455.314877427112
 21
-1851.166546383419
 31
0.0
  0
LINE
  5
388
330
1F
100
AcDbEntity
  8
0-0_補助線
  6
JWW_HOJO
 62
   120
370
     5
100
AcDbLine
 10
2778.315233786993
 20
862.3334536165811
 30
0.0
 11
2778.315233786993
 21
-1851.166546383419
 31
0.0
  0
LINE
  5
389
330
1F
100
AcDbEntity
  8
0-0_補助線
  6
JWW_HOJO
 62
     7
370
     9
100
AcDbLine
 10
2728.315233786993
 20
-1851.166546383419
 30
0.0
 11
2728.315233786993
 21
862.3334536165811
 31
0.0
  0
LINE
  5
38A
330
1F
100
AcDbEntity
  8
0-0_補助線
  6
JWW_HOJO
 62
   120
370
     5
100
AcDbLine
 10
2978.315233786994
 20
862.3334536165811
 30
0.0
 11
2978.315233786994
 21
-1851.166546383419
 31
0.0
  0
LINE
  5
38B
330
1F
100
AcDbEntity
  8
0-0_補助線
  6
JWW_HOJO
 62
     7
370
     9
100
AcDbLine
 10
2383.315233786996
 20
-1851.166546383419
 30
0.0
 11
2383.315233786996
 21
862.3334536165811
 31
0.0
  0
LINE
  5
38C
330
1F
100
AcDbEntity
  8
0-0_補助線
  6
JWW_HOJO
 62
   120
370
     5
100
AcDbLine
 10
2111.315233786994
 20
-1851.166546383419
 30
0.0
 11
2111.315233786994
 21
862.3334536165811
 31
0.0
  0
LINE
  5
38D
330
1F
100
AcDbEntity
  8
0-0_補助線
  6
JWW_HOJO
 62
   120
370
     5
100
AcDbLine
 10
2011.315233786994
 20
862.3334536165811
 30
0.0
 11
2011.315233786994
 21
-1851.166546383419
 31
0.0
  0
LINE
  5
38E
330
1F
100
AcDbEntity
  8
0-0_補助線
  6
JWW_HOJO
 62
   120
370
     5
100
AcDbLine
 10
2211.315233786994
 20
862.3334536165811
 30
0.0
 11
2211.315233786994
 21
-1851.166546383419
 31
0.0
  0
LINE
  5
38F
330
1F
100
AcDbEntity
  8
0-0_補助線
  6
JWW_HOJO
 62
   120
370
     5
100
AcDbLine
 10
1911.315233786994
 20
862.3334536165811
 30
0.0
 11
1911.315233786994
 21
-1851.166546383419
 31
0.0
  0
LINE
  5
390
330
1F
100
AcDbEntity
  8
0-0_補助線
  6
JWW_HOJO
 62
   120
370
     5
100
AcDbLine
 10
2311.315233786994
 20
862.3334536165811
 30
0.0
 11
2311.315233786994
 21
-1851.166546383419
 31
0.0
  0
MTEXT
  5
391
330
1F
100
AcDbEntity
  8
0-B_寸法
  6
Continuous
 62
     7
370
   211
100
AcDbMText
 10
2001.315233786995
 20
-544.3065463834199
 30
0.0
 40
45.71999999999998
 41
330.0
 46
0.0
 71
     7
 72
     1
  1
{\fＭＳ ゴシック|b0|i0|c128|p49;ＤＨ＝2,163}
 11
6.123031769111886E-17
 21
1.0
 31
0.0
 73
     1
 44
1.0
  0
MTEXT
  5
392
330
1F
100
AcDbEntity
  8
0-B_寸法
  6
Continuous
 62
     7
370
   211
100
AcDbMText
 10
2001.315233786995
 20
669.3293457131841
 30
0.0
 40
45.72
 41
30.0
 46
0.0
 71
     7
 72
     1
  1
{\fＭＳ ゴシック|b0|i0|c128|p49;3}
 11
6.123031769111886E-17
 21
1.0
 31
0.0
 73
     1
 44
1.0
  0
MTEXT
  5
393
330
1F
100
AcDbEntity
  8
0-B_寸法
  6
Continuous
 62
     7
370
   211
100
AcDbMText
 10
2001.315233786995
 20
-1455.236554047128
 30
0.0
 40
45.72
 41
30.0
 46
0.0
 71
     7
 72
     1
  1
{\fＭＳ ゴシック|b0|i0|c128|p49;3}
 11
6.123031769111886E-17
 21
1.0
 31
0.0
 73
     1
 44
1.0
  0
LWPOLYLINE
  5
394
330
1F
100
AcDbEntity
  8
0-B_寸法
  6
Continuous
 62
     7
370
     9
100
AcDbPolyline
 90
        4
 70
     1
 43
2.0
 10
2012.315233786995
 20
712.3334536165817
 42
0.4142135623731
 10
2011.315233786995
 20
713.3334536165817
 42
0.4142135623731
 10
2010.315233786995
 20
712.3334536165817
 42
0.4142135623731
 10
2011.315233786995
 20
711.3334536165817
 42
0.4142135623731
  0
LINE
  5
395
330
1F
100
AcDbEntity
  8
0-B_寸法
  6
Continuous
 62
   120
370
     5
100
AcDbLine
 10
2011.315233786995
 20
709.3334536165798
 30
0.0
 11
2011.315233786995
 21
712.3334536165817
 31
0.0
  0
LWPOLYLINE
  5
396
330
1F
100
AcDbEntity
  8
0-B_寸法
  6
Continuous
 62
     7
370
     9
100
AcDbPolyline
 90
        4
 70
     1
 43
2.0
 10
2012.315233786995
 20
-1456.666546383419
 42
0.4142135623731
 10
2011.315233786995
 20
-1455.66654638342
 42
0.4142135623731
 10
2010.315233786995
 20
-1456.666546383419
 42
0.4142135623731
 10
2011.315233786995
 20
-1457.666546383419
 42
0.4142135623731
  0
LINE
  5
397
330
1F
100
AcDbEntity
  8
0-B_寸法
  6
Continuous
 62
   120
370
     5
100
AcDbLine
 10
2011.315233786995
 20
-1456.666546383419
 30
0.0
 11
2011.315233786995
 21
-1453.666546383419
 31
0.0
  0
LWPOLYLINE
  5
398
330
1F
100
AcDbEntity
  8
0-B_寸法
  6
Continuous
 62
     7
370
     9
100
AcDbPolyline
 90
        4
 70
     1
 43
2.0
 10
2012.315233786995
 20
709.3334536165798
 42
0.4142135623731
 10
2011.315233786995
 20
710.3334536165798
 42
0.4142135623731
 10
2010.315233786995
 20
709.3334536165798
 42
0.4142135623731
 10
2011.315233786995
 20
708.3334536165798
 42
0.4142135623731
  0
LWPOLYLINE
  5
399
330
1F
100
AcDbEntity
  8
0-B_寸法
  6
Continuous
 62
     7
370
     9
100
AcDbPolyline
 90
        4
 70
     1
 43
2.0
 10
2012.315233786995
 20
-1453.666546383419
 42
0.4142135623731
 10
2011.315233786995
 20
-1452.666546383419
 42
0.4142135623731
 10
2010.315233786995
 20
-1453.666546383419
 42
0.4142135623731
 10
2011.315233786995
 20
-1454.666546383419
 42
0.4142135623731
  0
LINE
  5
39A
330
1F
100
AcDbEntity
  8
0-B_寸法
  6
Continuous
 62
   120
370
     5
100
AcDbLine
 10
2011.315233786995
 20
-1453.666546383419
 30
0.0
 11
2011.315233786995
 21
709.3334536165798
 31
0.0
  0
LINE
  5
39B
330
1F
100
AcDbEntity
  8
0-B_寸法
  6
Continuous
 62
   120
370
     5
100
AcDbLine
 10
2011.315233786995
 20
709.3334536165798
 30
0.0
 11
2311.315233786995
 21
709.3334536165798
 31
0.0
  0
LINE
  5
39C
330
1F
100
AcDbEntity
  8
0-B_寸法
  6
Continuous
 62
   120
370
     5
100
AcDbLine
 10
2011.315233786995
 20
-1453.666546383419
 30
0.0
 11
2311.315233786995
 21
-1453.666546383419
 31
0.0
  0
LINE
  5
39D
330
1F
100
AcDbEntity
  8
0-0_補助線
  6
JWW_HOJO
 62
     7
370
     9
100
AcDbLine
 10
2978.315233786989
 20
-1456.666546383419
 30
0.0
 11
-3076.684957613007
 21
-1456.666546383419
 31
0.0
  0
LINE
  5
39E
330
1F
100
AcDbEntity
  8
0-0_補助線
  6
JWW_HOJO
 62
   120
370
     5
100
AcDbLine
 10
2978.315233786989
 20
762.3334536165811
 30
0.0
 11
-3076.684957613007
 21
762.3334536165811
 31
0.0
  0
LINE
  5
39F
330
1F
100
AcDbEntity
  8
0-0_補助線
  6
JWW_HOJO
 62
   120
370
     5
100
AcDbLine
 10
2978.315233786989
 20
862.3334536165811
 30
0.0
 11
-3076.684957613007
 21
862.3334536165811
 31
0.0
  0
LINE
  5
3A0
330
1F
100
AcDbEntity
  8
0-B_寸法
  6
Continuous
 62
   120
370
     5
100
AcDbLine
 10
-1130.684957613007
 20
862.3334536165811
 30
0.0
 11
-334.6849576130057
 21
862.3334536165811
 31
0.0
  0
LWPOLYLINE
  5
3A1
330
1F
100
AcDbEntity
  8
0-B_寸法
  6
Continuous
 62
     7
370
     9
100
AcDbPolyline
 90
        4
 70
     1
 43
2.0
 10
-1129.684957613007
 20
862.3334536165811
 42
0.4142135623731
 10
-1130.684957613007
 20
863.333453616581
 42
0.4142135623731
 10
-1131.684957613006
 20
862.3334536165811
 42
0.4142135623731
 10
-1130.684957613007
 20
861.3334536165812
 42
0.4142135623731
  0
LWPOLYLINE
  5
3A2
330
1F
100
AcDbEntity
  8
0-B_寸法
  6
Continuous
 62
     7
370
     9
100
AcDbPolyline
 90
        4
 70
     1
 43
2.0
 10
-333.6849576130057
 20
862.3334536165811
 42
0.4142135623731
 10
-334.6849576130057
 20
863.333453616581
 42
0.4142135623731
 10
-335.6849576130057
 20
862.3334536165811
 42
0.4142135623731
 10
-334.6849576130057
 20
861.3334536165812
 42
0.4142135623731
  0
LINE
  5
3A3
330
1F
100
AcDbEntity
  8
0-B_寸法
  6
Continuous
 62
   120
370
     5
100
AcDbLine
 10
-1130.684957613007
 20
862.3334536165811
 30
0.0
 11
-1130.684957613007
 21
762.3334536165811
 31
0.0
  0
LINE
  5
3A4
330
1F
100
AcDbEntity
  8
0-B_寸法
  6
Continuous
 62
   120
370
     5
100
AcDbLine
 10
-334.6849576130057
 20
862.3334536165811
 30
0.0
 11
-334.6849576130057
 21
762.3334536165811
 31
0.0
  0
MTEXT
  5
3A5
330
1F
100
AcDbEntity
  8
0-B_寸法
  6
Continuous
 62
     7
370
   211
100
AcDbMText
 10
-777.6849576130062
 20
865.1934536165811
 30
0.0
 40
45.72
 41
90.0
 46
0.0
 71
     7
 72
     1
  1
{\fＭＳ ゴシック|b0|i0|c128|p49;796}
 73
     1
 44
1.0
  0
LINE
  5
3A6
330
1F
100
AcDbEntity
  8
0-B_寸法
  6
Continuous
 62
   120
370
     5
100
AcDbLine
 10
565.3150423869931
 20
862.3334536165811
 30
0.0
 11
1361.315042386996
 21
862.3334536165811
 31
0.0
  0
LWPOLYLINE
  5
3A7
330
1F
100
AcDbEntity
  8
0-B_寸法
  6
Continuous
 62
     7
370
     9
100
AcDbPolyline
 90
        4
 70
     1
 43
2.0
 10
566.3150423869931
 20
862.3334536165811
 42
0.4142135623731
 10
565.3150423869931
 20
863.333453616581
 42
0.4142135623731
 10
564.3150423869931
 20
862.3334536165811
 42
0.4142135623731
 10
565.3150423869931
 20
861.3334536165812
 42
0.4142135623731
  0
LWPOLYLINE
  5
3A8
330
1F
100
AcDbEntity
  8
0-B_寸法
  6
Continuous
 62
     7
370
     9
100
AcDbPolyline
 90
        4
 70
     1
 43
2.0
 10
1362.315042386996
 20
862.3334536165811
 42
0.4142135623731
 10
1361.315042386996
 20
863.333453616581
 42
0.4142135623731
 10
1360.315042386996
 20
862.3334536165811
 42
0.4142135623731
 10
1361.315042386996
 20
861.3334536165812
 42
0.4142135623731
  0
LINE
  5
3A9
330
1F
100
AcDbEntity
  8
0-B_寸法
  6
Continuous
 62
   120
370
     5
100
AcDbLine
 10
565.3150423869931
 20
862.3334536165811
 30
0.0
 11
565.3150423869931
 21
762.3334536165811
 31
0.0
  0
LINE
  5
3AA
330
1F
100
AcDbEntity
  8
0-B_寸法
  6
Continuous
 62
   120
370
     5
100
AcDbLine
 10
1361.315042386996
 20
862.3334536165811
 30
0.0
 11
1361.315042386996
 21
762.3334536165811
 31
0.0
  0
MTEXT
  5
3AB
330
1F
100
AcDbEntity
  8
0-B_寸法
  6
Continuous
 62
     7
370
   211
100
AcDbMText
 10
918.3150423869944
 20
865.1934536165811
 30
0.0
 40
45.72
 41
90.0
 46
0.0
 71
     7
 72
     1
  1
{\fＭＳ ゴシック|b0|i0|c128|p49;796}
 73
     1
 44
1.0
  0
MTEXT
  5
3AC
330
1F
100
AcDbEntity
  8
0-A_文字
  6
Continuous
 62
     7
370
     9
100
AcDbMText
 10
-1052.914167954766
 20
1595.36004450517
 30
0.0
 40
45.72
 41
90.0
 46
0.0
 71
     7
 72
     1
  1
{\fＭＳ ゴシック|b0|i0|c128|p49;Ａ'}
 73
     1
 44
1.0
  0
LINE
  5
3AD
330
1F
100
AcDbEntity
  8
0-A_文字
  6
Continuous
 62
     7
370
     9
100
AcDbLine
 10
-962.9141679547655
 20
1632.50004450517
 30
0.0
 11
-860.0460104906608
 21
1660.063356107787
 31
0.0
  0
LINE
  5
3AE
330
1F
100
AcDbEntity
  8
0-A_文字
  6
Continuous
 62
     7
370
     9
100
AcDbLine
 10
-860.0460104906608
 20
1632.50004450517
 30
0.0
 11
-962.9141679547655
 21
1632.50004450517
 31
0.0
  0
LINE
  5
3AF
330
1F
100
AcDbEntity
  8
0-A_文字
  6
Continuous
 62
     7
370
     9
100
AcDbLine
 10
-860.0460104906608
 20
2160.626667710405
 30
0.0
 11
-860.0460104906608
 21
1632.50004450517
 31
0.0
  0
MTEXT
  5
3B0
330
1F
100
AcDbEntity
  8
0-A_文字
  6
Continuous
 62
     7
370
     9
100
AcDbMText
 10
-1052.914167954767
 20
2123.486667710405
 30
0.0
 40
45.72
 41
90.0
 46
0.0
 71
     7
 72
     1
  1
{\fＭＳ ゴシック|b0|i0|c128|p49;Ａ }
 73
     1
 44
1.0
  0
LINE
  5
3B1
330
1F
100
AcDbEntity
  8
0-A_文字
  6
Continuous
 62
     7
370
     9
100
AcDbLine
 10
-860.0460104906608
 20
2160.626667710405
 30
0.0
 11
-962.9141679547655
 21
2160.626667710405
 31
0.0
  0
LINE
  5
3B2
330
1F
100
AcDbEntity
  8
0-A_文字
  6
Continuous
 62
     7
370
     9
100
AcDbLine
 10
-962.9141679547655
 20
2160.626667710405
 30
0.0
 11
-860.0460104906608
 21
2133.063356107788
 31
0.0
  0
MTEXT
  5
3B3
330
1F
100
AcDbEntity
  8
0-A_文字
  6
Continuous
 62
     7
370
     9
100
AcDbMText
 10
643.0858320452342
 20
1595.36004450517
 30
0.0
 40
45.72
 41
90.0
 46
0.0
 71
     7
 72
     1
  1
{\fＭＳ ゴシック|b0|i0|c128|p49;Ａ'}
 73
     1
 44
1.0
  0
LINE
  5
3B4
330
1F
100
AcDbEntity
  8
0-A_文字
  6
Continuous
 62
     7
370
     9
100
AcDbLine
 10
733.085832045234
 20
1632.50004450517
 30
0.0
 11
835.9539895093407
 21
1660.063356107787
 31
0.0
  0
LINE
  5
3B5
330
1F
100
AcDbEntity
  8
0-A_文字
  6
Continuous
 62
     7
370
     9
100
AcDbLine
 10
835.9539895093407
 20
1632.50004450517
 30
0.0
 11
733.085832045234
 21
1632.50004450517
 31
0.0
  0
LINE
  5
3B6
330
1F
100
AcDbEntity
  8
0-A_文字
  6
Continuous
 62
     7
370
     9
100
AcDbLine
 10
835.9539895093407
 20
2160.626667710405
 30
0.0
 11
835.9539895093407
 21
1632.50004450517
 31
0.0
  0
LINE
  5
3B7
330
1F
100
AcDbEntity
  8
0-A_文字
  6
Continuous
 62
     7
370
     9
100
AcDbLine
 10
835.9539895093407
 20
2160.626667710405
 30
0.0
 11
733.085832045234
 21
2160.626667710405
 31
0.0
  0
LINE
  5
3B8
330
1F
100
AcDbEntity
  8
0-A_文字
  6
Continuous
 62
     7
370
     9
100
AcDbLine
 10
733.085832045234
 20
2160.626667710405
 30
0.0
 11
835.9539895093407
 21
2133.063356107788
 31
0.0
  0
LINE
  5
3B9
330
1F
100
AcDbEntity
  8
0-A_文字
  6
Continuous
 62
     7
370
     9
100
AcDbLine
 10
767.9454847508862
 20
-584.4099178393503
 30
0.0
 11
502.7299588683834
 21
-584.4099178393503
 31
0.0
  0
MTEXT
  5
3BA
330
1F
100
AcDbEntity
  8
0-A_文字
  6
Continuous
 62
     7
370
     9
100
AcDbMText
 10
514.8065247644797
 20
-589.4198764428421
 30
0.0
 40
45.72
 41
240.0
 46
0.0
 71
     7
 72
     1
  1
{\fＭＳ ゴシック|b0|i0|c128|p49;中仕切り}
 73
     1
 44
1.0
  0
LINE
  5
3BB
330
1F
100
AcDbEntity
  8
0-A_文字
  6
Continuous
 62
     7
370
     9
100
AcDbLine
 10
804.8069914210248
 20
-648.2559202355691
 30
0.0
 11
767.9454847508862
 21
-584.4099178393503
 31
0.0
  0
LINE
  5
3BC
330
1F
100
AcDbEntity
  8
0-1_本体
  6
Continuous
 62
    40
370
    15
100
AcDbLine
 10
-1130.684957613011
 20
2083.063356107788
 30
0.0
 11
-1122.684957613011
 21
2083.063356107788
 31
0.0
  0
LINE
  5
3BD
330
1F
100
AcDbEntity
  8
0-1_本体
  6
Continuous
 62
    40
370
    15
100
AcDbLine
 10
-1122.684957613011
 20
2083.063356107788
 30
0.0
 11
-1122.684957613011
 21
2080.063356107787
 31
0.0
  0
LINE
  5
3BE
330
1F
100
AcDbEntity
  8
0-1_本体
  6
Continuous
 62
    40
370
    15
100
AcDbLine
 10
-1122.684957613011
 20
2080.063356107787
 30
0.0
 11
-738.1849576130115
 21
2080.063356107787
 31
0.0
  0
LINE
  5
3BF
330
1F
100
AcDbEntity
  8
0-1_本体
  6
Continuous
 62
    40
370
    15
100
AcDbLine
 10
-1122.684957613011
 20
2081.563356107788
 30
0.0
 11
-738.1849576130115
 21
2081.563356107788
 31
0.0
  0
LINE
  5
3C0
330
1F
100
AcDbEntity
  8
0-1_本体
  6
Continuous
 62
     7
370
     9
100
AcDbLine
 10
-1122.684957613011
 20
2083.063356107788
 30
0.0
 11
-738.1849576130115
 21
2083.063356107788
 31
0.0
  0
LINE
  5
3C1
330
1F
100
AcDbEntity
  8
0-1_本体
  6
Continuous
 62
    40
370
    15
100
AcDbLine
 10
-342.6849576130115
 20
2083.063356107788
 30
0.0
 11
-342.6849576130115
 21
2080.063356107787
 31
0.0
  0
LINE
  5
3C2
330
1F
100
AcDbEntity
  8
0-1_本体
  6
Continuous
 62
    40
370
    15
100
AcDbLine
 10
-342.6849576130115
 20
2080.063356107787
 30
0.0
 11
-727.1849576130113
 21
2080.063356107787
 31
0.0
  0
LINE
  5
3C3
330
1F
100
AcDbEntity
  8
0-1_本体
  6
Continuous
 62
    40
370
    15
100
AcDbLine
 10
-342.6849576130115
 20
2081.563356107788
 30
0.0
 11
-727.1849576130113
 21
2081.563356107788
 31
0.0
  0
LINE
  5
3C4
330
1F
100
AcDbEntity
  8
0-1_本体
  6
Continuous
 62
     7
370
     9
100
AcDbLine
 10
-342.6849576130115
 20
2083.063356107788
 30
0.0
 11
-727.1849576130113
 21
2083.063356107788
 31
0.0
  0
LINE
  5
3C5
330
1F
100
AcDbEntity
  8
0-1_本体
  6
Continuous
 62
    40
370
    15
100
AcDbLine
 10
-342.6849576130115
 20
2083.063356107788
 30
0.0
 11
-334.6849576130114
 21
2083.063356107788
 31
0.0
  0
LINE
  5
3C6
330
1F
100
AcDbEntity
  8
0-7__
  6
Continuous
 62
     7
370
     9
100
AcDbLine
 10
-737.1849576130113
 20
2083.063356107788
 30
0.0
 11
-728.1849576130115
 21
2083.063356107788
 31
0.0
  0
LINE
  5
3C7
330
1F
100
AcDbEntity
  8
0-7__
  6
Continuous
 62
     7
370
     9
100
AcDbLine
 10
-748.6849576130112
 20
2083.563356107788
 30
0.0
 11
-748.6849576130112
 21
2083.063356107788
 31
0.0
  0
ARC
  5
3C8
330
1F
100
AcDbEntity
  8
0-7__
  6
Continuous
 62
     7
370
     9
100
AcDbCircle
 10
-748.1849576130115
 20
2083.563356107788
 30
0.0
 40
0.5
100
AcDbArc
 50
90.0
 51
180.0
  0
LINE
  5
3C9
330
1F
100
AcDbEntity
  8
0-7__
  6
Continuous
 62
     7
370
     9
100
AcDbLine
 10
-716.6849576130113
 20
2083.563356107788
 30
0.0
 11
-716.6849576130113
 21
2083.063356107788
 31
0.0
  0
LINE
  5
3CA
330
1F
100
AcDbEntity
  8
0-7__
  6
Continuous
 62
     7
370
     9
100
AcDbLine
 10
-717.1849576130113
 20
2084.063356107788
 30
0.0
 11
-748.1849576130115
 21
2084.063356107788
 31
0.0
  0
ARC
  5
3CB
330
1F
100
AcDbEntity
  8
0-7__
  6
Continuous
 62
     7
370
     9
100
AcDbCircle
 10
-717.1849576130113
 20
2083.563356107788
 30
0.0
 40
0.5
100
AcDbArc
 50
0.0
 51
90.00000000000001
  0
LINE
  5
3CC
330
1F
100
AcDbEntity
  8
0-7__
  6
Continuous
 62
     7
370
     9
100
AcDbLine
 10
-746.6849576130113
 20
2080.063356107787
 30
0.0
 11
-738.1849576130115
 21
2080.063356107787
 31
0.0
  0
LINE
  5
3CD
330
1F
100
AcDbEntity
  8
0-7__
  6
Continuous
 62
     7
370
     9
100
AcDbLine
 10
-746.6849576130113
 20
2079.563356107787
 30
0.0
 11
-746.6849576130113
 21
2080.063356107787
 31
0.0
  0
ARC
  5
3CE
330
1F
100
AcDbEntity
  8
0-7__
  6
Continuous
 62
     7
370
     9
100
AcDbCircle
 10
-746.1849576130112
 20
2079.563356107787
 30
0.0
 40
0.5
100
AcDbArc
 50
180.0
 51
270.0
  0
LINE
  5
3CF
330
1F
100
AcDbEntity
  8
0-7__
  6
Continuous
 62
     7
370
     9
100
AcDbLine
 10
-719.1849576130113
 20
2079.063356107788
 30
0.0
 11
-746.1849576130112
 21
2079.063356107788
 31
0.0
  0
LINE
  5
3D0
330
1F
100
AcDbEntity
  8
0-7__
  6
Continuous
 62
     7
370
     9
100
AcDbLine
 10
-718.6849576130112
 20
2079.563356107787
 30
0.0
 11
-718.6849576130112
 21
2080.063356107787
 31
0.0
  0
ARC
  5
3D1
330
1F
100
AcDbEntity
  8
0-7__
  6
Continuous
 62
     7
370
     9
100
AcDbCircle
 10
-719.1849576130113
 20
2079.563356107787
 30
0.0
 40
0.5
100
AcDbArc
 50
270.0
 51
0.0
  0
LINE
  5
3D2
330
1F
100
AcDbEntity
  8
0-7__
  6
Continuous
 62
     7
370
     9
100
AcDbLine
 10
-738.1849576130115
 20
2080.063356107787
 30
0.0
 11
-738.1849576130115
 21
2083.063356107788
 31
0.0
  0
LINE
  5
3D3
330
1F
100
AcDbEntity
  8
0-7__
  6
Continuous
 62
     7
370
     9
100
AcDbLine
 10
-737.1849576130113
 20
2080.063356107787
 30
0.0
 11
-737.1849576130113
 21
2083.063356107788
 31
0.0
  0
LINE
  5
3D4
330
1F
100
AcDbEntity
  8
0-7__
  6
Continuous
 62
     7
370
     9
100
AcDbLine
 10
-728.1849576130115
 20
2080.063356107787
 30
0.0
 11
-728.1849576130115
 21
2083.063356107788
 31
0.0
  0
LINE
  5
3D5
330
1F
100
AcDbEntity
  8
0-7__
  6
Continuous
 62
     7
370
     9
100
AcDbLine
 10
-737.1849576130113
 20
2080.063356107787
 30
0.0
 11
-728.1849576130115
 21
2080.063356107787
 31
0.0
  0
LINE
  5
3D6
330
1F
100
AcDbEntity
  8
0-7__
  6
Continuous
 62
     7
370
     9
100
AcDbLine
 10
-727.1849576130113
 20
2080.063356107787
 30
0.0
 11
-727.1849576130113
 21
2083.063356107788
 31
0.0
  0
LINE
  5
3D7
330
1F
100
AcDbEntity
  8
0-7__
  6
Continuous
 62
     7
370
     9
100
AcDbLine
 10
-727.1849576130113
 20
2080.063356107787
 30
0.0
 11
-718.6849576130112
 21
2080.063356107787
 31
0.0
  0
LINE
  5
3D8
330
1F
100
AcDbEntity
  8
0-7__
  6
Continuous
 62
     7
370
     9
100
AcDbLine
 10
-748.6849576130112
 20
2083.063356107788
 30
0.0
 11
-738.1849576130115
 21
2083.063356107788
 31
0.0
  0
LINE
  5
3D9
330
1F
100
AcDbEntity
  8
0-7__
  6
Continuous
 62
     7
370
     9
100
AcDbLine
 10
-727.1849576130113
 20
2083.063356107788
 30
0.0
 11
-716.6849576130113
 21
2083.063356107788
 31
0.0
  0
LINE
  5
3DA
330
1F
100
AcDbEntity
  8
0-7__
  6
Continuous
 62
     7
370
     9
100
AcDbLine
 10
-746.6849576130113
 20
-1201.666546383421
 30
0.0
 11
-746.6849576130113
 21
-1441.66654638342
 31
0.0
  0
LINE
  5
3DB
330
1F
100
AcDbEntity
  8
0-7__
  6
Continuous
 62
     7
370
     9
100
AcDbLine
 10
-718.6849576130112
 20
-1201.666546383421
 30
0.0
 11
-718.6849576130112
 21
-1441.66654638342
 31
0.0
  0
LINE
  5
3DC
330
1F
100
AcDbEntity
  8
0-7__
  6
JWW_DASHED1
 62
     7
370
     9
100
AcDbLine
 10
-746.6849576130113
 20
-1201.666546383421
 30
0.0
 11
-746.6849576130113
 21
-1189.66654638342
 31
0.0
  0
LINE
  5
3DD
330
1F
100
AcDbEntity
  8
0-7__
  6
JWW_DASHED1
 62
     7
370
     9
100
AcDbLine
 10
-718.6849576130112
 20
-1201.666546383421
 30
0.0
 11
-718.6849576130112
 21
-1189.66654638342
 31
0.0
  0
LINE
  5
3DE
330
1F
100
AcDbEntity
  8
0-7__
  6
JWW_DASHED1
 62
     7
370
     9
100
AcDbLine
 10
-746.6849576130113
 20
-945.6665463834207
 30
0.0
 11
-746.6849576130113
 21
-933.6665463834197
 31
0.0
  0
LINE
  5
3DF
330
1F
100
AcDbEntity
  8
0-7__
  6
JWW_DASHED1
 62
     7
370
     9
100
AcDbLine
 10
-718.6849576130112
 20
-945.6665463834207
 30
0.0
 11
-718.6849576130112
 21
-933.6665463834197
 31
0.0
  0
LINE
  5
3E0
330
1F
100
AcDbEntity
  8
0-7__
  6
JWW_DASHED1
 62
     7
370
     9
100
AcDbLine
 10
-746.6849576130113
 20
-689.6665463834197
 30
0.0
 11
-746.6849576130113
 21
-677.6665463834189
 31
0.0
  0
LINE
  5
3E1
330
1F
100
AcDbEntity
  8
0-7__
  6
JWW_DASHED1
 62
     7
370
     9
100
AcDbLine
 10
-718.6849576130112
 20
-689.6665463834197
 30
0.0
 11
-718.6849576130112
 21
-677.6665463834189
 31
0.0
  0
LINE
  5
3E2
330
1F
100
AcDbEntity
  8
0-7__
  6
JWW_DASHED1
 62
     7
370
     9
100
AcDbLine
 10
-746.6849576130113
 20
-433.6665463834197
 30
0.0
 11
-746.6849576130113
 21
-421.6665463834192
 31
0.0
  0
LINE
  5
3E3
330
1F
100
AcDbEntity
  8
0-7__
  6
JWW_DASHED1
 62
     7
370
     9
100
AcDbLine
 10
-718.6849576130112
 20
-433.6665463834197
 30
0.0
 11
-718.6849576130112
 21
-421.6665463834192
 31
0.0
  0
LINE
  5
3E4
330
1F
100
AcDbEntity
  8
0-7__
  6
JWW_DASHED1
 62
     7
370
     9
100
AcDbLine
 10
-746.6849576130113
 20
46.3334536165803
 30
0.0
 11
-746.6849576130113
 21
58.33345361658189
 31
0.0
  0
LINE
  5
3E5
330
1F
100
AcDbEntity
  8
0-7__
  6
JWW_DASHED1
 62
     7
370
     9
100
AcDbLine
 10
-718.6849576130112
 20
46.3334536165803
 30
0.0
 11
-718.6849576130112
 21
58.33345361658189
 31
0.0
  0
LINE
  5
3E6
330
1F
100
AcDbEntity
  8
0-7__
  6
JWW_DASHED1
 62
     7
370
     9
100
AcDbLine
 10
-746.6849576130113
 20
270.3334536165812
 30
0.0
 11
-746.6849576130113
 21
282.3334536165828
 31
0.0
  0
LINE
  5
3E7
330
1F
100
AcDbEntity
  8
0-7__
  6
JWW_DASHED1
 62
     7
370
     9
100
AcDbLine
 10
-718.6849576130112
 20
270.3334536165812
 30
0.0
 11
-718.6849576130112
 21
282.3334536165828
 31
0.0
  0
LINE
  5
3E8
330
1F
100
AcDbEntity
  8
0-7__
  6
JWW_DASHED1
 62
     7
370
     9
100
AcDbLine
 10
-746.6849576130113
 20
494.3334536165816
 30
0.0
 11
-746.6849576130113
 21
506.3334536165826
 31
0.0
  0
LINE
  5
3E9
330
1F
100
AcDbEntity
  8
0-7__
  6
JWW_DASHED1
 62
     7
370
     9
100
AcDbLine
 10
-718.6849576130112
 20
494.3334536165816
 30
0.0
 11
-718.6849576130112
 21
506.3334536165826
 31
0.0
  0
LINE
  5
3EA
330
1F
100
AcDbEntity
  8
0-7__
  6
Continuous
 62
     7
370
     9
100
AcDbLine
 10
-718.6849576130112
 20
-945.6665463834207
 30
0.0
 11
-718.6849576130112
 21
-1189.66654638342
 31
0.0
  0
LINE
  5
3EB
330
1F
100
AcDbEntity
  8
0-7__
  6
Continuous
 62
     7
370
     9
100
AcDbLine
 10
-746.6849576130113
 20
-945.6665463834207
 30
0.0
 11
-746.6849576130113
 21
-1189.66654638342
 31
0.0
  0
LINE
  5
3EC
330
1F
100
AcDbEntity
  8
0-7__
  6
Continuous
 62
     7
370
     9
100
AcDbLine
 10
-718.6849576130112
 20
-689.6665463834216
 30
0.0
 11
-718.6849576130112
 21
-933.6665463834206
 31
0.0
  0
LINE
  5
3ED
330
1F
100
AcDbEntity
  8
0-7__
  6
Continuous
 62
     7
370
     9
100
AcDbLine
 10
-746.6849576130113
 20
-689.6665463834216
 30
0.0
 11
-746.6849576130113
 21
-933.6665463834206
 31
0.0
  0
LINE
  5
3EE
330
1F
100
AcDbEntity
  8
0-7__
  6
Continuous
 62
     7
370
     9
100
AcDbLine
 10
-718.6849576130112
 20
-433.6665463834211
 30
0.0
 11
-718.6849576130112
 21
-677.6665463834206
 31
0.0
  0
LINE
  5
3EF
330
1F
100
AcDbEntity
  8
0-7__
  6
Continuous
 62
     7
370
     9
100
AcDbLine
 10
-746.6849576130113
 20
-433.6665463834211
 30
0.0
 11
-746.6849576130113
 21
-677.6665463834206
 31
0.0
  0
LINE
  5
3F0
330
1F
100
AcDbEntity
  8
0-7__
  6
Continuous
 62
     7
370
     9
100
AcDbLine
 10
-746.6849576130113
 20
-219.6665463834233
 30
0.0
 11
-746.6849576130113
 21
-421.666546383421
 31
0.0
  0
LINE
  5
3F1
330
1F
100
AcDbEntity
  8
0-7__
  6
Continuous
 62
     7
370
     9
100
AcDbLine
 10
-718.6849576130112
 20
-219.6665463834233
 30
0.0
 11
-718.6849576130112
 21
-421.666546383421
 31
0.0
  0
LINE
  5
3F2
330
1F
100
AcDbEntity
  8
0-7__
  6
Continuous
 62
     7
370
     9
100
AcDbLine
 10
-746.6849576130113
 20
46.3334536165803
 30
0.0
 11
-746.6849576130113
 21
-204.6665463834233
 31
0.0
  0
LINE
  5
3F3
330
1F
100
AcDbEntity
  8
0-7__
  6
Continuous
 62
     7
370
     9
100
AcDbLine
 10
-718.6849576130112
 20
46.3334536165803
 30
0.0
 11
-718.6849576130112
 21
-204.6665463834233
 31
0.0
  0
LINE
  5
3F4
330
1F
100
AcDbEntity
  8
0-7__
  6
Continuous
 62
     7
370
     9
100
AcDbLine
 10
-746.6849576130113
 20
270.3334536165812
 30
0.0
 11
-746.6849576130113
 21
58.33345361658075
 31
0.0
  0
LINE
  5
3F5
330
1F
100
AcDbEntity
  8
0-7__
  6
Continuous
 62
     7
370
     9
100
AcDbLine
 10
-718.6849576130112
 20
270.3334536165812
 30
0.0
 11
-718.6849576130112
 21
58.33345361658075
 31
0.0
  0
LINE
  5
3F6
330
1F
100
AcDbEntity
  8
0-7__
  6
Continuous
 62
     7
370
     9
100
AcDbLine
 10
-746.6849576130113
 20
494.3334536165816
 30
0.0
 11
-746.6849576130113
 21
282.33345361658
 31
0.0
  0
LINE
  5
3F7
330
1F
100
AcDbEntity
  8
0-7__
  6
Continuous
 62
     7
370
     9
100
AcDbLine
 10
-718.6849576130112
 20
494.3334536165816
 30
0.0
 11
-718.6849576130112
 21
282.33345361658
 31
0.0
  0
LINE
  5
3F8
330
1F
100
AcDbEntity
  8
0-7__
  6
Continuous
 62
     7
370
     9
100
AcDbLine
 10
-746.6849576130113
 20
697.3334536165811
 30
0.0
 11
-746.6849576130113
 21
506.333453616582
 31
0.0
  0
LINE
  5
3F9
330
1F
100
AcDbEntity
  8
0-7__
  6
Continuous
 62
     7
370
     9
100
AcDbLine
 10
-718.6849576130112
 20
697.3334536165811
 30
0.0
 11
-718.6849576130112
 21
506.333453616582
 31
0.0
  0
LINE
  5
3FA
330
1F
100
AcDbEntity
  8
0-A_文字
  6
Continuous
 62
     7
370
     9
100
AcDbLine
 10
-734.6961026580931
 20
683.7871218557228
 30
0.0
 11
-697.8345959879545
 21
747.6331242519416
 31
0.0
  0
MTEXT
  5
3FB
330
1F
100
AcDbEntity
  8
0-A_文字
  6
Continuous
 62
     7
370
     9
100
AcDbMText
 10
-684.6956360015486
 20
2142.418297620989
 30
0.0
 40
45.72
 41
360.0
 46
0.0
 71
     7
 72
     1
  1
{\fＭＳ ゴシック|b0|i0|c128|p49;背板連結樹脂}
 73
     1
 44
1.0
  0
LINE
  5
3FC
330
1F
100
AcDbEntity
  8
0-A_文字
  6
Continuous
 62
     7
370
     9
100
AcDbLine
 10
-697.8345959879545
 20
747.6331242519416
 30
0.0
 11
-324.6956360015486
 21
747.6331242519416
 31
0.0
  0
LINE
  5
3FD
330
1F
100
AcDbEntity
  8
0-A_文字
  6
Continuous
 62
     7
370
     9
100
AcDbLine
 10
-697.8345959879545
 20
2147.42825622448
 30
0.0
 11
-324.6956360015486
 21
2147.42825622448
 31
0.0
  0
MTEXT
  5
3FE
330
1F
100
AcDbEntity
  8
0-A_文字
  6
Continuous
 62
     7
370
     9
100
AcDbMText
 10
-684.6956360015486
 20
742.6231656484498
 30
0.0
 40
45.72
 41
360.0
 46
0.0
 71
     7
 72
     1
  1
{\fＭＳ ゴシック|b0|i0|c128|p49;背板連結樹脂}
 73
     1
 44
1.0
  0
MTEXT
  5
3FF
330
1F
100
AcDbEntity
  8
0-A_文字
  6
Continuous
 62
     7
370
     9
100
AcDbMText
 10
-621.1088205621145
 20
-152.8400516040634
 30
0.0
 40
45.72
 41
180.0
 46
0.0
 71
     7
 72
     1
  1
{\fＭＳ ゴシック|b0|i0|c128|p49;固定棚}
 73
     1
 44
1.0
  0
LINE
  5
400
330
1F
100
AcDbEntity
  8
0-A_文字
  6
Continuous
 62
     7
370
     9
100
AcDbLine
 10
-634.2477805485236
 20
-147.8300930005716
 30
0.0
 11
-440.2744087792844
 21
-147.8300930005716
 31
0.0
  0
LINE
  5
401
330
1F
100
AcDbEntity
  8
0-A_文字
  6
Continuous
 62
     7
370
     9
100
AcDbLine
 10
-671.1092872186622
 20
-211.6760953967892
 30
0.0
 11
-634.2477805485236
 21
-147.8300930005716
 31
0.0
  0
LINE
  5
402
330
1F
100
AcDbEntity
  8
0-A_文字
  6
Continuous
 62
     7
370
     9
100
AcDbLine
 10
-734.6961026580931
 20
2083.582253828263
 30
0.0
 11
-697.8345959879545
 21
2147.42825622448
 31
0.0
  0
LINE
  5
403
330
1F
100
AcDbEntity
  8
0-1_本体
  6
Continuous
 62
    40
370
    15
100
AcDbLine
 10
565.3150423869886
 20
2083.063356107788
 30
0.0
 11
573.3150423869887
 21
2083.063356107788
 31
0.0
  0
LINE
  5
404
330
1F
100
AcDbEntity
  8
0-1_本体
  6
Continuous
 62
    40
370
    15
100
AcDbLine
 10
573.3150423869887
 20
2083.063356107788
 30
0.0
 11
573.3150423869887
 21
2080.063356107787
 31
0.0
  0
LINE
  5
405
330
1F
100
AcDbEntity
  8
0-1_本体
  6
Continuous
 62
    40
370
    15
100
AcDbLine
 10
573.3150423869887
 20
2080.063356107787
 30
0.0
 11
957.8150423869885
 21
2080.063356107787
 31
0.0
  0
LINE
  5
406
330
1F
100
AcDbEntity
  8
0-1_本体
  6
Continuous
 62
    40
370
    15
100
AcDbLine
 10
573.3150423869887
 20
2081.563356107788
 30
0.0
 11
957.8150423869885
 21
2081.563356107788
 31
0.0
  0
LINE
  5
407
330
1F
100
AcDbEntity
  8
0-1_本体
  6
Continuous
 62
     7
370
     9
100
AcDbLine
 10
573.3150423869887
 20
2083.063356107788
 30
0.0
 11
957.8150423869885
 21
2083.063356107788
 31
0.0
  0
LINE
  5
408
330
1F
100
AcDbEntity
  8
0-1_本体
  6
Continuous
 62
    40
370
    15
100
AcDbLine
 10
1353.315042386988
 20
2083.063356107788
 30
0.0
 11
1353.315042386988
 21
2080.063356107787
 31
0.0
  0
LINE
  5
409
330
1F
100
AcDbEntity
  8
0-1_本体
  6
Continuous
 62
    40
370
    15
100
AcDbLine
 10
1353.315042386988
 20
2080.063356107787
 30
0.0
 11
968.8150423869887
 21
2080.063356107787
 31
0.0
  0
LINE
  5
40A
330
1F
100
AcDbEntity
  8
0-1_本体
  6
Continuous
 62
    40
370
    15
100
AcDbLine
 10
1353.315042386988
 20
2081.563356107788
 30
0.0
 11
968.8150423869887
 21
2081.563356107788
 31
0.0
  0
LINE
  5
40B
330
1F
100
AcDbEntity
  8
0-1_本体
  6
Continuous
 62
     7
370
     9
100
AcDbLine
 10
1353.315042386988
 20
2083.063356107788
 30
0.0
 11
968.8150423869887
 21
2083.063356107788
 31
0.0
  0
LINE
  5
40C
330
1F
100
AcDbEntity
  8
0-1_本体
  6
Continuous
 62
    40
370
    15
100
AcDbLine
 10
1353.315042386988
 20
2083.063356107788
 30
0.0
 11
1361.315042386988
 21
2083.063356107788
 31
0.0
  0
LINE
  5
40D
330
1F
100
AcDbEntity
  8
0-7__
  6
Continuous
 62
     7
370
     9
100
AcDbLine
 10
958.8150423869884
 20
2083.063356107788
 30
0.0
 11
967.8150423869885
 21
2083.063356107788
 31
0.0
  0
LINE
  5
40E
330
1F
100
AcDbEntity
  8
0-7__
  6
Continuous
 62
     7
370
     9
100
AcDbLine
 10
947.3150423869885
 20
2083.563356107788
 30
0.0
 11
947.3150423869885
 21
2083.063356107788
 31
0.0
  0
ARC
  5
40F
330
1F
100
AcDbEntity
  8
0-7__
  6
Continuous
 62
     7
370
     9
100
AcDbCircle
 10
947.8150423869885
 20
2083.563356107788
 30
0.0
 40
0.5
100
AcDbArc
 50
90.0
 51
180.0
  0
LINE
  5
410
330
1F
100
AcDbEntity
  8
0-7__
  6
Continuous
 62
     7
370
     9
100
AcDbLine
 10
979.3150423869884
 20
2083.563356107788
 30
0.0
 11
979.3150423869884
 21
2083.063356107788
 31
0.0
  0
LINE
  5
411
330
1F
100
AcDbEntity
  8
0-7__
  6
Continuous
 62
     7
370
     9
100
AcDbLine
 10
978.8150423869887
 20
2084.063356107788
 30
0.0
 11
947.8150423869885
 21
2084.063356107788
 31
0.0
  0
ARC
  5
412
330
1F
100
AcDbEntity
  8
0-7__
  6
Continuous
 62
     7
370
     9
100
AcDbCircle
 10
978.8150423869887
 20
2083.563356107788
 30
0.0
 40
0.5
100
AcDbArc
 50
0.0
 51
90.00000000000001
  0
LINE
  5
413
330
1F
100
AcDbEntity
  8
0-7__
  6
Continuous
 62
     7
370
     9
100
AcDbLine
 10
949.3150423869884
 20
2080.063356107787
 30
0.0
 11
957.8150423869885
 21
2080.063356107787
 31
0.0
  0
LINE
  5
414
330
1F
100
AcDbEntity
  8
0-7__
  6
Continuous
 62
     7
370
     9
100
AcDbLine
 10
949.3150423869884
 20
2079.563356107787
 30
0.0
 11
949.3150423869884
 21
2080.063356107787
 31
0.0
  0
ARC
  5
415
330
1F
100
AcDbEntity
  8
0-7__
  6
Continuous
 62
     7
370
     9
100
AcDbCircle
 10
949.8150423869885
 20
2079.563356107787
 30
0.0
 40
0.5
100
AcDbArc
 50
180.0
 51
270.0
  0
LINE
  5
416
330
1F
100
AcDbEntity
  8
0-7__
  6
Continuous
 62
     7
370
     9
100
AcDbLine
 10
976.8150423869884
 20
2079.063356107788
 30
0.0
 11
949.8150423869885
 21
2079.063356107788
 31
0.0
  0
LINE
  5
417
330
1F
100
AcDbEntity
  8
0-7__
  6
Continuous
 62
     7
370
     9
100
AcDbLine
 10
977.3150423869885
 20
2079.563356107787
 30
0.0
 11
977.3150423869885
 21
2080.063356107787
 31
0.0
  0
ARC
  5
418
330
1F
100
AcDbEntity
  8
0-7__
  6
Continuous
 62
     7
370
     9
100
AcDbCircle
 10
976.8150423869884
 20
2079.563356107787
 30
0.0
 40
0.5
100
AcDbArc
 50
270.0
 51
0.0
  0
LINE
  5
419
330
1F
100
AcDbEntity
  8
0-7__
  6
Continuous
 62
     7
370
     9
100
AcDbLine
 10
957.8150423869885
 20
2080.063356107787
 30
0.0
 11
957.8150423869885
 21
2083.063356107788
 31
0.0
  0
LINE
  5
41A
330
1F
100
AcDbEntity
  8
0-7__
  6
Continuous
 62
     7
370
     9
100
AcDbLine
 10
958.8150423869884
 20
2080.063356107787
 30
0.0
 11
958.8150423869884
 21
2083.063356107788
 31
0.0
  0
LINE
  5
41B
330
1F
100
AcDbEntity
  8
0-7__
  6
Continuous
 62
     7
370
     9
100
AcDbLine
 10
967.8150423869885
 20
2080.063356107787
 30
0.0
 11
967.8150423869885
 21
2083.063356107788
 31
0.0
  0
LINE
  5
41C
330
1F
100
AcDbEntity
  8
0-7__
  6
Continuous
 62
     7
370
     9
100
AcDbLine
 10
958.8150423869884
 20
2080.063356107787
 30
0.0
 11
967.8150423869885
 21
2080.063356107787
 31
0.0
  0
LINE
  5
41D
330
1F
100
AcDbEntity
  8
0-7__
  6
Continuous
 62
     7
370
     9
100
AcDbLine
 10
968.8150423869884
 20
2080.063356107787
 30
0.0
 11
968.8150423869884
 21
2083.063356107788
 31
0.0
  0
LINE
  5
41E
330
1F
100
AcDbEntity
  8
0-7__
  6
Continuous
 62
     7
370
     9
100
AcDbLine
 10
968.8150423869884
 20
2080.063356107787
 30
0.0
 11
977.3150423869885
 21
2080.063356107787
 31
0.0
  0
LINE
  5
41F
330
1F
100
AcDbEntity
  8
0-7__
  6
Continuous
 62
     7
370
     9
100
AcDbLine
 10
947.3150423869885
 20
2083.063356107788
 30
0.0
 11
957.8150423869885
 21
2083.063356107788
 31
0.0
  0
LINE
  5
420
330
1F
100
AcDbEntity
  8
0-7__
  6
Continuous
 62
     7
370
     9
100
AcDbLine
 10
968.8150423869884
 20
2083.063356107788
 30
0.0
 11
979.3150423869884
 21
2083.063356107788
 31
0.0
  0
LINE
  5
421
330
1F
100
AcDbEntity
  8
0-7__
  6
Continuous
 62
     7
370
     9
100
AcDbLine
 10
949.3150423869884
 20
-1201.666546383421
 30
0.0
 11
949.3150423869884
 21
-1441.66654638342
 31
0.0
  0
LINE
  5
422
330
1F
100
AcDbEntity
  8
0-7__
  6
Continuous
 62
     7
370
     9
100
AcDbLine
 10
977.3150423869885
 20
-1201.666546383421
 30
0.0
 11
977.3150423869885
 21
-1441.66654638342
 31
0.0
  0
LINE
  5
423
330
1F
100
AcDbEntity
  8
0-7__
  6
JWW_DASHED1
 62
     7
370
     9
100
AcDbLine
 10
949.3150423869884
 20
-1201.666546383421
 30
0.0
 11
949.3150423869884
 21
-1189.66654638342
 31
0.0
  0
LINE
  5
424
330
1F
100
AcDbEntity
  8
0-7__
  6
JWW_DASHED1
 62
     7
370
     9
100
AcDbLine
 10
977.3150423869885
 20
-1201.666546383421
 30
0.0
 11
977.3150423869885
 21
-1189.66654638342
 31
0.0
  0
LINE
  5
425
330
1F
100
AcDbEntity
  8
0-7__
  6
JWW_DASHED1
 62
     7
370
     9
100
AcDbLine
 10
949.3150423869884
 20
-945.6665463834207
 30
0.0
 11
949.3150423869884
 21
-933.6665463834197
 31
0.0
  0
LINE
  5
426
330
1F
100
AcDbEntity
  8
0-7__
  6
JWW_DASHED1
 62
     7
370
     9
100
AcDbLine
 10
977.3150423869885
 20
-945.6665463834207
 30
0.0
 11
977.3150423869885
 21
-933.6665463834197
 31
0.0
  0
LINE
  5
427
330
1F
100
AcDbEntity
  8
0-7__
  6
JWW_DASHED1
 62
     7
370
     9
100
AcDbLine
 10
949.3150423869884
 20
-689.6665463834197
 30
0.0
 11
949.3150423869884
 21
-677.6665463834189
 31
0.0
  0
LINE
  5
428
330
1F
100
AcDbEntity
  8
0-7__
  6
JWW_DASHED1
 62
     7
370
     9
100
AcDbLine
 10
977.3150423869885
 20
-689.6665463834197
 30
0.0
 11
977.3150423869885
 21
-677.6665463834189
 31
0.0
  0
LINE
  5
429
330
1F
100
AcDbEntity
  8
0-7__
  6
JWW_DASHED1
 62
     7
370
     9
100
AcDbLine
 10
949.3150423869884
 20
-433.6665463834197
 30
0.0
 11
949.3150423869884
 21
-421.6665463834192
 31
0.0
  0
LINE
  5
42A
330
1F
100
AcDbEntity
  8
0-7__
  6
JWW_DASHED1
 62
     7
370
     9
100
AcDbLine
 10
977.3150423869885
 20
-433.6665463834197
 30
0.0
 11
977.3150423869885
 21
-421.6665463834192
 31
0.0
  0
LINE
  5
42B
330
1F
100
AcDbEntity
  8
0-7__
  6
JWW_DASHED1
 62
     7
370
     9
100
AcDbLine
 10
949.3150423869884
 20
46.3334536165803
 30
0.0
 11
949.3150423869884
 21
58.33345361658189
 31
0.0
  0
LINE
  5
42C
330
1F
100
AcDbEntity
  8
0-7__
  6
JWW_DASHED1
 62
     7
370
     9
100
AcDbLine
 10
977.3150423869885
 20
46.3334536165803
 30
0.0
 11
977.3150423869885
 21
58.33345361658189
 31
0.0
  0
LINE
  5
42D
330
1F
100
AcDbEntity
  8
0-7__
  6
JWW_DASHED1
 62
     7
370
     9
100
AcDbLine
 10
949.3150423869884
 20
270.3334536165812
 30
0.0
 11
949.3150423869884
 21
282.3334536165828
 31
0.0
  0
LINE
  5
42E
330
1F
100
AcDbEntity
  8
0-7__
  6
JWW_DASHED1
 62
     7
370
     9
100
AcDbLine
 10
977.3150423869885
 20
270.3334536165812
 30
0.0
 11
977.3150423869885
 21
282.3334536165828
 31
0.0
  0
LINE
  5
42F
330
1F
100
AcDbEntity
  8
0-7__
  6
JWW_DASHED1
 62
     7
370
     9
100
AcDbLine
 10
949.3150423869884
 20
494.3334536165816
 30
0.0
 11
949.3150423869884
 21
506.3334536165826
 31
0.0
  0
LINE
  5
430
330
1F
100
AcDbEntity
  8
0-7__
  6
JWW_DASHED1
 62
     7
370
     9
100
AcDbLine
 10
977.3150423869885
 20
494.3334536165816
 30
0.0
 11
977.3150423869885
 21
506.3334536165826
 31
0.0
  0
LINE
  5
431
330
1F
100
AcDbEntity
  8
0-7__
  6
Continuous
 62
     7
370
     9
100
AcDbLine
 10
977.3150423869885
 20
-945.6665463834207
 30
0.0
 11
977.3150423869885
 21
-1189.66654638342
 31
0.0
  0
LINE
  5
432
330
1F
100
AcDbEntity
  8
0-7__
  6
Continuous
 62
     7
370
     9
100
AcDbLine
 10
949.3150423869884
 20
-945.6665463834207
 30
0.0
 11
949.3150423869884
 21
-1189.66654638342
 31
0.0
  0
LINE
  5
433
330
1F
100
AcDbEntity
  8
0-7__
  6
Continuous
 62
     7
370
     9
100
AcDbLine
 10
977.3150423869885
 20
-689.6665463834216
 30
0.0
 11
977.3150423869885
 21
-933.6665463834206
 31
0.0
  0
LINE
  5
434
330
1F
100
AcDbEntity
  8
0-7__
  6
Continuous
 62
     7
370
     9
100
AcDbLine
 10
949.3150423869884
 20
-689.6665463834216
 30
0.0
 11
949.3150423869884
 21
-933.6665463834206
 31
0.0
  0
LINE
  5
435
330
1F
100
AcDbEntity
  8
0-7__
  6
Continuous
 62
     7
370
     9
100
AcDbLine
 10
977.3150423869885
 20
-433.6665463834211
 30
0.0
 11
977.3150423869885
 21
-677.6665463834206
 31
0.0
  0
LINE
  5
436
330
1F
100
AcDbEntity
  8
0-7__
  6
Continuous
 62
     7
370
     9
100
AcDbLine
 10
949.3150423869884
 20
-433.6665463834211
 30
0.0
 11
949.3150423869884
 21
-677.6665463834206
 31
0.0
  0
LINE
  5
437
330
1F
100
AcDbEntity
  8
0-7__
  6
Continuous
 62
     7
370
     9
100
AcDbLine
 10
949.3150423869884
 20
-219.6665463834233
 30
0.0
 11
949.3150423869884
 21
-421.666546383421
 31
0.0
  0
LINE
  5
438
330
1F
100
AcDbEntity
  8
0-7__
  6
Continuous
 62
     7
370
     9
100
AcDbLine
 10
977.3150423869885
 20
-219.6665463834233
 30
0.0
 11
977.3150423869885
 21
-421.666546383421
 31
0.0
  0
LINE
  5
439
330
1F
100
AcDbEntity
  8
0-7__
  6
Continuous
 62
     7
370
     9
100
AcDbLine
 10
949.3150423869884
 20
46.3334536165803
 30
0.0
 11
949.3150423869884
 21
-204.6665463834233
 31
0.0
  0
LINE
  5
43A
330
1F
100
AcDbEntity
  8
0-7__
  6
Continuous
 62
     7
370
     9
100
AcDbLine
 10
977.3150423869885
 20
46.3334536165803
 30
0.0
 11
977.3150423869885
 21
-204.6665463834233
 31
0.0
  0
LINE
  5
43B
330
1F
100
AcDbEntity
  8
0-7__
  6
Continuous
 62
     7
370
     9
100
AcDbLine
 10
949.3150423869884
 20
270.3334536165812
 30
0.0
 11
949.3150423869884
 21
58.33345361658075
 31
0.0
  0
LINE
  5
43C
330
1F
100
AcDbEntity
  8
0-7__
  6
Continuous
 62
     7
370
     9
100
AcDbLine
 10
977.3150423869885
 20
270.3334536165812
 30
0.0
 11
977.3150423869885
 21
58.33345361658075
 31
0.0
  0
LINE
  5
43D
330
1F
100
AcDbEntity
  8
0-7__
  6
Continuous
 62
     7
370
     9
100
AcDbLine
 10
949.3150423869884
 20
494.3334536165816
 30
0.0
 11
949.3150423869884
 21
282.33345361658
 31
0.0
  0
LINE
  5
43E
330
1F
100
AcDbEntity
  8
0-7__
  6
Continuous
 62
     7
370
     9
100
AcDbLine
 10
977.3150423869885
 20
494.3334536165816
 30
0.0
 11
977.3150423869885
 21
282.33345361658
 31
0.0
  0
LINE
  5
43F
330
1F
100
AcDbEntity
  8
0-7__
  6
Continuous
 62
     7
370
     9
100
AcDbLine
 10
949.3150423869884
 20
697.3334536165811
 30
0.0
 11
949.3150423869884
 21
506.333453616582
 31
0.0
  0
LINE
  5
440
330
1F
100
AcDbEntity
  8
0-7__
  6
Continuous
 62
     7
370
     9
100
AcDbLine
 10
977.3150423869885
 20
697.3334536165811
 30
0.0
 11
977.3150423869885
 21
506.333453616582
 31
0.0
  0
LINE
  5
441
330
1F
100
AcDbEntity
  8
0-A_文字
  6
Continuous
 62
     7
370
     9
100
AcDbLine
 10
961.3038973419066
 20
683.7871218557228
 30
0.0
 11
998.1654040120452
 21
747.6331242519416
 31
0.0
  0
MTEXT
  5
442
330
1F
100
AcDbEntity
  8
0-A_文字
  6
Continuous
 62
     7
370
     9
100
AcDbMText
 10
1011.304363998451
 20
2142.418297620989
 30
0.0
 40
45.72
 41
360.0
 46
0.0
 71
     7
 72
     1
  1
{\fＭＳ ゴシック|b0|i0|c128|p49;背板連結樹脂}
 73
     1
 44
1.0
  0
LINE
  5
443
330
1F
100
AcDbEntity
  8
0-A_文字
  6
Continuous
 62
     7
370
     9
100
AcDbLine
 10
998.1654040120452
 20
747.6331242519416
 30
0.0
 11
1371.304363998451
 21
747.6331242519416
 31
0.0
  0
LINE
  5
444
330
1F
100
AcDbEntity
  8
0-A_文字
  6
Continuous
 62
     7
370
     9
100
AcDbLine
 10
998.1654040120452
 20
2147.42825622448
 30
0.0
 11
1371.304363998451
 21
2147.42825622448
 31
0.0
  0
MTEXT
  5
445
330
1F
100
AcDbEntity
  8
0-A_文字
  6
Continuous
 62
     7
370
     9
100
AcDbMText
 10
1011.304363998451
 20
742.6231656484498
 30
0.0
 40
45.72
 41
360.0
 46
0.0
 71
     7
 72
     1
  1
{\fＭＳ ゴシック|b0|i0|c128|p49;背板連結樹脂}
 73
     1
 44
1.0
  0
MTEXT
  5
446
330
1F
100
AcDbEntity
  8
0-A_文字
  6
Continuous
 62
     7
370
     9
100
AcDbMText
 10
1074.891179437885
 20
-152.8400516040634
 30
0.0
 40
45.72
 41
180.0
 46
0.0
 71
     7
 72
     1
  1
{\fＭＳ ゴシック|b0|i0|c128|p49;固定棚}
 73
     1
 44
1.0
  0
LINE
  5
447
330
1F
100
AcDbEntity
  8
0-A_文字
  6
Continuous
 62
     7
370
     9
100
AcDbLine
 10
1061.752219451476
 20
-147.8300930005716
 30
0.0
 11
1255.725591220715
 21
-147.8300930005716
 31
0.0
  0
LINE
  5
448
330
1F
100
AcDbEntity
  8
0-A_文字
  6
Continuous
 62
     7
370
     9
100
AcDbLine
 10
1024.890712781338
 20
-211.6760953967892
 30
0.0
 11
1061.752219451476
 21
-147.8300930005716
 31
0.0
  0
LINE
  5
449
330
1F
100
AcDbEntity
  8
0-A_文字
  6
Continuous
 62
     7
370
     9
100
AcDbLine
 10
961.3038973419066
 20
2083.582253828263
 30
0.0
 11
998.1654040120452
 21
2147.42825622448
 31
0.0
  0
MTEXT
  5
44A
330
1F
100
AcDbEntity
  8
0-B_寸法
  6
Continuous
 62
     7
370
   211
100
AcDbMText
 10
-1390.684957613007
 20
-1525.80654638342
 30
0.0
 40
45.72
 41
60.0
 46
0.0
 71
     7
 72
     1
  1
{\fＭＳ ゴシック|b0|i0|c128|p49;64}
 11
6.123031769111886E-17
 21
1.0
 31
0.0
 73
     1
 44
1.0
  0
LINE
  5
44B
330
1F
100
AcDbEntity
  8
0-B_寸法
  6
Continuous
 62
   120
370
     5
100
AcDbLine
 10
-1380.684957613007
 20
-1520.666546383419
 30
0.0
 11
-1180.684957613007
 21
-1520.666546383419
 31
0.0
  0
LINE
  5
44C
330
1F
100
AcDbEntity
  8
0-B_寸法
  6
Continuous
 62
   120
370
     5
100
AcDbLine
 10
-1380.684957613007
 20
-1456.666546383419
 30
0.0
 11
-1180.684957613007
 21
-1456.666546383419
 31
0.0
  0
LWPOLYLINE
  5
44D
330
1F
100
AcDbEntity
  8
0-B_寸法
  6
Continuous
 62
     7
370
     9
100
AcDbPolyline
 90
        4
 70
     1
 43
2.0
 10
-1379.684957613007
 20
-1520.666546383419
 42
0.4142135623731
 10
-1380.684957613007
 20
-1519.666546383419
 42
0.4142135623731
 10
-1381.684957613006
 20
-1520.666546383419
 42
0.4142135623731
 10
-1380.684957613007
 20
-1521.666546383419
 42
0.4142135623731
  0
LWPOLYLINE
  5
44E
330
1F
100
AcDbEntity
  8
0-B_寸法
  6
Continuous
 62
     7
370
     9
100
AcDbPolyline
 90
        4
 70
     1
 43
2.0
 10
-1379.684957613007
 20
-1456.666546383419
 42
0.4142135623731
 10
-1380.684957613007
 20
-1455.66654638342
 42
0.4142135623731
 10
-1381.684957613006
 20
-1456.666546383419
 42
0.4142135623731
 10
-1380.684957613007
 20
-1457.666546383419
 42
0.4142135623731
  0
LINE
  5
44F
330
1F
100
AcDbEntity
  8
0-B_寸法
  6
Continuous
 62
   120
370
     5
100
AcDbLine
 10
-1380.684957613007
 20
-1456.666546383419
 30
0.0
 11
-1380.684957613007
 21
-1520.666546383419
 31
0.0
  0
LINE
  5
450
330
1F
100
AcDbEntity
  8
0-A_文字
  6
Continuous
 62
     7
370
     9
100
AcDbLine
 10
-1157.684957613008
 20
-2070.66654638342
 30
0.0
 11
-1157.684957613008
 21
-1920.66654638342
 31
0.0
  0
LINE
  5
451
330
1F
100
AcDbEntity
  8
0-A_文字
  6
Continuous
 62
     7
370
     9
100
AcDbLine
 10
-307.6849576130058
 20
-2070.66654638342
 30
0.0
 11
-1157.684957613008
 21
-2070.66654638342
 31
0.0
  0
LINE
  5
452
330
1F
100
AcDbEntity
  8
0-A_文字
  6
Continuous
 62
     7
370
     9
100
AcDbLine
 10
-307.6849576130058
 20
-1920.66654638342
 30
0.0
 11
-307.6849576130058
 21
-2070.66654638342
 31
0.0
  0
LINE
  5
453
330
1F
100
AcDbEntity
  8
0-A_文字
  6
Continuous
 62
     7
370
     9
100
AcDbLine
 10
-1157.684957613008
 20
-1920.66654638342
 30
0.0
 11
-307.6849576130058
 21
-1920.66654638342
 31
0.0
  0
MTEXT
  5
454
330
1F
100
AcDbEntity
  8
0-A_文字
  6
Continuous
 62
     7
370
     9
100
AcDbMText
 10
-1037.684957613007
 20
-2064.019879716754
 30
0.0
 40
103.2933333333334
 41
610.0000000000001
 46
0.0
 71
     7
 72
     1
  1
{\fＭＳ ゴシック|b0|i0|c128|p49;ｷｬﾋﾞﾈｯﾄ図}
 73
     1
 44
1.0
  0
MTEXT
  5
455
330
1F
100
AcDbEntity
  8
0-B_寸法
  6
Continuous
 62
     7
370
   211
100
AcDbMText
 10
-335.0282071379473
 20
-1667.80654638342
 30
0.0
 40
45.72
 41
60.0
 46
0.0
 71
     7
 72
     1
  1
{\fＭＳ ゴシック|b0|i0|c128|p49;15}
 73
     1
 44
1.0
  0
MTEXT
  5
456
330
1F
100
AcDbEntity
  8
0-B_寸法
  6
Continuous
 62
     7
370
   211
100
AcDbMText
 10
-1190.183543725051
 20
-1667.80654638342
 30
0.0
 40
45.72
 41
60.0
 46
0.0
 71
     7
 72
     1
  1
{\fＭＳ ゴシック|b0|i0|c128|p49;15}
 73
     1
 44
1.0
  0
MTEXT
  5
457
330
1F
100
AcDbEntity
  8
0-B_寸法
  6
Continuous
 62
     7
370
   211
100
AcDbMText
 10
-777.6849576130058
 20
-1767.806546383419
 30
0.0
 40
45.72
 41
90.0
 46
0.0
 71
     7
 72
     1
  1
{\fＭＳ ゴシック|b0|i0|c128|p49;796}
 73
     1
 44
1.0
  0
LWPOLYLINE
  5
458
330
1F
100
AcDbEntity
  8
0-B_寸法
  6
Continuous
 62
     7
370
     9
100
AcDbPolyline
 90
        4
 70
     1
 43
2.0
 10
-333.6849576130063
 20
-1770.666546383419
 42
0.4142135623731
 10
-334.6849576130063
 20
-1769.666546383419
 42
0.4142135623731
 10
-335.6849576130063
 20
-1770.666546383419
 42
0.4142135623731
 10
-334.6849576130063
 20
-1771.666546383419
 42
0.4142135623731
  0
LWPOLYLINE
  5
459
330
1F
100
AcDbEntity
  8
0-B_寸法
  6
Continuous
 62
     7
370
     9
100
AcDbPolyline
 90
        4
 70
     1
 43
2.0
 10
-1129.684957613008
 20
-1770.666546383419
 42
0.4142135623731
 10
-1130.684957613008
 20
-1769.666546383419
 42
0.4142135623731
 10
-1131.684957613008
 20
-1770.666546383419
 42
0.4142135623731
 10
-1130.684957613008
 20
-1771.666546383419
 42
0.4142135623731
  0
LINE
  5
45A
330
1F
100
AcDbEntity
  8
0-B_寸法
  6
Continuous
 62
   120
370
     5
100
AcDbLine
 10
-1130.684957613008
 20
-1770.666546383419
 30
0.0
 11
-334.6849576130063
 21
-1770.666546383419
 31
0.0
  0
LINE
  5
45B
330
1F
100
AcDbEntity
  8
0-B_寸法
  6
Continuous
 62
   120
370
     5
100
AcDbLine
 10
-334.6849576130063
 20
-1770.666546383419
 30
0.0
 11
-334.6849576130063
 21
-1570.66654638342
 31
0.0
  0
LWPOLYLINE
  5
45C
330
1F
100
AcDbEntity
  8
0-B_寸法
  6
Continuous
 62
     7
370
     9
100
AcDbPolyline
 90
        4
 70
     1
 43
2.0
 10
-333.6849576130063
 20
-1670.66654638342
 42
0.4142135623731
 10
-334.6849576130063
 20
-1669.66654638342
 42
0.4142135623731
 10
-335.6849576130063
 20
-1670.66654638342
 42
0.4142135623731
 10
-334.6849576130063
 20
-1671.66654638342
 42
0.4142135623731
  0
MTEXT
  5
45D
330
1F
100
AcDbEntity
  8
0-B_寸法
  6
Continuous
 62
     7
370
   211
100
AcDbMText
 10
-777.6849576130058
 20
-1667.80654638342
 30
0.0
 40
45.72
 41
90.0
 46
0.0
 71
     7
 72
     1
  1
{\fＭＳ ゴシック|b0|i0|c128|p49;766}
 73
     1
 44
1.0
  0
LINE
  5
45E
330
1F
100
AcDbEntity
  8
0-B_寸法
  6
Continuous
 62
   120
370
     5
100
AcDbLine
 10
-349.6849576130063
 20
-1670.66654638342
 30
0.0
 11
-349.6849576130063
 21
-1570.66654638342
 31
0.0
  0
LWPOLYLINE
  5
45F
330
1F
100
AcDbEntity
  8
0-B_寸法
  6
Continuous
 62
     7
370
     9
100
AcDbPolyline
 90
        4
 70
     1
 43
2.0
 10
-348.6849576130063
 20
-1670.66654638342
 42
0.4142135623731
 10
-349.6849576130063
 20
-1669.66654638342
 42
0.4142135623731
 10
-350.6849576130063
 20
-1670.66654638342
 42
0.4142135623731
 10
-349.6849576130063
 20
-1671.66654638342
 42
0.4142135623731
  0
LINE
  5
460
330
1F
100
AcDbEntity
  8
0-B_寸法
  6
Continuous
 62
   120
370
     5
100
AcDbLine
 10
-1115.684957613008
 20
-1670.66654638342
 30
0.0
 11
-1115.684957613008
 21
-1570.66654638342
 31
0.0
  0
LINE
  5
461
330
1F
100
AcDbEntity
  8
0-B_寸法
  6
Continuous
 62
   120
370
     5
100
AcDbLine
 10
-1130.684957613008
 20
-1770.666546383419
 30
0.0
 11
-1130.684957613008
 21
-1570.66654638342
 31
0.0
  0
LWPOLYLINE
  5
462
330
1F
100
AcDbEntity
  8
0-B_寸法
  6
Continuous
 62
     7
370
     9
100
AcDbPolyline
 90
        4
 70
     1
 43
2.0
 10
-1114.684957613008
 20
-1670.66654638342
 42
0.4142135623731
 10
-1115.684957613008
 20
-1669.66654638342
 42
0.4142135623731
 10
-1116.684957613008
 20
-1670.66654638342
 42
0.4142135623731
 10
-1115.684957613008
 20
-1671.66654638342
 42
0.4142135623731
  0
LWPOLYLINE
  5
463
330
1F
100
AcDbEntity
  8
0-B_寸法
  6
Continuous
 62
     7
370
     9
100
AcDbPolyline
 90
        4
 70
     1
 43
2.0
 10
-1129.684957613008
 20
-1670.66654638342
 42
0.4142135623731
 10
-1130.684957613008
 20
-1669.66654638342
 42
0.4142135623731
 10
-1131.684957613008
 20
-1670.66654638342
 42
0.4142135623731
 10
-1130.684957613008
 20
-1671.66654638342
 42
0.4142135623731
  0
LINE
  5
464
330
1F
100
AcDbEntity
  8
0-B_寸法
  6
Continuous
 62
   120
370
     5
100
AcDbLine
 10
-1130.684957613008
 20
-1670.66654638342
 30
0.0
 11
-334.6849576130063
 21
-1670.66654638342
 31
0.0
  0
MTEXT
  5
465
330
1F
100
AcDbEntity
  8
0-B_寸法
  6
Continuous
 62
     7
370
   211
100
AcDbMText
 10
-3186.684957613007
 20
-454.3065463834193
 30
0.0
 40
45.72
 41
150.0
 46
0.0
 71
     7
 72
     1
  1
{\fＭＳ ゴシック|b0|i0|c128|p49;2,233}
 11
6.123031769111886E-17
 21
1.0
 31
0.0
 73
     1
 44
1.0
  0
MTEXT
  5
466
330
1F
100
AcDbEntity
  8
0-A_文字
  6
Continuous
 62
     7
370
     9
100
AcDbMText
 10
-2010.684957613004
 20
-1527.80654638342
 30
0.0
 40
45.72
 41
180.0
 46
0.0
 71
     7
 72
     1
  1
{\fＭＳ ゴシック|b0|i0|c128|p49;▽床面}
 73
     1
 44
1.0
  0
LINE
  5
467
330
1F
100
AcDbEntity
  8
0-B_寸法
  6
Continuous
 62
   120
370
     5
100
AcDbLine
 10
-3176.684957613007
 20
712.3334536165811
 30
0.0
 11
-3076.684957613007
 21
712.3334536165811
 31
0.0
  0
LINE
  5
468
330
1F
100
AcDbEntity
  8
0-B_寸法
  6
Continuous
 62
   120
370
     5
100
AcDbLine
 10
-3176.684957613007
 20
-1520.666546383419
 30
0.0
 11
-3076.684957613007
 21
-1520.666546383419
 31
0.0
  0
LWPOLYLINE
  5
469
330
1F
100
AcDbEntity
  8
0-B_寸法
  6
Continuous
 62
     7
370
     9
100
AcDbPolyline
 90
        4
 70
     1
 43
2.0
 10
-3175.684957613007
 20
712.3334536165811
 42
0.4142135623731
 10
-3176.684957613007
 20
713.333453616581
 42
0.4142135623731
 10
-3177.684957613007
 20
712.3334536165811
 42
0.4142135623731
 10
-3176.684957613007
 20
711.3334536165812
 42
0.4142135623731
  0
LWPOLYLINE
  5
46A
330
1F
100
AcDbEntity
  8
0-B_寸法
  6
Continuous
 62
     7
370
     9
100
AcDbPolyline
 90
        4
 70
     1
 43
2.0
 10
-3175.684957613007
 20
-1520.666546383419
 42
0.4142135623731
 10
-3176.684957613007
 20
-1519.666546383419
 42
0.4142135623731
 10
-3177.684957613007
 20
-1520.666546383419
 42
0.4142135623731
 10
-3176.684957613007
 20
-1521.666546383419
 42
0.4142135623731
  0
LINE
  5
46B
330
1F
100
AcDbEntity
  8
0-B_寸法
  6
Continuous
 62
   120
370
     5
100
AcDbLine
 10
-3176.684957613007
 20
-1520.666546383419
 30
0.0
 11
-3176.684957613007
 21
712.3334536165811
 31
0.0
  0
MTEXT
  5
46C
330
1F
100
AcDbEntity
  8
0-B_寸法
  6
Continuous
 62
     7
370
   211
100
AcDbMText
 10
-3086.684957613007
 20
-1525.806539895488
 30
0.0
 40
45.72
 41
60.0
 46
0.0
 71
     7
 72
     1
  1
{\fＭＳ ゴシック|b0|i0|c128|p49;64}
 11
6.123031769111886E-17
 21
1.0
 31
0.0
 73
     1
 44
1.0
  0
LINE
  5
46D
330
1F
100
AcDbEntity
  8
0-B_寸法
  6
Continuous
 62
   120
370
     5
100
AcDbLine
 10
-3076.684957613007
 20
-1520.666546383419
 30
0.0
 11
-2876.684957613007
 21
-1520.666546383419
 31
0.0
  0
LINE
  5
46E
330
1F
100
AcDbEntity
  8
0-B_寸法
  6
Continuous
 62
   120
370
     5
100
AcDbLine
 10
-3076.684957613007
 20
-1456.666533407557
 30
0.0
 11
-2876.684957613007
 21
-1456.666533407557
 31
0.0
  0
LWPOLYLINE
  5
46F
330
1F
100
AcDbEntity
  8
0-B_寸法
  6
Continuous
 62
     7
370
     9
100
AcDbPolyline
 90
        4
 70
     1
 43
2.0
 10
-3075.684957613007
 20
-1520.666546383419
 42
0.4142135623731
 10
-3076.684957613007
 20
-1519.666546383419
 42
0.4142135623731
 10
-3077.684957613007
 20
-1520.666546383419
 42
0.4142135623731
 10
-3076.684957613007
 20
-1521.666546383419
 42
0.4142135623731
  0
LWPOLYLINE
  5
470
330
1F
100
AcDbEntity
  8
0-B_寸法
  6
Continuous
 62
     7
370
     9
100
AcDbPolyline
 90
        4
 70
     1
 43
2.0
 10
-3075.684957613007
 20
-1456.666533407557
 42
0.4142135623731
 10
-3076.684957613007
 20
-1455.666533407557
 42
0.4142135623731
 10
-3077.684957613007
 20
-1456.666533407557
 42
0.4142135623731
 10
-3076.684957613007
 20
-1457.666533407557
 42
0.4142135623731
  0
LINE
  5
471
330
1F
100
AcDbEntity
  8
0-B_寸法
  6
Continuous
 62
   120
370
     5
100
AcDbLine
 10
-3076.684957613007
 20
-1456.666533407557
 30
0.0
 11
-3076.684957613007
 21
-1520.666546383419
 31
0.0
  0
LINE
  5
472
330
1F
100
AcDbEntity
  8
0-A_文字
  6
Continuous
 62
     7
370
     9
100
AcDbLine
 10
-2852.689480812964
 20
-2070.66654638342
 30
0.0
 11
-2852.689480812964
 21
-1920.66654638342
 31
0.0
  0
LINE
  5
473
330
1F
100
AcDbEntity
  8
0-A_文字
  6
Continuous
 62
     7
370
     9
100
AcDbLine
 10
-2002.689480812961
 20
-2070.66654638342
 30
0.0
 11
-2852.689480812964
 21
-2070.66654638342
 31
0.0
  0
LINE
  5
474
330
1F
100
AcDbEntity
  8
0-A_文字
  6
Continuous
 62
     7
370
     9
100
AcDbLine
 10
-2002.689480812961
 20
-1920.66654638342
 30
0.0
 11
-2002.689480812961
 21
-2070.66654638342
 31
0.0
  0
LINE
  5
475
330
1F
100
AcDbEntity
  8
0-A_文字
  6
Continuous
 62
     7
370
     9
100
AcDbLine
 10
-2852.689480812964
 20
-1920.66654638342
 30
0.0
 11
-2002.689480812961
 21
-1920.66654638342
 31
0.0
  0
LINE
  5
476
330
1F
100
AcDbEntity
  8
0-3_扉仕上
  6
Continuous
 62
     7
370
     9
100
AcDbLine
 10
-2826.684957613007
 20
-1520.66654638342
 30
0.0
 11
-1830.684957613004
 21
-1520.66654638342
 31
0.0
  0
LWPOLYLINE
  5
477
330
1F
100
AcDbEntity
  8
0-B_寸法
  6
Continuous
 62
     7
370
     9
100
AcDbPolyline
 90
        4
 70
     1
 43
2.0
 10
-2825.684957613007
 20
-1670.666546383419
 42
0.4142135623731
 10
-2826.684957613007
 20
-1669.666546383419
 42
0.4142135623731
 10
-2827.684957613007
 20
-1670.666546383419
 42
0.4142135623731
 10
-2826.684957613007
 20
-1671.666546383419
 42
0.4142135623731
  0
LINE
  5
478
330
1F
100
AcDbEntity
  8
0-B_寸法
  6
Continuous
 62
   120
370
     5
100
AcDbLine
 10
-2826.684957613007
 20
-1770.666546383419
 30
0.0
 11
-2826.684957613007
 21
-1570.666546383419
 31
0.0
  0
LWPOLYLINE
  5
479
330
1F
100
AcDbEntity
  8
0-B_寸法
  6
Continuous
 62
     7
370
     9
100
AcDbPolyline
 90
        4
 70
     1
 43
2.0
 10
-2029.684957613006
 20
-1670.666546383419
 42
0.4142135623731
 10
-2030.684957613006
 20
-1669.666546383419
 42
0.4142135623731
 10
-2031.684957613006
 20
-1670.666546383419
 42
0.4142135623731
 10
-2030.684957613006
 20
-1671.666546383419
 42
0.4142135623731
  0
LINE
  5
47A
330
1F
100
AcDbEntity
  8
0-B_寸法
  6
Continuous
 62
   120
370
     5
100
AcDbLine
 10
-2030.684957613006
 20
-1770.666546383419
 30
0.0
 11
-2030.684957613006
 21
-1570.666546383419
 31
0.0
  0
LINE
  5
47B
330
1F
100
AcDbEntity
  8
0-B_寸法
  6
Continuous
 62
   120
370
     5
100
AcDbLine
 10
-2826.684957613007
 20
-1770.666546383419
 30
0.0
 11
-2030.684957613006
 21
-1770.666546383419
 31
0.0
  0
LWPOLYLINE
  5
47C
330
1F
100
AcDbEntity
  8
0-B_寸法
  6
Continuous
 62
     7
370
     9
100
AcDbPolyline
 90
        4
 70
     1
 43
2.0
 10
-2825.684957613007
 20
-1770.666546383419
 42
0.4142135623731
 10
-2826.684957613007
 20
-1769.666546383419
 42
0.4142135623731
 10
-2827.684957613007
 20
-1770.666546383419
 42
0.4142135623731
 10
-2826.684957613007
 20
-1771.666546383419
 42
0.4142135623731
  0
LWPOLYLINE
  5
47D
330
1F
100
AcDbEntity
  8
0-B_寸法
  6
Continuous
 62
     7
370
     9
100
AcDbPolyline
 90
        4
 70
     1
 43
2.0
 10
-2029.684957613006
 20
-1770.666546383419
 42
0.4142135623731
 10
-2030.684957613006
 20
-1769.666546383419
 42
0.4142135623731
 10
-2031.684957613006
 20
-1770.666546383419
 42
0.4142135623731
 10
-2030.684957613006
 20
-1771.666546383419
 42
0.4142135623731
  0
MTEXT
  5
47E
330
1F
100
AcDbEntity
  8
0-B_寸法
  6
Continuous
 62
     7
370
   211
100
AcDbMText
 10
-2473.684957613005
 20
-1767.806546383419
 30
0.0
 40
45.72
 41
90.0
 46
0.0
 71
     7
 72
     1
  1
{\fＭＳ ゴシック|b0|i0|c128|p49;796}
 73
     1
 44
1.0
  0
MTEXT
  5
47F
330
1F
100
AcDbEntity
  8
0-B_寸法
  6
Continuous
 62
     7
370
   211
100
AcDbMText
 10
305.3150423869931
 20
-1525.80654638342
 30
0.0
 40
45.72
 41
60.0
 46
0.0
 71
     7
 72
     1
  1
{\fＭＳ ゴシック|b0|i0|c128|p49;64}
 11
6.123031769111886E-17
 21
1.0
 31
0.0
 73
     1
 44
1.0
  0
LINE
  5
480
330
1F
100
AcDbEntity
  8
0-B_寸法
  6
Continuous
 62
   120
370
     5
100
AcDbLine
 10
315.3150423869931
 20
-1520.666546383419
 30
0.0
 11
515.3150423869931
 21
-1520.666546383419
 31
0.0
  0
LINE
  5
481
330
1F
100
AcDbEntity
  8
0-B_寸法
  6
Continuous
 62
   120
370
     5
100
AcDbLine
 10
315.3150423869931
 20
-1456.666546383419
 30
0.0
 11
515.3150423869931
 21
-1456.666546383419
 31
0.0
  0
LWPOLYLINE
  5
482
330
1F
100
AcDbEntity
  8
0-B_寸法
  6
Continuous
 62
     7
370
     9
100
AcDbPolyline
 90
        4
 70
     1
 43
2.0
 10
316.3150423869931
 20
-1520.666546383419
 42
0.4142135623731
 10
315.3150423869931
 20
-1519.666546383419
 42
0.4142135623731
 10
314.3150423869931
 20
-1520.666546383419
 42
0.4142135623731
 10
315.3150423869931
 20
-1521.666546383419
 42
0.4142135623731
  0
LWPOLYLINE
  5
483
330
1F
100
AcDbEntity
  8
0-B_寸法
  6
Continuous
 62
     7
370
     9
100
AcDbPolyline
 90
        4
 70
     1
 43
2.0
 10
316.3150423869931
 20
-1456.666546383419
 42
0.4142135623731
 10
315.3150423869931
 20
-1455.66654638342
 42
0.4142135623731
 10
314.3150423869931
 20
-1456.666546383419
 42
0.4142135623731
 10
315.3150423869931
 20
-1457.666546383419
 42
0.4142135623731
  0
LINE
  5
484
330
1F
100
AcDbEntity
  8
0-B_寸法
  6
Continuous
 62
   120
370
     5
100
AcDbLine
 10
315.3150423869931
 20
-1456.666546383419
 30
0.0
 11
315.3150423869931
 21
-1520.666546383419
 31
0.0
  0
LINE
  5
485
330
1F
100
AcDbEntity
  8
0-A_文字
  6
Continuous
 62
     7
370
     9
100
AcDbLine
 10
538.3150423869938
 20
-2070.66654638342
 30
0.0
 11
538.3150423869938
 21
-1920.66654638342
 31
0.0
  0
LINE
  5
486
330
1F
100
AcDbEntity
  8
0-A_文字
  6
Continuous
 62
     7
370
     9
100
AcDbLine
 10
1388.315042386994
 20
-2070.66654638342
 30
0.0
 11
538.3150423869938
 21
-2070.66654638342
 31
0.0
  0
LINE
  5
487
330
1F
100
AcDbEntity
  8
0-A_文字
  6
Continuous
 62
     7
370
     9
100
AcDbLine
 10
1388.315042386994
 20
-1920.66654638342
 30
0.0
 11
1388.315042386994
 21
-2070.66654638342
 31
0.0
  0
LINE
  5
488
330
1F
100
AcDbEntity
  8
0-A_文字
  6
Continuous
 62
     7
370
     9
100
AcDbLine
 10
538.3150423869938
 20
-1920.66654638342
 30
0.0
 11
1388.315042386994
 21
-1920.66654638342
 31
0.0
  0
MTEXT
  5
489
330
1F
100
AcDbEntity
  8
0-A_文字
  6
Continuous
 62
     7
370
     9
100
AcDbMText
 10
658.3150423869927
 20
-2064.019879716754
 30
0.0
 40
103.2933333333334
 41
610.0
 46
0.0
 71
     7
 72
     1
  1
{\fＭＳ ゴシック|b0|i0|c128|p49;ｷｬﾋﾞﾈｯﾄ図}
 73
     1
 44
1.0
  0
MTEXT
  5
48A
330
1F
100
AcDbEntity
  8
0-B_寸法
  6
Continuous
 62
     7
370
   211
100
AcDbMText
 10
1360.971792862052
 20
-1667.80654638342
 30
0.0
 40
45.72
 41
60.0
 46
0.0
 71
     7
 72
     1
  1
{\fＭＳ ゴシック|b0|i0|c128|p49;15}
 73
     1
 44
1.0
  0
MTEXT
  5
48B
330
1F
100
AcDbEntity
  8
0-B_寸法
  6
Continuous
 62
     7
370
   211
100
AcDbMText
 10
505.8164562749494
 20
-1667.80654638342
 30
0.0
 40
45.72
 41
60.0
 46
0.0
 71
     7
 72
     1
  1
{\fＭＳ ゴシック|b0|i0|c128|p49;15}
 73
     1
 44
1.0
  0
MTEXT
  5
48C
330
1F
100
AcDbEntity
  8
0-B_寸法
  6
Continuous
 62
     7
370
   211
100
AcDbMText
 10
918.315042386995
 20
-1767.806546383419
 30
0.0
 40
45.72
 41
90.0
 46
0.0
 71
     7
 72
     1
  1
{\fＭＳ ゴシック|b0|i0|c128|p49;796}
 73
     1
 44
1.0
  0
LWPOLYLINE
  5
48D
330
1F
100
AcDbEntity
  8
0-B_寸法
  6
Continuous
 62
     7
370
     9
100
AcDbPolyline
 90
        4
 70
     1
 43
2.0
 10
1362.315042386993
 20
-1770.666546383419
 42
0.4142135623731
 10
1361.315042386993
 20
-1769.666546383419
 42
0.4142135623731
 10
1360.315042386993
 20
-1770.666546383419
 42
0.4142135623731
 10
1361.315042386993
 20
-1771.666546383419
 42
0.4142135623731
  0
LWPOLYLINE
  5
48E
330
1F
100
AcDbEntity
  8
0-B_寸法
  6
Continuous
 62
     7
370
     9
100
AcDbPolyline
 90
        4
 70
     1
 43
2.0
 10
566.3150423869931
 20
-1770.666546383419
 42
0.4142135623731
 10
565.3150423869931
 20
-1769.666546383419
 42
0.4142135623731
 10
564.3150423869931
 20
-1770.666546383419
 42
0.4142135623731
 10
565.3150423869931
 20
-1771.666546383419
 42
0.4142135623731
  0
LINE
  5
48F
330
1F
100
AcDbEntity
  8
0-B_寸法
  6
Continuous
 62
   120
370
     5
100
AcDbLine
 10
565.3150423869931
 20
-1770.666546383419
 30
0.0
 11
1361.315042386993
 21
-1770.666546383419
 31
0.0
  0
LINE
  5
490
330
1F
100
AcDbEntity
  8
0-B_寸法
  6
Continuous
 62
   120
370
     5
100
AcDbLine
 10
1361.315042386993
 20
-1770.666546383419
 30
0.0
 11
1361.315042386993
 21
-1570.66654638342
 31
0.0
  0
LWPOLYLINE
  5
491
330
1F
100
AcDbEntity
  8
0-B_寸法
  6
Continuous
 62
     7
370
     9
100
AcDbPolyline
 90
        4
 70
     1
 43
2.0
 10
1362.315042386993
 20
-1670.66654638342
 42
0.4142135623731
 10
1361.315042386993
 20
-1669.66654638342
 42
0.4142135623731
 10
1360.315042386993
 20
-1670.66654638342
 42
0.4142135623731
 10
1361.315042386993
 20
-1671.66654638342
 42
0.4142135623731
  0
MTEXT
  5
492
330
1F
100
AcDbEntity
  8
0-B_寸法
  6
Continuous
 62
     7
370
   211
100
AcDbMText
 10
918.315042386995
 20
-1667.80654638342
 30
0.0
 40
45.72
 41
90.0
 46
0.0
 71
     7
 72
     1
  1
{\fＭＳ ゴシック|b0|i0|c128|p49;766}
 73
     1
 44
1.0
  0
LINE
  5
493
330
1F
100
AcDbEntity
  8
0-B_寸法
  6
Continuous
 62
   120
370
     5
100
AcDbLine
 10
1346.315042386993
 20
-1670.66654638342
 30
0.0
 11
1346.315042386993
 21
-1570.66654638342
 31
0.0
  0
LWPOLYLINE
  5
494
330
1F
100
AcDbEntity
  8
0-B_寸法
  6
Continuous
 62
     7
370
     9
100
AcDbPolyline
 90
        4
 70
     1
 43
2.0
 10
1347.315042386993
 20
-1670.66654638342
 42
0.4142135623731
 10
1346.315042386993
 20
-1669.66654638342
 42
0.4142135623731
 10
1345.315042386993
 20
-1670.66654638342
 42
0.4142135623731
 10
1346.315042386993
 20
-1671.66654638342
 42
0.4142135623731
  0
LINE
  5
495
330
1F
100
AcDbEntity
  8
0-B_寸法
  6
Continuous
 62
   120
370
     5
100
AcDbLine
 10
580.3150423869931
 20
-1670.66654638342
 30
0.0
 11
580.3150423869931
 21
-1570.66654638342
 31
0.0
  0
LINE
  5
496
330
1F
100
AcDbEntity
  8
0-B_寸法
  6
Continuous
 62
   120
370
     5
100
AcDbLine
 10
565.3150423869931
 20
-1770.666546383419
 30
0.0
 11
565.3150423869931
 21
-1570.66654638342
 31
0.0
  0
LWPOLYLINE
  5
497
330
1F
100
AcDbEntity
  8
0-B_寸法
  6
Continuous
 62
     7
370
     9
100
AcDbPolyline
 90
        4
 70
     1
 43
2.0
 10
581.3150423869931
 20
-1670.66654638342
 42
0.4142135623731
 10
580.3150423869931
 20
-1669.66654638342
 42
0.4142135623731
 10
579.3150423869931
 20
-1670.66654638342
 42
0.4142135623731
 10
580.3150423869931
 20
-1671.66654638342
 42
0.4142135623731
  0
LWPOLYLINE
  5
498
330
1F
100
AcDbEntity
  8
0-B_寸法
  6
Continuous
 62
     7
370
     9
100
AcDbPolyline
 90
        4
 70
     1
 43
2.0
 10
566.3150423869931
 20
-1670.66654638342
 42
0.4142135623731
 10
565.3150423869931
 20
-1669.66654638342
 42
0.4142135623731
 10
564.3150423869931
 20
-1670.66654638342
 42
0.4142135623731
 10
565.3150423869931
 20
-1671.66654638342
 42
0.4142135623731
  0
LINE
  5
499
330
1F
100
AcDbEntity
  8
0-B_寸法
  6
Continuous
 62
   120
370
     5
100
AcDbLine
 10
565.3150423869931
 20
-1670.66654638342
 30
0.0
 11
1361.315042386993
 21
-1670.66654638342
 31
0.0
  0
MTEXT
  5
49A
330
1F
100
AcDbEntity
  8
0-A_文字
  6
Continuous
 62
     7
370
     9
100
AcDbMText
 10
2044.815138086991
 20
-2066.680832097704
 30
0.0
 40
97.97142857142858
 41
900.0
 46
0.0
 71
     7
 72
     1
  1
{\fＭＳ ゴシック|b0|i0|c128|p49;Ａ－Ａ’断面図}
 73
     1
 44
1.0
  0
LINE
  5
49B
330
1F
100
AcDbEntity
  8
0-A_文字
  6
Continuous
 62
     7
370
     9
100
AcDbLine
 10
3014.815138086993
 20
-2070.666546383419
 30
0.0
 11
1974.815138086994
 21
-2070.666546383419
 31
0.0
  0
LINE
  5
49C
330
1F
100
AcDbEntity
  8
0-A_文字
  6
Continuous
 62
     7
370
     9
100
AcDbLine
 10
1974.815138086994
 20
-1920.666546383419
 30
0.0
 11
3014.815138086993
 21
-1920.666546383419
 31
0.0
  0
LINE
  5
49D
330
1F
100
AcDbEntity
  8
0-A_文字
  6
Continuous
 62
     7
370
     9
100
AcDbLine
 10
1974.815138086994
 20
-1920.666546383419
 30
0.0
 11
1974.815138086994
 21
-2070.666546383419
 31
0.0
  0
LINE
  5
49E
330
1F
100
AcDbEntity
  8
0-A_文字
  6
Continuous
 62
     7
370
     9
100
AcDbLine
 10
3014.815138086993
 20
-1920.666546383419
 30
0.0
 11
3014.815138086993
 21
-2070.666546383419
 31
0.0
  0
MTEXT
  5
49F
330
1F
100
AcDbEntity
  8
0-A_文字
  6
Continuous
 62
     7
370
   211
100
AcDbMText
 10
1814.508604170925
 20
-2255.756403422419
 30
0.0
 40
45.72000000000001
 41
1890.0
 46
0.0
 71
     7
 72
     1
  1
{\fＭＳ ゴシック|b0|i0|c128|p49;※下地用の木桟木は105m/m×30m/m以上の堅い木を使用してください。}
 73
     1
 44
1.0
  0
MTEXT
  5
4A0
330
1F
100
AcDbEntity
  8
0-A_文字
  6
Continuous
 62
     7
370
   211
100
AcDbMText
 10
1814.508604170923
 20
-2181.620953508248
 30
0.0
 40
45.71999999999998
 41
1050.0
 46
0.0
 71
     7
 72
     1
  1
{\fＭＳ ゴシック|b0|i0|c128|p49;※棚板は可動式32m/mピッチで調整可能}
 73
     1
 44
1.0
  0
LINE
  5
4A1
330
1F
100
AcDbEntity
  8
0-6_桟木
  6
Continuous
 62
    92
370
    13
100
AcDbLine
 10
2728.315233786996
 20
-1520.666546383417
 30
0.0
 11
2758.315233786996
 21
-1520.666546383417
 31
0.0
  0
LINE
  5
4A2
330
1F
100
AcDbEntity
  8
0-6_桟木
  6
Continuous
 62
    40
370
    15
100
AcDbLine
 10
2728.315233693918
 20
-1377.666526588232
 30
0.0
 11
2728.315233693918
 21
-1451.666546383418
 31
0.0
  0
LINE
  5
4A3
330
1F
100
AcDbEntity
  8
0-6_桟木
  6
Continuous
 62
     7
370
     9
100
AcDbLine
 10
2728.315233693918
 20
-1451.666526588233
 30
0.0
 11
2728.315233693918
 21
-1377.666526588232
 31
0.0
  0
LINE
  5
4A4
330
1F
100
AcDbEntity
  8
0-6_桟木
  6
Continuous
 62
    92
370
    13
100
AcDbLine
 10
2728.315233786996
 20
-1377.666546383416
 30
0.0
 11
2728.315233786996
 21
-1520.666546383417
 31
0.0
  0
LINE
  5
4A5
330
1F
100
AcDbEntity
  8
0-6_桟木
  6
Continuous
 62
    92
370
    13
100
AcDbLine
 10
2758.315233786996
 20
-1377.666546383416
 30
0.0
 11
2728.315233786996
 21
-1377.666546383416
 31
0.0
  0
LINE
  5
4A6
330
1F
100
AcDbEntity
  8
0-6_桟木
  6
Continuous
 62
    92
370
    13
100
AcDbLine
 10
2758.315233786996
 20
-1520.666546383417
 30
0.0
 11
2758.315233786996
 21
-1377.666546383416
 31
0.0
  0
LINE
  5
4A7
330
1F
100
AcDbEntity
  8
0-6_桟木
  6
Continuous
 62
     7
370
     9
100
AcDbLine
 10
2728.315233786996
 20
-1520.666546383417
 30
0.0
 11
2758.315233786996
 21
-1377.666546383416
 31
0.0
  0
LINE
  5
4A8
330
1F
100
AcDbEntity
  8
0-6_桟木
  6
Continuous
 62
     7
370
     9
100
AcDbLine
 10
2728.315233786996
 20
-1377.666546383416
 30
0.0
 11
2758.315233786996
 21
-1520.666546383417
 31
0.0
  0
LINE
  5
4A9
330
1F
100
AcDbEntity
  8
0-B_寸法
  6
Continuous
 62
   120
370
     5
100
AcDbLine
 10
2878.315233786994
 20
-1520.666546383417
 30
0.0
 11
2878.315233786994
 21
-1377.666546383416
 31
0.0
  0
LWPOLYLINE
  5
4AA
330
1F
100
AcDbEntity
  8
0-B_寸法
  6
Continuous
 62
     7
370
     9
100
AcDbPolyline
 90
        4
 70
     1
 43
2.0
 10
2879.315233786995
 20
-1520.666546383417
 42
0.4142135623731
 10
2878.315233786994
 20
-1519.666546383417
 42
0.4142135623731
 10
2877.315233786994
 20
-1520.666546383417
 42
0.4142135623731
 10
2878.315233786994
 20
-1521.666546383417
 42
0.4142135623731
  0
LWPOLYLINE
  5
4AB
330
1F
100
AcDbEntity
  8
0-B_寸法
  6
Continuous
 62
     7
370
     9
100
AcDbPolyline
 90
        4
 70
     1
 43
2.0
 10
2879.315233786995
 20
-1377.666546383416
 42
0.4142135623731
 10
2878.315233786994
 20
-1376.666546383416
 42
0.4142135623731
 10
2877.315233786994
 20
-1377.666546383416
 42
0.4142135623731
 10
2878.315233786994
 20
-1378.666546383416
 42
0.4142135623731
  0
LINE
  5
4AC
330
1F
100
AcDbEntity
  8
0-B_寸法
  6
Continuous
 62
   120
370
     5
100
AcDbLine
 10
2878.315233786994
 20
-1520.666546383417
 30
0.0
 11
2778.315233786993
 21
-1520.666546383417
 31
0.0
  0
LINE
  5
4AD
330
1F
100
AcDbEntity
  8
0-B_寸法
  6
Continuous
 62
   120
370
     5
100
AcDbLine
 10
2878.315233786994
 20
-1377.666546383416
 30
0.0
 11
2778.315233786993
 21
-1377.666546383416
 31
0.0
  0
MTEXT
  5
4AE
330
1F
100
AcDbEntity
  8
0-B_寸法
  6
Continuous
 62
     7
370
   211
100
AcDbMText
 10
2868.315233786997
 20
-1501.306546383416
 30
0.0
 40
45.72
 41
90.0
 46
0.0
 71
     7
 72
     1
  1
{\fＭＳ ゴシック|b0|i0|c128|p49;143}
 11
6.123031769111886E-17
 21
1.0
 31
0.0
 73
     1
 44
1.0
  0
LINE
  5
4AF
330
1F
100
AcDbEntity
  8
0-B_寸法
  6
Continuous
 62
   120
370
     5
100
AcDbLine
 10
2878.315233786994
 20
-1377.666546383416
 30
0.0
 11
2878.315233786994
 21
607.3334536165817
 31
0.0
  0
LWPOLYLINE
  5
4B0
330
1F
100
AcDbEntity
  8
0-B_寸法
  6
Continuous
 62
     7
370
     9
100
AcDbPolyline
 90
        4
 70
     1
 43
2.0
 10
2879.315233786995
 20
607.3334536165817
 42
0.4142135623731
 10
2878.315233786994
 20
608.3334536165817
 42
0.4142135623731
 10
2877.315233786994
 20
607.3334536165817
 42
0.4142135623731
 10
2878.315233786994
 20
606.3334536165817
 42
0.4142135623731
  0
LINE
  5
4B1
330
1F
100
AcDbEntity
  8
0-B_寸法
  6
Continuous
 62
   120
370
     5
100
AcDbLine
 10
2878.315233786994
 20
607.3334536165817
 30
0.0
 11
2778.315233786993
 21
607.3334536165817
 31
0.0
  0
MTEXT
  5
4B2
330
1F
100
AcDbEntity
  8
0-B_寸法
  6
Continuous
 62
     7
370
   211
100
AcDbMText
 10
2868.315233786997
 20
-467.3065463834166
 30
0.0
 40
45.72
 41
150.0
 46
0.0
 71
     7
 72
     1
  1
{\fＭＳ ゴシック|b0|i0|c128|p49;1,985}
 11
6.123031769111886E-17
 21
1.0
 31
0.0
 73
     1
 44
1.0
  0
LINE
  5
4B3
330
1F
100
AcDbEntity
  8
0-B_寸法
  6
Continuous
 62
   120
370
     5
100
AcDbLine
 10
2878.315233786994
 20
607.3334536165817
 30
0.0
 11
2878.315233786994
 21
712.3334536165817
 31
0.0
  0
LWPOLYLINE
  5
4B4
330
1F
100
AcDbEntity
  8
0-B_寸法
  6
Continuous
 62
     7
370
     9
100
AcDbPolyline
 90
        4
 70
     1
 43
2.0
 10
2879.315233786995
 20
712.3334536165817
 42
0.4142135623731
 10
2878.315233786994
 20
713.3334536165817
 42
0.4142135623731
 10
2877.315233786994
 20
712.3334536165817
 42
0.4142135623731
 10
2878.315233786994
 20
711.3334536165817
 42
0.4142135623731
  0
LINE
  5
4B5
330
1F
100
AcDbEntity
  8
0-B_寸法
  6
Continuous
 62
   120
370
     5
100
AcDbLine
 10
2878.315233786994
 20
712.3334536165817
 30
0.0
 11
2778.315233786993
 21
712.3334536165817
 31
0.0
  0
MTEXT
  5
4B6
330
1F
100
AcDbEntity
  8
0-B_寸法
  6
Continuous
 62
     7
370
   211
100
AcDbMText
 10
2868.315233786997
 20
607.6934536165822
 30
0.0
 40
45.72
 41
90.0
 46
0.0
 71
     7
 72
     1
  1
{\fＭＳ ゴシック|b0|i0|c128|p49;105}
 11
6.123031769111886E-17
 21
1.0
 31
0.0
 73
     1
 44
1.0
  0
LINE
  5
4B7
330
1F
100
AcDbEntity
  8
0-B_寸法
  6
Continuous
 62
   120
370
     5
100
AcDbLine
 10
2978.315233786994
 20
-1449.166546383417
 30
0.0
 11
2978.315233786994
 21
659.8334536165817
 31
0.0
  0
LWPOLYLINE
  5
4B8
330
1F
100
AcDbEntity
  8
0-B_寸法
  6
Continuous
 62
     7
370
     9
100
AcDbPolyline
 90
        4
 70
     1
 43
2.0
 10
2979.315233786995
 20
-1449.166546383417
 42
0.4142135623731
 10
2978.315233786994
 20
-1448.166546383417
 42
0.4142135623731
 10
2977.315233786994
 20
-1449.166546383417
 42
0.4142135623731
 10
2978.315233786994
 20
-1450.166546383416
 42
0.4142135623731
  0
LWPOLYLINE
  5
4B9
330
1F
100
AcDbEntity
  8
0-B_寸法
  6
Continuous
 62
     7
370
     9
100
AcDbPolyline
 90
        4
 70
     1
 43
2.0
 10
2979.315233786995
 20
659.8334536165817
 42
0.4142135623731
 10
2978.315233786994
 20
660.8334536165817
 42
0.4142135623731
 10
2977.315233786994
 20
659.8334536165817
 42
0.4142135623731
 10
2978.315233786994
 20
658.8334536165817
 42
0.4142135623731
  0
LINE
  5
4BA
330
1F
100
AcDbEntity
  8
0-B_寸法
  6
Continuous
 62
   120
370
     5
100
AcDbLine
 10
2978.315233786994
 20
-1449.166546383417
 30
0.0
 11
2878.315233786994
 21
-1449.166546383417
 31
0.0
  0
LINE
  5
4BB
330
1F
100
AcDbEntity
  8
0-B_寸法
  6
Continuous
 62
   120
370
     5
100
AcDbLine
 10
2978.315233786994
 20
659.8334536165817
 30
0.0
 11
2878.315233786994
 21
659.8334536165817
 31
0.0
  0
MTEXT
  5
4BC
330
1F
100
AcDbEntity
  8
0-B_寸法
  6
Continuous
 62
     7
370
   211
100
AcDbMText
 10
2968.315233786994
 20
-476.8065463834182
 30
0.0
 40
45.72
 41
150.0
 46
0.0
 71
     7
 72
     1
  1
{\fＭＳ ゴシック|b0|i0|c128|p49;2,109}
 11
6.123031769111886E-17
 21
1.0
 31
0.0
 73
     1
 44
1.0
  0
LINE
  5
4BD
330
1F
100
AcDbEntity
  8
0-9__
  6
Continuous
 62
     7
370
     9
100
AcDbLine
 10
2728.315233786993
 20
671.333453616578
 30
0.0
 11
2728.315233786993
 21
607.3334536165788
 31
0.0
  0
LINE
  5
4BE
330
1F
100
AcDbEntity
  8
0-6_桟木
  6
Continuous
 62
    92
370
    13
100
AcDbLine
 10
2728.315233786996
 20
607.3334536165817
 30
0.0
 11
2758.315233786996
 21
607.3334536165817
 31
0.0
  0
LINE
  5
4BF
330
1F
100
AcDbEntity
  8
0-6_桟木
  6
Continuous
 62
    40
370
    15
100
AcDbLine
 10
2728.315233693918
 20
712.3334734117657
 30
0.0
 11
2728.315233693918
 21
676.3334536165803
 31
0.0
  0
LINE
  5
4C0
330
1F
100
AcDbEntity
  8
0-6_桟木
  6
Continuous
 62
     7
370
     9
100
AcDbLine
 10
2728.315233693918
 20
676.333473411766
 30
0.0
 11
2728.315233693918
 21
712.3334734117657
 31
0.0
  0
LINE
  5
4C1
330
1F
100
AcDbEntity
  8
0-6_桟木
  6
Continuous
 62
    92
370
    13
100
AcDbLine
 10
2728.315233786996
 20
712.3334536165817
 30
0.0
 11
2728.315233786996
 21
607.3334536165817
 31
0.0
  0
LINE
  5
4C2
330
1F
100
AcDbEntity
  8
0-6_桟木
  6
Continuous
 62
    92
370
    13
100
AcDbLine
 10
2758.315233786996
 20
712.3334536165817
 30
0.0
 11
2728.315233786996
 21
712.3334536165817
 31
0.0
  0
LINE
  5
4C3
330
1F
100
AcDbEntity
  8
0-6_桟木
  6
Continuous
 62
    92
370
    13
100
AcDbLine
 10
2758.315233786996
 20
607.3334536165817
 30
0.0
 11
2758.315233786996
 21
712.3334536165817
 31
0.0
  0
LINE
  5
4C4
330
1F
100
AcDbEntity
  8
0-6_桟木
  6
Continuous
 62
     7
370
     9
100
AcDbLine
 10
2728.315233786996
 20
607.3334536165817
 30
0.0
 11
2758.315233786996
 21
712.3334536165817
 31
0.0
  0
LINE
  5
4C5
330
1F
100
AcDbEntity
  8
0-6_桟木
  6
Continuous
 62
     7
370
     9
100
AcDbLine
 10
2728.315233786996
 20
712.3334536165817
 30
0.0
 11
2758.315233786996
 21
607.3334536165817
 31
0.0
  0
MTEXT
  5
4C6
330
1F
100
AcDbEntity
  8
0-B_寸法
  6
Continuous
 62
     7
370
   211
100
AcDbMText
 10
2005.315233786995
 20
-1525.806546383421
 30
0.0
 40
45.72
 41
60.0
 46
0.0
 71
     7
 72
     1
  1
{\fＭＳ ゴシック|b0|i0|c128|p49;64}
 11
6.123031769111886E-17
 21
1.0
 31
0.0
 73
     1
 44
1.0
  0
LINE
  5
4C7
330
1F
100
AcDbEntity
  8
0-B_寸法
  6
Continuous
 62
   120
370
     5
100
AcDbLine
 10
2011.315233786994
 20
-1520.666546383419
 30
0.0
 11
2311.315233786994
 21
-1520.666546383419
 31
0.0
  0
LINE
  5
4C8
330
1F
100
AcDbEntity
  8
0-B_寸法
  6
Continuous
 62
   120
370
     5
100
AcDbLine
 10
2011.315233786994
 20
-1456.666546383419
 30
0.0
 11
2311.315233786994
 21
-1456.666546383419
 31
0.0
  0
LWPOLYLINE
  5
4C9
330
1F
100
AcDbEntity
  8
0-B_寸法
  6
Continuous
 62
     7
370
     9
100
AcDbPolyline
 90
        4
 70
     1
 43
2.0
 10
2012.315233786994
 20
-1520.666546383419
 42
0.4142135623731
 10
2011.315233786994
 20
-1519.666546383419
 42
0.4142135623731
 10
2010.315233786994
 20
-1520.666546383419
 42
0.4142135623731
 10
2011.315233786994
 20
-1521.666546383419
 42
0.4142135623731
  0
LWPOLYLINE
  5
4CA
330
1F
100
AcDbEntity
  8
0-B_寸法
  6
Continuous
 62
     7
370
     9
100
AcDbPolyline
 90
        4
 70
     1
 43
2.0
 10
2012.315233786994
 20
-1456.666546383419
 42
0.4142135623731
 10
2011.315233786994
 20
-1455.66654638342
 42
0.4142135623731
 10
2010.315233786994
 20
-1456.666546383419
 42
0.4142135623731
 10
2011.315233786994
 20
-1457.666546383419
 42
0.4142135623731
  0
LINE
  5
4CB
330
1F
100
AcDbEntity
  8
0-B_寸法
  6
Continuous
 62
   120
370
     5
100
AcDbLine
 10
2011.315233786994
 20
-1456.666546383419
 30
0.0
 11
2011.315233786994
 21
-1520.666546383419
 31
0.0
  0
LINE
  5
4CC
330
1F
100
AcDbEntity
  8
0-B_寸法
  6
Continuous
 62
   120
370
     5
100
AcDbLine
 10
2728.315233786993
 20
-1770.666546383419
 30
0.0
 11
2728.315233786993
 21
-1570.666546383419
 31
0.0
  0
LWPOLYLINE
  5
4CD
330
1F
100
AcDbEntity
  8
0-B_寸法
  6
Continuous
 62
     7
370
     9
100
AcDbPolyline
 90
        4
 70
     1
 43
2.0
 10
2729.315233786993
 20
-1670.666546383419
 42
0.4142135623731
 10
2728.315233786993
 20
-1669.666546383419
 42
0.4142135623731
 10
2727.315233786993
 20
-1670.666546383419
 42
0.4142135623731
 10
2728.315233786993
 20
-1671.666546383419
 42
0.4142135623731
  0
MTEXT
  5
4CE
330
1F
100
AcDbEntity
  8
0-B_寸法
  6
Continuous
 62
     7
370
   211
100
AcDbMText
 10
2510.815233786993
 20
-1767.806546383419
 30
0.0
 40
45.72
 41
90.0
 46
0.0
 71
     7
 72
     1
  1
{\fＭＳ ゴシック|b0|i0|c128|p49;345}
 73
     1
 44
1.0
  0
LINE
  5
4CF
330
1F
100
AcDbEntity
  8
0-B_寸法
  6
Continuous
 62
   120
370
     5
100
AcDbLine
 10
2383.315233786996
 20
-1770.666546383419
 30
0.0
 11
2383.315233786996
 21
-1570.666546383419
 31
0.0
  0
LWPOLYLINE
  5
4D0
330
1F
100
AcDbEntity
  8
0-B_寸法
  6
Continuous
 62
     7
370
     9
100
AcDbPolyline
 90
        4
 70
     1
 43
2.0
 10
2384.315233786996
 20
-1770.666546383419
 42
0.4142135623731
 10
2383.315233786996
 20
-1769.666546383419
 42
0.4142135623731
 10
2382.315233786996
 20
-1770.666546383419
 42
0.4142135623731
 10
2383.315233786996
 20
-1771.666546383419
 42
0.4142135623731
  0
LWPOLYLINE
  5
4D1
330
1F
100
AcDbEntity
  8
0-B_寸法
  6
Continuous
 62
     7
370
     9
100
AcDbPolyline
 90
        4
 70
     1
 43
2.0
 10
2729.315233786993
 20
-1770.666546383419
 42
0.4142135623731
 10
2728.315233786993
 20
-1769.666546383419
 42
0.4142135623731
 10
2727.315233786993
 20
-1770.666546383419
 42
0.4142135623731
 10
2728.315233786993
 20
-1771.666546383419
 42
0.4142135623731
  0
LINE
  5
4D2
330
1F
100
AcDbEntity
  8
0-B_寸法
  6
Continuous
 62
   120
370
     5
100
AcDbLine
 10
2728.315233786993
 20
-1770.666546383419
 30
0.0
 11
2383.315233786996
 21
-1770.666546383419
 31
0.0
  0
LINE
  5
4D3
330
1F
100
AcDbEntity
  8
0-9__
  6
Continuous
 62
     7
370
     9
100
AcDbLine
 10
2728.315233786993
 20
-1456.666546383419
 30
0.0
 11
2728.315233786993
 21
-1520.666546383419
 31
0.0
  0
LINE
  5
4D4
330
1F
100
AcDbEntity
  8
0-9__
  6
Continuous
 62
     7
370
     9
100
AcDbLine
 10
2713.315233786993
 20
-1456.666546383419
 30
0.0
 11
2713.315233786993
 21
-1520.666546383419
 31
0.0
  0
LINE
  5
4D5
330
1F
100
AcDbEntity
  8
0-9__
  6
Continuous
 62
     7
370
     9
100
AcDbLine
 10
2728.315233786993
 20
-1520.666546383419
 30
0.0
 11
2423.315233786993
 21
-1520.666546383419
 31
0.0
  0
LINE
  5
4D6
330
1F
100
AcDbEntity
  8
0-9__
  6
Continuous
 62
     7
370
     9
100
AcDbLine
 10
2423.315233786993
 20
-1520.666546383419
 30
0.0
 11
2423.315233786993
 21
-1456.666546383419
 31
0.0
  0
LINE
  5
4D7
330
1F
100
AcDbEntity
  8
0-9__
  6
Continuous
 62
     7
370
     9
100
AcDbLine
 10
2423.315233786993
 20
-1456.666546383419
 30
0.0
 11
2728.315233786993
 21
-1456.666546383419
 31
0.0
  0
LINE
  5
4D8
330
1F
100
AcDbEntity
  8
0-9__
  6
Continuous
 62
     7
370
     9
100
AcDbLine
 10
2438.315233786993
 20
-1520.666546383419
 30
0.0
 11
2438.315233786993
 21
-1456.666546383419
 31
0.0
  0
LINE
  5
4D9
330
1F
100
AcDbEntity
  8
0-B_寸法
  6
Continuous
 62
   120
370
     5
100
AcDbLine
 10
2423.315233786993
 20
-1670.666546383419
 30
0.0
 11
2423.315233786993
 21
-1570.666546383419
 31
0.0
  0
LWPOLYLINE
  5
4DA
330
1F
100
AcDbEntity
  8
0-B_寸法
  6
Continuous
 62
     7
370
     9
100
AcDbPolyline
 90
        4
 70
     1
 43
2.0
 10
2424.315233786993
 20
-1670.666546383419
 42
0.4142135623731
 10
2423.315233786993
 20
-1669.666546383419
 42
0.4142135623731
 10
2422.315233786993
 20
-1670.666546383419
 42
0.4142135623731
 10
2423.315233786993
 20
-1671.666546383419
 42
0.4142135623731
  0
LINE
  5
4DB
330
1F
100
AcDbEntity
  8
0-B_寸法
  6
Continuous
 62
   120
370
     5
100
AcDbLine
 10
2728.315233786993
 20
-1670.666546383419
 30
0.0
 11
2423.315233786993
 21
-1670.666546383419
 31
0.0
  0
MTEXT
  5
4DC
330
1F
100
AcDbEntity
  8
0-B_寸法
  6
Continuous
 62
     7
370
   211
100
AcDbMText
 10
2440.815233786993
 20
-1667.806546383419
 30
0.0
 40
45.71999999999999
 41
270.0
 46
0.0
 71
     7
 72
     1
  1
{\fＭＳ ゴシック|b0|i0|c128|p49;台輪＝305}
 73
     1
 44
1.0
  0
LINE
  5
4DD
330
1F
100
AcDbEntity
  8
0-A_文字
  6
JWW_HOJO
 62
     7
370
     9
100
AcDbLine
 10
2978.315233786989
 20
-1520.666546383419
 30
0.0
 11
-3076.684957613007
 21
-1520.666546383419
 31
0.0
  0
LINE
  5
4DE
330
1F
100
AcDbEntity
  8
0-A_文字
  6
JWW_HOJO
 62
     7
370
     9
100
AcDbLine
 10
2978.315233786989
 20
712.3334536165811
 30
0.0
 11
-3076.684957613007
 21
712.3334536165811
 31
0.0
  0
LINE
  5
4DF
330
1F
100
AcDbEntity
  8
0-A_文字
  6
JWW_CENTER1
 62
     7
370
     9
100
AcDbLine
 10
-2826.684957613007
 20
712.3334536165811
 30
0.0
 11
2728.315233786991
 21
712.3334536165811
 31
0.0
  0
LINE
  5
4E0
330
1F
100
AcDbEntity
  8
0-0_補助線
  6
JWW_HOJO
 62
   120
370
     5
100
AcDbLine
 10
2978.315233786989
 20
-1570.666546383419
 30
0.0
 11
-3076.684957613007
 21
-1570.666546383419
 31
0.0
  0
LINE
  5
4E1
330
1F
100
AcDbEntity
  8
0-0_補助線
  6
JWW_HOJO
 62
   120
370
     5
100
AcDbLine
 10
2978.315233786989
 20
-1670.666546383419
 30
0.0
 11
-3076.684957613007
 21
-1670.666546383419
 31
0.0
  0
LINE
  5
4E2
330
1F
100
AcDbEntity
  8
0-0_補助線
  6
JWW_HOJO
 62
   120
370
     5
100
AcDbLine
 10
2978.315233786989
 20
-1770.666546383419
 30
0.0
 11
-3076.684957613007
 21
-1770.666546383419
 31
0.0
  0
LINE
  5
4E3
330
1F
100
AcDbEntity
  8
0-A_文字
  6
JWW_CENTER1
 62
     7
370
     9
100
AcDbLine
 10
-2826.684957613007
 20
-1520.666546383419
 30
0.0
 11
2728.315233786991
 21
-1520.666546383419
 31
0.0
  0
LINE
  5
4E4
330
1F
100
AcDbEntity
  8
0-B_寸法
  6
JWW_DASHED2
 62
   120
370
     5
100
AcDbLine
 10
2728.315233693918
 20
-1377.66654638342
 30
0.0
 11
-2826.684957613007
 21
-1377.66654638342
 31
0.0
  0
LINE
  5
4E5
330
1F
100
AcDbEntity
  8
0-B_寸法
  6
JWW_DASHED2
 62
   120
370
     5
100
AcDbLine
 10
2728.315233693918
 20
-1520.666546383417
 30
0.0
 11
-2826.684957613007
 21
-1520.666546383417
 31
0.0
  0
LINE
  5
4E6
330
1F
100
AcDbEntity
  8
0-B_寸法
  6
JWW_DASHED2
 62
   120
370
     5
100
AcDbLine
 10
2728.315233693918
 20
607.3334536165817
 30
0.0
 11
-2826.684957613007
 21
607.3334536165817
 31
0.0
  0
LINE
  5
4E7
330
1F
100
AcDbEntity
  8
0-B_寸法
  6
JWW_DASHED2
 62
   120
370
     5
100
AcDbLine
 10
2728.315233693918
 20
712.3334536165817
 30
0.0
 11
-2826.684957613007
 21
712.3334536165817
 31
0.0
  0
LINE
  5
4E8
330
1F
100
AcDbEntity
  8
0-B_寸法
  6
Continuous
 62
   120
370
     5
100
AcDbLine
 10
2728.315233786992
 20
1062.333473411765
 30
0.0
 11
2728.315233786992
 21
962.3334734117651
 31
0.0
  0
LWPOLYLINE
  5
4E9
330
1F
100
AcDbEntity
  8
0-B_寸法
  6
Continuous
 62
     7
370
     9
100
AcDbPolyline
 90
        4
 70
     1
 43
2.0
 10
2729.315233786992
 20
1062.333473411765
 42
0.4142135623731
 10
2728.315233786992
 20
1063.333473411765
 42
0.4142135623731
 10
2727.315233786992
 20
1062.333473411765
 42
0.4142135623731
 10
2728.315233786992
 20
1061.333473411765
 42
0.4142135623731
  0
LWPOLYLINE
  5
4EA
330
1F
100
AcDbEntity
  8
0-B_寸法
  6
Continuous
 62
     7
370
     9
100
AcDbPolyline
 90
        4
 70
     1
 43
2.0
 10
2383.315233786991
 20
962.3334734117651
 42
0.4142135623731
 10
2382.315233786991
 20
963.333473411765
 42
0.4142135623731
 10
2381.315233786991
 20
962.3334734117651
 42
0.4142135623731
 10
2382.315233786991
 20
961.3334734117652
 42
0.4142135623731
  0
LINE
  5
4EB
330
1F
100
AcDbEntity
  8
0-B_寸法
  6
Continuous
 62
   120
370
     5
100
AcDbLine
 10
2383.315233786994
 20
962.3334734117651
 30
0.0
 11
2382.315233786991
 21
962.3334734117651
 31
0.0
  0
LINE
  5
4EC
330
1F
100
AcDbEntity
  8
0-B_寸法
  6
Continuous
 62
   120
370
     5
100
AcDbLine
 10
2383.315233786994
 20
962.3334734117651
 30
0.0
 11
2383.315233786994
 21
862.3334734117651
 31
0.0
  0
LINE
  5
4ED
330
1F
100
AcDbEntity
  8
0-B_寸法
  6
Continuous
 62
   120
370
     5
100
AcDbLine
 10
2728.315233786992
 20
962.3334734117651
 30
0.0
 11
2728.315233786992
 21
862.3334734117651
 31
0.0
  0
LWPOLYLINE
  5
4EE
330
1F
100
AcDbEntity
  8
0-B_寸法
  6
Continuous
 62
     7
370
     9
100
AcDbPolyline
 90
        4
 70
     1
 43
2.0
 10
2384.315233786994
 20
962.3334734117651
 42
0.4142135623731
 10
2383.315233786994
 20
963.333473411765
 42
0.4142135623731
 10
2382.315233786995
 20
962.3334734117651
 42
0.4142135623731
 10
2383.315233786994
 20
961.3334734117652
 42
0.4142135623731
  0
LWPOLYLINE
  5
4EF
330
1F
100
AcDbEntity
  8
0-B_寸法
  6
Continuous
 62
     7
370
     9
100
AcDbPolyline
 90
        4
 70
     1
 43
2.0
 10
2729.315233786992
 20
962.3334734117651
 42
0.4142135623731
 10
2728.315233786992
 20
963.333473411765
 42
0.4142135623731
 10
2727.315233786992
 20
962.3334734117651
 42
0.4142135623731
 10
2728.315233786992
 20
961.3334734117652
 42
0.4142135623731
  0
LINE
  5
4F0
330
1F
100
AcDbEntity
  8
0-B_寸法
  6
Continuous
 62
   120
370
     5
100
AcDbLine
 10
2728.315233786992
 20
962.3334734117651
 30
0.0
 11
2383.315233786994
 21
962.3334734117651
 31
0.0
  0
LINE
  5
4F1
330
1F
100
AcDbEntity
  8
0-2_扉
  6
Continuous
 62
    40
370
    15
100
AcDbLine
 10
2382.315233786991
 20
709.333473411765
 30
0.0
 11
2382.315233786991
 21
-1453.666526588235
 31
0.0
  0
LINE
  5
4F2
330
1F
100
AcDbEntity
  8
0-B_寸法
  6
Continuous
 62
   120
370
     5
100
AcDbLine
 10
2382.315233786991
 20
962.3334734117651
 30
0.0
 11
2382.315233786991
 21
762.3334734117651
 31
0.0
  0
MTEXT
  5
4F3
330
1F
100
AcDbEntity
  8
0-B_寸法
  6
Continuous
 62
     7
370
   211
100
AcDbMText
 10
2368.315233786993
 20
965.1934734117651
 30
0.0
 40
45.72
 41
30.0
 46
0.0
 71
     7
 72
     1
  1
{\fＭＳ ゴシック|b0|i0|c128|p49;1}
 73
     1
 44
1.0
  0
MTEXT
  5
4F4
330
1F
100
AcDbEntity
  8
0-B_寸法
  6
Continuous
 62
     7
370
   211
100
AcDbMText
 10
2510.815233786994
 20
965.1934734117651
 30
0.0
 40
45.72
 41
90.0
 46
0.0
 71
     7
 72
     1
  1
{\fＭＳ ゴシック|b0|i0|c128|p49;345}
 73
     1
 44
1.0
  0
LWPOLYLINE
  5
4F5
330
1F
100
AcDbEntity
  8
0-B_寸法
  6
Continuous
 62
     7
370
     9
100
AcDbPolyline
 90
        4
 70
     1
 43
2.0
 10
416.3150423869926
 20
2083.063375902972
 42
0.4142135623731
 10
415.3150423869926
 20
2084.063375902972
 42
0.4142135623731
 10
414.3150423869926
 20
2083.063375902972
 42
0.4142135623731
 10
415.3150423869926
 20
2082.063375902972
 42
0.4142135623731
  0
LWPOLYLINE
  5
4F6
330
1F
100
AcDbEntity
  8
0-B_寸法
  6
Continuous
 62
     7
370
     9
100
AcDbPolyline
 90
        4
 70
     1
 43
2.0
 10
316.3150423869926
 20
2083.063375902972
 42
0.4142135623731
 10
315.3150423869926
 20
2084.063375902972
 42
0.4142135623731
 10
314.3150423869926
 20
2083.063375902972
 42
0.4142135623731
 10
315.3150423869926
 20
2082.063375902972
 42
0.4142135623731
  0
LINE
  5
4F7
330
1F
100
AcDbEntity
  8
0-B_寸法
  6
Continuous
 62
   120
370
     5
100
AcDbLine
 10
315.3150423869926
 20
2083.063375902972
 30
0.0
 11
515.3150423869926
 21
2083.063375902972
 31
0.0
  0
MTEXT
  5
4F8
330
1F
100
AcDbEntity
  8
0-B_寸法
  6
Continuous
 62
     7
370
   211
100
AcDbMText
 10
405.3150423869926
 20
1858.423521067667
 30
0.0
 40
45.72
 41
90.0
 46
0.0
 71
     7
 72
     1
  1
{\fＭＳ ゴシック|b0|i0|c128|p49;345}
 11
6.123031769111886E-17
 21
1.0
 31
0.0
 73
     1
 44
1.0
  0
MTEXT
  5
4F9
330
1F
100
AcDbEntity
  8
0-B_寸法
  6
Continuous
 62
     7
370
   211
100
AcDbMText
 10
405.3150423869926
 20
1715.423342910996
 30
0.0
 40
45.72
 41
30.0
 46
0.0
 71
     7
 72
     1
  1
{\fＭＳ ゴシック|b0|i0|c128|p49;1}
 11
6.123031769111886E-17
 21
1.0
 31
0.0
 73
     1
 44
1.0
  0
LWPOLYLINE
  5
4FA
330
1F
100
AcDbEntity
  8
0-B_寸法
  6
Continuous
 62
     7
370
     9
100
AcDbPolyline
 90
        4
 70
     1
 43
2.0
 10
-1279.684957613007
 20
2083.063375902972
 42
0.4142135623731
 10
-1280.684957613007
 20
2084.063375902972
 42
0.4142135623731
 10
-1281.684957613006
 20
2083.063375902972
 42
0.4142135623731
 10
-1280.684957613007
 20
2082.063375902972
 42
0.4142135623731
  0
LWPOLYLINE
  5
4FB
330
1F
100
AcDbEntity
  8
0-B_寸法
  6
Continuous
 62
     7
370
     9
100
AcDbPolyline
 90
        4
 70
     1
 43
2.0
 10
-1379.684957613007
 20
2083.063375902972
 42
0.4142135623731
 10
-1380.684957613007
 20
2084.063375902972
 42
0.4142135623731
 10
-1381.684957613006
 20
2083.063375902972
 42
0.4142135623731
 10
-1380.684957613007
 20
2082.063375902972
 42
0.4142135623731
  0
LINE
  5
4FC
330
1F
100
AcDbEntity
  8
0-B_寸法
  6
Continuous
 62
   120
370
     5
100
AcDbLine
 10
-1380.684957613007
 20
2083.063375902972
 30
0.0
 11
-1180.684957613007
 21
2083.063375902972
 31
0.0
  0
MTEXT
  5
4FD
330
1F
100
AcDbEntity
  8
0-B_寸法
  6
Continuous
 62
     7
370
   211
100
AcDbMText
 10
-1290.684957613007
 20
1858.423521067667
 30
0.0
 40
45.72
 41
90.0
 46
0.0
 71
     7
 72
     1
  1
{\fＭＳ ゴシック|b0|i0|c128|p49;345}
 11
6.123031769111886E-17
 21
1.0
 31
0.0
 73
     1
 44
1.0
  0
MTEXT
  5
4FE
330
1F
100
AcDbEntity
  8
0-B_寸法
  6
Continuous
 62
     7
370
   211
100
AcDbMText
 10
-1290.684957613007
 20
1715.423342910996
 30
0.0
 40
45.72
 41
30.0
 46
0.0
 71
     7
 72
     1
  1
{\fＭＳ ゴシック|b0|i0|c128|p49;1}
 11
6.123031769111886E-17
 21
1.0
 31
0.0
 73
     1
 44
1.0
  0
LINE
  5
4FF
330
1F
100
AcDbEntity
  8
0-3_扉仕上
  6
JWW_CENTER1
 62
     7
370
     9
100
AcDbLine
 10
-2426.684957613007
 20
709.3334734117656
 30
0.0
 11
-2032.684957613004
 21
-372.1665265882348
 31
0.0
  0
LINE
  5
500
330
1F
100
AcDbEntity
  8
0-3_扉仕上
  6
JWW_CENTER1
 62
     7
370
     9
100
AcDbLine
 10
-2032.684957613004
 20
-372.1665265882348
 30
0.0
 11
-2426.684957613007
 21
-1453.666526588235
 31
0.0
  0
LINE
  5
501
330
1F
100
AcDbEntity
  8
0-3_扉仕上
  6
JWW_CENTER1
 62
     7
370
     9
100
AcDbLine
 10
-2430.684957613003
 20
709.3334734117656
 30
0.0
 11
-2824.684957613004
 21
-372.1665265882348
 31
0.0
  0
LINE
  5
502
330
1F
100
AcDbEntity
  8
0-3_扉仕上
  6
JWW_CENTER1
 62
     7
370
     9
100
AcDbLine
 10
-2824.684957613004
 20
-372.1665265882348
 30
0.0
 11
-2430.684957613003
 21
-1453.666526588235
 31
0.0
  0
MTEXT
  5
503
330
1F
100
AcDbEntity
  8
0-A_文字
  6
Continuous
 62
     7
370
     9
100
AcDbMText
 10
643.0858320452343
 20
2123.486667710405
 30
0.0
 40
45.72
 41
90.0
 46
0.0
 71
     7
 72
     1
  1
{\fＭＳ ゴシック|b0|i0|c128|p49;Ａ }
 73
     1
 44
1.0
  0
MTEXT
  5
504
330
1F
100
AcDbEntity
  8
0-A_文字
  6
Continuous
 62
     7
370
     9
100
AcDbMText
 10
-2697.689480812962
 20
-2064.23154638342
 30
0.0
 40
102.87
 41
540.0
 46
0.0
 71
     7
 72
     1
  1
{\fＭＳ ゴシック|b0|i0|c128|p49;扉配置図}
 73
     1
 44
1.0
  0
MTEXT
  5
505
330
1F
100
AcDbEntity
  8
0-A_文字
  6
Continuous
 62
     7
370
   211
100
AcDbMText
 10
-1155.952380952381
 20
-2181.620953508248
 30
0.0
 40
45.72
 41
420.0
 46
0.0
 71
     7
 72
     1
  1
{\fＭＳ ゴシック|b0|i0|c128|p49;※中仕切りなし}
 73
     1
 44
1.0
  0
MTEXT
  5
506
330
1F
100
AcDbEntity
  8
0-A_文字
  6
Continuous
 62
     7
370
   211
100
AcDbMText
 10
540.0476190476206
 20
-2181.620953508248
 30
0.0
 40
45.72
 41
420.0
 46
0.0
 71
     7
 72
     1
  1
{\fＭＳ ゴシック|b0|i0|c128|p49;※中仕切りあり}
 73
     1
 44
1.0
  0
LINE
  5
507
330
1F
100
AcDbEntity
  8
0-9__
  6
Continuous
 62
     7
370
     9
100
AcDbLine
 10
-2826.184957613006
 20
-1520.666546383419
 30
0.0
 11
-2826.184957613006
 21
-1456.666546383419
 31
0.0
  0
LINE
  5
508
330
1F
100
AcDbEntity
  8
0-9__
  6
Continuous
 62
     7
370
     9
100
AcDbLine
 10
-2811.184957613006
 20
-1520.666546383419
 30
0.0
 11
-2811.184957613006
 21
-1456.666546383419
 31
0.0
  0
LINE
  5
509
330
1F
100
AcDbEntity
  8
0-B_寸法
  6
Continuous
 62
   120
370
     5
100
AcDbLine
 10
-2826.684957613007
 20
-1670.666546383419
 30
0.0
 11
-2826.184957613006
 21
-1670.666546383419
 31
0.0
  0
LWPOLYLINE
  5
50A
330
1F
100
AcDbEntity
  8
0-B_寸法
  6
Continuous
 62
     7
370
     9
100
AcDbPolyline
 90
        4
 70
     1
 43
2.0
 10
-2825.184957613006
 20
-1670.666546383419
 42
0.4142135623731
 10
-2826.184957613006
 20
-1669.666546383419
 42
0.4142135623731
 10
-2827.184957613006
 20
-1670.666546383419
 42
0.4142135623731
 10
-2826.184957613006
 20
-1671.666546383419
 42
0.4142135623731
  0
LINE
  5
50B
330
1F
100
AcDbEntity
  8
0-B_寸法
  6
Continuous
 62
   120
370
     5
100
AcDbLine
 10
-2826.184957613006
 20
-1670.666546383419
 30
0.0
 11
-2826.184957613006
 21
-1570.666546383419
 31
0.0
  0
MTEXT
  5
50C
330
1F
100
AcDbEntity
  8
0-B_寸法
  6
Continuous
 62
     7
370
   211
100
AcDbMText
 10
-2927.964080863547
 20
-1667.806546383419
 30
0.0
 40
45.72
 41
90.0
 46
0.0
 71
     7
 72
     1
  1
{\fＭＳ ゴシック|b0|i0|c128|p49;0.5}
 73
     1
 44
1.0
  0
MTEXT
  5
50D
330
1F
100
AcDbEntity
  8
0-B_寸法
  6
Continuous
 62
     7
370
   211
100
AcDbMText
 10
-2563.684957613005
 20
-1667.806546383419
 30
0.0
 40
45.71999999999999
 41
270.0
 46
0.0
 71
     7
 72
     1
  1
{\fＭＳ ゴシック|b0|i0|c128|p49;台輪＝795}
 73
     1
 44
1.0
  0
LINE
  5
50E
330
1F
100
AcDbEntity
  8
0-9__
  6
Continuous
 62
     7
370
     9
100
AcDbLine
 10
-2031.184957613007
 20
-1456.666546383419
 30
0.0
 11
-2031.184957613007
 21
-1520.666546383419
 31
0.0
  0
LINE
  5
50F
330
1F
100
AcDbEntity
  8
0-9__
  6
Continuous
 62
     7
370
     9
100
AcDbLine
 10
-2046.184957613007
 20
-1456.666546383419
 30
0.0
 11
-2046.184957613007
 21
-1520.666546383419
 31
0.0
  0
LWPOLYLINE
  5
510
330
1F
100
AcDbEntity
  8
0-B_寸法
  6
Continuous
 62
     7
370
     9
100
AcDbPolyline
 90
        4
 70
     1
 43
2.0
 10
-2030.184957613007
 20
-1670.666546383419
 42
0.4142135623731
 10
-2031.184957613007
 20
-1669.666546383419
 42
0.4142135623731
 10
-2032.184957613007
 20
-1670.666546383419
 42
0.4142135623731
 10
-2031.184957613007
 20
-1671.666546383419
 42
0.4142135623731
  0
LINE
  5
511
330
1F
100
AcDbEntity
  8
0-B_寸法
  6
Continuous
 62
   120
370
     5
100
AcDbLine
 10
-2031.184957613007
 20
-1670.666546383419
 30
0.0
 11
-2031.184957613007
 21
-1570.666546383419
 31
0.0
  0
LINE
  5
512
330
1F
100
AcDbEntity
  8
0-B_寸法
  6
Continuous
 62
   120
370
     5
100
AcDbLine
 10
-2031.184957613007
 20
-1670.666546383419
 30
0.0
 11
-2030.684957613006
 21
-1670.666546383419
 31
0.0
  0
LINE
  5
513
330
1F
100
AcDbEntity
  8
0-9__
  6
Continuous
 62
     7
370
     9
100
AcDbLine
 10
-2826.184957613006
 20
-1456.666546383419
 30
0.0
 11
-2031.184957613007
 21
-1456.666546383419
 31
0.0
  0
LINE
  5
514
330
1F
100
AcDbEntity
  8
0-9__
  6
Continuous
 62
     7
370
     9
100
AcDbLine
 10
-2031.184957613007
 20
-1520.666546383419
 30
0.0
 11
-2826.184957613006
 21
-1520.666546383419
 31
0.0
  0
LINE
  5
515
330
1F
100
AcDbEntity
  8
0-B_寸法
  6
Continuous
 62
   120
370
     5
100
AcDbLine
 10
-2826.184957613006
 20
-1670.666546383419
 30
0.0
 11
-2031.184957613007
 21
-1670.666546383419
 31
0.0
  0
MTEXT
  5
516
330
1F
100
AcDbEntity
  8
0-B_寸法
  6
Continuous
 62
     7
370
   211
100
AcDbMText
 10
-2020.480825057823
 20
-1667.806546383419
 30
0.0
 40
45.72
 41
90.0
 46
0.0
 71
     7
 72
     1
  1
{\fＭＳ ゴシック|b0|i0|c128|p49;0.5}
 73
     1
 44
1.0
  0
LINE
  5
517
330
1F
100
AcDbEntity
  8
0-9__
  6
Continuous
 62
     7
370
     9
100
AcDbLine
 10
-1130.184957613007
 20
-1520.666546383419
 30
0.0
 11
-1130.184957613007
 21
-1456.666546383419
 31
0.0
  0
LINE
  5
518
330
1F
100
AcDbEntity
  8
0-9__
  6
Continuous
 62
     7
370
     9
100
AcDbLine
 10
-1115.184957613007
 20
-1520.666546383419
 30
0.0
 11
-1115.184957613007
 21
-1456.666546383419
 31
0.0
  0
LINE
  5
519
330
1F
100
AcDbEntity
  8
0-9__
  6
Continuous
 62
     7
370
     9
100
AcDbLine
 10
-335.1849576130077
 20
-1456.666546383419
 30
0.0
 11
-335.1849576130077
 21
-1520.666546383419
 31
0.0
  0
LINE
  5
51A
330
1F
100
AcDbEntity
  8
0-9__
  6
Continuous
 62
     7
370
     9
100
AcDbLine
 10
-350.1849576130077
 20
-1456.666546383419
 30
0.0
 11
-350.1849576130077
 21
-1520.666546383419
 31
0.0
  0
LINE
  5
51B
330
1F
100
AcDbEntity
  8
0-9__
  6
Continuous
 62
     7
370
     9
100
AcDbLine
 10
-1130.184957613007
 20
-1456.666546383419
 30
0.0
 11
-335.1849576130077
 21
-1456.666546383419
 31
0.0
  0
LINE
  5
51C
330
1F
100
AcDbEntity
  8
0-9__
  6
Continuous
 62
     7
370
     9
100
AcDbLine
 10
-335.1849576130077
 20
-1520.666546383419
 30
0.0
 11
-1130.184957613007
 21
-1520.666546383419
 31
0.0
  0
LINE
  5
51D
330
1F
100
AcDbEntity
  8
0-9__
  6
Continuous
 62
     7
370
     9
100
AcDbLine
 10
565.8150423869928
 20
-1520.666546383419
 30
0.0
 11
565.8150423869928
 21
-1456.666546383419
 31
0.0
  0
LINE
  5
51E
330
1F
100
AcDbEntity
  8
0-9__
  6
Continuous
 62
     7
370
     9
100
AcDbLine
 10
580.8150423869928
 20
-1520.666546383419
 30
0.0
 11
580.8150423869928
 21
-1456.666546383419
 31
0.0
  0
LINE
  5
51F
330
1F
100
AcDbEntity
  8
0-9__
  6
Continuous
 62
     7
370
     9
100
AcDbLine
 10
1360.815042386993
 20
-1456.666546383419
 30
0.0
 11
1360.815042386993
 21
-1520.666546383419
 31
0.0
  0
LINE
  5
520
330
1F
100
AcDbEntity
  8
0-9__
  6
Continuous
 62
     7
370
     9
100
AcDbLine
 10
1345.815042386993
 20
-1456.666546383419
 30
0.0
 11
1345.815042386993
 21
-1520.666546383419
 31
0.0
  0
LINE
  5
521
330
1F
100
AcDbEntity
  8
0-9__
  6
Continuous
 62
     7
370
     9
100
AcDbLine
 10
565.8150423869928
 20
-1456.666546383419
 30
0.0
 11
1360.815042386993
 21
-1456.666546383419
 31
0.0
  0
LINE
  5
522
330
1F
100
AcDbEntity
  8
0-9__
  6
Continuous
 62
     7
370
     9
100
AcDbLine
 10
1360.815042386993
 20
-1520.666546383419
 30
0.0
 11
565.8150423869928
 21
-1520.666546383419
 31
0.0
  0
MTEXT
  5
523
330
1F
100
AcDbEntity
  8
F-A_文字
  6
Continuous
 62
     7
370
     0
100
AcDbMText
 10
3292.445195395262
 20
-2625.380673426644
 30
0.0
 40
52.57799999999999
 41
345.0
 46
0.0
 71
     7
 72
     1
  1
{\fＭＳ ゴシック|b0|i0|c128|p49;2024.04.01}
 73
     1
 44
1.0
  0
LINE
  5
524
330
1F
100
AcDbEntity
  8
0-2_扉
  6
Continuous
 62
    40
370
    15
100
AcDbLine
 10
1359.315042386994
 20
1737.063356107788
 30
0.0
 11
965.3150423869926
 21
1737.063356107788
 31
0.0
  0
LINE
  5
525
330
1F
100
AcDbEntity
  8
0-2_扉
  6
Continuous
 62
    40
370
    15
100
AcDbLine
 10
961.3150423869922
 20
1737.063356107788
 30
0.0
 11
567.3150423869913
 21
1737.063356107788
 31
0.0
  0
LINE
  5
526
330
1F
100
AcDbEntity
  8
0-2_扉
  6
Continuous
 62
    40
370
    15
100
AcDbLine
 10
-336.6849576130079
 20
1737.063356107788
 30
0.0
 11
-730.6849576130065
 21
1737.063356107788
 31
0.0
  0
LINE
  5
527
330
1F
100
AcDbEntity
  8
0-2_扉
  6
Continuous
 62
    40
370
    15
100
AcDbLine
 10
-734.6849576130074
 20
1737.063356107788
 30
0.0
 11
-1128.684957613007
 21
1737.063356107788
 31
0.0
  0
LINE
  5
528
330
1F
100
AcDbEntity
  8
0-2_扉
  6
Continuous
 62
    40
370
    15
100
AcDbLine
 10
567.3150423869913
 20
1737.063356107788
 30
0.0
 11
567.3150423869913
 21
1717.063356107789
 31
0.0
  0
LINE
  5
529
330
1F
100
AcDbEntity
  8
0-2_扉
  6
Continuous
 62
    40
370
    15
100
AcDbLine
 10
1359.315042386994
 20
1737.063356107788
 30
0.0
 11
1359.315042386994
 21
1717.063356107789
 31
0.0
  0
LINE
  5
52A
330
1F
100
AcDbEntity
  8
0-2_扉
  6
Continuous
 62
    40
370
    15
100
AcDbLine
 10
961.3150423869922
 20
1737.063356107788
 30
0.0
 11
961.3150423869922
 21
1717.063356107789
 31
0.0
  0
LINE
  5
52B
330
1F
100
AcDbEntity
  8
0-2_扉
  6
Continuous
 62
    40
370
    15
100
AcDbLine
 10
965.3150423869926
 20
1737.063356107788
 30
0.0
 11
965.3150423869926
 21
1717.063356107789
 31
0.0
  0
LINE
  5
52C
330
1F
100
AcDbEntity
  8
0-2_扉
  6
Continuous
 62
    40
370
    15
100
AcDbLine
 10
1359.315042386994
 20
1717.063356107789
 30
0.0
 11
965.3150423869926
 21
1717.063356107789
 31
0.0
  0
LINE
  5
52D
330
1F
100
AcDbEntity
  8
0-2_扉
  6
Continuous
 62
    40
370
    15
100
AcDbLine
 10
961.3150423869922
 20
1717.063356107789
 30
0.0
 11
567.3150423869913
 21
1717.063356107789
 31
0.0
  0
LINE
  5
52E
330
1F
100
AcDbEntity
  8
0-2_扉
  6
Continuous
 62
    40
370
    15
100
AcDbLine
 10
-1128.684957613007
 20
1737.063356107788
 30
0.0
 11
-1128.684957613007
 21
1717.063356107789
 31
0.0
  0
LINE
  5
52F
330
1F
100
AcDbEntity
  8
0-2_扉
  6
Continuous
 62
    40
370
    15
100
AcDbLine
 10
-336.6849576130079
 20
1737.063356107788
 30
0.0
 11
-336.6849576130079
 21
1717.063356107789
 31
0.0
  0
LINE
  5
530
330
1F
100
AcDbEntity
  8
0-2_扉
  6
Continuous
 62
    40
370
    15
100
AcDbLine
 10
-734.6849576130074
 20
1737.063356107788
 30
0.0
 11
-734.6849576130074
 21
1717.063356107789
 31
0.0
  0
LINE
  5
531
330
1F
100
AcDbEntity
  8
0-2_扉
  6
Continuous
 62
    40
370
    15
100
AcDbLine
 10
-730.6849576130065
 20
1737.063356107788
 30
0.0
 11
-730.6849576130065
 21
1717.063356107789
 31
0.0
  0
LINE
  5
532
330
1F
100
AcDbEntity
  8
0-2_扉
  6
Continuous
 62
    40
370
    15
100
AcDbLine
 10
-336.6849576130079
 20
1717.063356107789
 30
0.0
 11
-730.6849576130065
 21
1717.063356107789
 31
0.0
  0
LINE
  5
533
330
1F
100
AcDbEntity
  8
0-2_扉
  6
Continuous
 62
    40
370
    15
100
AcDbLine
 10
-734.6849576130074
 20
1717.063356107789
 30
0.0
 11
-1128.684957613007
 21
1717.063356107789
 31
0.0
  0
LWPOLYLINE
  5
534
330
1F
100
AcDbEntity
  8
0-B_寸法
  6
Continuous
 62
     7
370
     9
100
AcDbPolyline
 90
        4
 70
     1
 43
2.0
 10
-1279.684957613007
 20
1737.063356107788
 42
0.4142135623731
 10
-1280.684957613007
 20
1738.063356107788
 42
0.4142135623731
 10
-1281.684957613006
 20
1737.063356107788
 42
0.4142135623731
 10
-1280.684957613007
 20
1736.063356107788
 42
0.4142135623731
  0
LINE
  5
535
330
1F
100
AcDbEntity
  8
0-B_寸法
  6
Continuous
 62
   120
370
     5
100
AcDbLine
 10
-1280.684957613007
 20
1737.063356107788
 30
0.0
 11
-1180.684957613007
 21
1737.063356107788
 31
0.0
  0
LWPOLYLINE
  5
536
330
1F
100
AcDbEntity
  8
0-B_寸法
  6
Continuous
 62
     7
370
     9
100
AcDbPolyline
 90
        4
 70
     1
 43
2.0
 10
-1279.684957613007
 20
1738.063356107788
 42
0.4142135623731
 10
-1280.684957613007
 20
1739.063356107788
 42
0.4142135623731
 10
-1281.684957613006
 20
1738.063356107788
 42
0.4142135623731
 10
-1280.684957613007
 20
1737.063356107788
 42
0.4142135623731
  0
LINE
  5
537
330
1F
100
AcDbEntity
  8
0-B_寸法
  6
Continuous
 62
   120
370
     5
100
AcDbLine
 10
-1280.684957613007
 20
1738.063356107788
 30
0.0
 11
-1180.684957613007
 21
1738.063356107788
 31
0.0
  0
LINE
  5
538
330
1F
100
AcDbEntity
  8
0-B_寸法
  6
Continuous
 62
   120
370
     5
100
AcDbLine
 10
-1280.684957613007
 20
2083.063375902972
 30
0.0
 11
-1280.684957613007
 21
1717.063356107789
 31
0.0
  0
LWPOLYLINE
  5
539
330
1F
100
AcDbEntity
  8
0-B_寸法
  6
Continuous
 62
     7
370
     9
100
AcDbPolyline
 90
        4
 70
     1
 43
2.0
 10
-1279.684957613007
 20
1717.063356107789
 42
0.4142135623731
 10
-1280.684957613007
 20
1718.063356107789
 42
0.4142135623731
 10
-1281.684957613006
 20
1717.063356107789
 42
0.4142135623731
 10
-1280.684957613007
 20
1716.063356107789
 42
0.4142135623731
  0
LINE
  5
53A
330
1F
100
AcDbEntity
  8
0-B_寸法
  6
Continuous
 62
   120
370
     5
100
AcDbLine
 10
-1380.684957613007
 20
2083.063375902972
 30
0.0
 11
-1380.684957613007
 21
1717.063356107789
 31
0.0
  0
LWPOLYLINE
  5
53B
330
1F
100
AcDbEntity
  8
0-B_寸法
  6
Continuous
 62
     7
370
     9
100
AcDbPolyline
 90
        4
 70
     1
 43
2.0
 10
-1379.684957613007
 20
1717.063356107789
 42
0.4142135623731
 10
-1380.684957613007
 20
1718.063356107789
 42
0.4142135623731
 10
-1381.684957613006
 20
1717.063356107789
 42
0.4142135623731
 10
-1380.684957613007
 20
1716.063356107789
 42
0.4142135623731
  0
LINE
  5
53C
330
1F
100
AcDbEntity
  8
0-B_寸法
  6
Continuous
 62
   120
370
     5
100
AcDbLine
 10
-1380.684957613007
 20
1717.063356107789
 30
0.0
 11
-1180.684957613007
 21
1717.063356107789
 31
0.0
  0
MTEXT
  5
53D
330
1F
100
AcDbEntity
  8
0-B_寸法
  6
Continuous
 62
     7
370
   211
100
AcDbMText
 10
-1290.684957613007
 20
1647.50726474785
 30
0.0
 40
45.72
 41
60.0
 46
0.0
 71
     7
 72
     1
  1
{\fＭＳ ゴシック|b0|i0|c128|p49;20}
 11
6.123031769111886E-17
 21
1.0
 31
0.0
 73
     1
 44
1.0
  0
LWPOLYLINE
  5
53E
330
1F
100
AcDbEntity
  8
0-B_寸法
  6
Continuous
 62
     7
370
     9
100
AcDbPolyline
 90
        4
 70
     1
 43
2.0
 10
416.3150423869926
 20
1738.063356107788
 42
0.4142135623731
 10
415.3150423869926
 20
1739.063356107788
 42
0.4142135623731
 10
414.3150423869926
 20
1738.063356107788
 42
0.4142135623731
 10
415.3150423869926
 20
1737.063356107788
 42
0.4142135623731
  0
LINE
  5
53F
330
1F
100
AcDbEntity
  8
0-B_寸法
  6
Continuous
 62
   120
370
     5
100
AcDbLine
 10
415.3150423869926
 20
1738.063356107788
 30
0.0
 11
515.3150423869926
 21
1738.063356107788
 31
0.0
  0
LWPOLYLINE
  5
540
330
1F
100
AcDbEntity
  8
0-B_寸法
  6
Continuous
 62
     7
370
     9
100
AcDbPolyline
 90
        4
 70
     1
 43
2.0
 10
416.3150423869926
 20
1737.063356107788
 42
0.4142135623731
 10
415.3150423869926
 20
1738.063356107788
 42
0.4142135623731
 10
414.3150423869926
 20
1737.063356107788
 42
0.4142135623731
 10
415.3150423869926
 20
1736.063356107788
 42
0.4142135623731
  0
LINE
  5
541
330
1F
100
AcDbEntity
  8
0-B_寸法
  6
Continuous
 62
   120
370
     5
100
AcDbLine
 10
415.3150423869926
 20
1737.063356107788
 30
0.0
 11
515.3150423869926
 21
1737.063356107788
 31
0.0
  0
LINE
  5
542
330
1F
100
AcDbEntity
  8
0-B_寸法
  6
Continuous
 62
   120
370
     5
100
AcDbLine
 10
415.3150423869926
 20
2083.063375902972
 30
0.0
 11
415.3150423869926
 21
1717.063356107789
 31
0.0
  0
LWPOLYLINE
  5
543
330
1F
100
AcDbEntity
  8
0-B_寸法
  6
Continuous
 62
     7
370
     9
100
AcDbPolyline
 90
        4
 70
     1
 43
2.0
 10
416.3150423869926
 20
1717.063356107789
 42
0.4142135623731
 10
415.3150423869926
 20
1718.063356107789
 42
0.4142135623731
 10
414.3150423869926
 20
1717.063356107789
 42
0.4142135623731
 10
415.3150423869926
 20
1716.063356107789
 42
0.4142135623731
  0
LINE
  5
544
330
1F
100
AcDbEntity
  8
0-B_寸法
  6
Continuous
 62
   120
370
     5
100
AcDbLine
 10
315.3150423869926
 20
2083.063375902972
 30
0.0
 11
315.3150423869926
 21
1717.063356107789
 31
0.0
  0
LWPOLYLINE
  5
545
330
1F
100
AcDbEntity
  8
0-B_寸法
  6
Continuous
 62
     7
370
     9
100
AcDbPolyline
 90
        4
 70
     1
 43
2.0
 10
316.3150423869926
 20
1717.063356107789
 42
0.4142135623731
 10
315.3150423869926
 20
1718.063356107789
 42
0.4142135623731
 10
314.3150423869926
 20
1717.063356107789
 42
0.4142135623731
 10
315.3150423869926
 20
1716.063356107789
 42
0.4142135623731
  0
LINE
  5
546
330
1F
100
AcDbEntity
  8
0-B_寸法
  6
Continuous
 62
   120
370
     5
100
AcDbLine
 10
315.3150423869926
 20
1717.063356107789
 30
0.0
 11
515.3150423869926
 21
1717.063356107789
 31
0.0
  0
MTEXT
  5
547
330
1F
100
AcDbEntity
  8
0-B_寸法
  6
Continuous
 62
     7
370
   211
100
AcDbMText
 10
405.3150423869926
 20
1647.50726474785
 30
0.0
 40
45.72
 41
60.0
 46
0.0
 71
     7
 72
     1
  1
{\fＭＳ ゴシック|b0|i0|c128|p49;20}
 11
6.123031769111886E-17
 21
1.0
 31
0.0
 73
     1
 44
1.0
  0
MTEXT
  5
548
330
1F
100
AcDbEntity
  8
0-B_寸法
  6
Continuous
 62
     7
370
   211
100
AcDbMText
 10
-1390.684957613007
 20
1847.923366005381
 30
0.0
 40
45.72
 41
90.0
 46
0.0
 71
     7
 72
     1
  1
{\fＭＳ ゴシック|b0|i0|c128|p49;366}
 11
6.123031769111886E-17
 21
1.0
 31
0.0
 73
     1
 44
1.0
  0
MTEXT
  5
549
330
1F
100
AcDbEntity
  8
0-B_寸法
  6
Continuous
 62
     7
370
   211
100
AcDbMText
 10
305.3150423869926
 20
1847.923366005381
 30
0.0
 40
45.72
 41
90.0
 46
0.0
 71
     7
 72
     1
  1
{\fＭＳ ゴシック|b0|i0|c128|p49;366}
 11
6.123031769111886E-17
 21
1.0
 31
0.0
 73
     1
 44
1.0
  0
LINE
  5
54A
330
1F
100
AcDbEntity
  8
0-2_扉
  6
Continuous
 62
    40
370
    15
100
AcDbLine
 10
2362.315233786991
 20
709.333473411765
 30
0.0
 11
2362.315233786991
 21
-1453.666526588235
 31
0.0
  0
LINE
  5
54B
330
1F
100
AcDbEntity
  8
0-2_扉
  6
Continuous
 62
    40
370
    15
100
AcDbLine
 10
2362.315233786991
 20
-1453.666526588235
 30
0.0
 11
2382.315233786991
 21
-1453.666526588235
 31
0.0
  0
LINE
  5
54C
330
1F
100
AcDbEntity
  8
0-2_扉
  6
Continuous
 62
    40
370
    15
100
AcDbLine
 10
2362.315233786991
 20
709.333473411765
 30
0.0
 11
2382.315233786991
 21
709.333473411765
 31
0.0
  0
LINE
  5
54D
330
1F
100
AcDbEntity
  8
0-B_寸法
  6
Continuous
 62
   120
370
     5
100
AcDbLine
 10
2362.315042386992
 20
1062.333473411765
 30
0.0
 11
2362.315042386992
 21
962.3334734117651
 31
0.0
  0
LWPOLYLINE
  5
54E
330
1F
100
AcDbEntity
  8
0-B_寸法
  6
Continuous
 62
     7
370
     9
100
AcDbPolyline
 90
        4
 70
     1
 43
2.0
 10
2363.315042386992
 20
1062.333473411765
 42
0.4142135623731
 10
2362.315042386992
 20
1063.333473411765
 42
0.4142135623731
 10
2361.315042386992
 20
1062.333473411765
 42
0.4142135623731
 10
2362.315042386992
 20
1061.333473411765
 42
0.4142135623731
  0
LINE
  5
54F
330
1F
100
AcDbEntity
  8
0-B_寸法
  6
Continuous
 62
   120
370
     5
100
AcDbLine
 10
2728.315233786992
 20
1062.333473411765
 30
0.0
 11
2362.315042386992
 21
1062.333473411765
 31
0.0
  0
LINE
  5
550
330
1F
100
AcDbEntity
  8
0-B_寸法
  6
Continuous
 62
   120
370
     5
100
AcDbLine
 10
2362.315233786991
 20
962.3334734117651
 30
0.0
 11
2362.315233786991
 21
762.3334734117651
 31
0.0
  0
LWPOLYLINE
  5
551
330
1F
100
AcDbEntity
  8
0-B_寸法
  6
Continuous
 62
     7
370
     9
100
AcDbPolyline
 90
        4
 70
     1
 43
2.0
 10
2363.315233786991
 20
962.3334734117651
 42
0.4142135623731
 10
2362.315233786991
 20
963.333473411765
 42
0.4142135623731
 10
2361.315233786991
 20
962.3334734117651
 42
0.4142135623731
 10
2362.315233786991
 20
961.3334734117652
 42
0.4142135623731
  0
LINE
  5
552
330
1F
100
AcDbEntity
  8
0-B_寸法
  6
Continuous
 62
   120
370
     5
100
AcDbLine
 10
2382.315233786991
 20
962.3334734117651
 30
0.0
 11
2362.315233786991
 21
962.3334734117651
 31
0.0
  0
MTEXT
  5
553
330
1F
100
AcDbEntity
  8
0-B_寸法
  6
Continuous
 62
     7
370
   211
100
AcDbMText
 10
2298.214673083096
 20
965.1934734117651
 30
0.0
 40
45.72
 41
60.0
 46
0.0
 71
     7
 72
     1
  1
{\fＭＳ ゴシック|b0|i0|c128|p49;20}
 73
     1
 44
1.0
  0
MTEXT
  5
554
330
1F
100
AcDbEntity
  8
0-B_寸法
  6
Continuous
 62
     7
370
   211
100
AcDbMText
 10
2500.315138086992
 20
1065.193473411765
 30
0.0
 40
45.72
 41
90.0
 46
0.0
 71
     7
 72
     1
  1
{\fＭＳ ゴシック|b0|i0|c128|p49;366}
 73
     1
 44
1.0
  0
MTEXT
  5
555
330
1F
100
AcDbEntity
  8
0-B_寸法
  6
Continuous
 62
     9
370
     5
100
AcDbMText
 10
0.0
 20
-20030.0
 30
0.0
 40
0.0
 41
0.0
 46
0.0
 71
     7
 72
     1
  1
{\fＭＳ ゴシック|b0|i0|c128|p49;Printer_Orientation = 0}
 73
     1
 44
1.0
  0
MTEXT
  5
556
330
1F
100
AcDbEntity
  8
0-B_寸法
  6
Continuous
 62
     9
370
     5
100
AcDbMText
 10
0.0
 20
-20030.0
 30
0.0
 40
0.0
 41
0.0
 46
0.0
 71
     7
 72
     1
  1
{\fＭＳ ゴシック|b0|i0|c128|p49;Printer_PaperSize = 0}
 73
     1
 44
1.0
  0
MTEXT
  5
557
330
1F
100
AcDbEntity
  8
0-B_寸法
  6
Continuous
 62
     9
370
     5
100
AcDbMText
 10
0.0
 20
-20030.0
 30
0.0
 40
0.0
 41
0.0
 46
0.0
 71
     7
 72
     1
  1
{\fＭＳ ゴシック|b0|i0|c128|p49;Printer_D2dBMP = 0}
 73
     1
 44
1.0
  0
MTEXT
  5
558
330
1F
100
AcDbEntity
  8
0-B_寸法
  6
Continuous
 62
     9
370
     5
100
AcDbMText
 10
0.0
 20
-20030.0
 30
0.0
 40
0.0
 41
0.0
 46
0.0
 71
     7
 72
     1
  1
{\fＭＳ ゴシック|b0|i0|c128|p49;Printer_BmpZENTAI = 0}
 73
     1
 44
1.0
  0
MTEXT
  5
559
330
1F
100
AcDbEntity
  8
0-B_寸法
  6
Continuous
 62
     9
370
     5
100
AcDbMText
 10
0.0
 20
-20030.0
 30
0.0
 40
0.0
 41
0.0
 46
0.0
 71
     7
 72
     1
  1
{\fＭＳ ゴシック|b0|i0|c128|p49;View_Direct2d = 1}
 73
     1
 44
1.0
  0
MTEXT
  5
55A
330
1F
100
AcDbEntity
  8
0-B_寸法
  6
Continuous
 62
     9
370
     5
100
AcDbMText
 10
0.0
 20
-20030.0
 30
0.0
 40
0.0
 41
0.0
 46
0.0
 71
     7
 72
     1
  1
{\fＭＳ ゴシック|b0|i0|c128|p49;Draw_BmpTOUKA = 1}
 73
     1
 44
1.0
  0
ENDSEC
  0
SECTION
  2
OBJECTS
  0
DICTIONARY
  5
C
330
0
100
AcDbDictionary
281
     1
  3
ACAD_GROUP
350
D
  3
ACAD_LAYOUT
350
1A
  3
ACAD_MATERIAL
350
3B
  3
ACAD_MLEADERSTYLE
350
55C
  3
ACAD_MLINESTYLE
350
17
  3
ACAD_PLOTSETTINGS
350
19
  3
ACAD_PLOTSTYLENAME
350
E
  3
ACAD_TABLESTYLE
350
55B
  3
ACAD_VISUALSTYLE
350
2A
  0
DICTIONARY
  5
D
102
{ACAD_REACTORS
330
C
102
}
330
C
100
AcDbDictionary
281
     1
  0
DICTIONARY
  5
1A
102
{ACAD_REACTORS
330
C
102
}
330
C
100
AcDbDictionary
281
     1
  3
Layout1
350
1E
  3
Layout2
350
26
  3
Model
350
22
  0
DICTIONARY
  5
3B
102
{ACAD_REACTORS
330
C
102
}
330
C
100
AcDbDictionary
281
     1
  3
ByBlock
350
3D
  3
ByLayer
350
3C
  3
Global
350
3E
  0
DICTIONARY
  5
55C
102
{ACAD_REACTORS
330
C
102
}
330
C
100
AcDbDictionary
281
     1
  0
DICTIONARY
  5
17
102
{ACAD_REACTORS
330
C
102
}
330
C
100
AcDbDictionary
281
     1
  3
Standard
350
18
  0
DICTIONARY
  5
19
102
{ACAD_REACTORS
330
C
102
}
330
C
100
AcDbDictionary
281
     1
  0
ACDBDICTIONARYWDFLT
  5
E
102
{ACAD_REACTORS
330
C
102
}
330
C
100
AcDbDictionary
281
     1
  3
Normal
350
F
100
AcDbDictionaryWithDefault
340
F
  0
DICTIONARY
  5
55B
102
{ACAD_REACTORS
330
C
102
}
330
C
100
AcDbDictionary
281
     1
  0
DICTIONARY
  5
2A
102
{ACAD_REACTORS
330
C
102
}
330
C
100
AcDbDictionary
281
     1
  3
2dWireframe
350
2F
  3
3D Hidden
350
31
  3
3dWireframe
350
30
  3
Basic
350
32
  3
Brighten
350
36
  3
ColorChange
350
3A
  3
Conceptual
350
34
  3
Dim
350
35
  3
Facepattern
350
39
  3
Flat
350
2B
  3
FlatWithEdges
350
2C
  3
Gouraud
350
2D
  3
GouraudWithEdges
350
2E
  3
Linepattern
350
38
  3
Realistic
350
33
  3
Thicken
350
37
  0
LAYOUT
  5
1E
102
{ACAD_REACTORS
330
1A
102
}
330
1A
100
AcDbPlotSettings
  1

  2
none_device
  4

  6

 40
0.0
 41
0.0
 42
0.0
 43
0.0
 44
0.0
 45
0.0
 46
0.0
 47
0.0
 48
0.0
 49
0.0
140
0.0
141
0.0
142
1.0
143
1.0
 70
   688
 72
     0
 73
     0
 74
     5
  7

 75
    16
 76
     0
 77
     5
 78
   300
147
1.0
148
0.0
149
0.0
100
AcDbLayout
  1
Layout1
 70
     1
 71
     1
 10
0.0
 20
0.0
 11
420.0
 21
297.0
 12
0.0
 22
0.0
 32
0.0
 14
1.000000000000000E+20
 24
1.000000000000000E+20
 34
1.000000000000000E+20
 15
-1.000000000000000E+20
 25
-1.000000000000000E+20
 35
-1.000000000000000E+20
146
0.0
 13
0.0
 23
0.0
 33
0.0
 16
1.0
 26
0.0
 36
0.0
 17
0.0
 27
1.0
 37
0.0
 76
     0
330
1B
  0
LAYOUT
  5
26
102
{ACAD_REACTORS
330
1A
102
}
330
1A
100
AcDbPlotSettings
  1

  2
none_device
  4

  6

 40
0.0
 41
0.0
 42
0.0
 43
0.0
 44
0.0
 45
0.0
 46
0.0
 47
0.0
 48
0.0
 49
0.0
140
0.0
141
0.0
142
1.0
143
1.0
 70
   688
 72
     0
 73
     0
 74
     5
  7

 75
    16
 76
     0
 77
     5
 78
   300
147
1.0
148
0.0
149
0.0
100
AcDbLayout
  1
Layout2
 70
     1
 71
     2
 10
0.0
 20
0.0
 11
0.0
 21
0.0
 12
0.0
 22
0.0
 32
0.0
 14
0.0
 24
0.0
 34
0.0
 15
0.0
 25
0.0
 35
0.0
146
0.0
 13
0.0
 23
0.0
 33
0.0
 16
1.0
 26
0.0
 36
0.0
 17
0.0
 27
1.0
 37
0.0
 76
     0
330
23
  0
LAYOUT
  5
22
102
{ACAD_REACTORS
330
1A
102
}
330
1A
100
AcDbPlotSettings
  1

  2
none_device
  4

  6

 40
0.0
 41
0.0
 42
0.0
 43
0.0
 44
0.0
 45
0.0
 46
0.0
 47
0.0
 48
0.0
 49
0.0
140
0.0
141
0.0
142
1.0
143
1.0
 70
  1712
 72
     0
 73
     0
 74
     0
  7

 75
     0
 76
     0
 77
     5
 78
   300
147
1.0
148
0.0
149
0.0
100
AcDbLayout
  1
Model
 70
     1
 71
     0
 10
-4200.0
 20
-2970.0
 11
4200.0
 21
2970.0
 12
0.0
 22
0.0
 32
0.0
 14
-4200.0
 24
-2970.0
 34
0.0
 15
4200.0
 25
2970.0
 35
0.0
146
0.0
 13
0.0
 23
0.0
 33
0.0
 16
1.0
 26
0.0
 36
0.0
 17
0.0
 27
1.0
 37
0.0
 76
     0
330
1F
331
29
  0
MATERIAL
  5
3D
102
{ACAD_REACTORS
330
3B
102
}
330
3B
100
AcDbMaterial
  1
ByBlock
 72
     1
 94
      127
  0
MATERIAL
  5
3C
102
{ACAD_REACTORS
330
3B
102
}
330
3B
100
AcDbMaterial
  1
ByLayer
 72
     1
 94
      127
  0
MATERIAL
  5
3E
102
{ACAD_REACTORS
330
3B
102
}
330
3B
100
AcDbMaterial
  1
Global
 72
     1
 94
      127
  0
MLINESTYLE
  5
18
102
{ACAD_REACTORS
330
17
102
}
330
17
100
AcDbMlineStyle
  2
Standard
 70
     0
  3

 62
   256
 51
90.0
 52
90.0
 71
     2
 49
0.5
 62
   256
  6
BYLAYER
 49
-0.5
 62
   256
  6
BYLAYER
  0
ACDBPLACEHOLDER
  5
F
102
{ACAD_REACTORS
330
E
102
}
330
E
  0
VISUALSTYLE
  5
2F
102
{ACAD_REACTORS
330
2A
102
}
330
2A
100
AcDbVisualStyle
  2
2dWireframe
 70
     4
177
     2
291
     0
 71
     0
176
     1
 72
     2
176
     1
 73
     0
176
     1
 90
        0
176
     1
 40
-0.6
176
     1
 41
-30.0
176
     1
 62
     5
 63
     7
421
 16777215
176
     1
 74
     1
176
     1
 91
        4
176
     1
 64
     7
176
     1
 65
   257
176
     1
 75
     1
176
     1
175
     1
176
     1
 42
1.0
176
     1
 92
        0
176
     1
 66
   257
176
     1
 43
1.0
176
     1
 76
     1
176
     1
 77
     6
176
     1
 78
     2
176
     1
 67
     7
176
     1
 79
     5
176
     1
170
     0
176
     1
171
     0
176
     1
290
     0
176
     1
 93
        1
176
     1
 44
0.0
176
     1
173
     0
176
     1
  0
VISUALSTYLE
  5
31
102
{ACAD_REACTORS
330
2A
102
}
330
2A
100
AcDbVisualStyle
  2
3D Hidden
 70
     6
177
     2
291
     0
 71
     1
176
     1
 72
     2
176
     1
 73
     2
176
     1
 90
        0
176
     1
 40
-0.6
176
     1
 41
-30.0
176
     1
 62
     5
 63
     7
421
 16777215
176
     1
 74
     2
176
     1
 91
        2
176
     1
 64
     7
176
     1
 65
   257
176
     1
 75
     2
176
     1
175
     1
176
     1
 42
40.0
176
     1
 92
        0
176
     1
 66
   257
176
     1
 43
1.0
176
     1
 76
     1
176
     1
 77
     6
176
     1
 78
     2
176
     1
 67
     7
176
     1
 79
     3
176
     1
170
     0
176
     1
171
     0
176
     1
290
     0
176
     1
 93
        1
176
     1
 44
0.0
176
     1
173
     0
176
     1
  0
VISUALSTYLE
  5
30
102
{ACAD_REACTORS
330
2A
102
}
330
2A
100
AcDbVisualStyle
  2
3dWireframe
 70
     5
177
     2
291
     0
 71
     0
176
     1
 72
     2
176
     1
 73
     0
176
     1
 90
        0
176
     1
 40
-0.6
176
     1
 41
-30.0
176
     1
 62
     5
 63
     7
421
 16777215
176
     1
 74
     1
176
     1
 91
        4
176
     1
 64
     7
176
     1
 65
   257
176
     1
 75
     1
176
     1
175
     1
176
     1
 42
1.0
176
     1
 92
        0
176
     1
 66
   257
176
     1
 43
1.0
176
     1
 76
     1
176
     1
 77
     6
176
     1
 78
     2
176
     1
 67
     7
176
     1
 79
     5
176
     1
170
     0
176
     1
171
     0
176
     1
290
     0
176
     1
 93
        1
176
     1
 44
0.0
176
     1
173
     0
176
     1
  0
VISUALSTYLE
  5
32
102
{ACAD_REACTORS
330
2A
102
}
330
2A
100
AcDbVisualStyle
  2
Basic
 70
     7
177
     2
291
     1
 71
     1
176
     1
 72
     0
176
     1
 73
     1
176
     1
 90
        0
176
     1
 40
-0.6
176
     1
 41
-30.0
176
     1
 62
     5
 63
     7
421
 16777215
176
     1
 74
     0
176
     1
 91
        4
176
     1
 64
     7
176
     1
 65
   257
176
     1
 75
     1
176
     1
175
     1
176
     1
 42
1.0
176
     1
 92
        8
176
     1
 66
     7
176
     1
 43
1.0
176
     1
 76
     1
176
     1
 77
     6
176
     1
 78
     2
176
     1
 67
     7
176
     1
 79
     5
176
     1
170
     0
176
     1
171
     0
176
     1
290
     0
176
     1
 93
        1
176
     1
 44
0.0
176
     1
173
     0
176
     1
  0
VISUALSTYLE
  5
36
102
{ACAD_REACTORS
330
2A
102
}
330
2A
100
AcDbVisualStyle
  2
Brighten
 70
    12
177
     2
291
     1
 71
     2
176
     1
 72
     2
176
     1
 73
     0
176
     1
 90
        0
176
     1
 40
-0.6
176
     1
 41
-30.0
176
     1
 62
     5
 63
     7
421
 16777215
176
     1
 74
     1
176
     1
 91
        4
176
     1
 64
     7
176
     1
 65
   257
176
     1
 75
     1
176
     1
175
     1
176
     1
 42
1.0
176
     1
 92
        8
176
     1
 66
     7
176
     1
 43
1.0
176
     1
 76
     1
176
     1
 77
     6
176
     1
 78
     2
176
     1
 67
     7
176
     1
 79
     5
176
     1
170
     0
176
     1
171
     0
176
     1
290
     0
176
     1
 93
        1
176
     1
 44
50.0
176
     1
173
     0
176
     1
  0
VISUALSTYLE
  5
3A
102
{ACAD_REACTORS
330
2A
102
}
330
2A
100
AcDbVisualStyle
  2
ColorChange
 70
    16
177
     2
291
     1
 71
     2
176
     1
 72
     2
176
     1
 73
     3
176
     1
 90
        0
176
     1
 40
-0.6
176
     1
 41
-30.0
176
     1
 62
     5
 63
     8
421
  8421504
176
     1
 74
     1
176
     1
 91
        4
176
     1
 64
     7
176
     1
 65
   257
176
     1
 75
     1
176
     1
175
     1
176
     1
 42
1.0
176
     1
 92
        8
176
     1
 66
     8
424
  8421504
176
     1
 43
1.0
176
     1
 76
     1
176
     1
 77
     6
176
     1
 78
     2
176
     1
 67
     7
176
     1
 79
     5
176
     1
170
     0
176
     1
171
     0
176
     1
290
     0
176
     1
 93
        1
176
     1
 44
0.0
176
     1
173
     0
176
     1
  0
VISUALSTYLE
  5
34
102
{ACAD_REACTORS
330
2A
102
}
330
2A
100
AcDbVisualStyle
  2
Conceptual
 70
     9
177
     2
291
     0
 71
     3
176
     1
 72
     2
176
     1
 73
     0
176
     1
 90
        0
176
     1
 40
-0.6
176
     1
 41
-30.0
176
     1
 62
     5
 63
     7
421
 16777215
176
     1
 74
     2
176
     1
 91
        2
176
     1
 64
     7
176
     1
 65
   257
176
     1
 75
     1
176
     1
175
     1
176
     1
 42
40.0
176
     1
 92
        8
176
     1
 66
     7
176
     1
 43
1.0
176
     1
 76
     1
176
     1
 77
     6
176
     1
 78
     2
176
     1
 67
     7
176
     1
 79
     3
176
     1
170
     0
176
     1
171
     0
176
     1
290
     0
176
     1
 93
        1
176
     1
 44
0.0
176
     1
173
     0
176
     1
  0
VISUALSTYLE
  5
35
102
{ACAD_REACTORS
330
2A
102
}
330
2A
100
AcDbVisualStyle
  2
Dim
 70
    11
177
     2
291
     1
 71
     2
176
     1
 72
     2
176
     1
 73
     0
176
     1
 90
        0
176
     1
 40
-0.6
176
     1
 41
-30.0
176
     1
 62
     5
 63
     7
421
 16777215
176
     1
 74
     1
176
     1
 91
        4
176
     1
 64
     7
176
     1
 65
   257
176
     1
 75
     1
176
     1
175
     1
176
     1
 42
1.0
176
     1
 92
        8
176
     1
 66
     7
176
     1
 43
1.0
176
     1
 76
     1
176
     1
 77
     6
176
     1
 78
     2
176
     1
 67
     7
176
     1
 79
     5
176
     1
170
     0
176
     1
171
     0
176
     1
290
     0
176
     1
 93
        1
176
     1
 44
-50.0
176
     1
173
     0
176
     1
  0
VISUALSTYLE
  5
39
102
{ACAD_REACTORS
330
2A
102
}
330
2A
100
AcDbVisualStyle
  2
Facepattern
 70
    15
177
     2
291
     1
 71
     2
176
     1
 72
     2
176
     1
 73
     0
176
     1
 90
        0
176
     1
 40
-0.6
176
     1
 41
-30.0
176
     1
 62
     5
 63
     7
421
 16777215
176
     1
 74
     1
176
     1
 91
        4
176
     1
 64
     7
176
     1
 65
   257
176
     1
 75
     1
176
     1
175
     1
176
     1
 42
1.0
176
     1
 92
        8
176
     1
 66
     7
176
     1
 43
1.0
176
     1
 76
     1
176
     1
 77
     6
176
     1
 78
     2
176
     1
 67
     7
176
     1
 79
     5
176
     1
170
     0
176
     1
171
     0
176
     1
290
     0
176
     1
 93
        1
176
     1
 44
0.0
176
     1
173
     0
176
     1
  0
VISUALSTYLE
  5
2B
102
{ACAD_REACTORS
330
2A
102
}
330
2A
100
AcDbVisualStyle
  2
Flat
 70
     0
177
     2
291
     1
 71
     2
176
     1
 72
     1
176
     1
 73
     1
176
     1
 90
        2
176
     1
 40
-0.6
176
     1
 41
30.0
176
     1
 62
     5
 63
     7
421
 16777215
176
     1
 74
     0
176
     1
 91
        4
176
     1
 64
     7
176
     1
 65
   257
176
     1
 75
     1
176
     1
175
     1
176
     1
 42
1.0
176
     1
 92
        8
176
     1
 66
     7
176
     1
 43
1.0
176
     1
 76
     1
176
     1
 77
     6
176
     1
 78
     2
176
     1
 67
     7
176
     1
 79
     5
176
     1
170
     0
176
     1
171
     0
176
     1
290
     0
176
     1
 93
       13
176
     1
 44
0.0
176
     1
173
     0
176
     1
  0
VISUALSTYLE
  5
2C
102
{ACAD_REACTORS
330
2A
102
}
330
2A
100
AcDbVisualStyle
  2
FlatWithEdges
 70
     1
177
     2
291
     1
 71
     2
176
     1
 72
     1
176
     1
 73
     1
176
     1
 90
        2
176
     1
 40
-0.6
176
     1
 41
30.0
176
     1
 62
     5
 63
     7
421
 16777215
176
     1
 74
     1
176
     1
 91
        4
176
     1
 64
     7
176
     1
 65
   257
176
     1
 75
     1
176
     1
175
     1
176
     1
 42
1.0
176
     1
 92
        0
176
     1
 66
   257
176
     1
 43
1.0
176
     1
 76
     1
176
     1
 77
     6
176
     1
 78
     2
176
     1
 67
     7
176
     1
 79
     5
176
     1
170
     0
176
     1
171
     0
176
     1
290
     0
176
     1
 93
       13
176
     1
 44
0.0
176
     1
173
     0
176
     1
  0
VISUALSTYLE
  5
2D
102
{ACAD_REACTORS
330
2A
102
}
330
2A
100
AcDbVisualStyle
  2
Gouraud
 70
     2
177
     2
291
     1
 71
     2
176
     1
 72
     2
176
     1
 73
     1
176
     1
 90
        2
176
     1
 40
-0.6
176
     1
 41
30.0
176
     1
 62
     5
 63
     7
421
 16777215
176
     1
 74
     0
176
     1
 91
        4
176
     1
 64
     7
176
     1
 65
   257
176
     1
 75
     1
176
     1
175
     1
176
     1
 42
1.0
176
     1
 92
        0
176
     1
 66
     7
176
     1
 43
1.0
176
     1
 76
     1
176
     1
 77
     6
176
     1
 78
     2
176
     1
 67
     7
176
     1
 79
     5
176
     1
170
     0
176
     1
171
     0
176
     1
290
     0
176
     1
 93
       13
176
     1
 44
0.0
176
     1
173
     0
176
     1
  0
VISUALSTYLE
  5
2E
102
{ACAD_REACTORS
330
2A
102
}
330
2A
100
AcDbVisualStyle
  2
GouraudWithEdges
 70
     3
177
     2
291
     1
 71
     2
176
     1
 72
     2
176
     1
 73
     1
176
     1
 90
        2
176
     1
 40
-0.6
176
     1
 41
30.0
176
     1
 62
     5
 63
     7
421
 16777215
176
     1
 74
     1
176
     1
 91
        4
176
     1
 64
     7
176
     1
 65
   257
176
     1
 75
     1
176
     1
175
     1
176
     1
 42
1.0
176
     1
 92
        0
176
     1
 66
   257
176
     1
 43
1.0
176
     1
 76
     1
176
     1
 77
     6
176
     1
 78
     2
176
     1
 67
     7
176
     1
 79
     5
176
     1
170
     0
176
     1
171
     0
176
     1
290
     0
176
     1
 93
       13
176
     1
 44
0.0
176
     1
173
     0
176
     1
  0
VISUALSTYLE
  5
38
102
{ACAD_REACTORS
330
2A
102
}
330
2A
100
AcDbVisualStyle
  2
Linepattern
 70
    14
177
     2
291
     1
 71
     2
176
     1
 72
     2
176
     1
 73
     0
176
     1
 90
        0
176
     1
 40
-0.6
176
     1
 41
-30.0
176
     1
 62
     5
 63
     7
421
 16777215
176
     1
 74
     1
176
     1
 91
        4
176
     1
 64
     7
176
     1
 65
   257
176
     1
 75
     7
176
     1
175
     7
176
     1
 42
1.0
176
     1
 92
        8
176
     1
 66
     7
176
     1
 43
1.0
176
     1
 76
     1
176
     1
 77
     6
176
     1
 78
     2
176
     1
 67
     7
176
     1
 79
     5
176
     1
170
     0
176
     1
171
     0
176
     1
290
     0
176
     1
 93
        1
176
     1
 44
0.0
176
     1
173
     0
176
     1
  0
VISUALSTYLE
  5
33
102
{ACAD_REACTORS
330
2A
102
}
330
2A
100
AcDbVisualStyle
  2
Realistic
 70
     8
177
     2
291
     0
 71
     2
176
     1
 72
     2
176
     1
 73
     0
176
     1
 90
        0
176
     1
 40
-0.6
176
     1
 41
-30.0
176
     1
 62
     5
 63
     7
421
 16777215
176
     1
 74
     1
176
     1
 91
        0
176
     1
 64
     7
176
     1
 65
   257
176
     1
 75
     1
176
     1
175
     1
176
     1
 42
1.0
176
     1
 92
        8
176
     1
 66
     8
424
  7895160
176
     1
 43
1.0
176
     1
 76
     1
176
     1
 77
     6
176
     1
 78
     2
176
     1
 67
     7
176
     1
 79
     5
176
     1
170
     0
176
     1
171
     0
176
     1
290
     0
176
     1
 93
       13
176
     1
 44
0.0
176
     1
173
     0
176
     1
  0
VISUALSTYLE
  5
37
102
{ACAD_REACTORS
330
2A
102
}
330
2A
100
AcDbVisualStyle
  2
Thicken
 70
    13
177
     2
291
     1
 71
     2
176
     1
 72
     2
176
     1
 73
     0
176
     1
 90
        0
176
     1
 40
-0.6
176
     1
 41
-30.0
176
     1
 62
     5
 63
     7
421
 16777215
176
     1
 74
     1
176
     1
 91
        4
176
     1
 64
     7
176
     1
 65
   257
176
     1
 75
     1
176
     1
175
     1
176
     1
 42
1.0
176
     1
 92
       12
176
     1
 66
     7
176
     1
 43
1.0
176
     1
 76
     1
176
     1
 77
     6
176
     1
 78
     2
176
     1
 67
     7
176
     1
 79
     5
176
     1
170
     0
176
     1
171
     0
176
     1
290
     0
176
     1
 93
        1
176
     1
 44
0.0
176
     1
173
     0
176
     1
  0
ENDSEC
  0
EOF
