  0
SECTION
  2
HEADER
  9
$ACADVER
  1
AC1024
  9
$ACADMAINTVER
 70
     6
  9
$DWGCODEPAGE
  3
ANSI_932
  9
$INSBASE
 10
0.0
 20
0.0
 30
0.0
  9
$EXTMIN
 10
-4200.0
 20
-2970.0
 30
0.0
  9
$EXTMAX
 10
4200.0
 20
2970.0
 30
0.0
  9
$LIMMIN
 10
-4200.0
 20
-2970.0
  9
$LIMMAX
 10
4200.0
 20
2970.0
  9
$ORTHOMODE
 70
     0
  9
$REGENMODE
 70
     1
  9
$FILLMODE
 70
     1
  9
$QTEXTMODE
 70
     0
  9
$MIRRTEXT
 70
     1
  9
$LTSCALE
 40
20.0
  9
$ATTMODE
 70
     1
  9
$TEXTSIZE
 40
2.5
  9
$TRACEWID
 40
1.0
  9
$TEXTSTYLE
  7
Standard
  9
$CLAYER
  8
0
  9
$CELTYPE
  6
ByLayer
  9
$CECOLOR
 62
   256
  9
$CELTSCALE
 40
1.0
  9
$DISPSILH
 70
     0
  9
$DIMSCALE
 40
1.0
  9
$DIMASZ
 40
2.5
  9
$DIMEXO
 40
0.625
  9
$DIMDLI
 40
3.75
  9
$DIMRND
 40
0.0
  9
$DIMDLE
 40
0.0
  9
$DIMEXE
 40
1.25
  9
$DIMTP
 40
0.0
  9
$DIMTM
 40
0.0
  9
$DIMTXT
 40
2.5
  9
$DIMCEN
 40
2.5
  9
$DIMTSZ
 40
0.0
  9
$DIMTOL
 70
     0
  9
$DIMLIM
 70
     0
  9
$DIMTIH
 70
     0
  9
$DIMTOH
 70
     0
  9
$DIMSE1
 70
     0
  9
$DIMSE2
 70
     0
  9
$DIMTAD
 70
     1
  9
$DIMZIN
 70
     8
  9
$DIMBLK
  1

  9
$DIMASO
 70
     1
  9
$DIMSHO
 70
     1
  9
$DIMPOST
  1

  9
$DIMAPOST
  1

  9
$DIMALT
 70
     0
  9
$DIMALTD
 70
     3
  9
$DIMALTF
 40
0.03937007874016
  9
$DIMLFAC
 40
1.0
  9
$DIMTOFL
 70
     1
  9
$DIMTVP
 40
0.0
  9
$DIMTIX
 70
     0
  9
$DIMSOXD
 70
     0
  9
$DIMSAH
 70
     0
  9
$DIMBLK1
  1

  9
$DIMBLK2
  1

  9
$DIMSTYLE
  2
ISO-25
  9
$DIMCLRD
 70
     0
  9
$DIMCLRE
 70
     0
  9
$DIMCLRT
 70
     0
  9
$DIMTFAC
 40
1.0
  9
$DIMGAP
 40
0.625
  9
$DIMJUST
 70
     0
  9
$DIMSD1
 70
     0
  9
$DIMSD2
 70
     0
  9
$DIMTOLJ
 70
     0
  9
$DIMTZIN
 70
     8
  9
$DIMALTZ
 70
     0
  9
$DIMALTTZ
 70
     0
  9
$DIMUPT
 70
     0
  9
$DIMDEC
 70
     2
  9
$DIMTDEC
 70
     2
  9
$DIMALTU
 70
     2
  9
$DIMALTTD
 70
     3
  9
$DIMTXSTY
  7
Standard
  9
$DIMAUNIT
 70
     0
  9
$DIMADEC
 70
     0
  9
$DIMALTRND
 40
0.0
  9
$DIMAZIN
 70
     0
  9
$DIMDSEP
 70
    44
  9
$DIMATFIT
 70
     3
  9
$DIMFRAC
 70
     0
  9
$DIMLDRBLK
  1

  9
$DIMLUNIT
 70
     2
  9
$DIMLWD
 70
    -2
  9
$DIMLWE
 70
    -2
  9
$DIMTMOVE
 70
     0
  9
$DIMFXL
 40
1.0
  9
$DIMFXLON
 70
     0
  9
$DIMJOGANG
 40
0.7853981633974483
  9
$DIMTFILL
 70
     0
  9
$DIMTFILLCLR
 70
     0
  9
$DIMARCSYM
 70
     0
  9
$DIMLTYPE
  6

  9
$DIMLTEX1
  6

  9
$DIMLTEX2
  6

  9
$DIMTXTDIRECTION
 70
     0
  9
$LUNITS
 70
     2
  9
$LUPREC
 70
     4
  9
$SKETCHINC
 40
1.0
  9
$FILLETRAD
 40
10.0
  9
$AUNITS
 70
     0
  9
$AUPREC
 70
     0
  9
$MENU
  1
.
  9
$ELEVATION
 40
0.0
  9
$PELEVATION
 40
0.0
  9
$THICKNESS
 40
0.0
  9
$LIMCHECK
 70
     0
  9
$CHAMFERA
 40
10.0
  9
$CHAMFERB
 40
10.0
  9
$CHAMFERC
 40
20.0
  9
$CHAMFERD
 40
0.0
  9
$SKPOLY
 70
     0
  9
$TDCREATE
 40
2460350.651163576
  9
$TDUCREATE
 40
2460350.276163576
  9
$TDUPDATE
 40
2460350.651163588
  9
$TDUUPDATE
 40
2460350.276163588
  9
$TDINDWG
 40
0.0000000116
  9
$TDUSRTIMER
 40
0.0000000116
  9
$USRTIMER
 70
     1
  9
$ANGBASE
 50
0.0
  9
$ANGDIR
 70
     0
  9
$PDMODE
 70
     0
  9
$PDSIZE
 40
0.0
  9
$PLINEWID
 40
0.0
  9
$SPLFRAME
 70
     0
  9
$SPLINETYPE
 70
     6
  9
$SPLINESEGS
 70
     8
  9
$HANDSEED
  5
40F
  9
$SURFTAB1
 70
     6
  9
$SURFTAB2
 70
     6
  9
$SURFTYPE
 70
     6
  9
$SURFU
 70
     6
  9
$SURFV
 70
     6
  9
$UCSBASE
  2

  9
$UCSNAME
  2

  9
$UCSORG
 10
0.0
 20
0.0
 30
0.0
  9
$UCSXDIR
 10
1.0
 20
0.0
 30
0.0
  9
$UCSYDIR
 10
0.0
 20
1.0
 30
0.0
  9
$UCSORTHOREF
  2

  9
$UCSORTHOVIEW
 70
     0
  9
$UCSORGTOP
 10
0.0
 20
0.0
 30
0.0
  9
$UCSORGBOTTOM
 10
0.0
 20
0.0
 30
0.0
  9
$UCSORGLEFT
 10
0.0
 20
0.0
 30
0.0
  9
$UCSORGRIGHT
 10
0.0
 20
0.0
 30
0.0
  9
$UCSORGFRONT
 10
0.0
 20
0.0
 30
0.0
  9
$UCSORGBACK
 10
0.0
 20
0.0
 30
0.0
  9
$PUCSBASE
  2

  9
$PUCSNAME
  2

  9
$PUCSORG
 10
0.0
 20
0.0
 30
0.0
  9
$PUCSXDIR
 10
1.0
 20
0.0
 30
0.0
  9
$PUCSYDIR
 10
0.0
 20
1.0
 30
0.0
  9
$PUCSORTHOREF
  2

  9
$PUCSORTHOVIEW
 70
     0
  9
$PUCSORGTOP
 10
0.0
 20
0.0
 30
0.0
  9
$PUCSORGBOTTOM
 10
0.0
 20
0.0
 30
0.0
  9
$PUCSORGLEFT
 10
0.0
 20
0.0
 30
0.0
  9
$PUCSORGRIGHT
 10
0.0
 20
0.0
 30
0.0
  9
$PUCSORGFRONT
 10
0.0
 20
0.0
 30
0.0
  9
$PUCSORGBACK
 10
0.0
 20
0.0
 30
0.0
  9
$USERI1
 70
     0
  9
$USERI2
 70
     0
  9
$USERI3
 70
     0
  9
$USERI4
 70
     0
  9
$USERI5
 70
     0
  9
$USERR1
 40
0.0
  9
$USERR2
 40
0.0
  9
$USERR3
 40
0.0
  9
$USERR4
 40
0.0
  9
$USERR5
 40
0.0
  9
$WORLDVIEW
 70
     1
  9
$SHADEDGE
 70
     3
  9
$SHADEDIF
 70
    70
  9
$TILEMODE
 70
     1
  9
$MAXACTVP
 70
    64
  9
$PINSBASE
 10
0.0
 20
0.0
 30
0.0
  9
$PLIMCHECK
 70
     0
  9
$PEXTMIN
 10
1.000000000000000E+20
 20
1.000000000000000E+20
 30
1.000000000000000E+20
  9
$PEXTMAX
 10
-1.000000000000000E+20
 20
-1.000000000000000E+20
 30
-1.000000000000000E+20
  9
$PLIMMIN
 10
0.0
 20
0.0
  9
$PLIMMAX
 10
420.0
 20
297.0
  9
$UNITMODE
 70
     0
  9
$VISRETAIN
 70
     1
  9
$PLINEGEN
 70
     0
  9
$PSLTSCALE
 70
     1
  9
$TREEDEPTH
 70
  3020
  9
$CMLSTYLE
  2
Standard
  9
$CMLJUST
 70
     0
  9
$CMLSCALE
 40
20.0
  9
$PROXYGRAPHICS
 70
     1
  9
$MEASUREMENT
 70
     1
  9
$CELWEIGHT
370
    -1
  9
$ENDCAPS
280
     0
  9
$JOINSTYLE
280
     0
  9
$LWDISPLAY
290
     0
  9
$INSUNITS
 70
     4
  9
$HYPERLINKBASE
  1

  9
$STYLESHEET
  1

  9
$XEDIT
290
     1
  9
$CEPSNTYPE
380
     0
  9
$PSTYLEMODE
290
     1
  9
$FINGERPRINTGUID
  2
{69C9BA5D-B393-4089-834F-980901EC555A}
  9
$VERSIONGUID
  2
{FAEB1C32-E019-11D5-929B-00C0DF256EC4}
  9
$EXTNAMES
290
     1
  9
$PSVPSCALE
 40
0.0
  9
$OLESTARTUP
290
     0
  9
$SORTENTS
280
   127
  9
$INDEXCTL
280
     0
  9
$HIDETEXT
280
     1
  9
$XCLIPFRAME
280
     2
  9
$HALOGAP
280
     0
  9
$OBSCOLOR
 70
   257
  9
$OBSLTYPE
280
     0
  9
$INTERSECTIONDISPLAY
280
     0
  9
$INTERSECTIONCOLOR
 70
   257
  9
$DIMASSOC
280
     2
  9
$PROJECTNAME
  1

  9
$CAMERADISPLAY
290
     0
  9
$LENSLENGTH
 40
50.0
  9
$CAMERAHEIGHT
 40
0.0
  9
$STEPSPERSEC
 40
2.0
  9
$STEPSIZE
 40
6.0
  9
$3DDWFPREC
 40
2.0
  9
$PSOLWIDTH
 40
5.0
  9
$PSOLHEIGHT
 40
80.0
  9
$LOFTANG1
 40
1.570796326794897
  9
$LOFTANG2
 40
1.570796326794897
  9
$LOFTMAG1
 40
0.0
  9
$LOFTMAG2
 40
0.0
  9
$LOFTPARAM
 70
     7
  9
$LOFTNORMALS
280
     1
  9
$LATITUDE
 40
37.795
  9
$LONGITUDE
 40
-122.394
  9
$NORTHDIRECTION
 40
0.0
  9
$TIMEZONE
 70
 -8000
  9
$LIGHTGLYPHDISPLAY
280
     1
  9
$TILEMODELIGHTSYNCH
280
     1
  9
$SOLIDHIST
280
     1
  9
$SHOWHIST
280
     1
  9
$DWFFRAME
280
     2
  9
$DGNFRAME
280
     2
  9
$REALWORLDSCALE
290
     1
  9
$INTERFERECOLOR
 62
   256
  9
$CSHADOW
280
     0
  9
$SHADOWPLANELOCATION
 40
0.0
  0
ENDSEC
  0
SECTION
  2
CLASSES
  0
CLASS
  1
ACDBDICTIONARYWDFLT
  2
AcDbDictionaryWithDefault
  3
ObjectDBX Classes
 90
        0
 91
        4
280
     0
281
     0
  0
CLASS
  1
VISUALSTYLE
  2
AcDbVisualStyle
  3
ObjectDBX Classes
 90
     4095
 91
        4
280
     0
281
     0
  0
CLASS
  1
MATERIAL
  2
AcDbMaterial
  3
ObjectDBX Classes
 90
     1153
 91
        4
280
     0
281
     0
  0
ENDSEC
  0
SECTION
  2
TABLES
  0
TABLE
  2
VPORT
  5
8
330
0
100
AcDbSymbolTable
 70
     1
  0
VPORT
  5
29
330
8
100
AcDbSymbolTableRecord
100
AcDbViewportTableRecord
  2
*Active
 70
     0
 10
0.0
 20
0.0
 11
1.0
 21
1.0
 12
0.0
 22
0.0
 13
0.0
 23
0.0
 14
10.0
 24
10.0
 15
10.0
 25
10.0
 16
0.0
 26
0.0
 36
1.0
 17
0.0
 27
0.0
 37
0.0
 40
6534.000000000001
 41
1.414141414141414
 42
50.0
 43
0.0
 44
0.0
 50
0.0
 51
0.0
 71
     0
 72
 10000
 73
     1
 74
     3
 75
     0
 76
     0
 77
     0
 78
     0
281
     0
 65
     1
110
0.0
120
0.0
130
0.0
111
1.0
121
0.0
131
0.0
112
0.0
122
1.0
132
0.0
 79
     0
146
0.0
 60
     3
 61
     5
292
     1
282
     1
141
0.0
142
0.0
 63
   250
  0
ENDTAB
  0
TABLE
  2
LTYPE
  5
5
330
0
100
AcDbSymbolTable
 70
     5
  0
LTYPE
  5
14
330
5
100
AcDbSymbolTableRecord
100
AcDbLinetypeTableRecord
  2
ByBlock
 70
     0
  3

 72
    65
 73
     0
 40
0.0
  0
LTYPE
  5
15
330
5
100
AcDbSymbolTableRecord
100
AcDbLinetypeTableRecord
  2
ByLayer
 70
     0
  3

 72
    65
 73
     0
 40
0.0
  0
LTYPE
  5
16
330
5
100
AcDbSymbolTableRecord
100
AcDbLinetypeTableRecord
  2
Continuous
 70
     0
  3
Solid line
 72
    65
 73
     0
 40
0.0
  0
LTYPE
  5
3F
330
5
100
AcDbSymbolTableRecord
100
AcDbLinetypeTableRecord
  2
JWW_HOJO
 70
     0
  3
  -   -   -   -   -   -   -   - 
 72
    65
 73
     2
 40
1.693333333333333
 49
-1.27
 74
     0
 49
0.4233333333333333
 74
     0
  0
LTYPE
  5
40
330
5
100
AcDbSymbolTableRecord
100
AcDbLinetypeTableRecord
  2
JWW_DASHED2
 70
     0
  3
--    ----    ----    ----    --
 72
    65
 73
     2
 40
1.693333333333333
 49
0.8466666666666667
 74
     0
 49
-0.8466666666666667
 74
     0
  0
LTYPE
  5
41
330
5
100
AcDbSymbolTableRecord
100
AcDbLinetypeTableRecord
  2
JWW_CENTER1
 70
     0
  3
-----  --  ----------  --  -----
 72
    65
 73
     4
 40
3.386666666666667
 49
2.116666666666667
 74
     0
 49
-0.4233333333333333
 74
     0
 49
0.4233333333333333
 74
     0
 49
-0.4233333333333333
 74
     0
  0
LTYPE
  5
42
330
5
100
AcDbSymbolTableRecord
100
AcDbLinetypeTableRecord
  2
JWW_DASHED1
 70
     0
  3
-  --  --  --  --  --  --  --  -
 72
    65
 73
     2
 40
0.3386666666666667
 49
0.1693333333333333
 74
     0
 49
-0.1693333333333333
 74
     0
  0
ENDTAB
  0
TABLE
  2
LAYER
  5
2
330
0
100
AcDbSymbolTable
 70
    15
  0
LAYER
  5
10
330
2
100
AcDbSymbolTableRecord
100
AcDbLayerTableRecord
  2
0
 70
     0
 62
     7
  6
Continuous
370
    -3
390
F
347
3E
  0
LAYER
  5
43
330
2
100
AcDbSymbolTableRecord
100
AcDbLayerTableRecord
  2
F-0_補助線
 70
     0
 62
     7
  6
Continuous
370
    -3
390
F
347
3E
  0
LAYER
  5
44
330
2
100
AcDbSymbolTableRecord
100
AcDbLayerTableRecord
  2
枠
 70
     0
 62
     7
  6
Continuous
370
    -3
390
F
347
3E
  0
LAYER
  5
45
330
2
100
AcDbSymbolTableRecord
100
AcDbLayerTableRecord
  2
F-A_文字
 70
     0
 62
     7
  6
Continuous
370
    -3
390
F
347
3E
  0
LAYER
  5
46
330
2
100
AcDbSymbolTableRecord
100
AcDbLayerTableRecord
  2
0-B_寸法
 70
     0
 62
     7
  6
Continuous
370
    -3
390
F
347
3E
  0
LAYER
  5
47
330
2
100
AcDbSymbolTableRecord
100
AcDbLayerTableRecord
  2
0-2_扉
 70
     0
 62
     7
  6
Continuous
370
    -3
390
F
347
3E
  0
LAYER
  5
48
330
2
100
AcDbSymbolTableRecord
100
AcDbLayerTableRecord
  2
0-0_補助線
 70
     0
 62
     7
  6
Continuous
370
    -3
390
F
347
3E
  0
LAYER
  5
49
330
2
100
AcDbSymbolTableRecord
100
AcDbLayerTableRecord
  2
0-A_文字
 70
     0
 62
     7
  6
Continuous
370
    -3
390
F
347
3E
  0
LAYER
  5
4A
330
2
100
AcDbSymbolTableRecord
100
AcDbLayerTableRecord
  2
0-1_本体
 70
     0
 62
     7
  6
Continuous
370
    -3
390
F
347
3E
  0
LAYER
  5
4B
330
2
100
AcDbSymbolTableRecord
100
AcDbLayerTableRecord
  2
0-6_桟木
 70
     0
 62
     7
  6
Continuous
370
    -3
390
F
347
3E
  0
LAYER
  5
4C
330
2
100
AcDbSymbolTableRecord
100
AcDbLayerTableRecord
  2
0-4_棚
 70
     0
 62
     7
  6
Continuous
370
    -3
390
F
347
3E
  0
LAYER
  5
4D
330
2
100
AcDbSymbolTableRecord
100
AcDbLayerTableRecord
  2
0-5_ダボ
 70
     0
 62
     7
  6
Continuous
370
    -3
390
F
347
3E
  0
LAYER
  5
4E
330
2
100
AcDbSymbolTableRecord
100
AcDbLayerTableRecord
  2
0-3_扉仕上
 70
     0
 62
     7
  6
Continuous
370
    -3
390
F
347
3E
  0
LAYER
  5
4F
330
2
100
AcDbSymbolTableRecord
100
AcDbLayerTableRecord
  2
0-7__
 70
     0
 62
     7
  6
Continuous
370
    -3
390
F
347
3E
  0
LAYER
  5
50
330
2
100
AcDbSymbolTableRecord
100
AcDbLayerTableRecord
  2
0-9__
 70
     0
 62
     7
  6
Continuous
370
    -3
390
F
347
3E
  0
ENDTAB
  0
TABLE
  2
STYLE
  5
3
330
0
100
AcDbSymbolTable
 70
     1
  0
STYLE
  5
11
330
3
100
AcDbSymbolTableRecord
100
AcDbTextStyleTableRecord
  2
Standard
 70
     0
 40
0.0
 41
1.0
 50
0.0
 71
     0
 42
2.5
  3
txt
  4

  0
ENDTAB
  0
TABLE
  2
VIEW
  5
6
330
0
100
AcDbSymbolTable
 70
     0
  0
ENDTAB
  0
TABLE
  2
UCS
  5
7
330
0
100
AcDbSymbolTable
 70
     0
  0
ENDTAB
  0
TABLE
  2
APPID
  5
9
330
0
100
AcDbSymbolTable
 70
     1
  0
APPID
  5
12
330
9
100
AcDbSymbolTableRecord
100
AcDbRegAppTableRecord
  2
ACAD
 70
     0
  0
ENDTAB
  0
TABLE
  2
DIMSTYLE
  5
A
330
0
100
AcDbSymbolTable
 70
     1
100
AcDbDimStyleTable
  0
DIMSTYLE
105
27
330
A
100
AcDbSymbolTableRecord
100
AcDbDimStyleTableRecord
  2
ISO-25
 70
     0
 41
2.5
 42
0.625
 43
3.75
 44
1.25
 73
     0
 74
     0
 77
     1
 78
     8
140
2.5
141
2.5
143
0.03937007874016
147
0.625
171
     3
172
     1
178
     0
271
     2
272
     2
274
     3
278
    44
283
     0
284
     8
340
11
  0
ENDTAB
  0
TABLE
  2
BLOCK_RECORD
  5
1
330
0
100
AcDbSymbolTable
 70
     1
  0
BLOCK_RECORD
  5
1F
330
1
100
AcDbSymbolTableRecord
100
AcDbBlockTableRecord
  2
*Model_Space
340
22
 70
     0
280
     1
281
     0
  0
BLOCK_RECORD
  5
1B
330
1
100
AcDbSymbolTableRecord
100
AcDbBlockTableRecord
  2
*Paper_Space
340
1E
 70
     0
280
     1
281
     0
  0
BLOCK_RECORD
  5
23
330
1
100
AcDbSymbolTableRecord
100
AcDbBlockTableRecord
  2
*Paper_Space0
340
26
 70
     0
280
     1
281
     0
  0
ENDTAB
  0
ENDSEC
  0
SECTION
  2
BLOCKS
  0
BLOCK
  5
20
330
1F
100
AcDbEntity
  8
0
100
AcDbBlockBegin
  2
*Model_Space
 70
     0
 10
0.0
 20
0.0
 30
0.0
  3
*Model_Space
  1

  0
ENDBLK
  5
21
330
1F
100
AcDbEntity
  8
0
100
AcDbBlockEnd
  0
BLOCK
  5
1C
330
1B
100
AcDbEntity
 67
     1
  8
0
100
AcDbBlockBegin
  2
*Paper_Space
 70
     0
 10
0.0
 20
0.0
 30
0.0
  3
*Paper_Space
  1

  0
ENDBLK
  5
1D
330
1B
100
AcDbEntity
 67
     1
  8
0
100
AcDbBlockEnd
  0
BLOCK
  5
24
330
23
100
AcDbEntity
  8
0
100
AcDbBlockBegin
  2
*Paper_Space0
 70
     0
 10
0.0
 20
0.0
 30
0.0
  3
*Paper_Space0
  1

  0
ENDBLK
  5
25
330
23
100
AcDbEntity
  8
0
100
AcDbBlockEnd
  0
ENDSEC
  0
SECTION
  2
ENTITIES
  0
LINE
  5
51
330
1F
100
AcDbEntity
  8
F-0_補助線
  6
JWW_HOJO
 62
   120
370
     5
100
AcDbLine
 10
-4093.387555624515
 20
-2970.0
 30
0.0
 11
-4093.387555624515
 21
2949.99973606419
 31
0.0
  0
LINE
  5
52
330
1F
100
AcDbEntity
  8
F-0_補助線
  6
JWW_HOJO
 62
   120
370
     5
100
AcDbLine
 10
-4093.387555624515
 20
2949.99973606419
 30
0.0
 11
4106.611784535958
 21
2949.99973606419
 31
0.0
  0
LINE
  5
53
330
1F
100
AcDbEntity
  8
F-0_補助線
  6
JWW_HOJO
 62
   120
370
     5
100
AcDbLine
 10
4106.611784535958
 20
2949.99973606419
 30
0.0
 11
4106.611784535958
 21
-2970.0
 31
0.0
  0
LINE
  5
54
330
1F
100
AcDbEntity
  8
F-0_補助線
  6
JWW_HOJO
 62
   120
370
     5
100
AcDbLine
 10
4106.611784535958
 20
-2970.0
 30
0.0
 11
-4093.387555624515
 21
-2970.0
 31
0.0
  0
LINE
  5
55
330
1F
100
AcDbEntity
  8
枠
  6
Continuous
 62
   200
370
    20
100
AcDbLine
 10
3906.611619576076
 20
2783.333179370777
 30
0.0
 11
3906.611619576076
 21
-2803.333443306588
 31
0.0
  0
LINE
  5
56
330
1F
100
AcDbEntity
  8
枠
  6
Continuous
 62
   200
370
    20
100
AcDbLine
 10
-3893.387545314522
 20
2783.333179370777
 30
0.0
 11
-3893.387545314522
 21
-2803.333443306588
 31
0.0
  0
LINE
  5
57
330
1F
100
AcDbEntity
  8
枠
  6
Continuous
 62
   200
370
    20
100
AcDbLine
 10
-3886.720882428186
 20
2783.333179370777
 30
0.0
 11
-3886.720882428186
 21
-2803.333443306588
 31
0.0
  0
LINE
  5
58
330
1F
100
AcDbEntity
  8
枠
  6
Continuous
 62
   200
370
    20
100
AcDbLine
 10
-3890.054206138861
 20
2783.333179370777
 30
0.0
 11
-3890.054206138861
 21
-2803.333443306588
 31
0.0
  0
LINE
  5
59
330
1F
100
AcDbEntity
  8
枠
  6
Continuous
 62
   200
370
    20
100
AcDbLine
 10
3903.278110285536
 20
2783.333179370777
 30
0.0
 11
3903.278110285536
 21
-2803.333443306588
 31
0.0
  0
LINE
  5
5A
330
1F
100
AcDbEntity
  8
枠
  6
Continuous
 62
   200
370
    20
100
AcDbLine
 10
3899.945095874641
 20
2783.333179370777
 30
0.0
 11
3899.945095874641
 21
-2803.333443306588
 31
0.0
  0
LINE
  5
5B
330
1F
100
AcDbEntity
  8
枠
  6
Continuous
 62
   200
370
    20
100
AcDbLine
 10
-3893.387390664634
 20
2783.333179370777
 30
0.0
 11
3906.611619576076
 21
2783.333179370777
 31
0.0
  0
LINE
  5
5C
330
1F
100
AcDbEntity
  8
枠
  6
Continuous
 62
   200
370
    20
100
AcDbLine
 10
-3893.387390664634
 20
2776.666655669342
 30
0.0
 11
3906.611619576076
 21
2776.666655669342
 31
0.0
  0
LINE
  5
5D
330
1F
100
AcDbEntity
  8
枠
  6
Continuous
 62
   200
370
    20
100
AcDbLine
 10
-3893.387390664634
 20
2779.999670080237
 30
0.0
 11
3906.611619576076
 21
2779.999670080237
 31
0.0
  0
LINE
  5
5E
330
1F
100
AcDbEntity
  8
F-0_補助線
  6
JWW_HOJO
 62
     7
370
     9
100
AcDbLine
 10
673.2788361090155
 20
-2530.000110316921
 30
0.0
 11
673.2788361090155
 21
-2796.666780420252
 31
0.0
  0
LINE
  5
5F
330
1F
100
AcDbEntity
  8
F-0_補助線
  6
JWW_HOJO
 62
     7
370
     9
100
AcDbLine
 10
339.945722722191
 20
-2530.000110316921
 30
0.0
 11
339.945722722191
 21
-2796.666780420252
 31
0.0
  0
LINE
  5
60
330
1F
100
AcDbEntity
  8
枠
  6
Continuous
 62
   200
370
    20
100
AcDbLine
 10
3906.611619576076
 20
-2803.333443306588
 30
0.0
 11
-3893.387390664634
 21
-2803.333443306588
 31
0.0
  0
LINE
  5
61
330
1F
100
AcDbEntity
  8
枠
  6
Continuous
 62
   200
370
    20
100
AcDbLine
 10
3906.611619576076
 20
-2800.000104130926
 30
0.0
 11
-3893.387390664634
 21
-2800.000104130926
 31
0.0
  0
LINE
  5
62
330
1F
100
AcDbEntity
  8
枠
  6
Continuous
 62
   200
370
    20
100
AcDbLine
 10
3906.611619576076
 20
-2796.666780420252
 30
0.0
 11
-3893.387390664634
 21
-2796.666780420252
 31
0.0
  0
LINE
  5
63
330
1F
100
AcDbEntity
  8
枠
  6
Continuous
 62
   200
370
    20
100
AcDbLine
 10
2899.945260834522
 20
-2530.000110316921
 30
0.0
 11
2899.945260834522
 21
-2796.666780420252
 31
0.0
  0
LINE
  5
64
330
1F
100
AcDbEntity
  8
枠
  6
Continuous
 62
   200
370
    20
100
AcDbLine
 10
1899.944930914759
 20
-2530.000110316921
 30
0.0
 11
1899.944930914759
 21
-2796.666780420252
 31
0.0
  0
LINE
  5
65
330
1F
100
AcDbEntity
  8
枠
  6
Continuous
 62
   200
370
    20
100
AcDbLine
 10
6.612361895544154
 20
-2530.000110316921
 30
0.0
 11
6.612361895544154
 21
-2796.666780420252
 31
0.0
  0
LINE
  5
66
330
1F
100
AcDbEntity
  8
枠
  6
Continuous
 62
   200
370
    20
100
AcDbLine
 10
6.612361895544154
 20
-2663.33339897362
 30
0.0
 11
3899.945095874641
 21
-2663.337017781026
 31
0.0
  0
LINE
  5
67
330
1F
100
AcDbEntity
  8
F-0_補助線
  6
JWW_HOJO
 62
     7
370
     9
100
AcDbLine
 10
-3886.720882428186
 20
-2663.33339897385
 30
0.0
 11
6.612361895544154
 21
-2663.33339897385
 31
0.0
  0
LINE
  5
68
330
1F
100
AcDbEntity
  8
F-0_補助線
  6
JWW_HOJO
 62
     7
370
     9
100
AcDbLine
 10
-3886.720882428186
 20
-2603.33339897385
 30
0.0
 11
6.612361895544154
 21
-2603.33339897385
 31
0.0
  0
LINE
  5
69
330
1F
100
AcDbEntity
  8
F-0_補助線
  6
JWW_HOJO
 62
     7
370
     9
100
AcDbLine
 10
-3886.720882428186
 20
-2723.33339897385
 30
0.0
 11
6.612361895544154
 21
-2723.33339897385
 31
0.0
  0
LINE
  5
6A
330
1F
100
AcDbEntity
  8
F-0_補助線
  6
JWW_HOJO
 62
     7
370
     9
100
AcDbLine
 10
6.612272045125565
 20
-2759.999934773578
 30
0.0
 11
3899.945006024222
 21
-2760.003553580984
 31
0.0
  0
LINE
  5
6B
330
1F
100
AcDbEntity
  8
F-0_補助線
  6
JWW_HOJO
 62
     7
370
     9
100
AcDbLine
 10
6.612327814426635
 20
-2699.999934773604
 30
0.0
 11
3899.945061793523
 21
-2700.00355358101
 31
0.0
  0
LINE
  5
6C
330
1F
100
AcDbEntity
  8
F-0_補助線
  6
JWW_HOJO
 62
     7
370
     9
100
AcDbLine
 10
6.612395976906669
 20
-2626.666599733636
 30
0.0
 11
3899.945129956002
 21
-2626.670218541042
 31
0.0
  0
LINE
  5
6D
330
1F
100
AcDbEntity
  8
F-0_補助線
  6
JWW_HOJO
 62
     7
370
     9
100
AcDbLine
 10
6.612451746207739
 20
-2566.666599733662
 30
0.0
 11
3899.945185725303
 21
-2566.670218541068
 31
0.0
  0
LINE
  5
6E
330
1F
100
AcDbEntity
  8
F-0_補助線
  6
JWW_HOJO
 62
     7
370
     9
100
AcDbLine
 10
1959.944930914759
 20
-2530.000110316921
 30
0.0
 11
1959.944930914759
 21
-2796.666780420252
 31
0.0
  0
LINE
  5
6F
330
1F
100
AcDbEntity
  8
F-0_補助線
  6
JWW_HOJO
 62
     7
370
     9
100
AcDbLine
 10
66.61236189554415
 20
-2530.000110316921
 30
0.0
 11
66.61236189554415
 21
-2796.666780420252
 31
0.0
  0
LINE
  5
70
330
1F
100
AcDbEntity
  8
F-0_補助線
  6
JWW_HOJO
 62
     7
370
     9
100
AcDbLine
 10
2959.945260834522
 20
-2530.000110316921
 30
0.0
 11
2959.945260834522
 21
-2796.666780420252
 31
0.0
  0
MTEXT
  5
71
330
1F
100
AcDbEntity
  8
F-A_文字
  6
Continuous
 62
     7
370
     0
100
AcDbMText
 10
66.61236189554415
 20
-2591.42665550288
 30
0.0
 40
30.48
 41
120.0
 46
0.0
 71
     7
 72
     1
  1
{\fＭＳ ゴシック|b0|i0|c128|p49;図面名}
 73
     1
 44
1.0
  0
MTEXT
  5
72
330
1F
100
AcDbEntity
  8
F-A_文字
  6
Continuous
 62
     7
370
     0
100
AcDbMText
 10
1959.944930914759
 20
-2591.428415333439
 30
0.0
 40
30.48
 41
200.0
 46
0.0
 71
     7
 72
     1
  1
{\fＭＳ ゴシック|b0|i0|c128|p49;ＳＣＡＬＥ}
 73
     1
 44
1.0
  0
MTEXT
  5
73
330
1F
100
AcDbEntity
  8
F-A_文字
  6
Continuous
 62
     7
370
     0
100
AcDbMText
 10
2959.945260834522
 20
-2591.429344822092
 30
0.0
 40
30.48
 41
160.0
 46
0.0
 71
     7
 72
     1
  1
{\fＭＳ ゴシック|b0|i0|c128|p49;ＤＡＴＥ}
 73
     1
 44
1.0
  0
MTEXT
  5
74
330
1F
100
AcDbEntity
  8
F-A_文字
  6
Continuous
 62
     7
370
     0
100
AcDbMText
 10
893.5575789779642
 20
-2630.949382654815
 30
0.0
 40
51.435
 41
270.0
 46
0.0
 71
     7
 72
     1
  1
{\fＭＳ ゴシック|b0|i0|c128|p49;玄関収納}
 73
     1
 44
1.0
  0
MTEXT
  5
75
330
1F
100
AcDbEntity
  8
F-A_文字
  6
Continuous
 62
     7
370
     0
100
AcDbMText
 10
2362.445095874641
 20
-2630.951352193128
 30
0.0
 40
51.435
 41
135.0
 46
0.0
 71
     7
 72
     1
  1
{\fＭＳ ゴシック|b0|i0|c128|p49;1/20}
 73
     1
 44
1.0
  0
MTEXT
  5
76
330
1F
100
AcDbEntity
  8
F-A_文字
  6
Continuous
 62
     7
370
     0
100
AcDbMText
 10
339.945722722191
 20
-2634.331636169924
 30
0.0
 40
45.72
 41
240.0
 46
0.0
 71
     7
 72
     1
  1
{\fＭＳ ゴシック|b0|i0|c128|p49;DOORETUS}
 73
     1
 44
1.0
  0
LINE
  5
77
330
1F
100
AcDbEntity
  8
枠
  6
Continuous
 62
   200
370
    20
100
AcDbLine
 10
3906.611619576076
 20
-2530.000110316921
 30
0.0
 11
-3893.387390664634
 21
-2530.000110316921
 31
0.0
  0
LINE
  5
78
330
1F
100
AcDbEntity
  8
枠
  6
Continuous
 62
   200
370
    20
100
AcDbLine
 10
3906.611619576076
 20
-2526.666786606248
 30
0.0
 11
-3893.387390664634
 21
-2526.666786606248
 31
0.0
  0
LINE
  5
79
330
1F
100
AcDbEntity
  8
F-0_補助線
  6
JWW_HOJO
 62
     7
370
     9
100
AcDbLine
 10
-3391.752473459741
 20
-2530.000110316922
 30
0.0
 11
-3391.752473459741
 21
-2803.333551561511
 31
0.0
  0
LINE
  5
7A
330
1F
100
AcDbEntity
  8
F-0_補助線
  6
JWW_HOJO
 62
     7
370
     9
100
AcDbLine
 10
-33.38763810445585
 20
-2530.000110316921
 30
0.0
 11
-33.38763810445585
 21
-2796.666780420252
 31
0.0
  0
MTEXT
  5
7B
330
1F
100
AcDbEntity
  8
F-A_文字
  6
Continuous
 62
     7
370
     0
100
AcDbMText
 10
1959.944930914759
 20
-2724.761750373496
 30
0.0
 40
30.48
 41
160.0
 46
0.0
 71
     7
 72
     1
  1
{\fＭＳ ゴシック|b0|i0|c128|p49;ＦＩＬＥ}
 73
     1
 44
1.0
  0
MTEXT
  5
7C
330
1F
100
AcDbEntity
  8
F-A_文字
  6
Continuous
 62
     7
370
     0
100
AcDbMText
 10
2959.945260834522
 20
-2724.76267986215
 30
0.0
 40
30.48
 41
120.0
 46
0.0
 71
     7
 72
     1
  1
{\fＭＳ ゴシック|b0|i0|c128|p49;ＮＯ．}
 73
     1
 44
1.0
  0
MTEXT
  5
7D
330
1F
100
AcDbEntity
  8
F-A_文字
  6
Continuous
 62
     7
370
     0
100
AcDbMText
 10
929.9449309147587
 20
-2730.760554432355
 30
0.0
 40
30.48
 41
80.0
 46
0.0
 71
     7
 72
     1
  1
{\fＭＳ ゴシック|b0|i0|c128|p49;株式}
 73
     1
 44
1.0
  0
MTEXT
  5
7E
330
1F
100
AcDbEntity
  8
F-A_文字
  6
Continuous
 62
     7
370
     9
100
AcDbMText
 10
3397.445133429372
 20
-2765.238116721579
 30
0.0
 40
49.53
 41
65.0
 46
0.0
 71
     7
 72
     1
  1
{\fＭＳ ゴシック|b0|i0|c128|p49;01}
 73
     1
 44
1.0
  0
MTEXT
  5
7F
330
1F
100
AcDbEntity
  8
F-A_文字
  6
Continuous
 62
     7
370
     0
100
AcDbMText
 10
1069.944930914759
 20
-2776.187944604208
 30
0.0
 40
67.62750000000003
 41
710.0000000000002
 46
0.0
 71
     7
 72
     1
  1
{\fＭＳ ゴシック|b0|i0|c128|p49;ウッドワン・・・}
 73
     1
 44
1.0
  0
MTEXT
  5
80
330
1F
100
AcDbEntity
  8
F-A_文字
  6
Continuous
 62
     7
370
     0
100
AcDbMText
 10
929.9449309147587
 20
-2778.760554432381
 30
0.0
 40
30.48
 41
80.0
 46
0.0
 71
     7
 72
     1
  1
{\fＭＳ ゴシック|b0|i0|c128|p49;会社}
 73
     1
 44
1.0
  0
MTEXT
  5
81
330
1F
100
AcDbEntity
  8
F-A_文字
  6
Continuous
 62
     7
370
     0
100
AcDbMText
 10
3845.547985115293
 20
-2876.561054268868
 30
0.0
 40
45.72
 41
60.0
 46
0.0
 71
     7
 72
     1
  1
{\fＭＳ ゴシック|b0|i0|c128|p49;）}
 73
     1
 44
1.0
  0
MTEXT
  5
82
330
1F
100
AcDbEntity
  8
F-A_文字
  6
Continuous
 62
     7
370
     0
100
AcDbMText
 10
3566.743078270199
 20
-2877.49040416816
 30
0.0
 40
45.72
 41
30.0
 46
0.0
 71
     7
 72
     1
  1
{\fＭＳ ゴシック|b0|i0|c128|p49;,}
 73
     1
 44
1.0
  0
MTEXT
  5
83
330
1F
100
AcDbEntity
  8
F-A_文字
  6
Continuous
 62
     7
370
     0
100
AcDbMText
 10
3389.2372856524
 20
-2876.514753113777
 30
0.0
 40
49.53
 41
65.0
 46
0.0
 71
     7
 72
     1
  1
{\fＭＳ ゴシック|b0|i0|c128|p49;$y}
 73
     1
 44
1.0
  0
MTEXT
  5
84
330
1F
100
AcDbEntity
  8
F-A_文字
  6
Continuous
 62
     7
370
     0
100
AcDbMText
 10
3492.395099678281
 20
-2876.514753113777
 30
0.0
 40
49.53
 41
65.0
 46
0.0
 71
     7
 72
     1
  1
{\fＭＳ ゴシック|b0|i0|c128|p49;$m}
 73
     1
 44
1.0
  0
MTEXT
  5
85
330
1F
100
AcDbEntity
  8
F-A_文字
  6
Continuous
 62
     7
370
     0
100
AcDbMText
 10
3595.552921333554
 20
-2876.514753113777
 30
0.0
 40
49.53
 41
65.0
 46
0.0
 71
     7
 72
     1
  1
{\fＭＳ ゴシック|b0|i0|c128|p49;$d}
 73
     1
 44
1.0
  0
MTEXT
  5
86
330
1F
100
AcDbEntity
  8
F-A_文字
  6
Continuous
 62
     7
370
     0
100
AcDbMText
 10
3698.710742988826
 20
-2876.514753113777
 30
0.0
 40
49.53
 41
130.0
 46
0.0
 71
     7
 72
     1
  1
{\fＭＳ ゴシック|b0|i0|c128|p49;印刷}
 73
     1
 44
1.0
  0
MTEXT
  5
87
330
1F
100
AcDbEntity
  8
F-A_文字
  6
Continuous
 62
     7
370
     0
100
AcDbMText
 10
3295.968027210818
 20
-2879.349103966743
 30
0.0
 40
45.72
 41
60.0
 46
0.0
 71
     7
 72
     1
  1
{\fＭＳ ゴシック|b0|i0|c128|p49;（}
 73
     1
 44
1.0
  0
MTEXT
  5
88
330
1F
100
AcDbEntity
  8
F-A_文字
  6
Continuous
 62
     7
370
     0
100
AcDbMText
 10
3460.797206917048
 20
-2879.349103966743
 30
0.0
 40
45.72
 41
30.0
 46
0.0
 71
     7
 72
     1
  1
{\fＭＳ ゴシック|b0|i0|c128|p49;,}
 73
     1
 44
1.0
  0
MTEXT
  5
89
330
1F
100
AcDbEntity
  8
0-B_寸法
  6
Continuous
 62
     7
370
   211
100
AcDbMText
 10
1911.112361683157
 20
952.567450248103
 30
0.0
 40
45.72
 41
30.0
 46
0.0
 71
     7
 72
     1
  1
{\fＭＳ ゴシック|b0|i0|c128|p49;1}
 73
     1
 44
1.0
  0
LWPOLYLINE
  5
8A
330
1F
100
AcDbEntity
  8
0-B_寸法
  6
Continuous
 62
     7
370
     9
100
AcDbPolyline
 90
        4
 70
     1
 43
2.0
 10
2272.612361683156
 20
1049.707450248103
 42
0.4142135623731
 10
2271.612361683156
 20
1050.707450248103
 42
0.4142135623731
 10
2270.612361683156
 20
1049.707450248103
 42
0.4142135623731
 10
2271.612361683156
 20
1048.707450248103
 42
0.4142135623731
  0
MTEXT
  5
8B
330
1F
100
AcDbEntity
  8
0-B_寸法
  6
Continuous
 62
     7
370
   211
100
AcDbMText
 10
2054.112361683156
 20
952.567450248103
 30
0.0
 40
45.72
 41
90.0
 46
0.0
 71
     7
 72
     1
  1
{\fＭＳ ゴシック|b0|i0|c128|p49;345}
 73
     1
 44
1.0
  0
LINE
  5
8C
330
1F
100
AcDbEntity
  8
0-B_寸法
  6
Continuous
 62
   120
370
     5
100
AcDbLine
 10
2271.612361683156
 20
1049.707450248103
 30
0.0
 11
2271.612361683156
 21
849.707450248103
 31
0.0
  0
LWPOLYLINE
  5
8D
330
1F
100
AcDbEntity
  8
0-B_寸法
  6
Continuous
 62
     7
370
     9
100
AcDbPolyline
 90
        4
 70
     1
 43
2.0
 10
2272.612361683156
 20
949.707450248103
 42
0.4142135623731
 10
2271.612361683156
 20
950.707450248103
 42
0.4142135623731
 10
2270.612361683156
 20
949.707450248103
 42
0.4142135623731
 10
2271.612361683156
 20
948.707450248103
 42
0.4142135623731
  0
LINE
  5
8E
330
1F
100
AcDbEntity
  8
0-B_寸法
  6
Continuous
 62
   120
370
     5
100
AcDbLine
 10
1926.612361683157
 20
949.707450248103
 30
0.0
 11
1926.612361683157
 21
849.707450248103
 31
0.0
  0
LWPOLYLINE
  5
8F
330
1F
100
AcDbEntity
  8
0-B_寸法
  6
Continuous
 62
     7
370
     9
100
AcDbPolyline
 90
        4
 70
     1
 43
2.0
 10
1927.612361683157
 20
949.707450248103
 42
0.4142135623731
 10
1926.612361683157
 20
950.707450248103
 42
0.4142135623731
 10
1925.612361683157
 20
949.707450248103
 42
0.4142135623731
 10
1926.612361683157
 20
948.707450248103
 42
0.4142135623731
  0
LWPOLYLINE
  5
90
330
1F
100
AcDbEntity
  8
0-B_寸法
  6
Continuous
 62
     7
370
     9
100
AcDbPolyline
 90
        4
 70
     1
 43
2.0
 10
1926.612361683158
 20
949.707450248103
 42
0.4142135623731
 10
1925.612361683158
 20
950.707450248103
 42
0.4142135623731
 10
1924.612361683158
 20
949.707450248103
 42
0.4142135623731
 10
1925.612361683158
 20
948.707450248103
 42
0.4142135623731
  0
LINE
  5
91
330
1F
100
AcDbEntity
  8
0-2_扉
  6
Continuous
 62
    40
370
    15
100
AcDbLine
 10
1925.612361683158
 20
133.7074502481011
 30
0.0
 11
1925.612361683158
 21
696.7074502481017
 31
0.0
  0
LINE
  5
92
330
1F
100
AcDbEntity
  8
0-B_寸法
  6
Continuous
 62
   120
370
     5
100
AcDbLine
 10
1925.612361683158
 20
949.707450248103
 30
0.0
 11
1925.612361683158
 21
749.707450248103
 31
0.0
  0
LINE
  5
93
330
1F
100
AcDbEntity
  8
0-B_寸法
  6
Continuous
 62
   120
370
     5
100
AcDbLine
 10
-2737.387638104453
 20
-1533.292549751891
 30
0.0
 11
-2537.387638104454
 21
-1533.292549751891
 31
0.0
  0
LINE
  5
94
330
1F
100
AcDbEntity
  8
0-0_補助線
  6
JWW_HOJO
 62
   120
370
     5
100
AcDbLine
 10
1654.612361683151
 20
-1469.292627695439
 30
0.0
 11
1654.612361776227
 21
849.7074502481092
 31
0.0
  0
LINE
  5
95
330
1F
100
AcDbEntity
  8
0-0_補助線
  6
JWW_HOJO
 62
   120
370
     5
100
AcDbLine
 10
1754.612361683151
 20
-1469.292609137453
 30
0.0
 11
1754.612361776227
 21
849.7074502481092
 31
0.0
  0
LINE
  5
96
330
1F
100
AcDbEntity
  8
0-0_補助線
  6
JWW_HOJO
 62
   120
370
     5
100
AcDbLine
 10
-2637.387638104453
 20
-626.2925497518997
 30
0.0
 11
2571.612361683155
 21
-626.2925497518997
 31
0.0
  0
LINE
  5
97
330
1F
100
AcDbEntity
  8
0-0_補助線
  6
JWW_HOJO
 62
   120
370
     5
100
AcDbLine
 10
-2637.387638104453
 20
-526.2925497518995
 30
0.0
 11
2571.612361683155
 21
-526.2925497518995
 31
0.0
  0
LINE
  5
98
330
1F
100
AcDbEntity
  8
0-A_文字
  6
Continuous
 62
     7
370
     9
100
AcDbLine
 10
-3743.332919558964
 20
2486.666787637248
 30
0.0
 11
-3743.332919558964
 21
2636.666787637248
 31
0.0
  0
LINE
  5
99
330
1F
100
AcDbEntity
  8
0-A_文字
  6
Continuous
 62
     7
370
     9
100
AcDbLine
 10
-3743.332919558964
 20
2636.666787637248
 30
0.0
 11
-2563.109199698325
 21
2636.666787637248
 31
0.0
  0
LINE
  5
9A
330
1F
100
AcDbEntity
  8
0-A_文字
  6
Continuous
 62
     7
370
     9
100
AcDbLine
 10
-3743.332919558964
 20
2486.666787637248
 30
0.0
 11
-2563.109199698325
 21
2486.666787637248
 31
0.0
  0
LINE
  5
9B
330
1F
100
AcDbEntity
  8
0-A_文字
  6
Continuous
 62
     7
370
     9
100
AcDbLine
 10
-2563.109199698325
 20
2486.666787637248
 30
0.0
 11
-2563.109199698325
 21
2636.666787637248
 31
0.0
  0
MTEXT
  5
9C
330
1F
100
AcDbEntity
  8
0-B_寸法
  6
Continuous
 62
     7
370
   211
100
AcDbMText
 10
-551.3876381044554
 20
-781.9032567212327
 30
0.0
 40
45.72
 41
60.0
 46
0.0
 71
     7
 72
     1
  1
{\fＭＳ ゴシック|b0|i0|c128|p49;15}
 11
6.123031769111886E-17
 21
1.0
 31
0.0
 73
     1
 44
1.0
  0
LINE
  5
9D
330
1F
100
AcDbEntity
  8
0-B_寸法
  6
Continuous
 62
   120
370
     5
100
AcDbLine
 10
-641.3876381044554
 20
-1469.2925497519
 30
0.0
 11
-541.3876381044554
 21
-1469.2925497519
 31
0.0
  0
LWPOLYLINE
  5
9E
330
1F
100
AcDbEntity
  8
0-B_寸法
  6
Continuous
 62
     7
370
     9
100
AcDbPolyline
 90
        4
 70
     1
 43
2.0
 10
-640.3876381044554
 20
-1469.2925497519
 42
0.4142135623731
 10
-641.3876381044554
 20
-1468.2925497519
 42
0.4142135623731
 10
-642.3876381044554
 20
-1469.2925497519
 42
0.4142135623731
 10
-641.3876381044554
 20
-1470.2925497519
 42
0.4142135623731
  0
LINE
  5
9F
330
1F
100
AcDbEntity
  8
0-1_本体
  6
Continuous
 62
    92
370
    13
100
AcDbLine
 10
-391.3876381044554
 20
-1469.2925497519
 30
0.0
 11
404.6123618955448
 21
-1469.2925497519
 31
0.0
  0
LINE
  5
A0
330
1F
100
AcDbEntity
  8
0-1_本体
  6
Continuous
 62
    92
370
    13
100
AcDbLine
 10
-376.3876381044554
 20
-1454.2925497519
 30
0.0
 11
389.6123618955448
 21
-1454.2925497519
 31
0.0
  0
LINE
  5
A1
330
1F
100
AcDbEntity
  8
0-6_桟木
  6
JWW_DASHED2
 62
     7
370
     9
100
AcDbLine
 10
389.6123618955448
 20
-1390.2925497519
 30
0.0
 11
-376.3876381044554
 21
-1390.2925497519
 31
0.0
  0
LINE
  5
A2
330
1F
100
AcDbEntity
  8
0-4_棚
  6
Continuous
 62
    92
370
    13
100
AcDbLine
 10
-376.3876381044554
 20
-850.3141586741555
 30
0.0
 11
389.6123618955448
 21
-850.3141586741555
 31
0.0
  0
LINE
  5
A3
330
1F
100
AcDbEntity
  8
0-4_棚
  6
Continuous
 62
    92
370
    13
100
AcDbLine
 10
-376.3876381044554
 20
-862.3141586741556
 30
0.0
 11
389.6123618955448
 21
-862.3141586741556
 31
0.0
  0
LINE
  5
A4
330
1F
100
AcDbEntity
  8
0-4_棚
  6
Continuous
 62
    92
370
    13
100
AcDbLine
 10
-376.3876381044554
 20
-1042.314158674156
 30
0.0
 11
389.6123618955448
 21
-1042.314158674156
 31
0.0
  0
LINE
  5
A5
330
1F
100
AcDbEntity
  8
0-4_棚
  6
Continuous
 62
    92
370
    13
100
AcDbLine
 10
-376.3876381044554
 20
-1054.314158674156
 30
0.0
 11
389.6123618955448
 21
-1054.314158674156
 31
0.0
  0
LINE
  5
A6
330
1F
100
AcDbEntity
  8
0-4_棚
  6
Continuous
 62
    92
370
    13
100
AcDbLine
 10
-376.3876381044554
 20
-1234.315057717715
 30
0.0
 11
389.6123618955448
 21
-1234.315057717715
 31
0.0
  0
LINE
  5
A7
330
1F
100
AcDbEntity
  8
0-4_棚
  6
Continuous
 62
    92
370
    13
100
AcDbLine
 10
-376.3876381044554
 20
-1246.315057717715
 30
0.0
 11
389.6123618955448
 21
-1246.315057717715
 31
0.0
  0
LINE
  5
A8
330
1F
100
AcDbEntity
  8
0-0_補助線
  6
JWW_HOJO
 62
   120
370
     5
100
AcDbLine
 10
-541.3876381044554
 20
-708.2925497519002
 30
0.0
 11
-541.3876381044554
 21
-1863.7925497519
 31
0.0
  0
LINE
  5
A9
330
1F
100
AcDbEntity
  8
0-B_寸法
  6
Continuous
 62
   120
370
     5
100
AcDbLine
 10
-641.3876381044554
 20
-708.2925497519002
 30
0.0
 11
-441.3876379648389
 21
-708.2925497518994
 31
0.0
  0
LINE
  5
AA
330
1F
100
AcDbEntity
  8
0-B_寸法
  6
Continuous
 62
   120
370
     5
100
AcDbLine
 10
-641.3876381044554
 20
-708.2925497519002
 30
0.0
 11
-641.3876381044554
 21
-1469.2925497519
 31
0.0
  0
LINE
  5
AB
330
1F
100
AcDbEntity
  8
0-1_本体
  6
Continuous
 62
    92
370
    13
100
AcDbLine
 10
404.6123618955448
 20
-1469.2925497519
 30
0.0
 11
404.6123618955448
 21
-708.2925497519002
 31
0.0
  0
LINE
  5
AC
330
1F
100
AcDbEntity
  8
0-1_本体
  6
Continuous
 62
    92
370
    13
100
AcDbLine
 10
-391.3876381044554
 20
-708.2925497519002
 30
0.0
 11
-391.3876381044554
 21
-1469.2925497519
 31
0.0
  0
LINE
  5
AD
330
1F
100
AcDbEntity
  8
0-1_本体
  6
Continuous
 62
    92
370
    13
100
AcDbLine
 10
389.6123618955448
 20
-1469.2925497519
 30
0.0
 11
389.6123618955448
 21
-708.2925497519002
 31
0.0
  0
LINE
  5
AE
330
1F
100
AcDbEntity
  8
0-1_本体
  6
Continuous
 62
    92
370
    13
100
AcDbLine
 10
-376.3876381044554
 20
-708.2925497519002
 30
0.0
 11
-376.3876381044554
 21
-1469.2925497519
 31
0.0
  0
LINE
  5
AF
330
1F
100
AcDbEntity
  8
0-6_桟木
  6
JWW_DASHED2
 62
     7
370
     9
100
AcDbLine
 10
389.6123618955448
 20
-787.2925497519003
 30
0.0
 11
-376.3876381044554
 21
-787.2925497519003
 31
0.0
  0
LINE
  5
B0
330
1F
100
AcDbEntity
  8
0-1_本体
  6
Continuous
 62
    92
370
    13
100
AcDbLine
 10
-376.3876381044554
 20
-723.2925497519002
 30
0.0
 11
389.6123618955448
 21
-723.2925497519002
 31
0.0
  0
MTEXT
  5
B1
330
1F
100
AcDbEntity
  8
0-B_寸法
  6
Continuous
 62
     7
370
   211
100
AcDbMText
 10
-651.3876381044554
 20
-1140.932569547086
 30
0.0
 40
45.72
 41
90.0
 46
0.0
 71
     7
 72
     1
  1
{\fＭＳ ゴシック|b0|i0|c128|p49;761}
 11
6.123031769111886E-17
 21
1.0
 31
0.0
 73
     1
 44
1.0
  0
LINE
  5
B2
330
1F
100
AcDbEntity
  8
0-B_寸法
  6
Continuous
 62
   120
370
     5
100
AcDbLine
 10
-541.3876381044554
 20
-1469.2925497519
 30
0.0
 11
-541.3876381044554
 21
-1454.2925497519
 31
0.0
  0
LWPOLYLINE
  5
B3
330
1F
100
AcDbEntity
  8
0-B_寸法
  6
Continuous
 62
     7
370
     9
100
AcDbPolyline
 90
        4
 70
     1
 43
2.0
 10
-540.3876381044554
 20
-1469.2925497519
 42
0.4142135623731
 10
-541.3876381044554
 20
-1468.2925497519
 42
0.4142135623731
 10
-542.3876381044554
 20
-1469.2925497519
 42
0.4142135623731
 10
-541.3876381044554
 20
-1470.2925497519
 42
0.4142135623731
  0
LWPOLYLINE
  5
B4
330
1F
100
AcDbEntity
  8
0-B_寸法
  6
Continuous
 62
     7
370
     9
100
AcDbPolyline
 90
        4
 70
     1
 43
2.0
 10
-540.3876381044554
 20
-1454.2925497519
 42
0.4142135623731
 10
-541.3876381044554
 20
-1453.2925497519
 42
0.4142135623731
 10
-542.3876381044554
 20
-1454.2925497519
 42
0.4142135623731
 10
-541.3876381044554
 20
-1455.2925497519
 42
0.4142135623731
  0
LINE
  5
B5
330
1F
100
AcDbEntity
  8
0-B_寸法
  6
Continuous
 62
   120
370
     5
100
AcDbLine
 10
-541.3876381044554
 20
-1469.2925497519
 30
0.0
 11
-441.3876381044554
 21
-1469.2925497519
 31
0.0
  0
LINE
  5
B6
330
1F
100
AcDbEntity
  8
0-B_寸法
  6
Continuous
 62
   120
370
     5
100
AcDbLine
 10
-541.3876381044554
 20
-1454.2925497519
 30
0.0
 11
-441.3876381044554
 21
-1454.2925497519
 31
0.0
  0
LINE
  5
B7
330
1F
100
AcDbEntity
  8
0-B_寸法
  6
Continuous
 62
   120
370
     5
100
AcDbLine
 10
-541.3876381044554
 20
-1454.2925497519
 30
0.0
 11
-541.3876381044554
 21
-723.2925497519002
 31
0.0
  0
LWPOLYLINE
  5
B8
330
1F
100
AcDbEntity
  8
0-B_寸法
  6
Continuous
 62
     7
370
     9
100
AcDbPolyline
 90
        4
 70
     1
 43
2.0
 10
-540.3876381044554
 20
-723.2925497519002
 42
0.4142135623731
 10
-541.3876381044554
 20
-722.2925497519003
 42
0.4142135623731
 10
-542.3876381044554
 20
-723.2925497519002
 42
0.4142135623731
 10
-541.3876381044554
 20
-724.2925497519002
 42
0.4142135623731
  0
LINE
  5
B9
330
1F
100
AcDbEntity
  8
0-B_寸法
  6
Continuous
 62
   120
370
     5
100
AcDbLine
 10
-541.3876381044554
 20
-723.2925497519002
 30
0.0
 11
-441.3876381044554
 21
-723.2925497519002
 31
0.0
  0
MTEXT
  5
BA
330
1F
100
AcDbEntity
  8
0-B_寸法
  6
Continuous
 62
     7
370
   211
100
AcDbMText
 10
-551.3876381044554
 20
-1140.9325497519
 30
0.0
 40
45.72
 41
90.0
 46
0.0
 71
     7
 72
     1
  1
{\fＭＳ ゴシック|b0|i0|c128|p49;731}
 11
6.123031769111886E-17
 21
1.0
 31
0.0
 73
     1
 44
1.0
  0
LINE
  5
BB
330
1F
100
AcDbEntity
  8
0-B_寸法
  6
Continuous
 62
   120
370
     5
100
AcDbLine
 10
-541.3876381044554
 20
-723.2925497519002
 30
0.0
 11
-541.3876381044554
 21
-708.2925497519002
 31
0.0
  0
LWPOLYLINE
  5
BC
330
1F
100
AcDbEntity
  8
0-B_寸法
  6
Continuous
 62
     7
370
     9
100
AcDbPolyline
 90
        4
 70
     1
 43
2.0
 10
-540.3876381044554
 20
-708.2925497519002
 42
0.4142135623731
 10
-541.3876381044554
 20
-707.2925497519003
 42
0.4142135623731
 10
-542.3876381044554
 20
-708.2925497519002
 42
0.4142135623731
 10
-541.3876381044554
 20
-709.2925497519002
 42
0.4142135623731
  0
MTEXT
  5
BD
330
1F
100
AcDbEntity
  8
0-B_寸法
  6
Continuous
 62
     7
370
   211
100
AcDbMText
 10
-551.3876381044554
 20
-1469.814263761855
 30
0.0
 40
45.72
 41
60.0
 46
0.0
 71
     7
 72
     1
  1
{\fＭＳ ゴシック|b0|i0|c128|p49;15}
 11
6.123031769111886E-17
 21
1.0
 31
0.0
 73
     1
 44
1.0
  0
LINE
  5
BE
330
1F
100
AcDbEntity
  8
0-0_補助線
  6
JWW_HOJO
 62
     7
370
     9
100
AcDbLine
 10
-641.3876381044571
 20
2052.581290537091
 30
0.0
 11
454.612361895546
 21
2052.581290537091
 31
0.0
  0
LINE
  5
BF
330
1F
100
AcDbEntity
  8
0-A_文字
  6
Continuous
 62
     7
370
     9
100
AcDbLine
 10
-418.3876381044558
 20
1129.581290537091
 30
0.0
 11
-418.3876381044558
 21
1279.581290537091
 31
0.0
  0
LINE
  5
C0
330
1F
100
AcDbEntity
  8
0-A_文字
  6
Continuous
 62
     7
370
     9
100
AcDbLine
 10
431.6123618955442
 20
1129.581290537091
 30
0.0
 11
-418.3876381044558
 21
1129.581290537091
 31
0.0
  0
LINE
  5
C1
330
1F
100
AcDbEntity
  8
0-A_文字
  6
Continuous
 62
     7
370
     9
100
AcDbLine
 10
431.6123618955442
 20
1279.581290537091
 30
0.0
 11
431.6123618955442
 21
1129.581290537091
 31
0.0
  0
LINE
  5
C2
330
1F
100
AcDbEntity
  8
0-A_文字
  6
Continuous
 62
     7
370
     9
100
AcDbLine
 10
-418.3876381044558
 20
1279.581290537091
 30
0.0
 11
431.6123618955442
 21
1279.581290537091
 31
0.0
  0
MTEXT
  5
C3
330
1F
100
AcDbEntity
  8
0-A_文字
  6
Continuous
 62
     7
370
     9
100
AcDbMText
 10
-193.3876381044558
 20
1135.381290537091
 30
0.0
 40
101.6
 41
400.0
 46
0.0
 71
     7
 72
     1
  1
{\fＭＳ ゴシック|b0|i0|c128|p49;平面図}
 73
     1
 44
1.0
  0
MTEXT
  5
C4
330
1F
100
AcDbEntity
  8
0-B_寸法
  6
Continuous
 62
     7
370
   211
100
AcDbMText
 10
-38.38763810445585
 20
1432.441290537089
 30
0.0
 40
45.72
 41
90.0
 46
0.0
 71
     7
 72
     1
  1
{\fＭＳ ゴシック|b0|i0|c128|p49;796}
 73
     1
 44
1.0
  0
LINE
  5
C5
330
1F
100
AcDbEntity
  8
0-B_寸法
  6
Continuous
 62
   120
370
     5
100
AcDbLine
 10
404.6123618955448
 20
1429.581290537089
 30
0.0
 11
404.6123618955448
 21
1529.581290537089
 31
0.0
  0
LINE
  5
C6
330
1F
100
AcDbEntity
  8
0-B_寸法
  6
Continuous
 62
   120
370
     5
100
AcDbLine
 10
-391.3876381044554
 20
1429.581290537089
 30
0.0
 11
-391.3876381044554
 21
1529.581290537089
 31
0.0
  0
LWPOLYLINE
  5
C7
330
1F
100
AcDbEntity
  8
0-B_寸法
  6
Continuous
 62
     7
370
     9
100
AcDbPolyline
 90
        4
 70
     1
 43
2.0
 10
405.6123618955448
 20
1429.581290537089
 42
0.4142135623731
 10
404.6123618955448
 20
1430.581290537089
 42
0.4142135623731
 10
403.6123618955448
 20
1429.581290537089
 42
0.4142135623731
 10
404.6123618955448
 20
1428.581290537089
 42
0.4142135623731
  0
LWPOLYLINE
  5
C8
330
1F
100
AcDbEntity
  8
0-B_寸法
  6
Continuous
 62
     7
370
     9
100
AcDbPolyline
 90
        4
 70
     1
 43
2.0
 10
-390.3876381044554
 20
1429.581290537089
 42
0.4142135623731
 10
-391.3876381044554
 20
1430.581290537089
 42
0.4142135623731
 10
-392.3876381044554
 20
1429.581290537089
 42
0.4142135623731
 10
-391.3876381044554
 20
1428.581290537089
 42
0.4142135623731
  0
LINE
  5
C9
330
1F
100
AcDbEntity
  8
0-B_寸法
  6
Continuous
 62
   120
370
     5
100
AcDbLine
 10
-391.3876381044554
 20
1429.581290537089
 30
0.0
 11
404.6123618955448
 21
1429.581290537089
 31
0.0
  0
LINE
  5
CA
330
1F
100
AcDbEntity
  8
0-4_棚
  6
Continuous
 62
    92
370
    13
100
AcDbLine
 10
-376.3876381044571
 20
1759.581290537089
 30
0.0
 11
389.6123618955448
 21
1759.581290537089
 31
0.0
  0
LINE
  5
CB
330
1F
100
AcDbEntity
  8
0-1_本体
  6
Continuous
 62
    40
370
    15
100
AcDbLine
 10
389.6123618955448
 20
2049.58129053709
 30
0.0
 11
389.6123618955448
 21
1707.581290537091
 31
0.0
  0
LINE
  5
CC
330
1F
100
AcDbEntity
  8
0-1_本体
  6
Continuous
 62
    40
370
    15
100
AcDbLine
 10
-376.3876381044571
 20
2049.58129053709
 30
0.0
 11
-376.3876381044571
 21
1707.581290537091
 31
0.0
  0
LINE
  5
CD
330
1F
100
AcDbEntity
  8
0-1_本体
  6
Continuous
 62
    40
370
    15
100
AcDbLine
 10
404.6123618955448
 20
1707.581290537091
 30
0.0
 11
404.6123618955448
 21
2052.581290537091
 31
0.0
  0
LINE
  5
CE
330
1F
100
AcDbEntity
  8
0-1_本体
  6
Continuous
 62
    40
370
    15
100
AcDbLine
 10
389.6123618955448
 20
1707.581290537091
 30
0.0
 11
404.6123618955448
 21
1707.581290537091
 31
0.0
  0
LINE
  5
CF
330
1F
100
AcDbEntity
  8
0-1_本体
  6
Continuous
 62
    40
370
    15
100
AcDbLine
 10
-391.3876381044571
 20
1707.581290537091
 30
0.0
 11
-391.3876381044571
 21
2052.581290537091
 31
0.0
  0
LINE
  5
D0
330
1F
100
AcDbEntity
  8
0-1_本体
  6
Continuous
 62
    40
370
    15
100
AcDbLine
 10
-376.3876381044571
 20
1707.581290537091
 30
0.0
 11
-391.3876381044571
 21
1707.581290537091
 31
0.0
  0
LINE
  5
D1
330
1F
100
AcDbEntity
  8
0-0_補助線
  6
JWW_HOJO
 62
     7
370
     9
100
AcDbLine
 10
-641.3876381044571
 20
1707.581290537091
 30
0.0
 11
454.612361895546
 21
1707.581290537091
 31
0.0
  0
LINE
  5
D2
330
1F
100
AcDbEntity
  8
0-0_補助線
  6
JWW_HOJO
 62
   120
370
     5
100
AcDbLine
 10
454.612361895546
 20
1429.581290537091
 30
0.0
 11
454.612361895546
 21
2102.581290537091
 31
0.0
  0
LINE
  5
D3
330
1F
100
AcDbEntity
  8
0-0_補助線
  6
JWW_HOJO
 62
   120
370
     5
100
AcDbLine
 10
-641.3876381044577
 20
1529.581290537091
 30
0.0
 11
454.612361895546
 21
1529.581290537091
 31
0.0
  0
LINE
  5
D4
330
1F
100
AcDbEntity
  8
0-0_補助線
  6
JWW_HOJO
 62
   120
370
     5
100
AcDbLine
 10
-641.3876381044577
 20
2102.581290537091
 30
0.0
 11
454.612361895546
 21
2102.581290537091
 31
0.0
  0
LINE
  5
D5
330
1F
100
AcDbEntity
  8
0-0_補助線
  6
JWW_HOJO
 62
   120
370
     5
100
AcDbLine
 10
-641.3876381044577
 20
1429.581290537091
 30
0.0
 11
454.612361895546
 21
1429.581290537091
 31
0.0
  0
LINE
  5
D6
330
1F
100
AcDbEntity
  8
0-0_補助線
  6
JWW_HOJO
 62
   120
370
     5
100
AcDbLine
 10
-641.3876381044577
 20
2102.581290537091
 30
0.0
 11
-641.3876381044577
 21
1429.581290537091
 31
0.0
  0
LINE
  5
D7
330
1F
100
AcDbEntity
  8
0-0_補助線
  6
JWW_HOJO
 62
   120
370
     5
100
AcDbLine
 10
-441.3876381044577
 20
2102.581290537091
 30
0.0
 11
-441.3876381044577
 21
1429.581290537091
 31
0.0
  0
LINE
  5
D8
330
1F
100
AcDbEntity
  8
0-0_補助線
  6
JWW_HOJO
 62
   120
370
     5
100
AcDbLine
 10
-541.3876381044577
 20
2102.581290537091
 30
0.0
 11
-541.3876381044577
 21
1429.581290537091
 31
0.0
  0
LINE
  5
D9
330
1F
100
AcDbEntity
  8
0-1_本体
  6
Continuous
 62
    92
370
    13
100
AcDbLine
 10
-391.3876381044565
 20
699.7074502481092
 30
0.0
 11
404.6123618955448
 21
699.7074502481092
 31
0.0
  0
LINE
  5
DA
330
1F
100
AcDbEntity
  8
0-1_本体
  6
Continuous
 62
    92
370
    13
100
AcDbLine
 10
404.6123618955448
 20
699.7074502481092
 30
0.0
 11
404.6123618955448
 21
130.7074502481089
 31
0.0
  0
LINE
  5
DB
330
1F
100
AcDbEntity
  8
0-1_本体
  6
Continuous
 62
    92
370
    13
100
AcDbLine
 10
404.6123618955448
 20
130.7074502481089
 30
0.0
 11
-391.3876381044565
 21
130.7074502481089
 31
0.0
  0
LINE
  5
DC
330
1F
100
AcDbEntity
  8
0-1_本体
  6
Continuous
 62
    92
370
    13
100
AcDbLine
 10
-391.3876381044565
 20
130.7074502481089
 30
0.0
 11
-391.3876381044565
 21
699.7074502481092
 31
0.0
  0
LINE
  5
DD
330
1F
100
AcDbEntity
  8
0-1_本体
  6
Continuous
 62
    92
370
    13
100
AcDbLine
 10
-376.3876381044565
 20
130.7074502481089
 30
0.0
 11
-376.3876381044565
 21
699.7074502481092
 31
0.0
  0
LINE
  5
DE
330
1F
100
AcDbEntity
  8
0-1_本体
  6
Continuous
 62
    92
370
    13
100
AcDbLine
 10
389.6123618955448
 20
699.7074502481092
 30
0.0
 11
389.6123618955448
 21
130.7074502481089
 31
0.0
  0
LINE
  5
DF
330
1F
100
AcDbEntity
  8
0-1_本体
  6
Continuous
 62
    92
370
    13
100
AcDbLine
 10
389.6123618955448
 20
145.7074502481089
 30
0.0
 11
-376.3876381044565
 21
145.7074502481089
 31
0.0
  0
LINE
  5
E0
330
1F
100
AcDbEntity
  8
0-1_本体
  6
Continuous
 62
    92
370
    13
100
AcDbLine
 10
-376.3876381044565
 20
684.7074502481092
 30
0.0
 11
389.6123618955448
 21
684.7074502481092
 31
0.0
  0
LINE
  5
E1
330
1F
100
AcDbEntity
  8
0-6_桟木
  6
JWW_DASHED2
 62
     7
370
     9
100
AcDbLine
 10
389.6123618955448
 20
620.7074502481095
 30
0.0
 11
-376.3876381044565
 21
620.7074502481095
 31
0.0
  0
LINE
  5
E2
330
1F
100
AcDbEntity
  8
0-6_桟木
  6
JWW_DASHED2
 62
     7
370
     9
100
AcDbLine
 10
389.6123618955448
 20
209.7074502481087
 30
0.0
 11
-376.3876381044565
 21
209.7074502481087
 31
0.0
  0
LINE
  5
E3
330
1F
100
AcDbEntity
  8
0-B_寸法
  6
Continuous
 62
   120
370
     5
100
AcDbLine
 10
-641.3876381044554
 20
699.7074502481092
 30
0.0
 11
-641.3876381044554
 21
130.7073182802037
 31
0.0
  0
LWPOLYLINE
  5
E4
330
1F
100
AcDbEntity
  8
0-B_寸法
  6
Continuous
 62
     7
370
     9
100
AcDbPolyline
 90
        4
 70
     1
 43
2.0
 10
-640.3876381044554
 20
699.7074502481092
 42
0.4142135623731
 10
-641.3876381044554
 20
700.7074502481091
 42
0.4142135623731
 10
-642.3876381044554
 20
699.7074502481092
 42
0.4142135623731
 10
-641.3876381044554
 20
698.7074502481094
 42
0.4142135623731
  0
LWPOLYLINE
  5
E5
330
1F
100
AcDbEntity
  8
0-B_寸法
  6
Continuous
 62
     7
370
     9
100
AcDbPolyline
 90
        4
 70
     1
 43
2.0
 10
-640.3876381044554
 20
130.7073182802037
 42
0.4142135623731
 10
-641.3876381044554
 20
131.7073182802037
 42
0.4142135623731
 10
-642.3876381044554
 20
130.7073182802037
 42
0.4142135623731
 10
-641.3876381044554
 20
129.7073182802037
 42
0.4142135623731
  0
LINE
  5
E6
330
1F
100
AcDbEntity
  8
0-B_寸法
  6
Continuous
 62
   120
370
     5
100
AcDbLine
 10
-641.3876381044554
 20
699.7074502481092
 30
0.0
 11
-441.3876381044565
 21
699.7074502481092
 31
0.0
  0
LINE
  5
E7
330
1F
100
AcDbEntity
  8
0-B_寸法
  6
Continuous
 62
   120
370
     5
100
AcDbLine
 10
-641.3876381044554
 20
130.7073182802037
 30
0.0
 11
-441.3876381044565
 21
130.7073182802037
 31
0.0
  0
MTEXT
  5
E8
330
1F
100
AcDbEntity
  8
0-B_寸法
  6
Continuous
 62
     7
370
   211
100
AcDbMText
 10
-646.1781287177166
 20
363.0673842641568
 30
0.0
 40
45.72
 41
90.0
 46
0.0
 71
     7
 72
     1
  1
{\fＭＳ ゴシック|b0|i0|c128|p49;569}
 11
6.123031769111886E-17
 21
1.0
 31
0.0
 73
     1
 44
1.0
  0
LINE
  5
E9
330
1F
100
AcDbEntity
  8
0-B_寸法
  6
Continuous
 62
   120
370
     5
100
AcDbLine
 10
-541.3876381044554
 20
699.7074502481092
 30
0.0
 11
-541.3876381044554
 21
130.7074502481089
 31
0.0
  0
LWPOLYLINE
  5
EA
330
1F
100
AcDbEntity
  8
0-B_寸法
  6
Continuous
 62
     7
370
     9
100
AcDbPolyline
 90
        4
 70
     1
 43
2.0
 10
-540.3876381044554
 20
699.7074502481092
 42
0.4142135623731
 10
-541.3876381044554
 20
700.7074502481091
 42
0.4142135623731
 10
-542.3876381044554
 20
699.7074502481092
 42
0.4142135623731
 10
-541.3876381044554
 20
698.7074502481094
 42
0.4142135623731
  0
LWPOLYLINE
  5
EB
330
1F
100
AcDbEntity
  8
0-B_寸法
  6
Continuous
 62
     7
370
     9
100
AcDbPolyline
 90
        4
 70
     1
 43
2.0
 10
-540.3876381044554
 20
684.7074502481092
 42
0.4142135623731
 10
-541.3876381044554
 20
685.7074502481091
 42
0.4142135623731
 10
-542.3876381044554
 20
684.7074502481092
 42
0.4142135623731
 10
-541.3876381044554
 20
683.7074502481094
 42
0.4142135623731
  0
LINE
  5
EC
330
1F
100
AcDbEntity
  8
0-B_寸法
  6
Continuous
 62
   120
370
     5
100
AcDbLine
 10
-541.3876381044554
 20
684.7074502481092
 30
0.0
 11
-441.3876381044565
 21
684.7074502481092
 31
0.0
  0
LWPOLYLINE
  5
ED
330
1F
100
AcDbEntity
  8
0-B_寸法
  6
Continuous
 62
     7
370
     9
100
AcDbPolyline
 90
        4
 70
     1
 43
2.0
 10
-540.3876381044554
 20
145.7074502481089
 42
0.4142135623731
 10
-541.3876381044554
 20
146.7074502481089
 42
0.4142135623731
 10
-542.3876381044554
 20
145.7074502481089
 42
0.4142135623731
 10
-541.3876381044554
 20
144.7074502481089
 42
0.4142135623731
  0
LINE
  5
EE
330
1F
100
AcDbEntity
  8
0-B_寸法
  6
Continuous
 62
   120
370
     5
100
AcDbLine
 10
-541.3876381044554
 20
145.7074502481089
 30
0.0
 11
-441.3876381044565
 21
145.7074502481089
 31
0.0
  0
MTEXT
  5
EF
330
1F
100
AcDbEntity
  8
0-B_寸法
  6
Continuous
 62
     7
370
   211
100
AcDbMText
 10
-551.3876381044554
 20
363.0674502481088
 30
0.0
 40
45.72
 41
90.0
 46
0.0
 71
     7
 72
     1
  1
{\fＭＳ ゴシック|b0|i0|c128|p49;539}
 11
6.123031769111886E-17
 21
1.0
 31
0.0
 73
     1
 44
1.0
  0
LWPOLYLINE
  5
F0
330
1F
100
AcDbEntity
  8
0-B_寸法
  6
Continuous
 62
     7
370
     9
100
AcDbPolyline
 90
        4
 70
     1
 43
2.0
 10
-540.3876381044554
 20
130.7074502481089
 42
0.4142135623731
 10
-541.3876381044554
 20
131.7074502481089
 42
0.4142135623731
 10
-542.3876381044554
 20
130.7074502481089
 42
0.4142135623731
 10
-541.3876381044554
 20
129.7074502481089
 42
0.4142135623731
  0
LINE
  5
F1
330
1F
100
AcDbEntity
  8
0-B_寸法
  6
Continuous
 62
   120
370
     5
100
AcDbLine
 10
-541.3876381044554
 20
130.7074502481089
 30
0.0
 11
-441.3876381044565
 21
130.7074502481089
 31
0.0
  0
MTEXT
  5
F2
330
1F
100
AcDbEntity
  8
0-B_寸法
  6
Continuous
 62
     7
370
   211
100
AcDbMText
 10
-551.3876381044554
 20
101.0674502481095
 30
0.0
 40
45.72
 41
60.0
 46
0.0
 71
     7
 72
     1
  1
{\fＭＳ ゴシック|b0|i0|c128|p49;15}
 11
6.123031769111886E-17
 21
1.0
 31
0.0
 73
     1
 44
1.0
  0
LINE
  5
F3
330
1F
100
AcDbEntity
  8
0-4_棚
  6
Continuous
 62
    92
370
    13
100
AcDbLine
 10
-376.3876381044565
 20
401.7074502481091
 30
0.0
 11
389.6123618955448
 21
401.7074502481091
 31
0.0
  0
LINE
  5
F4
330
1F
100
AcDbEntity
  8
0-4_棚
  6
Continuous
 62
    92
370
    13
100
AcDbLine
 10
-376.3876381044565
 20
413.707450248109
 30
0.0
 11
389.6123618955448
 21
413.707450248109
 31
0.0
  0
MTEXT
  5
F5
330
1F
100
AcDbEntity
  8
0-B_寸法
  6
Continuous
 62
     7
370
   211
100
AcDbMText
 10
-551.3876381044554
 20
624.7884741443795
 30
0.0
 40
45.72
 41
60.0
 46
0.0
 71
     7
 72
     1
  1
{\fＭＳ ゴシック|b0|i0|c128|p49;15}
 11
6.123031769111886E-17
 21
1.0
 31
0.0
 73
     1
 44
1.0
  0
LINE
  5
F6
330
1F
100
AcDbEntity
  8
0-0_補助線
  6
JWW_HOJO
 62
   120
370
     5
100
AcDbLine
 10
454.612361895546
 20
-1863.7925497519
 30
0.0
 11
454.612361895546
 21
949.7074502481092
 31
0.0
  0
LINE
  5
F7
330
1F
100
AcDbEntity
  8
0-0_補助線
  6
JWW_HOJO
 62
   120
370
     5
100
AcDbLine
 10
454.612361895546
 20
949.7074502481092
 30
0.0
 11
-541.3876381044554
 21
949.7074502481092
 31
0.0
  0
LINE
  5
F8
330
1F
100
AcDbEntity
  8
0-0_補助線
  6
JWW_HOJO
 62
   120
370
     5
100
AcDbLine
 10
-541.3876381044554
 20
130.7074502481089
 30
0.0
 11
-541.3876381044554
 21
949.7074502481092
 31
0.0
  0
LINE
  5
F9
330
1F
100
AcDbEntity
  8
0-0_補助線
  6
JWW_HOJO
 62
   120
370
     5
100
AcDbLine
 10
-441.3876381044554
 20
-1863.7925497519
 30
0.0
 11
-441.3876381044554
 21
949.7074502481092
 31
0.0
  0
LINE
  5
FA
330
1F
100
AcDbEntity
  8
0-0_補助線
  6
JWW_HOJO
 62
     7
370
     9
100
AcDbLine
 10
-391.3876381044577
 20
2102.581290537091
 30
0.0
 11
-391.3876381044577
 21
-1863.7925497519
 31
0.0
  0
LINE
  5
FB
330
1F
100
AcDbEntity
  8
0-0_補助線
  6
JWW_HOJO
 62
     7
370
     9
100
AcDbLine
 10
404.6123618955448
 20
2102.581290537091
 30
0.0
 11
404.6123618955448
 21
-1863.7925497519
 31
0.0
  0
MTEXT
  5
FC
330
1F
100
AcDbEntity
  8
0-B_寸法
  6
Continuous
 62
     7
370
   211
100
AcDbMText
 10
-2647.387638104453
 20
-1466.52537654565
 30
0.0
 40
45.72
 41
30.0
 46
0.0
 71
     7
 72
     1
  1
{\fＭＳ ゴシック|b0|i0|c128|p49;3}
 11
6.123031769111886E-17
 21
1.0
 31
0.0
 73
     1
 44
1.0
  0
LINE
  5
FD
330
1F
100
AcDbEntity
  8
0-B_寸法
  6
Continuous
 62
   120
370
     5
100
AcDbLine
 10
-2637.387638104453
 20
-1466.2925497519
 30
0.0
 11
-2537.387638104454
 21
-1466.2925497519
 31
0.0
  0
LINE
  5
FE
330
1F
100
AcDbEntity
  8
0-B_寸法
  6
Continuous
 62
   120
370
     5
100
AcDbLine
 10
-2637.387638104453
 20
-1469.2925497519
 30
0.0
 11
-2537.387638104454
 21
-1469.2925497519
 31
0.0
  0
LWPOLYLINE
  5
FF
330
1F
100
AcDbEntity
  8
0-B_寸法
  6
Continuous
 62
     7
370
     9
100
AcDbPolyline
 90
        4
 70
     1
 43
2.0
 10
-2636.387638104453
 20
-1466.2925497519
 42
0.4142135623731
 10
-2637.387638104453
 20
-1465.2925497519
 42
0.4142135623731
 10
-2638.387638104454
 20
-1466.2925497519
 42
0.4142135623731
 10
-2637.387638104453
 20
-1467.2925497519
 42
0.4142135623731
  0
LWPOLYLINE
  5
100
330
1F
100
AcDbEntity
  8
0-B_寸法
  6
Continuous
 62
     7
370
     9
100
AcDbPolyline
 90
        4
 70
     1
 43
2.0
 10
-2636.387638104453
 20
-1469.2925497519
 42
0.4142135623731
 10
-2637.387638104453
 20
-1468.2925497519
 42
0.4142135623731
 10
-2638.387638104454
 20
-1469.2925497519
 42
0.4142135623731
 10
-2637.387638104453
 20
-1470.2925497519
 42
0.4142135623731
  0
LINE
  5
101
330
1F
100
AcDbEntity
  8
0-B_寸法
  6
Continuous
 62
   120
370
     5
100
AcDbLine
 10
-2637.387638104453
 20
-1469.2925497519
 30
0.0
 11
-2637.387638104453
 21
-1466.2925497519
 31
0.0
  0
LINE
  5
102
330
1F
100
AcDbEntity
  8
0-1_本体
  6
Continuous
 62
     7
370
     9
100
AcDbLine
 10
-2487.387638104454
 20
-1469.2925497519
 30
0.0
 11
-1691.387638104455
 21
-1469.2925497519
 31
0.0
  0
LINE
  5
103
330
1F
100
AcDbEntity
  8
0-2_扉
  6
Continuous
 62
    92
370
    13
100
AcDbLine
 10
-2091.387638104456
 20
-1466.2925497519
 30
0.0
 11
-2485.387638104456
 21
-1466.2925497519
 31
0.0
  0
LINE
  5
104
330
1F
100
AcDbEntity
  8
0-2_扉
  6
Continuous
 62
    92
370
    13
100
AcDbLine
 10
-2087.387638104455
 20
-1466.2925497519
 30
0.0
 11
-1693.387638104454
 21
-1466.2925497519
 31
0.0
  0
MTEXT
  5
105
330
1F
100
AcDbEntity
  8
0-B_寸法
  6
Continuous
 62
     7
370
   211
100
AcDbMText
 10
-2647.387638104453
 20
-749.8692224269985
 30
0.0
 40
45.72
 41
30.0
 46
0.0
 71
     7
 72
     1
  1
{\fＭＳ ゴシック|b0|i0|c128|p49;3}
 11
6.123031769111886E-17
 21
1.0
 31
0.0
 73
     1
 44
1.0
  0
LINE
  5
106
330
1F
100
AcDbEntity
  8
0-B_寸法
  6
Continuous
 62
   120
370
     5
100
AcDbLine
 10
-2637.387638104453
 20
-711.2925497518997
 30
0.0
 11
-2537.387638104454
 21
-711.2925497518997
 31
0.0
  0
LWPOLYLINE
  5
107
330
1F
100
AcDbEntity
  8
0-B_寸法
  6
Continuous
 62
     7
370
     9
100
AcDbPolyline
 90
        4
 70
     1
 43
2.0
 10
-2636.387638104453
 20
-711.2925497518997
 42
0.4142135623731
 10
-2637.387638104453
 20
-710.2925497518999
 42
0.4142135623731
 10
-2638.387638104454
 20
-711.2925497518997
 42
0.4142135623731
 10
-2637.387638104453
 20
-712.2925497518997
 42
0.4142135623731
  0
LINE
  5
108
330
1F
100
AcDbEntity
  8
0-B_寸法
  6
Continuous
 62
   120
370
     5
100
AcDbLine
 10
-2637.387638104453
 20
-1466.2925497519
 30
0.0
 11
-2637.387638104453
 21
-711.2925497518997
 31
0.0
  0
LINE
  5
109
330
1F
100
AcDbEntity
  8
0-B_寸法
  6
Continuous
 62
   120
370
     5
100
AcDbLine
 10
-2637.387638104453
 20
-708.2925497519002
 30
0.0
 11
-2537.387638104454
 21
-708.2925497519002
 31
0.0
  0
LWPOLYLINE
  5
10A
330
1F
100
AcDbEntity
  8
0-B_寸法
  6
Continuous
 62
     7
370
     9
100
AcDbPolyline
 90
        4
 70
     1
 43
2.0
 10
-2636.387638104453
 20
-708.2925497519002
 42
0.4142135623731
 10
-2637.387638104453
 20
-707.2925497519003
 42
0.4142135623731
 10
-2638.387638104454
 20
-708.2925497519002
 42
0.4142135623731
 10
-2637.387638104453
 20
-709.2925497519002
 42
0.4142135623731
  0
LINE
  5
10B
330
1F
100
AcDbEntity
  8
0-B_寸法
  6
Continuous
 62
   120
370
     5
100
AcDbLine
 10
-2637.387638104453
 20
-711.2925497518997
 30
0.0
 11
-2637.387638104453
 21
-708.2925497519002
 31
0.0
  0
LINE
  5
10C
330
1F
100
AcDbEntity
  8
0-1_本体
  6
Continuous
 62
     7
370
     9
100
AcDbLine
 10
-2487.387638104454
 20
-708.2925497519002
 30
0.0
 11
-2487.387638104454
 21
-1469.2925497519
 31
0.0
  0
LINE
  5
10D
330
1F
100
AcDbEntity
  8
0-1_本体
  6
Continuous
 62
     7
370
     9
100
AcDbLine
 10
-1691.387638104455
 20
-1469.2925497519
 30
0.0
 11
-1691.387638104455
 21
-708.2925497519002
 31
0.0
  0
LINE
  5
10E
330
1F
100
AcDbEntity
  8
0-2_扉
  6
Continuous
 62
    92
370
    13
100
AcDbLine
 10
-2485.387638104456
 20
-711.2926939150543
 30
0.0
 11
-2485.387638104456
 21
-1466.2925497519
 31
0.0
  0
LINE
  5
10F
330
1F
100
AcDbEntity
  8
0-2_扉
  6
Continuous
 62
    92
370
    13
100
AcDbLine
 10
-1693.387638104454
 20
-711.2926939150543
 30
0.0
 11
-1693.387638104454
 21
-1466.2925497519
 31
0.0
  0
LINE
  5
110
330
1F
100
AcDbEntity
  8
0-2_扉
  6
Continuous
 62
    92
370
    13
100
AcDbLine
 10
-2087.387638104455
 20
-711.2926939150543
 30
0.0
 11
-2087.387638104455
 21
-1466.2925497519
 31
0.0
  0
LINE
  5
111
330
1F
100
AcDbEntity
  8
0-2_扉
  6
Continuous
 62
    92
370
    13
100
AcDbLine
 10
-2091.387638104456
 20
-711.2926939150543
 30
0.0
 11
-2091.387638104456
 21
-1466.2925497519
 31
0.0
  0
LINE
  5
112
330
1F
100
AcDbEntity
  8
0-2_扉
  6
Continuous
 62
    92
370
    13
100
AcDbLine
 10
-2087.387638104455
 20
-711.2926939150543
 30
0.0
 11
-1693.387638104454
 21
-711.2926939150543
 31
0.0
  0
LINE
  5
113
330
1F
100
AcDbEntity
  8
0-2_扉
  6
Continuous
 62
    92
370
    13
100
AcDbLine
 10
-2091.387638104456
 20
-711.2926939150543
 30
0.0
 11
-2485.387638104456
 21
-711.2926939150543
 31
0.0
  0
MTEXT
  5
114
330
1F
100
AcDbEntity
  8
0-B_寸法
  6
Continuous
 62
     7
370
   211
100
AcDbMText
 10
-2647.387638104453
 20
-1230.932569547085
 30
0.0
 40
45.71999999999999
 41
270.0
 46
0.0
 71
     7
 72
     1
  1
{\fＭＳ ゴシック|b0|i0|c128|p49;ＤＨ＝755}
 11
6.123031769111886E-17
 21
1.0
 31
0.0
 73
     1
 44
1.0
  0
LINE
  5
115
330
1F
100
AcDbEntity
  8
0-B_寸法
  6
Continuous
 62
   120
370
     5
100
AcDbLine
 10
-2637.387638011379
 20
-708.2925415039057
 30
0.0
 11
-2537.38763801138
 21
-708.2925415039057
 31
0.0
  0
LWPOLYLINE
  5
116
330
1F
100
AcDbEntity
  8
0-B_寸法
  6
Continuous
 62
     7
370
     9
100
AcDbPolyline
 90
        4
 70
     1
 43
2.0
 10
-2636.387638011379
 20
-708.2925415039057
 42
0.4142135623731
 10
-2637.387638011379
 20
-707.2925415039058
 42
0.4142135623731
 10
-2638.387638011379
 20
-708.2925415039057
 42
0.4142135623731
 10
-2637.387638011379
 20
-709.2925415039056
 42
0.4142135623731
  0
LINE
  5
117
330
1F
100
AcDbEntity
  8
0-1_本体
  6
Continuous
 62
     7
370
     9
100
AcDbLine
 10
-2487.387638104455
 20
699.7074502481092
 30
0.0
 11
-1691.387638104456
 21
699.7074502481092
 31
0.0
  0
LINE
  5
118
330
1F
100
AcDbEntity
  8
0-1_本体
  6
Continuous
 62
     7
370
     9
100
AcDbLine
 10
-1691.387638104456
 20
699.7074502481092
 30
0.0
 11
-1691.387638104456
 21
130.7074502481089
 31
0.0
  0
LINE
  5
119
330
1F
100
AcDbEntity
  8
0-1_本体
  6
Continuous
 62
     7
370
     9
100
AcDbLine
 10
-1691.387638104456
 20
130.7074502481089
 30
0.0
 11
-2487.387638104455
 21
130.7074502481089
 31
0.0
  0
LINE
  5
11A
330
1F
100
AcDbEntity
  8
0-1_本体
  6
Continuous
 62
     7
370
     9
100
AcDbLine
 10
-2487.387638104455
 20
130.7074502481089
 30
0.0
 11
-2487.387638104455
 21
699.7074502481092
 31
0.0
  0
LINE
  5
11B
330
1F
100
AcDbEntity
  8
0-2_扉
  6
Continuous
 62
    92
370
    13
100
AcDbLine
 10
-2087.387638104455
 20
696.7074502481091
 30
0.0
 11
-2087.387638104455
 21
133.7074502481096
 31
0.0
  0
LINE
  5
11C
330
1F
100
AcDbEntity
  8
0-2_扉
  6
Continuous
 62
    92
370
    13
100
AcDbLine
 10
-2091.387638104456
 20
696.7074502481091
 30
0.0
 11
-2091.387638104456
 21
133.7074502481096
 31
0.0
  0
LINE
  5
11D
330
1F
100
AcDbEntity
  8
0-2_扉
  6
Continuous
 62
    92
370
    13
100
AcDbLine
 10
-2087.387638104455
 20
133.7074502481096
 30
0.0
 11
-1693.387638104454
 21
133.7074502481096
 31
0.0
  0
LINE
  5
11E
330
1F
100
AcDbEntity
  8
0-2_扉
  6
Continuous
 62
    92
370
    13
100
AcDbLine
 10
-2087.387638104455
 20
696.7074502481091
 30
0.0
 11
-1693.387638104454
 21
696.7074502481091
 31
0.0
  0
LINE
  5
11F
330
1F
100
AcDbEntity
  8
0-2_扉
  6
Continuous
 62
    92
370
    13
100
AcDbLine
 10
-1693.387638104454
 20
133.7074502481096
 30
0.0
 11
-1693.387638104454
 21
696.7074502481091
 31
0.0
  0
LINE
  5
120
330
1F
100
AcDbEntity
  8
0-2_扉
  6
Continuous
 62
    92
370
    13
100
AcDbLine
 10
-2091.387638104456
 20
696.7074502481091
 30
0.0
 11
-2485.387638104455
 21
696.7074502481091
 31
0.0
  0
LINE
  5
121
330
1F
100
AcDbEntity
  8
0-2_扉
  6
Continuous
 62
    92
370
    13
100
AcDbLine
 10
-2091.387638104456
 20
133.7074502481096
 30
0.0
 11
-2485.387638104455
 21
133.7074502481096
 31
0.0
  0
LINE
  5
122
330
1F
100
AcDbEntity
  8
0-2_扉
  6
Continuous
 62
    92
370
    13
100
AcDbLine
 10
-2485.387638104455
 20
696.7074502481091
 30
0.0
 11
-2485.387638104455
 21
133.7074502481096
 31
0.0
  0
LINE
  5
123
330
1F
100
AcDbEntity
  8
0-B_寸法
  6
Continuous
 62
   120
370
     5
100
AcDbLine
 10
-2487.387638104455
 20
849.7074502481092
 30
0.0
 11
-2485.387638104455
 21
849.7074502481092
 31
0.0
  0
LWPOLYLINE
  5
124
330
1F
100
AcDbEntity
  8
0-B_寸法
  6
Continuous
 62
     7
370
     9
100
AcDbPolyline
 90
        4
 70
     1
 43
2.0
 10
-2486.387638104455
 20
849.7074502481092
 42
0.4142135623731
 10
-2487.387638104455
 20
850.7074502481091
 42
0.4142135623731
 10
-2488.387638104455
 20
849.7074502481092
 42
0.4142135623731
 10
-2487.387638104455
 20
848.7074502481094
 42
0.4142135623731
  0
LWPOLYLINE
  5
125
330
1F
100
AcDbEntity
  8
0-B_寸法
  6
Continuous
 62
     7
370
     9
100
AcDbPolyline
 90
        4
 70
     1
 43
2.0
 10
-2484.387638104455
 20
849.7074502481092
 42
0.4142135623731
 10
-2485.387638104455
 20
850.7074502481091
 42
0.4142135623731
 10
-2486.387638104455
 20
849.7074502481092
 42
0.4142135623731
 10
-2485.387638104455
 20
848.7074502481094
 42
0.4142135623731
  0
LINE
  5
126
330
1F
100
AcDbEntity
  8
0-B_寸法
  6
Continuous
 62
   120
370
     5
100
AcDbLine
 10
-2487.387638104455
 20
849.7074502481092
 30
0.0
 11
-2487.387638104455
 21
749.7074502481092
 31
0.0
  0
LINE
  5
127
330
1F
100
AcDbEntity
  8
0-B_寸法
  6
Continuous
 62
   120
370
     5
100
AcDbLine
 10
-2485.387638104455
 20
849.7074502481092
 30
0.0
 11
-2485.387638104455
 21
749.7074502481092
 31
0.0
  0
MTEXT
  5
128
330
1F
100
AcDbEntity
  8
0-B_寸法
  6
Continuous
 62
     7
370
   211
100
AcDbMText
 10
-2501.387638104455
 20
852.5674502481093
 30
0.0
 40
45.72
 41
30.0
 46
0.0
 71
     7
 72
     1
  1
{\fＭＳ ゴシック|b0|i0|c128|p49;2}
 73
     1
 44
1.0
  0
LINE
  5
129
330
1F
100
AcDbEntity
  8
0-B_寸法
  6
Continuous
 62
   120
370
     5
100
AcDbLine
 10
-2485.387638104455
 20
849.7074502481092
 30
0.0
 11
-2091.387638104456
 21
849.7074502481092
 31
0.0
  0
LWPOLYLINE
  5
12A
330
1F
100
AcDbEntity
  8
0-B_寸法
  6
Continuous
 62
     7
370
     9
100
AcDbPolyline
 90
        4
 70
     1
 43
2.0
 10
-2090.387638104456
 20
849.7074502481092
 42
0.4142135623731
 10
-2091.387638104456
 20
850.7074502481091
 42
0.4142135623731
 10
-2092.387638104456
 20
849.7074502481092
 42
0.4142135623731
 10
-2091.387638104456
 20
848.7074502481094
 42
0.4142135623731
  0
LINE
  5
12B
330
1F
100
AcDbEntity
  8
0-B_寸法
  6
Continuous
 62
   120
370
     5
100
AcDbLine
 10
-2091.387638104456
 20
849.7074502481092
 30
0.0
 11
-2091.387638104456
 21
749.7074502481092
 31
0.0
  0
LINE
  5
12C
330
1F
100
AcDbEntity
  8
0-B_寸法
  6
Continuous
 62
   120
370
     5
100
AcDbLine
 10
-2091.387638104456
 20
849.7074502481092
 30
0.0
 11
-2087.387638104455
 21
849.7074502481092
 31
0.0
  0
LWPOLYLINE
  5
12D
330
1F
100
AcDbEntity
  8
0-B_寸法
  6
Continuous
 62
     7
370
     9
100
AcDbPolyline
 90
        4
 70
     1
 43
2.0
 10
-2086.387638104455
 20
849.7074502481092
 42
0.4142135623731
 10
-2087.387638104455
 20
850.7074502481091
 42
0.4142135623731
 10
-2088.387638104455
 20
849.7074502481092
 42
0.4142135623731
 10
-2087.387638104455
 20
848.7074502481094
 42
0.4142135623731
  0
LINE
  5
12E
330
1F
100
AcDbEntity
  8
0-B_寸法
  6
Continuous
 62
   120
370
     5
100
AcDbLine
 10
-2087.387638104455
 20
849.7074502481092
 30
0.0
 11
-2087.387638104455
 21
749.7074502481092
 31
0.0
  0
MTEXT
  5
12F
330
1F
100
AcDbEntity
  8
0-B_寸法
  6
Continuous
 62
     7
370
   211
100
AcDbMText
 10
-2104.387638104456
 20
852.5674502481093
 30
0.0
 40
45.72
 41
30.0
 46
0.0
 71
     7
 72
     1
  1
{\fＭＳ ゴシック|b0|i0|c128|p49;4}
 73
     1
 44
1.0
  0
LINE
  5
130
330
1F
100
AcDbEntity
  8
0-B_寸法
  6
Continuous
 62
   120
370
     5
100
AcDbLine
 10
-2087.387638104455
 20
849.7074502481092
 30
0.0
 11
-1693.387638104454
 21
849.7074502481092
 31
0.0
  0
LWPOLYLINE
  5
131
330
1F
100
AcDbEntity
  8
0-B_寸法
  6
Continuous
 62
     7
370
     9
100
AcDbPolyline
 90
        4
 70
     1
 43
2.0
 10
-1692.387638104454
 20
849.7074502481092
 42
0.4142135623731
 10
-1693.387638104454
 20
850.7074502481091
 42
0.4142135623731
 10
-1694.387638104454
 20
849.7074502481092
 42
0.4142135623731
 10
-1693.387638104454
 20
848.7074502481094
 42
0.4142135623731
  0
LINE
  5
132
330
1F
100
AcDbEntity
  8
0-B_寸法
  6
Continuous
 62
   120
370
     5
100
AcDbLine
 10
-1693.387638104454
 20
849.7074502481092
 30
0.0
 11
-1693.387638104454
 21
749.7074502481092
 31
0.0
  0
LINE
  5
133
330
1F
100
AcDbEntity
  8
0-B_寸法
  6
Continuous
 62
   120
370
     5
100
AcDbLine
 10
-1693.387638104454
 20
849.7074502481092
 30
0.0
 11
-1691.387638104456
 21
849.7074502481092
 31
0.0
  0
LWPOLYLINE
  5
134
330
1F
100
AcDbEntity
  8
0-B_寸法
  6
Continuous
 62
     7
370
     9
100
AcDbPolyline
 90
        4
 70
     1
 43
2.0
 10
-1690.387638104456
 20
849.7074502481092
 42
0.4142135623731
 10
-1691.387638104456
 20
850.7074502481091
 42
0.4142135623731
 10
-1692.387638104456
 20
849.7074502481092
 42
0.4142135623731
 10
-1691.387638104456
 20
848.7074502481094
 42
0.4142135623731
  0
LINE
  5
135
330
1F
100
AcDbEntity
  8
0-B_寸法
  6
Continuous
 62
   120
370
     5
100
AcDbLine
 10
-1691.387638104456
 20
849.7074502481092
 30
0.0
 11
-1691.387638104456
 21
749.7074502481092
 31
0.0
  0
MTEXT
  5
136
330
1F
100
AcDbEntity
  8
0-B_寸法
  6
Continuous
 62
     7
370
   211
100
AcDbMText
 10
-1707.387638104455
 20
852.5674502481093
 30
0.0
 40
45.72
 41
30.0
 46
0.0
 71
     7
 72
     1
  1
{\fＭＳ ゴシック|b0|i0|c128|p49;2}
 73
     1
 44
1.0
  0
MTEXT
  5
137
330
1F
100
AcDbEntity
  8
0-B_寸法
  6
Continuous
 62
     7
370
   211
100
AcDbMText
 10
-2423.387638104454
 20
852.5674502481093
 30
0.0
 40
45.71999999999999
 41
270.0
 46
0.0
 71
     7
 72
     1
  1
{\fＭＳ ゴシック|b0|i0|c128|p49;ＤＷ＝394}
 73
     1
 44
1.0
  0
MTEXT
  5
138
330
1F
100
AcDbEntity
  8
0-B_寸法
  6
Continuous
 62
     7
370
   211
100
AcDbMText
 10
-2025.387638104455
 20
852.5674502481093
 30
0.0
 40
45.71999999999999
 41
270.0
 46
0.0
 71
     7
 72
     1
  1
{\fＭＳ ゴシック|b0|i0|c128|p49;ＤＷ＝394}
 73
     1
 44
1.0
  0
LINE
  5
139
330
1F
100
AcDbEntity
  8
0-B_寸法
  6
Continuous
 62
   120
370
     5
100
AcDbLine
 10
-2637.387638104455
 20
130.7074502481095
 30
0.0
 11
-2637.387638104455
 21
133.7074502481096
 31
0.0
  0
LWPOLYLINE
  5
13A
330
1F
100
AcDbEntity
  8
0-B_寸法
  6
Continuous
 62
     7
370
     9
100
AcDbPolyline
 90
        4
 70
     1
 43
2.0
 10
-2636.387638104454
 20
130.7074502481095
 42
0.4142135623731
 10
-2637.387638104455
 20
131.7074502481095
 42
0.4142135623731
 10
-2638.387638104455
 20
130.7074502481095
 42
0.4142135623731
 10
-2637.387638104455
 20
129.7074502481095
 42
0.4142135623731
  0
LWPOLYLINE
  5
13B
330
1F
100
AcDbEntity
  8
0-B_寸法
  6
Continuous
 62
     7
370
     9
100
AcDbPolyline
 90
        4
 70
     1
 43
2.0
 10
-2636.387638104454
 20
133.7074502481096
 42
0.4142135623731
 10
-2637.387638104455
 20
134.7074502481096
 42
0.4142135623731
 10
-2638.387638104455
 20
133.7074502481096
 42
0.4142135623731
 10
-2637.387638104455
 20
132.7074502481096
 42
0.4142135623731
  0
LINE
  5
13C
330
1F
100
AcDbEntity
  8
0-B_寸法
  6
Continuous
 62
   120
370
     5
100
AcDbLine
 10
-2737.387638104455
 20
130.7074502481089
 30
0.0
 11
-2537.387638104455
 21
130.7074502481095
 31
0.0
  0
LINE
  5
13D
330
1F
100
AcDbEntity
  8
0-B_寸法
  6
Continuous
 62
   120
370
     5
100
AcDbLine
 10
-2637.387638104455
 20
133.7074502481096
 30
0.0
 11
-2537.387638104455
 21
133.7074502481096
 31
0.0
  0
LINE
  5
13E
330
1F
100
AcDbEntity
  8
0-B_寸法
  6
Continuous
 62
   120
370
     5
100
AcDbLine
 10
-2637.387638104455
 20
133.7074502481096
 30
0.0
 11
-2637.387638104455
 21
696.7074502481091
 31
0.0
  0
LWPOLYLINE
  5
13F
330
1F
100
AcDbEntity
  8
0-B_寸法
  6
Continuous
 62
     7
370
     9
100
AcDbPolyline
 90
        4
 70
     1
 43
2.0
 10
-2636.387638104454
 20
696.7074502481091
 42
0.4142135623731
 10
-2637.387638104455
 20
697.7074502481091
 42
0.4142135623731
 10
-2638.387638104455
 20
696.7074502481091
 42
0.4142135623731
 10
-2637.387638104455
 20
695.7074502481091
 42
0.4142135623731
  0
LINE
  5
140
330
1F
100
AcDbEntity
  8
0-B_寸法
  6
Continuous
 62
   120
370
     5
100
AcDbLine
 10
-2637.387638104455
 20
696.7074502481091
 30
0.0
 11
-2537.387638104455
 21
696.7074502481091
 31
0.0
  0
LINE
  5
141
330
1F
100
AcDbEntity
  8
0-B_寸法
  6
Continuous
 62
   120
370
     5
100
AcDbLine
 10
-2637.387638104455
 20
696.7074502481091
 30
0.0
 11
-2637.387638104455
 21
699.7074502481092
 31
0.0
  0
LWPOLYLINE
  5
142
330
1F
100
AcDbEntity
  8
0-B_寸法
  6
Continuous
 62
     7
370
     9
100
AcDbPolyline
 90
        4
 70
     1
 43
2.0
 10
-2636.387638104454
 20
699.7074502481092
 42
0.4142135623731
 10
-2637.387638104455
 20
700.7074502481091
 42
0.4142135623731
 10
-2638.387638104455
 20
699.7074502481092
 42
0.4142135623731
 10
-2637.387638104455
 20
698.7074502481094
 42
0.4142135623731
  0
LINE
  5
143
330
1F
100
AcDbEntity
  8
0-B_寸法
  6
Continuous
 62
   120
370
     5
100
AcDbLine
 10
-2737.387638104455
 20
699.7074502481092
 30
0.0
 11
-2537.387638104455
 21
699.7074502481092
 31
0.0
  0
MTEXT
  5
144
330
1F
100
AcDbEntity
  8
0-B_寸法
  6
Continuous
 62
     7
370
   211
100
AcDbMText
 10
-2647.387638104455
 20
273.0674502481099
 30
0.0
 40
45.71999999999999
 41
270.0
 46
0.0
 71
     7
 72
     1
  1
{\fＭＳ ゴシック|b0|i0|c128|p49;ＤＨ＝563}
 11
6.123031769111886E-17
 21
1.0
 31
0.0
 73
     1
 44
1.0
  0
MTEXT
  5
145
330
1F
100
AcDbEntity
  8
0-B_寸法
  6
Continuous
 62
     7
370
   211
100
AcDbMText
 10
-2647.387638104455
 20
657.0878019419285
 30
0.0
 40
45.72
 41
30.0
 46
0.0
 71
     7
 72
     1
  1
{\fＭＳ ゴシック|b0|i0|c128|p49;3}
 11
6.123031769111886E-17
 21
1.0
 31
0.0
 73
     1
 44
1.0
  0
MTEXT
  5
146
330
1F
100
AcDbEntity
  8
0-B_寸法
  6
Continuous
 62
     7
370
   211
100
AcDbMText
 10
-2647.387638104455
 20
128.0820464830288
 30
0.0
 40
45.72
 41
30.0
 46
0.0
 71
     7
 72
     1
  1
{\fＭＳ ゴシック|b0|i0|c128|p49;3}
 11
6.123031769111886E-17
 21
1.0
 31
0.0
 73
     1
 44
1.0
  0
LINE
  5
147
330
1F
100
AcDbEntity
  8
0-0_補助線
  6
JWW_HOJO
 62
   120
370
     5
100
AcDbLine
 10
-2637.387638104453
 20
-1863.7925497519
 30
0.0
 11
-2637.387638104455
 21
849.7074502481092
 31
0.0
  0
LINE
  5
148
330
1F
100
AcDbEntity
  8
0-0_補助線
  6
JWW_HOJO
 62
   120
370
     5
100
AcDbLine
 10
-1643.387638104454
 20
130.7074502481089
 30
0.0
 11
-1643.387638104454
 21
849.7074502481092
 31
0.0
  0
LINE
  5
149
330
1F
100
AcDbEntity
  8
0-0_補助線
  6
JWW_HOJO
 62
   120
370
     5
100
AcDbLine
 10
-2537.387638104454
 20
-1863.7925497519
 30
0.0
 11
-2537.387638104455
 21
849.7074502481092
 31
0.0
  0
LINE
  5
14A
330
1F
100
AcDbEntity
  8
0-0_補助線
  6
JWW_HOJO
 62
     7
370
     9
100
AcDbLine
 10
-2487.387638104454
 20
-1863.7925497519
 30
0.0
 11
-2487.387638104454
 21
849.7074502481092
 31
0.0
  0
LINE
  5
14B
330
1F
100
AcDbEntity
  8
0-0_補助線
  6
JWW_HOJO
 62
     7
370
     9
100
AcDbLine
 10
-1691.387638104455
 20
-1863.7925497519
 30
0.0
 11
-1691.387638104454
 21
849.7074502481092
 31
0.0
  0
LINE
  5
14C
330
1F
100
AcDbEntity
  8
0-B_寸法
  6
Continuous
 62
   120
370
     5
100
AcDbLine
 10
-2737.387638104455
 20
699.7074502481092
 30
0.0
 11
-2737.387638104455
 21
130.7074502481089
 31
0.0
  0
LWPOLYLINE
  5
14D
330
1F
100
AcDbEntity
  8
0-B_寸法
  6
Continuous
 62
     7
370
     9
100
AcDbPolyline
 90
        4
 70
     1
 43
2.0
 10
-2736.387638104454
 20
699.7074502481092
 42
0.4142135623731
 10
-2737.387638104455
 20
700.7074502481091
 42
0.4142135623731
 10
-2738.387638104455
 20
699.7074502481092
 42
0.4142135623731
 10
-2737.387638104455
 20
698.7074502481094
 42
0.4142135623731
  0
LWPOLYLINE
  5
14E
330
1F
100
AcDbEntity
  8
0-B_寸法
  6
Continuous
 62
     7
370
     9
100
AcDbPolyline
 90
        4
 70
     1
 43
2.0
 10
-2736.387638104454
 20
130.7074502481089
 42
0.4142135623731
 10
-2737.387638104455
 20
131.7074502481089
 42
0.4142135623731
 10
-2738.387638104455
 20
130.7074502481089
 42
0.4142135623731
 10
-2737.387638104455
 20
129.7074502481089
 42
0.4142135623731
  0
MTEXT
  5
14F
330
1F
100
AcDbEntity
  8
0-B_寸法
  6
Continuous
 62
     7
370
   211
100
AcDbMText
 10
-2747.387638104455
 20
363.0674502481088
 30
0.0
 40
45.72
 41
90.0
 46
0.0
 71
     7
 72
     1
  1
{\fＭＳ ゴシック|b0|i0|c128|p49;569}
 11
6.123031769111886E-17
 21
1.0
 31
0.0
 73
     1
 44
1.0
  0
LINE
  5
150
330
1F
100
AcDbEntity
  8
0-B_寸法
  6
Continuous
 62
   120
370
     5
100
AcDbLine
 10
-391.3876381044565
 20
849.7074502481092
 30
0.0
 11
-391.3876381044565
 21
749.7074502481092
 31
0.0
  0
LINE
  5
151
330
1F
100
AcDbEntity
  8
0-B_寸法
  6
Continuous
 62
   120
370
     5
100
AcDbLine
 10
404.6123618955448
 20
849.7074502481092
 30
0.0
 11
404.6123618955448
 21
749.7074502481092
 31
0.0
  0
LINE
  5
152
330
1F
100
AcDbEntity
  8
0-B_寸法
  6
Continuous
 62
   120
370
     5
100
AcDbLine
 10
404.6123618955448
 20
849.7074502481092
 30
0.0
 11
-391.3876381044565
 21
849.7074502481092
 31
0.0
  0
LWPOLYLINE
  5
153
330
1F
100
AcDbEntity
  8
0-B_寸法
  6
Continuous
 62
     7
370
     9
100
AcDbPolyline
 90
        4
 70
     1
 43
2.0
 10
405.6123618955448
 20
849.7074502481092
 42
0.4142135623731
 10
404.6123618955448
 20
850.7074502481091
 42
0.4142135623731
 10
403.6123618955448
 20
849.7074502481092
 42
0.4142135623731
 10
404.6123618955448
 20
848.7074502481094
 42
0.4142135623731
  0
LWPOLYLINE
  5
154
330
1F
100
AcDbEntity
  8
0-B_寸法
  6
Continuous
 62
     7
370
     9
100
AcDbPolyline
 90
        4
 70
     1
 43
2.0
 10
-390.3876381044565
 20
849.7074502481092
 42
0.4142135623731
 10
-391.3876381044565
 20
850.7074502481091
 42
0.4142135623731
 10
-392.3876381044565
 20
849.7074502481092
 42
0.4142135623731
 10
-391.3876381044565
 20
848.7074502481094
 42
0.4142135623731
  0
MTEXT
  5
155
330
1F
100
AcDbEntity
  8
0-B_寸法
  6
Continuous
 62
     7
370
   211
100
AcDbMText
 10
-38.38763810445357
 20
852.5674502481093
 30
0.0
 40
45.72
 41
90.0
 46
0.0
 71
     7
 72
     1
  1
{\fＭＳ ゴシック|b0|i0|c128|p49;796}
 73
     1
 44
1.0
  0
MTEXT
  5
156
330
1F
100
AcDbEntity
  8
0-A_文字
  6
Continuous
 62
     7
370
     9
100
AcDbMText
 10
-3403.221059628644
 20
2499.766787637247
 30
0.0
 40
76.2
 41
500.0
 46
0.0
 71
     7
 72
     1
  1
{\fＭＳ ゴシック|b0|i0|c128|p49;Ｓ－３０１}
 73
     1
 44
1.0
  0
MTEXT
  5
157
330
1F
100
AcDbEntity
  8
0-B_寸法
  6
Continuous
 62
     7
370
   211
100
AcDbMText
 10
194.4316309328917
 20
-1459.4325497519
 30
0.0
 40
45.72
 41
60.0
 46
0.0
 71
     7
 72
     1
  1
{\fＭＳ ゴシック|b0|i0|c128|p49;64}
 11
6.123031769111886E-17
 21
1.0
 31
0.0
 73
     1
 44
1.0
  0
LINE
  5
158
330
1F
100
AcDbEntity
  8
0-B_寸法
  6
Continuous
 62
   120
370
     5
100
AcDbLine
 10
204.4316309328917
 20
-1390.2925497519
 30
0.0
 11
201.4472816634225
 21
-1390.2925497519
 31
0.0
  0
LINE
  5
159
330
1F
100
AcDbEntity
  8
0-B_寸法
  6
Continuous
 62
   120
370
     5
100
AcDbLine
 10
204.4316309328917
 20
-1454.2925497519
 30
0.0
 11
201.4472816634225
 21
-1454.2925497519
 31
0.0
  0
LWPOLYLINE
  5
15A
330
1F
100
AcDbEntity
  8
0-B_寸法
  6
Continuous
 62
     7
370
     9
100
AcDbPolyline
 90
        4
 70
     1
 43
2.0
 10
205.4316309328917
 20
-1390.2925497519
 42
0.4142135623731
 10
204.4316309328917
 20
-1389.2925497519
 42
0.4142135623731
 10
203.4316309328917
 20
-1390.2925497519
 42
0.4142135623731
 10
204.4316309328917
 20
-1391.2925497519
 42
0.4142135623731
  0
LWPOLYLINE
  5
15B
330
1F
100
AcDbEntity
  8
0-B_寸法
  6
Continuous
 62
     7
370
     9
100
AcDbPolyline
 90
        4
 70
     1
 43
2.0
 10
205.4316309328917
 20
-1454.2925497519
 42
0.4142135623731
 10
204.4316309328917
 20
-1453.2925497519
 42
0.4142135623731
 10
203.4316309328917
 20
-1454.2925497519
 42
0.4142135623731
 10
204.4316309328917
 20
-1455.2925497519
 42
0.4142135623731
  0
LINE
  5
15C
330
1F
100
AcDbEntity
  8
0-B_寸法
  6
Continuous
 62
   120
370
     5
100
AcDbLine
 10
204.4316309328917
 20
-1454.2925497519
 30
0.0
 11
204.4316309328917
 21
-1390.2925497519
 31
0.0
  0
MTEXT
  5
15D
330
1F
100
AcDbEntity
  8
0-B_寸法
  6
Continuous
 62
     7
370
   211
100
AcDbMText
 10
194.4316309328917
 20
-792.4325497519006
 30
0.0
 40
45.72
 41
60.0
 46
0.0
 71
     7
 72
     1
  1
{\fＭＳ ゴシック|b0|i0|c128|p49;64}
 11
6.123031769111886E-17
 21
1.0
 31
0.0
 73
     1
 44
1.0
  0
LINE
  5
15E
330
1F
100
AcDbEntity
  8
0-B_寸法
  6
Continuous
 62
   120
370
     5
100
AcDbLine
 10
204.4316309328917
 20
-723.2925497519005
 30
0.0
 11
201.4472816634225
 21
-723.2925497519005
 31
0.0
  0
LINE
  5
15F
330
1F
100
AcDbEntity
  8
0-B_寸法
  6
Continuous
 62
   120
370
     5
100
AcDbLine
 10
204.4316309328917
 20
-787.2925497519003
 30
0.0
 11
201.4472816634225
 21
-787.2925497519003
 31
0.0
  0
LWPOLYLINE
  5
160
330
1F
100
AcDbEntity
  8
0-B_寸法
  6
Continuous
 62
     7
370
     9
100
AcDbPolyline
 90
        4
 70
     1
 43
2.0
 10
205.4316309328917
 20
-723.2925497519005
 42
0.4142135623731
 10
204.4316309328917
 20
-722.2925497519007
 42
0.4142135623731
 10
203.4316309328917
 20
-723.2925497519005
 42
0.4142135623731
 10
204.4316309328917
 20
-724.2925497519004
 42
0.4142135623731
  0
LWPOLYLINE
  5
161
330
1F
100
AcDbEntity
  8
0-B_寸法
  6
Continuous
 62
     7
370
     9
100
AcDbPolyline
 90
        4
 70
     1
 43
2.0
 10
205.4316309328917
 20
-787.2925497519003
 42
0.4142135623731
 10
204.4316309328917
 20
-786.2925497519004
 42
0.4142135623731
 10
203.4316309328917
 20
-787.2925497519003
 42
0.4142135623731
 10
204.4316309328917
 20
-788.2925497519002
 42
0.4142135623731
  0
LINE
  5
162
330
1F
100
AcDbEntity
  8
0-B_寸法
  6
Continuous
 62
   120
370
     5
100
AcDbLine
 10
204.4316309328917
 20
-787.2925497519003
 30
0.0
 11
204.4316309328917
 21
-723.2925497519005
 31
0.0
  0
LINE
  5
163
330
1F
100
AcDbEntity
  8
0-B_寸法
  6
Continuous
 62
   120
370
     5
100
AcDbLine
 10
204.4316309328917
 20
684.7074502481092
 30
0.0
 11
204.4316309328917
 21
620.7074502481095
 31
0.0
  0
LWPOLYLINE
  5
164
330
1F
100
AcDbEntity
  8
0-B_寸法
  6
Continuous
 62
     7
370
     9
100
AcDbPolyline
 90
        4
 70
     1
 43
2.0
 10
205.4316309328917
 20
684.7074502481092
 42
0.4142135623731
 10
204.4316309328917
 20
685.7074502481091
 42
0.4142135623731
 10
203.4316309328917
 20
684.7074502481092
 42
0.4142135623731
 10
204.4316309328917
 20
683.7074502481094
 42
0.4142135623731
  0
LWPOLYLINE
  5
165
330
1F
100
AcDbEntity
  8
0-B_寸法
  6
Continuous
 62
     7
370
     9
100
AcDbPolyline
 90
        4
 70
     1
 43
2.0
 10
205.4316309328917
 20
620.7074502481095
 42
0.4142135623731
 10
204.4316309328917
 20
621.7074502481095
 42
0.4142135623731
 10
203.4316309328917
 20
620.7074502481095
 42
0.4142135623731
 10
204.4316309328917
 20
619.7074502481095
 42
0.4142135623731
  0
LINE
  5
166
330
1F
100
AcDbEntity
  8
0-B_寸法
  6
Continuous
 62
   120
370
     5
100
AcDbLine
 10
204.4316309328917
 20
684.7074502481092
 30
0.0
 11
201.4472816634236
 21
684.7074502481092
 31
0.0
  0
LINE
  5
167
330
1F
100
AcDbEntity
  8
0-B_寸法
  6
Continuous
 62
   120
370
     5
100
AcDbLine
 10
204.4316309328917
 20
620.7074502481095
 30
0.0
 11
201.4472816634236
 21
620.7074502481095
 31
0.0
  0
MTEXT
  5
168
330
1F
100
AcDbEntity
  8
0-B_寸法
  6
Continuous
 62
     7
370
   211
100
AcDbMText
 10
194.4316309328917
 20
615.5674502481099
 30
0.0
 40
45.72
 41
60.0
 46
0.0
 71
     7
 72
     1
  1
{\fＭＳ ゴシック|b0|i0|c128|p49;64}
 11
6.123031769111886E-17
 21
1.0
 31
0.0
 73
     1
 44
1.0
  0
LINE
  5
169
330
1F
100
AcDbEntity
  8
0-B_寸法
  6
Continuous
 62
   120
370
     5
100
AcDbLine
 10
204.4316309328917
 20
209.7074502481087
 30
0.0
 11
204.4316309328917
 21
145.7074502481089
 31
0.0
  0
LWPOLYLINE
  5
16A
330
1F
100
AcDbEntity
  8
0-B_寸法
  6
Continuous
 62
     7
370
     9
100
AcDbPolyline
 90
        4
 70
     1
 43
2.0
 10
205.4316309328917
 20
209.7074502481087
 42
0.4142135623731
 10
204.4316309328917
 20
210.7074502481087
 42
0.4142135623731
 10
203.4316309328917
 20
209.7074502481087
 42
0.4142135623731
 10
204.4316309328917
 20
208.7074502481087
 42
0.4142135623731
  0
LWPOLYLINE
  5
16B
330
1F
100
AcDbEntity
  8
0-B_寸法
  6
Continuous
 62
     7
370
     9
100
AcDbPolyline
 90
        4
 70
     1
 43
2.0
 10
205.4316309328917
 20
145.7074502481089
 42
0.4142135623731
 10
204.4316309328917
 20
146.7074502481089
 42
0.4142135623731
 10
203.4316309328917
 20
145.7074502481089
 42
0.4142135623731
 10
204.4316309328917
 20
144.7074502481089
 42
0.4142135623731
  0
LINE
  5
16C
330
1F
100
AcDbEntity
  8
0-B_寸法
  6
Continuous
 62
   120
370
     5
100
AcDbLine
 10
204.4316309328917
 20
209.7074502481087
 30
0.0
 11
201.4472816634236
 21
209.7074502481087
 31
0.0
  0
LINE
  5
16D
330
1F
100
AcDbEntity
  8
0-B_寸法
  6
Continuous
 62
   120
370
     5
100
AcDbLine
 10
204.4316309328917
 20
145.7074502481089
 30
0.0
 11
201.4472816634236
 21
145.7074502481089
 31
0.0
  0
MTEXT
  5
16E
330
1F
100
AcDbEntity
  8
0-B_寸法
  6
Continuous
 62
     7
370
   211
100
AcDbMText
 10
194.4316309328917
 20
140.5674502481088
 30
0.0
 40
45.72
 41
60.0
 46
0.0
 71
     7
 72
     1
  1
{\fＭＳ ゴシック|b0|i0|c128|p49;64}
 11
6.123031769111886E-17
 21
1.0
 31
0.0
 73
     1
 44
1.0
  0
LINE
  5
16F
330
1F
100
AcDbEntity
  8
0-B_寸法
  6
Continuous
 62
   120
370
     5
100
AcDbLine
 10
-392.3876380113785
 20
-526.2925497518995
 30
0.0
 11
405.6123619886228
 21
-526.2925497518995
 31
0.0
  0
LWPOLYLINE
  5
170
330
1F
100
AcDbEntity
  8
0-B_寸法
  6
Continuous
 62
     7
370
     9
100
AcDbPolyline
 90
        4
 70
     1
 43
2.0
 10
-391.3876380113785
 20
-526.2925497518995
 42
0.4142135623731
 10
-392.3876380113785
 20
-525.2925497518995
 42
0.4142135623731
 10
-393.3876380113785
 20
-526.2925497518995
 42
0.4142135623731
 10
-392.3876380113785
 20
-527.2925497518995
 42
0.4142135623731
  0
LWPOLYLINE
  5
171
330
1F
100
AcDbEntity
  8
0-B_寸法
  6
Continuous
 62
     7
370
     9
100
AcDbPolyline
 90
        4
 70
     1
 43
2.0
 10
406.6123619886228
 20
-526.2925497518995
 42
0.4142135623731
 10
405.6123619886228
 20
-525.2925497518995
 42
0.4142135623731
 10
404.6123619886228
 20
-526.2925497518995
 42
0.4142135623731
 10
405.6123619886228
 20
-527.2925497518995
 42
0.4142135623731
  0
LINE
  5
172
330
1F
100
AcDbEntity
  8
0-B_寸法
  6
Continuous
 62
   120
370
     5
100
AcDbLine
 10
-392.3876380113785
 20
-526.2925497518995
 30
0.0
 11
-392.3876380113785
 21
-626.2925497518997
 31
0.0
  0
LINE
  5
173
330
1F
100
AcDbEntity
  8
0-B_寸法
  6
Continuous
 62
   120
370
     5
100
AcDbLine
 10
405.6123619886228
 20
-526.2925497518995
 30
0.0
 11
405.6123619886228
 21
-626.2925497518997
 31
0.0
  0
MTEXT
  5
174
330
1F
100
AcDbEntity
  8
0-B_寸法
  6
Continuous
 62
     7
370
   211
100
AcDbMText
 10
-143.3876381044564
 20
-523.4325497518995
 30
0.0
 40
45.71999999999999
 41
300.0
 46
0.0
 71
     7
 72
     1
  1
{\fＭＳ ゴシック|b0|i0|c128|p49;ｶｳﾝﾀｰ＝798}
 73
     1
 44
1.0
  0
LINE
  5
175
330
1F
100
AcDbEntity
  8
0-0_補助線
  6
JWW_HOJO
 62
   120
370
     5
100
AcDbLine
 10
-641.3876381044554
 20
849.7074502481092
 30
0.0
 11
-641.3876381044554
 21
-1863.7925497519
 31
0.0
  0
LINE
  5
176
330
1F
100
AcDbEntity
  8
0-0_補助線
  6
JWW_HOJO
 62
   120
370
     5
100
AcDbLine
 10
-1541.387638104455
 20
-1863.7925497519
 30
0.0
 11
-1541.387638104455
 21
849.7074502481092
 31
0.0
  0
LINE
  5
177
330
1F
100
AcDbEntity
  8
0-0_補助線
  6
JWW_HOJO
 62
   120
370
     5
100
AcDbLine
 10
-1641.387638104455
 20
-1863.7925497519
 30
0.0
 11
-1641.387638104455
 21
849.7074502481092
 31
0.0
  0
LINE
  5
178
330
1F
100
AcDbEntity
  8
0-0_補助線
  6
JWW_HOJO
 62
   120
370
     5
100
AcDbLine
 10
2421.612361683152
 20
-1863.7925497519
 30
0.0
 11
2421.612361683155
 21
849.7074502481092
 31
0.0
  0
LINE
  5
179
330
1F
100
AcDbEntity
  8
0-0_補助線
  6
JWW_HOJO
 62
   120
370
     5
100
AcDbLine
 10
1454.612361776227
 20
-1863.7925497519
 30
0.0
 11
1454.612361776227
 21
849.7074502481092
 31
0.0
  0
LINE
  5
17A
330
1F
100
AcDbEntity
  8
0-0_補助線
  6
JWW_HOJO
 62
   120
370
     5
100
AcDbLine
 10
1354.612361776227
 20
-1863.7925497519
 30
0.0
 11
1354.612361776227
 21
849.7074502481092
 31
0.0
  0
CIRCLE
  5
17B
330
1F
100
AcDbEntity
  8
0-6_桟木
  6
Continuous
 62
     7
370
     9
100
AcDbCircle
 10
2261.112361683153
 20
636.7074502481103
 30
0.0
 40
4.0
  0
CIRCLE
  5
17C
330
1F
100
AcDbEntity
  8
0-6_桟木
  6
Continuous
 62
     7
370
     9
100
AcDbCircle
 10
2261.112361683153
 20
668.7074502481101
 30
0.0
 40
4.0
  0
CIRCLE
  5
17D
330
1F
100
AcDbEntity
  8
0-6_桟木
  6
Continuous
 62
     7
370
     9
100
AcDbCircle
 10
2261.112361683153
 20
161.7074502481103
 30
0.0
 40
4.0
  0
CIRCLE
  5
17E
330
1F
100
AcDbEntity
  8
0-6_桟木
  6
Continuous
 62
     7
370
     9
100
AcDbCircle
 10
2261.112361683153
 20
193.7074502481101
 30
0.0
 40
4.0
  0
MTEXT
  5
17F
330
1F
100
AcDbEntity
  8
0-B_寸法
  6
Continuous
 62
     7
370
   211
100
AcDbMText
 10
2076.112361683153
 20
852.5674502481093
 30
0.0
 40
45.72
 41
90.0
 46
0.0
 71
     7
 72
     1
  1
{\fＭＳ ゴシック|b0|i0|c128|p49;256}
 73
     1
 44
1.0
  0
MTEXT
  5
180
330
1F
100
AcDbEntity
  8
0-B_寸法
  6
Continuous
 62
     7
370
   211
100
AcDbMText
 10
1929.612361683154
 20
852.5674502481093
 30
0.0
 40
45.72
 41
60.0
 46
0.0
 71
     7
 72
     1
  1
{\fＭＳ ゴシック|b0|i0|c128|p49;67}
 73
     1
 44
1.0
  0
LINE
  5
181
330
1F
100
AcDbEntity
  8
0-B_寸法
  6
Continuous
 62
   120
370
     5
100
AcDbLine
 10
1993.612361683153
 20
849.7074502481092
 30
0.0
 11
1926.612361683152
 21
849.7074502481092
 31
0.0
  0
LINE
  5
182
330
1F
100
AcDbEntity
  8
0-B_寸法
  6
Continuous
 62
   120
370
     5
100
AcDbLine
 10
1993.612361683153
 20
849.7074502481092
 30
0.0
 11
1993.612361683153
 21
749.7074502481092
 31
0.0
  0
LWPOLYLINE
  5
183
330
1F
100
AcDbEntity
  8
0-B_寸法
  6
Continuous
 62
     7
370
     9
100
AcDbPolyline
 90
        4
 70
     1
 43
2.0
 10
1994.612361683153
 20
849.7074502481092
 42
0.4142135623731
 10
1993.612361683153
 20
850.7074502481091
 42
0.4142135623731
 10
1992.612361683153
 20
849.7074502481092
 42
0.4142135623731
 10
1993.612361683153
 20
848.7074502481094
 42
0.4142135623731
  0
LINE
  5
184
330
1F
100
AcDbEntity
  8
0-B_寸法
  6
Continuous
 62
   120
370
     5
100
AcDbLine
 10
2249.612361683154
 20
849.7074502481092
 30
0.0
 11
1993.612361683153
 21
849.7074502481092
 31
0.0
  0
LINE
  5
185
330
1F
100
AcDbEntity
  8
0-B_寸法
  6
JWW_HOJO
 62
     7
370
     9
100
AcDbLine
 10
1993.612361683153
 20
694.7074502481104
 30
0.0
 11
1993.612361683153
 21
130.7074502481089
 31
0.0
  0
MTEXT
  5
186
330
1F
100
AcDbEntity
  8
0-B_寸法
  6
Continuous
 62
     7
370
   211
100
AcDbMText
 10
2076.864494484079
 20
473.2145079614941
 30
0.0
 40
45.72
 41
90.0
 46
0.0
 71
     7
 72
     1
  1
{\fＭＳ ゴシック|b0|i0|c128|p49;P32}
 73
     1
 44
1.0
  0
LWPOLYLINE
  5
187
330
1F
100
AcDbEntity
  8
0-B_寸法
  6
Continuous
 62
     7
370
     9
100
AcDbPolyline
 90
        4
 70
     1
 43
2.0
 10
2061.612361683153
 20
495.2074502481105
 42
0.4142135623731
 10
2060.612361683153
 20
496.2074502481105
 42
0.4142135623731
 10
2059.612361683153
 20
495.2074502481105
 42
0.4142135623731
 10
2060.612361683153
 20
494.2074502481105
 42
0.4142135623731
  0
LWPOLYLINE
  5
188
330
1F
100
AcDbEntity
  8
0-B_寸法
  6
Continuous
 62
     7
370
     9
100
AcDbPolyline
 90
        4
 70
     1
 43
2.0
 10
2061.612361683153
 20
527.2074502481104
 42
0.4142135623731
 10
2060.612361683153
 20
528.2074502481104
 42
0.4142135623731
 10
2059.612361683153
 20
527.2074502481104
 42
0.4142135623731
 10
2060.612361683153
 20
526.2074502481104
 42
0.4142135623731
  0
LINE
  5
189
330
1F
100
AcDbEntity
  8
0-B_寸法
  6
Continuous
 62
   120
370
     5
100
AcDbLine
 10
2060.612361683153
 20
527.2074502481104
 30
0.0
 11
2060.612361683153
 21
495.2074502481105
 31
0.0
  0
LINE
  5
18A
330
1F
100
AcDbEntity
  8
0-B_寸法
  6
Continuous
 62
   120
370
     5
100
AcDbLine
 10
2060.612361683153
 20
495.2074502481105
 30
0.0
 11
2010.612361683153
 21
495.2074502481105
 31
0.0
  0
LINE
  5
18B
330
1F
100
AcDbEntity
  8
0-B_寸法
  6
Continuous
 62
   120
370
     5
100
AcDbLine
 10
2060.612361683153
 20
527.2074502481104
 30
0.0
 11
2010.612361683153
 21
527.2074502481104
 31
0.0
  0
CIRCLE
  5
18C
330
1F
100
AcDbEntity
  8
0-5_ダボ
  6
Continuous
 62
     7
370
     9
100
AcDbCircle
 10
1993.612361683153
 20
303.2074502481089
 30
0.0
 40
2.5
  0
CIRCLE
  5
18D
330
1F
100
AcDbEntity
  8
0-5_ダボ
  6
Continuous
 62
     7
370
     9
100
AcDbCircle
 10
1993.612361683153
 20
335.2074502481094
 30
0.0
 40
2.5
  0
CIRCLE
  5
18E
330
1F
100
AcDbEntity
  8
0-5_ダボ
  6
Continuous
 62
     7
370
     9
100
AcDbCircle
 10
1993.612361683153
 20
367.2074502481087
 30
0.0
 40
2.5
  0
CIRCLE
  5
18F
330
1F
100
AcDbEntity
  8
0-5_ダボ
  6
Continuous
 62
     7
370
     9
100
AcDbCircle
 10
1993.612361683153
 20
399.2074502481091
 30
0.0
 40
2.5
  0
CIRCLE
  5
190
330
1F
100
AcDbEntity
  8
0-5_ダボ
  6
Continuous
 62
     7
370
     9
100
AcDbCircle
 10
1993.612361683153
 20
431.207450248109
 30
0.0
 40
2.5
  0
CIRCLE
  5
191
330
1F
100
AcDbEntity
  8
0-5_ダボ
  6
Continuous
 62
     7
370
     9
100
AcDbCircle
 10
1993.612361683153
 20
463.2074502481095
 30
0.0
 40
2.5
  0
CIRCLE
  5
192
330
1F
100
AcDbEntity
  8
0-5_ダボ
  6
Continuous
 62
     7
370
     9
100
AcDbCircle
 10
1993.612361683153
 20
495.2074502481094
 30
0.0
 40
2.5
  0
CIRCLE
  5
193
330
1F
100
AcDbEntity
  8
0-5_ダボ
  6
Continuous
 62
     7
370
     9
100
AcDbCircle
 10
1993.612361683153
 20
527.2074502481092
 30
0.0
 40
2.5
  0
LINE
  5
194
330
1F
100
AcDbEntity
  8
0-0_補助線
  6
JWW_HOJO
 62
     7
370
     9
100
AcDbLine
 10
1926.612361683152
 20
130.7074502481089
 30
0.0
 11
1926.612361683152
 21
1044.207450248109
 31
0.0
  0
LINE
  5
195
330
1F
100
AcDbEntity
  8
0-0_補助線
  6
JWW_HOJO
 62
   120
370
     5
100
AcDbLine
 10
2321.612361683155
 20
949.7074502481092
 30
0.0
 11
1854.612361683154
 21
949.7074502481092
 31
0.0
  0
LINE
  5
196
330
1F
100
AcDbEntity
  8
0-0_補助線
  6
JWW_HOJO
 62
   120
370
     5
100
AcDbLine
 10
2321.612361683155
 20
1049.707450248109
 30
0.0
 11
1854.612361683154
 21
1049.707450248109
 31
0.0
  0
LINE
  5
197
330
1F
100
AcDbEntity
  8
0-0_補助線
  6
JWW_HOJO
 62
   120
370
     5
100
AcDbLine
 10
1854.612361776227
 20
-1863.7925497519
 30
0.0
 11
1854.612361683154
 21
1049.707450248109
 31
0.0
  0
LINE
  5
198
330
1F
100
AcDbEntity
  8
0-0_補助線
  6
JWW_HOJO
 62
   120
370
     5
100
AcDbLine
 10
1554.612361776227
 20
849.7074502481092
 30
0.0
 11
1554.612361776227
 21
-1863.7925497519
 31
0.0
  0
MTEXT
  5
199
330
1F
100
AcDbEntity
  8
0-B_寸法
  6
Continuous
 62
     7
370
   211
100
AcDbMText
 10
1644.612361683154
 20
273.0674502481099
 30
0.0
 40
45.71999999999999
 41
270.0
 46
0.0
 71
     7
 72
     1
  1
{\fＭＳ ゴシック|b0|i0|c128|p49;ＤＨ＝563}
 11
6.123031769111886E-17
 21
1.0
 31
0.0
 73
     1
 44
1.0
  0
MTEXT
  5
19A
330
1F
100
AcDbEntity
  8
0-B_寸法
  6
Continuous
 62
     7
370
   211
100
AcDbMText
 10
1744.612361683154
 20
363.0674502481099
 30
0.0
 40
45.72
 41
90.0
 46
0.0
 71
     7
 72
     1
  1
{\fＭＳ ゴシック|b0|i0|c128|p49;224}
 11
6.123031769111886E-17
 21
1.0
 31
0.0
 73
     1
 44
1.0
  0
MTEXT
  5
19B
330
1F
100
AcDbEntity
  8
0-B_寸法
  6
Continuous
 62
     7
370
   211
100
AcDbMText
 10
1544.612361683154
 20
363.0674502481099
 30
0.0
 40
45.72
 41
90.0
 46
0.0
 71
     7
 72
     1
  1
{\fＭＳ ゴシック|b0|i0|c128|p49;569}
 11
6.123031769111886E-17
 21
1.0
 31
0.0
 73
     1
 44
1.0
  0
MTEXT
  5
19C
330
1F
100
AcDbEntity
  8
0-B_寸法
  6
Continuous
 62
     7
370
   211
100
AcDbMText
 10
1744.612361683154
 20
531.3174502481104
 30
0.0
 40
45.72
 41
150.0
 46
0.0
 71
     7
 72
     1
  1
{\fＭＳ ゴシック|b0|i0|c128|p49;172.5}
 11
6.123031769111886E-17
 21
1.0
 31
0.0
 73
     1
 44
1.0
  0
MTEXT
  5
19D
330
1F
100
AcDbEntity
  8
0-B_寸法
  6
Continuous
 62
     7
370
   211
100
AcDbMText
 10
1644.612361683154
 20
656.5017605162927
 30
0.0
 40
45.72
 41
30.0
 46
0.0
 71
     7
 72
     1
  1
{\fＭＳ ゴシック|b0|i0|c128|p49;3}
 11
6.123031769111886E-17
 21
1.0
 31
0.0
 73
     1
 44
1.0
  0
MTEXT
  5
19E
330
1F
100
AcDbEntity
  8
0-B_寸法
  6
Continuous
 62
     7
370
   211
100
AcDbMText
 10
1644.612361683154
 20
128.8936198858767
 30
0.0
 40
45.72
 41
30.0
 46
0.0
 71
     7
 72
     1
  1
{\fＭＳ ゴシック|b0|i0|c128|p49;3}
 11
6.123031769111886E-17
 21
1.0
 31
0.0
 73
     1
 44
1.0
  0
LINE
  5
19F
330
1F
100
AcDbEntity
  8
0-B_寸法
  6
Continuous
 62
   120
370
     5
100
AcDbLine
 10
1554.612361683154
 20
699.7074502481092
 30
0.0
 11
1554.612361683154
 21
130.7074502481089
 31
0.0
  0
LINE
  5
1A0
330
1F
100
AcDbEntity
  8
0-B_寸法
  6
Continuous
 62
   120
370
     5
100
AcDbLine
 10
1754.612361683154
 20
130.7074502481089
 30
0.0
 11
1554.612361683154
 21
130.7074502481089
 31
0.0
  0
LWPOLYLINE
  5
1A1
330
1F
100
AcDbEntity
  8
0-B_寸法
  6
Continuous
 62
     7
370
     9
100
AcDbPolyline
 90
        4
 70
     1
 43
2.0
 10
1555.612361683154
 20
130.7074502481089
 42
0.4142135623731
 10
1554.612361683154
 20
131.7074502481089
 42
0.4142135623731
 10
1553.612361683154
 20
130.7074502481089
 42
0.4142135623731
 10
1554.612361683154
 20
129.7074502481089
 42
0.4142135623731
  0
LWPOLYLINE
  5
1A2
330
1F
100
AcDbEntity
  8
0-B_寸法
  6
Continuous
 62
     7
370
     9
100
AcDbPolyline
 90
        4
 70
     1
 43
2.0
 10
1555.612361683154
 20
699.7074502481092
 42
0.4142135623731
 10
1554.612361683154
 20
700.7074502481091
 42
0.4142135623731
 10
1553.612361683154
 20
699.7074502481092
 42
0.4142135623731
 10
1554.612361683154
 20
698.7074502481094
 42
0.4142135623731
  0
LWPOLYLINE
  5
1A3
330
1F
100
AcDbEntity
  8
0-B_寸法
  6
Continuous
 62
     7
370
     9
100
AcDbPolyline
 90
        4
 70
     1
 43
2.0
 10
1655.612361683154
 20
130.7074502481089
 42
0.4142135623731
 10
1654.612361683154
 20
131.7074502481089
 42
0.4142135623731
 10
1653.612361683154
 20
130.7074502481089
 42
0.4142135623731
 10
1654.612361683154
 20
129.7074502481089
 42
0.4142135623731
  0
LINE
  5
1A4
330
1F
100
AcDbEntity
  8
0-B_寸法
  6
Continuous
 62
   120
370
     5
100
AcDbLine
 10
1654.612361683154
 20
133.7074502481084
 30
0.0
 11
1754.612361683154
 21
133.7074502481084
 31
0.0
  0
LWPOLYLINE
  5
1A5
330
1F
100
AcDbEntity
  8
0-B_寸法
  6
Continuous
 62
     7
370
     9
100
AcDbPolyline
 90
        4
 70
     1
 43
2.0
 10
1655.612361683154
 20
133.7074502481084
 42
0.4142135623731
 10
1654.612361683154
 20
134.7074502481084
 42
0.4142135623731
 10
1653.612361683154
 20
133.7074502481084
 42
0.4142135623731
 10
1654.612361683154
 20
132.7074502481084
 42
0.4142135623731
  0
LINE
  5
1A6
330
1F
100
AcDbEntity
  8
0-B_寸法
  6
Continuous
 62
   120
370
     5
100
AcDbLine
 10
1654.612361683154
 20
696.7074502481086
 30
0.0
 11
1754.612361683154
 21
696.7074502481086
 31
0.0
  0
LINE
  5
1A7
330
1F
100
AcDbEntity
  8
0-B_寸法
  6
Continuous
 62
   120
370
     5
100
AcDbLine
 10
1554.612361683154
 20
699.7074502481092
 30
0.0
 11
1754.612361683154
 21
699.7074502481092
 31
0.0
  0
LWPOLYLINE
  5
1A8
330
1F
100
AcDbEntity
  8
0-B_寸法
  6
Continuous
 62
     7
370
     9
100
AcDbPolyline
 90
        4
 70
     1
 43
2.0
 10
1655.612361683154
 20
696.7074502481086
 42
0.4142135623731
 10
1654.612361683154
 20
697.7074502481084
 42
0.4142135623731
 10
1653.612361683154
 20
696.7074502481086
 42
0.4142135623731
 10
1654.612361683154
 20
695.7074502481087
 42
0.4142135623731
  0
LWPOLYLINE
  5
1A9
330
1F
100
AcDbEntity
  8
0-B_寸法
  6
Continuous
 62
     7
370
     9
100
AcDbPolyline
 90
        4
 70
     1
 43
2.0
 10
1655.612361683154
 20
699.7074502481092
 42
0.4142135623731
 10
1654.612361683154
 20
700.7074502481091
 42
0.4142135623731
 10
1653.612361683154
 20
699.7074502481092
 42
0.4142135623731
 10
1654.612361683154
 20
698.7074502481094
 42
0.4142135623731
  0
LINE
  5
1AA
330
1F
100
AcDbEntity
  8
0-B_寸法
  6
Continuous
 62
   120
370
     5
100
AcDbLine
 10
1654.612361683154
 20
699.7074502481092
 30
0.0
 11
1654.612361683154
 21
130.7074502481089
 31
0.0
  0
MTEXT
  5
1AB
330
1F
100
AcDbEntity
  8
0-B_寸法
  6
Continuous
 62
     7
370
   211
100
AcDbMText
 10
1744.612361683154
 20
134.8174502481089
 30
0.0
 40
45.72
 41
150.0
 46
0.0
 71
     7
 72
     1
  1
{\fＭＳ ゴシック|b0|i0|c128|p49;172.5}
 11
6.123031769111886E-17
 21
1.0
 31
0.0
 73
     1
 44
1.0
  0
LINE
  5
1AC
330
1F
100
AcDbEntity
  8
0-B_寸法
  6
Continuous
 62
   120
370
     5
100
AcDbLine
 10
1754.612361683154
 20
130.7074502481089
 30
0.0
 11
1854.612361683154
 21
130.7074502481089
 31
0.0
  0
LWPOLYLINE
  5
1AD
330
1F
100
AcDbEntity
  8
0-B_寸法
  6
Continuous
 62
     7
370
     9
100
AcDbPolyline
 90
        4
 70
     1
 43
2.0
 10
1755.612361683154
 20
130.7074502481089
 42
0.4142135623731
 10
1754.612361683154
 20
131.7074502481089
 42
0.4142135623731
 10
1753.612361683154
 20
130.7074502481089
 42
0.4142135623731
 10
1754.612361683154
 20
129.7074502481089
 42
0.4142135623731
  0
LINE
  5
1AE
330
1F
100
AcDbEntity
  8
0-B_寸法
  6
Continuous
 62
   120
370
     5
100
AcDbLine
 10
1754.612361683154
 20
303.2074502481089
 30
0.0
 11
1754.612361683154
 21
130.7074502481089
 31
0.0
  0
LINE
  5
1AF
330
1F
100
AcDbEntity
  8
0-B_寸法
  6
Continuous
 62
   120
370
     5
100
AcDbLine
 10
1754.612361683154
 20
303.2074502481089
 30
0.0
 11
1854.612361683154
 21
303.2074502481089
 31
0.0
  0
LWPOLYLINE
  5
1B0
330
1F
100
AcDbEntity
  8
0-B_寸法
  6
Continuous
 62
     7
370
     9
100
AcDbPolyline
 90
        4
 70
     1
 43
2.0
 10
1755.612361683154
 20
303.2074502481089
 42
0.4142135623731
 10
1754.612361683154
 20
304.2074502481089
 42
0.4142135623731
 10
1753.612361683154
 20
303.2074502481089
 42
0.4142135623731
 10
1754.612361683154
 20
302.2074502481089
 42
0.4142135623731
  0
LINE
  5
1B1
330
1F
100
AcDbEntity
  8
0-B_寸法
  6
Continuous
 62
   120
370
     5
100
AcDbLine
 10
1754.612361683154
 20
527.2074502481104
 30
0.0
 11
1754.612361683154
 21
303.2074502481089
 31
0.0
  0
LINE
  5
1B2
330
1F
100
AcDbEntity
  8
0-B_寸法
  6
Continuous
 62
   120
370
     5
100
AcDbLine
 10
1754.612361683154
 20
527.2074502481104
 30
0.0
 11
1854.612361683154
 21
527.2074502481104
 31
0.0
  0
LINE
  5
1B3
330
1F
100
AcDbEntity
  8
0-B_寸法
  6
Continuous
 62
   120
370
     5
100
AcDbLine
 10
1754.612361683154
 20
699.7074502481092
 30
0.0
 11
1854.612361683154
 21
699.7074502481092
 31
0.0
  0
LWPOLYLINE
  5
1B4
330
1F
100
AcDbEntity
  8
0-B_寸法
  6
Continuous
 62
     7
370
     9
100
AcDbPolyline
 90
        4
 70
     1
 43
2.0
 10
1755.612361683154
 20
527.2074502481104
 42
0.4142135623731
 10
1754.612361683154
 20
528.2074502481104
 42
0.4142135623731
 10
1753.612361683154
 20
527.2074502481104
 42
0.4142135623731
 10
1754.612361683154
 20
526.2074502481104
 42
0.4142135623731
  0
LWPOLYLINE
  5
1B5
330
1F
100
AcDbEntity
  8
0-B_寸法
  6
Continuous
 62
     7
370
     9
100
AcDbPolyline
 90
        4
 70
     1
 43
2.0
 10
1755.612361683154
 20
699.7074502481092
 42
0.4142135623731
 10
1754.612361683154
 20
700.7074502481091
 42
0.4142135623731
 10
1753.612361683154
 20
699.7074502481092
 42
0.4142135623731
 10
1754.612361683154
 20
698.7074502481094
 42
0.4142135623731
  0
LINE
  5
1B6
330
1F
100
AcDbEntity
  8
0-B_寸法
  6
Continuous
 62
   120
370
     5
100
AcDbLine
 10
1754.612361683154
 20
699.7074502481092
 30
0.0
 11
1754.612361683154
 21
527.2074502481104
 31
0.0
  0
LINE
  5
1B7
330
1F
100
AcDbEntity
  8
0-0_補助線
  6
JWW_HOJO
 62
   120
370
     5
100
AcDbLine
 10
2321.612361683152
 20
-1863.7925497519
 30
0.0
 11
2321.612361683155
 21
1049.707450248109
 31
0.0
  0
LINE
  5
1B8
330
1F
100
AcDbEntity
  8
0-0_補助線
  6
JWW_HOJO
 62
     7
370
     9
100
AcDbLine
 10
2271.612361683155
 20
130.7074502481089
 30
0.0
 11
2271.612361683155
 21
849.7074502481092
 31
0.0
  0
LINE
  5
1B9
330
1F
100
AcDbEntity
  8
0-6_桟木
  6
Continuous
 62
    92
370
    13
100
AcDbLine
 10
2253.612361683153
 20
209.7074502481092
 30
0.0
 11
2268.612361683153
 21
209.7074502481092
 31
0.0
  0
LINE
  5
1BA
330
1F
100
AcDbEntity
  8
0-6_桟木
  6
Continuous
 62
    92
370
    13
100
AcDbLine
 10
2253.612361683153
 20
145.7074502481089
 30
0.0
 11
2253.612361683153
 21
209.7074502481092
 31
0.0
  0
LINE
  5
1BB
330
1F
100
AcDbEntity
  8
0-6_桟木
  6
Continuous
 62
    92
370
    13
100
AcDbLine
 10
2268.612361683153
 20
145.7074502481089
 30
0.0
 11
2253.612361683153
 21
145.7074502481089
 31
0.0
  0
LINE
  5
1BC
330
1F
100
AcDbEntity
  8
0-6_桟木
  6
Continuous
 62
    92
370
    13
100
AcDbLine
 10
2253.612361683153
 20
620.7074502481095
 30
0.0
 11
2268.612361683153
 21
620.7074502481095
 31
0.0
  0
LINE
  5
1BD
330
1F
100
AcDbEntity
  8
0-6_桟木
  6
Continuous
 62
    92
370
    13
100
AcDbLine
 10
2253.612361683153
 20
684.7074502481092
 30
0.0
 11
2253.612361683153
 21
620.7074502481095
 31
0.0
  0
LINE
  5
1BE
330
1F
100
AcDbEntity
  8
0-6_桟木
  6
Continuous
 62
    92
370
    13
100
AcDbLine
 10
2268.612361683153
 20
684.7074502481092
 30
0.0
 11
2253.612361683153
 21
684.7074502481092
 31
0.0
  0
MTEXT
  5
1BF
330
1F
100
AcDbEntity
  8
0-B_寸法
  6
Continuous
 62
     7
370
   211
100
AcDbMText
 10
2202.904397668195
 20
852.5674502481093
 30
0.0
 40
45.72
 41
60.0
 46
0.0
 71
     7
 72
     1
  1
{\fＭＳ ゴシック|b0|i0|c128|p49;22}
 73
     1
 44
1.0
  0
MTEXT
  5
1C0
330
1F
100
AcDbEntity
  8
0-B_寸法
  6
Continuous
 62
     7
370
   211
100
AcDbMText
 10
2411.612553083151
 20
131.0674502481095
 30
0.0
 40
45.72
 41
90.0
 46
0.0
 71
     7
 72
     1
  1
{\fＭＳ ゴシック|b0|i0|c128|p49;105}
 11
6.123031769111886E-17
 21
1.0
 31
0.0
 73
     1
 44
1.0
  0
LINE
  5
1C1
330
1F
100
AcDbEntity
  8
0-B_寸法
  6
Continuous
 62
   120
370
     5
100
AcDbLine
 10
2421.612553083151
 20
130.7074502481089
 30
0.0
 11
2321.612553083156
 21
130.7074502481089
 31
0.0
  0
LWPOLYLINE
  5
1C2
330
1F
100
AcDbEntity
  8
0-B_寸法
  6
Continuous
 62
     7
370
     9
100
AcDbPolyline
 90
        4
 70
     1
 43
2.0
 10
2422.612553083151
 20
130.7074502481089
 42
0.4142135623731
 10
2421.612553083151
 20
131.7074502481089
 42
0.4142135623731
 10
2420.612553083152
 20
130.7074502481089
 42
0.4142135623731
 10
2421.612553083151
 20
129.7074502481089
 42
0.4142135623731
  0
LINE
  5
1C3
330
1F
100
AcDbEntity
  8
0-B_寸法
  6
Continuous
 62
   120
370
     5
100
AcDbLine
 10
2421.612553083151
 20
235.7074502481089
 30
0.0
 11
2421.612553083151
 21
130.7074502481089
 31
0.0
  0
MTEXT
  5
1C4
330
1F
100
AcDbEntity
  8
0-B_寸法
  6
Continuous
 62
     7
370
   211
100
AcDbMText
 10
2411.612553083151
 20
363.0674502481099
 30
0.0
 40
45.72
 41
90.0
 46
0.0
 71
     7
 72
     1
  1
{\fＭＳ ゴシック|b0|i0|c128|p49;359}
 11
6.123031769111886E-17
 21
1.0
 31
0.0
 73
     1
 44
1.0
  0
LINE
  5
1C5
330
1F
100
AcDbEntity
  8
0-B_寸法
  6
Continuous
 62
   120
370
     5
100
AcDbLine
 10
2421.612553083151
 20
235.7074502481089
 30
0.0
 11
2321.612553083156
 21
235.7074502481089
 31
0.0
  0
LWPOLYLINE
  5
1C6
330
1F
100
AcDbEntity
  8
0-B_寸法
  6
Continuous
 62
     7
370
     9
100
AcDbPolyline
 90
        4
 70
     1
 43
2.0
 10
2422.612553083151
 20
235.7074502481089
 42
0.4142135623731
 10
2421.612553083151
 20
236.7074502481089
 42
0.4142135623731
 10
2420.612553083152
 20
235.7074502481089
 42
0.4142135623731
 10
2421.612553083151
 20
234.7074502481089
 42
0.4142135623731
  0
LINE
  5
1C7
330
1F
100
AcDbEntity
  8
0-B_寸法
  6
Continuous
 62
   120
370
     5
100
AcDbLine
 10
2421.612553083151
 20
594.7074502481092
 30
0.0
 11
2421.612553083151
 21
235.7074502481089
 31
0.0
  0
MTEXT
  5
1C8
330
1F
100
AcDbEntity
  8
0-B_寸法
  6
Continuous
 62
     7
370
   211
100
AcDbMText
 10
2411.612553083151
 20
595.0674502481093
 30
0.0
 40
45.72
 41
90.0
 46
0.0
 71
     7
 72
     1
  1
{\fＭＳ ゴシック|b0|i0|c128|p49;105}
 11
6.123031769111886E-17
 21
1.0
 31
0.0
 73
     1
 44
1.0
  0
LINE
  5
1C9
330
1F
100
AcDbEntity
  8
0-B_寸法
  6
Continuous
 62
   120
370
     5
100
AcDbLine
 10
2421.612553083151
 20
594.7074502481092
 30
0.0
 11
2321.612553083156
 21
594.7074502481092
 31
0.0
  0
LINE
  5
1CA
330
1F
100
AcDbEntity
  8
0-B_寸法
  6
Continuous
 62
   120
370
     5
100
AcDbLine
 10
2421.612553083151
 20
699.7074502481092
 30
0.0
 11
2321.612553083156
 21
699.7074502481092
 31
0.0
  0
LWPOLYLINE
  5
1CB
330
1F
100
AcDbEntity
  8
0-B_寸法
  6
Continuous
 62
     7
370
     9
100
AcDbPolyline
 90
        4
 70
     1
 43
2.0
 10
2422.612553083151
 20
594.7074502481092
 42
0.4142135623731
 10
2421.612553083151
 20
595.7074502481092
 42
0.4142135623731
 10
2420.612553083152
 20
594.7074502481092
 42
0.4142135623731
 10
2421.612553083151
 20
593.7074502481092
 42
0.4142135623731
  0
LWPOLYLINE
  5
1CC
330
1F
100
AcDbEntity
  8
0-B_寸法
  6
Continuous
 62
     7
370
     9
100
AcDbPolyline
 90
        4
 70
     1
 43
2.0
 10
2422.612553083151
 20
699.7074502481092
 42
0.4142135623731
 10
2421.612553083151
 20
700.7074502481091
 42
0.4142135623731
 10
2420.612553083152
 20
699.7074502481092
 42
0.4142135623731
 10
2421.612553083151
 20
698.7074502481094
 42
0.4142135623731
  0
LINE
  5
1CD
330
1F
100
AcDbEntity
  8
0-B_寸法
  6
Continuous
 62
   120
370
     5
100
AcDbLine
 10
2421.612553083151
 20
699.7074502481092
 30
0.0
 11
2421.612553083151
 21
594.7074502481092
 31
0.0
  0
LINE
  5
1CE
330
1F
100
AcDbEntity
  8
0-6_桟木
  6
Continuous
 62
    92
370
    13
100
AcDbLine
 10
2271.612361683152
 20
594.7074502481092
 30
0.0
 11
2301.612361683152
 21
594.7074502481092
 31
0.0
  0
LINE
  5
1CF
330
1F
100
AcDbEntity
  8
0-6_桟木
  6
Continuous
 62
     7
370
     9
100
AcDbLine
 10
2271.612361683152
 20
235.7074502481089
 30
0.0
 11
2301.612361683152
 21
130.7074502481089
 31
0.0
  0
LINE
  5
1D0
330
1F
100
AcDbEntity
  8
0-6_桟木
  6
Continuous
 62
     7
370
     9
100
AcDbLine
 10
2271.612361683152
 20
130.7074502481089
 30
0.0
 11
2301.612361683152
 21
235.7074502481089
 31
0.0
  0
LINE
  5
1D1
330
1F
100
AcDbEntity
  8
0-6_桟木
  6
Continuous
 62
    92
370
    13
100
AcDbLine
 10
2301.612361683152
 20
130.7074502481089
 30
0.0
 11
2301.612361683152
 21
235.7074502481089
 31
0.0
  0
LINE
  5
1D2
330
1F
100
AcDbEntity
  8
0-6_桟木
  6
Continuous
 62
    92
370
    13
100
AcDbLine
 10
2271.612361683152
 20
130.7074502481089
 30
0.0
 11
2301.612361683152
 21
130.7074502481089
 31
0.0
  0
LINE
  5
1D3
330
1F
100
AcDbEntity
  8
0-6_桟木
  6
Continuous
 62
    92
370
    13
100
AcDbLine
 10
2301.612361683152
 20
235.7074502481089
 30
0.0
 11
2271.612361683152
 21
235.7074502481089
 31
0.0
  0
LINE
  5
1D4
330
1F
100
AcDbEntity
  8
0-6_桟木
  6
Continuous
 62
    92
370
    13
100
AcDbLine
 10
2271.612361683152
 20
235.7074502481089
 30
0.0
 11
2271.612361683152
 21
130.7074502481089
 31
0.0
  0
LINE
  5
1D5
330
1F
100
AcDbEntity
  8
0-6_桟木
  6
Continuous
 62
     7
370
     9
100
AcDbLine
 10
2271.612361683152
 20
699.7074502481092
 30
0.0
 11
2301.612361683152
 21
594.7074502481092
 31
0.0
  0
LINE
  5
1D6
330
1F
100
AcDbEntity
  8
0-6_桟木
  6
Continuous
 62
     7
370
     9
100
AcDbLine
 10
2271.612361683152
 20
594.7074502481092
 30
0.0
 11
2301.612361683152
 21
699.7074502481092
 31
0.0
  0
LINE
  5
1D7
330
1F
100
AcDbEntity
  8
0-6_桟木
  6
Continuous
 62
    92
370
    13
100
AcDbLine
 10
2301.612361683152
 20
594.7074502481092
 30
0.0
 11
2301.612361683152
 21
699.7074502481092
 31
0.0
  0
LINE
  5
1D8
330
1F
100
AcDbEntity
  8
0-6_桟木
  6
Continuous
 62
    92
370
    13
100
AcDbLine
 10
2301.612361683152
 20
699.7074502481092
 30
0.0
 11
2271.612361683152
 21
699.7074502481092
 31
0.0
  0
LINE
  5
1D9
330
1F
100
AcDbEntity
  8
0-6_桟木
  6
Continuous
 62
    92
370
    13
100
AcDbLine
 10
2271.612361683152
 20
699.7074502481092
 30
0.0
 11
2271.612361683152
 21
594.7074502481092
 31
0.0
  0
LINE
  5
1DA
330
1F
100
AcDbEntity
  8
0-B_寸法
  6
Continuous
 62
   120
370
     5
100
AcDbLine
 10
1926.612361683152
 20
849.7074502481092
 30
0.0
 11
1926.612361683152
 21
749.7074502481092
 31
0.0
  0
LWPOLYLINE
  5
1DB
330
1F
100
AcDbEntity
  8
0-B_寸法
  6
Continuous
 62
     7
370
     9
100
AcDbPolyline
 90
        4
 70
     1
 43
2.0
 10
1927.612361683152
 20
849.7074502481092
 42
0.4142135623731
 10
1926.612361683152
 20
850.7074502481091
 42
0.4142135623731
 10
1925.612361683152
 20
849.7074502481092
 42
0.4142135623731
 10
1926.612361683152
 20
848.7074502481094
 42
0.4142135623731
  0
LINE
  5
1DC
330
1F
100
AcDbEntity
  8
0-B_寸法
  6
Continuous
 62
   120
370
     5
100
AcDbLine
 10
2249.612361683154
 20
849.7074502481092
 30
0.0
 11
2249.612361683154
 21
749.7074502481092
 31
0.0
  0
LINE
  5
1DD
330
1F
100
AcDbEntity
  8
0-B_寸法
  6
Continuous
 62
   120
370
     5
100
AcDbLine
 10
2271.612361683152
 20
849.7074502481092
 30
0.0
 11
2271.612361683152
 21
749.7074502481092
 31
0.0
  0
LWPOLYLINE
  5
1DE
330
1F
100
AcDbEntity
  8
0-B_寸法
  6
Continuous
 62
     7
370
     9
100
AcDbPolyline
 90
        4
 70
     1
 43
2.0
 10
2250.612361683154
 20
849.7074502481092
 42
0.4142135623731
 10
2249.612361683154
 20
850.7074502481091
 42
0.4142135623731
 10
2248.612361683154
 20
849.7074502481092
 42
0.4142135623731
 10
2249.612361683154
 20
848.7074502481094
 42
0.4142135623731
  0
LWPOLYLINE
  5
1DF
330
1F
100
AcDbEntity
  8
0-B_寸法
  6
Continuous
 62
     7
370
     9
100
AcDbPolyline
 90
        4
 70
     1
 43
2.0
 10
2272.612361683152
 20
849.7074502481092
 42
0.4142135623731
 10
2271.612361683152
 20
850.7074502481091
 42
0.4142135623731
 10
2270.612361683152
 20
849.7074502481092
 42
0.4142135623731
 10
2271.612361683152
 20
848.7074502481094
 42
0.4142135623731
  0
LINE
  5
1E0
330
1F
100
AcDbEntity
  8
0-B_寸法
  6
Continuous
 62
   120
370
     5
100
AcDbLine
 10
2271.612361683152
 20
849.7074502481092
 30
0.0
 11
2249.612361683154
 21
849.7074502481092
 31
0.0
  0
CIRCLE
  5
1E1
330
1F
100
AcDbEntity
  8
0-5_ダボ
  6
Continuous
 62
     7
370
     9
100
AcDbCircle
 10
2249.612361683154
 20
303.2074502481089
 30
0.0
 40
2.5
  0
CIRCLE
  5
1E2
330
1F
100
AcDbEntity
  8
0-5_ダボ
  6
Continuous
 62
     7
370
     9
100
AcDbCircle
 10
2249.612361683154
 20
335.2074502481094
 30
0.0
 40
2.5
  0
CIRCLE
  5
1E3
330
1F
100
AcDbEntity
  8
0-5_ダボ
  6
Continuous
 62
     7
370
     9
100
AcDbCircle
 10
2249.612361683154
 20
367.2074502481087
 30
0.0
 40
2.5
  0
CIRCLE
  5
1E4
330
1F
100
AcDbEntity
  8
0-5_ダボ
  6
Continuous
 62
     7
370
     9
100
AcDbCircle
 10
2249.612361683154
 20
399.2074502481091
 30
0.0
 40
2.5
  0
CIRCLE
  5
1E5
330
1F
100
AcDbEntity
  8
0-5_ダボ
  6
Continuous
 62
     7
370
     9
100
AcDbCircle
 10
2249.612361683154
 20
431.207450248109
 30
0.0
 40
2.5
  0
CIRCLE
  5
1E6
330
1F
100
AcDbEntity
  8
0-5_ダボ
  6
Continuous
 62
     7
370
     9
100
AcDbCircle
 10
2249.612361683154
 20
463.2074502481095
 30
0.0
 40
2.5
  0
CIRCLE
  5
1E7
330
1F
100
AcDbEntity
  8
0-5_ダボ
  6
Continuous
 62
     7
370
     9
100
AcDbCircle
 10
2249.612361683154
 20
495.2074502481094
 30
0.0
 40
2.5
  0
CIRCLE
  5
1E8
330
1F
100
AcDbEntity
  8
0-5_ダボ
  6
Continuous
 62
     7
370
     9
100
AcDbCircle
 10
2249.612361683154
 20
527.2074502481092
 30
0.0
 40
2.5
  0
LINE
  5
1E9
330
1F
100
AcDbEntity
  8
0-B_寸法
  6
JWW_HOJO
 62
     7
370
     9
100
AcDbLine
 10
2249.612361683154
 20
694.7074502481104
 30
0.0
 11
2249.612361683154
 21
130.7074502481089
 31
0.0
  0
LINE
  5
1EA
330
1F
100
AcDbEntity
  8
0-4_棚
  6
Continuous
 62
    40
370
    15
100
AcDbLine
 10
1978.612361683153
 20
401.7074502481091
 30
0.0
 11
2268.612361683153
 21
401.7074502481091
 31
0.0
  0
LINE
  5
1EB
330
1F
100
AcDbEntity
  8
0-4_棚
  6
Continuous
 62
    40
370
    15
100
AcDbLine
 10
1978.612361683153
 20
413.707450248109
 30
0.0
 11
2268.612361683153
 21
413.707450248109
 31
0.0
  0
LINE
  5
1EC
330
1F
100
AcDbEntity
  8
0-4_棚
  6
Continuous
 62
    40
370
    15
100
AcDbLine
 10
1978.612361683153
 20
413.707450248109
 30
0.0
 11
1978.612361683153
 21
401.7074502481091
 31
0.0
  0
LINE
  5
1ED
330
1F
100
AcDbEntity
  8
0-1_本体
  6
Continuous
 62
     7
370
     9
100
AcDbLine
 10
2271.612361683152
 20
694.7074502481104
 30
0.0
 11
2271.612361683152
 21
130.7074502481089
 31
0.0
  0
LINE
  5
1EE
330
1F
100
AcDbEntity
  8
0-1_本体
  6
Continuous
 62
    40
370
    15
100
AcDbLine
 10
2271.612361683152
 20
689.2074502481108
 30
0.0
 11
2271.612361683152
 21
697.207450248111
 31
0.0
  0
LINE
  5
1EF
330
1F
100
AcDbEntity
  8
0-1_本体
  6
Continuous
 62
    40
370
    15
100
AcDbLine
 10
2271.612361683152
 20
141.7074502481103
 30
0.0
 11
2271.612361683152
 21
133.7074502481101
 31
0.0
  0
LINE
  5
1F0
330
1F
100
AcDbEntity
  8
0-1_本体
  6
Continuous
 62
    40
370
    15
100
AcDbLine
 10
2268.612361683153
 20
138.7074502481096
 30
0.0
 11
2271.612361683152
 21
138.7074502481096
 31
0.0
  0
LINE
  5
1F1
330
1F
100
AcDbEntity
  8
0-1_本体
  6
Continuous
 62
    40
370
    15
100
AcDbLine
 10
1926.612361683152
 20
145.7074502481089
 30
0.0
 11
2268.612361683153
 21
145.7074502481089
 31
0.0
  0
LINE
  5
1F2
330
1F
100
AcDbEntity
  8
0-1_本体
  6
Continuous
 62
    40
370
    15
100
AcDbLine
 10
1926.612361683152
 20
130.7074502481089
 30
0.0
 11
1926.612361683152
 21
145.7074502481089
 31
0.0
  0
LINE
  5
1F3
330
1F
100
AcDbEntity
  8
0-1_本体
  6
Continuous
 62
    40
370
    15
100
AcDbLine
 10
2271.612361683152
 20
130.7074502481089
 30
0.0
 11
1926.612361683152
 21
130.7074502481089
 31
0.0
  0
LINE
  5
1F4
330
1F
100
AcDbEntity
  8
0-1_本体
  6
Continuous
 62
    40
370
    15
100
AcDbLine
 10
1926.612361683152
 20
684.7074502481092
 30
0.0
 11
2268.612361683153
 21
684.7074502481092
 31
0.0
  0
LINE
  5
1F5
330
1F
100
AcDbEntity
  8
0-1_本体
  6
Continuous
 62
    40
370
    15
100
AcDbLine
 10
2270.112361683156
 20
138.7074502481096
 30
0.0
 11
2270.112361683156
 21
691.7074502481091
 31
0.0
  0
LINE
  5
1F6
330
1F
100
AcDbEntity
  8
0-1_本体
  6
Continuous
 62
    40
370
    15
100
AcDbLine
 10
2268.612361683153
 20
138.7074502481096
 30
0.0
 11
2268.612361683153
 21
691.7074502481091
 31
0.0
  0
LINE
  5
1F7
330
1F
100
AcDbEntity
  8
0-1_本体
  6
Continuous
 62
    40
370
    15
100
AcDbLine
 10
2268.612361683153
 20
691.7074502481091
 30
0.0
 11
2271.612361683152
 21
691.7074502481091
 31
0.0
  0
LINE
  5
1F8
330
1F
100
AcDbEntity
  8
0-1_本体
  6
Continuous
 62
    40
370
    15
100
AcDbLine
 10
1926.612361683152
 20
699.7074502481092
 30
0.0
 11
1926.612361683152
 21
684.7074502481092
 31
0.0
  0
LINE
  5
1F9
330
1F
100
AcDbEntity
  8
0-1_本体
  6
Continuous
 62
    40
370
    15
100
AcDbLine
 10
2271.612361683152
 20
699.7074502481092
 30
0.0
 11
1926.612361683152
 21
699.7074502481092
 31
0.0
  0
LINE
  5
1FA
330
1F
100
AcDbEntity
  8
0-6_桟木
  6
Continuous
 62
    92
370
    13
100
AcDbLine
 10
2268.612361683153
 20
209.7074502481092
 30
0.0
 11
2268.612361683153
 21
145.7074502481089
 31
0.0
  0
LINE
  5
1FB
330
1F
100
AcDbEntity
  8
0-6_桟木
  6
Continuous
 62
    92
370
    13
100
AcDbLine
 10
2268.612361683153
 20
620.7074502481095
 30
0.0
 11
2268.612361683153
 21
684.7074502481092
 31
0.0
  0
LINE
  5
1FC
330
1F
100
AcDbEntity
  8
0-0_補助線
  6
JWW_HOJO
 62
     7
370
     9
100
AcDbLine
 10
2271.612361683152
 20
303.2074502481078
 30
0.0
 11
1926.612361683152
 21
303.2074502481078
 31
0.0
  0
LINE
  5
1FD
330
1F
100
AcDbEntity
  8
0-0_補助線
  6
JWW_HOJO
 62
     7
370
     9
100
AcDbLine
 10
2271.612361683152
 20
335.2074502481082
 30
0.0
 11
1926.612361683152
 21
335.2074502481082
 31
0.0
  0
LINE
  5
1FE
330
1F
100
AcDbEntity
  8
0-0_補助線
  6
JWW_HOJO
 62
     7
370
     9
100
AcDbLine
 10
2271.612361683152
 20
367.2074502481081
 30
0.0
 11
1926.612361683152
 21
367.2074502481081
 31
0.0
  0
LINE
  5
1FF
330
1F
100
AcDbEntity
  8
0-0_補助線
  6
JWW_HOJO
 62
     7
370
     9
100
AcDbLine
 10
2271.612361683152
 20
399.2074502481086
 30
0.0
 11
1926.612361683152
 21
399.2074502481086
 31
0.0
  0
LINE
  5
200
330
1F
100
AcDbEntity
  8
0-0_補助線
  6
JWW_HOJO
 62
     7
370
     9
100
AcDbLine
 10
2271.612361683152
 20
431.207450248109
 30
0.0
 11
1926.612361683152
 21
431.207450248109
 31
0.0
  0
LINE
  5
201
330
1F
100
AcDbEntity
  8
0-0_補助線
  6
JWW_HOJO
 62
     7
370
     9
100
AcDbLine
 10
2271.612361683152
 20
463.2074502481095
 30
0.0
 11
1926.612361683152
 21
463.2074502481095
 31
0.0
  0
LINE
  5
202
330
1F
100
AcDbEntity
  8
0-0_補助線
  6
JWW_HOJO
 62
     7
370
     9
100
AcDbLine
 10
2271.612361683152
 20
495.2074502481094
 30
0.0
 11
1926.612361683152
 21
495.2074502481094
 31
0.0
  0
LINE
  5
203
330
1F
100
AcDbEntity
  8
0-0_補助線
  6
JWW_HOJO
 62
     7
370
     9
100
AcDbLine
 10
2271.612361683152
 20
527.2074502481092
 30
0.0
 11
1926.612361683152
 21
527.2074502481092
 31
0.0
  0
LINE
  5
204
330
1F
100
AcDbEntity
  8
0-0_補助線
  6
JWW_HOJO
 62
     7
370
     9
100
AcDbLine
 10
2271.612361683152
 20
-1863.7925497519
 30
0.0
 11
2271.612361590076
 21
-626.2925497518927
 31
0.0
  0
LINE
  5
205
330
1F
100
AcDbEntity
  8
0-0_補助線
  6
JWW_HOJO
 62
     7
370
     9
100
AcDbLine
 10
1926.612361590076
 20
-626.2925497518927
 30
0.0
 11
1926.612361683152
 21
-1863.7925497519
 31
0.0
  0
LINE
  5
206
330
1F
100
AcDbEntity
  8
0-0_補助線
  6
JWW_HOJO
 62
   120
370
     5
100
AcDbLine
 10
-2637.387638104455
 20
749.7074502481092
 30
0.0
 11
2521.612361683154
 21
749.7074502481092
 31
0.0
  0
LINE
  5
207
330
1F
100
AcDbEntity
  8
0-0_補助線
  6
JWW_HOJO
 62
   120
370
     5
100
AcDbLine
 10
-2637.387638104453
 20
-426.2925497518995
 30
0.0
 11
2571.612361683155
 21
-426.2925497518995
 31
0.0
  0
LINE
  5
208
330
1F
100
AcDbEntity
  8
0-0_補助線
  6
JWW_HOJO
 62
   120
370
     5
100
AcDbLine
 10
2521.612361683155
 20
849.7074502481092
 30
0.0
 11
-2637.387638104455
 21
849.7074502481092
 31
0.0
  0
MTEXT
  5
209
330
1F
100
AcDbEntity
  8
0-B_寸法
  6
Continuous
 62
     7
370
   211
100
AcDbMText
 10
-651.3876381044577
 20
-1538.432549751892
 30
0.0
 40
45.72
 41
60.0
 46
0.0
 71
     7
 72
     1
  1
{\fＭＳ ゴシック|b0|i0|c128|p49;64}
 11
6.123031769111886E-17
 21
1.0
 31
0.0
 73
     1
 44
1.0
  0
LINE
  5
20A
330
1F
100
AcDbEntity
  8
0-B_寸法
  6
Continuous
 62
   120
370
     5
100
AcDbLine
 10
-641.3876381044577
 20
-1533.292549751891
 30
0.0
 11
-441.3876381044577
 21
-1533.292549751891
 31
0.0
  0
LINE
  5
20B
330
1F
100
AcDbEntity
  8
0-B_寸法
  6
Continuous
 62
   120
370
     5
100
AcDbLine
 10
-641.3876381044577
 20
-1469.292549751892
 30
0.0
 11
-441.3876381044577
 21
-1469.292549751892
 31
0.0
  0
LWPOLYLINE
  5
20C
330
1F
100
AcDbEntity
  8
0-B_寸法
  6
Continuous
 62
     7
370
     9
100
AcDbPolyline
 90
        4
 70
     1
 43
2.0
 10
-640.3876381044577
 20
-1533.292549751891
 42
0.4142135623731
 10
-641.3876381044577
 20
-1532.292549751892
 42
0.4142135623731
 10
-642.3876381044577
 20
-1533.292549751891
 42
0.4142135623731
 10
-641.3876381044577
 20
-1534.292549751891
 42
0.4142135623731
  0
LWPOLYLINE
  5
20D
330
1F
100
AcDbEntity
  8
0-B_寸法
  6
Continuous
 62
     7
370
     9
100
AcDbPolyline
 90
        4
 70
     1
 43
2.0
 10
-640.3876381044577
 20
-1469.292549751892
 42
0.4142135623731
 10
-641.3876381044577
 20
-1468.292549751892
 42
0.4142135623731
 10
-642.3876381044577
 20
-1469.292549751892
 42
0.4142135623731
 10
-641.3876381044577
 20
-1470.292549751892
 42
0.4142135623731
  0
LINE
  5
20E
330
1F
100
AcDbEntity
  8
0-B_寸法
  6
Continuous
 62
   120
370
     5
100
AcDbLine
 10
-641.3876381044577
 20
-1469.292549751892
 30
0.0
 11
-641.3876381044577
 21
-1533.292549751891
 31
0.0
  0
LINE
  5
20F
330
1F
100
AcDbEntity
  8
0-A_文字
  6
Continuous
 62
     7
370
     9
100
AcDbLine
 10
-418.387638104457
 20
-2083.292549751893
 30
0.0
 11
-418.387638104457
 21
-1933.292549751893
 31
0.0
  0
LINE
  5
210
330
1F
100
AcDbEntity
  8
0-A_文字
  6
Continuous
 62
     7
370
     9
100
AcDbLine
 10
431.6123618955436
 20
-2083.292549751893
 30
0.0
 11
-418.387638104457
 21
-2083.292549751893
 31
0.0
  0
LINE
  5
211
330
1F
100
AcDbEntity
  8
0-A_文字
  6
Continuous
 62
     7
370
     9
100
AcDbLine
 10
431.6123618955436
 20
-1933.292549751893
 30
0.0
 11
431.6123618955436
 21
-2083.292549751893
 31
0.0
  0
LINE
  5
212
330
1F
100
AcDbEntity
  8
0-A_文字
  6
Continuous
 62
     7
370
     9
100
AcDbLine
 10
-418.387638104457
 20
-1933.292549751893
 30
0.0
 11
431.6123618955436
 21
-1933.292549751893
 31
0.0
  0
MTEXT
  5
213
330
1F
100
AcDbEntity
  8
0-A_文字
  6
Continuous
 62
     7
370
     9
100
AcDbMText
 10
-298.3876381044576
 20
-2076.645883085226
 30
0.0
 40
103.2933333333334
 41
610.0
 46
0.0
 71
     7
 72
     1
  1
{\fＭＳ ゴシック|b0|i0|c128|p49;ｷｬﾋﾞﾈｯﾄ図}
 73
     1
 44
1.0
  0
MTEXT
  5
214
330
1F
100
AcDbEntity
  8
0-B_寸法
  6
Continuous
 62
     7
370
   211
100
AcDbMText
 10
404.2691123706021
 20
-1680.432549751893
 30
0.0
 40
45.72
 41
60.0
 46
0.0
 71
     7
 72
     1
  1
{\fＭＳ ゴシック|b0|i0|c128|p49;15}
 73
     1
 44
1.0
  0
MTEXT
  5
215
330
1F
100
AcDbEntity
  8
0-B_寸法
  6
Continuous
 62
     7
370
   211
100
AcDbMText
 10
-450.8862242165009
 20
-1680.432549751893
 30
0.0
 40
45.72
 41
60.0
 46
0.0
 71
     7
 72
     1
  1
{\fＭＳ ゴシック|b0|i0|c128|p49;15}
 73
     1
 44
1.0
  0
MTEXT
  5
216
330
1F
100
AcDbEntity
  8
0-B_寸法
  6
Continuous
 62
     7
370
   211
100
AcDbMText
 10
-38.38763810445528
 20
-1780.432549751891
 30
0.0
 40
45.72
 41
90.0
 46
0.0
 71
     7
 72
     1
  1
{\fＭＳ ゴシック|b0|i0|c128|p49;796}
 73
     1
 44
1.0
  0
LWPOLYLINE
  5
217
330
1F
100
AcDbEntity
  8
0-B_寸法
  6
Continuous
 62
     7
370
     9
100
AcDbPolyline
 90
        4
 70
     1
 43
2.0
 10
405.6123618955431
 20
-1783.292549751891
 42
0.4142135623731
 10
404.6123618955431
 20
-1782.292549751892
 42
0.4142135623731
 10
403.6123618955431
 20
-1783.292549751891
 42
0.4142135623731
 10
404.6123618955431
 20
-1784.292549751891
 42
0.4142135623731
  0
LWPOLYLINE
  5
218
330
1F
100
AcDbEntity
  8
0-B_寸法
  6
Continuous
 62
     7
370
     9
100
AcDbPolyline
 90
        4
 70
     1
 43
2.0
 10
-390.3876381044577
 20
-1783.292549751891
 42
0.4142135623731
 10
-391.3876381044577
 20
-1782.292549751892
 42
0.4142135623731
 10
-392.3876381044577
 20
-1783.292549751891
 42
0.4142135623731
 10
-391.3876381044577
 20
-1784.292549751891
 42
0.4142135623731
  0
LINE
  5
219
330
1F
100
AcDbEntity
  8
0-B_寸法
  6
Continuous
 62
   120
370
     5
100
AcDbLine
 10
-391.3876381044577
 20
-1783.292549751891
 30
0.0
 11
404.6123618955431
 21
-1783.292549751891
 31
0.0
  0
LINE
  5
21A
330
1F
100
AcDbEntity
  8
0-B_寸法
  6
Continuous
 62
   120
370
     5
100
AcDbLine
 10
404.6123618955431
 20
-1783.292549751891
 30
0.0
 11
404.6123618955431
 21
-1583.292549751893
 31
0.0
  0
LWPOLYLINE
  5
21B
330
1F
100
AcDbEntity
  8
0-B_寸法
  6
Continuous
 62
     7
370
     9
100
AcDbPolyline
 90
        4
 70
     1
 43
2.0
 10
405.6123618955431
 20
-1683.292549751893
 42
0.4142135623731
 10
404.6123618955431
 20
-1682.292549751893
 42
0.4142135623731
 10
403.6123618955431
 20
-1683.292549751893
 42
0.4142135623731
 10
404.6123618955431
 20
-1684.292549751892
 42
0.4142135623731
  0
MTEXT
  5
21C
330
1F
100
AcDbEntity
  8
0-B_寸法
  6
Continuous
 62
     7
370
   211
100
AcDbMText
 10
-38.38763810445528
 20
-1680.432549751893
 30
0.0
 40
45.72
 41
90.0
 46
0.0
 71
     7
 72
     1
  1
{\fＭＳ ゴシック|b0|i0|c128|p49;766}
 73
     1
 44
1.0
  0
LINE
  5
21D
330
1F
100
AcDbEntity
  8
0-B_寸法
  6
Continuous
 62
   120
370
     5
100
AcDbLine
 10
389.6123618955431
 20
-1683.292549751893
 30
0.0
 11
389.6123618955431
 21
-1583.292549751893
 31
0.0
  0
LWPOLYLINE
  5
21E
330
1F
100
AcDbEntity
  8
0-B_寸法
  6
Continuous
 62
     7
370
     9
100
AcDbPolyline
 90
        4
 70
     1
 43
2.0
 10
390.6123618955431
 20
-1683.292549751893
 42
0.4142135623731
 10
389.6123618955431
 20
-1682.292549751893
 42
0.4142135623731
 10
388.6123618955431
 20
-1683.292549751893
 42
0.4142135623731
 10
389.6123618955431
 20
-1684.292549751892
 42
0.4142135623731
  0
LINE
  5
21F
330
1F
100
AcDbEntity
  8
0-B_寸法
  6
Continuous
 62
   120
370
     5
100
AcDbLine
 10
-376.3876381044577
 20
-1683.292549751893
 30
0.0
 11
-376.3876381044577
 21
-1583.292549751893
 31
0.0
  0
LINE
  5
220
330
1F
100
AcDbEntity
  8
0-B_寸法
  6
Continuous
 62
   120
370
     5
100
AcDbLine
 10
-391.3876381044577
 20
-1783.292549751891
 30
0.0
 11
-391.3876381044577
 21
-1583.292549751893
 31
0.0
  0
LWPOLYLINE
  5
221
330
1F
100
AcDbEntity
  8
0-B_寸法
  6
Continuous
 62
     7
370
     9
100
AcDbPolyline
 90
        4
 70
     1
 43
2.0
 10
-375.3876381044577
 20
-1683.292549751893
 42
0.4142135623731
 10
-376.3876381044577
 20
-1682.292549751893
 42
0.4142135623731
 10
-377.3876381044577
 20
-1683.292549751893
 42
0.4142135623731
 10
-376.3876381044577
 20
-1684.292549751892
 42
0.4142135623731
  0
LWPOLYLINE
  5
222
330
1F
100
AcDbEntity
  8
0-B_寸法
  6
Continuous
 62
     7
370
     9
100
AcDbPolyline
 90
        4
 70
     1
 43
2.0
 10
-390.3876381044577
 20
-1683.292549751893
 42
0.4142135623731
 10
-391.3876381044577
 20
-1682.292549751893
 42
0.4142135623731
 10
-392.3876381044577
 20
-1683.292549751893
 42
0.4142135623731
 10
-391.3876381044577
 20
-1684.292549751892
 42
0.4142135623731
  0
LINE
  5
223
330
1F
100
AcDbEntity
  8
0-B_寸法
  6
Continuous
 62
   120
370
     5
100
AcDbLine
 10
-391.3876381044577
 20
-1683.292549751893
 30
0.0
 11
404.6123618955431
 21
-1683.292549751893
 31
0.0
  0
MTEXT
  5
224
330
1F
100
AcDbEntity
  8
0-B_寸法
  6
Continuous
 62
     7
370
   211
100
AcDbMText
 10
-2847.387638104453
 20
-466.9325497518918
 30
0.0
 40
45.72
 41
150.0
 46
0.0
 71
     7
 72
     1
  1
{\fＭＳ ゴシック|b0|i0|c128|p49;2,233}
 11
6.123031769111886E-17
 21
1.0
 31
0.0
 73
     1
 44
1.0
  0
MTEXT
  5
225
330
1F
100
AcDbEntity
  8
0-A_文字
  6
Continuous
 62
     7
370
     9
100
AcDbMText
 10
-1671.387638104452
 20
-1540.432549751893
 30
0.0
 40
45.72
 41
180.0
 46
0.0
 71
     7
 72
     1
  1
{\fＭＳ ゴシック|b0|i0|c128|p49;▽床面}
 73
     1
 44
1.0
  0
LINE
  5
226
330
1F
100
AcDbEntity
  8
0-B_寸法
  6
Continuous
 62
   120
370
     5
100
AcDbLine
 10
-2837.387638104453
 20
699.7074502481081
 30
0.0
 11
-2737.387638104453
 21
699.7074502481081
 31
0.0
  0
LINE
  5
227
330
1F
100
AcDbEntity
  8
0-B_寸法
  6
Continuous
 62
   120
370
     5
100
AcDbLine
 10
-2837.387638104453
 20
-1533.292549751891
 30
0.0
 11
-2737.387638104453
 21
-1533.292549751891
 31
0.0
  0
LWPOLYLINE
  5
228
330
1F
100
AcDbEntity
  8
0-B_寸法
  6
Continuous
 62
     7
370
     9
100
AcDbPolyline
 90
        4
 70
     1
 43
2.0
 10
-2836.387638104453
 20
699.7074502481081
 42
0.4142135623731
 10
-2837.387638104453
 20
700.707450248108
 42
0.4142135623731
 10
-2838.387638104454
 20
699.7074502481081
 42
0.4142135623731
 10
-2837.387638104453
 20
698.7074502481082
 42
0.4142135623731
  0
LWPOLYLINE
  5
229
330
1F
100
AcDbEntity
  8
0-B_寸法
  6
Continuous
 62
     7
370
     9
100
AcDbPolyline
 90
        4
 70
     1
 43
2.0
 10
-2836.387638104453
 20
-1533.292549751891
 42
0.4142135623731
 10
-2837.387638104453
 20
-1532.292549751892
 42
0.4142135623731
 10
-2838.387638104454
 20
-1533.292549751891
 42
0.4142135623731
 10
-2837.387638104453
 20
-1534.292549751891
 42
0.4142135623731
  0
LINE
  5
22A
330
1F
100
AcDbEntity
  8
0-B_寸法
  6
Continuous
 62
   120
370
     5
100
AcDbLine
 10
-2837.387638104453
 20
-1533.292549751891
 30
0.0
 11
-2837.387638104453
 21
699.7074502481081
 31
0.0
  0
MTEXT
  5
22B
330
1F
100
AcDbEntity
  8
0-B_寸法
  6
Continuous
 62
     7
370
   211
100
AcDbMText
 10
-2747.387638104453
 20
-1538.43254326396
 30
0.0
 40
45.72
 41
60.0
 46
0.0
 71
     7
 72
     1
  1
{\fＭＳ ゴシック|b0|i0|c128|p49;64}
 11
6.123031769111886E-17
 21
1.0
 31
0.0
 73
     1
 44
1.0
  0
LINE
  5
22C
330
1F
100
AcDbEntity
  8
0-B_寸法
  6
Continuous
 62
   120
370
     5
100
AcDbLine
 10
-2737.387638104453
 20
-1469.292536776029
 30
0.0
 11
-2537.387638104454
 21
-1469.292536776029
 31
0.0
  0
LWPOLYLINE
  5
22D
330
1F
100
AcDbEntity
  8
0-B_寸法
  6
Continuous
 62
     7
370
     9
100
AcDbPolyline
 90
        4
 70
     1
 43
2.0
 10
-2736.387638104453
 20
-1533.292549751891
 42
0.4142135623731
 10
-2737.387638104453
 20
-1532.292549751892
 42
0.4142135623731
 10
-2738.387638104454
 20
-1533.292549751891
 42
0.4142135623731
 10
-2737.387638104453
 20
-1534.292549751891
 42
0.4142135623731
  0
LWPOLYLINE
  5
22E
330
1F
100
AcDbEntity
  8
0-B_寸法
  6
Continuous
 62
     7
370
     9
100
AcDbPolyline
 90
        4
 70
     1
 43
2.0
 10
-2736.387638104453
 20
-1469.292536776029
 42
0.4142135623731
 10
-2737.387638104453
 20
-1468.29253677603
 42
0.4142135623731
 10
-2738.387638104454
 20
-1469.292536776029
 42
0.4142135623731
 10
-2737.387638104453
 20
-1470.292536776029
 42
0.4142135623731
  0
LINE
  5
22F
330
1F
100
AcDbEntity
  8
0-B_寸法
  6
Continuous
 62
   120
370
     5
100
AcDbLine
 10
-2737.387638104453
 20
-1469.292536776029
 30
0.0
 11
-2737.387638104453
 21
-1533.292549751891
 31
0.0
  0
LINE
  5
230
330
1F
100
AcDbEntity
  8
0-A_文字
  6
Continuous
 62
     7
370
     9
100
AcDbLine
 10
-2513.392161304412
 20
-2083.292549751893
 30
0.0
 11
-2513.392161304412
 21
-1933.292549751893
 31
0.0
  0
LINE
  5
231
330
1F
100
AcDbEntity
  8
0-A_文字
  6
Continuous
 62
     7
370
     9
100
AcDbLine
 10
-1663.392161304409
 20
-2083.292549751893
 30
0.0
 11
-2513.392161304412
 21
-2083.292549751893
 31
0.0
  0
LINE
  5
232
330
1F
100
AcDbEntity
  8
0-A_文字
  6
Continuous
 62
     7
370
     9
100
AcDbLine
 10
-1663.392161304409
 20
-1933.292549751893
 30
0.0
 11
-1663.392161304409
 21
-2083.292549751893
 31
0.0
  0
LINE
  5
233
330
1F
100
AcDbEntity
  8
0-A_文字
  6
Continuous
 62
     7
370
     9
100
AcDbLine
 10
-2513.392161304412
 20
-1933.292549751893
 30
0.0
 11
-1663.392161304409
 21
-1933.292549751893
 31
0.0
  0
LINE
  5
234
330
1F
100
AcDbEntity
  8
0-3_扉仕上
  6
Continuous
 62
     7
370
     9
100
AcDbLine
 10
-2487.387638104454
 20
-1533.292549751893
 30
0.0
 11
-1491.387638104452
 21
-1533.292549751893
 31
0.0
  0
LWPOLYLINE
  5
235
330
1F
100
AcDbEntity
  8
0-B_寸法
  6
Continuous
 62
     7
370
     9
100
AcDbPolyline
 90
        4
 70
     1
 43
2.0
 10
-2486.387638104454
 20
-1683.292549751891
 42
0.4142135623731
 10
-2487.387638104454
 20
-1682.292549751892
 42
0.4142135623731
 10
-2488.387638104454
 20
-1683.292549751891
 42
0.4142135623731
 10
-2487.387638104454
 20
-1684.292549751891
 42
0.4142135623731
  0
LINE
  5
236
330
1F
100
AcDbEntity
  8
0-B_寸法
  6
Continuous
 62
   120
370
     5
100
AcDbLine
 10
-2487.387638104454
 20
-1783.292549751891
 30
0.0
 11
-2487.387638104454
 21
-1583.292549751891
 31
0.0
  0
LWPOLYLINE
  5
237
330
1F
100
AcDbEntity
  8
0-B_寸法
  6
Continuous
 62
     7
370
     9
100
AcDbPolyline
 90
        4
 70
     1
 43
2.0
 10
-1690.387638104454
 20
-1683.292549751891
 42
0.4142135623731
 10
-1691.387638104454
 20
-1682.292549751892
 42
0.4142135623731
 10
-1692.387638104454
 20
-1683.292549751891
 42
0.4142135623731
 10
-1691.387638104454
 20
-1684.292549751891
 42
0.4142135623731
  0
LINE
  5
238
330
1F
100
AcDbEntity
  8
0-B_寸法
  6
Continuous
 62
   120
370
     5
100
AcDbLine
 10
-1691.387638104454
 20
-1783.292549751891
 30
0.0
 11
-1691.387638104454
 21
-1583.292549751891
 31
0.0
  0
LINE
  5
239
330
1F
100
AcDbEntity
  8
0-B_寸法
  6
Continuous
 62
   120
370
     5
100
AcDbLine
 10
-2487.387638104454
 20
-1783.292549751891
 30
0.0
 11
-1691.387638104454
 21
-1783.292549751891
 31
0.0
  0
LWPOLYLINE
  5
23A
330
1F
100
AcDbEntity
  8
0-B_寸法
  6
Continuous
 62
     7
370
     9
100
AcDbPolyline
 90
        4
 70
     1
 43
2.0
 10
-2486.387638104454
 20
-1783.292549751891
 42
0.4142135623731
 10
-2487.387638104454
 20
-1782.292549751892
 42
0.4142135623731
 10
-2488.387638104454
 20
-1783.292549751891
 42
0.4142135623731
 10
-2487.387638104454
 20
-1784.292549751891
 42
0.4142135623731
  0
LWPOLYLINE
  5
23B
330
1F
100
AcDbEntity
  8
0-B_寸法
  6
Continuous
 62
     7
370
     9
100
AcDbPolyline
 90
        4
 70
     1
 43
2.0
 10
-1690.387638104454
 20
-1783.292549751891
 42
0.4142135623731
 10
-1691.387638104454
 20
-1782.292549751892
 42
0.4142135623731
 10
-1692.387638104454
 20
-1783.292549751891
 42
0.4142135623731
 10
-1691.387638104454
 20
-1784.292549751891
 42
0.4142135623731
  0
MTEXT
  5
23C
330
1F
100
AcDbEntity
  8
0-B_寸法
  6
Continuous
 62
     7
370
   211
100
AcDbMText
 10
-2134.387638104454
 20
-1780.432549751891
 30
0.0
 40
45.72
 41
90.0
 46
0.0
 71
     7
 72
     1
  1
{\fＭＳ ゴシック|b0|i0|c128|p49;796}
 73
     1
 44
1.0
  0
LWPOLYLINE
  5
23D
330
1F
100
AcDbEntity
  8
0-B_寸法
  6
Continuous
 62
     7
370
     9
100
AcDbPolyline
 90
        4
 70
     1
 43
2.0
 10
2422.612361683154
 20
-1390.292549751889
 42
0.4142135623731
 10
2421.612361683155
 20
-1389.292549751889
 42
0.4142135623731
 10
2420.612361683155
 20
-1390.292549751889
 42
0.4142135623731
 10
2421.612361683155
 20
-1391.292549751888
 42
0.4142135623731
  0
LINE
  5
23E
330
1F
100
AcDbEntity
  8
0-6_桟木
  6
Continuous
 62
    92
370
    13
100
AcDbLine
 10
2271.612361683155
 20
594.7074502481092
 30
0.0
 11
2301.612361683155
 21
594.7074502481092
 31
0.0
  0
LINE
  5
23F
330
1F
100
AcDbEntity
  8
0-6_桟木
  6
Continuous
 62
    92
370
    13
100
AcDbLine
 10
2271.612361683155
 20
699.7074502481092
 30
0.0
 11
2271.612361683155
 21
594.7074502481092
 31
0.0
  0
LINE
  5
240
330
1F
100
AcDbEntity
  8
0-6_桟木
  6
Continuous
 62
    92
370
    13
100
AcDbLine
 10
2301.612361683155
 20
699.7074502481092
 30
0.0
 11
2271.612361683155
 21
699.7074502481092
 31
0.0
  0
LINE
  5
241
330
1F
100
AcDbEntity
  8
0-6_桟木
  6
Continuous
 62
    92
370
    13
100
AcDbLine
 10
2301.612361683155
 20
594.7074502481092
 30
0.0
 11
2301.612361683155
 21
699.7074502481092
 31
0.0
  0
LINE
  5
242
330
1F
100
AcDbEntity
  8
0-6_桟木
  6
Continuous
 62
     7
370
     9
100
AcDbLine
 10
2271.612361683155
 20
594.7074502481092
 30
0.0
 11
2301.612361683155
 21
699.7074502481092
 31
0.0
  0
LINE
  5
243
330
1F
100
AcDbEntity
  8
0-6_桟木
  6
Continuous
 62
     7
370
     9
100
AcDbLine
 10
2271.612361683155
 20
699.7074502481092
 30
0.0
 11
2301.612361683155
 21
594.7074502481092
 31
0.0
  0
LINE
  5
244
330
1F
100
AcDbEntity
  8
0-6_桟木
  6
Continuous
 62
    92
370
    13
100
AcDbLine
 10
2271.612361683155
 20
235.7074502481083
 30
0.0
 11
2271.612361683155
 21
130.7074502481083
 31
0.0
  0
LINE
  5
245
330
1F
100
AcDbEntity
  8
0-6_桟木
  6
Continuous
 62
    92
370
    13
100
AcDbLine
 10
2301.612361683155
 20
235.7074502481083
 30
0.0
 11
2271.612361683155
 21
235.7074502481083
 31
0.0
  0
LINE
  5
246
330
1F
100
AcDbEntity
  8
0-6_桟木
  6
Continuous
 62
    92
370
    13
100
AcDbLine
 10
2271.612361683155
 20
130.7074502481083
 30
0.0
 11
2301.612361683155
 21
130.7074502481083
 31
0.0
  0
LINE
  5
247
330
1F
100
AcDbEntity
  8
0-6_桟木
  6
Continuous
 62
    92
370
    13
100
AcDbLine
 10
2301.612361683155
 20
130.7074502481083
 30
0.0
 11
2301.612361683155
 21
235.7074502481083
 31
0.0
  0
LINE
  5
248
330
1F
100
AcDbEntity
  8
0-6_桟木
  6
Continuous
 62
     7
370
     9
100
AcDbLine
 10
2271.612361683155
 20
130.7074502481083
 30
0.0
 11
2301.612361683155
 21
235.7074502481083
 31
0.0
  0
LINE
  5
249
330
1F
100
AcDbEntity
  8
0-6_桟木
  6
Continuous
 62
     7
370
     9
100
AcDbLine
 10
2271.612361683155
 20
235.7074502481083
 30
0.0
 11
2301.612361683155
 21
130.7074502481083
 31
0.0
  0
LWPOLYLINE
  5
24A
330
1F
100
AcDbEntity
  8
0-B_寸法
  6
Continuous
 62
     7
370
     9
100
AcDbPolyline
 90
        4
 70
     1
 43
2.0
 10
2422.612361683154
 20
130.7074502481083
 42
0.4142135623731
 10
2421.612361683155
 20
131.7074502481083
 42
0.4142135623731
 10
2420.612361683155
 20
130.7074502481083
 42
0.4142135623731
 10
2421.612361683155
 20
129.7074502481083
 42
0.4142135623731
  0
LINE
  5
24B
330
1F
100
AcDbEntity
  8
0-B_寸法
  6
Continuous
 62
   120
370
     5
100
AcDbLine
 10
2421.612361683155
 20
130.7074502481083
 30
0.0
 11
2321.612361683155
 21
130.7074502481083
 31
0.0
  0
LINE
  5
24C
330
1F
100
AcDbEntity
  8
0-B_寸法
  6
Continuous
 62
   120
370
     5
100
AcDbLine
 10
2421.612361683155
 20
130.7074502481083
 30
0.0
 11
2421.612361683155
 21
235.7074502481083
 31
0.0
  0
LWPOLYLINE
  5
24D
330
1F
100
AcDbEntity
  8
0-B_寸法
  6
Continuous
 62
     7
370
     9
100
AcDbPolyline
 90
        4
 70
     1
 43
2.0
 10
2422.612361683154
 20
235.7074502481083
 42
0.4142135623731
 10
2421.612361683155
 20
236.7074502481083
 42
0.4142135623731
 10
2420.612361683155
 20
235.7074502481083
 42
0.4142135623731
 10
2421.612361683155
 20
234.7074502481083
 42
0.4142135623731
  0
LINE
  5
24E
330
1F
100
AcDbEntity
  8
0-B_寸法
  6
Continuous
 62
   120
370
     5
100
AcDbLine
 10
2421.612361683155
 20
235.7074502481083
 30
0.0
 11
2321.612361683155
 21
235.7074502481083
 31
0.0
  0
MTEXT
  5
24F
330
1F
100
AcDbEntity
  8
0-B_寸法
  6
Continuous
 62
     7
370
   211
100
AcDbMText
 10
2411.612361683155
 20
131.0674502481083
 30
0.0
 40
45.72
 41
90.0
 46
0.0
 71
     7
 72
     1
  1
{\fＭＳ ゴシック|b0|i0|c128|p49;105}
 11
6.123031769111886E-17
 21
1.0
 31
0.0
 73
     1
 44
1.0
  0
LINE
  5
250
330
1F
100
AcDbEntity
  8
0-B_寸法
  6
Continuous
 62
   120
370
     5
100
AcDbLine
 10
2421.612361683155
 20
235.7074502481083
 30
0.0
 11
2421.612361683155
 21
594.7074502481092
 31
0.0
  0
LWPOLYLINE
  5
251
330
1F
100
AcDbEntity
  8
0-B_寸法
  6
Continuous
 62
     7
370
     9
100
AcDbPolyline
 90
        4
 70
     1
 43
2.0
 10
2422.612361683154
 20
594.7074502481092
 42
0.4142135623731
 10
2421.612361683155
 20
595.7074502481092
 42
0.4142135623731
 10
2420.612361683155
 20
594.7074502481092
 42
0.4142135623731
 10
2421.612361683155
 20
593.7074502481092
 42
0.4142135623731
  0
LINE
  5
252
330
1F
100
AcDbEntity
  8
0-B_寸法
  6
Continuous
 62
   120
370
     5
100
AcDbLine
 10
2421.612361683155
 20
594.7074502481092
 30
0.0
 11
2321.612361683155
 21
594.7074502481092
 31
0.0
  0
MTEXT
  5
253
330
1F
100
AcDbEntity
  8
0-B_寸法
  6
Continuous
 62
     7
370
   211
100
AcDbMText
 10
2411.612361683155
 20
363.0674502481088
 30
0.0
 40
45.72
 41
90.0
 46
0.0
 71
     7
 72
     1
  1
{\fＭＳ ゴシック|b0|i0|c128|p49;359}
 11
6.123031769111886E-17
 21
1.0
 31
0.0
 73
     1
 44
1.0
  0
LINE
  5
254
330
1F
100
AcDbEntity
  8
0-B_寸法
  6
Continuous
 62
   120
370
     5
100
AcDbLine
 10
2421.612361683155
 20
594.7074502481092
 30
0.0
 11
2421.612361683155
 21
699.7074502481092
 31
0.0
  0
LWPOLYLINE
  5
255
330
1F
100
AcDbEntity
  8
0-B_寸法
  6
Continuous
 62
     7
370
     9
100
AcDbPolyline
 90
        4
 70
     1
 43
2.0
 10
2422.612361683154
 20
699.7074502481092
 42
0.4142135623731
 10
2421.612361683155
 20
700.7074502481091
 42
0.4142135623731
 10
2420.612361683155
 20
699.7074502481092
 42
0.4142135623731
 10
2421.612361683155
 20
698.7074502481094
 42
0.4142135623731
  0
LINE
  5
256
330
1F
100
AcDbEntity
  8
0-B_寸法
  6
Continuous
 62
   120
370
     5
100
AcDbLine
 10
2421.612361683155
 20
699.7074502481092
 30
0.0
 11
2321.612361683155
 21
699.7074502481092
 31
0.0
  0
MTEXT
  5
257
330
1F
100
AcDbEntity
  8
0-B_寸法
  6
Continuous
 62
     7
370
   211
100
AcDbMText
 10
2411.612361683155
 20
595.0674502481093
 30
0.0
 40
45.72
 41
90.0
 46
0.0
 71
     7
 72
     1
  1
{\fＭＳ ゴシック|b0|i0|c128|p49;105}
 11
6.123031769111886E-17
 21
1.0
 31
0.0
 73
     1
 44
1.0
  0
LINE
  5
258
330
1F
100
AcDbEntity
  8
0-1_本体
  6
Continuous
 62
    40
370
    15
100
AcDbLine
 10
2271.612361683155
 20
691.7074502481091
 30
0.0
 11
2271.612361683155
 21
699.7074502481092
 31
0.0
  0
MTEXT
  5
259
330
1F
100
AcDbEntity
  8
0-B_寸法
  6
Continuous
 62
     7
370
   211
100
AcDbMText
 10
2411.612361683155
 20
-1513.932549751888
 30
0.0
 40
45.72
 41
90.0
 46
0.0
 71
     7
 72
     1
  1
{\fＭＳ ゴシック|b0|i0|c128|p49;143}
 11
6.123031769111886E-17
 21
1.0
 31
0.0
 73
     1
 44
1.0
  0
LINE
  5
25A
330
1F
100
AcDbEntity
  8
0-B_寸法
  6
Continuous
 62
   120
370
     5
100
AcDbLine
 10
2421.612361683155
 20
-1390.292549751889
 30
0.0
 11
2321.612361683154
 21
-1390.292549751889
 31
0.0
  0
LINE
  5
25B
330
1F
100
AcDbEntity
  8
0-B_寸法
  6
Continuous
 62
   120
370
     5
100
AcDbLine
 10
2421.612361683155
 20
-1533.29254975189
 30
0.0
 11
2321.612361683154
 21
-1533.29254975189
 31
0.0
  0
LWPOLYLINE
  5
25C
330
1F
100
AcDbEntity
  8
0-B_寸法
  6
Continuous
 62
     7
370
     9
100
AcDbPolyline
 90
        4
 70
     1
 43
2.0
 10
2422.612361683154
 20
-1533.29254975189
 42
0.4142135623731
 10
2421.612361683155
 20
-1532.29254975189
 42
0.4142135623731
 10
2420.612361683155
 20
-1533.29254975189
 42
0.4142135623731
 10
2421.612361683155
 20
-1534.29254975189
 42
0.4142135623731
  0
LINE
  5
25D
330
1F
100
AcDbEntity
  8
0-B_寸法
  6
Continuous
 62
   120
370
     5
100
AcDbLine
 10
2421.612361683155
 20
-1533.29254975189
 30
0.0
 11
2421.612361683155
 21
-1390.292549751889
 31
0.0
  0
MTEXT
  5
25E
330
1F
100
AcDbEntity
  8
0-A_文字
  6
Continuous
 62
     7
370
   211
100
AcDbMText
 10
1357.80573206708
 20
-2194.246956876721
 30
0.0
 40
45.71999999999998
 41
1050.0
 46
0.0
 71
     7
 72
     1
  1
{\fＭＳ ゴシック|b0|i0|c128|p49;※棚板は可動式32m/mピッチで調整可能}
 73
     1
 44
1.0
  0
MTEXT
  5
25F
330
1F
100
AcDbEntity
  8
0-A_文字
  6
Continuous
 62
     7
370
   211
100
AcDbMText
 10
1357.805732067084
 20
-2268.382406790891
 30
0.0
 40
45.72000000000001
 41
1890.0
 46
0.0
 71
     7
 72
     1
  1
{\fＭＳ ゴシック|b0|i0|c128|p49;※下地用の木桟木は105m/m×30m/m以上の堅い木を使用してください。}
 73
     1
 44
1.0
  0
LINE
  5
260
330
1F
100
AcDbEntity
  8
0-A_文字
  6
Continuous
 62
     7
370
     9
100
AcDbLine
 10
2558.112265983153
 20
-1933.292549751891
 30
0.0
 11
2558.112265983153
 21
-2083.292549751891
 31
0.0
  0
LINE
  5
261
330
1F
100
AcDbEntity
  8
0-A_文字
  6
Continuous
 62
     7
370
     9
100
AcDbLine
 10
1518.112265983152
 20
-1933.292549751891
 30
0.0
 11
1518.112265983152
 21
-2083.292549751891
 31
0.0
  0
LINE
  5
262
330
1F
100
AcDbEntity
  8
0-A_文字
  6
Continuous
 62
     7
370
     9
100
AcDbLine
 10
1518.112265983152
 20
-1933.292549751891
 30
0.0
 11
2558.112265983153
 21
-1933.292549751891
 31
0.0
  0
LINE
  5
263
330
1F
100
AcDbEntity
  8
0-A_文字
  6
Continuous
 62
     7
370
     9
100
AcDbLine
 10
2558.112265983153
 20
-2083.292549751891
 30
0.0
 11
1518.112265983152
 21
-2083.292549751891
 31
0.0
  0
MTEXT
  5
264
330
1F
100
AcDbEntity
  8
0-A_文字
  6
Continuous
 62
     7
370
     9
100
AcDbMText
 10
1588.112265983152
 20
-2079.306835466177
 30
0.0
 40
97.97142857142858
 41
900.0
 46
0.0
 71
     7
 72
     1
  1
{\fＭＳ ゴシック|b0|i0|c128|p49;Ａ－Ａ’断面図}
 73
     1
 44
1.0
  0
LINE
  5
265
330
1F
100
AcDbEntity
  8
0-A_文字
  6
JWW_HOJO
 62
     7
370
     9
100
AcDbLine
 10
2521.61236168315
 20
-1533.292549751891
 30
0.0
 11
-2737.387638104452
 21
-1533.292549751891
 31
0.0
  0
LINE
  5
266
330
1F
100
AcDbEntity
  8
0-A_文字
  6
JWW_HOJO
 62
     7
370
     9
100
AcDbLine
 10
2521.61236168315
 20
699.7074502481081
 30
0.0
 11
-2737.387638104452
 21
699.7074502481081
 31
0.0
  0
LINE
  5
267
330
1F
100
AcDbEntity
  8
0-A_文字
  6
JWW_CENTER1
 62
     7
370
     9
100
AcDbLine
 10
-2487.387638104452
 20
699.7074502481081
 30
0.0
 11
2271.612361683152
 21
699.7074502481081
 31
0.0
  0
LINE
  5
268
330
1F
100
AcDbEntity
  8
0-0_補助線
  6
JWW_HOJO
 62
   120
370
     5
100
AcDbLine
 10
2521.61236168315
 20
-1583.292549751891
 30
0.0
 11
-2737.387638104452
 21
-1583.292549751891
 31
0.0
  0
LINE
  5
269
330
1F
100
AcDbEntity
  8
0-0_補助線
  6
JWW_HOJO
 62
   120
370
     5
100
AcDbLine
 10
2521.61236168315
 20
-1683.292549751891
 30
0.0
 11
-2737.387638104452
 21
-1683.292549751891
 31
0.0
  0
LINE
  5
26A
330
1F
100
AcDbEntity
  8
0-0_補助線
  6
JWW_HOJO
 62
   120
370
     5
100
AcDbLine
 10
2521.61236168315
 20
-1783.292549751891
 30
0.0
 11
-2737.387638104452
 21
-1783.292549751891
 31
0.0
  0
LINE
  5
26B
330
1F
100
AcDbEntity
  8
0-B_寸法
  6
JWW_DASHED2
 62
   120
370
     5
100
AcDbLine
 10
2271.612361590075
 20
-1533.29254975189
 30
0.0
 11
-2276.168165452278
 21
-1533.29254975189
 31
0.0
  0
LINE
  5
26C
330
1F
100
AcDbEntity
  8
0-B_寸法
  6
JWW_DASHED2
 62
   120
370
     5
100
AcDbLine
 10
2271.612361590075
 20
-1390.292549751892
 30
0.0
 11
-2487.387638104452
 21
-1390.292549751892
 31
0.0
  0
LINE
  5
26D
330
1F
100
AcDbEntity
  8
0-B_寸法
  6
JWW_DASHED2
 62
   120
370
     5
100
AcDbLine
 10
2271.612361683153
 20
699.7074502481092
 30
0.0
 11
-2487.387638104451
 21
699.7074502481092
 31
0.0
  0
LINE
  5
26E
330
1F
100
AcDbEntity
  8
0-B_寸法
  6
JWW_DASHED2
 62
   120
370
     5
100
AcDbLine
 10
2271.612361683153
 20
594.7074502481092
 30
0.0
 11
-2487.387638104451
 21
594.7074502481092
 31
0.0
  0
LINE
  5
26F
330
1F
100
AcDbEntity
  8
0-B_寸法
  6
JWW_DASHED2
 62
   120
370
     5
100
AcDbLine
 10
2271.612361683153
 20
235.7074502481083
 30
0.0
 11
-2487.387638104451
 21
235.7074502481083
 31
0.0
  0
LINE
  5
270
330
1F
100
AcDbEntity
  8
0-B_寸法
  6
JWW_DASHED2
 62
   120
370
     5
100
AcDbLine
 10
2271.612361683153
 20
130.7074502481083
 30
0.0
 11
-2487.387638104451
 21
130.7074502481083
 31
0.0
  0
LINE
  5
271
330
1F
100
AcDbEntity
  8
0-A_文字
  6
JWW_CENTER1
 62
     7
370
     9
100
AcDbLine
 10
-2487.387638104452
 20
-1533.292549751891
 30
0.0
 11
2271.612361683152
 21
-1533.292549751891
 31
0.0
  0
LINE
  5
272
330
1F
100
AcDbEntity
  8
0-4_棚
  6
Continuous
 62
    92
370
    13
100
AcDbLine
 10
-2488.387638011379
 20
-708.2925695470826
 30
0.0
 11
-1690.387638011379
 21
-708.2925695470826
 31
0.0
  0
LINE
  5
273
330
1F
100
AcDbEntity
  8
0-3_扉仕上
  6
JWW_CENTER1
 62
     7
370
     9
100
AcDbLine
 10
-2091.387638104457
 20
-711.2925299567138
 30
0.0
 11
-2485.387638104455
 21
-1088.792539854306
 31
0.0
  0
LINE
  5
274
330
1F
100
AcDbEntity
  8
0-3_扉仕上
  6
JWW_CENTER1
 62
     7
370
     9
100
AcDbLine
 10
-2485.387638104455
 20
-1088.792539854306
 30
0.0
 11
-2091.387638104457
 21
-1466.292549751899
 31
0.0
  0
LINE
  5
275
330
1F
100
AcDbEntity
  8
0-3_扉仕上
  6
JWW_CENTER1
 62
     7
370
     9
100
AcDbLine
 10
-2087.387638104456
 20
-711.2925299567138
 30
0.0
 11
-1693.387638104457
 21
-1088.792539854306
 31
0.0
  0
LINE
  5
276
330
1F
100
AcDbEntity
  8
0-3_扉仕上
  6
JWW_CENTER1
 62
     7
370
     9
100
AcDbLine
 10
-1693.387638104457
 20
-1088.792539854306
 30
0.0
 11
-2087.387638104456
 21
-1466.292549751899
 31
0.0
  0
LINE
  5
277
330
1F
100
AcDbEntity
  8
0-4_棚
  6
Continuous
 62
    92
370
    13
100
AcDbLine
 10
-392.3876381044577
 20
-708.2925695470826
 30
0.0
 11
405.6123618955434
 21
-708.2925695470826
 31
0.0
  0
MTEXT
  5
278
330
1F
100
AcDbEntity
  8
0-A_文字
  6
Continuous
 62
     7
370
     9
100
AcDbMText
 10
-313.616848446216
 20
2099.004602139708
 30
0.0
 40
45.72
 41
90.0
 46
0.0
 71
     7
 72
     1
  1
{\fＭＳ ゴシック|b0|i0|c128|p49;Ａ }
 73
     1
 44
1.0
  0
MTEXT
  5
279
330
1F
100
AcDbEntity
  8
0-A_文字
  6
Continuous
 62
     7
370
     9
100
AcDbMText
 10
-313.616848446216
 20
1570.877978934473
 30
0.0
 40
45.72
 41
90.0
 46
0.0
 71
     7
 72
     1
  1
{\fＭＳ ゴシック|b0|i0|c128|p49;Ａ'}
 73
     1
 44
1.0
  0
LINE
  5
27A
330
1F
100
AcDbEntity
  8
0-A_文字
  6
Continuous
 62
     7
370
     9
100
AcDbLine
 10
-120.7486909821096
 20
2130.144602139708
 30
0.0
 11
-120.7486909821096
 21
1608.017978934472
 31
0.0
  0
LINE
  5
27B
330
1F
100
AcDbEntity
  8
0-A_文字
  6
Continuous
 62
     7
370
     9
100
AcDbLine
 10
-223.616848446216
 20
1608.017978934472
 30
0.0
 11
-120.7486909821096
 21
1635.58129053709
 31
0.0
  0
LINE
  5
27C
330
1F
100
AcDbEntity
  8
0-A_文字
  6
Continuous
 62
     7
370
     9
100
AcDbLine
 10
-120.7486909821096
 20
1608.017978934472
 30
0.0
 11
-223.616848446216
 21
1608.017978934472
 31
0.0
  0
LINE
  5
27D
330
1F
100
AcDbEntity
  8
0-A_文字
  6
Continuous
 62
     7
370
     9
100
AcDbLine
 10
-223.616848446216
 20
2130.144602139708
 30
0.0
 11
-120.7486909821096
 21
2102.581290537091
 31
0.0
  0
LINE
  5
27E
330
1F
100
AcDbEntity
  8
0-A_文字
  6
Continuous
 62
     7
370
     9
100
AcDbLine
 10
-120.7486909821096
 20
2130.144602139708
 30
0.0
 11
-223.616848446216
 21
2130.144602139708
 31
0.0
  0
LINE
  5
27F
330
1F
100
AcDbEntity
  8
0-7__
  6
Continuous
 62
     7
370
     9
100
AcDbLine
 10
-7.387638104455618
 20
401.7074502480784
 30
0.0
 11
-7.387638104455618
 21
145.7074502480862
 31
0.0
  0
LINE
  5
280
330
1F
100
AcDbEntity
  8
0-7__
  6
Continuous
 62
     7
370
     9
100
AcDbLine
 10
20.6123618955445
 20
401.7074502480784
 30
0.0
 11
20.6123618955445
 21
145.7074502480862
 31
0.0
  0
LINE
  5
281
330
1F
100
AcDbEntity
  8
0-7__
  6
JWW_DASHED1
 62
     7
370
     9
100
AcDbLine
 10
-7.387638104455618
 20
401.7074502480784
 30
0.0
 11
-7.387638104455618
 21
413.7074502480795
 31
0.0
  0
LINE
  5
282
330
1F
100
AcDbEntity
  8
0-7__
  6
JWW_DASHED1
 62
     7
370
     9
100
AcDbLine
 10
20.6123618955445
 20
401.7074502480784
 30
0.0
 11
20.6123618955445
 21
413.7074502480795
 31
0.0
  0
LINE
  5
283
330
1F
100
AcDbEntity
  8
0-7__
  6
Continuous
 62
     7
370
     9
100
AcDbLine
 10
-7.387638104455618
 20
684.7074502480785
 30
0.0
 11
-7.387638104455618
 21
413.7074502480795
 31
0.0
  0
LINE
  5
284
330
1F
100
AcDbEntity
  8
0-7__
  6
Continuous
 62
     7
370
     9
100
AcDbLine
 10
20.6123618955445
 20
684.7074502480785
 30
0.0
 11
20.6123618955445
 21
413.7074502480795
 31
0.0
  0
LINE
  5
285
330
1F
100
AcDbEntity
  8
0-A_文字
  6
Continuous
 62
     7
370
     9
100
AcDbLine
 10
41.46272352060123
 20
735.007120883439
 30
0.0
 11
414.6016835070071
 21
735.007120883439
 31
0.0
  0
LINE
  5
286
330
1F
100
AcDbEntity
  8
0-A_文字
  6
Continuous
 62
     7
370
     9
100
AcDbLine
 10
4.601216850462606
 20
671.1611184872203
 30
0.0
 11
41.46272352060123
 21
735.007120883439
 31
0.0
  0
MTEXT
  5
287
330
1F
100
AcDbEntity
  8
0-A_文字
  6
Continuous
 62
     7
370
     9
100
AcDbMText
 10
54.60168350700712
 20
729.9971622799472
 30
0.0
 40
45.72
 41
360.0
 46
0.0
 71
     7
 72
     1
  1
{\fＭＳ ゴシック|b0|i0|c128|p49;背板連結樹脂}
 73
     1
 44
1.0
  0
LINE
  5
288
330
1F
100
AcDbEntity
  8
0-7__
  6
Continuous
 62
     7
370
     9
100
AcDbLine
 10
-7.387638104459029
 20
-1246.315057717722
 30
0.0
 11
-7.387638104459029
 21
-1454.292549751907
 31
0.0
  0
LINE
  5
289
330
1F
100
AcDbEntity
  8
0-7__
  6
Continuous
 62
     7
370
     9
100
AcDbLine
 10
20.61236189554108
 20
-1246.315057717722
 30
0.0
 11
20.61236189554108
 21
-1454.292549751907
 31
0.0
  0
LINE
  5
28A
330
1F
100
AcDbEntity
  8
0-7__
  6
JWW_DASHED1
 62
     7
370
     9
100
AcDbLine
 10
-7.387638104459029
 20
-1246.315057717722
 30
0.0
 11
-7.387638104459029
 21
-1234.315057717721
 31
0.0
  0
LINE
  5
28B
330
1F
100
AcDbEntity
  8
0-7__
  6
JWW_DASHED1
 62
     7
370
     9
100
AcDbLine
 10
20.61236189554108
 20
-1246.315057717722
 30
0.0
 11
20.61236189554108
 21
-1234.315057717721
 31
0.0
  0
LINE
  5
28C
330
1F
100
AcDbEntity
  8
0-7__
  6
JWW_DASHED1
 62
     7
370
     9
100
AcDbLine
 10
-7.387638104459029
 20
-1054.314158674163
 30
0.0
 11
-7.387638104459029
 21
-1042.314158674162
 31
0.0
  0
LINE
  5
28D
330
1F
100
AcDbEntity
  8
0-7__
  6
JWW_DASHED1
 62
     7
370
     9
100
AcDbLine
 10
20.61236189554108
 20
-1054.314158674163
 30
0.0
 11
20.61236189554108
 21
-1042.314158674162
 31
0.0
  0
LINE
  5
28E
330
1F
100
AcDbEntity
  8
0-7__
  6
Continuous
 62
     7
370
     9
100
AcDbLine
 10
20.61236189554108
 20
-1054.314158674163
 30
0.0
 11
20.61236189554108
 21
-1234.315057717721
 31
0.0
  0
LINE
  5
28F
330
1F
100
AcDbEntity
  8
0-7__
  6
Continuous
 62
     7
370
     9
100
AcDbLine
 10
-7.387638104459029
 20
-1054.314158674163
 30
0.0
 11
-7.387638104459029
 21
-1234.315057717721
 31
0.0
  0
LINE
  5
290
330
1F
100
AcDbEntity
  8
0-7__
  6
JWW_DASHED1
 62
     7
370
     9
100
AcDbLine
 10
-7.387638104459029
 20
-862.3141586741627
 30
0.0
 11
-7.387638104459029
 21
-850.314158674162
 31
0.0
  0
LINE
  5
291
330
1F
100
AcDbEntity
  8
0-7__
  6
JWW_DASHED1
 62
     7
370
     9
100
AcDbLine
 10
20.61236189554108
 20
-862.3141586741627
 30
0.0
 11
20.61236189554108
 21
-850.314158674162
 31
0.0
  0
LINE
  5
292
330
1F
100
AcDbEntity
  8
0-7__
  6
Continuous
 62
     7
370
     9
100
AcDbLine
 10
20.61236189554108
 20
-862.3141586741647
 30
0.0
 11
20.61236189554108
 21
-1042.314158674163
 31
0.0
  0
LINE
  5
293
330
1F
100
AcDbEntity
  8
0-7__
  6
Continuous
 62
     7
370
     9
100
AcDbLine
 10
-7.387638104459029
 20
-862.3141586741647
 30
0.0
 11
-7.387638104459029
 21
-1042.314158674163
 31
0.0
  0
LINE
  5
294
330
1F
100
AcDbEntity
  8
0-7__
  6
Continuous
 62
     7
370
     9
100
AcDbLine
 10
-7.387638104459029
 20
-723.2925497519074
 30
0.0
 11
-7.387638104459029
 21
-850.3141586741634
 31
0.0
  0
LINE
  5
295
330
1F
100
AcDbEntity
  8
0-7__
  6
Continuous
 62
     7
370
     9
100
AcDbLine
 10
20.61236189554108
 20
-723.2925497519074
 30
0.0
 11
20.61236189554108
 21
-850.3141586741634
 31
0.0
  0
LINE
  5
296
330
1F
100
AcDbEntity
  8
0-1_本体
  6
Continuous
 62
    40
370
    15
100
AcDbLine
 10
-391.3876381044543
 20
2052.581290537091
 30
0.0
 11
-383.3876381044539
 21
2052.581290537091
 31
0.0
  0
LINE
  5
297
330
1F
100
AcDbEntity
  8
0-1_本体
  6
Continuous
 62
    40
370
    15
100
AcDbLine
 10
-383.3876381044539
 20
2052.581290537091
 30
0.0
 11
-383.3876381044539
 21
2049.58129053709
 31
0.0
  0
LINE
  5
298
330
1F
100
AcDbEntity
  8
0-1_本体
  6
Continuous
 62
    40
370
    15
100
AcDbLine
 10
-383.3876381044539
 20
2049.58129053709
 30
0.0
 11
1.112361895545746
 21
2049.58129053709
 31
0.0
  0
LINE
  5
299
330
1F
100
AcDbEntity
  8
0-1_本体
  6
Continuous
 62
    40
370
    15
100
AcDbLine
 10
-383.3876381044539
 20
2051.08129053709
 30
0.0
 11
1.112361895545746
 21
2051.08129053709
 31
0.0
  0
LINE
  5
29A
330
1F
100
AcDbEntity
  8
0-1_本体
  6
Continuous
 62
     7
370
     9
100
AcDbLine
 10
-383.3876381044539
 20
2052.581290537091
 30
0.0
 11
1.112361895545746
 21
2052.581290537091
 31
0.0
  0
LINE
  5
29B
330
1F
100
AcDbEntity
  8
0-1_本体
  6
Continuous
 62
    40
370
    15
100
AcDbLine
 10
396.6123618955456
 20
2052.581290537091
 30
0.0
 11
396.6123618955456
 21
2049.58129053709
 31
0.0
  0
LINE
  5
29C
330
1F
100
AcDbEntity
  8
0-1_本体
  6
Continuous
 62
    40
370
    15
100
AcDbLine
 10
396.6123618955456
 20
2049.58129053709
 30
0.0
 11
12.11236189554597
 21
2049.58129053709
 31
0.0
  0
LINE
  5
29D
330
1F
100
AcDbEntity
  8
0-1_本体
  6
Continuous
 62
    40
370
    15
100
AcDbLine
 10
396.6123618955456
 20
2051.08129053709
 30
0.0
 11
12.11236189554597
 21
2051.08129053709
 31
0.0
  0
LINE
  5
29E
330
1F
100
AcDbEntity
  8
0-1_本体
  6
Continuous
 62
     7
370
     9
100
AcDbLine
 10
396.6123618955456
 20
2052.581290537091
 30
0.0
 11
12.11236189554597
 21
2052.581290537091
 31
0.0
  0
LINE
  5
29F
330
1F
100
AcDbEntity
  8
0-1_本体
  6
Continuous
 62
    40
370
    15
100
AcDbLine
 10
396.6123618955456
 20
2052.581290537091
 30
0.0
 11
404.612361895546
 21
2052.581290537091
 31
0.0
  0
LINE
  5
2A0
330
1F
100
AcDbEntity
  8
0-7__
  6
Continuous
 62
     7
370
     9
100
AcDbLine
 10
2.112361895545973
 20
2052.581290537091
 30
0.0
 11
11.11236189554575
 21
2052.581290537091
 31
0.0
  0
LINE
  5
2A1
330
1F
100
AcDbEntity
  8
0-7__
  6
Continuous
 62
     7
370
     9
100
AcDbLine
 10
-9.387638104454084
 20
2053.08129053709
 30
0.0
 11
-9.387638104454084
 21
2052.581290537091
 31
0.0
  0
ARC
  5
2A2
330
1F
100
AcDbEntity
  8
0-7__
  6
Continuous
 62
     7
370
     9
100
AcDbCircle
 10
-8.887638104454254
 20
2053.08129053709
 30
0.0
 40
0.5
100
AcDbArc
 50
90.0
 51
180.0
  0
LINE
  5
2A3
330
1F
100
AcDbEntity
  8
0-7__
  6
Continuous
 62
     7
370
     9
100
AcDbLine
 10
22.6123618955458
 20
2053.08129053709
 30
0.0
 11
22.6123618955458
 21
2052.581290537091
 31
0.0
  0
LINE
  5
2A4
330
1F
100
AcDbEntity
  8
0-7__
  6
Continuous
 62
     7
370
     9
100
AcDbLine
 10
22.11236189554597
 20
2053.58129053709
 30
0.0
 11
-8.887638104454254
 21
2053.58129053709
 31
0.0
  0
ARC
  5
2A5
330
1F
100
AcDbEntity
  8
0-7__
  6
Continuous
 62
     7
370
     9
100
AcDbCircle
 10
22.11236189554597
 20
2053.08129053709
 30
0.0
 40
0.5
100
AcDbArc
 50
0.0
 51
90.00000000000001
  0
LINE
  5
2A6
330
1F
100
AcDbEntity
  8
0-7__
  6
Continuous
 62
     7
370
     9
100
AcDbLine
 10
-7.387638104454197
 20
2049.58129053709
 30
0.0
 11
1.112361895545746
 21
2049.58129053709
 31
0.0
  0
LINE
  5
2A7
330
1F
100
AcDbEntity
  8
0-7__
  6
Continuous
 62
     7
370
     9
100
AcDbLine
 10
-7.387638104454197
 20
2049.08129053709
 30
0.0
 11
-7.387638104454197
 21
2049.58129053709
 31
0.0
  0
ARC
  5
2A8
330
1F
100
AcDbEntity
  8
0-7__
  6
Continuous
 62
     7
370
     9
100
AcDbCircle
 10
-6.887638104454084
 20
2049.08129053709
 30
0.0
 40
0.5
100
AcDbArc
 50
180.0
 51
270.0
  0
LINE
  5
2A9
330
1F
100
AcDbEntity
  8
0-7__
  6
Continuous
 62
     7
370
     9
100
AcDbLine
 10
20.1123618955458
 20
2048.58129053709
 30
0.0
 11
-6.887638104454084
 21
2048.58129053709
 31
0.0
  0
LINE
  5
2AA
330
1F
100
AcDbEntity
  8
0-7__
  6
Continuous
 62
     7
370
     9
100
AcDbLine
 10
20.61236189554592
 20
2049.08129053709
 30
0.0
 11
20.61236189554592
 21
2049.58129053709
 31
0.0
  0
ARC
  5
2AB
330
1F
100
AcDbEntity
  8
0-7__
  6
Continuous
 62
     7
370
     9
100
AcDbCircle
 10
20.1123618955458
 20
2049.08129053709
 30
0.0
 40
0.5
100
AcDbArc
 50
270.0
 51
0.0
  0
LINE
  5
2AC
330
1F
100
AcDbEntity
  8
0-7__
  6
Continuous
 62
     7
370
     9
100
AcDbLine
 10
1.112361895545746
 20
2049.58129053709
 30
0.0
 11
1.112361895545746
 21
2052.581290537091
 31
0.0
  0
LINE
  5
2AD
330
1F
100
AcDbEntity
  8
0-7__
  6
Continuous
 62
     7
370
     9
100
AcDbLine
 10
2.112361895545973
 20
2049.58129053709
 30
0.0
 11
2.112361895545973
 21
2052.581290537091
 31
0.0
  0
LINE
  5
2AE
330
1F
100
AcDbEntity
  8
0-7__
  6
Continuous
 62
     7
370
     9
100
AcDbLine
 10
11.11236189554575
 20
2049.58129053709
 30
0.0
 11
11.11236189554575
 21
2052.581290537091
 31
0.0
  0
LINE
  5
2AF
330
1F
100
AcDbEntity
  8
0-7__
  6
Continuous
 62
     7
370
     9
100
AcDbLine
 10
2.112361895545973
 20
2049.58129053709
 30
0.0
 11
11.11236189554575
 21
2049.58129053709
 31
0.0
  0
LINE
  5
2B0
330
1F
100
AcDbEntity
  8
0-7__
  6
Continuous
 62
     7
370
     9
100
AcDbLine
 10
12.11236189554597
 20
2049.58129053709
 30
0.0
 11
12.11236189554597
 21
2052.581290537091
 31
0.0
  0
LINE
  5
2B1
330
1F
100
AcDbEntity
  8
0-7__
  6
Continuous
 62
     7
370
     9
100
AcDbLine
 10
12.11236189554597
 20
2049.58129053709
 30
0.0
 11
20.61236189554592
 21
2049.58129053709
 31
0.0
  0
LINE
  5
2B2
330
1F
100
AcDbEntity
  8
0-7__
  6
Continuous
 62
     7
370
     9
100
AcDbLine
 10
-9.387638104454084
 20
2052.581290537091
 30
0.0
 11
1.112361895545746
 21
2052.581290537091
 31
0.0
  0
LINE
  5
2B3
330
1F
100
AcDbEntity
  8
0-7__
  6
Continuous
 62
     7
370
     9
100
AcDbLine
 10
12.11236189554597
 20
2052.581290537091
 30
0.0
 11
22.6123618955458
 21
2052.581290537091
 31
0.0
  0
MTEXT
  5
2B4
330
1F
100
AcDbEntity
  8
0-A_文字
  6
Continuous
 62
     7
370
     9
100
AcDbMText
 10
51.62287018685198
 20
2121.504705973953
 30
0.0
 40
45.72
 41
360.0
 46
0.0
 71
     7
 72
     1
  1
{\fＭＳ ゴシック|b0|i0|c128|p49;背板連結樹脂}
 73
     1
 44
1.0
  0
LINE
  5
2B5
330
1F
100
AcDbEntity
  8
0-A_文字
  6
Continuous
 62
     7
370
     9
100
AcDbLine
 10
38.48391020044602
 20
2126.514664577445
 30
0.0
 11
411.6228701868521
 21
2126.514664577445
 31
0.0
  0
LINE
  5
2B6
330
1F
100
AcDbEntity
  8
0-A_文字
  6
Continuous
 62
     7
370
     9
100
AcDbLine
 10
-3.966319237981111
 20
2052.988710397135
 30
0.0
 11
38.48391020044602
 21
2126.514664577445
 31
0.0
  0
LINE
  5
2B7
330
1F
100
AcDbEntity
  8
0-3_扉仕上
  6
JWW_CENTER1
 62
     7
370
     9
100
AcDbLine
 10
-2087.387638104455
 20
696.7074502481091
 30
0.0
 11
-1693.387638104456
 21
415.2074502481099
 31
0.0
  0
LINE
  5
2B8
330
1F
100
AcDbEntity
  8
0-3_扉仕上
  6
JWW_CENTER1
 62
     7
370
     9
100
AcDbLine
 10
-1693.387638104456
 20
415.2074502481099
 30
0.0
 11
-2087.387638104455
 21
133.707450248109
 31
0.0
  0
LINE
  5
2B9
330
1F
100
AcDbEntity
  8
0-3_扉仕上
  6
JWW_CENTER1
 62
     7
370
     9
100
AcDbLine
 10
-2091.387638104456
 20
696.7074502481091
 30
0.0
 11
-2485.387638104455
 21
415.2074502481099
 31
0.0
  0
LINE
  5
2BA
330
1F
100
AcDbEntity
  8
0-3_扉仕上
  6
JWW_CENTER1
 62
     7
370
     9
100
AcDbLine
 10
-2485.387638104455
 20
415.2074502481099
 30
0.0
 11
-2091.387638104456
 21
133.707450248109
 31
0.0
  0
LINE
  5
2BB
330
1F
100
AcDbEntity
  8
0-2_扉
  6
Continuous
 62
    40
370
    15
100
AcDbLine
 10
402.6123618955432
 20
1706.58129053709
 30
0.0
 11
8.612361895542335
 21
1706.58129053709
 31
0.0
  0
LINE
  5
2BC
330
1F
100
AcDbEntity
  8
0-2_扉
  6
Continuous
 62
    40
370
    15
100
AcDbLine
 10
4.6123618955437
 20
1706.58129053709
 30
0.0
 11
-389.3876381044561
 21
1706.58129053709
 31
0.0
  0
LINE
  5
2BD
330
1F
100
AcDbEntity
  8
0-B_寸法
  6
Continuous
 62
   120
370
     5
100
AcDbLine
 10
-541.3876381044577
 20
2052.581290537092
 30
0.0
 11
-541.3876381044577
 21
1707.581290537091
 31
0.0
  0
LWPOLYLINE
  5
2BE
330
1F
100
AcDbEntity
  8
0-B_寸法
  6
Continuous
 62
     7
370
     9
100
AcDbPolyline
 90
        4
 70
     1
 43
2.0
 10
-540.3876381044577
 20
2052.581290537091
 42
0.4142135623731
 10
-541.3876381044577
 20
2053.581290537091
 42
0.4142135623731
 10
-542.3876381044577
 20
2052.581290537091
 42
0.4142135623731
 10
-541.3876381044577
 20
2051.581290537091
 42
0.4142135623731
  0
LWPOLYLINE
  5
2BF
330
1F
100
AcDbEntity
  8
0-B_寸法
  6
Continuous
 62
     7
370
     9
100
AcDbPolyline
 90
        4
 70
     1
 43
2.0
 10
-540.3876381044577
 20
1707.581290537091
 42
0.4142135623731
 10
-541.3876381044577
 20
1708.581290537091
 42
0.4142135623731
 10
-542.3876381044577
 20
1707.581290537091
 42
0.4142135623731
 10
-541.3876381044577
 20
1706.581290537091
 42
0.4142135623731
  0
LINE
  5
2C0
330
1F
100
AcDbEntity
  8
0-B_寸法
  6
Continuous
 62
   120
370
     5
100
AcDbLine
 10
-641.3876381044577
 20
2052.581290537091
 30
0.0
 11
-441.3876381044577
 21
2052.581290537091
 31
0.0
  0
LINE
  5
2C1
330
1F
100
AcDbEntity
  8
0-B_寸法
  6
Continuous
 62
   120
370
     5
100
AcDbLine
 10
-541.3876381044577
 20
1707.581290537091
 30
0.0
 11
-441.3876381044577
 21
1707.581290537091
 31
0.0
  0
MTEXT
  5
2C2
330
1F
100
AcDbEntity
  8
0-B_寸法
  6
Continuous
 62
     7
370
   211
100
AcDbMText
 10
-551.3876381044577
 20
1827.941290537092
 30
0.0
 40
45.72
 41
90.0
 46
0.0
 71
     7
 72
     1
  1
{\fＭＳ ゴシック|b0|i0|c128|p49;345}
 11
6.123031769111886E-17
 21
1.0
 31
0.0
 73
     1
 44
1.0
  0
LINE
  5
2C3
330
1F
100
AcDbEntity
  8
0-B_寸法
  6
Continuous
 62
   120
370
     5
100
AcDbLine
 10
-541.3876381044577
 20
1707.581290537091
 30
0.0
 11
-541.3876381044577
 21
1706.58129053709
 31
0.0
  0
LWPOLYLINE
  5
2C4
330
1F
100
AcDbEntity
  8
0-B_寸法
  6
Continuous
 62
     7
370
     9
100
AcDbPolyline
 90
        4
 70
     1
 43
2.0
 10
-540.3876381044577
 20
1706.58129053709
 42
0.4142135623731
 10
-541.3876381044577
 20
1707.58129053709
 42
0.4142135623731
 10
-542.3876381044577
 20
1706.58129053709
 42
0.4142135623731
 10
-541.3876381044577
 20
1705.581290537091
 42
0.4142135623731
  0
LINE
  5
2C5
330
1F
100
AcDbEntity
  8
0-B_寸法
  6
Continuous
 62
   120
370
     5
100
AcDbLine
 10
-541.3876381044577
 20
1706.58129053709
 30
0.0
 11
-441.3876381044577
 21
1706.58129053709
 31
0.0
  0
MTEXT
  5
2C6
330
1F
100
AcDbEntity
  8
0-B_寸法
  6
Continuous
 62
     7
370
   211
100
AcDbMText
 10
-551.3876381044577
 20
1684.94129053709
 30
0.0
 40
45.72
 41
30.0
 46
0.0
 71
     7
 72
     1
  1
{\fＭＳ ゴシック|b0|i0|c128|p49;1}
 11
6.123031769111886E-17
 21
1.0
 31
0.0
 73
     1
 44
1.0
  0
LWPOLYLINE
  5
2C7
330
1F
100
AcDbEntity
  8
0-B_寸法
  6
Continuous
 62
     7
370
     9
100
AcDbPolyline
 90
        4
 70
     1
 43
2.0
 10
-640.3876381044577
 20
2052.581290537091
 42
0.4142135623731
 10
-641.3876381044577
 20
2053.581290537091
 42
0.4142135623731
 10
-642.3876381044577
 20
2052.581290537091
 42
0.4142135623731
 10
-641.3876381044577
 20
2051.581290537091
 42
0.4142135623731
  0
MTEXT
  5
2C8
330
1F
100
AcDbEntity
  8
0-B_寸法
  6
Continuous
 62
     7
370
   211
100
AcDbMText
 10
1932.23240901081
 20
-523.4326091374517
 30
0.0
 40
45.72
 41
60.0
 46
0.0
 71
     7
 72
     1
  1
{\fＭＳ ゴシック|b0|i0|c128|p49;37}
 73
     1
 44
1.0
  0
MTEXT
  5
2C9
330
1F
100
AcDbEntity
  8
0-B_寸法
  6
Continuous
 62
     7
370
   211
100
AcDbMText
 10
2011.765463439518
 20
-523.4326091374517
 30
0.0
 40
45.72
 41
60.0
 46
0.0
 71
     7
 72
     1
  1
{\fＭＳ ゴシック|b0|i0|c128|p49;30}
 73
     1
 44
1.0
  0
MTEXT
  5
2CA
330
1F
100
AcDbEntity
  8
0-B_寸法
  6
Continuous
 62
     7
370
   211
100
AcDbMText
 10
2096.176691004971
 20
-523.4326091374517
 30
0.0
 40
45.72
 41
90.0
 46
0.0
 71
     7
 72
     1
  1
{\fＭＳ ゴシック|b0|i0|c128|p49;256}
 73
     1
 44
1.0
  0
LINE
  5
2CB
330
1F
100
AcDbEntity
  8
0-1_本体
  6
Continuous
 62
    40
370
    15
100
AcDbLine
 10
2268.612361590074
 20
-1461.292609137452
 30
0.0
 11
2271.612361590076
 21
-1461.292609137452
 31
0.0
  0
LINE
  5
2CC
330
1F
100
AcDbEntity
  8
0-1_本体
  6
Continuous
 62
    40
370
    15
100
AcDbLine
 10
1926.612361590076
 20
-1454.292609137453
 30
0.0
 11
1926.612361590076
 21
-1469.292609137453
 31
0.0
  0
CIRCLE
  5
2CD
330
1F
100
AcDbEntity
  8
0-5_ダボ
  6
Continuous
 62
     7
370
     9
100
AcDbCircle
 10
1963.612361590074
 20
-1333.292609137452
 30
0.0
 40
2.5
  0
CIRCLE
  5
2CE
330
1F
100
AcDbEntity
  8
0-5_ダボ
  6
Continuous
 62
     7
370
     9
100
AcDbCircle
 10
1963.612361590074
 20
-1365.292609137453
 30
0.0
 40
2.5
  0
LINE
  5
2CF
330
1F
100
AcDbEntity
  8
0-1_本体
  6
Continuous
 62
    40
370
    15
100
AcDbLine
 10
1926.612361590076
 20
-1454.292609137453
 30
0.0
 11
2268.612361590074
 21
-1454.292609137453
 31
0.0
  0
LINE
  5
2D0
330
1F
100
AcDbEntity
  8
0-1_本体
  6
Continuous
 62
    40
370
    15
100
AcDbLine
 10
2271.612361590076
 20
-1469.292609137453
 30
0.0
 11
1926.612361590076
 21
-1469.292609137453
 31
0.0
  0
LINE
  5
2D1
330
1F
100
AcDbEntity
  8
0-B_寸法
  6
Continuous
 62
   120
370
     5
100
AcDbLine
 10
1654.612361683151
 20
-1469.292609137453
 30
0.0
 11
1754.612361683151
 21
-1469.292609137453
 31
0.0
  0
LWPOLYLINE
  5
2D2
330
1F
100
AcDbEntity
  8
0-B_寸法
  6
Continuous
 62
     7
370
     9
100
AcDbPolyline
 90
        4
 70
     1
 43
2.0
 10
1655.612361683151
 20
-1469.292609137453
 42
0.4142135623731
 10
1654.612361683151
 20
-1468.292609137453
 42
0.4142135623731
 10
1653.612361683151
 20
-1469.292609137453
 42
0.4142135623731
 10
1654.612361683151
 20
-1470.292609137453
 42
0.4142135623731
  0
MTEXT
  5
2D3
330
1F
100
AcDbEntity
  8
0-B_寸法
  6
Continuous
 62
     7
370
   211
100
AcDbMText
 10
2208.1499005398
 20
-523.4326091374517
 30
0.0
 40
45.72
 41
60.0
 46
0.0
 71
     7
 72
     1
  1
{\fＭＳ ゴシック|b0|i0|c128|p49;22}
 73
     1
 44
1.0
  0
LINE
  5
2D4
330
1F
100
AcDbEntity
  8
0-B_寸法
  6
Continuous
 62
   120
370
     5
100
AcDbLine
 10
1754.612361683151
 20
-1469.292609137453
 30
0.0
 11
1854.612361590073
 21
-1469.292609137453
 31
0.0
  0
LWPOLYLINE
  5
2D5
330
1F
100
AcDbEntity
  8
0-B_寸法
  6
Continuous
 62
     7
370
     9
100
AcDbPolyline
 90
        4
 70
     1
 43
2.0
 10
1755.612361683151
 20
-1469.292609137453
 42
0.4142135623731
 10
1754.612361683151
 20
-1468.292609137453
 42
0.4142135623731
 10
1753.612361683151
 20
-1469.292609137453
 42
0.4142135623731
 10
1754.612361683151
 20
-1470.292609137453
 42
0.4142135623731
  0
LINE
  5
2D6
330
1F
100
AcDbEntity
  8
0-B_寸法
  6
Continuous
 62
   120
370
     5
100
AcDbLine
 10
1754.612361683151
 20
-1349.292609137452
 30
0.0
 11
1754.612361683151
 21
-1469.292609137453
 31
0.0
  0
LINE
  5
2D7
330
1F
100
AcDbEntity
  8
0-B_寸法
  6
Continuous
 62
   120
370
     5
100
AcDbLine
 10
1754.612361683151
 20
-1349.292609137452
 30
0.0
 11
1854.612361590073
 21
-1349.292609137452
 31
0.0
  0
LWPOLYLINE
  5
2D8
330
1F
100
AcDbEntity
  8
0-B_寸法
  6
Continuous
 62
     7
370
     9
100
AcDbPolyline
 90
        4
 70
     1
 43
2.0
 10
1755.612361683151
 20
-1349.292609137452
 42
0.4142135623731
 10
1754.612361683151
 20
-1348.292609137452
 42
0.4142135623731
 10
1753.612361683151
 20
-1349.292609137452
 42
0.4142135623731
 10
1754.612361683151
 20
-1350.292609137452
 42
0.4142135623731
  0
LINE
  5
2D9
330
1F
100
AcDbEntity
  8
0-B_寸法
  6
Continuous
 62
   120
370
     5
100
AcDbLine
 10
1554.612361683151
 20
-1466.292627695439
 30
0.0
 11
1654.612361683151
 21
-1466.292627695439
 31
0.0
  0
LWPOLYLINE
  5
2DA
330
1F
100
AcDbEntity
  8
0-B_寸法
  6
Continuous
 62
     7
370
     9
100
AcDbPolyline
 90
        4
 70
     1
 43
2.0
 10
1555.612361683151
 20
-1466.292627695439
 42
0.4142135623731
 10
1554.612361683151
 20
-1465.292627695439
 42
0.4142135623731
 10
1553.612361683151
 20
-1466.292627695439
 42
0.4142135623731
 10
1554.612361683151
 20
-1467.292627695439
 42
0.4142135623731
  0
LINE
  5
2DB
330
1F
100
AcDbEntity
  8
0-B_寸法
  6
Continuous
 62
   120
370
     5
100
AcDbLine
 10
1554.612361683151
 20
-1469.292627695439
 30
0.0
 11
1554.612361683151
 21
-1466.292627695439
 31
0.0
  0
MTEXT
  5
2DC
330
1F
100
AcDbEntity
  8
0-B_寸法
  6
Continuous
 62
     7
370
   211
100
AcDbMText
 10
1544.612361683151
 20
-748.6835521162299
 30
0.0
 40
45.72
 41
30.0
 46
0.0
 71
     7
 72
     1
  1
{\fＭＳ ゴシック|b0|i0|c128|p49;3}
 11
6.123031769111886E-17
 21
1.0
 31
0.0
 73
     1
 44
1.0
  0
LINE
  5
2DD
330
1F
100
AcDbEntity
  8
0-B_寸法
  6
Continuous
 62
   120
370
     5
100
AcDbLine
 10
1554.612361683151
 20
-1469.292627695439
 30
0.0
 11
1654.612361683151
 21
-1469.292627695439
 31
0.0
  0
LWPOLYLINE
  5
2DE
330
1F
100
AcDbEntity
  8
0-B_寸法
  6
Continuous
 62
     7
370
     9
100
AcDbPolyline
 90
        4
 70
     1
 43
2.0
 10
1555.612361683151
 20
-1469.292627695439
 42
0.4142135623731
 10
1554.612361683151
 20
-1468.292627695439
 42
0.4142135623731
 10
1553.612361683151
 20
-1469.292627695439
 42
0.4142135623731
 10
1554.612361683151
 20
-1470.292627695439
 42
0.4142135623731
  0
LINE
  5
2DF
330
1F
100
AcDbEntity
  8
0-B_寸法
  6
Continuous
 62
   120
370
     5
100
AcDbLine
 10
1454.612361683151
 20
-1469.292609137453
 30
0.0
 11
1554.612361683151
 21
-1469.292609137453
 31
0.0
  0
LWPOLYLINE
  5
2E0
330
1F
100
AcDbEntity
  8
0-B_寸法
  6
Continuous
 62
     7
370
     9
100
AcDbPolyline
 90
        4
 70
     1
 43
2.0
 10
1455.612361683151
 20
-1469.292609137453
 42
0.4142135623731
 10
1454.612361683151
 20
-1468.292609137453
 42
0.4142135623731
 10
1453.612361683151
 20
-1469.292609137453
 42
0.4142135623731
 10
1454.612361683151
 20
-1470.292609137453
 42
0.4142135623731
  0
LINE
  5
2E1
330
1F
100
AcDbEntity
  8
0-B_寸法
  6
Continuous
 62
   120
370
     5
100
AcDbLine
 10
1554.612361683151
 20
-1469.292609137453
 30
0.0
 11
1654.612361683151
 21
-1469.292609137453
 31
0.0
  0
CIRCLE
  5
2E2
330
1F
100
AcDbEntity
  8
0-5_ダボ
  6
Continuous
 62
     7
370
     9
100
AcDbCircle
 10
2249.612361590073
 20
-864.8142180597081
 30
0.0
 40
2.5
  0
CIRCLE
  5
2E3
330
1F
100
AcDbEntity
  8
0-5_ダボ
  6
Continuous
 62
     7
370
     9
100
AcDbCircle
 10
2249.612361590073
 20
-896.8142180597084
 30
0.0
 40
2.5
  0
CIRCLE
  5
2E4
330
1F
100
AcDbEntity
  8
0-5_ダボ
  6
Continuous
 62
     7
370
     9
100
AcDbCircle
 10
2249.612361590073
 20
-928.8142180597088
 30
0.0
 40
2.5
  0
CIRCLE
  5
2E5
330
1F
100
AcDbEntity
  8
0-5_ダボ
  6
Continuous
 62
     7
370
     9
100
AcDbCircle
 10
2249.612361590073
 20
-960.8142180597092
 30
0.0
 40
2.5
  0
CIRCLE
  5
2E6
330
1F
100
AcDbEntity
  8
0-5_ダボ
  6
Continuous
 62
     7
370
     9
100
AcDbCircle
 10
2249.612361590073
 20
-992.8142180597085
 30
0.0
 40
2.5
  0
CIRCLE
  5
2E7
330
1F
100
AcDbEntity
  8
0-5_ダボ
  6
Continuous
 62
     7
370
     9
100
AcDbCircle
 10
2249.612361590073
 20
-1024.814218059709
 30
0.0
 40
2.5
  0
CIRCLE
  5
2E8
330
1F
100
AcDbEntity
  8
0-5_ダボ
  6
Continuous
 62
     7
370
     9
100
AcDbCircle
 10
2249.612361590073
 20
-1056.814218059708
 30
0.0
 40
2.5
  0
CIRCLE
  5
2E9
330
1F
100
AcDbEntity
  8
0-5_ダボ
  6
Continuous
 62
     7
370
     9
100
AcDbCircle
 10
2249.612361590073
 20
-1088.814218059709
 30
0.0
 40
2.5
  0
CIRCLE
  5
2EA
330
1F
100
AcDbEntity
  8
0-5_ダボ
  6
Continuous
 62
     7
370
     9
100
AcDbCircle
 10
2249.612361590073
 20
-1120.814218059709
 30
0.0
 40
2.5
  0
CIRCLE
  5
2EB
330
1F
100
AcDbEntity
  8
0-5_ダボ
  6
Continuous
 62
     7
370
     9
100
AcDbCircle
 10
2249.612361590073
 20
-1152.814218059709
 30
0.0
 40
2.5
  0
CIRCLE
  5
2EC
330
1F
100
AcDbEntity
  8
0-5_ダボ
  6
Continuous
 62
     7
370
     9
100
AcDbCircle
 10
2249.612361590073
 20
-1184.81421805971
 30
0.0
 40
2.5
  0
CIRCLE
  5
2ED
330
1F
100
AcDbEntity
  8
0-5_ダボ
  6
Continuous
 62
     7
370
     9
100
AcDbCircle
 10
2249.612361590073
 20
-1216.814218059708
 30
0.0
 40
2.5
  0
CIRCLE
  5
2EE
330
1F
100
AcDbEntity
  8
0-5_ダボ
  6
Continuous
 62
     7
370
     9
100
AcDbCircle
 10
2249.612361590073
 20
-1248.814218059709
 30
0.0
 40
2.5
  0
CIRCLE
  5
2EF
330
1F
100
AcDbEntity
  8
0-5_ダボ
  6
Continuous
 62
     7
370
     9
100
AcDbCircle
 10
2249.612361590073
 20
-1280.814218059709
 30
0.0
 40
2.5
  0
CIRCLE
  5
2F0
330
1F
100
AcDbEntity
  8
0-5_ダボ
  6
Continuous
 62
     7
370
     9
100
AcDbCircle
 10
2249.612361590073
 20
-1312.814218059709
 30
0.0
 40
2.5
  0
LINE
  5
2F1
330
1F
100
AcDbEntity
  8
0-4_棚
  6
Continuous
 62
    40
370
    15
100
AcDbLine
 10
2268.612361590074
 20
-850.3142180597076
 30
0.0
 11
2268.612361590074
 21
-862.3142180597081
 31
0.0
  0
LINE
  5
2F2
330
1F
100
AcDbEntity
  8
0-4_棚
  6
Continuous
 62
    40
370
    15
100
AcDbLine
 10
1978.612361590074
 20
-850.3142180597076
 30
0.0
 11
1978.612361590074
 21
-862.3142180597081
 31
0.0
  0
LINE
  5
2F3
330
1F
100
AcDbEntity
  8
0-4_棚
  6
Continuous
 62
    40
370
    15
100
AcDbLine
 10
1978.612361590074
 20
-862.3142180597081
 30
0.0
 11
2268.612361590074
 21
-862.3142180597081
 31
0.0
  0
LINE
  5
2F4
330
1F
100
AcDbEntity
  8
0-4_棚
  6
Continuous
 62
    40
370
    15
100
AcDbLine
 10
1978.612361590074
 20
-850.3142180597076
 30
0.0
 11
2268.612361590074
 21
-850.3142180597076
 31
0.0
  0
LINE
  5
2F5
330
1F
100
AcDbEntity
  8
0-4_棚
  6
Continuous
 62
    40
370
    15
100
AcDbLine
 10
2268.612361590074
 20
-1042.314218059709
 30
0.0
 11
2268.612361590074
 21
-1054.314218059708
 31
0.0
  0
LINE
  5
2F6
330
1F
100
AcDbEntity
  8
0-4_棚
  6
Continuous
 62
    40
370
    15
100
AcDbLine
 10
1978.612361590074
 20
-1042.314218059709
 30
0.0
 11
1978.612361590074
 21
-1054.314218059708
 31
0.0
  0
LINE
  5
2F7
330
1F
100
AcDbEntity
  8
0-4_棚
  6
Continuous
 62
    40
370
    15
100
AcDbLine
 10
1978.612361590074
 20
-1054.314218059708
 30
0.0
 11
2268.612361590074
 21
-1054.314218059708
 31
0.0
  0
LINE
  5
2F8
330
1F
100
AcDbEntity
  8
0-4_棚
  6
Continuous
 62
    40
370
    15
100
AcDbLine
 10
1978.612361590074
 20
-1042.314218059709
 30
0.0
 11
2268.612361590074
 21
-1042.314218059709
 31
0.0
  0
LINE
  5
2F9
330
1F
100
AcDbEntity
  8
0-4_棚
  6
Continuous
 62
    40
370
    15
100
AcDbLine
 10
1978.612361590074
 20
-1234.315117103268
 30
0.0
 11
1978.612361590074
 21
-1246.315117103268
 31
0.0
  0
LINE
  5
2FA
330
1F
100
AcDbEntity
  8
0-4_棚
  6
Continuous
 62
    40
370
    15
100
AcDbLine
 10
1978.612361590074
 20
-1234.315117103268
 30
0.0
 11
2268.612361590074
 21
-1234.315117103268
 31
0.0
  0
LINE
  5
2FB
330
1F
100
AcDbEntity
  8
0-4_棚
  6
Continuous
 62
    40
370
    15
100
AcDbLine
 10
1978.612361590074
 20
-1246.315117103268
 30
0.0
 11
2268.612361590074
 21
-1246.315117103268
 31
0.0
  0
LINE
  5
2FC
330
1F
100
AcDbEntity
  8
0-4_棚
  6
Continuous
 62
    40
370
    15
100
AcDbLine
 10
2268.612361590074
 20
-1234.315117103268
 30
0.0
 11
2268.612361590074
 21
-1246.315117103268
 31
0.0
  0
LINE
  5
2FD
330
1F
100
AcDbEntity
  8
0-0_補助線
  6
JWW_HOJO
 62
     7
370
     9
100
AcDbLine
 10
1914.326646671791
 20
-1056.792609137452
 30
0.0
 11
2271.612361563482
 21
-1056.792609137452
 31
0.0
  0
LINE
  5
2FE
330
1F
100
AcDbEntity
  8
0-0_補助線
  6
JWW_HOJO
 62
     7
370
     9
100
AcDbLine
 10
1912.040932483749
 20
-1024.792609137452
 30
0.0
 11
2271.612361560156
 21
-1024.792609137452
 31
0.0
  0
LINE
  5
2FF
330
1F
100
AcDbEntity
  8
0-0_補助線
  6
JWW_HOJO
 62
     7
370
     9
100
AcDbLine
 10
1924.326645988092
 20
-1280.792609137452
 30
0.0
 11
2271.61236158675
 21
-1280.792609137452
 31
0.0
  0
LINE
  5
300
330
1F
100
AcDbEntity
  8
0-0_補助線
  6
JWW_HOJO
 62
     7
370
     9
100
AcDbLine
 10
1922.04093180005
 20
-1248.792609137452
 30
0.0
 11
2271.612361583428
 21
-1248.792609137452
 31
0.0
  0
LINE
  5
301
330
1F
100
AcDbEntity
  8
0-0_補助線
  6
JWW_HOJO
 62
     7
370
     9
100
AcDbLine
 10
1919.755217612008
 20
-1216.792609137453
 30
0.0
 11
2271.612361580101
 21
-1216.792609137453
 31
0.0
  0
LINE
  5
302
330
1F
100
AcDbEntity
  8
0-0_補助線
  6
JWW_HOJO
 62
     7
370
     9
100
AcDbLine
 10
1917.469503423963
 20
-1184.792609137452
 30
0.0
 11
2271.612361576779
 21
-1184.792609137452
 31
0.0
  0
LINE
  5
303
330
1F
100
AcDbEntity
  8
0-0_補助線
  6
JWW_HOJO
 62
     7
370
     9
100
AcDbLine
 10
1915.18378923592
 20
-1152.792609137452
 30
0.0
 11
2271.612361573453
 21
-1152.792609137452
 31
0.0
  0
LINE
  5
304
330
1F
100
AcDbEntity
  8
0-0_補助線
  6
JWW_HOJO
 62
     7
370
     9
100
AcDbLine
 10
1912.898075047878
 20
-1120.792609137452
 30
0.0
 11
2271.612361570131
 21
-1120.792609137452
 31
0.0
  0
LINE
  5
305
330
1F
100
AcDbEntity
  8
0-0_補助線
  6
JWW_HOJO
 62
     7
370
     9
100
AcDbLine
 10
1910.612360859835
 20
-1088.792609137452
 30
0.0
 11
2271.612361566804
 21
-1088.792609137452
 31
0.0
  0
MTEXT
  5
306
330
1F
100
AcDbEntity
  8
0-B_寸法
  6
Continuous
 62
     7
370
   211
100
AcDbMText
 10
1744.612361683151
 20
-820.4326091374519
 30
0.0
 40
45.72
 41
90.0
 46
0.0
 71
     7
 72
     1
  1
{\fＭＳ ゴシック|b0|i0|c128|p49;120}
 11
6.123031769111886E-17
 21
1.0
 31
0.0
 73
     1
 44
1.0
  0
LINE
  5
307
330
1F
100
AcDbEntity
  8
0-B_寸法
  6
Continuous
 62
   120
370
     5
100
AcDbLine
 10
1654.612361683151
 20
-864.7926091374522
 30
0.0
 11
1754.612361683151
 21
-864.7926091374522
 31
0.0
  0
LWPOLYLINE
  5
308
330
1F
100
AcDbEntity
  8
0-B_寸法
  6
Continuous
 62
     7
370
     9
100
AcDbPolyline
 90
        4
 70
     1
 43
2.0
 10
1655.612361683151
 20
-864.7926091374522
 42
0.4142135623731
 10
1654.612361683151
 20
-863.7926091374522
 42
0.4142135623731
 10
1653.612361683151
 20
-864.7926091374522
 42
0.4142135623731
 10
1654.612361683151
 20
-865.7926091374521
 42
0.4142135623731
  0
LINE
  5
309
330
1F
100
AcDbEntity
  8
0-B_寸法
  6
Continuous
 62
   120
370
     5
100
AcDbLine
 10
1654.612361683151
 20
-1312.792609137453
 30
0.0
 11
1654.612361683151
 21
-864.7926091374522
 31
0.0
  0
LINE
  5
30A
330
1F
100
AcDbEntity
  8
0-B_寸法
  6
Continuous
 62
   120
370
     5
100
AcDbLine
 10
1654.612361683151
 20
-1312.792609137453
 30
0.0
 11
1754.612361683151
 21
-1312.792609137453
 31
0.0
  0
LWPOLYLINE
  5
30B
330
1F
100
AcDbEntity
  8
0-B_寸法
  6
Continuous
 62
     7
370
     9
100
AcDbPolyline
 90
        4
 70
     1
 43
2.0
 10
1655.612361683151
 20
-1312.792609137453
 42
0.4142135623731
 10
1654.612361683151
 20
-1311.792609137453
 42
0.4142135623731
 10
1653.612361683151
 20
-1312.792609137453
 42
0.4142135623731
 10
1654.612361683151
 20
-1313.792609137453
 42
0.4142135623731
  0
LINE
  5
30C
330
1F
100
AcDbEntity
  8
0-B_寸法
  6
Continuous
 62
   120
370
     5
100
AcDbLine
 10
1654.612361683151
 20
-1469.292609137453
 30
0.0
 11
1654.612361683151
 21
-1312.792609137453
 31
0.0
  0
LINE
  5
30D
330
1F
100
AcDbEntity
  8
0-0_補助線
  6
JWW_HOJO
 62
     7
370
     9
100
AcDbLine
 10
1764.859803133705
 20
-864.7926091374522
 30
0.0
 11
2271.612361543537
 21
-864.7926091374522
 31
0.0
  0
LINE
  5
30E
330
1F
100
AcDbEntity
  8
0-0_補助線
  6
JWW_HOJO
 62
     7
370
     9
100
AcDbLine
 10
2271.612361590076
 20
-1312.792628932638
 30
0.0
 11
1682.547280523589
 21
-1312.792628932638
 31
0.0
  0
CIRCLE
  5
30F
330
1F
100
AcDbEntity
  8
0-5_ダボ
  6
Continuous
 62
     7
370
     9
100
AcDbCircle
 10
1963.612361590074
 20
-812.2926091374513
 30
0.0
 40
2.5
  0
CIRCLE
  5
310
330
1F
100
AcDbEntity
  8
0-5_ダボ
  6
Continuous
 62
     7
370
     9
100
AcDbCircle
 10
1963.612361590074
 20
-844.2926091374524
 30
0.0
 40
2.5
  0
LINE
  5
311
330
1F
100
AcDbEntity
  8
0-0_補助線
  6
JWW_HOJO
 62
     7
370
     9
100
AcDbLine
 10
2249.612361590073
 20
-1461.292609137452
 30
0.0
 11
2249.612361590073
 21
-708.2926091374519
 31
0.0
  0
LINE
  5
312
330
1F
100
AcDbEntity
  8
0-B_寸法
  6
Continuous
 62
   120
370
     5
100
AcDbLine
 10
1654.612361683151
 20
-708.2926091374519
 30
0.0
 11
1754.612361683151
 21
-708.2926091374519
 31
0.0
  0
LWPOLYLINE
  5
313
330
1F
100
AcDbEntity
  8
0-B_寸法
  6
Continuous
 62
     7
370
     9
100
AcDbPolyline
 90
        4
 70
     1
 43
2.0
 10
1655.612361683151
 20
-708.2926091374519
 42
0.4142135623731
 10
1654.612361683151
 20
-707.2926091374519
 42
0.4142135623731
 10
1653.612361683151
 20
-708.2926091374519
 42
0.4142135623731
 10
1654.612361683151
 20
-709.2926091374518
 42
0.4142135623731
  0
LINE
  5
314
330
1F
100
AcDbEntity
  8
0-B_寸法
  6
Continuous
 62
   120
370
     5
100
AcDbLine
 10
1654.612361683151
 20
-864.7926091374522
 30
0.0
 11
1654.612361683151
 21
-708.2926091374519
 31
0.0
  0
LINE
  5
315
330
1F
100
AcDbEntity
  8
0-B_寸法
  6
Continuous
 62
   120
370
     5
100
AcDbLine
 10
1754.612361683151
 20
-828.2926091374525
 30
0.0
 11
1754.612361683151
 21
-1349.292609137452
 31
0.0
  0
MTEXT
  5
316
330
1F
100
AcDbEntity
  8
0-B_寸法
  6
Continuous
 62
     7
370
   211
100
AcDbMText
 10
1644.612361683151
 20
-880.4326091374519
 30
0.0
 40
45.72
 41
150.0
 46
0.0
 71
     7
 72
     1
  1
{\fＭＳ ゴシック|b0|i0|c128|p49;156.5}
 11
6.123031769111886E-17
 21
1.0
 31
0.0
 73
     1
 44
1.0
  0
LINE
  5
317
330
1F
100
AcDbEntity
  8
0-B_寸法
  6
Continuous
 62
   120
370
     5
100
AcDbLine
 10
1754.612361683151
 20
-828.2926091374525
 30
0.0
 11
1854.612361590073
 21
-828.2926091374525
 31
0.0
  0
LINE
  5
318
330
1F
100
AcDbEntity
  8
0-B_寸法
  6
Continuous
 62
   120
370
     5
100
AcDbLine
 10
1754.612361683151
 20
-708.2926091374519
 30
0.0
 11
1854.612361590073
 21
-708.2926091374519
 31
0.0
  0
LWPOLYLINE
  5
319
330
1F
100
AcDbEntity
  8
0-B_寸法
  6
Continuous
 62
     7
370
     9
100
AcDbPolyline
 90
        4
 70
     1
 43
2.0
 10
1755.612361683151
 20
-828.2926091374525
 42
0.4142135623731
 10
1754.612361683151
 20
-827.2926091374525
 42
0.4142135623731
 10
1753.612361683151
 20
-828.2926091374525
 42
0.4142135623731
 10
1754.612361683151
 20
-829.2926091374524
 42
0.4142135623731
  0
LWPOLYLINE
  5
31A
330
1F
100
AcDbEntity
  8
0-B_寸法
  6
Continuous
 62
     7
370
     9
100
AcDbPolyline
 90
        4
 70
     1
 43
2.0
 10
1755.612361683151
 20
-708.2926091374519
 42
0.4142135623731
 10
1754.612361683151
 20
-707.2926091374519
 42
0.4142135623731
 10
1753.612361683151
 20
-708.2926091374519
 42
0.4142135623731
 10
1754.612361683151
 20
-709.2926091374518
 42
0.4142135623731
  0
LINE
  5
31B
330
1F
100
AcDbEntity
  8
0-B_寸法
  6
Continuous
 62
   120
370
     5
100
AcDbLine
 10
1754.612361683151
 20
-708.2926091374519
 30
0.0
 11
1754.612361683151
 21
-828.2926091374525
 31
0.0
  0
LINE
  5
31C
330
1F
100
AcDbEntity
  8
0-B_寸法
  6
Continuous
 62
   120
370
     5
100
AcDbLine
 10
1554.612361683151
 20
-1466.292627695439
 30
0.0
 11
1554.612361683151
 21
-711.2925893422664
 31
0.0
  0
LINE
  5
31D
330
1F
100
AcDbEntity
  8
0-B_寸法
  6
Continuous
 62
   120
370
     5
100
AcDbLine
 10
1554.612361683151
 20
-711.2925893422664
 30
0.0
 11
1554.612361683151
 21
-708.2925893422663
 31
0.0
  0
LINE
  5
31E
330
1F
100
AcDbEntity
  8
0-B_寸法
  6
Continuous
 62
   120
370
     5
100
AcDbLine
 10
1554.612361683151
 20
-711.2925893422664
 30
0.0
 11
1654.612361683151
 21
-711.2925893422664
 31
0.0
  0
LWPOLYLINE
  5
31F
330
1F
100
AcDbEntity
  8
0-B_寸法
  6
Continuous
 62
     7
370
     9
100
AcDbPolyline
 90
        4
 70
     1
 43
2.0
 10
1555.612361683151
 20
-711.2925893422664
 42
0.4142135623731
 10
1554.612361683151
 20
-710.2925893422664
 42
0.4142135623731
 10
1553.612361683151
 20
-711.2925893422664
 42
0.4142135623731
 10
1554.612361683151
 20
-712.2925893422664
 42
0.4142135623731
  0
MTEXT
  5
320
330
1F
100
AcDbEntity
  8
0-B_寸法
  6
Continuous
 62
     7
370
   211
100
AcDbMText
 10
2077.864494390997
 20
-982.7855514240683
 30
0.0
 40
45.72
 41
90.0
 46
0.0
 71
     7
 72
     1
  1
{\fＭＳ ゴシック|b0|i0|c128|p49;P32}
 73
     1
 44
1.0
  0
LINE
  5
321
330
1F
100
AcDbEntity
  8
0-B_寸法
  6
Continuous
 62
   120
370
     5
100
AcDbLine
 10
1554.612361683151
 20
-708.2925893422663
 30
0.0
 11
1654.612361683151
 21
-708.2925893422663
 31
0.0
  0
LWPOLYLINE
  5
322
330
1F
100
AcDbEntity
  8
0-B_寸法
  6
Continuous
 62
     7
370
     9
100
AcDbPolyline
 90
        4
 70
     1
 43
2.0
 10
1555.612361683151
 20
-708.2925893422663
 42
0.4142135623731
 10
1554.612361683151
 20
-707.2925893422664
 42
0.4142135623731
 10
1553.612361683151
 20
-708.2925893422663
 42
0.4142135623731
 10
1554.612361683151
 20
-709.2925893422662
 42
0.4142135623731
  0
LINE
  5
323
330
1F
100
AcDbEntity
  8
0-B_寸法
  6
Continuous
 62
   120
370
     5
100
AcDbLine
 10
1454.612361683151
 20
-1469.292609137453
 30
0.0
 11
1454.612361683151
 21
-708.2925893422663
 31
0.0
  0
LINE
  5
324
330
1F
100
AcDbEntity
  8
0-B_寸法
  6
Continuous
 62
   120
370
     5
100
AcDbLine
 10
1454.612361683151
 20
-708.2925893422663
 30
0.0
 11
1554.612361683151
 21
-708.2925893422663
 31
0.0
  0
LWPOLYLINE
  5
325
330
1F
100
AcDbEntity
  8
0-B_寸法
  6
Continuous
 62
     7
370
     9
100
AcDbPolyline
 90
        4
 70
     1
 43
2.0
 10
1455.612361683151
 20
-708.2925893422663
 42
0.4142135623731
 10
1454.612361683151
 20
-707.2925893422664
 42
0.4142135623731
 10
1453.612361683151
 20
-708.2925893422663
 42
0.4142135623731
 10
1454.612361683151
 20
-709.2925893422662
 42
0.4142135623731
  0
LINE
  5
326
330
1F
100
AcDbEntity
  8
0-B_寸法
  6
Continuous
 62
   120
370
     5
100
AcDbLine
 10
1554.612361683151
 20
-708.2926091374519
 30
0.0
 11
1654.612361683151
 21
-708.2926091374519
 31
0.0
  0
MTEXT
  5
327
330
1F
100
AcDbEntity
  8
0-B_寸法
  6
Continuous
 62
     7
370
   211
100
AcDbMText
 10
1644.612361683151
 20
-1140.932609137452
 30
0.0
 40
45.72
 41
90.0
 46
0.0
 71
     7
 72
     1
  1
{\fＭＳ ゴシック|b0|i0|c128|p49;448}
 11
6.123031769111886E-17
 21
1.0
 31
0.0
 73
     1
 44
1.0
  0
MTEXT
  5
328
330
1F
100
AcDbEntity
  8
0-B_寸法
  6
Continuous
 62
     7
370
   211
100
AcDbMText
 10
1444.612361683151
 20
-1140.932619035045
 30
0.0
 40
45.72
 41
90.0
 46
0.0
 71
     7
 72
     1
  1
{\fＭＳ ゴシック|b0|i0|c128|p49;761}
 11
6.123031769111886E-17
 21
1.0
 31
0.0
 73
     1
 44
1.0
  0
MTEXT
  5
329
330
1F
100
AcDbEntity
  8
0-B_寸法
  6
Continuous
 62
     7
370
   211
100
AcDbMText
 10
1744.612361683151
 20
-1140.932628932638
 30
0.0
 40
45.72
 41
90.0
 46
0.0
 71
     7
 72
     1
  1
{\fＭＳ ゴシック|b0|i0|c128|p49;521}
 11
6.123031769111886E-17
 21
1.0
 31
0.0
 73
     1
 44
1.0
  0
MTEXT
  5
32A
330
1F
100
AcDbEntity
  8
0-B_寸法
  6
Continuous
 62
     7
370
   211
100
AcDbMText
 10
1544.612361683151
 20
-1230.932530958251
 30
0.0
 40
45.71999999999999
 41
270.0
 46
0.0
 71
     7
 72
     1
  1
{\fＭＳ ゴシック|b0|i0|c128|p49;ＤＨ＝755}
 11
6.123031769111886E-17
 21
1.0
 31
0.0
 73
     1
 44
1.0
  0
LINE
  5
32B
330
1F
100
AcDbEntity
  8
0-6_桟木
  6
Continuous
 62
    92
370
    13
100
AcDbLine
 10
2268.612361590074
 20
-1454.292609137453
 30
0.0
 11
2268.612361590074
 21
-1390.292609137453
 31
0.0
  0
LINE
  5
32C
330
1F
100
AcDbEntity
  8
0-6_桟木
  6
Continuous
 62
    92
370
    13
100
AcDbLine
 10
2268.612361590074
 20
-1390.292609137453
 30
0.0
 11
2253.612361590074
 21
-1390.292609137453
 31
0.0
  0
LINE
  5
32D
330
1F
100
AcDbEntity
  8
0-6_桟木
  6
Continuous
 62
    92
370
    13
100
AcDbLine
 10
2253.612361590074
 20
-1390.292609137453
 30
0.0
 11
2253.612361590074
 21
-1454.292609137453
 31
0.0
  0
LINE
  5
32E
330
1F
100
AcDbEntity
  8
0-6_桟木
  6
Continuous
 62
    92
370
    13
100
AcDbLine
 10
2253.612361590074
 20
-1454.292609137453
 30
0.0
 11
2268.612361590074
 21
-1454.292609137453
 31
0.0
  0
CIRCLE
  5
32F
330
1F
100
AcDbEntity
  8
0-6_桟木
  6
Continuous
 62
     7
370
     9
100
AcDbCircle
 10
2261.112361590074
 20
-1406.292609137453
 30
0.0
 40
4.0
  0
CIRCLE
  5
330
330
1F
100
AcDbEntity
  8
0-6_桟木
  6
Continuous
 62
     7
370
     9
100
AcDbCircle
 10
2261.112361590074
 20
-1438.292609137452
 30
0.0
 40
4.0
  0
LINE
  5
331
330
1F
100
AcDbEntity
  8
0-6_桟木
  6
Continuous
 62
    92
370
    13
100
AcDbLine
 10
2268.612361590074
 20
-787.2926091374522
 30
0.0
 11
2268.612361590074
 21
-723.2926091374526
 31
0.0
  0
LINE
  5
332
330
1F
100
AcDbEntity
  8
0-6_桟木
  6
Continuous
 62
    92
370
    13
100
AcDbLine
 10
2268.612361590074
 20
-723.2926091374526
 30
0.0
 11
2253.612361590074
 21
-723.2926091374526
 31
0.0
  0
LINE
  5
333
330
1F
100
AcDbEntity
  8
0-6_桟木
  6
Continuous
 62
    92
370
    13
100
AcDbLine
 10
2253.612361590074
 20
-723.2926091374526
 30
0.0
 11
2253.612361590074
 21
-787.2926091374522
 31
0.0
  0
LINE
  5
334
330
1F
100
AcDbEntity
  8
0-6_桟木
  6
Continuous
 62
    92
370
    13
100
AcDbLine
 10
2253.612361590074
 20
-787.2926091374522
 30
0.0
 11
2268.612361590074
 21
-787.2926091374522
 31
0.0
  0
CIRCLE
  5
335
330
1F
100
AcDbEntity
  8
0-6_桟木
  6
Continuous
 62
     7
370
     9
100
AcDbCircle
 10
2261.112361590074
 20
-739.2926091374517
 30
0.0
 40
4.0
  0
CIRCLE
  5
336
330
1F
100
AcDbEntity
  8
0-6_桟木
  6
Continuous
 62
     7
370
     9
100
AcDbCircle
 10
2261.112361590074
 20
-771.2926091374522
 30
0.0
 40
4.0
  0
MTEXT
  5
337
330
1F
100
AcDbEntity
  8
0-B_寸法
  6
Continuous
 62
     7
370
   211
100
AcDbMText
 10
1644.612361683151
 20
-1461.432609137453
 30
0.0
 40
45.72
 41
150.0
 46
0.0
 71
     7
 72
     1
  1
{\fＭＳ ゴシック|b0|i0|c128|p49;156.5}
 11
6.123031769111886E-17
 21
1.0
 31
0.0
 73
     1
 44
1.0
  0
LWPOLYLINE
  5
338
330
1F
100
AcDbEntity
  8
0-B_寸法
  6
Continuous
 62
     7
370
     9
100
AcDbPolyline
 90
        4
 70
     1
 43
2.0
 10
2062.612361590073
 20
-960.7926091374502
 42
0.4142135623731
 10
2061.612361590073
 20
-959.7926091374502
 42
0.4142135623731
 10
2060.612361590073
 20
-960.7926091374502
 42
0.4142135623731
 10
2061.612361590073
 20
-961.7926091374501
 42
0.4142135623731
  0
LWPOLYLINE
  5
339
330
1F
100
AcDbEntity
  8
0-B_寸法
  6
Continuous
 62
     7
370
     9
100
AcDbPolyline
 90
        4
 70
     1
 43
2.0
 10
2062.612361590073
 20
-928.7926091374514
 42
0.4142135623731
 10
2061.612361590073
 20
-927.7926091374514
 42
0.4142135623731
 10
2060.612361590073
 20
-928.7926091374514
 42
0.4142135623731
 10
2061.612361590073
 20
-929.7926091374513
 42
0.4142135623731
  0
LINE
  5
33A
330
1F
100
AcDbEntity
  8
0-B_寸法
  6
Continuous
 62
   120
370
     5
100
AcDbLine
 10
2061.612361590073
 20
-928.7926091374514
 30
0.0
 11
2061.612361590073
 21
-960.7926091374502
 31
0.0
  0
LINE
  5
33B
330
1F
100
AcDbEntity
  8
0-B_寸法
  6
Continuous
 62
   120
370
     5
100
AcDbLine
 10
2061.612361590073
 20
-960.7926091374502
 30
0.0
 11
2011.612361590073
 21
-960.7926091374502
 31
0.0
  0
LINE
  5
33C
330
1F
100
AcDbEntity
  8
0-B_寸法
  6
Continuous
 62
   120
370
     5
100
AcDbLine
 10
2061.612361590073
 20
-928.7926091374514
 30
0.0
 11
2011.612361590073
 21
-928.7926091374514
 31
0.0
  0
CIRCLE
  5
33D
330
1F
100
AcDbEntity
  8
0-5_ダボ
  6
Continuous
 62
     7
370
     9
100
AcDbCircle
 10
1993.612361590074
 20
-864.8142180597081
 30
0.0
 40
2.5
  0
CIRCLE
  5
33E
330
1F
100
AcDbEntity
  8
0-5_ダボ
  6
Continuous
 62
     7
370
     9
100
AcDbCircle
 10
1993.612361590074
 20
-896.8142180597084
 30
0.0
 40
2.5
  0
CIRCLE
  5
33F
330
1F
100
AcDbEntity
  8
0-5_ダボ
  6
Continuous
 62
     7
370
     9
100
AcDbCircle
 10
1993.612361590074
 20
-928.8142180597088
 30
0.0
 40
2.5
  0
CIRCLE
  5
340
330
1F
100
AcDbEntity
  8
0-5_ダボ
  6
Continuous
 62
     7
370
     9
100
AcDbCircle
 10
1993.612361590074
 20
-960.8142180597092
 30
0.0
 40
2.5
  0
CIRCLE
  5
341
330
1F
100
AcDbEntity
  8
0-5_ダボ
  6
Continuous
 62
     7
370
     9
100
AcDbCircle
 10
1993.612361590074
 20
-992.8142180597085
 30
0.0
 40
2.5
  0
CIRCLE
  5
342
330
1F
100
AcDbEntity
  8
0-5_ダボ
  6
Continuous
 62
     7
370
     9
100
AcDbCircle
 10
1993.612361590074
 20
-1024.814218059709
 30
0.0
 40
2.5
  0
CIRCLE
  5
343
330
1F
100
AcDbEntity
  8
0-5_ダボ
  6
Continuous
 62
     7
370
     9
100
AcDbCircle
 10
1993.612361590074
 20
-1056.814218059708
 30
0.0
 40
2.5
  0
CIRCLE
  5
344
330
1F
100
AcDbEntity
  8
0-5_ダボ
  6
Continuous
 62
     7
370
     9
100
AcDbCircle
 10
1993.612361590074
 20
-1088.814218059709
 30
0.0
 40
2.5
  0
CIRCLE
  5
345
330
1F
100
AcDbEntity
  8
0-5_ダボ
  6
Continuous
 62
     7
370
     9
100
AcDbCircle
 10
1993.612361590074
 20
-1120.814218059709
 30
0.0
 40
2.5
  0
CIRCLE
  5
346
330
1F
100
AcDbEntity
  8
0-5_ダボ
  6
Continuous
 62
     7
370
     9
100
AcDbCircle
 10
1993.612361590074
 20
-1152.814218059709
 30
0.0
 40
2.5
  0
CIRCLE
  5
347
330
1F
100
AcDbEntity
  8
0-5_ダボ
  6
Continuous
 62
     7
370
     9
100
AcDbCircle
 10
1993.612361590074
 20
-1184.81421805971
 30
0.0
 40
2.5
  0
CIRCLE
  5
348
330
1F
100
AcDbEntity
  8
0-5_ダボ
  6
Continuous
 62
     7
370
     9
100
AcDbCircle
 10
1993.612361590074
 20
-1216.814218059708
 30
0.0
 40
2.5
  0
CIRCLE
  5
349
330
1F
100
AcDbEntity
  8
0-5_ダボ
  6
Continuous
 62
     7
370
     9
100
AcDbCircle
 10
1993.612361590074
 20
-1248.814218059709
 30
0.0
 40
2.5
  0
CIRCLE
  5
34A
330
1F
100
AcDbEntity
  8
0-5_ダボ
  6
Continuous
 62
     7
370
     9
100
AcDbCircle
 10
1993.612361590074
 20
-1280.814218059709
 30
0.0
 40
2.5
  0
CIRCLE
  5
34B
330
1F
100
AcDbEntity
  8
0-5_ダボ
  6
Continuous
 62
     7
370
     9
100
AcDbCircle
 10
1993.612361590074
 20
-1312.814218059709
 30
0.0
 40
2.5
  0
LINE
  5
34C
330
1F
100
AcDbEntity
  8
0-0_補助線
  6
JWW_HOJO
 62
     7
370
     9
100
AcDbLine
 10
1993.612361590074
 20
-710.2926091374524
 30
0.0
 11
1993.612361590074
 21
-1469.292609137453
 31
0.0
  0
LINE
  5
34D
330
1F
100
AcDbEntity
  8
0-1_本体
  6
Continuous
 62
    40
370
    15
100
AcDbLine
 10
2268.612361590074
 20
-723.2926091374526
 30
0.0
 11
1926.612361590076
 21
-723.2926091374526
 31
0.0
  0
LINE
  5
34E
330
1F
100
AcDbEntity
  8
0-1_本体
  6
Continuous
 62
    40
370
    15
100
AcDbLine
 10
1926.612361590076
 20
-723.2926091374526
 30
0.0
 11
1926.612361590076
 21
-708.2925893422663
 31
0.0
  0
MTEXT
  5
34F
330
1F
100
AcDbEntity
  8
0-B_寸法
  6
Continuous
 62
     7
370
   211
100
AcDbMText
 10
1744.612361683151
 20
-1461.432609137453
 30
0.0
 40
45.71999999999986
 41
89.99999999999972
 46
0.0
 71
     7
 72
     1
  1
{\fＭＳ ゴシック|b0|i0|c128|p49;120}
 11
6.123031769111886E-17
 21
1.0
 31
0.0
 73
     1
 44
1.0
  0
LINE
  5
350
330
1F
100
AcDbEntity
  8
0-1_本体
  6
Continuous
 62
    40
370
    15
100
AcDbLine
 10
2268.612361590074
 20
-1461.292609137452
 30
0.0
 11
2268.612361590074
 21
-716.2926091374532
 31
0.0
  0
LINE
  5
351
330
1F
100
AcDbEntity
  8
0-1_本体
  6
Continuous
 62
    40
370
    15
100
AcDbLine
 10
2270.112361590076
 20
-1461.292609137452
 30
0.0
 11
2270.112361590076
 21
-716.2926091374532
 31
0.0
  0
LINE
  5
352
330
1F
100
AcDbEntity
  8
0-1_本体
  6
Continuous
 62
    40
370
    15
100
AcDbLine
 10
2268.612361590074
 20
-716.2926091374532
 30
0.0
 11
2271.612361590076
 21
-716.2926091374532
 31
0.0
  0
LINE
  5
353
330
1F
100
AcDbEntity
  8
0-1_本体
  6
Continuous
 62
     7
370
     9
100
AcDbLine
 10
2271.612361590076
 20
-1469.292609137453
 30
0.0
 11
2271.612361590076
 21
-708.2926091374519
 31
0.0
  0
LINE
  5
354
330
1F
100
AcDbEntity
  8
0-1_本体
  6
Continuous
 62
    40
370
    15
100
AcDbLine
 10
1926.612361590076
 20
-708.2926091374526
 30
0.0
 11
2271.612361590076
 21
-708.2926091374526
 31
0.0
  0
MTEXT
  5
355
330
1F
100
AcDbEntity
  8
0-B_寸法
  6
Continuous
 62
     7
370
   211
100
AcDbMText
 10
1544.612361683151
 20
-1472.707216982937
 30
0.0
 40
45.72
 41
30.0
 46
0.0
 71
     7
 72
     1
  1
{\fＭＳ ゴシック|b0|i0|c128|p49;3}
 11
6.123031769111886E-17
 21
1.0
 31
0.0
 73
     1
 44
1.0
  0
LWPOLYLINE
  5
356
330
1F
100
AcDbEntity
  8
0-B_寸法
  6
Continuous
 62
     7
370
     9
100
AcDbPolyline
 90
        4
 70
     1
 43
2.0
 10
1994.612361590074
 20
-526.2926091374517
 42
0.4142135623731
 10
1993.612361590074
 20
-525.2926091374517
 42
0.4142135623731
 10
1992.612361590074
 20
-526.2926091374517
 42
0.4142135623731
 10
1993.612361590074
 20
-527.2926091374517
 42
0.4142135623731
  0
LINE
  5
357
330
1F
100
AcDbEntity
  8
0-B_寸法
  6
Continuous
 62
   120
370
     5
100
AcDbLine
 10
1993.612361590074
 20
-526.2926091374517
 30
0.0
 11
1993.612361590074
 21
-626.2926091374517
 31
0.0
  0
LINE
  5
358
330
1F
100
AcDbEntity
  8
0-B_寸法
  6
Continuous
 62
   120
370
     5
100
AcDbLine
 10
1993.612361590074
 20
-526.2926091374517
 30
0.0
 11
1963.612361590074
 21
-526.2926091374517
 31
0.0
  0
LINE
  5
359
330
1F
100
AcDbEntity
  8
0-B_寸法
  6
Continuous
 62
   120
370
     5
100
AcDbLine
 10
2249.612361590073
 20
-526.2926091374517
 30
0.0
 11
1993.612361590074
 21
-526.2926091374517
 31
0.0
  0
LWPOLYLINE
  5
35A
330
1F
100
AcDbEntity
  8
0-B_寸法
  6
Continuous
 62
     7
370
     9
100
AcDbPolyline
 90
        4
 70
     1
 43
2.0
 10
2272.612361543537
 20
-526.2926091374517
 42
0.4142135623731
 10
2271.612361543537
 20
-525.2926091374517
 42
0.4142135623731
 10
2270.612361543537
 20
-526.2926091374517
 42
0.4142135623731
 10
2271.612361543537
 20
-527.2926091374517
 42
0.4142135623731
  0
LINE
  5
35B
330
1F
100
AcDbEntity
  8
0-B_寸法
  6
Continuous
 62
   120
370
     5
100
AcDbLine
 10
2271.612361543537
 20
-526.2926091374517
 30
0.0
 11
2271.612361543537
 21
-626.2926091374517
 31
0.0
  0
LWPOLYLINE
  5
35C
330
1F
100
AcDbEntity
  8
0-B_寸法
  6
Continuous
 62
     7
370
     9
100
AcDbPolyline
 90
        4
 70
     1
 43
2.0
 10
1964.612361590074
 20
-526.2926091374517
 42
0.4142135623731
 10
1963.612361590074
 20
-525.2926091374517
 42
0.4142135623731
 10
1962.612361590074
 20
-526.2926091374517
 42
0.4142135623731
 10
1963.612361590074
 20
-527.2926091374517
 42
0.4142135623731
  0
LINE
  5
35D
330
1F
100
AcDbEntity
  8
0-B_寸法
  6
Continuous
 62
   120
370
     5
100
AcDbLine
 10
1963.612361590074
 20
-526.2926091374517
 30
0.0
 11
1963.612361590074
 21
-626.2926091374517
 31
0.0
  0
LINE
  5
35E
330
1F
100
AcDbEntity
  8
0-B_寸法
  6
Continuous
 62
   120
370
     5
100
AcDbLine
 10
1963.612361590074
 20
-526.2926091374517
 30
0.0
 11
1926.612361590076
 21
-526.2926091374517
 31
0.0
  0
LWPOLYLINE
  5
35F
330
1F
100
AcDbEntity
  8
0-B_寸法
  6
Continuous
 62
     7
370
     9
100
AcDbPolyline
 90
        4
 70
     1
 43
2.0
 10
1927.612361590076
 20
-526.2926091374517
 42
0.4142135623731
 10
1926.612361590076
 20
-525.2926091374517
 42
0.4142135623731
 10
1925.612361590076
 20
-526.2926091374517
 42
0.4142135623731
 10
1926.612361590076
 20
-527.2926091374517
 42
0.4142135623731
  0
LINE
  5
360
330
1F
100
AcDbEntity
  8
0-B_寸法
  6
Continuous
 62
   120
370
     5
100
AcDbLine
 10
1926.612361590076
 20
-526.2926091374517
 30
0.0
 11
1926.612361590076
 21
-626.2926091374517
 31
0.0
  0
LINE
  5
361
330
1F
100
AcDbEntity
  8
0-B_寸法
  6
Continuous
 62
   120
370
     5
100
AcDbLine
 10
2271.612361543537
 20
-526.2926091374517
 30
0.0
 11
2249.612361590073
 21
-526.2926091374517
 31
0.0
  0
LWPOLYLINE
  5
362
330
1F
100
AcDbEntity
  8
0-B_寸法
  6
Continuous
 62
     7
370
     9
100
AcDbPolyline
 90
        4
 70
     1
 43
2.0
 10
2250.612361590073
 20
-526.2926091374517
 42
0.4142135623731
 10
2249.612361590073
 20
-525.2926091374517
 42
0.4142135623731
 10
2248.612361590073
 20
-526.2926091374517
 42
0.4142135623731
 10
2249.612361590073
 20
-527.2926091374517
 42
0.4142135623731
  0
LINE
  5
363
330
1F
100
AcDbEntity
  8
0-B_寸法
  6
Continuous
 62
   120
370
     5
100
AcDbLine
 10
2249.612361590073
 20
-526.2926091374517
 30
0.0
 11
2249.612361590073
 21
-626.2926091374517
 31
0.0
  0
LINE
  5
364
330
1F
100
AcDbEntity
  8
0-0_補助線
  6
JWW_HOJO
 62
   120
370
     5
100
AcDbLine
 10
1854.612361683151
 20
-526.2926091374517
 30
0.0
 11
2321.612361590076
 21
-526.2926091374517
 31
0.0
  0
LINE
  5
365
330
1F
100
AcDbEntity
  8
0-B_寸法
  6
Continuous
 62
   120
370
     5
100
AcDbLine
 10
2271.612361683149
 20
-1783.292549751893
 30
0.0
 11
2271.612361683149
 21
-1583.292549751894
 31
0.0
  0
LWPOLYLINE
  5
366
330
1F
100
AcDbEntity
  8
0-B_寸法
  6
Continuous
 62
     7
370
     9
100
AcDbPolyline
 90
        4
 70
     1
 43
2.0
 10
2272.612361683149
 20
-1683.292549751894
 42
0.4142135623731
 10
2271.612361683149
 20
-1682.292549751894
 42
0.4142135623731
 10
2270.612361683149
 20
-1683.292549751894
 42
0.4142135623731
 10
2271.612361683149
 20
-1684.292549751894
 42
0.4142135623731
  0
LINE
  5
367
330
1F
100
AcDbEntity
  8
0-B_寸法
  6
Continuous
 62
   120
370
     5
100
AcDbLine
 10
1926.612361683151
 20
-1783.292549751893
 30
0.0
 11
1926.612361683151
 21
-1583.292549751894
 31
0.0
  0
LWPOLYLINE
  5
368
330
1F
100
AcDbEntity
  8
0-B_寸法
  6
Continuous
 62
     7
370
     9
100
AcDbPolyline
 90
        4
 70
     1
 43
2.0
 10
1927.61236168315
 20
-1783.292549751893
 42
0.4142135623731
 10
1926.612361683151
 20
-1782.292549751893
 42
0.4142135623731
 10
1925.612361683151
 20
-1783.292549751893
 42
0.4142135623731
 10
1926.612361683151
 20
-1784.292549751892
 42
0.4142135623731
  0
LWPOLYLINE
  5
369
330
1F
100
AcDbEntity
  8
0-B_寸法
  6
Continuous
 62
     7
370
     9
100
AcDbPolyline
 90
        4
 70
     1
 43
2.0
 10
2272.612361683149
 20
-1783.292549751893
 42
0.4142135623731
 10
2271.612361683149
 20
-1782.292549751893
 42
0.4142135623731
 10
2270.612361683149
 20
-1783.292549751893
 42
0.4142135623731
 10
2271.612361683149
 20
-1784.292549751892
 42
0.4142135623731
  0
LINE
  5
36A
330
1F
100
AcDbEntity
  8
0-B_寸法
  6
Continuous
 62
   120
370
     5
100
AcDbLine
 10
2271.612361683149
 20
-1783.292549751893
 30
0.0
 11
1926.612361683151
 21
-1783.292549751893
 31
0.0
  0
LINE
  5
36B
330
1F
100
AcDbEntity
  8
0-6_桟木
  6
Continuous
 62
    92
370
    13
100
AcDbLine
 10
2271.612361683149
 20
-1533.29254975189
 30
0.0
 11
2301.612361683149
 21
-1533.29254975189
 31
0.0
  0
LINE
  5
36C
330
1F
100
AcDbEntity
  8
0-6_桟木
  6
Continuous
 62
    40
370
    15
100
AcDbLine
 10
2271.612361590071
 20
-1390.292529956705
 30
0.0
 11
2271.612361590071
 21
-1464.292549751891
 31
0.0
  0
LINE
  5
36D
330
1F
100
AcDbEntity
  8
0-6_桟木
  6
Continuous
 62
     7
370
     9
100
AcDbLine
 10
2271.612361590071
 20
-1464.292529956706
 30
0.0
 11
2271.612361590071
 21
-1390.292529956705
 31
0.0
  0
LINE
  5
36E
330
1F
100
AcDbEntity
  8
0-6_桟木
  6
Continuous
 62
    92
370
    13
100
AcDbLine
 10
2271.612361683149
 20
-1390.29254975189
 30
0.0
 11
2271.612361683149
 21
-1533.29254975189
 31
0.0
  0
LINE
  5
36F
330
1F
100
AcDbEntity
  8
0-6_桟木
  6
Continuous
 62
    92
370
    13
100
AcDbLine
 10
2301.612361683149
 20
-1390.29254975189
 30
0.0
 11
2271.612361683149
 21
-1390.29254975189
 31
0.0
  0
LINE
  5
370
330
1F
100
AcDbEntity
  8
0-6_桟木
  6
Continuous
 62
    92
370
    13
100
AcDbLine
 10
2301.612361683149
 20
-1533.29254975189
 30
0.0
 11
2301.612361683149
 21
-1390.29254975189
 31
0.0
  0
LINE
  5
371
330
1F
100
AcDbEntity
  8
0-6_桟木
  6
Continuous
 62
     7
370
     9
100
AcDbLine
 10
2271.612361683149
 20
-1533.29254975189
 30
0.0
 11
2301.612361683149
 21
-1390.29254975189
 31
0.0
  0
LINE
  5
372
330
1F
100
AcDbEntity
  8
0-6_桟木
  6
Continuous
 62
     7
370
     9
100
AcDbLine
 10
2271.612361683149
 20
-1390.29254975189
 30
0.0
 11
2301.612361683149
 21
-1533.29254975189
 31
0.0
  0
LINE
  5
373
330
1F
100
AcDbEntity
  8
0-9__
  6
Continuous
 62
     7
370
     9
100
AcDbLine
 10
2271.612361683149
 20
-1469.292549751893
 30
0.0
 11
2271.612361683149
 21
-1533.292549751893
 31
0.0
  0
LINE
  5
374
330
1F
100
AcDbEntity
  8
0-9__
  6
Continuous
 62
     7
370
     9
100
AcDbLine
 10
2256.612361683149
 20
-1469.292549751893
 30
0.0
 11
2256.612361683149
 21
-1533.292549751893
 31
0.0
  0
MTEXT
  5
375
330
1F
100
AcDbEntity
  8
0-B_寸法
  6
Continuous
 62
     7
370
   211
100
AcDbMText
 10
2054.112361683149
 20
-1780.432549751893
 30
0.0
 40
45.72
 41
90.0
 46
0.0
 71
     7
 72
     1
  1
{\fＭＳ ゴシック|b0|i0|c128|p49;345}
 73
     1
 44
1.0
  0
MTEXT
  5
376
330
1F
100
AcDbEntity
  8
0-B_寸法
  6
Continuous
 62
     7
370
   211
100
AcDbMText
 10
1448.612361683151
 20
-1538.432549751894
 30
0.0
 40
45.72
 41
60.0
 46
0.0
 71
     7
 72
     1
  1
{\fＭＳ ゴシック|b0|i0|c128|p49;64}
 11
6.123031769111886E-17
 21
1.0
 31
0.0
 73
     1
 44
1.0
  0
LINE
  5
377
330
1F
100
AcDbEntity
  8
0-B_寸法
  6
Continuous
 62
   120
370
     5
100
AcDbLine
 10
1454.612361683151
 20
-1533.292549751894
 30
0.0
 11
1854.612361683151
 21
-1533.292549751894
 31
0.0
  0
LINE
  5
378
330
1F
100
AcDbEntity
  8
0-B_寸法
  6
Continuous
 62
   120
370
     5
100
AcDbLine
 10
1454.612361683151
 20
-1469.292549751893
 30
0.0
 11
1854.612361683151
 21
-1469.292549751893
 31
0.0
  0
LWPOLYLINE
  5
379
330
1F
100
AcDbEntity
  8
0-B_寸法
  6
Continuous
 62
     7
370
     9
100
AcDbPolyline
 90
        4
 70
     1
 43
2.0
 10
1455.612361683151
 20
-1533.292549751894
 42
0.4142135623731
 10
1454.612361683151
 20
-1532.292549751894
 42
0.4142135623731
 10
1453.612361683151
 20
-1533.292549751894
 42
0.4142135623731
 10
1454.612361683151
 20
-1534.292549751894
 42
0.4142135623731
  0
LWPOLYLINE
  5
37A
330
1F
100
AcDbEntity
  8
0-B_寸法
  6
Continuous
 62
     7
370
     9
100
AcDbPolyline
 90
        4
 70
     1
 43
2.0
 10
1455.612361683151
 20
-1469.292549751893
 42
0.4142135623731
 10
1454.612361683151
 20
-1468.292549751893
 42
0.4142135623731
 10
1453.612361683151
 20
-1469.292549751893
 42
0.4142135623731
 10
1454.612361683151
 20
-1470.292549751893
 42
0.4142135623731
  0
LINE
  5
37B
330
1F
100
AcDbEntity
  8
0-B_寸法
  6
Continuous
 62
   120
370
     5
100
AcDbLine
 10
1454.612361683151
 20
-1469.292549751893
 30
0.0
 11
1454.612361683151
 21
-1533.292549751894
 31
0.0
  0
LINE
  5
37C
330
1F
100
AcDbEntity
  8
0-9__
  6
Continuous
 62
     7
370
     9
100
AcDbLine
 10
2271.612361683149
 20
-1533.292549751893
 30
0.0
 11
1966.612361683149
 21
-1533.292549751893
 31
0.0
  0
LINE
  5
37D
330
1F
100
AcDbEntity
  8
0-9__
  6
Continuous
 62
     7
370
     9
100
AcDbLine
 10
1966.612361683149
 20
-1533.292549751893
 30
0.0
 11
1966.612361683149
 21
-1469.292549751893
 31
0.0
  0
LINE
  5
37E
330
1F
100
AcDbEntity
  8
0-9__
  6
Continuous
 62
     7
370
     9
100
AcDbLine
 10
1966.612361683149
 20
-1469.292549751893
 30
0.0
 11
2271.612361683149
 21
-1469.292549751893
 31
0.0
  0
LINE
  5
37F
330
1F
100
AcDbEntity
  8
0-9__
  6
Continuous
 62
     7
370
     9
100
AcDbLine
 10
1981.612361683149
 20
-1533.292549751893
 30
0.0
 11
1981.612361683149
 21
-1469.292549751893
 31
0.0
  0
LINE
  5
380
330
1F
100
AcDbEntity
  8
0-B_寸法
  6
Continuous
 62
   120
370
     5
100
AcDbLine
 10
1966.612361683149
 20
-1683.292549751894
 30
0.0
 11
1966.612361683149
 21
-1583.292549751894
 31
0.0
  0
LWPOLYLINE
  5
381
330
1F
100
AcDbEntity
  8
0-B_寸法
  6
Continuous
 62
     7
370
     9
100
AcDbPolyline
 90
        4
 70
     1
 43
2.0
 10
1967.612361683149
 20
-1683.292549751894
 42
0.4142135623731
 10
1966.612361683149
 20
-1682.292549751894
 42
0.4142135623731
 10
1965.612361683149
 20
-1683.292549751894
 42
0.4142135623731
 10
1966.612361683149
 20
-1684.292549751894
 42
0.4142135623731
  0
LINE
  5
382
330
1F
100
AcDbEntity
  8
0-B_寸法
  6
Continuous
 62
   120
370
     5
100
AcDbLine
 10
2271.612361683149
 20
-1683.292549751894
 30
0.0
 11
1966.612361683149
 21
-1683.292549751894
 31
0.0
  0
MTEXT
  5
383
330
1F
100
AcDbEntity
  8
0-B_寸法
  6
Continuous
 62
     7
370
   211
100
AcDbMText
 10
1984.112361683149
 20
-1680.432549751894
 30
0.0
 40
45.71999999999999
 41
270.0
 46
0.0
 71
     7
 72
     1
  1
{\fＭＳ ゴシック|b0|i0|c128|p49;台輪＝305}
 73
     1
 44
1.0
  0
LWPOLYLINE
  5
384
330
1F
100
AcDbEntity
  8
0-B_寸法
  6
Continuous
 62
     7
370
     9
100
AcDbPolyline
 90
        4
 70
     1
 43
2.0
 10
2272.612361729692
 20
-326.2925497518913
 42
0.4142135623731
 10
2271.612361729692
 20
-325.2925497518913
 42
0.4142135623731
 10
2270.612361729692
 20
-326.2925497518913
 42
0.4142135623731
 10
2271.612361729692
 20
-327.2925497518913
 42
0.4142135623731
  0
LINE
  5
385
330
1F
100
AcDbEntity
  8
0-B_寸法
  6
Continuous
 62
   120
370
     5
100
AcDbLine
 10
2271.612361590076
 20
-226.2925497518913
 30
0.0
 11
2271.612361729692
 21
-626.2925497518916
 31
0.0
  0
MTEXT
  5
386
330
1F
100
AcDbEntity
  8
0-B_寸法
  6
Continuous
 62
     7
370
   211
100
AcDbMText
 10
1934.112361590076
 20
-223.4325497518913
 30
0.0
 40
45.71999999999999
 41
300.0
 46
0.0
 71
     7
 72
     1
  1
{\fＭＳ ゴシック|b0|i0|c128|p49;ｶｳﾝﾀｰ＝375}
 73
     1
 44
1.0
  0
LINE
  5
387
330
1F
100
AcDbEntity
  8
0-B_寸法
  6
Continuous
 62
   120
370
     5
100
AcDbLine
 10
1896.612361590076
 20
-226.2925497518913
 30
0.0
 11
1896.612361590076
 21
-626.2925497518909
 31
0.0
  0
LINE
  5
388
330
1F
100
AcDbEntity
  8
0-B_寸法
  6
Continuous
 62
   120
370
     5
100
AcDbLine
 10
2271.612361590076
 20
-226.2925497518913
 30
0.0
 11
1896.612361590076
 21
-226.2925497518913
 31
0.0
  0
LWPOLYLINE
  5
389
330
1F
100
AcDbEntity
  8
0-B_寸法
  6
Continuous
 62
     7
370
     9
100
AcDbPolyline
 90
        4
 70
     1
 43
2.0
 10
1897.612361590076
 20
-226.2925497518913
 42
0.4142135623731
 10
1896.612361590076
 20
-225.2925497518913
 42
0.4142135623731
 10
1895.612361590076
 20
-226.2925497518913
 42
0.4142135623731
 10
1896.612361590076
 20
-227.2925497518913
 42
0.4142135623731
  0
LWPOLYLINE
  5
38A
330
1F
100
AcDbEntity
  8
0-B_寸法
  6
Continuous
 62
     7
370
     9
100
AcDbPolyline
 90
        4
 70
     1
 43
2.0
 10
2272.612361590076
 20
-226.2925497518913
 42
0.4142135623731
 10
2271.612361590076
 20
-225.2925497518913
 42
0.4142135623731
 10
2270.612361590076
 20
-226.2925497518913
 42
0.4142135623731
 10
2271.612361590076
 20
-227.2925497518913
 42
0.4142135623731
  0
LWPOLYLINE
  5
38B
330
1F
100
AcDbEntity
  8
0-B_寸法
  6
Continuous
 62
     7
370
     9
100
AcDbPolyline
 90
        4
 70
     1
 43
2.0
 10
1455.612361683151
 20
-708.2925415038994
 42
0.4142135623731
 10
1454.612361683151
 20
-707.2925415038994
 42
0.4142135623731
 10
1453.612361683151
 20
-708.2925415038994
 42
0.4142135623731
 10
1454.612361683151
 20
-709.2925415038994
 42
0.4142135623731
  0
LINE
  5
38C
330
1F
100
AcDbEntity
  8
0-B_寸法
  6
Continuous
 62
   120
370
     5
100
AcDbLine
 10
1454.612361683151
 20
-708.2925415038994
 30
0.0
 11
1854.612361683151
 21
-708.2925415038994
 31
0.0
  0
LINE
  5
38D
330
1F
100
AcDbEntity
  8
0-4_棚
  6
Continuous
 62
     7
370
     9
100
AcDbLine
 10
2271.612361590076
 20
-708.2925416005656
 30
0.0
 11
1896.612361590076
 21
-708.2925416005656
 31
0.0
  0
LINE
  5
38E
330
1F
100
AcDbEntity
  8
0-4_棚
  6
Continuous
 62
     7
370
     9
100
AcDbLine
 10
1896.612361590076
 20
-698.2925416005656
 30
0.0
 11
1896.612361590076
 21
-708.2925416005656
 31
0.0
  0
MTEXT
  5
38F
330
1F
100
AcDbEntity
  8
F-A_文字
  6
Continuous
 62
     7
370
     0
100
AcDbMText
 10
-3386.720882428186
 20
-2696.794778284195
 30
0.0
 40
53.07724137931033
 41
2020.0
 46
0.0
 71
     7
 72
     1
  1
{\fＭＳ ゴシック|b0|i0|c128|p49;ドレタス　玄関収納　組合せプラン　床置きタイプ　Ｓ－３０１}
 73
     1
 44
1.0
  0
MTEXT
  5
390
330
1F
100
AcDbEntity
  8
0-A_文字
  6
Continuous
 62
     7
370
     9
100
AcDbMText
 10
-2358.39216130441
 20
-2076.857549751893
 30
0.0
 40
102.87
 41
540.0
 46
0.0
 71
     7
 72
     1
  1
{\fＭＳ ゴシック|b0|i0|c128|p49;扉配置図}
 73
     1
 44
1.0
  0
LINE
  5
391
330
1F
100
AcDbEntity
  8
0-9__
  6
Continuous
 62
     7
370
     9
100
AcDbLine
 10
-2486.887638104454
 20
-1533.292549751891
 30
0.0
 11
-2486.887638104454
 21
-1469.292549751892
 31
0.0
  0
LINE
  5
392
330
1F
100
AcDbEntity
  8
0-9__
  6
Continuous
 62
     7
370
     9
100
AcDbLine
 10
-2471.887638104454
 20
-1533.292549751891
 30
0.0
 11
-2471.887638104454
 21
-1469.292549751892
 31
0.0
  0
LINE
  5
393
330
1F
100
AcDbEntity
  8
0-B_寸法
  6
Continuous
 62
   120
370
     5
100
AcDbLine
 10
-2487.387638104454
 20
-1683.292549751891
 30
0.0
 11
-2486.887638104454
 21
-1683.292549751891
 31
0.0
  0
LWPOLYLINE
  5
394
330
1F
100
AcDbEntity
  8
0-B_寸法
  6
Continuous
 62
     7
370
     9
100
AcDbPolyline
 90
        4
 70
     1
 43
2.0
 10
-2485.887638104454
 20
-1683.292549751891
 42
0.4142135623731
 10
-2486.887638104454
 20
-1682.292549751892
 42
0.4142135623731
 10
-2487.887638104454
 20
-1683.292549751891
 42
0.4142135623731
 10
-2486.887638104454
 20
-1684.292549751891
 42
0.4142135623731
  0
LINE
  5
395
330
1F
100
AcDbEntity
  8
0-B_寸法
  6
Continuous
 62
   120
370
     5
100
AcDbLine
 10
-2486.887638104454
 20
-1683.292549751891
 30
0.0
 11
-2486.887638104454
 21
-1583.292549751891
 31
0.0
  0
MTEXT
  5
396
330
1F
100
AcDbEntity
  8
0-B_寸法
  6
Continuous
 62
     7
370
   211
100
AcDbMText
 10
-2587.621666214699
 20
-1680.432549751891
 30
0.0
 40
45.72
 41
90.0
 46
0.0
 71
     7
 72
     1
  1
{\fＭＳ ゴシック|b0|i0|c128|p49;0.5}
 73
     1
 44
1.0
  0
MTEXT
  5
397
330
1F
100
AcDbEntity
  8
0-B_寸法
  6
Continuous
 62
     7
370
   211
100
AcDbMText
 10
-2224.387638104454
 20
-1680.432549751891
 30
0.0
 40
45.71999999999999
 41
270.0
 46
0.0
 71
     7
 72
     1
  1
{\fＭＳ ゴシック|b0|i0|c128|p49;台輪＝795}
 73
     1
 44
1.0
  0
LINE
  5
398
330
1F
100
AcDbEntity
  8
0-9__
  6
Continuous
 62
     7
370
     9
100
AcDbLine
 10
-1691.887638104454
 20
-1469.292549751892
 30
0.0
 11
-1691.887638104454
 21
-1533.292549751891
 31
0.0
  0
LINE
  5
399
330
1F
100
AcDbEntity
  8
0-9__
  6
Continuous
 62
     7
370
     9
100
AcDbLine
 10
-1706.887638104454
 20
-1469.292549751892
 30
0.0
 11
-1706.887638104454
 21
-1533.292549751891
 31
0.0
  0
LWPOLYLINE
  5
39A
330
1F
100
AcDbEntity
  8
0-B_寸法
  6
Continuous
 62
     7
370
     9
100
AcDbPolyline
 90
        4
 70
     1
 43
2.0
 10
-1690.887638104454
 20
-1683.292549751891
 42
0.4142135623731
 10
-1691.887638104454
 20
-1682.292549751892
 42
0.4142135623731
 10
-1692.887638104453
 20
-1683.292549751891
 42
0.4142135623731
 10
-1691.887638104454
 20
-1684.292549751891
 42
0.4142135623731
  0
LINE
  5
39B
330
1F
100
AcDbEntity
  8
0-B_寸法
  6
Continuous
 62
   120
370
     5
100
AcDbLine
 10
-1691.887638104454
 20
-1683.292549751891
 30
0.0
 11
-1691.887638104454
 21
-1583.292549751891
 31
0.0
  0
LINE
  5
39C
330
1F
100
AcDbEntity
  8
0-B_寸法
  6
Continuous
 62
   120
370
     5
100
AcDbLine
 10
-1691.887638104454
 20
-1683.292549751891
 30
0.0
 11
-1691.387638104454
 21
-1683.292549751891
 31
0.0
  0
LINE
  5
39D
330
1F
100
AcDbEntity
  8
0-9__
  6
Continuous
 62
     7
370
     9
100
AcDbLine
 10
-2486.887638104454
 20
-1469.292549751892
 30
0.0
 11
-1691.887638104454
 21
-1469.292549751892
 31
0.0
  0
LINE
  5
39E
330
1F
100
AcDbEntity
  8
0-9__
  6
Continuous
 62
     7
370
     9
100
AcDbLine
 10
-1691.887638104454
 20
-1533.292549751891
 30
0.0
 11
-2486.887638104454
 21
-1533.292549751891
 31
0.0
  0
LINE
  5
39F
330
1F
100
AcDbEntity
  8
0-B_寸法
  6
Continuous
 62
   120
370
     5
100
AcDbLine
 10
-2486.887638104454
 20
-1683.292549751891
 30
0.0
 11
-1691.887638104454
 21
-1683.292549751891
 31
0.0
  0
MTEXT
  5
3A0
330
1F
100
AcDbEntity
  8
0-B_寸法
  6
Continuous
 62
     7
370
   211
100
AcDbMText
 10
-1681.183505549271
 20
-1680.432549751891
 30
0.0
 40
45.72
 41
90.0
 46
0.0
 71
     7
 72
     1
  1
{\fＭＳ ゴシック|b0|i0|c128|p49;0.5}
 73
     1
 44
1.0
  0
LINE
  5
3A1
330
1F
100
AcDbEntity
  8
0-9__
  6
Continuous
 62
     7
370
     9
100
AcDbLine
 10
-390.8876381044574
 20
-1533.292549751891
 30
0.0
 11
-390.8876381044574
 21
-1469.292549751892
 31
0.0
  0
LINE
  5
3A2
330
1F
100
AcDbEntity
  8
0-9__
  6
Continuous
 62
     7
370
     9
100
AcDbLine
 10
-375.8876381044574
 20
-1533.292549751891
 30
0.0
 11
-375.8876381044574
 21
-1469.292549751892
 31
0.0
  0
LINE
  5
3A3
330
1F
100
AcDbEntity
  8
0-9__
  6
Continuous
 62
     7
370
     9
100
AcDbLine
 10
404.1123618955418
 20
-1469.292549751892
 30
0.0
 11
404.1123618955418
 21
-1533.292549751891
 31
0.0
  0
LINE
  5
3A4
330
1F
100
AcDbEntity
  8
0-9__
  6
Continuous
 62
     7
370
     9
100
AcDbLine
 10
389.1123618955418
 20
-1469.292549751892
 30
0.0
 11
389.1123618955418
 21
-1533.292549751891
 31
0.0
  0
LINE
  5
3A5
330
1F
100
AcDbEntity
  8
0-9__
  6
Continuous
 62
     7
370
     9
100
AcDbLine
 10
-390.8876381044574
 20
-1469.292549751892
 30
0.0
 11
404.1123618955418
 21
-1469.292549751892
 31
0.0
  0
LINE
  5
3A6
330
1F
100
AcDbEntity
  8
0-9__
  6
Continuous
 62
     7
370
     9
100
AcDbLine
 10
404.1123618955418
 20
-1533.292549751891
 30
0.0
 11
-390.8876381044574
 21
-1533.292549751891
 31
0.0
  0
MTEXT
  5
3A7
330
1F
100
AcDbEntity
  8
F-A_文字
  6
Continuous
 62
     7
370
     0
100
AcDbMText
 10
3257.445195395262
 20
-2625.380781681567
 30
0.0
 40
52.57799999999999
 41
345.0
 46
0.0
 71
     7
 72
     1
  1
{\fＭＳ ゴシック|b0|i0|c128|p49;2024.04.01}
 73
     1
 44
1.0
  0
LINE
  5
3A8
330
1F
100
AcDbEntity
  8
0-2_扉
  6
Continuous
 62
    40
370
    15
100
AcDbLine
 10
-389.3876381044561
 20
1706.58129053709
 30
0.0
 11
-389.3876381044561
 21
1686.581290537091
 31
0.0
  0
LINE
  5
3A9
330
1F
100
AcDbEntity
  8
0-2_扉
  6
Continuous
 62
    40
370
    15
100
AcDbLine
 10
402.6123618955432
 20
1706.58129053709
 30
0.0
 11
402.6123618955432
 21
1686.581290537091
 31
0.0
  0
LINE
  5
3AA
330
1F
100
AcDbEntity
  8
0-2_扉
  6
Continuous
 62
    40
370
    15
100
AcDbLine
 10
4.6123618955437
 20
1706.58129053709
 30
0.0
 11
4.6123618955437
 21
1686.581290537091
 31
0.0
  0
LINE
  5
3AB
330
1F
100
AcDbEntity
  8
0-2_扉
  6
Continuous
 62
    40
370
    15
100
AcDbLine
 10
8.612361895542335
 20
1706.58129053709
 30
0.0
 11
8.612361895542335
 21
1686.581290537091
 31
0.0
  0
LINE
  5
3AC
330
1F
100
AcDbEntity
  8
0-2_扉
  6
Continuous
 62
    40
370
    15
100
AcDbLine
 10
402.6123618955432
 20
1686.581290537091
 30
0.0
 11
8.612361895542335
 21
1686.581290537091
 31
0.0
  0
LINE
  5
3AD
330
1F
100
AcDbEntity
  8
0-2_扉
  6
Continuous
 62
    40
370
    15
100
AcDbLine
 10
4.6123618955437
 20
1686.581290537091
 30
0.0
 11
-389.3876381044561
 21
1686.581290537091
 31
0.0
  0
LINE
  5
3AE
330
1F
100
AcDbEntity
  8
0-B_寸法
  6
Continuous
 62
   120
370
     5
100
AcDbLine
 10
-541.3876381044577
 20
1706.58129053709
 30
0.0
 11
-541.3876381044577
 21
1686.581290537091
 31
0.0
  0
LWPOLYLINE
  5
3AF
330
1F
100
AcDbEntity
  8
0-B_寸法
  6
Continuous
 62
     7
370
     9
100
AcDbPolyline
 90
        4
 70
     1
 43
2.0
 10
-540.3876381044577
 20
1686.581290537091
 42
0.4142135623731
 10
-541.3876381044577
 20
1687.581290537091
 42
0.4142135623731
 10
-542.3876381044577
 20
1686.581290537091
 42
0.4142135623731
 10
-541.3876381044577
 20
1685.581290537091
 42
0.4142135623731
  0
LINE
  5
3B0
330
1F
100
AcDbEntity
  8
0-B_寸法
  6
Continuous
 62
   120
370
     5
100
AcDbLine
 10
-641.3876381044577
 20
1686.581290537091
 30
0.0
 11
-441.3876381044577
 21
1686.581290537091
 31
0.0
  0
LINE
  5
3B1
330
1F
100
AcDbEntity
  8
0-B_寸法
  6
Continuous
 62
   120
370
     5
100
AcDbLine
 10
-641.3876381044577
 20
2052.581290537092
 30
0.0
 11
-641.3876381044577
 21
1686.581290537091
 31
0.0
  0
LWPOLYLINE
  5
3B2
330
1F
100
AcDbEntity
  8
0-B_寸法
  6
Continuous
 62
     7
370
     9
100
AcDbPolyline
 90
        4
 70
     1
 43
2.0
 10
-640.3876381044577
 20
1686.581290537091
 42
0.4142135623731
 10
-641.3876381044577
 20
1687.581290537091
 42
0.4142135623731
 10
-642.3876381044577
 20
1686.581290537091
 42
0.4142135623731
 10
-641.3876381044577
 20
1685.581290537091
 42
0.4142135623731
  0
MTEXT
  5
3B3
330
1F
100
AcDbEntity
  8
0-B_寸法
  6
Continuous
 62
     7
370
   211
100
AcDbMText
 10
-551.3876381044577
 20
1609.980769624281
 30
0.0
 40
45.72
 41
60.0
 46
0.0
 71
     7
 72
     1
  1
{\fＭＳ ゴシック|b0|i0|c128|p49;20}
 11
6.123031769111886E-17
 21
1.0
 31
0.0
 73
     1
 44
1.0
  0
MTEXT
  5
3B4
330
1F
100
AcDbEntity
  8
0-B_寸法
  6
Continuous
 62
     7
370
   211
100
AcDbMText
 10
-651.3876381044577
 20
1817.441290537092
 30
0.0
 40
45.72
 41
90.0
 46
0.0
 71
     7
 72
     1
  1
{\fＭＳ ゴシック|b0|i0|c128|p49;366}
 11
6.123031769111886E-17
 21
1.0
 31
0.0
 73
     1
 44
1.0
  0
LINE
  5
3B5
330
1F
100
AcDbEntity
  8
0-2_扉
  6
Continuous
 62
    40
370
    15
100
AcDbLine
 10
1925.612361647541
 20
-711.2926939150461
 30
0.0
 11
1925.612361647539
 21
-1466.292549751893
 31
0.0
  0
LINE
  5
3B6
330
1F
100
AcDbEntity
  8
0-0_補助線
  6
JWW_HOJO
 62
     7
370
     9
100
AcDbLine
 10
1910.754919129179
 20
-992.7926091374524
 30
0.0
 11
2271.612361556834
 21
-992.7926091374524
 31
0.0
  0
LINE
  5
3B7
330
1F
100
AcDbEntity
  8
0-0_補助線
  6
JWW_HOJO
 62
     7
370
     9
100
AcDbLine
 10
1908.469204941137
 20
-960.7926091374525
 30
0.0
 11
2271.612361553508
 21
-960.7926091374525
 31
0.0
  0
LINE
  5
3B8
330
1F
100
AcDbEntity
  8
0-0_補助線
  6
JWW_HOJO
 62
     7
370
     9
100
AcDbLine
 10
1906.183490753092
 20
-928.792609137452
 30
0.0
 11
2271.612361550186
 21
-928.792609137452
 31
0.0
  0
LINE
  5
3B9
330
1F
100
AcDbEntity
  8
0-0_補助線
  6
JWW_HOJO
 62
     7
370
     9
100
AcDbLine
 10
1903.897776565052
 20
-896.7926091374517
 30
0.0
 11
2271.612361546859
 21
-896.7926091374517
 31
0.0
  0
LINE
  5
3BA
330
1F
100
AcDbEntity
  8
0-2_扉
  6
Continuous
 62
    40
370
    15
100
AcDbLine
 10
1905.612361647539
 20
-1466.292549751893
 30
0.0
 11
1925.612361647541
 21
-1466.292549751892
 31
0.0
  0
LINE
  5
3BB
330
1F
100
AcDbEntity
  8
0-2_扉
  6
Continuous
 62
    40
370
    15
100
AcDbLine
 10
1905.612361647541
 20
-711.2926939150461
 30
0.0
 11
1905.612361647539
 21
-1466.292549751893
 31
0.0
  0
LINE
  5
3BC
330
1F
100
AcDbEntity
  8
0-2_扉
  6
Continuous
 62
    40
370
    15
100
AcDbLine
 10
1905.612361647539
 20
-711.2926939150469
 30
0.0
 11
1925.612361647541
 21
-711.2926939150461
 31
0.0
  0
LINE
  5
3BD
330
1F
100
AcDbEntity
  8
0-B_寸法
  6
Continuous
 62
   120
370
     5
100
AcDbLine
 10
1925.612361729691
 20
-426.2925497518995
 30
0.0
 11
1925.612361729691
 21
-626.2925497518996
 31
0.0
  0
LINE
  5
3BE
330
1F
100
AcDbEntity
  8
0-B_寸法
  6
Continuous
 62
   120
370
     5
100
AcDbLine
 10
2271.612361729693
 20
-426.2925497518995
 30
0.0
 11
1926.612361729693
 21
-426.2925497518995
 31
0.0
  0
LWPOLYLINE
  5
3BF
330
1F
100
AcDbEntity
  8
0-B_寸法
  6
Continuous
 62
     7
370
     9
100
AcDbPolyline
 90
        4
 70
     1
 43
2.0
 10
2272.612361729693
 20
-426.2925497518995
 42
0.4142135623731
 10
2271.612361729693
 20
-425.2925497518995
 42
0.4142135623731
 10
2270.612361729693
 20
-426.2925497518995
 42
0.4142135623731
 10
2271.612361729693
 20
-427.2925497518995
 42
0.4142135623731
  0
LWPOLYLINE
  5
3C0
330
1F
100
AcDbEntity
  8
0-B_寸法
  6
Continuous
 62
     7
370
     9
100
AcDbPolyline
 90
        4
 70
     1
 43
2.0
 10
1927.612361729693
 20
-426.2925497518995
 42
0.4142135623731
 10
1926.612361729693
 20
-425.2925497518995
 42
0.4142135623731
 10
1925.612361729693
 20
-426.2925497518995
 42
0.4142135623731
 10
1926.612361729693
 20
-427.2925497518995
 42
0.4142135623731
  0
LINE
  5
3C1
330
1F
100
AcDbEntity
  8
0-B_寸法
  6
Continuous
 62
   120
370
     5
100
AcDbLine
 10
2271.612361729693
 20
-426.2925497518995
 30
0.0
 11
2271.612361729693
 21
-526.2925497518996
 31
0.0
  0
LINE
  5
3C2
330
1F
100
AcDbEntity
  8
0-B_寸法
  6
Continuous
 62
   120
370
     5
100
AcDbLine
 10
1926.612361729693
 20
-426.2925497518995
 30
0.0
 11
1926.612361729693
 21
-526.2925497518996
 31
0.0
  0
LINE
  5
3C3
330
1F
100
AcDbEntity
  8
0-B_寸法
  6
Continuous
 62
   120
370
     5
100
AcDbLine
 10
1926.612361729693
 20
-426.2925497518995
 30
0.0
 11
1925.612361729691
 21
-426.2925497518995
 31
0.0
  0
LWPOLYLINE
  5
3C4
330
1F
100
AcDbEntity
  8
0-B_寸法
  6
Continuous
 62
     7
370
     9
100
AcDbPolyline
 90
        4
 70
     1
 43
2.0
 10
1926.612361729691
 20
-426.2925497518995
 42
0.4142135623731
 10
1925.612361729691
 20
-425.2925497518995
 42
0.4142135623731
 10
1924.612361729691
 20
-426.2925497518995
 42
0.4142135623731
 10
1925.612361729691
 20
-427.2925497518995
 42
0.4142135623731
  0
MTEXT
  5
3C5
330
1F
100
AcDbEntity
  8
0-B_寸法
  6
Continuous
 62
     7
370
   211
100
AcDbMText
 10
2054.112361729693
 20
-423.4325497519002
 30
0.0
 40
45.72
 41
90.0
 46
0.0
 71
     7
 72
     1
  1
{\fＭＳ ゴシック|b0|i0|c128|p49;345}
 73
     1
 44
1.0
  0
MTEXT
  5
3C6
330
1F
100
AcDbEntity
  8
0-B_寸法
  6
Continuous
 62
     7
370
   211
100
AcDbMText
 10
1911.112361729691
 20
-423.4325497519002
 30
0.0
 40
45.72
 41
30.0
 46
0.0
 71
     7
 72
     1
  1
{\fＭＳ ゴシック|b0|i0|c128|p49;1}
 73
     1
 44
1.0
  0
LWPOLYLINE
  5
3C7
330
1F
100
AcDbEntity
  8
0-B_寸法
  6
Continuous
 62
     7
370
     9
100
AcDbPolyline
 90
        4
 70
     1
 43
2.0
 10
1906.612361647541
 20
-426.2925497518909
 42
0.4142135623731
 10
1905.612361647541
 20
-425.2925497518908
 42
0.4142135623731
 10
1904.612361647541
 20
-426.2925497518909
 42
0.4142135623731
 10
1905.612361647541
 20
-427.2925497518909
 42
0.4142135623731
  0
LINE
  5
3C8
330
1F
100
AcDbEntity
  8
0-B_寸法
  6
Continuous
 62
   120
370
     5
100
AcDbLine
 10
1905.612361647541
 20
-426.2925497518909
 30
0.0
 11
1905.612361647541
 21
-626.2925497518916
 31
0.0
  0
LINE
  5
3C9
330
1F
100
AcDbEntity
  8
0-B_寸法
  6
Continuous
 62
   120
370
     5
100
AcDbLine
 10
2271.612361729692
 20
-326.2925497518913
 30
0.0
 11
1905.612361647541
 21
-326.2925497518913
 31
0.0
  0
LWPOLYLINE
  5
3CA
330
1F
100
AcDbEntity
  8
0-B_寸法
  6
Continuous
 62
     7
370
     9
100
AcDbPolyline
 90
        4
 70
     1
 43
2.0
 10
1906.612361647541
 20
-326.2925497518913
 42
0.4142135623731
 10
1905.612361647541
 20
-325.2925497518913
 42
0.4142135623731
 10
1904.612361647541
 20
-326.2925497518913
 42
0.4142135623731
 10
1905.612361647541
 20
-327.2925497518913
 42
0.4142135623731
  0
LINE
  5
3CB
330
1F
100
AcDbEntity
  8
0-B_寸法
  6
Continuous
 62
   120
370
     5
100
AcDbLine
 10
1905.612361647541
 20
-326.2925497518913
 30
0.0
 11
1905.612361647541
 21
-426.2925497518909
 31
0.0
  0
LINE
  5
3CC
330
1F
100
AcDbEntity
  8
0-B_寸法
  6
Continuous
 62
   120
370
     5
100
AcDbLine
 10
1925.612361729691
 20
-426.2925497518909
 30
0.0
 11
1905.612361647541
 21
-426.2925497518909
 31
0.0
  0
MTEXT
  5
3CD
330
1F
100
AcDbEntity
  8
0-B_寸法
  6
Continuous
 62
     7
370
   211
100
AcDbMText
 10
1827.976626888617
 20
-423.4325497518913
 30
0.0
 40
45.72
 41
60.0
 46
0.0
 71
     7
 72
     1
  1
{\fＭＳ ゴシック|b0|i0|c128|p49;20}
 73
     1
 44
1.0
  0
MTEXT
  5
3CE
330
1F
100
AcDbEntity
  8
0-B_寸法
  6
Continuous
 62
     7
370
   211
100
AcDbMText
 10
2043.612361688616
 20
-323.4325497518913
 30
0.0
 40
45.72
 41
90.0
 46
0.0
 71
     7
 72
     1
  1
{\fＭＳ ゴシック|b0|i0|c128|p49;366}
 73
     1
 44
1.0
  0
LINE
  5
3CF
330
1F
100
AcDbEntity
  8
0-2_扉
  6
Continuous
 62
    40
370
    15
100
AcDbLine
 10
1905.612361683158
 20
133.7074502481011
 30
0.0
 11
1925.612361683158
 21
133.7074502481011
 31
0.0
  0
LINE
  5
3D0
330
1F
100
AcDbEntity
  8
0-2_扉
  6
Continuous
 62
    40
370
    15
100
AcDbLine
 10
1905.612361683158
 20
696.7074502481017
 30
0.0
 11
1925.612361683158
 21
696.7074502481017
 31
0.0
  0
LINE
  5
3D1
330
1F
100
AcDbEntity
  8
0-2_扉
  6
Continuous
 62
    40
370
    15
100
AcDbLine
 10
1905.612361683158
 20
133.7074502481011
 30
0.0
 11
1905.612361683158
 21
696.7074502481017
 31
0.0
  0
LWPOLYLINE
  5
3D2
330
1F
100
AcDbEntity
  8
0-B_寸法
  6
Continuous
 62
     7
370
     9
100
AcDbPolyline
 90
        4
 70
     1
 43
2.0
 10
1906.612361683158
 20
1049.707450248103
 42
0.4142135623731
 10
1905.612361683158
 20
1050.707450248103
 42
0.4142135623731
 10
1904.612361683158
 20
1049.707450248103
 42
0.4142135623731
 10
1905.612361683158
 20
1048.707450248103
 42
0.4142135623731
  0
LINE
  5
3D3
330
1F
100
AcDbEntity
  8
0-B_寸法
  6
Continuous
 62
   120
370
     5
100
AcDbLine
 10
1905.612361683158
 20
1049.707450248103
 30
0.0
 11
2271.612361683156
 21
1049.707450248103
 31
0.0
  0
LWPOLYLINE
  5
3D4
330
1F
100
AcDbEntity
  8
0-B_寸法
  6
Continuous
 62
     7
370
     9
100
AcDbPolyline
 90
        4
 70
     1
 43
2.0
 10
1906.612361683158
 20
949.707450248103
 42
0.4142135623731
 10
1905.612361683158
 20
950.707450248103
 42
0.4142135623731
 10
1904.612361683158
 20
949.707450248103
 42
0.4142135623731
 10
1905.612361683158
 20
948.707450248103
 42
0.4142135623731
  0
LINE
  5
3D5
330
1F
100
AcDbEntity
  8
0-B_寸法
  6
Continuous
 62
   120
370
     5
100
AcDbLine
 10
1905.612361683158
 20
949.707450248103
 30
0.0
 11
2271.612361683156
 21
949.707450248103
 31
0.0
  0
LINE
  5
3D6
330
1F
100
AcDbEntity
  8
0-B_寸法
  6
Continuous
 62
   120
370
     5
100
AcDbLine
 10
1905.612361683158
 20
1049.707450248103
 30
0.0
 11
1905.612361683158
 21
749.707450248103
 31
0.0
  0
MTEXT
  5
3D7
330
1F
100
AcDbEntity
  8
0-B_寸法
  6
Continuous
 62
     7
370
   211
100
AcDbMText
 10
2040.112265983158
 20
1052.567450248103
 30
0.0
 40
45.72
 41
90.0
 46
0.0
 71
     7
 72
     1
  1
{\fＭＳ ゴシック|b0|i0|c128|p49;366}
 73
     1
 44
1.0
  0
MTEXT
  5
3D8
330
1F
100
AcDbEntity
  8
0-B_寸法
  6
Continuous
 62
     7
370
   211
100
AcDbMText
 10
1839.206036367445
 20
952.567450248103
 30
0.0
 40
45.72
 41
60.0
 46
0.0
 71
     7
 72
     1
  1
{\fＭＳ ゴシック|b0|i0|c128|p49;20}
 73
     1
 44
1.0
  0
LINE
  5
3D9
330
1F
100
AcDbEntity
  8
0-B_寸法
  6
JWW_DASHED2
 62
   120
370
     5
100
AcDbLine
 10
2271.612361683151
 20
-688.2925610964869
 30
0.0
 11
-2487.387638104453
 21
-688.2925582024918
 31
0.0
  0
LINE
  5
3DA
330
1F
100
AcDbEntity
  8
0-B_寸法
  6
JWW_DASHED2
 62
   120
370
     5
100
AcDbLine
 10
2271.612361683151
 20
-688.2925808916732
 30
0.0
 11
-2487.387638104453
 21
-688.2925779976781
 31
0.0
  0
LWPOLYLINE
  5
3DB
330
1F
100
AcDbEntity
  8
0-B_寸法
  6
Continuous
 62
     7
370
     9
100
AcDbPolyline
 90
        4
 70
     1
 43
2.0
 10
-640.3876380579184
 20
-708.2925497519002
 42
0.4142135623731
 10
-641.3876380579183
 20
-707.2925497519003
 42
0.4142135623731
 10
-642.3876380579181
 20
-708.2925497519002
 42
0.4142135623731
 10
-641.3876380579183
 20
-709.2925497519002
 42
0.4142135623731
  0
LINE
  5
3DC
330
1F
100
AcDbEntity
  8
0-4_棚
  6
Continuous
 62
    92
370
    13
100
AcDbLine
 10
-1690.387638011379
 20
-688.2925810942756
 30
0.0
 11
-2488.387638011379
 21
-688.2925810942756
 31
0.0
  0
LINE
  5
3DD
330
1F
100
AcDbEntity
  8
0-4_棚
  6
Continuous
 62
    92
370
    13
100
AcDbLine
 10
-1690.387638011379
 20
-708.2925695470826
 30
0.0
 11
-1690.387638011379
 21
-688.2925810942756
 31
0.0
  0
LINE
  5
3DE
330
1F
100
AcDbEntity
  8
0-4_棚
  6
Continuous
 62
    92
370
    13
100
AcDbLine
 10
-2488.387638011379
 20
-688.2925810942756
 30
0.0
 11
-2488.387638011379
 21
-708.2925695470826
 31
0.0
  0
LINE
  5
3DF
330
1F
100
AcDbEntity
  8
0-4_棚
  6
Continuous
 62
    92
370
    13
100
AcDbLine
 10
405.6123618955434
 20
-688.2925810942756
 30
0.0
 11
-392.3876381044577
 21
-688.2925810942756
 31
0.0
  0
LINE
  5
3E0
330
1F
100
AcDbEntity
  8
0-4_棚
  6
Continuous
 62
    92
370
    13
100
AcDbLine
 10
405.6123618955434
 20
-708.2925695470826
 30
0.0
 11
405.6123618955434
 21
-688.2925810942756
 31
0.0
  0
LINE
  5
3E1
330
1F
100
AcDbEntity
  8
0-4_棚
  6
Continuous
 62
    92
370
    13
100
AcDbLine
 10
-392.3876381044577
 20
-688.2925810942756
 30
0.0
 11
-392.3876381044577
 21
-708.2925695470826
 31
0.0
  0
LINE
  5
3E2
330
1F
100
AcDbEntity
  8
0-4_棚
  6
Continuous
 62
     7
370
     9
100
AcDbLine
 10
2271.612361590076
 20
-719.2925761454738
 30
0.0
 11
2271.612361590076
 21
-688.2925563502873
 31
0.0
  0
LINE
  5
3E3
330
1F
100
AcDbEntity
  8
0-4_棚
  6
Continuous
 62
     7
370
     9
100
AcDbLine
 10
1896.612361590076
 20
-698.2925416005656
 30
0.0
 11
1900.812361590076
 21
-688.2925416005656
 31
0.0
  0
LINE
  5
3E4
330
1F
100
AcDbEntity
  8
0-4_棚
  6
Continuous
 62
     7
370
     9
100
AcDbLine
 10
2271.612361590076
 20
-688.2925416005656
 30
0.0
 11
1900.812361590076
 21
-688.2925416005656
 31
0.0
  0
LINE
  5
3E5
330
1F
100
AcDbEntity
  8
0-6_桟木
  6
Continuous
 62
    92
370
    13
100
AcDbLine
 10
2271.612361590076
 20
-688.2925808916732
 30
0.0
 11
2271.612361590076
 21
-793.2925808916732
 31
0.0
  0
LINE
  5
3E6
330
1F
100
AcDbEntity
  8
0-6_桟木
  6
Continuous
 62
    92
370
    13
100
AcDbLine
 10
2301.612361590076
 20
-688.2925808916732
 30
0.0
 11
2271.612361590076
 21
-688.2925808916732
 31
0.0
  0
LINE
  5
3E7
330
1F
100
AcDbEntity
  8
0-6_桟木
  6
Continuous
 62
    92
370
    13
100
AcDbLine
 10
2271.612361590076
 20
-793.2925808916732
 30
0.0
 11
2301.612361590076
 21
-793.2925808916732
 31
0.0
  0
LINE
  5
3E8
330
1F
100
AcDbEntity
  8
0-6_桟木
  6
Continuous
 62
    92
370
    13
100
AcDbLine
 10
2301.612361590076
 20
-793.2925808916732
 30
0.0
 11
2301.612361590076
 21
-688.2925808916732
 31
0.0
  0
LINE
  5
3E9
330
1F
100
AcDbEntity
  8
0-6_桟木
  6
Continuous
 62
     7
370
     9
100
AcDbLine
 10
2271.612361590076
 20
-793.2925808916732
 30
0.0
 11
2301.612361590076
 21
-688.2925808916732
 31
0.0
  0
LINE
  5
3EA
330
1F
100
AcDbEntity
  8
0-6_桟木
  6
Continuous
 62
     7
370
     9
100
AcDbLine
 10
2271.612361590076
 20
-688.2925808916732
 30
0.0
 11
2301.612361590076
 21
-793.2925808916732
 31
0.0
  0
LINE
  5
3EB
330
1F
100
AcDbEntity
  8
0-B_寸法
  6
JWW_DASHED2
 62
   120
370
     5
100
AcDbLine
 10
2271.612361683151
 20
-793.2925808916732
 30
0.0
 11
-2487.387638104453
 21
-793.2925808916732
 31
0.0
  0
LWPOLYLINE
  5
3EC
330
1F
100
AcDbEntity
  8
0-B_寸法
  6
Continuous
 62
     7
370
     9
100
AcDbPolyline
 90
        4
 70
     1
 43
2.0
 10
2422.612361590074
 20
-793.2925413012983
 42
0.4142135623731
 10
2421.612361590074
 20
-792.2925413012985
 42
0.4142135623731
 10
2420.612361590075
 20
-793.2925413012983
 42
0.4142135623731
 10
2421.612361590074
 20
-794.2925413012983
 42
0.4142135623731
  0
LINE
  5
3ED
330
1F
100
AcDbEntity
  8
0-B_寸法
  6
Continuous
 62
   120
370
     5
100
AcDbLine
 10
2421.612361590074
 20
-793.2925413012983
 30
0.0
 11
2321.612361683147
 21
-793.2925413012983
 31
0.0
  0
LINE
  5
3EE
330
1F
100
AcDbEntity
  8
0-B_寸法
  6
Continuous
 62
   120
370
     5
100
AcDbLine
 10
2421.612361590074
 20
-793.2925413012983
 30
0.0
 11
2421.612361590074
 21
-688.2925808916732
 31
0.0
  0
LWPOLYLINE
  5
3EF
330
1F
100
AcDbEntity
  8
0-B_寸法
  6
Continuous
 62
     7
370
     9
100
AcDbPolyline
 90
        4
 70
     1
 43
2.0
 10
2422.612361590074
 20
-688.2925808916732
 42
0.4142135623731
 10
2421.612361590074
 20
-687.2925808916733
 42
0.4142135623731
 10
2420.612361590075
 20
-688.2925808916732
 42
0.4142135623731
 10
2421.612361590074
 20
-689.2925808916732
 42
0.4142135623731
  0
LINE
  5
3F0
330
1F
100
AcDbEntity
  8
0-B_寸法
  6
Continuous
 62
   120
370
     5
100
AcDbLine
 10
2421.612361590074
 20
-688.2925808916732
 30
0.0
 11
2321.612361683147
 21
-688.2925808916732
 31
0.0
  0
MTEXT
  5
3F1
330
1F
100
AcDbEntity
  8
0-B_寸法
  6
Continuous
 62
     7
370
   211
100
AcDbMText
 10
2411.612361590074
 20
-792.9325610964861
 30
0.0
 40
45.72
 41
90.0
 46
0.0
 71
     7
 72
     1
  1
{\fＭＳ ゴシック|b0|i0|c128|p49;105}
 11
6.123031769111886E-17
 21
1.0
 31
0.0
 73
     1
 44
1.0
  0
LINE
  5
3F2
330
1F
100
AcDbEntity
  8
0-B_寸法
  6
Continuous
 62
   120
370
     5
100
AcDbLine
 10
2421.612361590074
 20
-1390.29256954708
 30
0.0
 11
2421.612361590074
 21
-793.2925413012983
 31
0.0
  0
LINE
  5
3F3
330
1F
100
AcDbEntity
  8
0-B_寸法
  6
Continuous
 62
   120
370
     5
100
AcDbLine
 10
2421.612361590074
 20
130.7074502481089
 30
0.0
 11
2421.612361590074
 21
-688.2925808916732
 31
0.0
  0
MTEXT
  5
3F4
330
1F
100
AcDbEntity
  8
0-B_寸法
  6
Continuous
 62
     7
370
   211
100
AcDbMText
 10
2411.612361590074
 20
-1143.432559649489
 30
0.0
 40
45.72
 41
90.0
 46
0.0
 71
     7
 72
     1
  1
{\fＭＳ ゴシック|b0|i0|c128|p49;597}
 11
6.123031769111886E-17
 21
1.0
 31
0.0
 73
     1
 44
1.0
  0
MTEXT
  5
3F5
330
1F
100
AcDbEntity
  8
0-B_寸法
  6
Continuous
 62
     7
370
   211
100
AcDbMText
 10
2411.612361590074
 20
-330.4325695470817
 30
0.0
 40
45.72
 41
90.0
 46
0.0
 71
     7
 72
     1
  1
{\fＭＳ ゴシック|b0|i0|c128|p49;819}
 11
6.123031769111886E-17
 21
1.0
 31
0.0
 73
     1
 44
1.0
  0
LINE
  5
3F6
330
1F
100
AcDbEntity
  8
0-B_寸法
  6
Continuous
 62
   120
370
     5
100
AcDbLine
 10
1454.612361683151
 20
-708.2925415038994
 30
0.0
 11
1454.612361683151
 21
-688.2925803948474
 31
0.0
  0
LWPOLYLINE
  5
3F7
330
1F
100
AcDbEntity
  8
0-B_寸法
  6
Continuous
 62
     7
370
     9
100
AcDbPolyline
 90
        4
 70
     1
 43
2.0
 10
1455.612361683151
 20
-688.2925803948474
 42
0.4142135623731
 10
1454.612361683151
 20
-687.2925803948475
 42
0.4142135623731
 10
1453.612361683151
 20
-688.2925803948474
 42
0.4142135623731
 10
1454.612361683151
 20
-689.2925803948474
 42
0.4142135623731
  0
LINE
  5
3F8
330
1F
100
AcDbEntity
  8
0-B_寸法
  6
Continuous
 62
   120
370
     5
100
AcDbLine
 10
1454.612361683151
 20
-688.2925803948474
 30
0.0
 11
1854.612361683151
 21
-688.2925803948474
 31
0.0
  0
MTEXT
  5
3F9
330
1F
100
AcDbEntity
  8
0-B_寸法
  6
Continuous
 62
     7
370
   211
100
AcDbMText
 10
1444.612361683151
 20
-689.235796779298
 30
0.0
 40
45.72
 41
60.0
 46
0.0
 71
     7
 72
     1
  1
{\fＭＳ ゴシック|b0|i0|c128|p49;20}
 11
6.123031769111886E-17
 21
1.0
 31
0.0
 73
     1
 44
1.0
  0
LWPOLYLINE
  5
3FA
330
1F
100
AcDbEntity
  8
0-B_寸法
  6
Continuous
 62
     7
370
     9
100
AcDbPolyline
 90
        4
 70
     1
 43
2.0
 10
-640.3876380579184
 20
-688.292579120249
 42
0.4142135623731
 10
-641.3876380579183
 20
-687.292579120249
 42
0.4142135623731
 10
-642.3876380579181
 20
-688.292579120249
 42
0.4142135623731
 10
-641.3876380579183
 20
-689.292579120249
 42
0.4142135623731
  0
LINE
  5
3FB
330
1F
100
AcDbEntity
  8
0-B_寸法
  6
Continuous
 62
   120
370
     5
100
AcDbLine
 10
-641.3876380579183
 20
-688.292579120249
 30
0.0
 11
-441.3876380579183
 21
-688.292579120249
 31
0.0
  0
LINE
  5
3FC
330
1F
100
AcDbEntity
  8
0-B_寸法
  6
Continuous
 62
   120
370
     5
100
AcDbLine
 10
-641.3876380579183
 20
-708.2925695470826
 30
0.0
 11
-641.3876380579183
 21
-688.292579120249
 31
0.0
  0
MTEXT
  5
3FD
330
1F
100
AcDbEntity
  8
0-B_寸法
  6
Continuous
 62
     7
370
   211
100
AcDbMText
 10
-651.3876380579183
 20
-689.2357830943814
 30
0.0
 40
45.72
 41
60.0
 46
0.0
 71
     7
 72
     1
  1
{\fＭＳ ゴシック|b0|i0|c128|p49;20}
 11
6.123031769111886E-17
 21
1.0
 31
0.0
 73
     1
 44
1.0
  0
LINE
  5
3FE
330
1F
100
AcDbEntity
  8
0-B_寸法
  6
Continuous
 62
   120
370
     5
100
AcDbLine
 10
-2737.387638197529
 20
-688.2925810942766
 30
0.0
 11
-2737.387638197529
 21
-1469.292536776032
 31
0.0
  0
LWPOLYLINE
  5
3FF
330
1F
100
AcDbEntity
  8
0-B_寸法
  6
Continuous
 62
     7
370
     9
100
AcDbPolyline
 90
        4
 70
     1
 43
2.0
 10
-2736.387638197529
 20
-688.2925810942766
 42
0.4142135623731
 10
-2737.387638197529
 20
-687.2925810942766
 42
0.4142135623731
 10
-2738.38763819753
 20
-688.2925810942766
 42
0.4142135623731
 10
-2737.387638197529
 20
-689.2925810942766
 42
0.4142135623731
  0
LINE
  5
400
330
1F
100
AcDbEntity
  8
0-B_寸法
  6
Continuous
 62
   120
370
     5
100
AcDbLine
 10
-2737.387638197529
 20
130.7074502481072
 30
0.0
 11
-2737.387638197529
 21
-688.2925810942766
 31
0.0
  0
LINE
  5
401
330
1F
100
AcDbEntity
  8
0-B_寸法
  6
Continuous
 62
   120
370
     5
100
AcDbLine
 10
-2737.387638197529
 20
-688.2925810942766
 30
0.0
 11
-2537.38763801138
 21
-688.2925810942756
 31
0.0
  0
LWPOLYLINE
  5
402
330
1F
100
AcDbEntity
  8
0-B_寸法
  6
Continuous
 62
     7
370
     9
100
AcDbPolyline
 90
        4
 70
     1
 43
2.0
 10
-2636.387638011379
 20
-688.2925810942756
 42
0.4142135623731
 10
-2637.38763801138
 20
-687.2925810942758
 42
0.4142135623731
 10
-2638.38763801138
 20
-688.2925810942756
 42
0.4142135623731
 10
-2637.38763801138
 20
-689.2925810942756
 42
0.4142135623731
  0
LINE
  5
403
330
1F
100
AcDbEntity
  8
0-B_寸法
  6
Continuous
 62
   120
370
     5
100
AcDbLine
 10
-2637.38763801138
 20
-708.2925612990889
 30
0.0
 11
-2637.38763801138
 21
-688.2925810942756
 31
0.0
  0
MTEXT
  5
404
330
1F
100
AcDbEntity
  8
0-B_寸法
  6
Continuous
 62
     7
370
   211
100
AcDbMText
 10
-2647.38763801138
 20
-689.2357850684081
 30
0.0
 40
45.72
 41
60.0
 46
0.0
 71
     7
 72
     1
  1
{\fＭＳ ゴシック|b0|i0|c128|p49;20}
 11
6.123031769111886E-17
 21
1.0
 31
0.0
 73
     1
 44
1.0
  0
MTEXT
  5
405
330
1F
100
AcDbEntity
  8
0-B_寸法
  6
Continuous
 62
     7
370
   211
100
AcDbMText
 10
-2747.387638197529
 20
-1130.432549037562
 30
0.0
 40
45.72
 41
90.0
 46
0.0
 71
     7
 72
     1
  1
{\fＭＳ ゴシック|b0|i0|c128|p49;781}
 11
6.123031769111886E-17
 21
1.0
 31
0.0
 73
     1
 44
1.0
  0
MTEXT
  5
406
330
1F
100
AcDbEntity
  8
0-B_寸法
  6
Continuous
 62
     7
370
   211
100
AcDbMText
 10
-2747.387638197529
 20
-330.432555525492
 30
0.0
 40
45.72
 41
90.0
 46
0.0
 71
     7
 72
     1
  1
{\fＭＳ ゴシック|b0|i0|c128|p49;819}
 11
6.123031769111886E-17
 21
1.0
 31
0.0
 73
     1
 44
1.0
  0
MTEXT
  5
407
330
1F
100
AcDbEntity
  8
0-B_寸法
  6
Continuous
 62
     9
370
     5
100
AcDbMText
 10
0.0
 20
-20030.0
 30
0.0
 40
0.0
 41
0.0
 46
0.0
 71
     7
 72
     1
  1
{\fＭＳ ゴシック|b0|i0|c128|p49;Printer_Orientation = 0}
 73
     1
 44
1.0
  0
MTEXT
  5
408
330
1F
100
AcDbEntity
  8
0-B_寸法
  6
Continuous
 62
     9
370
     5
100
AcDbMText
 10
0.0
 20
-20030.0
 30
0.0
 40
0.0
 41
0.0
 46
0.0
 71
     7
 72
     1
  1
{\fＭＳ ゴシック|b0|i0|c128|p49;Printer_PaperSize = 0}
 73
     1
 44
1.0
  0
MTEXT
  5
409
330
1F
100
AcDbEntity
  8
0-B_寸法
  6
Continuous
 62
     9
370
     5
100
AcDbMText
 10
0.0
 20
-20030.0
 30
0.0
 40
0.0
 41
0.0
 46
0.0
 71
     7
 72
     1
  1
{\fＭＳ ゴシック|b0|i0|c128|p49;Printer_D2dBMP = 0}
 73
     1
 44
1.0
  0
MTEXT
  5
40A
330
1F
100
AcDbEntity
  8
0-B_寸法
  6
Continuous
 62
     9
370
     5
100
AcDbMText
 10
0.0
 20
-20030.0
 30
0.0
 40
0.0
 41
0.0
 46
0.0
 71
     7
 72
     1
  1
{\fＭＳ ゴシック|b0|i0|c128|p49;Printer_BmpZENTAI = 0}
 73
     1
 44
1.0
  0
MTEXT
  5
40B
330
1F
100
AcDbEntity
  8
0-B_寸法
  6
Continuous
 62
     9
370
     5
100
AcDbMText
 10
0.0
 20
-20030.0
 30
0.0
 40
0.0
 41
0.0
 46
0.0
 71
     7
 72
     1
  1
{\fＭＳ ゴシック|b0|i0|c128|p49;View_Direct2d = 1}
 73
     1
 44
1.0
  0
MTEXT
  5
40C
330
1F
100
AcDbEntity
  8
0-B_寸法
  6
Continuous
 62
     9
370
     5
100
AcDbMText
 10
0.0
 20
-20030.0
 30
0.0
 40
0.0
 41
0.0
 46
0.0
 71
     7
 72
     1
  1
{\fＭＳ ゴシック|b0|i0|c128|p49;Draw_BmpTOUKA = 1}
 73
     1
 44
1.0
  0
ENDSEC
  0
SECTION
  2
OBJECTS
  0
DICTIONARY
  5
C
330
0
100
AcDbDictionary
281
     1
  3
ACAD_GROUP
350
D
  3
ACAD_LAYOUT
350
1A
  3
ACAD_MATERIAL
350
3B
  3
ACAD_MLEADERSTYLE
350
40E
  3
ACAD_MLINESTYLE
350
17
  3
ACAD_PLOTSETTINGS
350
19
  3
ACAD_PLOTSTYLENAME
350
E
  3
ACAD_TABLESTYLE
350
40D
  3
ACAD_VISUALSTYLE
350
2A
  0
DICTIONARY
  5
D
102
{ACAD_REACTORS
330
C
102
}
330
C
100
AcDbDictionary
281
     1
  0
DICTIONARY
  5
1A
102
{ACAD_REACTORS
330
C
102
}
330
C
100
AcDbDictionary
281
     1
  3
Layout1
350
1E
  3
Layout2
350
26
  3
Model
350
22
  0
DICTIONARY
  5
3B
102
{ACAD_REACTORS
330
C
102
}
330
C
100
AcDbDictionary
281
     1
  3
ByBlock
350
3D
  3
ByLayer
350
3C
  3
Global
350
3E
  0
DICTIONARY
  5
40E
102
{ACAD_REACTORS
330
C
102
}
330
C
100
AcDbDictionary
281
     1
  0
DICTIONARY
  5
17
102
{ACAD_REACTORS
330
C
102
}
330
C
100
AcDbDictionary
281
     1
  3
Standard
350
18
  0
DICTIONARY
  5
19
102
{ACAD_REACTORS
330
C
102
}
330
C
100
AcDbDictionary
281
     1
  0
ACDBDICTIONARYWDFLT
  5
E
102
{ACAD_REACTORS
330
C
102
}
330
C
100
AcDbDictionary
281
     1
  3
Normal
350
F
100
AcDbDictionaryWithDefault
340
F
  0
DICTIONARY
  5
40D
102
{ACAD_REACTORS
330
C
102
}
330
C
100
AcDbDictionary
281
     1
  0
DICTIONARY
  5
2A
102
{ACAD_REACTORS
330
C
102
}
330
C
100
AcDbDictionary
281
     1
  3
2dWireframe
350
2F
  3
3D Hidden
350
31
  3
3dWireframe
350
30
  3
Basic
350
32
  3
Brighten
350
36
  3
ColorChange
350
3A
  3
Conceptual
350
34
  3
Dim
350
35
  3
Facepattern
350
39
  3
Flat
350
2B
  3
FlatWithEdges
350
2C
  3
Gouraud
350
2D
  3
GouraudWithEdges
350
2E
  3
Linepattern
350
38
  3
Realistic
350
33
  3
Thicken
350
37
  0
LAYOUT
  5
1E
102
{ACAD_REACTORS
330
1A
102
}
330
1A
100
AcDbPlotSettings
  1

  2
none_device
  4

  6

 40
0.0
 41
0.0
 42
0.0
 43
0.0
 44
0.0
 45
0.0
 46
0.0
 47
0.0
 48
0.0
 49
0.0
140
0.0
141
0.0
142
1.0
143
1.0
 70
   688
 72
     0
 73
     0
 74
     5
  7

 75
    16
 76
     0
 77
     5
 78
   300
147
1.0
148
0.0
149
0.0
100
AcDbLayout
  1
Layout1
 70
     1
 71
     1
 10
0.0
 20
0.0
 11
420.0
 21
297.0
 12
0.0
 22
0.0
 32
0.0
 14
1.000000000000000E+20
 24
1.000000000000000E+20
 34
1.000000000000000E+20
 15
-1.000000000000000E+20
 25
-1.000000000000000E+20
 35
-1.000000000000000E+20
146
0.0
 13
0.0
 23
0.0
 33
0.0
 16
1.0
 26
0.0
 36
0.0
 17
0.0
 27
1.0
 37
0.0
 76
     0
330
1B
  0
LAYOUT
  5
26
102
{ACAD_REACTORS
330
1A
102
}
330
1A
100
AcDbPlotSettings
  1

  2
none_device
  4

  6

 40
0.0
 41
0.0
 42
0.0
 43
0.0
 44
0.0
 45
0.0
 46
0.0
 47
0.0
 48
0.0
 49
0.0
140
0.0
141
0.0
142
1.0
143
1.0
 70
   688
 72
     0
 73
     0
 74
     5
  7

 75
    16
 76
     0
 77
     5
 78
   300
147
1.0
148
0.0
149
0.0
100
AcDbLayout
  1
Layout2
 70
     1
 71
     2
 10
0.0
 20
0.0
 11
0.0
 21
0.0
 12
0.0
 22
0.0
 32
0.0
 14
0.0
 24
0.0
 34
0.0
 15
0.0
 25
0.0
 35
0.0
146
0.0
 13
0.0
 23
0.0
 33
0.0
 16
1.0
 26
0.0
 36
0.0
 17
0.0
 27
1.0
 37
0.0
 76
     0
330
23
  0
LAYOUT
  5
22
102
{ACAD_REACTORS
330
1A
102
}
330
1A
100
AcDbPlotSettings
  1

  2
none_device
  4

  6

 40
0.0
 41
0.0
 42
0.0
 43
0.0
 44
0.0
 45
0.0
 46
0.0
 47
0.0
 48
0.0
 49
0.0
140
0.0
141
0.0
142
1.0
143
1.0
 70
  1712
 72
     0
 73
     0
 74
     0
  7

 75
     0
 76
     0
 77
     5
 78
   300
147
1.0
148
0.0
149
0.0
100
AcDbLayout
  1
Model
 70
     1
 71
     0
 10
-4200.0
 20
-2970.0
 11
4200.0
 21
2970.0
 12
0.0
 22
0.0
 32
0.0
 14
-4200.0
 24
-2970.0
 34
0.0
 15
4200.0
 25
2970.0
 35
0.0
146
0.0
 13
0.0
 23
0.0
 33
0.0
 16
1.0
 26
0.0
 36
0.0
 17
0.0
 27
1.0
 37
0.0
 76
     0
330
1F
331
29
  0
MATERIAL
  5
3D
102
{ACAD_REACTORS
330
3B
102
}
330
3B
100
AcDbMaterial
  1
ByBlock
 72
     1
 94
      127
  0
MATERIAL
  5
3C
102
{ACAD_REACTORS
330
3B
102
}
330
3B
100
AcDbMaterial
  1
ByLayer
 72
     1
 94
      127
  0
MATERIAL
  5
3E
102
{ACAD_REACTORS
330
3B
102
}
330
3B
100
AcDbMaterial
  1
Global
 72
     1
 94
      127
  0
MLINESTYLE
  5
18
102
{ACAD_REACTORS
330
17
102
}
330
17
100
AcDbMlineStyle
  2
Standard
 70
     0
  3

 62
   256
 51
90.0
 52
90.0
 71
     2
 49
0.5
 62
   256
  6
BYLAYER
 49
-0.5
 62
   256
  6
BYLAYER
  0
ACDBPLACEHOLDER
  5
F
102
{ACAD_REACTORS
330
E
102
}
330
E
  0
VISUALSTYLE
  5
2F
102
{ACAD_REACTORS
330
2A
102
}
330
2A
100
AcDbVisualStyle
  2
2dWireframe
 70
     4
177
     2
291
     0
 71
     0
176
     1
 72
     2
176
     1
 73
     0
176
     1
 90
        0
176
     1
 40
-0.6
176
     1
 41
-30.0
176
     1
 62
     5
 63
     7
421
 16777215
176
     1
 74
     1
176
     1
 91
        4
176
     1
 64
     7
176
     1
 65
   257
176
     1
 75
     1
176
     1
175
     1
176
     1
 42
1.0
176
     1
 92
        0
176
     1
 66
   257
176
     1
 43
1.0
176
     1
 76
     1
176
     1
 77
     6
176
     1
 78
     2
176
     1
 67
     7
176
     1
 79
     5
176
     1
170
     0
176
     1
171
     0
176
     1
290
     0
176
     1
 93
        1
176
     1
 44
0.0
176
     1
173
     0
176
     1
  0
VISUALSTYLE
  5
31
102
{ACAD_REACTORS
330
2A
102
}
330
2A
100
AcDbVisualStyle
  2
3D Hidden
 70
     6
177
     2
291
     0
 71
     1
176
     1
 72
     2
176
     1
 73
     2
176
     1
 90
        0
176
     1
 40
-0.6
176
     1
 41
-30.0
176
     1
 62
     5
 63
     7
421
 16777215
176
     1
 74
     2
176
     1
 91
        2
176
     1
 64
     7
176
     1
 65
   257
176
     1
 75
     2
176
     1
175
     1
176
     1
 42
40.0
176
     1
 92
        0
176
     1
 66
   257
176
     1
 43
1.0
176
     1
 76
     1
176
     1
 77
     6
176
     1
 78
     2
176
     1
 67
     7
176
     1
 79
     3
176
     1
170
     0
176
     1
171
     0
176
     1
290
     0
176
     1
 93
        1
176
     1
 44
0.0
176
     1
173
     0
176
     1
  0
VISUALSTYLE
  5
30
102
{ACAD_REACTORS
330
2A
102
}
330
2A
100
AcDbVisualStyle
  2
3dWireframe
 70
     5
177
     2
291
     0
 71
     0
176
     1
 72
     2
176
     1
 73
     0
176
     1
 90
        0
176
     1
 40
-0.6
176
     1
 41
-30.0
176
     1
 62
     5
 63
     7
421
 16777215
176
     1
 74
     1
176
     1
 91
        4
176
     1
 64
     7
176
     1
 65
   257
176
     1
 75
     1
176
     1
175
     1
176
     1
 42
1.0
176
     1
 92
        0
176
     1
 66
   257
176
     1
 43
1.0
176
     1
 76
     1
176
     1
 77
     6
176
     1
 78
     2
176
     1
 67
     7
176
     1
 79
     5
176
     1
170
     0
176
     1
171
     0
176
     1
290
     0
176
     1
 93
        1
176
     1
 44
0.0
176
     1
173
     0
176
     1
  0
VISUALSTYLE
  5
32
102
{ACAD_REACTORS
330
2A
102
}
330
2A
100
AcDbVisualStyle
  2
Basic
 70
     7
177
     2
291
     1
 71
     1
176
     1
 72
     0
176
     1
 73
     1
176
     1
 90
        0
176
     1
 40
-0.6
176
     1
 41
-30.0
176
     1
 62
     5
 63
     7
421
 16777215
176
     1
 74
     0
176
     1
 91
        4
176
     1
 64
     7
176
     1
 65
   257
176
     1
 75
     1
176
     1
175
     1
176
     1
 42
1.0
176
     1
 92
        8
176
     1
 66
     7
176
     1
 43
1.0
176
     1
 76
     1
176
     1
 77
     6
176
     1
 78
     2
176
     1
 67
     7
176
     1
 79
     5
176
     1
170
     0
176
     1
171
     0
176
     1
290
     0
176
     1
 93
        1
176
     1
 44
0.0
176
     1
173
     0
176
     1
  0
VISUALSTYLE
  5
36
102
{ACAD_REACTORS
330
2A
102
}
330
2A
100
AcDbVisualStyle
  2
Brighten
 70
    12
177
     2
291
     1
 71
     2
176
     1
 72
     2
176
     1
 73
     0
176
     1
 90
        0
176
     1
 40
-0.6
176
     1
 41
-30.0
176
     1
 62
     5
 63
     7
421
 16777215
176
     1
 74
     1
176
     1
 91
        4
176
     1
 64
     7
176
     1
 65
   257
176
     1
 75
     1
176
     1
175
     1
176
     1
 42
1.0
176
     1
 92
        8
176
     1
 66
     7
176
     1
 43
1.0
176
     1
 76
     1
176
     1
 77
     6
176
     1
 78
     2
176
     1
 67
     7
176
     1
 79
     5
176
     1
170
     0
176
     1
171
     0
176
     1
290
     0
176
     1
 93
        1
176
     1
 44
50.0
176
     1
173
     0
176
     1
  0
VISUALSTYLE
  5
3A
102
{ACAD_REACTORS
330
2A
102
}
330
2A
100
AcDbVisualStyle
  2
ColorChange
 70
    16
177
     2
291
     1
 71
     2
176
     1
 72
     2
176
     1
 73
     3
176
     1
 90
        0
176
     1
 40
-0.6
176
     1
 41
-30.0
176
     1
 62
     5
 63
     8
421
  8421504
176
     1
 74
     1
176
     1
 91
        4
176
     1
 64
     7
176
     1
 65
   257
176
     1
 75
     1
176
     1
175
     1
176
     1
 42
1.0
176
     1
 92
        8
176
     1
 66
     8
424
  8421504
176
     1
 43
1.0
176
     1
 76
     1
176
     1
 77
     6
176
     1
 78
     2
176
     1
 67
     7
176
     1
 79
     5
176
     1
170
     0
176
     1
171
     0
176
     1
290
     0
176
     1
 93
        1
176
     1
 44
0.0
176
     1
173
     0
176
     1
  0
VISUALSTYLE
  5
34
102
{ACAD_REACTORS
330
2A
102
}
330
2A
100
AcDbVisualStyle
  2
Conceptual
 70
     9
177
     2
291
     0
 71
     3
176
     1
 72
     2
176
     1
 73
     0
176
     1
 90
        0
176
     1
 40
-0.6
176
     1
 41
-30.0
176
     1
 62
     5
 63
     7
421
 16777215
176
     1
 74
     2
176
     1
 91
        2
176
     1
 64
     7
176
     1
 65
   257
176
     1
 75
     1
176
     1
175
     1
176
     1
 42
40.0
176
     1
 92
        8
176
     1
 66
     7
176
     1
 43
1.0
176
     1
 76
     1
176
     1
 77
     6
176
     1
 78
     2
176
     1
 67
     7
176
     1
 79
     3
176
     1
170
     0
176
     1
171
     0
176
     1
290
     0
176
     1
 93
        1
176
     1
 44
0.0
176
     1
173
     0
176
     1
  0
VISUALSTYLE
  5
35
102
{ACAD_REACTORS
330
2A
102
}
330
2A
100
AcDbVisualStyle
  2
Dim
 70
    11
177
     2
291
     1
 71
     2
176
     1
 72
     2
176
     1
 73
     0
176
     1
 90
        0
176
     1
 40
-0.6
176
     1
 41
-30.0
176
     1
 62
     5
 63
     7
421
 16777215
176
     1
 74
     1
176
     1
 91
        4
176
     1
 64
     7
176
     1
 65
   257
176
     1
 75
     1
176
     1
175
     1
176
     1
 42
1.0
176
     1
 92
        8
176
     1
 66
     7
176
     1
 43
1.0
176
     1
 76
     1
176
     1
 77
     6
176
     1
 78
     2
176
     1
 67
     7
176
     1
 79
     5
176
     1
170
     0
176
     1
171
     0
176
     1
290
     0
176
     1
 93
        1
176
     1
 44
-50.0
176
     1
173
     0
176
     1
  0
VISUALSTYLE
  5
39
102
{ACAD_REACTORS
330
2A
102
}
330
2A
100
AcDbVisualStyle
  2
Facepattern
 70
    15
177
     2
291
     1
 71
     2
176
     1
 72
     2
176
     1
 73
     0
176
     1
 90
        0
176
     1
 40
-0.6
176
     1
 41
-30.0
176
     1
 62
     5
 63
     7
421
 16777215
176
     1
 74
     1
176
     1
 91
        4
176
     1
 64
     7
176
     1
 65
   257
176
     1
 75
     1
176
     1
175
     1
176
     1
 42
1.0
176
     1
 92
        8
176
     1
 66
     7
176
     1
 43
1.0
176
     1
 76
     1
176
     1
 77
     6
176
     1
 78
     2
176
     1
 67
     7
176
     1
 79
     5
176
     1
170
     0
176
     1
171
     0
176
     1
290
     0
176
     1
 93
        1
176
     1
 44
0.0
176
     1
173
     0
176
     1
  0
VISUALSTYLE
  5
2B
102
{ACAD_REACTORS
330
2A
102
}
330
2A
100
AcDbVisualStyle
  2
Flat
 70
     0
177
     2
291
     1
 71
     2
176
     1
 72
     1
176
     1
 73
     1
176
     1
 90
        2
176
     1
 40
-0.6
176
     1
 41
30.0
176
     1
 62
     5
 63
     7
421
 16777215
176
     1
 74
     0
176
     1
 91
        4
176
     1
 64
     7
176
     1
 65
   257
176
     1
 75
     1
176
     1
175
     1
176
     1
 42
1.0
176
     1
 92
        8
176
     1
 66
     7
176
     1
 43
1.0
176
     1
 76
     1
176
     1
 77
     6
176
     1
 78
     2
176
     1
 67
     7
176
     1
 79
     5
176
     1
170
     0
176
     1
171
     0
176
     1
290
     0
176
     1
 93
       13
176
     1
 44
0.0
176
     1
173
     0
176
     1
  0
VISUALSTYLE
  5
2C
102
{ACAD_REACTORS
330
2A
102
}
330
2A
100
AcDbVisualStyle
  2
FlatWithEdges
 70
     1
177
     2
291
     1
 71
     2
176
     1
 72
     1
176
     1
 73
     1
176
     1
 90
        2
176
     1
 40
-0.6
176
     1
 41
30.0
176
     1
 62
     5
 63
     7
421
 16777215
176
     1
 74
     1
176
     1
 91
        4
176
     1
 64
     7
176
     1
 65
   257
176
     1
 75
     1
176
     1
175
     1
176
     1
 42
1.0
176
     1
 92
        0
176
     1
 66
   257
176
     1
 43
1.0
176
     1
 76
     1
176
     1
 77
     6
176
     1
 78
     2
176
     1
 67
     7
176
     1
 79
     5
176
     1
170
     0
176
     1
171
     0
176
     1
290
     0
176
     1
 93
       13
176
     1
 44
0.0
176
     1
173
     0
176
     1
  0
VISUALSTYLE
  5
2D
102
{ACAD_REACTORS
330
2A
102
}
330
2A
100
AcDbVisualStyle
  2
Gouraud
 70
     2
177
     2
291
     1
 71
     2
176
     1
 72
     2
176
     1
 73
     1
176
     1
 90
        2
176
     1
 40
-0.6
176
     1
 41
30.0
176
     1
 62
     5
 63
     7
421
 16777215
176
     1
 74
     0
176
     1
 91
        4
176
     1
 64
     7
176
     1
 65
   257
176
     1
 75
     1
176
     1
175
     1
176
     1
 42
1.0
176
     1
 92
        0
176
     1
 66
     7
176
     1
 43
1.0
176
     1
 76
     1
176
     1
 77
     6
176
     1
 78
     2
176
     1
 67
     7
176
     1
 79
     5
176
     1
170
     0
176
     1
171
     0
176
     1
290
     0
176
     1
 93
       13
176
     1
 44
0.0
176
     1
173
     0
176
     1
  0
VISUALSTYLE
  5
2E
102
{ACAD_REACTORS
330
2A
102
}
330
2A
100
AcDbVisualStyle
  2
GouraudWithEdges
 70
     3
177
     2
291
     1
 71
     2
176
     1
 72
     2
176
     1
 73
     1
176
     1
 90
        2
176
     1
 40
-0.6
176
     1
 41
30.0
176
     1
 62
     5
 63
     7
421
 16777215
176
     1
 74
     1
176
     1
 91
        4
176
     1
 64
     7
176
     1
 65
   257
176
     1
 75
     1
176
     1
175
     1
176
     1
 42
1.0
176
     1
 92
        0
176
     1
 66
   257
176
     1
 43
1.0
176
     1
 76
     1
176
     1
 77
     6
176
     1
 78
     2
176
     1
 67
     7
176
     1
 79
     5
176
     1
170
     0
176
     1
171
     0
176
     1
290
     0
176
     1
 93
       13
176
     1
 44
0.0
176
     1
173
     0
176
     1
  0
VISUALSTYLE
  5
38
102
{ACAD_REACTORS
330
2A
102
}
330
2A
100
AcDbVisualStyle
  2
Linepattern
 70
    14
177
     2
291
     1
 71
     2
176
     1
 72
     2
176
     1
 73
     0
176
     1
 90
        0
176
     1
 40
-0.6
176
     1
 41
-30.0
176
     1
 62
     5
 63
     7
421
 16777215
176
     1
 74
     1
176
     1
 91
        4
176
     1
 64
     7
176
     1
 65
   257
176
     1
 75
     7
176
     1
175
     7
176
     1
 42
1.0
176
     1
 92
        8
176
     1
 66
     7
176
     1
 43
1.0
176
     1
 76
     1
176
     1
 77
     6
176
     1
 78
     2
176
     1
 67
     7
176
     1
 79
     5
176
     1
170
     0
176
     1
171
     0
176
     1
290
     0
176
     1
 93
        1
176
     1
 44
0.0
176
     1
173
     0
176
     1
  0
VISUALSTYLE
  5
33
102
{ACAD_REACTORS
330
2A
102
}
330
2A
100
AcDbVisualStyle
  2
Realistic
 70
     8
177
     2
291
     0
 71
     2
176
     1
 72
     2
176
     1
 73
     0
176
     1
 90
        0
176
     1
 40
-0.6
176
     1
 41
-30.0
176
     1
 62
     5
 63
     7
421
 16777215
176
     1
 74
     1
176
     1
 91
        0
176
     1
 64
     7
176
     1
 65
   257
176
     1
 75
     1
176
     1
175
     1
176
     1
 42
1.0
176
     1
 92
        8
176
     1
 66
     8
424
  7895160
176
     1
 43
1.0
176
     1
 76
     1
176
     1
 77
     6
176
     1
 78
     2
176
     1
 67
     7
176
     1
 79
     5
176
     1
170
     0
176
     1
171
     0
176
     1
290
     0
176
     1
 93
       13
176
     1
 44
0.0
176
     1
173
     0
176
     1
  0
VISUALSTYLE
  5
37
102
{ACAD_REACTORS
330
2A
102
}
330
2A
100
AcDbVisualStyle
  2
Thicken
 70
    13
177
     2
291
     1
 71
     2
176
     1
 72
     2
176
     1
 73
     0
176
     1
 90
        0
176
     1
 40
-0.6
176
     1
 41
-30.0
176
     1
 62
     5
 63
     7
421
 16777215
176
     1
 74
     1
176
     1
 91
        4
176
     1
 64
     7
176
     1
 65
   257
176
     1
 75
     1
176
     1
175
     1
176
     1
 42
1.0
176
     1
 92
       12
176
     1
 66
     7
176
     1
 43
1.0
176
     1
 76
     1
176
     1
 77
     6
176
     1
 78
     2
176
     1
 67
     7
176
     1
 79
     5
176
     1
170
     0
176
     1
171
     0
176
     1
290
     0
176
     1
 93
        1
176
     1
 44
0.0
176
     1
173
     0
176
     1
  0
ENDSEC
  0
EOF
