  0
SECTION
  2
HEADER
  9
$ACADVER
  1
AC1024
  9
$ACADMAINTVER
 70
     6
  9
$DWGCODEPAGE
  3
ANSI_932
  9
$INSBASE
 10
0.0
 20
0.0
 30
0.0
  9
$EXTMIN
 10
-4200.0
 20
-2970.0
 30
0.0
  9
$EXTMAX
 10
4200.0
 20
2970.0
 30
0.0
  9
$LIMMIN
 10
-4200.0
 20
-2970.0
  9
$LIMMAX
 10
4200.0
 20
2970.0
  9
$ORTHOMODE
 70
     0
  9
$REGENMODE
 70
     1
  9
$FILLMODE
 70
     1
  9
$QTEXTMODE
 70
     0
  9
$MIRRTEXT
 70
     1
  9
$LTSCALE
 40
20.0
  9
$ATTMODE
 70
     1
  9
$TEXTSIZE
 40
2.5
  9
$TRACEWID
 40
1.0
  9
$TEXTSTYLE
  7
Standard
  9
$CLAYER
  8
0
  9
$CELTYPE
  6
ByLayer
  9
$CECOLOR
 62
   256
  9
$CELTSCALE
 40
1.0
  9
$DISPSILH
 70
     0
  9
$DIMSCALE
 40
1.0
  9
$DIMASZ
 40
2.5
  9
$DIMEXO
 40
0.625
  9
$DIMDLI
 40
3.75
  9
$DIMRND
 40
0.0
  9
$DIMDLE
 40
0.0
  9
$DIMEXE
 40
1.25
  9
$DIMTP
 40
0.0
  9
$DIMTM
 40
0.0
  9
$DIMTXT
 40
2.5
  9
$DIMCEN
 40
2.5
  9
$DIMTSZ
 40
0.0
  9
$DIMTOL
 70
     0
  9
$DIMLIM
 70
     0
  9
$DIMTIH
 70
     0
  9
$DIMTOH
 70
     0
  9
$DIMSE1
 70
     0
  9
$DIMSE2
 70
     0
  9
$DIMTAD
 70
     1
  9
$DIMZIN
 70
     8
  9
$DIMBLK
  1

  9
$DIMASO
 70
     1
  9
$DIMSHO
 70
     1
  9
$DIMPOST
  1

  9
$DIMAPOST
  1

  9
$DIMALT
 70
     0
  9
$DIMALTD
 70
     3
  9
$DIMALTF
 40
0.03937007874016
  9
$DIMLFAC
 40
1.0
  9
$DIMTOFL
 70
     1
  9
$DIMTVP
 40
0.0
  9
$DIMTIX
 70
     0
  9
$DIMSOXD
 70
     0
  9
$DIMSAH
 70
     0
  9
$DIMBLK1
  1

  9
$DIMBLK2
  1

  9
$DIMSTYLE
  2
ISO-25
  9
$DIMCLRD
 70
     0
  9
$DIMCLRE
 70
     0
  9
$DIMCLRT
 70
     0
  9
$DIMTFAC
 40
1.0
  9
$DIMGAP
 40
0.625
  9
$DIMJUST
 70
     0
  9
$DIMSD1
 70
     0
  9
$DIMSD2
 70
     0
  9
$DIMTOLJ
 70
     0
  9
$DIMTZIN
 70
     8
  9
$DIMALTZ
 70
     0
  9
$DIMALTTZ
 70
     0
  9
$DIMUPT
 70
     0
  9
$DIMDEC
 70
     2
  9
$DIMTDEC
 70
     2
  9
$DIMALTU
 70
     2
  9
$DIMALTTD
 70
     3
  9
$DIMTXSTY
  7
Standard
  9
$DIMAUNIT
 70
     0
  9
$DIMADEC
 70
     0
  9
$DIMALTRND
 40
0.0
  9
$DIMAZIN
 70
     0
  9
$DIMDSEP
 70
    44
  9
$DIMATFIT
 70
     3
  9
$DIMFRAC
 70
     0
  9
$DIMLDRBLK
  1

  9
$DIMLUNIT
 70
     2
  9
$DIMLWD
 70
    -2
  9
$DIMLWE
 70
    -2
  9
$DIMTMOVE
 70
     0
  9
$DIMFXL
 40
1.0
  9
$DIMFXLON
 70
     0
  9
$DIMJOGANG
 40
0.7853981633974483
  9
$DIMTFILL
 70
     0
  9
$DIMTFILLCLR
 70
     0
  9
$DIMARCSYM
 70
     0
  9
$DIMLTYPE
  6

  9
$DIMLTEX1
  6

  9
$DIMLTEX2
  6

  9
$DIMTXTDIRECTION
 70
     0
  9
$LUNITS
 70
     2
  9
$LUPREC
 70
     4
  9
$SKETCHINC
 40
1.0
  9
$FILLETRAD
 40
10.0
  9
$AUNITS
 70
     0
  9
$AUPREC
 70
     0
  9
$MENU
  1
.
  9
$ELEVATION
 40
0.0
  9
$PELEVATION
 40
0.0
  9
$THICKNESS
 40
0.0
  9
$LIMCHECK
 70
     0
  9
$CHAMFERA
 40
10.0
  9
$CHAMFERB
 40
10.0
  9
$CHAMFERC
 40
20.0
  9
$CHAMFERD
 40
0.0
  9
$SKPOLY
 70
     0
  9
$TDCREATE
 40
2460350.651093912
  9
$TDUCREATE
 40
2460350.276093912
  9
$TDUPDATE
 40
2460350.651093923
  9
$TDUUPDATE
 40
2460350.276093923
  9
$TDINDWG
 40
0.0000000116
  9
$TDUSRTIMER
 40
0.0000000116
  9
$USRTIMER
 70
     1
  9
$ANGBASE
 50
0.0
  9
$ANGDIR
 70
     0
  9
$PDMODE
 70
     0
  9
$PDSIZE
 40
0.0
  9
$PLINEWID
 40
0.0
  9
$SPLFRAME
 70
     0
  9
$SPLINETYPE
 70
     6
  9
$SPLINESEGS
 70
     8
  9
$HANDSEED
  5
38E
  9
$SURFTAB1
 70
     6
  9
$SURFTAB2
 70
     6
  9
$SURFTYPE
 70
     6
  9
$SURFU
 70
     6
  9
$SURFV
 70
     6
  9
$UCSBASE
  2

  9
$UCSNAME
  2

  9
$UCSORG
 10
0.0
 20
0.0
 30
0.0
  9
$UCSXDIR
 10
1.0
 20
0.0
 30
0.0
  9
$UCSYDIR
 10
0.0
 20
1.0
 30
0.0
  9
$UCSORTHOREF
  2

  9
$UCSORTHOVIEW
 70
     0
  9
$UCSORGTOP
 10
0.0
 20
0.0
 30
0.0
  9
$UCSORGBOTTOM
 10
0.0
 20
0.0
 30
0.0
  9
$UCSORGLEFT
 10
0.0
 20
0.0
 30
0.0
  9
$UCSORGRIGHT
 10
0.0
 20
0.0
 30
0.0
  9
$UCSORGFRONT
 10
0.0
 20
0.0
 30
0.0
  9
$UCSORGBACK
 10
0.0
 20
0.0
 30
0.0
  9
$PUCSBASE
  2

  9
$PUCSNAME
  2

  9
$PUCSORG
 10
0.0
 20
0.0
 30
0.0
  9
$PUCSXDIR
 10
1.0
 20
0.0
 30
0.0
  9
$PUCSYDIR
 10
0.0
 20
1.0
 30
0.0
  9
$PUCSORTHOREF
  2

  9
$PUCSORTHOVIEW
 70
     0
  9
$PUCSORGTOP
 10
0.0
 20
0.0
 30
0.0
  9
$PUCSORGBOTTOM
 10
0.0
 20
0.0
 30
0.0
  9
$PUCSORGLEFT
 10
0.0
 20
0.0
 30
0.0
  9
$PUCSORGRIGHT
 10
0.0
 20
0.0
 30
0.0
  9
$PUCSORGFRONT
 10
0.0
 20
0.0
 30
0.0
  9
$PUCSORGBACK
 10
0.0
 20
0.0
 30
0.0
  9
$USERI1
 70
     0
  9
$USERI2
 70
     0
  9
$USERI3
 70
     0
  9
$USERI4
 70
     0
  9
$USERI5
 70
     0
  9
$USERR1
 40
0.0
  9
$USERR2
 40
0.0
  9
$USERR3
 40
0.0
  9
$USERR4
 40
0.0
  9
$USERR5
 40
0.0
  9
$WORLDVIEW
 70
     1
  9
$SHADEDGE
 70
     3
  9
$SHADEDIF
 70
    70
  9
$TILEMODE
 70
     1
  9
$MAXACTVP
 70
    64
  9
$PINSBASE
 10
0.0
 20
0.0
 30
0.0
  9
$PLIMCHECK
 70
     0
  9
$PEXTMIN
 10
1.000000000000000E+20
 20
1.000000000000000E+20
 30
1.000000000000000E+20
  9
$PEXTMAX
 10
-1.000000000000000E+20
 20
-1.000000000000000E+20
 30
-1.000000000000000E+20
  9
$PLIMMIN
 10
0.0
 20
0.0
  9
$PLIMMAX
 10
420.0
 20
297.0
  9
$UNITMODE
 70
     0
  9
$VISRETAIN
 70
     1
  9
$PLINEGEN
 70
     0
  9
$PSLTSCALE
 70
     1
  9
$TREEDEPTH
 70
  3020
  9
$CMLSTYLE
  2
Standard
  9
$CMLJUST
 70
     0
  9
$CMLSCALE
 40
20.0
  9
$PROXYGRAPHICS
 70
     1
  9
$MEASUREMENT
 70
     1
  9
$CELWEIGHT
370
    -1
  9
$ENDCAPS
280
     0
  9
$JOINSTYLE
280
     0
  9
$LWDISPLAY
290
     0
  9
$INSUNITS
 70
     4
  9
$HYPERLINKBASE
  1

  9
$STYLESHEET
  1

  9
$XEDIT
290
     1
  9
$CEPSNTYPE
380
     0
  9
$PSTYLEMODE
290
     1
  9
$FINGERPRINTGUID
  2
{2D667CD9-D8F2-4D0F-B774-5E48072C8781}
  9
$VERSIONGUID
  2
{FAEB1C32-E019-11D5-929B-00C0DF256EC4}
  9
$EXTNAMES
290
     1
  9
$PSVPSCALE
 40
0.0
  9
$OLESTARTUP
290
     0
  9
$SORTENTS
280
   127
  9
$INDEXCTL
280
     0
  9
$HIDETEXT
280
     1
  9
$XCLIPFRAME
280
     2
  9
$HALOGAP
280
     0
  9
$OBSCOLOR
 70
   257
  9
$OBSLTYPE
280
     0
  9
$INTERSECTIONDISPLAY
280
     0
  9
$INTERSECTIONCOLOR
 70
   257
  9
$DIMASSOC
280
     2
  9
$PROJECTNAME
  1

  9
$CAMERADISPLAY
290
     0
  9
$LENSLENGTH
 40
50.0
  9
$CAMERAHEIGHT
 40
0.0
  9
$STEPSPERSEC
 40
2.0
  9
$STEPSIZE
 40
6.0
  9
$3DDWFPREC
 40
2.0
  9
$PSOLWIDTH
 40
5.0
  9
$PSOLHEIGHT
 40
80.0
  9
$LOFTANG1
 40
1.570796326794897
  9
$LOFTANG2
 40
1.570796326794897
  9
$LOFTMAG1
 40
0.0
  9
$LOFTMAG2
 40
0.0
  9
$LOFTPARAM
 70
     7
  9
$LOFTNORMALS
280
     1
  9
$LATITUDE
 40
37.795
  9
$LONGITUDE
 40
-122.394
  9
$NORTHDIRECTION
 40
0.0
  9
$TIMEZONE
 70
 -8000
  9
$LIGHTGLYPHDISPLAY
280
     1
  9
$TILEMODELIGHTSYNCH
280
     1
  9
$SOLIDHIST
280
     1
  9
$SHOWHIST
280
     1
  9
$DWFFRAME
280
     2
  9
$DGNFRAME
280
     2
  9
$REALWORLDSCALE
290
     1
  9
$INTERFERECOLOR
 62
   256
  9
$CSHADOW
280
     0
  9
$SHADOWPLANELOCATION
 40
0.0
  0
ENDSEC
  0
SECTION
  2
CLASSES
  0
CLASS
  1
ACDBDICTIONARYWDFLT
  2
AcDbDictionaryWithDefault
  3
ObjectDBX Classes
 90
        0
 91
        4
280
     0
281
     0
  0
CLASS
  1
VISUALSTYLE
  2
AcDbVisualStyle
  3
ObjectDBX Classes
 90
     4095
 91
        4
280
     0
281
     0
  0
CLASS
  1
MATERIAL
  2
AcDbMaterial
  3
ObjectDBX Classes
 90
     1153
 91
        4
280
     0
281
     0
  0
ENDSEC
  0
SECTION
  2
TABLES
  0
TABLE
  2
VPORT
  5
8
330
0
100
AcDbSymbolTable
 70
     1
  0
VPORT
  5
29
330
8
100
AcDbSymbolTableRecord
100
AcDbViewportTableRecord
  2
*Active
 70
     0
 10
0.0
 20
0.0
 11
1.0
 21
1.0
 12
0.0
 22
0.0
 13
0.0
 23
0.0
 14
10.0
 24
10.0
 15
10.0
 25
10.0
 16
0.0
 26
0.0
 36
1.0
 17
0.0
 27
0.0
 37
0.0
 40
6534.000000000001
 41
1.414141414141414
 42
50.0
 43
0.0
 44
0.0
 50
0.0
 51
0.0
 71
     0
 72
 10000
 73
     1
 74
     3
 75
     0
 76
     0
 77
     0
 78
     0
281
     0
 65
     1
110
0.0
120
0.0
130
0.0
111
1.0
121
0.0
131
0.0
112
0.0
122
1.0
132
0.0
 79
     0
146
0.0
 60
     3
 61
     5
292
     1
282
     1
141
0.0
142
0.0
 63
   250
  0
ENDTAB
  0
TABLE
  2
LTYPE
  5
5
330
0
100
AcDbSymbolTable
 70
     5
  0
LTYPE
  5
14
330
5
100
AcDbSymbolTableRecord
100
AcDbLinetypeTableRecord
  2
ByBlock
 70
     0
  3

 72
    65
 73
     0
 40
0.0
  0
LTYPE
  5
15
330
5
100
AcDbSymbolTableRecord
100
AcDbLinetypeTableRecord
  2
ByLayer
 70
     0
  3

 72
    65
 73
     0
 40
0.0
  0
LTYPE
  5
16
330
5
100
AcDbSymbolTableRecord
100
AcDbLinetypeTableRecord
  2
Continuous
 70
     0
  3
Solid line
 72
    65
 73
     0
 40
0.0
  0
LTYPE
  5
3F
330
5
100
AcDbSymbolTableRecord
100
AcDbLinetypeTableRecord
  2
JWW_HOJO
 70
     0
  3
  -   -   -   -   -   -   -   - 
 72
    65
 73
     2
 40
1.693333333333333
 49
-1.27
 74
     0
 49
0.4233333333333333
 74
     0
  0
LTYPE
  5
40
330
5
100
AcDbSymbolTableRecord
100
AcDbLinetypeTableRecord
  2
JWW_DASHED2
 70
     0
  3
--    ----    ----    ----    --
 72
    65
 73
     2
 40
1.693333333333333
 49
0.8466666666666667
 74
     0
 49
-0.8466666666666667
 74
     0
  0
LTYPE
  5
41
330
5
100
AcDbSymbolTableRecord
100
AcDbLinetypeTableRecord
  2
JWW_CENTER1
 70
     0
  3
-----  --  ----------  --  -----
 72
    65
 73
     4
 40
3.386666666666667
 49
2.116666666666667
 74
     0
 49
-0.4233333333333333
 74
     0
 49
0.4233333333333333
 74
     0
 49
-0.4233333333333333
 74
     0
  0
LTYPE
  5
42
330
5
100
AcDbSymbolTableRecord
100
AcDbLinetypeTableRecord
  2
JWW_DASHED1
 70
     0
  3
-  --  --  --  --  --  --  --  -
 72
    65
 73
     2
 40
0.3386666666666667
 49
0.1693333333333333
 74
     0
 49
-0.1693333333333333
 74
     0
  0
ENDTAB
  0
TABLE
  2
LAYER
  5
2
330
0
100
AcDbSymbolTable
 70
    15
  0
LAYER
  5
10
330
2
100
AcDbSymbolTableRecord
100
AcDbLayerTableRecord
  2
0
 70
     0
 62
     7
  6
Continuous
370
    -3
390
F
347
3E
  0
LAYER
  5
43
330
2
100
AcDbSymbolTableRecord
100
AcDbLayerTableRecord
  2
F-0_補助線
 70
     0
 62
     7
  6
Continuous
370
    -3
390
F
347
3E
  0
LAYER
  5
44
330
2
100
AcDbSymbolTableRecord
100
AcDbLayerTableRecord
  2
枠
 70
     0
 62
     7
  6
Continuous
370
    -3
390
F
347
3E
  0
LAYER
  5
45
330
2
100
AcDbSymbolTableRecord
100
AcDbLayerTableRecord
  2
F-A_文字
 70
     0
 62
     7
  6
Continuous
370
    -3
390
F
347
3E
  0
LAYER
  5
46
330
2
100
AcDbSymbolTableRecord
100
AcDbLayerTableRecord
  2
0-A_文字
 70
     0
 62
     7
  6
Continuous
370
    -3
390
F
347
3E
  0
LAYER
  5
47
330
2
100
AcDbSymbolTableRecord
100
AcDbLayerTableRecord
  2
0-0_補助線
 70
     0
 62
     7
  6
Continuous
370
    -3
390
F
347
3E
  0
LAYER
  5
48
330
2
100
AcDbSymbolTableRecord
100
AcDbLayerTableRecord
  2
0-B_寸法
 70
     0
 62
     7
  6
Continuous
370
    -3
390
F
347
3E
  0
LAYER
  5
49
330
2
100
AcDbSymbolTableRecord
100
AcDbLayerTableRecord
  2
0-1_本体
 70
     0
 62
     7
  6
Continuous
370
    -3
390
F
347
3E
  0
LAYER
  5
4A
330
2
100
AcDbSymbolTableRecord
100
AcDbLayerTableRecord
  2
0-6_桟木
 70
     0
 62
     7
  6
Continuous
370
    -3
390
F
347
3E
  0
LAYER
  5
4B
330
2
100
AcDbSymbolTableRecord
100
AcDbLayerTableRecord
  2
0-4_棚
 70
     0
 62
     7
  6
Continuous
370
    -3
390
F
347
3E
  0
LAYER
  5
4C
330
2
100
AcDbSymbolTableRecord
100
AcDbLayerTableRecord
  2
0-2_扉
 70
     0
 62
     7
  6
Continuous
370
    -3
390
F
347
3E
  0
LAYER
  5
4D
330
2
100
AcDbSymbolTableRecord
100
AcDbLayerTableRecord
  2
0-3_扉仕上
 70
     0
 62
     7
  6
Continuous
370
    -3
390
F
347
3E
  0
LAYER
  5
4E
330
2
100
AcDbSymbolTableRecord
100
AcDbLayerTableRecord
  2
0-9__
 70
     0
 62
     7
  6
Continuous
370
    -3
390
F
347
3E
  0
LAYER
  5
4F
330
2
100
AcDbSymbolTableRecord
100
AcDbLayerTableRecord
  2
0-7__
 70
     0
 62
     7
  6
Continuous
370
    -3
390
F
347
3E
  0
LAYER
  5
50
330
2
100
AcDbSymbolTableRecord
100
AcDbLayerTableRecord
  2
0-5_ダボ
 70
     0
 62
     7
  6
Continuous
370
    -3
390
F
347
3E
  0
ENDTAB
  0
TABLE
  2
STYLE
  5
3
330
0
100
AcDbSymbolTable
 70
     1
  0
STYLE
  5
11
330
3
100
AcDbSymbolTableRecord
100
AcDbTextStyleTableRecord
  2
Standard
 70
     0
 40
0.0
 41
1.0
 50
0.0
 71
     0
 42
2.5
  3
txt
  4

  0
ENDTAB
  0
TABLE
  2
VIEW
  5
6
330
0
100
AcDbSymbolTable
 70
     0
  0
ENDTAB
  0
TABLE
  2
UCS
  5
7
330
0
100
AcDbSymbolTable
 70
     0
  0
ENDTAB
  0
TABLE
  2
APPID
  5
9
330
0
100
AcDbSymbolTable
 70
     1
  0
APPID
  5
12
330
9
100
AcDbSymbolTableRecord
100
AcDbRegAppTableRecord
  2
ACAD
 70
     0
  0
ENDTAB
  0
TABLE
  2
DIMSTYLE
  5
A
330
0
100
AcDbSymbolTable
 70
     1
100
AcDbDimStyleTable
  0
DIMSTYLE
105
27
330
A
100
AcDbSymbolTableRecord
100
AcDbDimStyleTableRecord
  2
ISO-25
 70
     0
 41
2.5
 42
0.625
 43
3.75
 44
1.25
 73
     0
 74
     0
 77
     1
 78
     8
140
2.5
141
2.5
143
0.03937007874016
147
0.625
171
     3
172
     1
178
     0
271
     2
272
     2
274
     3
278
    44
283
     0
284
     8
340
11
  0
ENDTAB
  0
TABLE
  2
BLOCK_RECORD
  5
1
330
0
100
AcDbSymbolTable
 70
     1
  0
BLOCK_RECORD
  5
1F
330
1
100
AcDbSymbolTableRecord
100
AcDbBlockTableRecord
  2
*Model_Space
340
22
 70
     0
280
     1
281
     0
  0
BLOCK_RECORD
  5
1B
330
1
100
AcDbSymbolTableRecord
100
AcDbBlockTableRecord
  2
*Paper_Space
340
1E
 70
     0
280
     1
281
     0
  0
BLOCK_RECORD
  5
23
330
1
100
AcDbSymbolTableRecord
100
AcDbBlockTableRecord
  2
*Paper_Space0
340
26
 70
     0
280
     1
281
     0
  0
ENDTAB
  0
ENDSEC
  0
SECTION
  2
BLOCKS
  0
BLOCK
  5
20
330
1F
100
AcDbEntity
  8
0
100
AcDbBlockBegin
  2
*Model_Space
 70
     0
 10
0.0
 20
0.0
 30
0.0
  3
*Model_Space
  1

  0
ENDBLK
  5
21
330
1F
100
AcDbEntity
  8
0
100
AcDbBlockEnd
  0
BLOCK
  5
1C
330
1B
100
AcDbEntity
 67
     1
  8
0
100
AcDbBlockBegin
  2
*Paper_Space
 70
     0
 10
0.0
 20
0.0
 30
0.0
  3
*Paper_Space
  1

  0
ENDBLK
  5
1D
330
1B
100
AcDbEntity
 67
     1
  8
0
100
AcDbBlockEnd
  0
BLOCK
  5
24
330
23
100
AcDbEntity
  8
0
100
AcDbBlockBegin
  2
*Paper_Space0
 70
     0
 10
0.0
 20
0.0
 30
0.0
  3
*Paper_Space0
  1

  0
ENDBLK
  5
25
330
23
100
AcDbEntity
  8
0
100
AcDbBlockEnd
  0
ENDSEC
  0
SECTION
  2
ENTITIES
  0
LINE
  5
51
330
1F
100
AcDbEntity
  8
F-0_補助線
  6
JWW_HOJO
 62
   120
370
     5
100
AcDbLine
 10
-4093.387555624515
 20
-2970.0
 30
0.0
 11
-4093.387555624515
 21
2949.99973606419
 31
0.0
  0
LINE
  5
52
330
1F
100
AcDbEntity
  8
F-0_補助線
  6
JWW_HOJO
 62
   120
370
     5
100
AcDbLine
 10
-4093.387555624515
 20
2949.99973606419
 30
0.0
 11
4106.611784535958
 21
2949.99973606419
 31
0.0
  0
LINE
  5
53
330
1F
100
AcDbEntity
  8
F-0_補助線
  6
JWW_HOJO
 62
   120
370
     5
100
AcDbLine
 10
4106.611784535958
 20
2949.99973606419
 30
0.0
 11
4106.611784535958
 21
-2970.0
 31
0.0
  0
LINE
  5
54
330
1F
100
AcDbEntity
  8
F-0_補助線
  6
JWW_HOJO
 62
   120
370
     5
100
AcDbLine
 10
4106.611784535958
 20
-2970.0
 30
0.0
 11
-4093.387555624515
 21
-2970.0
 31
0.0
  0
LINE
  5
55
330
1F
100
AcDbEntity
  8
F-0_補助線
  6
JWW_HOJO
 62
     7
370
     9
100
AcDbLine
 10
673.2788361090155
 20
-2530.000002061998
 30
0.0
 11
673.2788361090155
 21
-2796.666672165329
 31
0.0
  0
LINE
  5
56
330
1F
100
AcDbEntity
  8
F-0_補助線
  6
JWW_HOJO
 62
     7
370
     9
100
AcDbLine
 10
339.945722722191
 20
-2530.000002061998
 30
0.0
 11
339.945722722191
 21
-2796.666672165329
 31
0.0
  0
LINE
  5
57
330
1F
100
AcDbEntity
  8
枠
  6
Continuous
 62
   200
370
    20
100
AcDbLine
 10
3906.611619576076
 20
2783.333179370777
 30
0.0
 11
3906.611619576076
 21
-2803.333443306588
 31
0.0
  0
LINE
  5
58
330
1F
100
AcDbEntity
  8
枠
  6
Continuous
 62
   200
370
    20
100
AcDbLine
 10
-3893.387545314522
 20
2783.333179370777
 30
0.0
 11
-3893.387545314522
 21
-2803.333443306588
 31
0.0
  0
LINE
  5
59
330
1F
100
AcDbEntity
  8
枠
  6
Continuous
 62
   200
370
    20
100
AcDbLine
 10
3906.611619576076
 20
-2803.333335051665
 30
0.0
 11
-3893.387390664634
 21
-2803.333335051665
 31
0.0
  0
LINE
  5
5A
330
1F
100
AcDbEntity
  8
枠
  6
Continuous
 62
   200
370
    20
100
AcDbLine
 10
-3886.720882428186
 20
2783.333179370777
 30
0.0
 11
-3886.720882428186
 21
-2803.333443306588
 31
0.0
  0
LINE
  5
5B
330
1F
100
AcDbEntity
  8
枠
  6
Continuous
 62
   200
370
    20
100
AcDbLine
 10
-3890.054206138861
 20
2783.333179370777
 30
0.0
 11
-3890.054206138861
 21
-2803.333443306588
 31
0.0
  0
LINE
  5
5C
330
1F
100
AcDbEntity
  8
枠
  6
Continuous
 62
   200
370
    20
100
AcDbLine
 10
3903.278110285536
 20
2783.333179370777
 30
0.0
 11
3903.278110285536
 21
-2803.333443306588
 31
0.0
  0
LINE
  5
5D
330
1F
100
AcDbEntity
  8
枠
  6
Continuous
 62
   200
370
    20
100
AcDbLine
 10
3899.945095874641
 20
2783.333179370777
 30
0.0
 11
3899.945095874641
 21
-2803.333443306588
 31
0.0
  0
LINE
  5
5E
330
1F
100
AcDbEntity
  8
枠
  6
Continuous
 62
   200
370
    20
100
AcDbLine
 10
3906.611619576076
 20
-2799.999995876003
 30
0.0
 11
-3893.387390664634
 21
-2799.999995876003
 31
0.0
  0
LINE
  5
5F
330
1F
100
AcDbEntity
  8
枠
  6
Continuous
 62
   200
370
    20
100
AcDbLine
 10
3906.611619576076
 20
-2796.666672165329
 30
0.0
 11
-3893.387390664634
 21
-2796.666672165329
 31
0.0
  0
LINE
  5
60
330
1F
100
AcDbEntity
  8
枠
  6
Continuous
 62
   200
370
    20
100
AcDbLine
 10
2899.945260834522
 20
-2530.000002061998
 30
0.0
 11
2899.945260834522
 21
-2796.666672165329
 31
0.0
  0
LINE
  5
61
330
1F
100
AcDbEntity
  8
枠
  6
Continuous
 62
   200
370
    20
100
AcDbLine
 10
1899.944930914759
 20
-2530.000002061998
 30
0.0
 11
1899.944930914759
 21
-2796.666672165329
 31
0.0
  0
LINE
  5
62
330
1F
100
AcDbEntity
  8
枠
  6
Continuous
 62
   200
370
    20
100
AcDbLine
 10
6.612361895544154
 20
-2530.000002061998
 30
0.0
 11
6.612361895544154
 21
-2796.666672165329
 31
0.0
  0
LINE
  5
63
330
1F
100
AcDbEntity
  8
枠
  6
Continuous
 62
   200
370
    20
100
AcDbLine
 10
6.612361895544154
 20
-2663.333290718697
 30
0.0
 11
3899.945095874641
 21
-2663.336909526103
 31
0.0
  0
LINE
  5
64
330
1F
100
AcDbEntity
  8
枠
  6
Continuous
 62
   200
370
    20
100
AcDbLine
 10
-3893.387390664634
 20
2783.333179370777
 30
0.0
 11
3906.611619576076
 21
2783.333179370777
 31
0.0
  0
LINE
  5
65
330
1F
100
AcDbEntity
  8
枠
  6
Continuous
 62
   200
370
    20
100
AcDbLine
 10
-3893.387390664634
 20
2776.666655669342
 30
0.0
 11
3906.611619576076
 21
2776.666655669342
 31
0.0
  0
LINE
  5
66
330
1F
100
AcDbEntity
  8
枠
  6
Continuous
 62
   200
370
    20
100
AcDbLine
 10
-3893.387390664634
 20
2779.999670080237
 30
0.0
 11
3906.611619576076
 21
2779.999670080237
 31
0.0
  0
LINE
  5
67
330
1F
100
AcDbEntity
  8
F-0_補助線
  6
JWW_HOJO
 62
     7
370
     9
100
AcDbLine
 10
-3886.720882428186
 20
-2663.333290718927
 30
0.0
 11
6.612361895544154
 21
-2663.333290718927
 31
0.0
  0
LINE
  5
68
330
1F
100
AcDbEntity
  8
F-0_補助線
  6
JWW_HOJO
 62
     7
370
     9
100
AcDbLine
 10
-3886.720882428186
 20
-2603.333290718927
 30
0.0
 11
6.612361895544154
 21
-2603.333290718927
 31
0.0
  0
LINE
  5
69
330
1F
100
AcDbEntity
  8
F-0_補助線
  6
JWW_HOJO
 62
     7
370
     9
100
AcDbLine
 10
-3886.720882428186
 20
-2723.333290718927
 30
0.0
 11
6.612361895544154
 21
-2723.333290718927
 31
0.0
  0
LINE
  5
6A
330
1F
100
AcDbEntity
  8
F-0_補助線
  6
JWW_HOJO
 62
     7
370
     9
100
AcDbLine
 10
6.612272045125565
 20
-2759.999826518655
 30
0.0
 11
3899.945006024222
 21
-2760.003445326061
 31
0.0
  0
LINE
  5
6B
330
1F
100
AcDbEntity
  8
F-0_補助線
  6
JWW_HOJO
 62
     7
370
     9
100
AcDbLine
 10
6.612327814426635
 20
-2699.999826518681
 30
0.0
 11
3899.945061793523
 21
-2700.003445326087
 31
0.0
  0
LINE
  5
6C
330
1F
100
AcDbEntity
  8
F-0_補助線
  6
JWW_HOJO
 62
     7
370
     9
100
AcDbLine
 10
6.612395976906669
 20
-2626.666491478713
 30
0.0
 11
3899.945129956002
 21
-2626.670110286119
 31
0.0
  0
LINE
  5
6D
330
1F
100
AcDbEntity
  8
F-0_補助線
  6
JWW_HOJO
 62
     7
370
     9
100
AcDbLine
 10
6.612451746207739
 20
-2566.66649147874
 30
0.0
 11
3899.945185725303
 21
-2566.670110286145
 31
0.0
  0
LINE
  5
6E
330
1F
100
AcDbEntity
  8
F-0_補助線
  6
JWW_HOJO
 62
     7
370
     9
100
AcDbLine
 10
1959.944930914759
 20
-2530.000002061998
 30
0.0
 11
1959.944930914759
 21
-2796.666672165329
 31
0.0
  0
LINE
  5
6F
330
1F
100
AcDbEntity
  8
F-0_補助線
  6
JWW_HOJO
 62
     7
370
     9
100
AcDbLine
 10
66.61236189554415
 20
-2530.000002061998
 30
0.0
 11
66.61236189554415
 21
-2796.666672165329
 31
0.0
  0
LINE
  5
70
330
1F
100
AcDbEntity
  8
F-0_補助線
  6
JWW_HOJO
 62
     7
370
     9
100
AcDbLine
 10
2959.945260834522
 20
-2530.000002061998
 30
0.0
 11
2959.945260834522
 21
-2796.666672165329
 31
0.0
  0
MTEXT
  5
71
330
1F
100
AcDbEntity
  8
F-A_文字
  6
Continuous
 62
     7
370
     0
100
AcDbMText
 10
66.61236189554415
 20
-2591.426547247957
 30
0.0
 40
30.48
 41
120.0
 46
0.0
 71
     7
 72
     1
  1
{\fＭＳ ゴシック|b0|i0|c128|p49;図面名}
 73
     1
 44
1.0
  0
MTEXT
  5
72
330
1F
100
AcDbEntity
  8
F-A_文字
  6
Continuous
 62
     7
370
     0
100
AcDbMText
 10
1959.944930914759
 20
-2591.428307078516
 30
0.0
 40
30.48
 41
200.0
 46
0.0
 71
     7
 72
     1
  1
{\fＭＳ ゴシック|b0|i0|c128|p49;ＳＣＡＬＥ}
 73
     1
 44
1.0
  0
MTEXT
  5
73
330
1F
100
AcDbEntity
  8
F-A_文字
  6
Continuous
 62
     7
370
     0
100
AcDbMText
 10
2959.945260834522
 20
-2591.429236567169
 30
0.0
 40
30.48
 41
160.0
 46
0.0
 71
     7
 72
     1
  1
{\fＭＳ ゴシック|b0|i0|c128|p49;ＤＡＴＥ}
 73
     1
 44
1.0
  0
MTEXT
  5
74
330
1F
100
AcDbEntity
  8
F-A_文字
  6
Continuous
 62
     7
370
     0
100
AcDbMText
 10
893.5575789779642
 20
-2630.949274399892
 30
0.0
 40
51.435
 41
270.0
 46
0.0
 71
     7
 72
     1
  1
{\fＭＳ ゴシック|b0|i0|c128|p49;玄関収納}
 73
     1
 44
1.0
  0
MTEXT
  5
75
330
1F
100
AcDbEntity
  8
F-A_文字
  6
Continuous
 62
     7
370
     0
100
AcDbMText
 10
339.945722722191
 20
-2634.331527915002
 30
0.0
 40
45.72
 41
240.0
 46
0.0
 71
     7
 72
     1
  1
{\fＭＳ ゴシック|b0|i0|c128|p49;DOORETUS}
 73
     1
 44
1.0
  0
LINE
  5
76
330
1F
100
AcDbEntity
  8
枠
  6
Continuous
 62
   200
370
    20
100
AcDbLine
 10
3906.611619576076
 20
-2530.000002061998
 30
0.0
 11
-3893.387390664634
 21
-2530.000002061998
 31
0.0
  0
LINE
  5
77
330
1F
100
AcDbEntity
  8
枠
  6
Continuous
 62
   200
370
    20
100
AcDbLine
 10
3906.611619576076
 20
-2526.666678351325
 30
0.0
 11
-3893.387390664634
 21
-2526.666678351325
 31
0.0
  0
LINE
  5
78
330
1F
100
AcDbEntity
  8
F-0_補助線
  6
JWW_HOJO
 62
     7
370
     9
100
AcDbLine
 10
-3391.752473459741
 20
-2530.000002061999
 30
0.0
 11
-3391.752473459741
 21
-2803.333443306588
 31
0.0
  0
LINE
  5
79
330
1F
100
AcDbEntity
  8
F-0_補助線
  6
JWW_HOJO
 62
     7
370
     9
100
AcDbLine
 10
-33.38763810445585
 20
-2530.000002061998
 30
0.0
 11
-33.38763810445585
 21
-2796.666672165329
 31
0.0
  0
MTEXT
  5
7A
330
1F
100
AcDbEntity
  8
F-A_文字
  6
Continuous
 62
     7
370
     0
100
AcDbMText
 10
1959.944930914759
 20
-2724.761642118573
 30
0.0
 40
30.48
 41
160.0
 46
0.0
 71
     7
 72
     1
  1
{\fＭＳ ゴシック|b0|i0|c128|p49;ＦＩＬＥ}
 73
     1
 44
1.0
  0
MTEXT
  5
7B
330
1F
100
AcDbEntity
  8
F-A_文字
  6
Continuous
 62
     7
370
     0
100
AcDbMText
 10
2959.945260834522
 20
-2724.762571607227
 30
0.0
 40
30.48
 41
120.0
 46
0.0
 71
     7
 72
     1
  1
{\fＭＳ ゴシック|b0|i0|c128|p49;ＮＯ．}
 73
     1
 44
1.0
  0
MTEXT
  5
7C
330
1F
100
AcDbEntity
  8
F-A_文字
  6
Continuous
 62
     7
370
     0
100
AcDbMText
 10
929.9449309147587
 20
-2730.760446177432
 30
0.0
 40
30.48
 41
80.0
 46
0.0
 71
     7
 72
     1
  1
{\fＭＳ ゴシック|b0|i0|c128|p49;株式}
 73
     1
 44
1.0
  0
MTEXT
  5
7D
330
1F
100
AcDbEntity
  8
F-A_文字
  6
Continuous
 62
     7
370
     0
100
AcDbMText
 10
1069.944930914759
 20
-2776.187836349286
 30
0.0
 40
67.62750000000003
 41
710.0000000000002
 46
0.0
 71
     7
 72
     1
  1
{\fＭＳ ゴシック|b0|i0|c128|p49;ウッドワン・・・}
 73
     1
 44
1.0
  0
MTEXT
  5
7E
330
1F
100
AcDbEntity
  8
F-A_文字
  6
Continuous
 62
     7
370
     0
100
AcDbMText
 10
929.9449309147587
 20
-2778.760446177458
 30
0.0
 40
30.48
 41
80.0
 46
0.0
 71
     7
 72
     1
  1
{\fＭＳ ゴシック|b0|i0|c128|p49;会社}
 73
     1
 44
1.0
  0
MTEXT
  5
7F
330
1F
100
AcDbEntity
  8
F-A_文字
  6
Continuous
 62
     7
370
     0
100
AcDbMText
 10
3845.547985115293
 20
-2876.560946013945
 30
0.0
 40
45.72
 41
60.0
 46
0.0
 71
     7
 72
     1
  1
{\fＭＳ ゴシック|b0|i0|c128|p49;）}
 73
     1
 44
1.0
  0
MTEXT
  5
80
330
1F
100
AcDbEntity
  8
F-A_文字
  6
Continuous
 62
     7
370
     0
100
AcDbMText
 10
3566.743078270199
 20
-2877.490295913237
 30
0.0
 40
45.72
 41
30.0
 46
0.0
 71
     7
 72
     1
  1
{\fＭＳ ゴシック|b0|i0|c128|p49;,}
 73
     1
 44
1.0
  0
MTEXT
  5
81
330
1F
100
AcDbEntity
  8
F-A_文字
  6
Continuous
 62
     7
370
     0
100
AcDbMText
 10
3389.2372856524
 20
-2876.514644858855
 30
0.0
 40
49.53
 41
65.0
 46
0.0
 71
     7
 72
     1
  1
{\fＭＳ ゴシック|b0|i0|c128|p49;$y}
 73
     1
 44
1.0
  0
MTEXT
  5
82
330
1F
100
AcDbEntity
  8
F-A_文字
  6
Continuous
 62
     7
370
     0
100
AcDbMText
 10
3492.395099678281
 20
-2876.514644858855
 30
0.0
 40
49.53
 41
65.0
 46
0.0
 71
     7
 72
     1
  1
{\fＭＳ ゴシック|b0|i0|c128|p49;$m}
 73
     1
 44
1.0
  0
MTEXT
  5
83
330
1F
100
AcDbEntity
  8
F-A_文字
  6
Continuous
 62
     7
370
     0
100
AcDbMText
 10
3595.552921333554
 20
-2876.514644858855
 30
0.0
 40
49.53
 41
65.0
 46
0.0
 71
     7
 72
     1
  1
{\fＭＳ ゴシック|b0|i0|c128|p49;$d}
 73
     1
 44
1.0
  0
MTEXT
  5
84
330
1F
100
AcDbEntity
  8
F-A_文字
  6
Continuous
 62
     7
370
     0
100
AcDbMText
 10
3698.710742988826
 20
-2876.514644858855
 30
0.0
 40
49.53
 41
130.0
 46
0.0
 71
     7
 72
     1
  1
{\fＭＳ ゴシック|b0|i0|c128|p49;印刷}
 73
     1
 44
1.0
  0
MTEXT
  5
85
330
1F
100
AcDbEntity
  8
F-A_文字
  6
Continuous
 62
     7
370
     0
100
AcDbMText
 10
3295.968027210818
 20
-2879.348995711821
 30
0.0
 40
45.72
 41
60.0
 46
0.0
 71
     7
 72
     1
  1
{\fＭＳ ゴシック|b0|i0|c128|p49;（}
 73
     1
 44
1.0
  0
MTEXT
  5
86
330
1F
100
AcDbEntity
  8
F-A_文字
  6
Continuous
 62
     7
370
     0
100
AcDbMText
 10
3460.797206917048
 20
-2879.348995711821
 30
0.0
 40
45.72
 41
30.0
 46
0.0
 71
     7
 72
     1
  1
{\fＭＳ ゴシック|b0|i0|c128|p49;,}
 73
     1
 44
1.0
  0
MTEXT
  5
87
330
1F
100
AcDbEntity
  8
F-A_文字
  6
Continuous
 62
     7
370
     0
100
AcDbMText
 10
-3386.720882428186
 20
-2696.796974929453
 30
0.0
 40
53.07263157894736
 41
1985.0
 46
0.0
 71
     7
 72
     1
  1
{\fＭＳ ゴシック|b0|i0|c128|p49;ドレタス　玄関収納　組合せプラン　床置きタイプ　Ｂ-６０１}
 73
     1
 44
1.0
  0
LINE
  5
88
330
1F
100
AcDbEntity
  8
0-A_文字
  6
Continuous
 62
     7
370
     9
100
AcDbLine
 10
-3743.333074208851
 20
2486.666787637017
 30
0.0
 11
-3743.333074208851
 21
2636.666787637017
 31
0.0
  0
LINE
  5
89
330
1F
100
AcDbEntity
  8
0-A_文字
  6
Continuous
 62
     7
370
     9
100
AcDbLine
 10
-3743.333074208851
 20
2636.666787637017
 30
0.0
 11
-2563.109354348212
 21
2636.666787637017
 31
0.0
  0
LINE
  5
8A
330
1F
100
AcDbEntity
  8
0-A_文字
  6
Continuous
 62
     7
370
     9
100
AcDbLine
 10
-3743.333074208851
 20
2486.666787637017
 30
0.0
 11
-2563.109354348212
 21
2486.666787637017
 31
0.0
  0
LINE
  5
8B
330
1F
100
AcDbEntity
  8
0-A_文字
  6
Continuous
 62
     7
370
     9
100
AcDbLine
 10
-2563.109354348212
 20
2486.666787637017
 30
0.0
 11
-2563.109354348212
 21
2636.666787637017
 31
0.0
  0
MTEXT
  5
8C
330
1F
100
AcDbEntity
  8
0-A_文字
  6
Continuous
 62
     7
370
     9
100
AcDbMText
 10
-3403.221214278532
 20
2499.766787637016
 30
0.0
 40
76.2
 41
500.0
 46
0.0
 71
     7
 72
     1
  1
{\fＭＳ ゴシック|b0|i0|c128|p49;Ｂ－６０１}
 73
     1
 44
1.0
  0
LINE
  5
8D
330
1F
100
AcDbEntity
  8
0-0_補助線
  6
JWW_HOJO
 62
   120
370
     5
100
AcDbLine
 10
2952.945722722192
 20
-1563.792859581377
 30
0.0
 11
2952.945722722194
 21
-126.292859581377
 31
0.0
  0
LINE
  5
8E
330
1F
100
AcDbEntity
  8
0-0_補助線
  6
JWW_HOJO
 62
   120
370
     5
100
AcDbLine
 10
-3298.054277277809
 20
-126.292859581377
 30
0.0
 11
3102.945722722194
 21
-126.292859581377
 31
0.0
  0
LINE
  5
8F
330
1F
100
AcDbEntity
  8
0-0_補助線
  6
JWW_HOJO
 62
   120
370
     5
100
AcDbLine
 10
3102.945722722194
 20
-326.292859581377
 30
0.0
 11
-3298.054277277809
 21
-326.292859581377
 31
0.0
  0
LINE
  5
90
330
1F
100
AcDbEntity
  8
0-0_補助線
  6
JWW_HOJO
 62
   120
370
     5
100
AcDbLine
 10
-3298.054277277809
 20
-226.292859581377
 30
0.0
 11
3102.945722722194
 21
-226.292859581377
 31
0.0
  0
LINE
  5
91
330
1F
100
AcDbEntity
  8
0-0_補助線
  6
JWW_HOJO
 62
   120
370
     5
100
AcDbLine
 10
1186.945722675655
 20
-1563.792859581377
 30
0.0
 11
1186.945722675655
 21
-126.292859581377
 31
0.0
  0
LINE
  5
92
330
1F
100
AcDbEntity
  8
0-0_補助線
  6
JWW_HOJO
 62
   120
370
     5
100
AcDbLine
 10
-505.054277324349
 20
-1563.792859581377
 30
0.0
 11
-505.054277324349
 21
-126.292859581377
 31
0.0
  0
LINE
  5
93
330
1F
100
AcDbEntity
  8
0-0_補助線
  6
JWW_HOJO
 62
   120
370
     5
100
AcDbLine
 10
-705.054277324349
 20
-126.292859581377
 30
0.0
 11
-705.054277324349
 21
-1563.792859581377
 31
0.0
  0
LINE
  5
94
330
1F
100
AcDbEntity
  8
0-B_寸法
  6
Continuous
 62
   120
370
     5
100
AcDbLine
 10
1002.721152775143
 20
-487.2928595813784
 30
0.0
 11
1002.721152775143
 21
-423.2928595813783
 31
0.0
  0
LWPOLYLINE
  5
95
330
1F
100
AcDbEntity
  8
0-B_寸法
  6
Continuous
 62
     7
370
     9
100
AcDbPolyline
 90
        4
 70
     1
 43
2.0
 10
1003.721152775143
 20
-487.2928595813784
 42
0.4142135623731
 10
1002.721152775143
 20
-486.2928595813784
 42
0.4142135623731
 10
1001.721152775143
 20
-487.2928595813784
 42
0.4142135623731
 10
1002.721152775143
 20
-488.2928595813784
 42
0.4142135623731
  0
LWPOLYLINE
  5
96
330
1F
100
AcDbEntity
  8
0-B_寸法
  6
Continuous
 62
     7
370
     9
100
AcDbPolyline
 90
        4
 70
     1
 43
2.0
 10
1003.721152775143
 20
-423.2928595813783
 42
0.4142135623731
 10
1002.721152775143
 20
-422.2928595813783
 42
0.4142135623731
 10
1001.721152775143
 20
-423.2928595813783
 42
0.4142135623731
 10
1002.721152775143
 20
-424.2928595813783
 42
0.4142135623731
  0
LINE
  5
97
330
1F
100
AcDbEntity
  8
0-B_寸法
  6
Continuous
 62
   120
370
     5
100
AcDbLine
 10
1002.721152775143
 20
-487.2928595813784
 30
0.0
 11
999.7368035056741
 21
-487.2928595813784
 31
0.0
  0
LINE
  5
98
330
1F
100
AcDbEntity
  8
0-B_寸法
  6
Continuous
 62
   120
370
     5
100
AcDbLine
 10
1002.721152775143
 20
-423.2928595813783
 30
0.0
 11
999.7368035056741
 21
-423.2928595813783
 31
0.0
  0
MTEXT
  5
99
330
1F
100
AcDbEntity
  8
0-B_寸法
  6
Continuous
 62
     7
370
   211
100
AcDbMText
 10
992.7211527751433
 20
-492.4328595813779
 30
0.0
 40
45.72
 41
60.0
 46
0.0
 71
     7
 72
     1
  1
{\fＭＳ ゴシック|b0|i0|c128|p49;64}
 11
6.123031769111886E-17
 21
1.0
 31
0.0
 73
     1
 44
1.0
  0
LINE
  5
9A
330
1F
100
AcDbEntity
  8
0-B_寸法
  6
Continuous
 62
   120
370
     5
100
AcDbLine
 10
1002.721152775143
 20
-1154.292859581378
 30
0.0
 11
1002.721152775143
 21
-1090.292859581378
 31
0.0
  0
LWPOLYLINE
  5
9B
330
1F
100
AcDbEntity
  8
0-B_寸法
  6
Continuous
 62
     7
370
     9
100
AcDbPolyline
 90
        4
 70
     1
 43
2.0
 10
1003.721152775143
 20
-1154.292859581378
 42
0.4142135623731
 10
1002.721152775143
 20
-1153.292859581378
 42
0.4142135623731
 10
1001.721152775143
 20
-1154.292859581378
 42
0.4142135623731
 10
1002.721152775143
 20
-1155.292859581378
 42
0.4142135623731
  0
LWPOLYLINE
  5
9C
330
1F
100
AcDbEntity
  8
0-B_寸法
  6
Continuous
 62
     7
370
     9
100
AcDbPolyline
 90
        4
 70
     1
 43
2.0
 10
1003.721152775143
 20
-1090.292859581378
 42
0.4142135623731
 10
1002.721152775143
 20
-1089.292859581378
 42
0.4142135623731
 10
1001.721152775143
 20
-1090.292859581378
 42
0.4142135623731
 10
1002.721152775143
 20
-1091.292859581378
 42
0.4142135623731
  0
LINE
  5
9D
330
1F
100
AcDbEntity
  8
0-B_寸法
  6
Continuous
 62
   120
370
     5
100
AcDbLine
 10
1002.721152775143
 20
-1154.292859581378
 30
0.0
 11
999.7368035056741
 21
-1154.292859581378
 31
0.0
  0
LINE
  5
9E
330
1F
100
AcDbEntity
  8
0-B_寸法
  6
Continuous
 62
   120
370
     5
100
AcDbLine
 10
1002.721152775143
 20
-1090.292859581378
 30
0.0
 11
999.7368035056741
 21
-1090.292859581378
 31
0.0
  0
MTEXT
  5
9F
330
1F
100
AcDbEntity
  8
0-B_寸法
  6
Continuous
 62
     7
370
   211
100
AcDbMText
 10
992.7211527751433
 20
-1159.432859581377
 30
0.0
 40
45.72
 41
60.0
 46
0.0
 71
     7
 72
     1
  1
{\fＭＳ ゴシック|b0|i0|c128|p49;64}
 11
6.123031769111886E-17
 21
1.0
 31
0.0
 73
     1
 44
1.0
  0
LINE
  5
A0
330
1F
100
AcDbEntity
  8
0-B_寸法
  6
Continuous
 62
   120
370
     5
100
AcDbLine
 10
206.7211527751431
 20
-487.2928595813784
 30
0.0
 11
206.7211527751431
 21
-423.2928595813783
 31
0.0
  0
LWPOLYLINE
  5
A1
330
1F
100
AcDbEntity
  8
0-B_寸法
  6
Continuous
 62
     7
370
     9
100
AcDbPolyline
 90
        4
 70
     1
 43
2.0
 10
207.7211527751431
 20
-487.2928595813784
 42
0.4142135623731
 10
206.7211527751431
 20
-486.2928595813784
 42
0.4142135623731
 10
205.7211527751431
 20
-487.2928595813784
 42
0.4142135623731
 10
206.7211527751431
 20
-488.2928595813784
 42
0.4142135623731
  0
LWPOLYLINE
  5
A2
330
1F
100
AcDbEntity
  8
0-B_寸法
  6
Continuous
 62
     7
370
     9
100
AcDbPolyline
 90
        4
 70
     1
 43
2.0
 10
207.7211527751431
 20
-423.2928595813783
 42
0.4142135623731
 10
206.7211527751431
 20
-422.2928595813783
 42
0.4142135623731
 10
205.7211527751431
 20
-423.2928595813783
 42
0.4142135623731
 10
206.7211527751431
 20
-424.2928595813783
 42
0.4142135623731
  0
LINE
  5
A3
330
1F
100
AcDbEntity
  8
0-B_寸法
  6
Continuous
 62
   120
370
     5
100
AcDbLine
 10
206.7211527751431
 20
-487.2928595813784
 30
0.0
 11
203.7368035056738
 21
-487.2928595813784
 31
0.0
  0
LINE
  5
A4
330
1F
100
AcDbEntity
  8
0-B_寸法
  6
Continuous
 62
   120
370
     5
100
AcDbLine
 10
206.7211527751431
 20
-423.2928595813783
 30
0.0
 11
203.7368035056738
 21
-423.2928595813783
 31
0.0
  0
MTEXT
  5
A5
330
1F
100
AcDbEntity
  8
0-B_寸法
  6
Continuous
 62
     7
370
   211
100
AcDbMText
 10
196.7211527751431
 20
-492.4328595813779
 30
0.0
 40
45.72
 41
60.0
 46
0.0
 71
     7
 72
     1
  1
{\fＭＳ ゴシック|b0|i0|c128|p49;64}
 11
6.123031769111886E-17
 21
1.0
 31
0.0
 73
     1
 44
1.0
  0
LINE
  5
A6
330
1F
100
AcDbEntity
  8
0-B_寸法
  6
Continuous
 62
   120
370
     5
100
AcDbLine
 10
206.7211527751431
 20
-1154.292859581378
 30
0.0
 11
206.7211527751431
 21
-1090.292859581378
 31
0.0
  0
LWPOLYLINE
  5
A7
330
1F
100
AcDbEntity
  8
0-B_寸法
  6
Continuous
 62
     7
370
     9
100
AcDbPolyline
 90
        4
 70
     1
 43
2.0
 10
207.7211527751431
 20
-1154.292859581378
 42
0.4142135623731
 10
206.7211527751431
 20
-1153.292859581378
 42
0.4142135623731
 10
205.7211527751431
 20
-1154.292859581378
 42
0.4142135623731
 10
206.7211527751431
 20
-1155.292859581378
 42
0.4142135623731
  0
LWPOLYLINE
  5
A8
330
1F
100
AcDbEntity
  8
0-B_寸法
  6
Continuous
 62
     7
370
     9
100
AcDbPolyline
 90
        4
 70
     1
 43
2.0
 10
207.7211527751431
 20
-1090.292859581378
 42
0.4142135623731
 10
206.7211527751431
 20
-1089.292859581378
 42
0.4142135623731
 10
205.7211527751431
 20
-1090.292859581378
 42
0.4142135623731
 10
206.7211527751431
 20
-1091.292859581378
 42
0.4142135623731
  0
LINE
  5
A9
330
1F
100
AcDbEntity
  8
0-B_寸法
  6
Continuous
 62
   120
370
     5
100
AcDbLine
 10
206.7211527751431
 20
-1154.292859581378
 30
0.0
 11
203.7368035056738
 21
-1154.292859581378
 31
0.0
  0
LINE
  5
AA
330
1F
100
AcDbEntity
  8
0-B_寸法
  6
Continuous
 62
   120
370
     5
100
AcDbLine
 10
206.7211527751431
 20
-1090.292859581378
 30
0.0
 11
203.7368035056738
 21
-1090.292859581378
 31
0.0
  0
MTEXT
  5
AB
330
1F
100
AcDbEntity
  8
0-B_寸法
  6
Continuous
 62
     7
370
   211
100
AcDbMText
 10
196.7211527751431
 20
-1159.432859581377
 30
0.0
 40
45.72
 41
60.0
 46
0.0
 71
     7
 72
     1
  1
{\fＭＳ ゴシック|b0|i0|c128|p49;64}
 11
6.123031769111886E-17
 21
1.0
 31
0.0
 73
     1
 44
1.0
  0
MTEXT
  5
AC
330
1F
100
AcDbEntity
  8
0-B_寸法
  6
Continuous
 62
     7
370
   211
100
AcDbMText
 10
160.9457226756513
 20
-223.432859581377
 30
0.0
 40
45.71999999999998
 41
360.0
 46
0.0
 71
     7
 72
     1
  1
{\fＭＳ ゴシック|b0|i0|c128|p49;ｶｳﾝﾀｰ＝1,594}
 73
     1
 44
1.0
  0
LINE
  5
AD
330
1F
100
AcDbEntity
  8
0-B_寸法
  6
Continuous
 62
   120
370
     5
100
AcDbLine
 10
1137.945722768732
 20
-226.292859581377
 30
0.0
 11
1137.945722768732
 21
-326.292859581377
 31
0.0
  0
LINE
  5
AE
330
1F
100
AcDbEntity
  8
0-B_寸法
  6
Continuous
 62
   120
370
     5
100
AcDbLine
 10
-456.0542772312726
 20
-226.292859581377
 30
0.0
 11
-456.0542772312726
 21
-326.292859581377
 31
0.0
  0
LWPOLYLINE
  5
AF
330
1F
100
AcDbEntity
  8
0-B_寸法
  6
Continuous
 62
     7
370
     9
100
AcDbPolyline
 90
        4
 70
     1
 43
2.0
 10
1138.945722768732
 20
-226.292859581377
 42
0.4142135623731
 10
1137.945722768732
 20
-225.292859581377
 42
0.4142135623731
 10
1136.945722768732
 20
-226.292859581377
 42
0.4142135623731
 10
1137.945722768732
 20
-227.292859581377
 42
0.4142135623731
  0
LWPOLYLINE
  5
B0
330
1F
100
AcDbEntity
  8
0-B_寸法
  6
Continuous
 62
     7
370
     9
100
AcDbPolyline
 90
        4
 70
     1
 43
2.0
 10
-455.0542772312726
 20
-226.292859581377
 42
0.4142135623731
 10
-456.0542772312726
 20
-225.292859581377
 42
0.4142135623731
 10
-457.0542772312726
 20
-226.292859581377
 42
0.4142135623731
 10
-456.0542772312726
 20
-227.292859581377
 42
0.4142135623731
  0
LINE
  5
B1
330
1F
100
AcDbEntity
  8
0-B_寸法
  6
Continuous
 62
   120
370
     5
100
AcDbLine
 10
-456.0542772312726
 20
-226.292859581377
 30
0.0
 11
1137.945722768732
 21
-226.292859581377
 31
0.0
  0
LINE
  5
B2
330
1F
100
AcDbEntity
  8
0-1_本体
  6
Continuous
 62
    92
370
    13
100
AcDbLine
 10
340.9457226756513
 20
-1169.292859581378
 30
0.0
 11
340.9457226756513
 21
-408.2928595813775
 31
0.0
  0
LINE
  5
B3
330
1F
100
AcDbEntity
  8
0-1_本体
  6
Continuous
 62
    92
370
    13
100
AcDbLine
 10
355.9457226756535
 20
-423.2928595813775
 30
0.0
 11
1121.945722675654
 21
-423.2928595813775
 31
0.0
  0
LINE
  5
B4
330
1F
100
AcDbEntity
  8
0-6_桟木
  6
JWW_DASHED2
 62
     7
370
     9
100
AcDbLine
 10
1121.945722675654
 20
-487.2928595813784
 30
0.0
 11
355.9457226756535
 21
-487.2928595813784
 31
0.0
  0
LINE
  5
B5
330
1F
100
AcDbEntity
  8
0-1_本体
  6
Continuous
 62
    92
370
    13
100
AcDbLine
 10
355.9457226756535
 20
-408.2928595813775
 30
0.0
 11
355.9457226756535
 21
-1169.292859581378
 31
0.0
  0
LINE
  5
B6
330
1F
100
AcDbEntity
  8
0-1_本体
  6
Continuous
 62
    92
370
    13
100
AcDbLine
 10
1121.945722675654
 20
-1169.292859581378
 30
0.0
 11
1121.945722675654
 21
-408.2928595813775
 31
0.0
  0
LINE
  5
B7
330
1F
100
AcDbEntity
  8
0-1_本体
  6
Continuous
 62
    92
370
    13
100
AcDbLine
 10
1136.945722675654
 20
-1169.292859581378
 30
0.0
 11
1136.945722675654
 21
-408.2928595813775
 31
0.0
  0
LINE
  5
B8
330
1F
100
AcDbEntity
  8
0-4_棚
  6
Continuous
 62
    92
370
    13
100
AcDbLine
 10
355.9457226756535
 20
-946.3153675471926
 30
0.0
 11
1121.945722675654
 21
-946.3153675471926
 31
0.0
  0
LINE
  5
B9
330
1F
100
AcDbEntity
  8
0-4_棚
  6
Continuous
 62
    92
370
    13
100
AcDbLine
 10
355.9457226756535
 20
-934.3153675471927
 30
0.0
 11
1121.945722675654
 21
-934.3153675471927
 31
0.0
  0
LINE
  5
BA
330
1F
100
AcDbEntity
  8
0-4_棚
  6
Continuous
 62
    92
370
    13
100
AcDbLine
 10
355.9457226756535
 20
-754.3144685036333
 30
0.0
 11
1121.945722675654
 21
-754.3144685036333
 31
0.0
  0
LINE
  5
BB
330
1F
100
AcDbEntity
  8
0-4_棚
  6
Continuous
 62
    92
370
    13
100
AcDbLine
 10
355.9457226756535
 20
-742.314468503634
 30
0.0
 11
1121.945722675654
 21
-742.314468503634
 31
0.0
  0
LINE
  5
BC
330
1F
100
AcDbEntity
  8
0-4_棚
  6
Continuous
 62
    92
370
    13
100
AcDbLine
 10
355.9457226756535
 20
-562.3144685036332
 30
0.0
 11
1121.945722675654
 21
-562.3144685036332
 31
0.0
  0
LINE
  5
BD
330
1F
100
AcDbEntity
  8
0-4_棚
  6
Continuous
 62
    92
370
    13
100
AcDbLine
 10
355.9457226756535
 20
-550.3144685036332
 30
0.0
 11
1121.945722675654
 21
-550.3144685036332
 31
0.0
  0
LINE
  5
BE
330
1F
100
AcDbEntity
  8
0-6_桟木
  6
JWW_DASHED2
 62
     7
370
     9
100
AcDbLine
 10
1121.945722675654
 20
-1090.292859581377
 30
0.0
 11
355.9457226756535
 21
-1090.292859581377
 31
0.0
  0
LINE
  5
BF
330
1F
100
AcDbEntity
  8
0-1_本体
  6
Continuous
 62
    92
370
    13
100
AcDbLine
 10
355.9457226756535
 20
-1154.292859581378
 30
0.0
 11
1121.945722675654
 21
-1154.292859581378
 31
0.0
  0
LINE
  5
C0
330
1F
100
AcDbEntity
  8
0-1_本体
  6
Continuous
 62
    92
370
    13
100
AcDbLine
 10
340.9457226756535
 20
-1169.292859581378
 30
0.0
 11
1136.945722675654
 21
-1169.292859581378
 31
0.0
  0
MTEXT
  5
C1
330
1F
100
AcDbEntity
  8
0-B_寸法
  6
Continuous
 62
     7
370
   211
100
AcDbMText
 10
-615.054277324349
 20
-1169.814573591333
 30
0.0
 40
45.72
 41
60.0
 46
0.0
 71
     7
 72
     1
  1
{\fＭＳ ゴシック|b0|i0|c128|p49;15}
 11
6.123031769111886E-17
 21
1.0
 31
0.0
 73
     1
 44
1.0
  0
LWPOLYLINE
  5
C2
330
1F
100
AcDbEntity
  8
0-B_寸法
  6
Continuous
 62
     7
370
     9
100
AcDbPolyline
 90
        4
 70
     1
 43
2.0
 10
-604.054277324349
 20
-408.2928595813775
 42
0.4142135623731
 10
-605.054277324349
 20
-407.2928595813775
 42
0.4142135623731
 10
-606.054277324349
 20
-408.2928595813775
 42
0.4142135623731
 10
-605.054277324349
 20
-409.2928595813775
 42
0.4142135623731
  0
LINE
  5
C3
330
1F
100
AcDbEntity
  8
0-B_寸法
  6
Continuous
 62
   120
370
     5
100
AcDbLine
 10
-605.054277324349
 20
-423.2928595813775
 30
0.0
 11
-605.054277324349
 21
-408.2928595813775
 31
0.0
  0
MTEXT
  5
C4
330
1F
100
AcDbEntity
  8
0-B_寸法
  6
Continuous
 62
     7
370
   211
100
AcDbMText
 10
-615.054277324349
 20
-840.932859581377
 30
0.0
 40
45.72
 41
90.0
 46
0.0
 71
     7
 72
     1
  1
{\fＭＳ ゴシック|b0|i0|c128|p49;731}
 11
6.123031769111886E-17
 21
1.0
 31
0.0
 73
     1
 44
1.0
  0
LINE
  5
C5
330
1F
100
AcDbEntity
  8
0-B_寸法
  6
Continuous
 62
   120
370
     5
100
AcDbLine
 10
-605.054277324349
 20
-423.2928595813775
 30
0.0
 11
-505.054277324349
 21
-423.2928595813775
 31
0.0
  0
LWPOLYLINE
  5
C6
330
1F
100
AcDbEntity
  8
0-B_寸法
  6
Continuous
 62
     7
370
     9
100
AcDbPolyline
 90
        4
 70
     1
 43
2.0
 10
-604.054277324349
 20
-423.2928595813775
 42
0.4142135623731
 10
-605.054277324349
 20
-422.2928595813775
 42
0.4142135623731
 10
-606.054277324349
 20
-423.2928595813775
 42
0.4142135623731
 10
-605.054277324349
 20
-424.2928595813775
 42
0.4142135623731
  0
LINE
  5
C7
330
1F
100
AcDbEntity
  8
0-B_寸法
  6
Continuous
 62
   120
370
     5
100
AcDbLine
 10
-605.054277324349
 20
-1154.292859581378
 30
0.0
 11
-605.054277324349
 21
-423.2928595813775
 31
0.0
  0
LINE
  5
C8
330
1F
100
AcDbEntity
  8
0-B_寸法
  6
Continuous
 62
   120
370
     5
100
AcDbLine
 10
-605.054277324349
 20
-1154.292859581378
 30
0.0
 11
-505.054277324349
 21
-1154.292859581378
 31
0.0
  0
LINE
  5
C9
330
1F
100
AcDbEntity
  8
0-B_寸法
  6
Continuous
 62
   120
370
     5
100
AcDbLine
 10
-605.054277324349
 20
-1169.292859581378
 30
0.0
 11
-505.054277324349
 21
-1169.292859581378
 31
0.0
  0
LWPOLYLINE
  5
CA
330
1F
100
AcDbEntity
  8
0-B_寸法
  6
Continuous
 62
     7
370
     9
100
AcDbPolyline
 90
        4
 70
     1
 43
2.0
 10
-604.054277324349
 20
-1154.292859581378
 42
0.4142135623731
 10
-605.054277324349
 20
-1153.292859581378
 42
0.4142135623731
 10
-606.054277324349
 20
-1154.292859581378
 42
0.4142135623731
 10
-605.054277324349
 20
-1155.292859581378
 42
0.4142135623731
  0
LWPOLYLINE
  5
CB
330
1F
100
AcDbEntity
  8
0-B_寸法
  6
Continuous
 62
     7
370
     9
100
AcDbPolyline
 90
        4
 70
     1
 43
2.0
 10
-604.054277324349
 20
-1169.292859581378
 42
0.4142135623731
 10
-605.054277324349
 20
-1168.292859581378
 42
0.4142135623731
 10
-606.054277324349
 20
-1169.292859581378
 42
0.4142135623731
 10
-605.054277324349
 20
-1170.292859581378
 42
0.4142135623731
  0
LINE
  5
CC
330
1F
100
AcDbEntity
  8
0-B_寸法
  6
Continuous
 62
   120
370
     5
100
AcDbLine
 10
-605.054277324349
 20
-1169.292859581378
 30
0.0
 11
-605.054277324349
 21
-1154.292859581378
 31
0.0
  0
MTEXT
  5
CD
330
1F
100
AcDbEntity
  8
0-B_寸法
  6
Continuous
 62
     7
370
   211
100
AcDbMText
 10
-715.054277324349
 20
-840.9328793765633
 30
0.0
 40
45.72
 41
90.0
 46
0.0
 71
     7
 72
     1
  1
{\fＭＳ ゴシック|b0|i0|c128|p49;761}
 11
6.123031769111886E-17
 21
1.0
 31
0.0
 73
     1
 44
1.0
  0
LINE
  5
CE
330
1F
100
AcDbEntity
  8
0-1_本体
  6
Continuous
 62
    92
370
    13
100
AcDbLine
 10
-440.054277324349
 20
-423.2928595813775
 30
0.0
 11
325.9457226756513
 21
-423.2928595813775
 31
0.0
  0
LINE
  5
CF
330
1F
100
AcDbEntity
  8
0-6_桟木
  6
JWW_DASHED2
 62
     7
370
     9
100
AcDbLine
 10
325.9457226756513
 20
-487.2928595813784
 30
0.0
 11
-440.054277324349
 21
-487.2928595813784
 31
0.0
  0
LINE
  5
D0
330
1F
100
AcDbEntity
  8
0-1_本体
  6
Continuous
 62
    92
370
    13
100
AcDbLine
 10
-440.054277324349
 20
-408.2928595813775
 30
0.0
 11
-440.054277324349
 21
-1169.292859581378
 31
0.0
  0
LINE
  5
D1
330
1F
100
AcDbEntity
  8
0-1_本体
  6
Continuous
 62
    92
370
    13
100
AcDbLine
 10
325.9457226756513
 20
-1169.292859581378
 30
0.0
 11
325.9457226756513
 21
-408.2928595813775
 31
0.0
  0
LINE
  5
D2
330
1F
100
AcDbEntity
  8
0-1_本体
  6
Continuous
 62
    92
370
    13
100
AcDbLine
 10
-455.054277324349
 20
-408.2928595813775
 30
0.0
 11
-455.054277324349
 21
-1169.292859581378
 31
0.0
  0
LINE
  5
D3
330
1F
100
AcDbEntity
  8
0-B_寸法
  6
Continuous
 62
   120
370
     5
100
AcDbLine
 10
-705.054277324349
 20
-408.2928595813775
 30
0.0
 11
-705.054277324349
 21
-1169.292859581378
 31
0.0
  0
LWPOLYLINE
  5
D4
330
1F
100
AcDbEntity
  8
0-B_寸法
  6
Continuous
 62
     7
370
     9
100
AcDbPolyline
 90
        4
 70
     1
 43
2.0
 10
-704.054277324349
 20
-408.2928595813775
 42
0.4142135623731
 10
-705.054277324349
 20
-407.2928595813775
 42
0.4142135623731
 10
-706.054277324349
 20
-408.2928595813775
 42
0.4142135623731
 10
-705.054277324349
 20
-409.2928595813775
 42
0.4142135623731
  0
LINE
  5
D5
330
1F
100
AcDbEntity
  8
0-B_寸法
  6
Continuous
 62
   120
370
     5
100
AcDbLine
 10
-705.054277324349
 20
-408.2928595813775
 30
0.0
 11
-505.0542771847324
 21
-408.2928595813775
 31
0.0
  0
LINE
  5
D6
330
1F
100
AcDbEntity
  8
0-0_補助線
  6
JWW_HOJO
 62
   120
370
     5
100
AcDbLine
 10
-605.054277324349
 20
-408.2928595813775
 30
0.0
 11
-605.054277324349
 21
-1563.792859581377
 31
0.0
  0
LINE
  5
D7
330
1F
100
AcDbEntity
  8
0-4_棚
  6
Continuous
 62
    92
370
    13
100
AcDbLine
 10
-440.054277324349
 20
-946.3153675471926
 30
0.0
 11
325.9457226756513
 21
-946.3153675471926
 31
0.0
  0
LINE
  5
D8
330
1F
100
AcDbEntity
  8
0-4_棚
  6
Continuous
 62
    92
370
    13
100
AcDbLine
 10
-440.054277324349
 20
-934.3153675471927
 30
0.0
 11
325.9457226756513
 21
-934.3153675471927
 31
0.0
  0
LINE
  5
D9
330
1F
100
AcDbEntity
  8
0-4_棚
  6
Continuous
 62
    92
370
    13
100
AcDbLine
 10
-440.054277324349
 20
-754.3144685036333
 30
0.0
 11
325.9457226756513
 21
-754.3144685036333
 31
0.0
  0
LINE
  5
DA
330
1F
100
AcDbEntity
  8
0-4_棚
  6
Continuous
 62
    92
370
    13
100
AcDbLine
 10
-440.054277324349
 20
-742.314468503634
 30
0.0
 11
325.9457226756513
 21
-742.314468503634
 31
0.0
  0
LINE
  5
DB
330
1F
100
AcDbEntity
  8
0-4_棚
  6
Continuous
 62
    92
370
    13
100
AcDbLine
 10
-440.054277324349
 20
-562.3144685036332
 30
0.0
 11
325.9457226756513
 21
-562.3144685036332
 31
0.0
  0
LINE
  5
DC
330
1F
100
AcDbEntity
  8
0-4_棚
  6
Continuous
 62
    92
370
    13
100
AcDbLine
 10
-440.054277324349
 20
-550.3144685036332
 30
0.0
 11
325.9457226756513
 21
-550.3144685036332
 31
0.0
  0
LINE
  5
DD
330
1F
100
AcDbEntity
  8
0-6_桟木
  6
JWW_DASHED2
 62
     7
370
     9
100
AcDbLine
 10
325.9457226756513
 20
-1090.292859581377
 30
0.0
 11
-440.054277324349
 21
-1090.292859581377
 31
0.0
  0
LINE
  5
DE
330
1F
100
AcDbEntity
  8
0-1_本体
  6
Continuous
 62
    92
370
    13
100
AcDbLine
 10
-440.054277324349
 20
-1154.292859581378
 30
0.0
 11
325.9457226756513
 21
-1154.292859581378
 31
0.0
  0
LINE
  5
DF
330
1F
100
AcDbEntity
  8
0-1_本体
  6
Continuous
 62
    92
370
    13
100
AcDbLine
 10
-455.054277324349
 20
-1169.292859581378
 30
0.0
 11
340.9457226756513
 21
-1169.292859581378
 31
0.0
  0
LWPOLYLINE
  5
E0
330
1F
100
AcDbEntity
  8
0-B_寸法
  6
Continuous
 62
     7
370
     9
100
AcDbPolyline
 90
        4
 70
     1
 43
2.0
 10
-704.054277324349
 20
-1169.292859581378
 42
0.4142135623731
 10
-705.054277324349
 20
-1168.292859581378
 42
0.4142135623731
 10
-706.054277324349
 20
-1169.292859581378
 42
0.4142135623731
 10
-705.054277324349
 20
-1170.292859581378
 42
0.4142135623731
  0
LINE
  5
E1
330
1F
100
AcDbEntity
  8
0-B_寸法
  6
Continuous
 62
   120
370
     5
100
AcDbLine
 10
-705.054277324349
 20
-1169.292859581378
 30
0.0
 11
-605.054277324349
 21
-1169.292859581378
 31
0.0
  0
MTEXT
  5
E2
330
1F
100
AcDbEntity
  8
0-B_寸法
  6
Continuous
 62
     7
370
   211
100
AcDbMText
 10
-615.054277324349
 20
-481.9035665507101
 30
0.0
 40
45.72
 41
60.0
 46
0.0
 71
     7
 72
     1
  1
{\fＭＳ ゴシック|b0|i0|c128|p49;15}
 11
6.123031769111886E-17
 21
1.0
 31
0.0
 73
     1
 44
1.0
  0
MTEXT
  5
E3
330
1F
100
AcDbEntity
  8
0-B_寸法
  6
Continuous
 62
     7
370
   211
100
AcDbMText
 10
-2387.054277277809
 20
-223.4328199910044
 30
0.0
 40
45.72
 41
30.0
 46
0.0
 71
     7
 72
     1
  1
{\fＭＳ ゴシック|b0|i0|c128|p49;2}
 73
     1
 44
1.0
  0
MTEXT
  5
E4
330
1F
100
AcDbEntity
  8
0-B_寸法
  6
Continuous
 62
     7
370
   211
100
AcDbMText
 10
-2347.054277277809
 20
-223.4328199910044
 30
0.0
 40
45.72
 41
30.0
 46
0.0
 71
     7
 72
     1
  1
{\fＭＳ ゴシック|b0|i0|c128|p49;2}
 73
     1
 44
1.0
  0
LINE
  5
E5
330
1F
100
AcDbEntity
  8
0-B_寸法
  6
Continuous
 62
   120
370
     5
100
AcDbLine
 10
-2352.054277277809
 20
-226.2928199910044
 30
0.0
 11
-2350.054277277809
 21
-226.2928199910044
 31
0.0
  0
LWPOLYLINE
  5
E6
330
1F
100
AcDbEntity
  8
0-B_寸法
  6
Continuous
 62
     7
370
     9
100
AcDbPolyline
 90
        4
 70
     1
 43
2.0
 10
-2349.054277277809
 20
-226.2928199910044
 42
0.4142135623731
 10
-2350.054277277809
 20
-225.2928199910044
 42
0.4142135623731
 10
-2351.054277277809
 20
-226.2928199910044
 42
0.4142135623731
 10
-2350.054277277809
 20
-227.2928199910044
 42
0.4142135623731
  0
LINE
  5
E7
330
1F
100
AcDbEntity
  8
0-B_寸法
  6
Continuous
 62
   120
370
     5
100
AcDbLine
 10
-2350.054277277809
 20
-226.2928199910044
 30
0.0
 11
-2350.054277277809
 21
-326.2928199910044
 31
0.0
  0
LINE
  5
E8
330
1F
100
AcDbEntity
  8
0-B_寸法
  6
Continuous
 62
   120
370
     5
100
AcDbLine
 10
-2350.054277277809
 20
-226.2928199910044
 30
0.0
 11
-1956.054277277808
 21
-226.2928199910044
 31
0.0
  0
LWPOLYLINE
  5
E9
330
1F
100
AcDbEntity
  8
0-B_寸法
  6
Continuous
 62
     7
370
     9
100
AcDbPolyline
 90
        4
 70
     1
 43
2.0
 10
-1955.054277277808
 20
-226.2928199910044
 42
0.4142135623731
 10
-1956.054277277808
 20
-225.2928199910044
 42
0.4142135623731
 10
-1957.054277277808
 20
-226.2928199910044
 42
0.4142135623731
 10
-1956.054277277808
 20
-227.2928199910044
 42
0.4142135623731
  0
LINE
  5
EA
330
1F
100
AcDbEntity
  8
0-B_寸法
  6
Continuous
 62
   120
370
     5
100
AcDbLine
 10
-1956.054277277808
 20
-226.2928199910044
 30
0.0
 11
-1956.054277277808
 21
-326.2928199910044
 31
0.0
  0
LINE
  5
EB
330
1F
100
AcDbEntity
  8
0-B_寸法
  6
Continuous
 62
   120
370
     5
100
AcDbLine
 10
-1956.054277277808
 20
-226.2928199910044
 30
0.0
 11
-1952.054277277809
 21
-226.2928199910044
 31
0.0
  0
LWPOLYLINE
  5
EC
330
1F
100
AcDbEntity
  8
0-B_寸法
  6
Continuous
 62
     7
370
     9
100
AcDbPolyline
 90
        4
 70
     1
 43
2.0
 10
-1951.054277277809
 20
-226.2928199910044
 42
0.4142135623731
 10
-1952.054277277809
 20
-225.2928199910044
 42
0.4142135623731
 10
-1953.054277277809
 20
-226.2928199910044
 42
0.4142135623731
 10
-1952.054277277809
 20
-227.2928199910044
 42
0.4142135623731
  0
LINE
  5
ED
330
1F
100
AcDbEntity
  8
0-B_寸法
  6
Continuous
 62
   120
370
     5
100
AcDbLine
 10
-1952.054277277809
 20
-226.2928199910044
 30
0.0
 11
-1952.054277277809
 21
-326.2928199910044
 31
0.0
  0
MTEXT
  5
EE
330
1F
100
AcDbEntity
  8
0-B_寸法
  6
Continuous
 62
     7
370
   211
100
AcDbMText
 10
-1969.054277277808
 20
-223.4328199910044
 30
0.0
 40
45.72
 41
30.0
 46
0.0
 71
     7
 72
     1
  1
{\fＭＳ ゴシック|b0|i0|c128|p49;4}
 73
     1
 44
1.0
  0
LINE
  5
EF
330
1F
100
AcDbEntity
  8
0-B_寸法
  6
Continuous
 62
   120
370
     5
100
AcDbLine
 10
-1952.054277277809
 20
-226.2928199910044
 30
0.0
 11
-1558.054277277809
 21
-226.2928199910044
 31
0.0
  0
LWPOLYLINE
  5
F0
330
1F
100
AcDbEntity
  8
0-B_寸法
  6
Continuous
 62
     7
370
     9
100
AcDbPolyline
 90
        4
 70
     1
 43
2.0
 10
-1557.054277277809
 20
-226.2928199910044
 42
0.4142135623731
 10
-1558.054277277809
 20
-225.2928199910044
 42
0.4142135623731
 10
-1559.054277277809
 20
-226.2928199910044
 42
0.4142135623731
 10
-1558.054277277809
 20
-227.2928199910044
 42
0.4142135623731
  0
LINE
  5
F1
330
1F
100
AcDbEntity
  8
0-B_寸法
  6
Continuous
 62
   120
370
     5
100
AcDbLine
 10
-1558.054277277809
 20
-226.2928199910044
 30
0.0
 11
-1558.054277277809
 21
-326.2928199910044
 31
0.0
  0
LINE
  5
F2
330
1F
100
AcDbEntity
  8
0-B_寸法
  6
Continuous
 62
   120
370
     5
100
AcDbLine
 10
-1558.054277277809
 20
-226.2928199910044
 30
0.0
 11
-1556.05427727781
 21
-226.2928199910044
 31
0.0
  0
LWPOLYLINE
  5
F3
330
1F
100
AcDbEntity
  8
0-B_寸法
  6
Continuous
 62
     7
370
     9
100
AcDbPolyline
 90
        4
 70
     1
 43
2.0
 10
-1555.05427727781
 20
-226.2928199910044
 42
0.4142135623731
 10
-1556.05427727781
 20
-225.2928199910044
 42
0.4142135623731
 10
-1557.05427727781
 20
-226.2928199910044
 42
0.4142135623731
 10
-1556.05427727781
 20
-227.2928199910044
 42
0.4142135623731
  0
LINE
  5
F4
330
1F
100
AcDbEntity
  8
0-B_寸法
  6
Continuous
 62
   120
370
     5
100
AcDbLine
 10
-1556.05427727781
 20
-226.2928199910044
 30
0.0
 11
-1556.05427727781
 21
-326.2928199910044
 31
0.0
  0
MTEXT
  5
F5
330
1F
100
AcDbEntity
  8
0-B_寸法
  6
Continuous
 62
     7
370
   211
100
AcDbMText
 10
-1572.054277277809
 20
-223.4328199910044
 30
0.0
 40
45.72
 41
30.0
 46
0.0
 71
     7
 72
     1
  1
{\fＭＳ ゴシック|b0|i0|c128|p49;2}
 73
     1
 44
1.0
  0
MTEXT
  5
F6
330
1F
100
AcDbEntity
  8
0-B_寸法
  6
Continuous
 62
     7
370
   211
100
AcDbMText
 10
-2288.054277277809
 20
-223.4328199910044
 30
0.0
 40
45.71999999999999
 41
270.0
 46
0.0
 71
     7
 72
     1
  1
{\fＭＳ ゴシック|b0|i0|c128|p49;ＤＷ＝394}
 73
     1
 44
1.0
  0
MTEXT
  5
F7
330
1F
100
AcDbEntity
  8
0-B_寸法
  6
Continuous
 62
     7
370
   211
100
AcDbMText
 10
-1890.054277277809
 20
-223.4328199910044
 30
0.0
 40
45.71999999999999
 41
270.0
 46
0.0
 71
     7
 72
     1
  1
{\fＭＳ ゴシック|b0|i0|c128|p49;ＤＷ＝394}
 73
     1
 44
1.0
  0
LINE
  5
F8
330
1F
100
AcDbEntity
  8
0-B_寸法
  6
Continuous
 62
   120
370
     5
100
AcDbLine
 10
-3148.054277277809
 20
-226.2928199910044
 30
0.0
 11
-3146.054277277809
 21
-226.2928199910044
 31
0.0
  0
LWPOLYLINE
  5
F9
330
1F
100
AcDbEntity
  8
0-B_寸法
  6
Continuous
 62
     7
370
     9
100
AcDbPolyline
 90
        4
 70
     1
 43
2.0
 10
-3147.054277277808
 20
-226.2928199910044
 42
0.4142135623731
 10
-3148.054277277809
 20
-225.2928199910044
 42
0.4142135623731
 10
-3149.054277277809
 20
-226.2928199910044
 42
0.4142135623731
 10
-3148.054277277809
 20
-227.2928199910044
 42
0.4142135623731
  0
LWPOLYLINE
  5
FA
330
1F
100
AcDbEntity
  8
0-B_寸法
  6
Continuous
 62
     7
370
     9
100
AcDbPolyline
 90
        4
 70
     1
 43
2.0
 10
-3145.054277277809
 20
-226.2928199910044
 42
0.4142135623731
 10
-3146.054277277809
 20
-225.2928199910044
 42
0.4142135623731
 10
-3147.054277277809
 20
-226.2928199910044
 42
0.4142135623731
 10
-3146.054277277809
 20
-227.2928199910044
 42
0.4142135623731
  0
LINE
  5
FB
330
1F
100
AcDbEntity
  8
0-B_寸法
  6
Continuous
 62
   120
370
     5
100
AcDbLine
 10
-3148.054277277809
 20
-226.2928199910044
 30
0.0
 11
-3148.054277277809
 21
-326.2928199910044
 31
0.0
  0
LINE
  5
FC
330
1F
100
AcDbEntity
  8
0-B_寸法
  6
Continuous
 62
   120
370
     5
100
AcDbLine
 10
-3146.054277277809
 20
-226.2928199910044
 30
0.0
 11
-3146.054277277809
 21
-326.2928199910044
 31
0.0
  0
MTEXT
  5
FD
330
1F
100
AcDbEntity
  8
0-B_寸法
  6
Continuous
 62
     7
370
   211
100
AcDbMText
 10
-3162.054277277809
 20
-223.4328199910044
 30
0.0
 40
45.72
 41
30.0
 46
0.0
 71
     7
 72
     1
  1
{\fＭＳ ゴシック|b0|i0|c128|p49;2}
 73
     1
 44
1.0
  0
LINE
  5
FE
330
1F
100
AcDbEntity
  8
0-B_寸法
  6
Continuous
 62
   120
370
     5
100
AcDbLine
 10
-3146.054277277809
 20
-226.2928199910044
 30
0.0
 11
-2752.054277277808
 21
-226.2928199910044
 31
0.0
  0
LWPOLYLINE
  5
FF
330
1F
100
AcDbEntity
  8
0-B_寸法
  6
Continuous
 62
     7
370
     9
100
AcDbPolyline
 90
        4
 70
     1
 43
2.0
 10
-2751.054277277808
 20
-226.2928199910044
 42
0.4142135623731
 10
-2752.054277277808
 20
-225.2928199910044
 42
0.4142135623731
 10
-2753.054277277808
 20
-226.2928199910044
 42
0.4142135623731
 10
-2752.054277277808
 20
-227.2928199910044
 42
0.4142135623731
  0
LINE
  5
100
330
1F
100
AcDbEntity
  8
0-B_寸法
  6
Continuous
 62
   120
370
     5
100
AcDbLine
 10
-2752.054277277808
 20
-226.2928199910044
 30
0.0
 11
-2752.054277277808
 21
-326.2928199910044
 31
0.0
  0
LINE
  5
101
330
1F
100
AcDbEntity
  8
0-B_寸法
  6
Continuous
 62
   120
370
     5
100
AcDbLine
 10
-2752.054277277808
 20
-226.2928199910044
 30
0.0
 11
-2748.054277277809
 21
-226.2928199910044
 31
0.0
  0
LWPOLYLINE
  5
102
330
1F
100
AcDbEntity
  8
0-B_寸法
  6
Continuous
 62
     7
370
     9
100
AcDbPolyline
 90
        4
 70
     1
 43
2.0
 10
-2747.054277277808
 20
-226.2928199910044
 42
0.4142135623731
 10
-2748.054277277809
 20
-225.2928199910044
 42
0.4142135623731
 10
-2749.054277277809
 20
-226.2928199910044
 42
0.4142135623731
 10
-2748.054277277809
 20
-227.2928199910044
 42
0.4142135623731
  0
LINE
  5
103
330
1F
100
AcDbEntity
  8
0-B_寸法
  6
Continuous
 62
   120
370
     5
100
AcDbLine
 10
-2748.054277277809
 20
-226.2928199910044
 30
0.0
 11
-2748.054277277809
 21
-326.2928199910044
 31
0.0
  0
MTEXT
  5
104
330
1F
100
AcDbEntity
  8
0-B_寸法
  6
Continuous
 62
     7
370
   211
100
AcDbMText
 10
-2765.054277277807
 20
-223.4328199910044
 30
0.0
 40
45.72
 41
30.0
 46
0.0
 71
     7
 72
     1
  1
{\fＭＳ ゴシック|b0|i0|c128|p49;4}
 73
     1
 44
1.0
  0
LINE
  5
105
330
1F
100
AcDbEntity
  8
0-B_寸法
  6
Continuous
 62
   120
370
     5
100
AcDbLine
 10
-2748.054277277809
 20
-226.2928199910044
 30
0.0
 11
-2354.054277277808
 21
-226.2928199910044
 31
0.0
  0
LWPOLYLINE
  5
106
330
1F
100
AcDbEntity
  8
0-B_寸法
  6
Continuous
 62
     7
370
     9
100
AcDbPolyline
 90
        4
 70
     1
 43
2.0
 10
-2353.054277277808
 20
-226.2928199910044
 42
0.4142135623731
 10
-2354.054277277808
 20
-225.2928199910044
 42
0.4142135623731
 10
-2355.054277277808
 20
-226.2928199910044
 42
0.4142135623731
 10
-2354.054277277808
 20
-227.2928199910044
 42
0.4142135623731
  0
LINE
  5
107
330
1F
100
AcDbEntity
  8
0-B_寸法
  6
Continuous
 62
   120
370
     5
100
AcDbLine
 10
-2354.054277277808
 20
-226.2928199910044
 30
0.0
 11
-2354.054277277808
 21
-326.2928199910044
 31
0.0
  0
LINE
  5
108
330
1F
100
AcDbEntity
  8
0-B_寸法
  6
Continuous
 62
   120
370
     5
100
AcDbLine
 10
-2354.054277277808
 20
-226.2928199910044
 30
0.0
 11
-2352.054277277809
 21
-226.2928199910044
 31
0.0
  0
LWPOLYLINE
  5
109
330
1F
100
AcDbEntity
  8
0-B_寸法
  6
Continuous
 62
     7
370
     9
100
AcDbPolyline
 90
        4
 70
     1
 43
2.0
 10
-2351.054277277809
 20
-226.2928199910044
 42
0.4142135623731
 10
-2352.054277277809
 20
-225.2928199910044
 42
0.4142135623731
 10
-2353.054277277809
 20
-226.2928199910044
 42
0.4142135623731
 10
-2352.054277277809
 20
-227.2928199910044
 42
0.4142135623731
  0
LINE
  5
10A
330
1F
100
AcDbEntity
  8
0-B_寸法
  6
Continuous
 62
   120
370
     5
100
AcDbLine
 10
-2352.054277277809
 20
-226.2928199910044
 30
0.0
 11
-2352.054277277809
 21
-326.2928199910044
 31
0.0
  0
MTEXT
  5
10B
330
1F
100
AcDbEntity
  8
0-B_寸法
  6
Continuous
 62
     7
370
   211
100
AcDbMText
 10
-3084.054277277808
 20
-223.4328199910044
 30
0.0
 40
45.71999999999999
 41
270.0
 46
0.0
 71
     7
 72
     1
  1
{\fＭＳ ゴシック|b0|i0|c128|p49;ＤＷ＝394}
 73
     1
 44
1.0
  0
MTEXT
  5
10C
330
1F
100
AcDbEntity
  8
0-B_寸法
  6
Continuous
 62
     7
370
   211
100
AcDbMText
 10
-2686.054277277808
 20
-223.4328199910044
 30
0.0
 40
45.71999999999995
 41
269.9999999999997
 46
0.0
 71
     7
 72
     1
  1
{\fＭＳ ゴシック|b0|i0|c128|p49;ＤＷ＝394}
 73
     1
 44
1.0
  0
LINE
  5
10D
330
1F
100
AcDbEntity
  8
0-B_寸法
  6
Continuous
 62
   120
370
     5
100
AcDbLine
 10
-3498.054277370884
 20
-1233.292859581369
 30
0.0
 11
-3198.054277277809
 21
-1233.292859581369
 31
0.0
  0
LWPOLYLINE
  5
10E
330
1F
100
AcDbEntity
  8
0-B_寸法
  6
Continuous
 62
     7
370
     9
100
AcDbPolyline
 90
        4
 70
     1
 43
2.0
 10
-3497.054277370884
 20
-1233.292859581369
 42
0.4142135623731
 10
-3498.054277370884
 20
-1232.292859581369
 42
0.4142135623731
 10
-3499.054277370885
 20
-1233.292859581369
 42
0.4142135623731
 10
-3498.054277370884
 20
-1234.292859581369
 42
0.4142135623731
  0
LINE
  5
10F
330
1F
100
AcDbEntity
  8
0-0_補助線
  6
JWW_HOJO
 62
   120
370
     5
100
AcDbLine
 10
-1506.05427727781
 20
-1563.792859581377
 30
0.0
 11
-1506.05427727781
 21
-126.292859581377
 31
0.0
  0
LINE
  5
110
330
1F
100
AcDbEntity
  8
0-0_補助線
  6
JWW_HOJO
 62
   120
370
     5
100
AcDbLine
 10
-1406.05427727781
 20
-1563.792859581377
 30
0.0
 11
-1406.05427727781
 21
-126.292859581377
 31
0.0
  0
LINE
  5
111
330
1F
100
AcDbEntity
  8
0-0_補助線
  6
JWW_HOJO
 62
     7
370
     9
100
AcDbLine
 10
-1556.05427727781
 20
-1563.792859581377
 30
0.0
 11
-1556.05427727781
 21
-126.292859581377
 31
0.0
  0
LINE
  5
112
330
1F
100
AcDbEntity
  8
0-0_補助線
  6
JWW_HOJO
 62
     7
370
     9
100
AcDbLine
 10
-2352.054277277809
 20
-1563.792859581377
 30
0.0
 11
-2352.054277277809
 21
-126.292859581377
 31
0.0
  0
LINE
  5
113
330
1F
100
AcDbEntity
  8
0-0_補助線
  6
JWW_HOJO
 62
     7
370
     9
100
AcDbLine
 10
-3148.054277277809
 20
-1563.792859581377
 30
0.0
 11
-3148.054277277809
 21
-126.292859581377
 31
0.0
  0
LINE
  5
114
330
1F
100
AcDbEntity
  8
0-0_補助線
  6
JWW_HOJO
 62
   120
370
     5
100
AcDbLine
 10
-3198.054277277809
 20
-1563.792859581377
 30
0.0
 11
-3198.054277277809
 21
-126.292859581377
 31
0.0
  0
LINE
  5
115
330
1F
100
AcDbEntity
  8
0-0_補助線
  6
JWW_HOJO
 62
   120
370
     5
100
AcDbLine
 10
-3298.054277277809
 20
-1563.792859581377
 30
0.0
 11
-3298.054277277809
 21
-126.292859581377
 31
0.0
  0
LINE
  5
116
330
1F
100
AcDbEntity
  8
0-1_本体
  6
Continuous
 62
     7
370
     9
100
AcDbLine
 10
-2352.054277277809
 20
-1169.292859581378
 30
0.0
 11
-2352.054277277809
 21
-408.2928595813775
 31
0.0
  0
LINE
  5
117
330
1F
100
AcDbEntity
  8
0-2_扉
  6
Continuous
 62
    92
370
    13
100
AcDbLine
 10
-1956.05427727781
 20
-411.2930037445318
 30
0.0
 11
-2350.054277277811
 21
-411.2930037445318
 31
0.0
  0
LINE
  5
118
330
1F
100
AcDbEntity
  8
0-2_扉
  6
Continuous
 62
    92
370
    13
100
AcDbLine
 10
-1952.054277277809
 20
-411.2930037445318
 30
0.0
 11
-1558.054277277809
 21
-411.2930037445318
 31
0.0
  0
LINE
  5
119
330
1F
100
AcDbEntity
  8
0-2_扉
  6
Continuous
 62
    92
370
    13
100
AcDbLine
 10
-1956.05427727781
 20
-411.2930037445318
 30
0.0
 11
-1956.05427727781
 21
-1166.292859581378
 31
0.0
  0
LINE
  5
11A
330
1F
100
AcDbEntity
  8
0-2_扉
  6
Continuous
 62
    92
370
    13
100
AcDbLine
 10
-1952.054277277809
 20
-411.2930037445318
 30
0.0
 11
-1952.054277277809
 21
-1166.292859581378
 31
0.0
  0
LINE
  5
11B
330
1F
100
AcDbEntity
  8
0-2_扉
  6
Continuous
 62
    92
370
    13
100
AcDbLine
 10
-1558.054277277809
 20
-411.2930037445318
 30
0.0
 11
-1558.054277277809
 21
-1166.292859581378
 31
0.0
  0
LINE
  5
11C
330
1F
100
AcDbEntity
  8
0-2_扉
  6
Continuous
 62
    92
370
    13
100
AcDbLine
 10
-2350.054277277811
 20
-411.2930037445318
 30
0.0
 11
-2350.054277277811
 21
-1166.292859581378
 31
0.0
  0
LINE
  5
11D
330
1F
100
AcDbEntity
  8
0-1_本体
  6
Continuous
 62
     7
370
     9
100
AcDbLine
 10
-1556.05427727781
 20
-1169.292859581378
 30
0.0
 11
-1556.05427727781
 21
-408.2928595813775
 31
0.0
  0
LINE
  5
11E
330
1F
100
AcDbEntity
  8
0-2_扉
  6
Continuous
 62
    92
370
    13
100
AcDbLine
 10
-1952.054277277809
 20
-1166.292859581378
 30
0.0
 11
-1558.054277277809
 21
-1166.292859581378
 31
0.0
  0
LINE
  5
11F
330
1F
100
AcDbEntity
  8
0-2_扉
  6
Continuous
 62
    92
370
    13
100
AcDbLine
 10
-1956.05427727781
 20
-1166.292859581378
 30
0.0
 11
-2350.054277277811
 21
-1166.292859581378
 31
0.0
  0
LINE
  5
120
330
1F
100
AcDbEntity
  8
0-1_本体
  6
Continuous
 62
     7
370
     9
100
AcDbLine
 10
-2352.054277277809
 20
-1169.292859581378
 30
0.0
 11
-1556.05427727781
 21
-1169.292859581378
 31
0.0
  0
LWPOLYLINE
  5
121
330
1F
100
AcDbEntity
  8
0-B_寸法
  6
Continuous
 62
     7
370
     9
100
AcDbPolyline
 90
        4
 70
     1
 43
2.0
 10
-3297.054277184734
 20
-408.2928513333837
 42
0.4142135623731
 10
-3298.054277184734
 20
-407.2928513333837
 42
0.4142135623731
 10
-3299.054277184734
 20
-408.2928513333837
 42
0.4142135623731
 10
-3298.054277184734
 20
-409.2928513333837
 42
0.4142135623731
  0
LINE
  5
122
330
1F
100
AcDbEntity
  8
0-B_寸法
  6
Continuous
 62
   120
370
     5
100
AcDbLine
 10
-3298.054277184734
 20
-408.2928513333837
 30
0.0
 11
-3198.054277184735
 21
-408.2928513333837
 31
0.0
  0
LINE
  5
123
330
1F
100
AcDbEntity
  8
0-2_扉
  6
Continuous
 62
    92
370
    13
100
AcDbLine
 10
-2752.054277277809
 20
-411.2930037445318
 30
0.0
 11
-3146.05427727781
 21
-411.2930037445318
 31
0.0
  0
LINE
  5
124
330
1F
100
AcDbEntity
  8
0-2_扉
  6
Continuous
 62
    92
370
    13
100
AcDbLine
 10
-2748.054277277809
 20
-411.2930037445318
 30
0.0
 11
-2354.054277277808
 21
-411.2930037445318
 31
0.0
  0
LINE
  5
125
330
1F
100
AcDbEntity
  8
0-2_扉
  6
Continuous
 62
    92
370
    13
100
AcDbLine
 10
-2752.054277277809
 20
-411.2930037445318
 30
0.0
 11
-2752.054277277809
 21
-1166.292859581378
 31
0.0
  0
LINE
  5
126
330
1F
100
AcDbEntity
  8
0-2_扉
  6
Continuous
 62
    92
370
    13
100
AcDbLine
 10
-2748.054277277809
 20
-411.2930037445318
 30
0.0
 11
-2748.054277277809
 21
-1166.292859581378
 31
0.0
  0
LINE
  5
127
330
1F
100
AcDbEntity
  8
0-2_扉
  6
Continuous
 62
    92
370
    13
100
AcDbLine
 10
-2354.054277277808
 20
-411.2930037445318
 30
0.0
 11
-2354.054277277808
 21
-1166.292859581378
 31
0.0
  0
LINE
  5
128
330
1F
100
AcDbEntity
  8
0-2_扉
  6
Continuous
 62
    92
370
    13
100
AcDbLine
 10
-3146.05427727781
 20
-411.2930037445318
 30
0.0
 11
-3146.05427727781
 21
-1166.292859581378
 31
0.0
  0
LINE
  5
129
330
1F
100
AcDbEntity
  8
0-1_本体
  6
Continuous
 62
     7
370
     9
100
AcDbLine
 10
-3148.054277277809
 20
-408.2928595813775
 30
0.0
 11
-3148.054277277809
 21
-1169.292859581378
 31
0.0
  0
LINE
  5
12A
330
1F
100
AcDbEntity
  8
0-B_寸法
  6
Continuous
 62
   120
370
     5
100
AcDbLine
 10
-3298.054277277809
 20
-411.292859581377
 30
0.0
 11
-3298.054277277809
 21
-408.2928595813775
 31
0.0
  0
LWPOLYLINE
  5
12B
330
1F
100
AcDbEntity
  8
0-B_寸法
  6
Continuous
 62
     7
370
     9
100
AcDbPolyline
 90
        4
 70
     1
 43
2.0
 10
-3297.054277277808
 20
-408.2928595813775
 42
0.4142135623731
 10
-3298.054277277809
 20
-407.2928595813775
 42
0.4142135623731
 10
-3299.054277277809
 20
-408.2928595813775
 42
0.4142135623731
 10
-3298.054277277809
 20
-409.2928595813775
 42
0.4142135623731
  0
LINE
  5
12C
330
1F
100
AcDbEntity
  8
0-B_寸法
  6
Continuous
 62
   120
370
     5
100
AcDbLine
 10
-3298.054277277809
 20
-408.2928595813775
 30
0.0
 11
-3198.054277277809
 21
-408.2928595813775
 31
0.0
  0
LINE
  5
12D
330
1F
100
AcDbEntity
  8
0-B_寸法
  6
Continuous
 62
   120
370
     5
100
AcDbLine
 10
-3298.054277277809
 20
-1166.292859581377
 30
0.0
 11
-3298.054277277809
 21
-411.292859581377
 31
0.0
  0
LWPOLYLINE
  5
12E
330
1F
100
AcDbEntity
  8
0-B_寸法
  6
Continuous
 62
     7
370
     9
100
AcDbPolyline
 90
        4
 70
     1
 43
2.0
 10
-3297.054277277808
 20
-411.292859581377
 42
0.4142135623731
 10
-3298.054277277809
 20
-410.292859581377
 42
0.4142135623731
 10
-3299.054277277809
 20
-411.292859581377
 42
0.4142135623731
 10
-3298.054277277809
 20
-412.292859581377
 42
0.4142135623731
  0
LINE
  5
12F
330
1F
100
AcDbEntity
  8
0-B_寸法
  6
Continuous
 62
   120
370
     5
100
AcDbLine
 10
-3298.054277277809
 20
-411.292859581377
 30
0.0
 11
-3198.054277277809
 21
-411.292859581377
 31
0.0
  0
MTEXT
  5
130
330
1F
100
AcDbEntity
  8
0-B_寸法
  6
Continuous
 62
     7
370
   211
100
AcDbMText
 10
-3308.054277277809
 20
-449.8695322564765
 30
0.0
 40
45.72
 41
30.0
 46
0.0
 71
     7
 72
     1
  1
{\fＭＳ ゴシック|b0|i0|c128|p49;3}
 11
6.123031769111886E-17
 21
1.0
 31
0.0
 73
     1
 44
1.0
  0
LINE
  5
131
330
1F
100
AcDbEntity
  8
0-2_扉
  6
Continuous
 62
    92
370
    13
100
AcDbLine
 10
-2748.054277277809
 20
-1166.292859581378
 30
0.0
 11
-2354.054277277808
 21
-1166.292859581378
 31
0.0
  0
LINE
  5
132
330
1F
100
AcDbEntity
  8
0-2_扉
  6
Continuous
 62
    92
370
    13
100
AcDbLine
 10
-2752.054277277809
 20
-1166.292859581378
 30
0.0
 11
-3146.05427727781
 21
-1166.292859581378
 31
0.0
  0
LINE
  5
133
330
1F
100
AcDbEntity
  8
0-1_本体
  6
Continuous
 62
     7
370
     9
100
AcDbLine
 10
-3148.054277277809
 20
-1169.292859581378
 30
0.0
 11
-2352.054277277809
 21
-1169.292859581378
 31
0.0
  0
LINE
  5
134
330
1F
100
AcDbEntity
  8
0-B_寸法
  6
Continuous
 62
   120
370
     5
100
AcDbLine
 10
-3298.054277277809
 20
-1169.292859581378
 30
0.0
 11
-3298.054277277809
 21
-1166.292859581377
 31
0.0
  0
LWPOLYLINE
  5
135
330
1F
100
AcDbEntity
  8
0-B_寸法
  6
Continuous
 62
     7
370
     9
100
AcDbPolyline
 90
        4
 70
     1
 43
2.0
 10
-3297.054277277808
 20
-1169.292859581378
 42
0.4142135623731
 10
-3298.054277277809
 20
-1168.292859581378
 42
0.4142135623731
 10
-3299.054277277809
 20
-1169.292859581378
 42
0.4142135623731
 10
-3298.054277277809
 20
-1170.292859581378
 42
0.4142135623731
  0
LWPOLYLINE
  5
136
330
1F
100
AcDbEntity
  8
0-B_寸法
  6
Continuous
 62
     7
370
     9
100
AcDbPolyline
 90
        4
 70
     1
 43
2.0
 10
-3297.054277277808
 20
-1166.292859581377
 42
0.4142135623731
 10
-3298.054277277809
 20
-1165.292859581377
 42
0.4142135623731
 10
-3299.054277277809
 20
-1166.292859581377
 42
0.4142135623731
 10
-3298.054277277809
 20
-1167.292859581377
 42
0.4142135623731
  0
LINE
  5
137
330
1F
100
AcDbEntity
  8
0-B_寸法
  6
Continuous
 62
   120
370
     5
100
AcDbLine
 10
-3298.054277277809
 20
-1169.292859581378
 30
0.0
 11
-3198.054277277809
 21
-1169.292859581378
 31
0.0
  0
LINE
  5
138
330
1F
100
AcDbEntity
  8
0-B_寸法
  6
Continuous
 62
   120
370
     5
100
AcDbLine
 10
-3298.054277277809
 20
-1166.292859581377
 30
0.0
 11
-3198.054277277809
 21
-1166.292859581377
 31
0.0
  0
MTEXT
  5
139
330
1F
100
AcDbEntity
  8
0-B_寸法
  6
Continuous
 62
     7
370
   211
100
AcDbMText
 10
-3308.054277277809
 20
-1166.525686375128
 30
0.0
 40
45.72
 41
30.0
 46
0.0
 71
     7
 72
     1
  1
{\fＭＳ ゴシック|b0|i0|c128|p49;3}
 11
6.123031769111886E-17
 21
1.0
 31
0.0
 73
     1
 44
1.0
  0
LINE
  5
13A
330
1F
100
AcDbEntity
  8
0-A_文字
  6
Continuous
 62
     7
370
     9
100
AcDbLine
 10
611.5846697979965
 20
1838.715608706157
 30
0.0
 11
508.7165123338901
 21
1838.715608706157
 31
0.0
  0
LINE
  5
13B
330
1F
100
AcDbEntity
  8
0-A_文字
  6
Continuous
 62
     7
370
     9
100
AcDbLine
 10
508.7165123338901
 20
1838.715608706157
 30
0.0
 11
611.5846697979965
 21
1811.15229710354
 31
0.0
  0
LINE
  5
13C
330
1F
100
AcDbEntity
  8
0-A_文字
  6
Continuous
 62
     7
370
     9
100
AcDbLine
 10
611.5846697979965
 20
1316.588985500921
 30
0.0
 11
508.7165123338901
 21
1316.588985500921
 31
0.0
  0
LINE
  5
13D
330
1F
100
AcDbEntity
  8
0-A_文字
  6
Continuous
 62
     7
370
     9
100
AcDbLine
 10
508.7165123338901
 20
1316.588985500921
 30
0.0
 11
611.5846697979965
 21
1344.152297103539
 31
0.0
  0
LINE
  5
13E
330
1F
100
AcDbEntity
  8
0-A_文字
  6
Continuous
 62
     7
370
     9
100
AcDbLine
 10
611.5846697979965
 20
1838.715608706157
 30
0.0
 11
611.5846697979965
 21
1316.588985500921
 31
0.0
  0
MTEXT
  5
13F
330
1F
100
AcDbEntity
  8
0-A_文字
  6
Continuous
 62
     7
370
     9
100
AcDbMText
 10
418.71651233389
 20
1279.448985500923
 30
0.0
 40
45.72
 41
90.0
 46
0.0
 71
     7
 72
     1
  1
{\fＭＳ ゴシック|b0|i0|c128|p49;Ａ'}
 73
     1
 44
1.0
  0
MTEXT
  5
140
330
1F
100
AcDbEntity
  8
0-A_文字
  6
Continuous
 62
     7
370
     9
100
AcDbMText
 10
418.71651233389
 20
1807.575608706156
 30
0.0
 40
45.72
 41
90.0
 46
0.0
 71
     7
 72
     1
  1
{\fＭＳ ゴシック|b0|i0|c128|p49;Ａ }
 73
     1
 44
1.0
  0
MTEXT
  5
141
330
1F
100
AcDbEntity
  8
0-B_寸法
  6
Continuous
 62
     7
370
   211
100
AcDbMText
 10
265.9457226756513
 20
1141.01229710354
 30
0.0
 40
45.72
 41
150.0
 46
0.0
 71
     7
 72
     1
  1
{\fＭＳ ゴシック|b0|i0|c128|p49;1,592}
 73
     1
 44
1.0
  0
LINE
  5
142
330
1F
100
AcDbEntity
  8
0-B_寸法
  6
Continuous
 62
   120
370
     5
100
AcDbLine
 10
-455.0542773243512
 20
1138.15229710354
 30
0.0
 11
-455.0542773243512
 21
1238.15229710354
 31
0.0
  0
LINE
  5
143
330
1F
100
AcDbEntity
  8
0-B_寸法
  6
Continuous
 62
   120
370
     5
100
AcDbLine
 10
1136.945722675654
 20
1138.15229710354
 30
0.0
 11
1136.945722675654
 21
1238.15229710354
 31
0.0
  0
LWPOLYLINE
  5
144
330
1F
100
AcDbEntity
  8
0-B_寸法
  6
Continuous
 62
     7
370
     9
100
AcDbPolyline
 90
        4
 70
     1
 43
2.0
 10
-454.0542773243512
 20
1138.15229710354
 42
0.4142135623731
 10
-455.0542773243512
 20
1139.15229710354
 42
0.4142135623731
 10
-456.0542773243512
 20
1138.15229710354
 42
0.4142135623731
 10
-455.0542773243512
 20
1137.15229710354
 42
0.4142135623731
  0
LWPOLYLINE
  5
145
330
1F
100
AcDbEntity
  8
0-B_寸法
  6
Continuous
 62
     7
370
     9
100
AcDbPolyline
 90
        4
 70
     1
 43
2.0
 10
1137.945722675654
 20
1138.15229710354
 42
0.4142135623731
 10
1136.945722675654
 20
1139.15229710354
 42
0.4142135623731
 10
1135.945722675654
 20
1138.15229710354
 42
0.4142135623731
 10
1136.945722675654
 20
1137.15229710354
 42
0.4142135623731
  0
LINE
  5
146
330
1F
100
AcDbEntity
  8
0-B_寸法
  6
Continuous
 62
   120
370
     5
100
AcDbLine
 10
1136.945722675654
 20
1138.15229710354
 30
0.0
 11
-455.0542773243512
 21
1138.15229710354
 31
0.0
  0
MTEXT
  5
147
330
1F
100
AcDbEntity
  8
0-A_文字
  6
Continuous
 62
     7
370
     9
100
AcDbMText
 10
139.9502458756058
 20
843.95229710354
 30
0.0
 40
101.6
 41
400.0
 46
0.0
 71
     7
 72
     1
  1
{\fＭＳ ゴシック|b0|i0|c128|p49;平面図}
 73
     1
 44
1.0
  0
LINE
  5
148
330
1F
100
AcDbEntity
  8
0-A_文字
  6
Continuous
 62
     7
370
     9
100
AcDbLine
 10
-85.04975412439421
 20
988.15229710354
 30
0.0
 11
764.9502458756058
 21
988.15229710354
 31
0.0
  0
LINE
  5
149
330
1F
100
AcDbEntity
  8
0-A_文字
  6
Continuous
 62
     7
370
     9
100
AcDbLine
 10
764.9502458756058
 20
988.15229710354
 30
0.0
 11
764.9502458756058
 21
838.15229710354
 31
0.0
  0
LINE
  5
14A
330
1F
100
AcDbEntity
  8
0-A_文字
  6
Continuous
 62
     7
370
     9
100
AcDbLine
 10
764.9502458756058
 20
838.15229710354
 30
0.0
 11
-85.04975412439421
 21
838.15229710354
 31
0.0
  0
LINE
  5
14B
330
1F
100
AcDbEntity
  8
0-A_文字
  6
Continuous
 62
     7
370
     9
100
AcDbLine
 10
-85.04975412439421
 20
838.15229710354
 30
0.0
 11
-85.04975412439421
 21
988.15229710354
 31
0.0
  0
LINE
  5
14C
330
1F
100
AcDbEntity
  8
0-0_補助線
  6
JWW_HOJO
 62
   120
370
     5
100
AcDbLine
 10
-705.0542773243512
 20
1238.15229710354
 30
0.0
 11
1186.945722675655
 21
1238.15229710354
 31
0.0
  0
LINE
  5
14D
330
1F
100
AcDbEntity
  8
0-0_補助線
  6
JWW_HOJO
 62
     7
370
     9
100
AcDbLine
 10
-705.0542773243512
 20
1416.15229710354
 30
0.0
 11
1186.945722675655
 21
1416.15229710354
 31
0.0
  0
LINE
  5
14E
330
1F
100
AcDbEntity
  8
0-0_補助線
  6
JWW_HOJO
 62
     7
370
     9
100
AcDbLine
 10
-705.0542773243512
 20
1761.15229710354
 30
0.0
 11
1186.945722675655
 21
1761.15229710354
 31
0.0
  0
LINE
  5
14F
330
1F
100
AcDbEntity
  8
0-0_補助線
  6
JWW_HOJO
 62
   120
370
     5
100
AcDbLine
 10
-705.0542773243512
 20
1138.15229710354
 30
0.0
 11
1186.945722675655
 21
1138.15229710354
 31
0.0
  0
LINE
  5
150
330
1F
100
AcDbEntity
  8
0-0_補助線
  6
JWW_HOJO
 62
   120
370
     5
100
AcDbLine
 10
-705.0542773243512
 20
1811.15229710354
 30
0.0
 11
1186.945722675655
 21
1811.15229710354
 31
0.0
  0
LINE
  5
151
330
1F
100
AcDbEntity
  8
0-0_補助線
  6
JWW_HOJO
 62
     7
370
     9
100
AcDbLine
 10
1136.945722675654
 20
1811.15229710354
 30
0.0
 11
1136.945722675654
 21
-1563.792859581377
 31
0.0
  0
LINE
  5
152
330
1F
100
AcDbEntity
  8
0-0_補助線
  6
JWW_HOJO
 62
     7
370
     9
100
AcDbLine
 10
340.9457226756513
 20
1811.15229710354
 30
0.0
 11
340.9457226756513
 21
-1563.792859581377
 31
0.0
  0
LINE
  5
153
330
1F
100
AcDbEntity
  8
0-0_補助線
  6
JWW_HOJO
 62
   120
370
     5
100
AcDbLine
 10
1186.945722675655
 20
1138.15229710354
 30
0.0
 11
1186.945722675655
 21
1811.15229710354
 31
0.0
  0
LINE
  5
154
330
1F
100
AcDbEntity
  8
0-1_本体
  6
Continuous
 62
    40
370
    15
100
AcDbLine
 10
355.9457226756513
 20
1416.15229710354
 30
0.0
 11
340.9457226756513
 21
1416.15229710354
 31
0.0
  0
LINE
  5
155
330
1F
100
AcDbEntity
  8
0-1_本体
  6
Continuous
 62
    40
370
    15
100
AcDbLine
 10
340.9457226756513
 20
1416.15229710354
 30
0.0
 11
340.9457226756513
 21
1761.15229710354
 31
0.0
  0
LINE
  5
156
330
1F
100
AcDbEntity
  8
0-1_本体
  6
Continuous
 62
    40
370
    15
100
AcDbLine
 10
1121.945722675654
 20
1416.15229710354
 30
0.0
 11
1136.945722675654
 21
1416.15229710354
 31
0.0
  0
LINE
  5
157
330
1F
100
AcDbEntity
  8
0-1_本体
  6
Continuous
 62
    40
370
    15
100
AcDbLine
 10
1136.945722675654
 20
1416.15229710354
 30
0.0
 11
1136.945722675654
 21
1761.15229710354
 31
0.0
  0
LINE
  5
158
330
1F
100
AcDbEntity
  8
0-1_本体
  6
Continuous
 62
    40
370
    15
100
AcDbLine
 10
355.9457226756513
 20
1758.152297103538
 30
0.0
 11
355.9457226756513
 21
1416.15229710354
 31
0.0
  0
LINE
  5
159
330
1F
100
AcDbEntity
  8
0-1_本体
  6
Continuous
 62
    40
370
    15
100
AcDbLine
 10
1121.945722675654
 20
1758.152297103538
 30
0.0
 11
1121.945722675654
 21
1416.15229710354
 31
0.0
  0
LINE
  5
15A
330
1F
100
AcDbEntity
  8
0-4_棚
  6
Continuous
 62
    92
370
    13
100
AcDbLine
 10
355.9457226756513
 20
1468.152297103538
 30
0.0
 11
1121.945722675654
 21
1468.152297103538
 31
0.0
  0
LINE
  5
15B
330
1F
100
AcDbEntity
  8
0-B_寸法
  6
Continuous
 62
   120
370
     5
100
AcDbLine
 10
-605.0542773243512
 20
1761.15229710354
 30
0.0
 11
-605.0542773243512
 21
1416.15229710354
 31
0.0
  0
LWPOLYLINE
  5
15C
330
1F
100
AcDbEntity
  8
0-B_寸法
  6
Continuous
 62
     7
370
     9
100
AcDbPolyline
 90
        4
 70
     1
 43
2.0
 10
-604.0542773243512
 20
1761.15229710354
 42
0.4142135623731
 10
-605.0542773243512
 20
1762.15229710354
 42
0.4142135623731
 10
-606.0542773243512
 20
1761.15229710354
 42
0.4142135623731
 10
-605.0542773243512
 20
1760.15229710354
 42
0.4142135623731
  0
LWPOLYLINE
  5
15D
330
1F
100
AcDbEntity
  8
0-B_寸法
  6
Continuous
 62
     7
370
     9
100
AcDbPolyline
 90
        4
 70
     1
 43
2.0
 10
-604.0542773243512
 20
1416.15229710354
 42
0.4142135623731
 10
-605.0542773243512
 20
1417.15229710354
 42
0.4142135623731
 10
-606.0542773243512
 20
1416.15229710354
 42
0.4142135623731
 10
-605.0542773243512
 20
1415.15229710354
 42
0.4142135623731
  0
LINE
  5
15E
330
1F
100
AcDbEntity
  8
0-B_寸法
  6
Continuous
 62
   120
370
     5
100
AcDbLine
 10
-705.0542773243512
 20
1761.15229710354
 30
0.0
 11
-505.0542773243512
 21
1761.15229710354
 31
0.0
  0
LINE
  5
15F
330
1F
100
AcDbEntity
  8
0-B_寸法
  6
Continuous
 62
   120
370
     5
100
AcDbLine
 10
-605.0542773243512
 20
1416.15229710354
 30
0.0
 11
-505.0542773243512
 21
1416.15229710354
 31
0.0
  0
MTEXT
  5
160
330
1F
100
AcDbEntity
  8
0-B_寸法
  6
Continuous
 62
     7
370
   211
100
AcDbMText
 10
-615.0542773243512
 20
1536.512297103541
 30
0.0
 40
45.72
 41
90.0
 46
0.0
 71
     7
 72
     1
  1
{\fＭＳ ゴシック|b0|i0|c128|p49;345}
 11
6.123031769111886E-17
 21
1.0
 31
0.0
 73
     1
 44
1.0
  0
LINE
  5
161
330
1F
100
AcDbEntity
  8
0-B_寸法
  6
Continuous
 62
   120
370
     5
100
AcDbLine
 10
-605.0542773243512
 20
1416.15229710354
 30
0.0
 11
-605.0542773243512
 21
1415.152297103541
 31
0.0
  0
LWPOLYLINE
  5
162
330
1F
100
AcDbEntity
  8
0-B_寸法
  6
Continuous
 62
     7
370
     9
100
AcDbPolyline
 90
        4
 70
     1
 43
2.0
 10
-604.0542773243512
 20
1415.152297103541
 42
0.4142135623731
 10
-605.0542773243512
 20
1416.15229710354
 42
0.4142135623731
 10
-606.0542773243512
 20
1415.152297103541
 42
0.4142135623731
 10
-605.0542773243512
 20
1414.152297103541
 42
0.4142135623731
  0
LINE
  5
163
330
1F
100
AcDbEntity
  8
0-B_寸法
  6
Continuous
 62
   120
370
     5
100
AcDbLine
 10
-605.0542773243512
 20
1415.152297103541
 30
0.0
 11
-505.0542773243512
 21
1415.152297103541
 31
0.0
  0
MTEXT
  5
164
330
1F
100
AcDbEntity
  8
0-B_寸法
  6
Continuous
 62
     7
370
   211
100
AcDbMText
 10
-615.0542773243512
 20
1393.512297103541
 30
0.0
 40
45.72
 41
30.0
 46
0.0
 71
     7
 72
     1
  1
{\fＭＳ ゴシック|b0|i0|c128|p49;1}
 11
6.123031769111886E-17
 21
1.0
 31
0.0
 73
     1
 44
1.0
  0
LWPOLYLINE
  5
165
330
1F
100
AcDbEntity
  8
0-B_寸法
  6
Continuous
 62
     7
370
     9
100
AcDbPolyline
 90
        4
 70
     1
 43
2.0
 10
-704.0542773243512
 20
1761.15229710354
 42
0.4142135623731
 10
-705.0542773243512
 20
1762.15229710354
 42
0.4142135623731
 10
-706.0542773243512
 20
1761.15229710354
 42
0.4142135623731
 10
-705.0542773243512
 20
1760.15229710354
 42
0.4142135623731
  0
LINE
  5
166
330
1F
100
AcDbEntity
  8
0-0_補助線
  6
JWW_HOJO
 62
     7
370
     9
100
AcDbLine
 10
-455.0542773243512
 20
1811.15229710354
 30
0.0
 11
-455.0542773243512
 21
-1563.792859581377
 31
0.0
  0
LINE
  5
167
330
1F
100
AcDbEntity
  8
0-0_補助線
  6
JWW_HOJO
 62
   120
370
     5
100
AcDbLine
 10
-605.0542773243512
 20
1811.15229710354
 30
0.0
 11
-605.0542773243512
 21
1138.15229710354
 31
0.0
  0
LINE
  5
168
330
1F
100
AcDbEntity
  8
0-0_補助線
  6
JWW_HOJO
 62
   120
370
     5
100
AcDbLine
 10
-505.0542773243512
 20
1811.15229710354
 30
0.0
 11
-505.0542773243512
 21
1138.15229710354
 31
0.0
  0
LINE
  5
169
330
1F
100
AcDbEntity
  8
0-0_補助線
  6
JWW_HOJO
 62
   120
370
     5
100
AcDbLine
 10
-705.0542773243512
 20
1811.15229710354
 30
0.0
 11
-705.0542773243512
 21
1138.15229710354
 31
0.0
  0
LINE
  5
16A
330
1F
100
AcDbEntity
  8
0-1_本体
  6
Continuous
 62
    40
370
    15
100
AcDbLine
 10
-440.0542773243512
 20
1416.15229710354
 30
0.0
 11
-455.0542773243512
 21
1416.15229710354
 31
0.0
  0
LINE
  5
16B
330
1F
100
AcDbEntity
  8
0-1_本体
  6
Continuous
 62
    40
370
    15
100
AcDbLine
 10
-455.0542773243512
 20
1416.15229710354
 30
0.0
 11
-455.0542773243512
 21
1761.15229710354
 31
0.0
  0
LINE
  5
16C
330
1F
100
AcDbEntity
  8
0-1_本体
  6
Continuous
 62
    40
370
    15
100
AcDbLine
 10
325.9457226756513
 20
1416.15229710354
 30
0.0
 11
340.9457226756513
 21
1416.15229710354
 31
0.0
  0
LINE
  5
16D
330
1F
100
AcDbEntity
  8
0-1_本体
  6
Continuous
 62
    40
370
    15
100
AcDbLine
 10
-440.0542773243512
 20
1758.152297103538
 30
0.0
 11
-440.0542773243512
 21
1416.15229710354
 31
0.0
  0
LINE
  5
16E
330
1F
100
AcDbEntity
  8
0-1_本体
  6
Continuous
 62
    40
370
    15
100
AcDbLine
 10
325.9457226756513
 20
1758.152297103538
 30
0.0
 11
325.9457226756513
 21
1416.15229710354
 31
0.0
  0
LINE
  5
16F
330
1F
100
AcDbEntity
  8
0-4_棚
  6
Continuous
 62
    92
370
    13
100
AcDbLine
 10
-440.0542773243512
 20
1468.152297103538
 30
0.0
 11
325.9457226756513
 21
1468.152297103538
 31
0.0
  0
MTEXT
  5
170
330
1F
100
AcDbEntity
  8
0-A_文字
  6
Continuous
 62
     7
370
     9
100
AcDbMText
 10
2896.68236003049
 20
-97.56869428768711
 30
0.0
 40
45.72
 41
180.0
 46
0.0
 71
     7
 72
     1
  1
{\fＭＳ ゴシック|b0|i0|c128|p49;補強材}
 73
     1
 44
1.0
  0
MTEXT
  5
171
330
1F
100
AcDbEntity
  8
0-A_文字
  6
Continuous
 62
     7
370
     9
100
AcDbMText
 10
2896.68236003049
 20
-174.1817466078942
 30
0.0
 40
45.72
 41
240.0
 46
0.0
 71
     7
 72
     1
  1
{\fＭＳ ゴシック|b0|i0|c128|p49;下地位置}
 73
     1
 44
1.0
  0
MTEXT
  5
172
330
1F
100
AcDbEntity
  8
0-A_文字
  6
Continuous
 62
     7
370
     9
100
AcDbMText
 10
2896.682360030487
 20
-248.7241758924202
 30
0.0
 40
45.72
 41
330.0
 46
0.0
 71
     7
 72
     1
  1
{\fＭＳ ゴシック|b0|i0|c128|p49;30×105程度}
 73
     1
 44
1.0
  0
LINE
  5
173
330
1F
100
AcDbEntity
  8
0-A_文字
  6
Continuous
 62
     7
370
     9
100
AcDbLine
 10
2893.45378885991
 20
-269.8318160357843
 30
0.0
 11
3186.473448956353
 21
-269.8318160357843
 31
0.0
  0
LINE
  5
174
330
1F
100
AcDbEntity
  8
0-A_文字
  6
Continuous
 62
     7
370
     9
100
AcDbLine
 10
2816.42069480548
 20
-403.2570488022816
 30
0.0
 11
2893.45378885991
 21
-269.8318160357843
 31
0.0
  0
MTEXT
  5
175
330
1F
100
AcDbEntity
  8
0-A_文字
  6
Continuous
 62
     7
370
   211
100
AcDbMText
 10
1624.445627022188
 20
-1968.382716620369
 30
0.0
 40
45.72000000000001
 41
1890.0
 46
0.0
 71
     7
 72
     1
  1
{\fＭＳ ゴシック|b0|i0|c128|p49;※下地用の木桟木は105m/m×30m/m以上の堅い木を使用してください。}
 73
     1
 44
1.0
  0
MTEXT
  5
176
330
1F
100
AcDbEntity
  8
0-A_文字
  6
Continuous
 62
     7
370
   211
100
AcDbMText
 10
1624.445627022184
 20
-1894.247266706199
 30
0.0
 40
45.71999999999998
 41
1050.0
 46
0.0
 71
     7
 72
     1
  1
{\fＭＳ ゴシック|b0|i0|c128|p49;※棚板は可動式32m/mピッチで調整可能}
 73
     1
 44
1.0
  0
LINE
  5
177
330
1F
100
AcDbEntity
  8
0-A_文字
  6
JWW_CENTER1
 62
     7
370
     9
100
AcDbLine
 10
-3148.054277277807
 20
-1233.292859581369
 30
0.0
 11
2802.945722722192
 21
-1233.292859581369
 31
0.0
  0
LINE
  5
178
330
1F
100
AcDbEntity
  8
0-B_寸法
  6
JWW_DASHED2
 62
   120
370
     5
100
AcDbLine
 10
2802.945722629115
 20
-1090.29285958137
 30
0.0
 11
-3148.054277277807
 21
-1090.29285958137
 31
0.0
  0
LINE
  5
179
330
1F
100
AcDbEntity
  8
0-B_寸法
  6
JWW_DASHED2
 62
   120
370
     5
100
AcDbLine
 10
2802.945722629115
 20
-1233.292859581367
 30
0.0
 11
-2936.834804625633
 21
-1233.292859581367
 31
0.0
  0
LINE
  5
17A
330
1F
100
AcDbEntity
  8
0-0_補助線
  6
JWW_HOJO
 62
   120
370
     5
100
AcDbLine
 10
3052.945722722188
 20
-1483.292859581369
 30
0.0
 11
-3398.054277277807
 21
-1483.292859581369
 31
0.0
  0
LINE
  5
17B
330
1F
100
AcDbEntity
  8
0-0_補助線
  6
JWW_HOJO
 62
   120
370
     5
100
AcDbLine
 10
3052.945722722188
 20
-1383.292859581369
 30
0.0
 11
-3398.054277277807
 21
-1383.292859581369
 31
0.0
  0
LINE
  5
17C
330
1F
100
AcDbEntity
  8
0-0_補助線
  6
JWW_HOJO
 62
   120
370
     5
100
AcDbLine
 10
3052.945722722188
 20
-1283.292859581369
 30
0.0
 11
-3398.054277277807
 21
-1283.292859581369
 31
0.0
  0
LINE
  5
17D
330
1F
100
AcDbEntity
  8
0-A_文字
  6
JWW_HOJO
 62
     7
370
     9
100
AcDbLine
 10
3052.945722722188
 20
-1233.292859581369
 30
0.0
 11
-3398.054277277807
 21
-1233.292859581369
 31
0.0
  0
MTEXT
  5
17E
330
1F
100
AcDbEntity
  8
0-A_文字
  6
Continuous
 62
     7
370
     9
100
AcDbMText
 10
2119.445627022192
 20
-1779.307145295655
 30
0.0
 40
97.97142857142858
 41
900.0
 46
0.0
 71
     7
 72
     1
  1
{\fＭＳ ゴシック|b0|i0|c128|p49;Ａ－Ａ’断面図}
 73
     1
 44
1.0
  0
LINE
  5
17F
330
1F
100
AcDbEntity
  8
0-A_文字
  6
Continuous
 62
     7
370
     9
100
AcDbLine
 10
3089.445627022192
 20
-1783.292859581369
 30
0.0
 11
2049.445627022192
 21
-1783.292859581369
 31
0.0
  0
LINE
  5
180
330
1F
100
AcDbEntity
  8
0-A_文字
  6
Continuous
 62
     7
370
     9
100
AcDbLine
 10
2049.445627022192
 20
-1633.292859581369
 30
0.0
 11
3089.445627022192
 21
-1633.292859581369
 31
0.0
  0
LINE
  5
181
330
1F
100
AcDbEntity
  8
0-A_文字
  6
Continuous
 62
     7
370
     9
100
AcDbLine
 10
2049.445627022192
 20
-1633.292859581369
 30
0.0
 11
2049.445627022192
 21
-1783.292859581369
 31
0.0
  0
LINE
  5
182
330
1F
100
AcDbEntity
  8
0-A_文字
  6
Continuous
 62
     7
370
     9
100
AcDbLine
 10
3089.445627022192
 20
-1633.292859581369
 30
0.0
 11
3089.445627022192
 21
-1783.292859581369
 31
0.0
  0
LINE
  5
183
330
1F
100
AcDbEntity
  8
0-B_寸法
  6
Continuous
 62
   120
370
     5
100
AcDbLine
 10
2952.945722722194
 20
-1233.292859581367
 30
0.0
 11
2952.945722722194
 21
-1090.292859581366
 31
0.0
  0
LWPOLYLINE
  5
184
330
1F
100
AcDbEntity
  8
0-B_寸法
  6
Continuous
 62
     7
370
     9
100
AcDbPolyline
 90
        4
 70
     1
 43
2.0
 10
2953.945722722194
 20
-1233.292859581367
 42
0.4142135623731
 10
2952.945722722194
 20
-1232.292859581367
 42
0.4142135623731
 10
2951.945722722194
 20
-1233.292859581367
 42
0.4142135623731
 10
2952.945722722194
 20
-1234.292859581367
 42
0.4142135623731
  0
LINE
  5
185
330
1F
100
AcDbEntity
  8
0-B_寸法
  6
Continuous
 62
   120
370
     5
100
AcDbLine
 10
2952.945722722194
 20
-1233.292859581367
 30
0.0
 11
2852.945722722193
 21
-1233.292859581367
 31
0.0
  0
LINE
  5
186
330
1F
100
AcDbEntity
  8
0-B_寸法
  6
Continuous
 62
   120
370
     5
100
AcDbLine
 10
2952.945722722194
 20
-1090.292859581366
 30
0.0
 11
2852.945722722193
 21
-1090.292859581366
 31
0.0
  0
MTEXT
  5
187
330
1F
100
AcDbEntity
  8
0-B_寸法
  6
Continuous
 62
     7
370
   211
100
AcDbMText
 10
2942.945722722194
 20
-1213.932859581366
 30
0.0
 40
45.72
 41
90.0
 46
0.0
 71
     7
 72
     1
  1
{\fＭＳ ゴシック|b0|i0|c128|p49;143}
 11
6.123031769111886E-17
 21
1.0
 31
0.0
 73
     1
 44
1.0
  0
LWPOLYLINE
  5
188
330
1F
100
AcDbEntity
  8
0-B_寸法
  6
Continuous
 62
     7
370
     9
100
AcDbPolyline
 90
        4
 70
     1
 43
2.0
 10
2953.945722722194
 20
-1090.292859581366
 42
0.4142135623731
 10
2952.945722722194
 20
-1089.292859581366
 42
0.4142135623731
 10
2951.945722722194
 20
-1090.292859581366
 42
0.4142135623731
 10
2952.945722722194
 20
-1091.292859581366
 42
0.4142135623731
  0
MTEXT
  5
189
330
1F
100
AcDbEntity
  8
0-B_寸法
  6
Continuous
 62
     7
370
   211
100
AcDbMText
 10
365.1748049940306
 20
-1380.43285958137
 30
0.0
 40
45.72
 41
60.0
 46
0.0
 71
     7
 72
     1
  1
{\fＭＳ ゴシック|b0|i0|c128|p49;15}
 73
     1
 44
1.0
  0
MTEXT
  5
18A
330
1F
100
AcDbEntity
  8
0-B_寸法
  6
Continuous
 62
     7
370
   211
100
AcDbMText
 10
254.4101686427496
 20
-1380.43285958137
 30
0.0
 40
45.72
 41
60.0
 46
0.0
 71
     7
 72
     1
  1
{\fＭＳ ゴシック|b0|i0|c128|p49;15}
 73
     1
 44
1.0
  0
MTEXT
  5
18B
330
1F
100
AcDbEntity
  8
0-B_寸法
  6
Continuous
 62
     7
370
   211
100
AcDbMText
 10
1136.602473150707
 20
-1380.43285958137
 30
0.0
 40
45.72
 41
60.0
 46
0.0
 71
     7
 72
     1
  1
{\fＭＳ ゴシック|b0|i0|c128|p49;15}
 73
     1
 44
1.0
  0
MTEXT
  5
18C
330
1F
100
AcDbEntity
  8
0-B_寸法
  6
Continuous
 62
     7
370
   211
100
AcDbMText
 10
693.9457226756508
 20
-1480.43285958137
 30
0.0
 40
45.72
 41
90.0
 46
0.0
 71
     7
 72
     1
  1
{\fＭＳ ゴシック|b0|i0|c128|p49;796}
 73
     1
 44
1.0
  0
LWPOLYLINE
  5
18D
330
1F
100
AcDbEntity
  8
0-B_寸法
  6
Continuous
 62
     7
370
     9
100
AcDbPolyline
 90
        4
 70
     1
 43
2.0
 10
1137.945722675651
 20
-1483.29285958137
 42
0.4142135623731
 10
1136.945722675651
 20
-1482.29285958137
 42
0.4142135623731
 10
1135.945722675651
 20
-1483.29285958137
 42
0.4142135623731
 10
1136.945722675651
 20
-1484.292859581369
 42
0.4142135623731
  0
LWPOLYLINE
  5
18E
330
1F
100
AcDbEntity
  8
0-B_寸法
  6
Continuous
 62
     7
370
     9
100
AcDbPolyline
 90
        4
 70
     1
 43
2.0
 10
341.9457226756479
 20
-1483.29285958137
 42
0.4142135623731
 10
340.9457226756479
 20
-1482.29285958137
 42
0.4142135623731
 10
339.9457226756479
 20
-1483.29285958137
 42
0.4142135623731
 10
340.9457226756479
 20
-1484.292859581369
 42
0.4142135623731
  0
LINE
  5
18F
330
1F
100
AcDbEntity
  8
0-B_寸法
  6
Continuous
 62
   120
370
     5
100
AcDbLine
 10
340.9457226756479
 20
-1483.29285958137
 30
0.0
 11
1136.945722675651
 21
-1483.29285958137
 31
0.0
  0
LINE
  5
190
330
1F
100
AcDbEntity
  8
0-B_寸法
  6
Continuous
 62
   120
370
     5
100
AcDbLine
 10
1136.945722675651
 20
-1483.29285958137
 30
0.0
 11
1136.945722675651
 21
-1283.29285958137
 31
0.0
  0
LWPOLYLINE
  5
191
330
1F
100
AcDbEntity
  8
0-B_寸法
  6
Continuous
 62
     7
370
     9
100
AcDbPolyline
 90
        4
 70
     1
 43
2.0
 10
1137.945722675651
 20
-1383.29285958137
 42
0.4142135623731
 10
1136.945722675651
 20
-1382.29285958137
 42
0.4142135623731
 10
1135.945722675651
 20
-1383.29285958137
 42
0.4142135623731
 10
1136.945722675651
 20
-1384.29285958137
 42
0.4142135623731
  0
MTEXT
  5
192
330
1F
100
AcDbEntity
  8
0-B_寸法
  6
Continuous
 62
     7
370
   211
100
AcDbMText
 10
693.9457226756508
 20
-1380.43285958137
 30
0.0
 40
45.72
 41
90.0
 46
0.0
 71
     7
 72
     1
  1
{\fＭＳ ゴシック|b0|i0|c128|p49;766}
 73
     1
 44
1.0
  0
LINE
  5
193
330
1F
100
AcDbEntity
  8
0-B_寸法
  6
Continuous
 62
   120
370
     5
100
AcDbLine
 10
1121.945722675651
 20
-1383.29285958137
 30
0.0
 11
1121.945722675651
 21
-1283.29285958137
 31
0.0
  0
LWPOLYLINE
  5
194
330
1F
100
AcDbEntity
  8
0-B_寸法
  6
Continuous
 62
     7
370
     9
100
AcDbPolyline
 90
        4
 70
     1
 43
2.0
 10
1122.945722675651
 20
-1383.29285958137
 42
0.4142135623731
 10
1121.945722675651
 20
-1382.29285958137
 42
0.4142135623731
 10
1120.945722675651
 20
-1383.29285958137
 42
0.4142135623731
 10
1121.945722675651
 20
-1384.29285958137
 42
0.4142135623731
  0
LINE
  5
195
330
1F
100
AcDbEntity
  8
0-B_寸法
  6
Continuous
 62
   120
370
     5
100
AcDbLine
 10
355.9457226756479
 20
-1383.29285958137
 30
0.0
 11
355.9457226756479
 21
-1283.29285958137
 31
0.0
  0
LWPOLYLINE
  5
196
330
1F
100
AcDbEntity
  8
0-B_寸法
  6
Continuous
 62
     7
370
     9
100
AcDbPolyline
 90
        4
 70
     1
 43
2.0
 10
356.9457226756479
 20
-1383.29285958137
 42
0.4142135623731
 10
355.9457226756479
 20
-1382.29285958137
 42
0.4142135623731
 10
354.9457226756479
 20
-1383.29285958137
 42
0.4142135623731
 10
355.9457226756479
 20
-1384.29285958137
 42
0.4142135623731
  0
LWPOLYLINE
  5
197
330
1F
100
AcDbEntity
  8
0-B_寸法
  6
Continuous
 62
     7
370
     9
100
AcDbPolyline
 90
        4
 70
     1
 43
2.0
 10
341.9457226756479
 20
-1383.29285958137
 42
0.4142135623731
 10
340.9457226756479
 20
-1382.29285958137
 42
0.4142135623731
 10
339.9457226756479
 20
-1383.29285958137
 42
0.4142135623731
 10
340.9457226756479
 20
-1384.29285958137
 42
0.4142135623731
  0
LINE
  5
198
330
1F
100
AcDbEntity
  8
0-B_寸法
  6
Continuous
 62
   120
370
     5
100
AcDbLine
 10
340.9457226756479
 20
-1383.29285958137
 30
0.0
 11
1136.945722675651
 21
-1383.29285958137
 31
0.0
  0
LINE
  5
199
330
1F
100
AcDbEntity
  8
0-B_寸法
  6
Continuous
 62
   120
370
     5
100
AcDbLine
 10
340.9457226756479
 20
-1483.29285958137
 30
0.0
 11
340.9457226756501
 21
-1283.29285958137
 31
0.0
  0
LINE
  5
19A
330
1F
100
AcDbEntity
  8
0-B_寸法
  6
Continuous
 62
   120
370
     5
100
AcDbLine
 10
-455.0542773243512
 20
-1383.29285958137
 30
0.0
 11
340.9457226756501
 21
-1383.29285958137
 31
0.0
  0
LWPOLYLINE
  5
19B
330
1F
100
AcDbEntity
  8
0-B_寸法
  6
Continuous
 62
     7
370
     9
100
AcDbPolyline
 90
        4
 70
     1
 43
2.0
 10
-454.0542773243512
 20
-1383.29285958137
 42
0.4142135623731
 10
-455.0542773243512
 20
-1382.29285958137
 42
0.4142135623731
 10
-456.0542773243512
 20
-1383.29285958137
 42
0.4142135623731
 10
-455.0542773243512
 20
-1384.292859581369
 42
0.4142135623731
  0
LWPOLYLINE
  5
19C
330
1F
100
AcDbEntity
  8
0-B_寸法
  6
Continuous
 62
     7
370
     9
100
AcDbPolyline
 90
        4
 70
     1
 43
2.0
 10
-439.0542773243512
 20
-1383.29285958137
 42
0.4142135623731
 10
-440.0542773243512
 20
-1382.29285958137
 42
0.4142135623731
 10
-441.0542773243512
 20
-1383.29285958137
 42
0.4142135623731
 10
-440.0542773243512
 20
-1384.292859581369
 42
0.4142135623731
  0
LINE
  5
19D
330
1F
100
AcDbEntity
  8
0-B_寸法
  6
Continuous
 62
   120
370
     5
100
AcDbLine
 10
-455.0542773243512
 20
-1483.292859581369
 30
0.0
 11
-455.0542773243512
 21
-1283.29285958137
 31
0.0
  0
LINE
  5
19E
330
1F
100
AcDbEntity
  8
0-B_寸法
  6
Continuous
 62
   120
370
     5
100
AcDbLine
 10
-440.0542773243512
 20
-1383.29285958137
 30
0.0
 11
-440.0542773243512
 21
-1283.29285958137
 31
0.0
  0
LWPOLYLINE
  5
19F
330
1F
100
AcDbEntity
  8
0-B_寸法
  6
Continuous
 62
     7
370
     9
100
AcDbPolyline
 90
        4
 70
     1
 43
2.0
 10
326.9457226756501
 20
-1383.29285958137
 42
0.4142135623731
 10
325.9457226756501
 20
-1382.29285958137
 42
0.4142135623731
 10
324.9457226756501
 20
-1383.29285958137
 42
0.4142135623731
 10
325.9457226756501
 20
-1384.292859581369
 42
0.4142135623731
  0
LINE
  5
1A0
330
1F
100
AcDbEntity
  8
0-B_寸法
  6
Continuous
 62
   120
370
     5
100
AcDbLine
 10
325.9457226756501
 20
-1383.29285958137
 30
0.0
 11
325.9457226756501
 21
-1283.29285958137
 31
0.0
  0
MTEXT
  5
1A1
330
1F
100
AcDbEntity
  8
0-B_寸法
  6
Continuous
 62
     7
370
   211
100
AcDbMText
 10
-102.0542773243506
 20
-1380.43285958137
 30
0.0
 40
45.72
 41
90.0
 46
0.0
 71
     7
 72
     1
  1
{\fＭＳ ゴシック|b0|i0|c128|p49;766}
 73
     1
 44
1.0
  0
LINE
  5
1A2
330
1F
100
AcDbEntity
  8
0-B_寸法
  6
Continuous
 62
   120
370
     5
100
AcDbLine
 10
-455.0542773243512
 20
-1483.292859581369
 30
0.0
 11
340.9457226756501
 21
-1483.292859581369
 31
0.0
  0
LWPOLYLINE
  5
1A3
330
1F
100
AcDbEntity
  8
0-B_寸法
  6
Continuous
 62
     7
370
     9
100
AcDbPolyline
 90
        4
 70
     1
 43
2.0
 10
-454.0542773243512
 20
-1483.292859581369
 42
0.4142135623731
 10
-455.0542773243512
 20
-1482.292859581369
 42
0.4142135623731
 10
-456.0542773243512
 20
-1483.292859581369
 42
0.4142135623731
 10
-455.0542773243512
 20
-1484.292859581369
 42
0.4142135623731
  0
MTEXT
  5
1A4
330
1F
100
AcDbEntity
  8
0-B_寸法
  6
Continuous
 62
     7
370
   211
100
AcDbMText
 10
-102.0542773243506
 20
-1480.432859581369
 30
0.0
 40
45.72
 41
90.0
 46
0.0
 71
     7
 72
     1
  1
{\fＭＳ ゴシック|b0|i0|c128|p49;796}
 73
     1
 44
1.0
  0
MTEXT
  5
1A5
330
1F
100
AcDbEntity
  8
0-B_寸法
  6
Continuous
 62
     7
370
   211
100
AcDbMText
 10
-514.552863436395
 20
-1380.43285958137
 30
0.0
 40
45.72
 41
60.0
 46
0.0
 71
     7
 72
     1
  1
{\fＭＳ ゴシック|b0|i0|c128|p49;15}
 73
     1
 44
1.0
  0
LINE
  5
1A6
330
1F
100
AcDbEntity
  8
0-B_寸法
  6
Continuous
 62
   120
370
     5
100
AcDbLine
 10
-705.0542773243512
 20
-1169.292859581369
 30
0.0
 11
-705.0542773243512
 21
-1233.292859581369
 31
0.0
  0
LWPOLYLINE
  5
1A7
330
1F
100
AcDbEntity
  8
0-B_寸法
  6
Continuous
 62
     7
370
     9
100
AcDbPolyline
 90
        4
 70
     1
 43
2.0
 10
-704.0542773243512
 20
-1169.292859581369
 42
0.4142135623731
 10
-705.0542773243512
 20
-1168.292859581369
 42
0.4142135623731
 10
-706.0542773243512
 20
-1169.292859581369
 42
0.4142135623731
 10
-705.0542773243512
 20
-1170.292859581369
 42
0.4142135623731
  0
LWPOLYLINE
  5
1A8
330
1F
100
AcDbEntity
  8
0-B_寸法
  6
Continuous
 62
     7
370
     9
100
AcDbPolyline
 90
        4
 70
     1
 43
2.0
 10
-704.0542773243512
 20
-1233.292859581369
 42
0.4142135623731
 10
-705.0542773243512
 20
-1232.292859581369
 42
0.4142135623731
 10
-706.0542773243512
 20
-1233.292859581369
 42
0.4142135623731
 10
-705.0542773243512
 20
-1234.292859581369
 42
0.4142135623731
  0
LINE
  5
1A9
330
1F
100
AcDbEntity
  8
0-B_寸法
  6
Continuous
 62
   120
370
     5
100
AcDbLine
 10
-705.0542773243512
 20
-1169.292859581369
 30
0.0
 11
-505.0542773243501
 21
-1169.292859581369
 31
0.0
  0
LINE
  5
1AA
330
1F
100
AcDbEntity
  8
0-B_寸法
  6
Continuous
 62
   120
370
     5
100
AcDbLine
 10
-705.0542773243512
 20
-1233.292859581369
 30
0.0
 11
-505.0542773243501
 21
-1233.292859581369
 31
0.0
  0
MTEXT
  5
1AB
330
1F
100
AcDbEntity
  8
0-B_寸法
  6
Continuous
 62
     7
370
   211
100
AcDbMText
 10
-715.0542773243512
 20
-1238.432859581369
 30
0.0
 40
45.72
 41
60.0
 46
0.0
 71
     7
 72
     1
  1
{\fＭＳ ゴシック|b0|i0|c128|p49;64}
 11
6.123031769111886E-17
 21
1.0
 31
0.0
 73
     1
 44
1.0
  0
MTEXT
  5
1AC
330
1F
100
AcDbEntity
  8
0-A_文字
  6
Continuous
 62
     7
370
     9
100
AcDbMText
 10
35.94572267564956
 20
-1776.646192914702
 30
0.0
 40
103.2933333333334
 41
610.0
 46
0.0
 71
     7
 72
     1
  1
{\fＭＳ ゴシック|b0|i0|c128|p49;ｷｬﾋﾞﾈｯﾄ図}
 73
     1
 44
1.0
  0
LINE
  5
1AD
330
1F
100
AcDbEntity
  8
0-A_文字
  6
Continuous
 62
     7
370
     9
100
AcDbLine
 10
-84.054277324351
 20
-1633.292859581369
 30
0.0
 11
765.9457226756501
 21
-1633.292859581369
 31
0.0
  0
LINE
  5
1AE
330
1F
100
AcDbEntity
  8
0-A_文字
  6
Continuous
 62
     7
370
     9
100
AcDbLine
 10
765.9457226756501
 20
-1633.292859581369
 30
0.0
 11
765.9457226756501
 21
-1783.292859581369
 31
0.0
  0
LINE
  5
1AF
330
1F
100
AcDbEntity
  8
0-A_文字
  6
Continuous
 62
     7
370
     9
100
AcDbLine
 10
765.9457226756501
 20
-1783.292859581369
 30
0.0
 11
-84.054277324351
 21
-1783.292859581369
 31
0.0
  0
LINE
  5
1B0
330
1F
100
AcDbEntity
  8
0-A_文字
  6
Continuous
 62
     7
370
     9
100
AcDbLine
 10
-84.054277324351
 20
-1783.292859581369
 30
0.0
 11
-84.054277324351
 21
-1633.292859581369
 31
0.0
  0
LINE
  5
1B1
330
1F
100
AcDbEntity
  8
0-3_扉仕上
  6
Continuous
 62
     7
370
     9
100
AcDbLine
 10
-3148.054277277809
 20
-1233.292879702331
 30
0.0
 11
-1356.054277277808
 21
-1233.292879702331
 31
0.0
  0
LINE
  5
1B2
330
1F
100
AcDbEntity
  8
0-A_文字
  6
Continuous
 62
     7
370
     9
100
AcDbLine
 10
-2777.054277277809
 20
-1783.292879702331
 30
0.0
 11
-2777.054277277809
 21
-1633.292879702331
 31
0.0
  0
LINE
  5
1B3
330
1F
100
AcDbEntity
  8
0-A_文字
  6
Continuous
 62
     7
370
     9
100
AcDbLine
 10
-1927.054277277809
 20
-1783.292879702331
 30
0.0
 11
-2777.054277277809
 21
-1783.292879702331
 31
0.0
  0
LINE
  5
1B4
330
1F
100
AcDbEntity
  8
0-A_文字
  6
Continuous
 62
     7
370
     9
100
AcDbLine
 10
-1927.054277277809
 20
-1633.292879702331
 30
0.0
 11
-1927.054277277809
 21
-1783.292879702331
 31
0.0
  0
LINE
  5
1B5
330
1F
100
AcDbEntity
  8
0-A_文字
  6
Continuous
 62
     7
370
     9
100
AcDbLine
 10
-2777.054277277809
 20
-1633.292879702331
 30
0.0
 11
-1927.054277277809
 21
-1633.292879702331
 31
0.0
  0
MTEXT
  5
1B6
330
1F
100
AcDbEntity
  8
0-A_文字
  6
Continuous
 62
     7
370
     9
100
AcDbMText
 10
-1536.054277277808
 20
-1240.432879702331
 30
0.0
 40
45.72
 41
180.0
 46
0.0
 71
     7
 72
     1
  1
{\fＭＳ ゴシック|b0|i0|c128|p49;▽床面}
 73
     1
 44
1.0
  0
LINE
  5
1B7
330
1F
100
AcDbEntity
  8
0-B_寸法
  6
Continuous
 62
   120
370
     5
100
AcDbLine
 10
-3398.054277277809
 20
-1169.292846605507
 30
0.0
 11
-3398.054277277809
 21
-1233.292859581369
 31
0.0
  0
LWPOLYLINE
  5
1B8
330
1F
100
AcDbEntity
  8
0-B_寸法
  6
Continuous
 62
     7
370
     9
100
AcDbPolyline
 90
        4
 70
     1
 43
2.0
 10
-3397.054277277808
 20
-1169.292846605507
 42
0.4142135623731
 10
-3398.054277277809
 20
-1168.292846605507
 42
0.4142135623731
 10
-3399.054277277809
 20
-1169.292846605507
 42
0.4142135623731
 10
-3398.054277277809
 20
-1170.292846605507
 42
0.4142135623731
  0
LWPOLYLINE
  5
1B9
330
1F
100
AcDbEntity
  8
0-B_寸法
  6
Continuous
 62
     7
370
     9
100
AcDbPolyline
 90
        4
 70
     1
 43
2.0
 10
-3397.054277277808
 20
-1233.292859581369
 42
0.4142135623731
 10
-3398.054277277809
 20
-1232.292859581369
 42
0.4142135623731
 10
-3399.054277277809
 20
-1233.292859581369
 42
0.4142135623731
 10
-3398.054277277809
 20
-1234.292859581369
 42
0.4142135623731
  0
LINE
  5
1BA
330
1F
100
AcDbEntity
  8
0-B_寸法
  6
Continuous
 62
   120
370
     5
100
AcDbLine
 10
-3398.054277277809
 20
-1169.292846605507
 30
0.0
 11
-3198.054277277809
 21
-1169.292846605507
 31
0.0
  0
LINE
  5
1BB
330
1F
100
AcDbEntity
  8
0-B_寸法
  6
Continuous
 62
   120
370
     5
100
AcDbLine
 10
-3398.054277277809
 20
-1233.292859581369
 30
0.0
 11
-3198.054277277809
 21
-1233.292859581369
 31
0.0
  0
MTEXT
  5
1BC
330
1F
100
AcDbEntity
  8
0-B_寸法
  6
Continuous
 62
     7
370
   211
100
AcDbMText
 10
-3408.054277277809
 20
-1238.432853093438
 30
0.0
 40
45.72
 41
60.0
 46
0.0
 71
     7
 72
     1
  1
{\fＭＳ ゴシック|b0|i0|c128|p49;64}
 11
6.123031769111886E-17
 21
1.0
 31
0.0
 73
     1
 44
1.0
  0
LINE
  5
1BD
330
1F
100
AcDbEntity
  8
0-B_寸法
  6
Continuous
 62
   120
370
     5
100
AcDbLine
 10
-1556.054277231271
 20
-1483.292859581369
 30
0.0
 11
-1556.054277231271
 21
-1283.292892678194
 31
0.0
  0
LWPOLYLINE
  5
1BE
330
1F
100
AcDbEntity
  8
0-B_寸法
  6
Continuous
 62
     7
370
     9
100
AcDbPolyline
 90
        4
 70
     1
 43
2.0
 10
-1555.054277231271
 20
-1383.292892678193
 42
0.4142135623731
 10
-1556.054277231271
 20
-1382.292892678193
 42
0.4142135623731
 10
-1557.054277231271
 20
-1383.292892678193
 42
0.4142135623731
 10
-1556.054277231271
 20
-1384.292892678193
 42
0.4142135623731
  0
LINE
  5
1BF
330
1F
100
AcDbEntity
  8
0-B_寸法
  6
Continuous
 62
   120
370
     5
100
AcDbLine
 10
-2352.054277277809
 20
-1483.292859581371
 30
0.0
 11
-2352.054277277809
 21
-1283.292892678194
 31
0.0
  0
LWPOLYLINE
  5
1C0
330
1F
100
AcDbEntity
  8
0-B_寸法
  6
Continuous
 62
     7
370
     9
100
AcDbPolyline
 90
        4
 70
     1
 43
2.0
 10
-2351.054277277809
 20
-1383.292892678193
 42
0.4142135623731
 10
-2352.054277277809
 20
-1382.292892678193
 42
0.4142135623731
 10
-2353.054277277809
 20
-1383.292892678193
 42
0.4142135623731
 10
-2352.054277277809
 20
-1384.292892678193
 42
0.4142135623731
  0
LINE
  5
1C1
330
1F
100
AcDbEntity
  8
0-B_寸法
  6
Continuous
 62
   120
370
     5
100
AcDbLine
 10
-3148.054277277811
 20
-1483.292859581371
 30
0.0
 11
-3148.054277277811
 21
-1283.292892678194
 31
0.0
  0
LWPOLYLINE
  5
1C2
330
1F
100
AcDbEntity
  8
0-B_寸法
  6
Continuous
 62
     7
370
     9
100
AcDbPolyline
 90
        4
 70
     1
 43
2.0
 10
-3147.054277277811
 20
-1383.292892678193
 42
0.4142135623731
 10
-3148.054277277811
 20
-1382.292892678193
 42
0.4142135623731
 10
-3149.054277277812
 20
-1383.292892678193
 42
0.4142135623731
 10
-3148.054277277811
 20
-1384.292892678193
 42
0.4142135623731
  0
LINE
  5
1C3
330
1F
100
AcDbEntity
  8
0-B_寸法
  6
Continuous
 62
   120
370
     5
100
AcDbLine
 10
-2352.054277277809
 20
-1483.292859581371
 30
0.0
 11
-3148.054277277811
 21
-1483.292859581371
 31
0.0
  0
LWPOLYLINE
  5
1C4
330
1F
100
AcDbEntity
  8
0-B_寸法
  6
Continuous
 62
     7
370
     9
100
AcDbPolyline
 90
        4
 70
     1
 43
2.0
 10
-2351.054277277809
 20
-1483.292859581371
 42
0.4142135623731
 10
-2352.054277277809
 20
-1482.292859581371
 42
0.4142135623731
 10
-2353.054277277809
 20
-1483.292859581371
 42
0.4142135623731
 10
-2352.054277277809
 20
-1484.292859581371
 42
0.4142135623731
  0
LWPOLYLINE
  5
1C5
330
1F
100
AcDbEntity
  8
0-B_寸法
  6
Continuous
 62
     7
370
     9
100
AcDbPolyline
 90
        4
 70
     1
 43
2.0
 10
-3147.054277277811
 20
-1483.292859581371
 42
0.4142135623731
 10
-3148.054277277811
 20
-1482.292859581371
 42
0.4142135623731
 10
-3149.054277277812
 20
-1483.292859581371
 42
0.4142135623731
 10
-3148.054277277811
 20
-1484.292859581371
 42
0.4142135623731
  0
MTEXT
  5
1C6
330
1F
100
AcDbEntity
  8
0-B_寸法
  6
Continuous
 62
     7
370
   211
100
AcDbMText
 10
-2795.054277277811
 20
-1480.432859581371
 30
0.0
 40
45.72
 41
90.0
 46
0.0
 71
     7
 72
     1
  1
{\fＭＳ ゴシック|b0|i0|c128|p49;796}
 73
     1
 44
1.0
  0
LINE
  5
1C7
330
1F
100
AcDbEntity
  8
0-B_寸法
  6
Continuous
 62
   120
370
     5
100
AcDbLine
 10
-1556.054277231271
 20
-1483.292859581369
 30
0.0
 11
-2352.054277231271
 21
-1483.292859581369
 31
0.0
  0
LWPOLYLINE
  5
1C8
330
1F
100
AcDbEntity
  8
0-B_寸法
  6
Continuous
 62
     7
370
     9
100
AcDbPolyline
 90
        4
 70
     1
 43
2.0
 10
-1555.054277231271
 20
-1483.292859581369
 42
0.4142135623731
 10
-1556.054277231271
 20
-1482.292859581369
 42
0.4142135623731
 10
-1557.054277231271
 20
-1483.292859581369
 42
0.4142135623731
 10
-1556.054277231271
 20
-1484.292859581369
 42
0.4142135623731
  0
MTEXT
  5
1C9
330
1F
100
AcDbEntity
  8
0-B_寸法
  6
Continuous
 62
     7
370
   211
100
AcDbMText
 10
-1999.054277231271
 20
-1480.432859581369
 30
0.0
 40
45.72
 41
90.0
 46
0.0
 71
     7
 72
     1
  1
{\fＭＳ ゴシック|b0|i0|c128|p49;796}
 73
     1
 44
1.0
  0
LINE
  5
1CA
330
1F
100
AcDbEntity
  8
0-9__
  6
Continuous
 62
     7
370
     9
100
AcDbLine
 10
-2352.054277277809
 20
-1233.292879702331
 30
0.0
 11
-2352.054277277809
 21
-1169.292879702331
 31
0.0
  0
LINE
  5
1CB
330
1F
100
AcDbEntity
  8
0-9__
  6
Continuous
 62
     7
370
     9
100
AcDbLine
 10
-2337.054277277809
 20
-1233.292879702331
 30
0.0
 11
-2337.054277277809
 21
-1169.292879702331
 31
0.0
  0
LINE
  5
1CC
330
1F
100
AcDbEntity
  8
0-9__
  6
Continuous
 62
     7
370
     9
100
AcDbLine
 10
-2367.054277277809
 20
-1169.292879702331
 30
0.0
 11
-2367.054277277809
 21
-1233.292879702331
 31
0.0
  0
LINE
  5
1CD
330
1F
100
AcDbEntity
  8
0-9__
  6
Continuous
 62
     7
370
     9
100
AcDbLine
 10
340.9457226756513
 20
-1233.292879702331
 30
0.0
 11
340.9457226756513
 21
-1169.292879702331
 31
0.0
  0
LINE
  5
1CE
330
1F
100
AcDbEntity
  8
0-9__
  6
Continuous
 62
     7
370
     9
100
AcDbLine
 10
355.9457226756513
 20
-1233.292879702331
 30
0.0
 11
355.9457226756513
 21
-1169.292879702331
 31
0.0
  0
LINE
  5
1CF
330
1F
100
AcDbEntity
  8
0-9__
  6
Continuous
 62
     7
370
     9
100
AcDbLine
 10
325.9457226756513
 20
-1169.292879702331
 30
0.0
 11
325.9457226756513
 21
-1233.292879702331
 31
0.0
  0
LINE
  5
1D0
330
1F
100
AcDbEntity
  8
0-1_本体
  6
Continuous
 62
    40
370
    15
100
AcDbLine
 10
340.9457226756514
 20
1761.15229710354
 30
0.0
 11
348.9457226756517
 21
1761.15229710354
 31
0.0
  0
LINE
  5
1D1
330
1F
100
AcDbEntity
  8
0-1_本体
  6
Continuous
 62
    40
370
    15
100
AcDbLine
 10
348.9457226756517
 20
1761.15229710354
 30
0.0
 11
348.9457226756517
 21
1758.152297103539
 31
0.0
  0
LINE
  5
1D2
330
1F
100
AcDbEntity
  8
0-1_本体
  6
Continuous
 62
    40
370
    15
100
AcDbLine
 10
348.9457226756517
 20
1758.152297103539
 30
0.0
 11
733.4457226756513
 21
1758.152297103539
 31
0.0
  0
LINE
  5
1D3
330
1F
100
AcDbEntity
  8
0-1_本体
  6
Continuous
 62
    40
370
    15
100
AcDbLine
 10
348.9457226756517
 20
1759.652297103539
 30
0.0
 11
733.4457226756513
 21
1759.652297103539
 31
0.0
  0
LINE
  5
1D4
330
1F
100
AcDbEntity
  8
0-1_本体
  6
Continuous
 62
     7
370
     9
100
AcDbLine
 10
348.9457226756517
 20
1761.15229710354
 30
0.0
 11
733.4457226756513
 21
1761.15229710354
 31
0.0
  0
LINE
  5
1D5
330
1F
100
AcDbEntity
  8
0-1_本体
  6
Continuous
 62
    40
370
    15
100
AcDbLine
 10
1128.945722675651
 20
1761.15229710354
 30
0.0
 11
1128.945722675651
 21
1758.152297103539
 31
0.0
  0
LINE
  5
1D6
330
1F
100
AcDbEntity
  8
0-1_本体
  6
Continuous
 62
    40
370
    15
100
AcDbLine
 10
1128.945722675651
 20
1758.152297103539
 30
0.0
 11
744.4457226756515
 21
1758.152297103539
 31
0.0
  0
LINE
  5
1D7
330
1F
100
AcDbEntity
  8
0-1_本体
  6
Continuous
 62
    40
370
    15
100
AcDbLine
 10
1128.945722675651
 20
1759.652297103539
 30
0.0
 11
744.4457226756515
 21
1759.652297103539
 31
0.0
  0
LINE
  5
1D8
330
1F
100
AcDbEntity
  8
0-1_本体
  6
Continuous
 62
     7
370
     9
100
AcDbLine
 10
1128.945722675651
 20
1761.15229710354
 30
0.0
 11
744.4457226756515
 21
1761.15229710354
 31
0.0
  0
LINE
  5
1D9
330
1F
100
AcDbEntity
  8
0-1_本体
  6
Continuous
 62
    40
370
    15
100
AcDbLine
 10
1128.945722675651
 20
1761.15229710354
 30
0.0
 11
1136.945722675651
 21
1761.15229710354
 31
0.0
  0
LINE
  5
1DA
330
1F
100
AcDbEntity
  8
0-7__
  6
Continuous
 62
     7
370
     9
100
AcDbLine
 10
734.4457226756515
 20
1761.15229710354
 30
0.0
 11
743.4457226756513
 21
1761.15229710354
 31
0.0
  0
LINE
  5
1DB
330
1F
100
AcDbEntity
  8
0-7__
  6
Continuous
 62
     7
370
     9
100
AcDbLine
 10
722.9457226756516
 20
1761.65229710354
 30
0.0
 11
722.9457226756516
 21
1761.15229710354
 31
0.0
  0
ARC
  5
1DC
330
1F
100
AcDbEntity
  8
0-7__
  6
Continuous
 62
     7
370
     9
100
AcDbCircle
 10
723.4457226756513
 20
1761.65229710354
 30
0.0
 40
0.5
100
AcDbArc
 50
90.0
 51
180.0
  0
LINE
  5
1DD
330
1F
100
AcDbEntity
  8
0-7__
  6
Continuous
 62
     7
370
     9
100
AcDbLine
 10
754.9457226756513
 20
1761.65229710354
 30
0.0
 11
754.9457226756513
 21
1761.15229710354
 31
0.0
  0
LINE
  5
1DE
330
1F
100
AcDbEntity
  8
0-7__
  6
Continuous
 62
     7
370
     9
100
AcDbLine
 10
754.4457226756515
 20
1762.15229710354
 30
0.0
 11
723.4457226756513
 21
1762.15229710354
 31
0.0
  0
ARC
  5
1DF
330
1F
100
AcDbEntity
  8
0-7__
  6
Continuous
 62
     7
370
     9
100
AcDbCircle
 10
754.4457226756515
 20
1761.65229710354
 30
0.0
 40
0.5
100
AcDbArc
 50
0.0
 51
90.00000000000001
  0
LINE
  5
1E0
330
1F
100
AcDbEntity
  8
0-7__
  6
Continuous
 62
     7
370
     9
100
AcDbLine
 10
724.9457226756513
 20
1758.152297103539
 30
0.0
 11
733.4457226756513
 21
1758.152297103539
 31
0.0
  0
LINE
  5
1E1
330
1F
100
AcDbEntity
  8
0-7__
  6
Continuous
 62
     7
370
     9
100
AcDbLine
 10
724.9457226756513
 20
1757.652297103539
 30
0.0
 11
724.9457226756513
 21
1758.152297103539
 31
0.0
  0
ARC
  5
1E2
330
1F
100
AcDbEntity
  8
0-7__
  6
Continuous
 62
     7
370
     9
100
AcDbCircle
 10
725.4457226756516
 20
1757.652297103539
 30
0.0
 40
0.5
100
AcDbArc
 50
180.0
 51
270.0
  0
LINE
  5
1E3
330
1F
100
AcDbEntity
  8
0-7__
  6
Continuous
 62
     7
370
     9
100
AcDbLine
 10
752.4457226756513
 20
1757.15229710354
 30
0.0
 11
725.4457226756516
 21
1757.15229710354
 31
0.0
  0
LINE
  5
1E4
330
1F
100
AcDbEntity
  8
0-7__
  6
Continuous
 62
     7
370
     9
100
AcDbLine
 10
752.9457226756516
 20
1757.652297103539
 30
0.0
 11
752.9457226756516
 21
1758.152297103539
 31
0.0
  0
ARC
  5
1E5
330
1F
100
AcDbEntity
  8
0-7__
  6
Continuous
 62
     7
370
     9
100
AcDbCircle
 10
752.4457226756513
 20
1757.652297103539
 30
0.0
 40
0.5
100
AcDbArc
 50
270.0
 51
0.0
  0
LINE
  5
1E6
330
1F
100
AcDbEntity
  8
0-7__
  6
Continuous
 62
     7
370
     9
100
AcDbLine
 10
733.4457226756513
 20
1758.152297103539
 30
0.0
 11
733.4457226756513
 21
1761.15229710354
 31
0.0
  0
LINE
  5
1E7
330
1F
100
AcDbEntity
  8
0-7__
  6
Continuous
 62
     7
370
     9
100
AcDbLine
 10
734.4457226756515
 20
1758.152297103539
 30
0.0
 11
734.4457226756515
 21
1761.15229710354
 31
0.0
  0
LINE
  5
1E8
330
1F
100
AcDbEntity
  8
0-7__
  6
Continuous
 62
     7
370
     9
100
AcDbLine
 10
743.4457226756513
 20
1758.152297103539
 30
0.0
 11
743.4457226756513
 21
1761.15229710354
 31
0.0
  0
LINE
  5
1E9
330
1F
100
AcDbEntity
  8
0-7__
  6
Continuous
 62
     7
370
     9
100
AcDbLine
 10
734.4457226756515
 20
1758.152297103539
 30
0.0
 11
743.4457226756513
 21
1758.152297103539
 31
0.0
  0
LINE
  5
1EA
330
1F
100
AcDbEntity
  8
0-7__
  6
Continuous
 62
     7
370
     9
100
AcDbLine
 10
744.4457226756515
 20
1758.152297103539
 30
0.0
 11
744.4457226756515
 21
1761.15229710354
 31
0.0
  0
LINE
  5
1EB
330
1F
100
AcDbEntity
  8
0-7__
  6
Continuous
 62
     7
370
     9
100
AcDbLine
 10
744.4457226756515
 20
1758.152297103539
 30
0.0
 11
752.9457226756516
 21
1758.152297103539
 31
0.0
  0
LINE
  5
1EC
330
1F
100
AcDbEntity
  8
0-7__
  6
Continuous
 62
     7
370
     9
100
AcDbLine
 10
722.9457226756516
 20
1761.15229710354
 30
0.0
 11
733.4457226756513
 21
1761.15229710354
 31
0.0
  0
LINE
  5
1ED
330
1F
100
AcDbEntity
  8
0-7__
  6
Continuous
 62
     7
370
     9
100
AcDbLine
 10
744.4457226756515
 20
1761.15229710354
 30
0.0
 11
754.9457226756513
 21
1761.15229710354
 31
0.0
  0
LINE
  5
1EE
330
1F
100
AcDbEntity
  8
0-A_文字
  6
Continuous
 62
     7
370
     9
100
AcDbLine
 10
770.8172709805515
 20
1835.085671143894
 30
0.0
 11
1143.956230966957
 21
1835.085671143894
 31
0.0
  0
LINE
  5
1EF
330
1F
100
AcDbEntity
  8
0-A_文字
  6
Continuous
 62
     7
370
     9
100
AcDbLine
 10
728.3670415421244
 20
1761.559716963584
 30
0.0
 11
770.8172709805515
 21
1835.085671143894
 31
0.0
  0
MTEXT
  5
1F0
330
1F
100
AcDbEntity
  8
0-A_文字
  6
Continuous
 62
     7
370
     9
100
AcDbMText
 10
783.9562309669575
 20
1830.075712540402
 30
0.0
 40
45.72
 41
360.0
 46
0.0
 71
     7
 72
     1
  1
{\fＭＳ ゴシック|b0|i0|c128|p49;背板連結樹脂}
 73
     1
 44
1.0
  0
LINE
  5
1F1
330
1F
100
AcDbEntity
  8
0-1_本体
  6
Continuous
 62
    40
370
    15
100
AcDbLine
 10
-455.0542773243512
 20
1761.15229710354
 30
0.0
 11
-447.0542773243508
 21
1761.15229710354
 31
0.0
  0
LINE
  5
1F2
330
1F
100
AcDbEntity
  8
0-1_本体
  6
Continuous
 62
    40
370
    15
100
AcDbLine
 10
-447.0542773243508
 20
1761.15229710354
 30
0.0
 11
-447.0542773243508
 21
1758.152297103539
 31
0.0
  0
LINE
  5
1F3
330
1F
100
AcDbEntity
  8
0-1_本体
  6
Continuous
 62
    40
370
    15
100
AcDbLine
 10
-447.0542773243508
 20
1758.152297103539
 30
0.0
 11
-62.55427732435123
 21
1758.152297103539
 31
0.0
  0
LINE
  5
1F4
330
1F
100
AcDbEntity
  8
0-1_本体
  6
Continuous
 62
    40
370
    15
100
AcDbLine
 10
-447.0542773243508
 20
1759.652297103539
 30
0.0
 11
-62.55427732435123
 21
1759.652297103539
 31
0.0
  0
LINE
  5
1F5
330
1F
100
AcDbEntity
  8
0-1_本体
  6
Continuous
 62
     7
370
     9
100
AcDbLine
 10
-447.0542773243508
 20
1761.15229710354
 30
0.0
 11
-62.55427732435123
 21
1761.15229710354
 31
0.0
  0
LINE
  5
1F6
330
1F
100
AcDbEntity
  8
0-1_本体
  6
Continuous
 62
    40
370
    15
100
AcDbLine
 10
332.9457226756486
 20
1761.15229710354
 30
0.0
 11
332.9457226756486
 21
1758.152297103539
 31
0.0
  0
LINE
  5
1F7
330
1F
100
AcDbEntity
  8
0-1_本体
  6
Continuous
 62
    40
370
    15
100
AcDbLine
 10
332.9457226756486
 20
1758.152297103539
 30
0.0
 11
-51.55427732435101
 21
1758.152297103539
 31
0.0
  0
LINE
  5
1F8
330
1F
100
AcDbEntity
  8
0-1_本体
  6
Continuous
 62
    40
370
    15
100
AcDbLine
 10
332.9457226756486
 20
1759.652297103539
 30
0.0
 11
-51.55427732435101
 21
1759.652297103539
 31
0.0
  0
LINE
  5
1F9
330
1F
100
AcDbEntity
  8
0-1_本体
  6
Continuous
 62
     7
370
     9
100
AcDbLine
 10
332.9457226756486
 20
1761.15229710354
 30
0.0
 11
-51.55427732435101
 21
1761.15229710354
 31
0.0
  0
LINE
  5
1FA
330
1F
100
AcDbEntity
  8
0-1_本体
  6
Continuous
 62
    40
370
    15
100
AcDbLine
 10
332.9457226756486
 20
1761.15229710354
 30
0.0
 11
340.945722675649
 21
1761.15229710354
 31
0.0
  0
LINE
  5
1FB
330
1F
100
AcDbEntity
  8
0-7__
  6
Continuous
 62
     7
370
     9
100
AcDbLine
 10
-61.55427732435101
 20
1761.15229710354
 30
0.0
 11
-52.55427732435123
 21
1761.15229710354
 31
0.0
  0
LINE
  5
1FC
330
1F
100
AcDbEntity
  8
0-7__
  6
Continuous
 62
     7
370
     9
100
AcDbLine
 10
-73.05427732435106
 20
1761.65229710354
 30
0.0
 11
-73.05427732435106
 21
1761.15229710354
 31
0.0
  0
ARC
  5
1FD
330
1F
100
AcDbEntity
  8
0-7__
  6
Continuous
 62
     7
370
     9
100
AcDbCircle
 10
-72.55427732435123
 20
1761.65229710354
 30
0.0
 40
0.5
100
AcDbArc
 50
90.0
 51
180.0
  0
LINE
  5
1FE
330
1F
100
AcDbEntity
  8
0-7__
  6
Continuous
 62
     7
370
     9
100
AcDbLine
 10
-41.05427732435118
 20
1761.65229710354
 30
0.0
 11
-41.05427732435118
 21
1761.15229710354
 31
0.0
  0
LINE
  5
1FF
330
1F
100
AcDbEntity
  8
0-7__
  6
Continuous
 62
     7
370
     9
100
AcDbLine
 10
-41.55427732435101
 20
1762.15229710354
 30
0.0
 11
-72.55427732435123
 21
1762.15229710354
 31
0.0
  0
ARC
  5
200
330
1F
100
AcDbEntity
  8
0-7__
  6
Continuous
 62
     7
370
     9
100
AcDbCircle
 10
-41.55427732435101
 20
1761.65229710354
 30
0.0
 40
0.5
100
AcDbArc
 50
0.0
 51
90.00000000000001
  0
LINE
  5
201
330
1F
100
AcDbEntity
  8
0-7__
  6
Continuous
 62
     7
370
     9
100
AcDbLine
 10
-71.05427732435118
 20
1758.152297103539
 30
0.0
 11
-62.55427732435123
 21
1758.152297103539
 31
0.0
  0
LINE
  5
202
330
1F
100
AcDbEntity
  8
0-7__
  6
Continuous
 62
     7
370
     9
100
AcDbLine
 10
-71.05427732435118
 20
1757.652297103539
 30
0.0
 11
-71.05427732435118
 21
1758.152297103539
 31
0.0
  0
ARC
  5
203
330
1F
100
AcDbEntity
  8
0-7__
  6
Continuous
 62
     7
370
     9
100
AcDbCircle
 10
-70.55427732435106
 20
1757.652297103539
 30
0.0
 40
0.5
100
AcDbArc
 50
180.0
 51
270.0
  0
LINE
  5
204
330
1F
100
AcDbEntity
  8
0-7__
  6
Continuous
 62
     7
370
     9
100
AcDbLine
 10
-43.55427732435118
 20
1757.15229710354
 30
0.0
 11
-70.55427732435106
 21
1757.15229710354
 31
0.0
  0
LINE
  5
205
330
1F
100
AcDbEntity
  8
0-7__
  6
Continuous
 62
     7
370
     9
100
AcDbLine
 10
-43.05427732435106
 20
1757.652297103539
 30
0.0
 11
-43.05427732435106
 21
1758.152297103539
 31
0.0
  0
ARC
  5
206
330
1F
100
AcDbEntity
  8
0-7__
  6
Continuous
 62
     7
370
     9
100
AcDbCircle
 10
-43.55427732435118
 20
1757.652297103539
 30
0.0
 40
0.5
100
AcDbArc
 50
270.0
 51
0.0
  0
LINE
  5
207
330
1F
100
AcDbEntity
  8
0-7__
  6
Continuous
 62
     7
370
     9
100
AcDbLine
 10
-62.55427732435123
 20
1758.152297103539
 30
0.0
 11
-62.55427732435123
 21
1761.15229710354
 31
0.0
  0
LINE
  5
208
330
1F
100
AcDbEntity
  8
0-7__
  6
Continuous
 62
     7
370
     9
100
AcDbLine
 10
-61.55427732435101
 20
1758.152297103539
 30
0.0
 11
-61.55427732435101
 21
1761.15229710354
 31
0.0
  0
LINE
  5
209
330
1F
100
AcDbEntity
  8
0-7__
  6
Continuous
 62
     7
370
     9
100
AcDbLine
 10
-52.55427732435123
 20
1758.152297103539
 30
0.0
 11
-52.55427732435123
 21
1761.15229710354
 31
0.0
  0
LINE
  5
20A
330
1F
100
AcDbEntity
  8
0-7__
  6
Continuous
 62
     7
370
     9
100
AcDbLine
 10
-61.55427732435101
 20
1758.152297103539
 30
0.0
 11
-52.55427732435123
 21
1758.152297103539
 31
0.0
  0
LINE
  5
20B
330
1F
100
AcDbEntity
  8
0-7__
  6
Continuous
 62
     7
370
     9
100
AcDbLine
 10
-51.55427732435101
 20
1758.152297103539
 30
0.0
 11
-51.55427732435101
 21
1761.15229710354
 31
0.0
  0
LINE
  5
20C
330
1F
100
AcDbEntity
  8
0-7__
  6
Continuous
 62
     7
370
     9
100
AcDbLine
 10
-51.55427732435101
 20
1758.152297103539
 30
0.0
 11
-43.05427732435106
 21
1758.152297103539
 31
0.0
  0
LINE
  5
20D
330
1F
100
AcDbEntity
  8
0-7__
  6
Continuous
 62
     7
370
     9
100
AcDbLine
 10
-73.05427732435106
 20
1761.15229710354
 30
0.0
 11
-62.55427732435123
 21
1761.15229710354
 31
0.0
  0
LINE
  5
20E
330
1F
100
AcDbEntity
  8
0-7__
  6
Continuous
 62
     7
370
     9
100
AcDbLine
 10
-51.55427732435101
 20
1761.15229710354
 30
0.0
 11
-41.05427732435118
 21
1761.15229710354
 31
0.0
  0
LINE
  5
20F
330
1F
100
AcDbEntity
  8
0-7__
  6
Continuous
 62
     7
370
     9
100
AcDbLine
 10
724.945722675651
 20
-946.3153675471926
 30
0.0
 11
724.945722675651
 21
-1154.292859581378
 31
0.0
  0
LINE
  5
210
330
1F
100
AcDbEntity
  8
0-7__
  6
Continuous
 62
     7
370
     9
100
AcDbLine
 10
752.9457226756512
 20
-946.3153675471926
 30
0.0
 11
752.9457226756512
 21
-1154.292859581378
 31
0.0
  0
LINE
  5
211
330
1F
100
AcDbEntity
  8
0-7__
  6
JWW_DASHED1
 62
     7
370
     9
100
AcDbLine
 10
724.945722675651
 20
-946.3153675471926
 30
0.0
 11
724.945722675651
 21
-934.3153675471916
 31
0.0
  0
LINE
  5
212
330
1F
100
AcDbEntity
  8
0-7__
  6
JWW_DASHED1
 62
     7
370
     9
100
AcDbLine
 10
752.9457226756512
 20
-946.3153675471926
 30
0.0
 11
752.9457226756512
 21
-934.3153675471916
 31
0.0
  0
LINE
  5
213
330
1F
100
AcDbEntity
  8
0-7__
  6
JWW_DASHED1
 62
     7
370
     9
100
AcDbLine
 10
724.945722675651
 20
-754.3144685036333
 30
0.0
 11
724.945722675651
 21
-742.3144685036323
 31
0.0
  0
LINE
  5
214
330
1F
100
AcDbEntity
  8
0-7__
  6
JWW_DASHED1
 62
     7
370
     9
100
AcDbLine
 10
752.9457226756512
 20
-754.3144685036333
 30
0.0
 11
752.9457226756512
 21
-742.3144685036323
 31
0.0
  0
LINE
  5
215
330
1F
100
AcDbEntity
  8
0-7__
  6
Continuous
 62
     7
370
     9
100
AcDbLine
 10
752.9457226756512
 20
-754.3144685036333
 30
0.0
 11
752.9457226756512
 21
-934.3153675471916
 31
0.0
  0
LINE
  5
216
330
1F
100
AcDbEntity
  8
0-7__
  6
Continuous
 62
     7
370
     9
100
AcDbLine
 10
724.945722675651
 20
-754.3144685036333
 30
0.0
 11
724.945722675651
 21
-934.3153675471916
 31
0.0
  0
LINE
  5
217
330
1F
100
AcDbEntity
  8
0-7__
  6
JWW_DASHED1
 62
     7
370
     9
100
AcDbLine
 10
724.945722675651
 20
-562.3144685036332
 30
0.0
 11
724.945722675651
 21
-550.3144685036324
 31
0.0
  0
LINE
  5
218
330
1F
100
AcDbEntity
  8
0-7__
  6
JWW_DASHED1
 62
     7
370
     9
100
AcDbLine
 10
752.9457226756512
 20
-562.3144685036332
 30
0.0
 11
752.9457226756512
 21
-550.3144685036324
 31
0.0
  0
LINE
  5
219
330
1F
100
AcDbEntity
  8
0-7__
  6
Continuous
 62
     7
370
     9
100
AcDbLine
 10
752.9457226756512
 20
-562.3144685036351
 30
0.0
 11
752.9457226756512
 21
-742.3144685036336
 31
0.0
  0
LINE
  5
21A
330
1F
100
AcDbEntity
  8
0-7__
  6
Continuous
 62
     7
370
     9
100
AcDbLine
 10
724.945722675651
 20
-562.3144685036351
 30
0.0
 11
724.945722675651
 21
-742.3144685036336
 31
0.0
  0
LINE
  5
21B
330
1F
100
AcDbEntity
  8
0-7__
  6
Continuous
 62
     7
370
     9
100
AcDbLine
 10
724.945722675651
 20
-423.2928595813777
 30
0.0
 11
724.945722675651
 21
-550.3144685036335
 31
0.0
  0
LINE
  5
21C
330
1F
100
AcDbEntity
  8
0-7__
  6
Continuous
 62
     7
370
     9
100
AcDbLine
 10
752.9457226756512
 20
-423.2928595813777
 30
0.0
 11
752.9457226756512
 21
-550.3144685036335
 31
0.0
  0
LINE
  5
21D
330
1F
100
AcDbEntity
  8
0-7__
  6
Continuous
 62
     7
370
     9
100
AcDbLine
 10
-71.05427732435146
 20
-946.3153675471926
 30
0.0
 11
-71.05427732435146
 21
-1154.292859581378
 31
0.0
  0
LINE
  5
21E
330
1F
100
AcDbEntity
  8
0-7__
  6
Continuous
 62
     7
370
     9
100
AcDbLine
 10
-43.05427732435135
 20
-946.3153675471926
 30
0.0
 11
-43.05427732435135
 21
-1154.292859581378
 31
0.0
  0
LINE
  5
21F
330
1F
100
AcDbEntity
  8
0-7__
  6
JWW_DASHED1
 62
     7
370
     9
100
AcDbLine
 10
-71.05427732435146
 20
-946.3153675471926
 30
0.0
 11
-71.05427732435146
 21
-934.3153675471916
 31
0.0
  0
LINE
  5
220
330
1F
100
AcDbEntity
  8
0-7__
  6
JWW_DASHED1
 62
     7
370
     9
100
AcDbLine
 10
-43.05427732435135
 20
-946.3153675471926
 30
0.0
 11
-43.05427732435135
 21
-934.3153675471916
 31
0.0
  0
LINE
  5
221
330
1F
100
AcDbEntity
  8
0-7__
  6
JWW_DASHED1
 62
     7
370
     9
100
AcDbLine
 10
-71.05427732435146
 20
-754.3144685036333
 30
0.0
 11
-71.05427732435146
 21
-742.3144685036323
 31
0.0
  0
LINE
  5
222
330
1F
100
AcDbEntity
  8
0-7__
  6
JWW_DASHED1
 62
     7
370
     9
100
AcDbLine
 10
-43.05427732435135
 20
-754.3144685036333
 30
0.0
 11
-43.05427732435135
 21
-742.3144685036323
 31
0.0
  0
LINE
  5
223
330
1F
100
AcDbEntity
  8
0-7__
  6
Continuous
 62
     7
370
     9
100
AcDbLine
 10
-43.05427732435135
 20
-754.3144685036333
 30
0.0
 11
-43.05427732435135
 21
-934.3153675471916
 31
0.0
  0
LINE
  5
224
330
1F
100
AcDbEntity
  8
0-7__
  6
Continuous
 62
     7
370
     9
100
AcDbLine
 10
-71.05427732435146
 20
-754.3144685036333
 30
0.0
 11
-71.05427732435146
 21
-934.3153675471916
 31
0.0
  0
LINE
  5
225
330
1F
100
AcDbEntity
  8
0-7__
  6
JWW_DASHED1
 62
     7
370
     9
100
AcDbLine
 10
-71.05427732435146
 20
-562.3144685036332
 30
0.0
 11
-71.05427732435146
 21
-550.3144685036324
 31
0.0
  0
LINE
  5
226
330
1F
100
AcDbEntity
  8
0-7__
  6
JWW_DASHED1
 62
     7
370
     9
100
AcDbLine
 10
-43.05427732435135
 20
-562.3144685036332
 30
0.0
 11
-43.05427732435135
 21
-550.3144685036324
 31
0.0
  0
LINE
  5
227
330
1F
100
AcDbEntity
  8
0-7__
  6
Continuous
 62
     7
370
     9
100
AcDbLine
 10
-43.05427732435135
 20
-562.3144685036351
 30
0.0
 11
-43.05427732435135
 21
-742.3144685036336
 31
0.0
  0
LINE
  5
228
330
1F
100
AcDbEntity
  8
0-7__
  6
Continuous
 62
     7
370
     9
100
AcDbLine
 10
-71.05427732435146
 20
-562.3144685036351
 30
0.0
 11
-71.05427732435146
 21
-742.3144685036336
 31
0.0
  0
LINE
  5
229
330
1F
100
AcDbEntity
  8
0-7__
  6
Continuous
 62
     7
370
     9
100
AcDbLine
 10
-71.05427732435146
 20
-423.2928595813777
 30
0.0
 11
-71.05427732435146
 21
-550.3144685036335
 31
0.0
  0
LINE
  5
22A
330
1F
100
AcDbEntity
  8
0-7__
  6
Continuous
 62
     7
370
     9
100
AcDbLine
 10
-43.05427732435135
 20
-423.2928595813777
 30
0.0
 11
-43.05427732435135
 21
-550.3144685036335
 31
0.0
  0
LINE
  5
22B
330
1F
100
AcDbEntity
  8
0-A_文字
  6
Continuous
 62
     7
370
     9
100
AcDbLine
 10
770.8172709805515
 20
-356.6150449164715
 30
0.0
 11
1143.956230966957
 21
-356.6150449164715
 31
0.0
  0
LINE
  5
22C
330
1F
100
AcDbEntity
  8
0-A_文字
  6
Continuous
 62
     7
370
     9
100
AcDbLine
 10
728.3670415421244
 20
-430.1409990967818
 30
0.0
 11
770.8172709805515
 21
-356.6150449164715
 31
0.0
  0
MTEXT
  5
22D
330
1F
100
AcDbEntity
  8
0-A_文字
  6
Continuous
 62
     7
370
     9
100
AcDbMText
 10
783.9562309669575
 20
-361.6250035199633
 30
0.0
 40
45.72
 41
360.0
 46
0.0
 71
     7
 72
     1
  1
{\fＭＳ ゴシック|b0|i0|c128|p49;背板連結樹脂}
 73
     1
 44
1.0
  0
LINE
  5
22E
330
1F
100
AcDbEntity
  8
0-3_扉仕上
  6
JWW_CENTER1
 62
     7
370
     9
100
AcDbLine
 10
-2752.05427727781
 20
-411.2928397861918
 30
0.0
 11
-3146.054277277809
 21
-788.792849683785
 31
0.0
  0
LINE
  5
22F
330
1F
100
AcDbEntity
  8
0-3_扉仕上
  6
JWW_CENTER1
 62
     7
370
     9
100
AcDbLine
 10
-3146.054277277809
 20
-788.792849683785
 30
0.0
 11
-2752.05427727781
 21
-1166.292859581377
 31
0.0
  0
LINE
  5
230
330
1F
100
AcDbEntity
  8
0-3_扉仕上
  6
JWW_CENTER1
 62
     7
370
     9
100
AcDbLine
 10
-2748.054277277809
 20
-411.2928397861918
 30
0.0
 11
-2354.054277277811
 21
-788.792849683785
 31
0.0
  0
LINE
  5
231
330
1F
100
AcDbEntity
  8
0-3_扉仕上
  6
JWW_CENTER1
 62
     7
370
     9
100
AcDbLine
 10
-2354.054277277811
 20
-788.792849683785
 30
0.0
 11
-2748.054277277809
 21
-1166.292859581377
 31
0.0
  0
LINE
  5
232
330
1F
100
AcDbEntity
  8
0-3_扉仕上
  6
JWW_CENTER1
 62
     7
370
     9
100
AcDbLine
 10
-1956.054277277811
 20
-411.2928397861918
 30
0.0
 11
-2350.05427727781
 21
-788.792849683785
 31
0.0
  0
LINE
  5
233
330
1F
100
AcDbEntity
  8
0-3_扉仕上
  6
JWW_CENTER1
 62
     7
370
     9
100
AcDbLine
 10
-2350.05427727781
 20
-788.792849683785
 30
0.0
 11
-1956.054277277811
 21
-1166.292859581377
 31
0.0
  0
LINE
  5
234
330
1F
100
AcDbEntity
  8
0-3_扉仕上
  6
JWW_CENTER1
 62
     7
370
     9
100
AcDbLine
 10
-1952.05427727781
 20
-411.2928397861918
 30
0.0
 11
-1558.054277277812
 21
-788.792849683785
 31
0.0
  0
LINE
  5
235
330
1F
100
AcDbEntity
  8
0-3_扉仕上
  6
JWW_CENTER1
 62
     7
370
     9
100
AcDbLine
 10
-1558.054277277812
 20
-788.792849683785
 30
0.0
 11
-1952.05427727781
 21
-1166.292859581377
 31
0.0
  0
LINE
  5
236
330
1F
100
AcDbEntity
  8
0-0_補助線
  6
JWW_HOJO
 62
   120
370
     5
100
AcDbLine
 10
2385.945722722191
 20
-1563.79285958137
 30
0.0
 11
2385.945722722191
 21
-226.2928595813702
 31
0.0
  0
LINE
  5
237
330
1F
100
AcDbEntity
  8
0-0_補助線
  6
JWW_HOJO
 62
   120
370
     5
100
AcDbLine
 10
2085.945722722191
 20
-1563.79285958137
 30
0.0
 11
2085.945722722191
 21
-326.2928595813702
 31
0.0
  0
LINE
  5
238
330
1F
100
AcDbEntity
  8
0-0_補助線
  6
JWW_HOJO
 62
   120
370
     5
100
AcDbLine
 10
1985.945722722191
 20
-1563.79285958137
 30
0.0
 11
1985.945722722191
 21
-326.2928595813702
 31
0.0
  0
LINE
  5
239
330
1F
100
AcDbEntity
  8
0-0_補助線
  6
JWW_HOJO
 62
   120
370
     5
100
AcDbLine
 10
1885.945722722191
 20
-1563.79285958137
 30
0.0
 11
1885.945722722191
 21
-326.2928595813702
 31
0.0
  0
LINE
  5
23A
330
1F
100
AcDbEntity
  8
0-0_補助線
  6
JWW_HOJO
 62
     7
370
     9
100
AcDbLine
 10
2457.945722629116
 20
-326.2928595813702
 30
0.0
 11
2457.945722629116
 21
-1563.79285958137
 31
0.0
  0
LINE
  5
23B
330
1F
100
AcDbEntity
  8
0-0_補助線
  6
JWW_HOJO
 62
     7
370
     9
100
AcDbLine
 10
2802.945722629116
 20
-1563.79285958137
 30
0.0
 11
2802.945722629116
 21
-326.2928595813702
 31
0.0
  0
LINE
  5
23C
330
1F
100
AcDbEntity
  8
0-0_補助線
  6
JWW_HOJO
 62
   120
370
     5
100
AcDbLine
 10
2852.945722629116
 20
-1563.79285958137
 30
0.0
 11
2852.945722629116
 21
-226.2928595813702
 31
0.0
  0
MTEXT
  5
23D
330
1F
100
AcDbEntity
  8
0-B_寸法
  6
Continuous
 62
     7
370
   211
100
AcDbMText
 10
2442.445722768731
 20
-123.4329189669291
 30
0.0
 40
45.72
 41
30.0
 46
0.0
 71
     7
 72
     1
  1
{\fＭＳ ゴシック|b0|i0|c128|p49;1}
 73
     1
 44
1.0
  0
MTEXT
  5
23E
330
1F
100
AcDbEntity
  8
0-B_寸法
  6
Continuous
 62
     7
370
   211
100
AcDbMText
 10
2585.445722768733
 20
-123.4329189669291
 30
0.0
 40
45.72
 41
90.0
 46
0.0
 71
     7
 72
     1
  1
{\fＭＳ ゴシック|b0|i0|c128|p49;345}
 73
     1
 44
1.0
  0
MTEXT
  5
23F
330
1F
100
AcDbEntity
  8
0-B_寸法
  6
Continuous
 62
     7
370
   211
100
AcDbMText
 10
2463.56577004985
 20
-223.4329189669292
 30
0.0
 40
45.72
 41
60.0
 46
0.0
 71
     7
 72
     1
  1
{\fＭＳ ゴシック|b0|i0|c128|p49;37}
 73
     1
 44
1.0
  0
MTEXT
  5
240
330
1F
100
AcDbEntity
  8
0-B_寸法
  6
Continuous
 62
     7
370
   211
100
AcDbMText
 10
2543.098824478558
 20
-223.4329189669292
 30
0.0
 40
45.72
 41
60.0
 46
0.0
 71
     7
 72
     1
  1
{\fＭＳ ゴシック|b0|i0|c128|p49;30}
 73
     1
 44
1.0
  0
MTEXT
  5
241
330
1F
100
AcDbEntity
  8
0-B_寸法
  6
Continuous
 62
     7
370
   211
100
AcDbMText
 10
2627.510052044011
 20
-223.4329189669292
 30
0.0
 40
45.72
 41
90.0
 46
0.0
 71
     7
 72
     1
  1
{\fＭＳ ゴシック|b0|i0|c128|p49;256}
 73
     1
 44
1.0
  0
LINE
  5
242
330
1F
100
AcDbEntity
  8
0-1_本体
  6
Continuous
 62
    40
370
    15
100
AcDbLine
 10
2799.945722629114
 20
-1161.292918966929
 30
0.0
 11
2802.945722629116
 21
-1161.292918966929
 31
0.0
  0
LINE
  5
243
330
1F
100
AcDbEntity
  8
0-1_本体
  6
Continuous
 62
    40
370
    15
100
AcDbLine
 10
2457.945722629116
 20
-1154.292918966931
 30
0.0
 11
2457.945722629116
 21
-1169.292918966931
 31
0.0
  0
CIRCLE
  5
244
330
1F
100
AcDbEntity
  8
0-5_ダボ
  6
Continuous
 62
     7
370
     9
100
AcDbCircle
 10
2494.945722629114
 20
-1033.292918966929
 30
0.0
 40
2.5
  0
CIRCLE
  5
245
330
1F
100
AcDbEntity
  8
0-5_ダボ
  6
Continuous
 62
     7
370
     9
100
AcDbCircle
 10
2494.945722629114
 20
-1065.29291896693
 30
0.0
 40
2.5
  0
LINE
  5
246
330
1F
100
AcDbEntity
  8
0-1_本体
  6
Continuous
 62
    40
370
    15
100
AcDbLine
 10
2457.945722629116
 20
-1154.292918966931
 30
0.0
 11
2799.945722629114
 21
-1154.292918966931
 31
0.0
  0
LINE
  5
247
330
1F
100
AcDbEntity
  8
0-1_本体
  6
Continuous
 62
    40
370
    15
100
AcDbLine
 10
2802.945722629116
 20
-1169.292918966931
 30
0.0
 11
2457.945722629116
 21
-1169.292918966931
 31
0.0
  0
LINE
  5
248
330
1F
100
AcDbEntity
  8
0-B_寸法
  6
Continuous
 62
   120
370
     5
100
AcDbLine
 10
2185.945722722191
 20
-1169.29291896693
 30
0.0
 11
2285.945722722191
 21
-1169.29291896693
 31
0.0
  0
LWPOLYLINE
  5
249
330
1F
100
AcDbEntity
  8
0-B_寸法
  6
Continuous
 62
     7
370
     9
100
AcDbPolyline
 90
        4
 70
     1
 43
2.0
 10
2186.945722722191
 20
-1169.29291896693
 42
0.4142135623731
 10
2185.945722722191
 20
-1168.29291896693
 42
0.4142135623731
 10
2184.945722722191
 20
-1169.29291896693
 42
0.4142135623731
 10
2185.945722722191
 20
-1170.29291896693
 42
0.4142135623731
  0
MTEXT
  5
24A
330
1F
100
AcDbEntity
  8
0-B_寸法
  6
Continuous
 62
     7
370
   211
100
AcDbMText
 10
2739.48326157884
 20
-223.4329189669292
 30
0.0
 40
45.72
 41
60.0
 46
0.0
 71
     7
 72
     1
  1
{\fＭＳ ゴシック|b0|i0|c128|p49;22}
 73
     1
 44
1.0
  0
LINE
  5
24B
330
1F
100
AcDbEntity
  8
0-B_寸法
  6
Continuous
 62
   120
370
     5
100
AcDbLine
 10
2285.945722722191
 20
-1169.29291896693
 30
0.0
 11
2385.945722629113
 21
-1169.29291896693
 31
0.0
  0
LWPOLYLINE
  5
24C
330
1F
100
AcDbEntity
  8
0-B_寸法
  6
Continuous
 62
     7
370
     9
100
AcDbPolyline
 90
        4
 70
     1
 43
2.0
 10
2286.945722722191
 20
-1169.29291896693
 42
0.4142135623731
 10
2285.945722722191
 20
-1168.29291896693
 42
0.4142135623731
 10
2284.945722722191
 20
-1169.29291896693
 42
0.4142135623731
 10
2285.945722722191
 20
-1170.29291896693
 42
0.4142135623731
  0
LINE
  5
24D
330
1F
100
AcDbEntity
  8
0-B_寸法
  6
Continuous
 62
   120
370
     5
100
AcDbLine
 10
2285.945722722191
 20
-1049.29291896693
 30
0.0
 11
2285.945722722191
 21
-1169.29291896693
 31
0.0
  0
LINE
  5
24E
330
1F
100
AcDbEntity
  8
0-B_寸法
  6
Continuous
 62
   120
370
     5
100
AcDbLine
 10
2285.945722722191
 20
-1049.29291896693
 30
0.0
 11
2385.945722629113
 21
-1049.29291896693
 31
0.0
  0
LWPOLYLINE
  5
24F
330
1F
100
AcDbEntity
  8
0-B_寸法
  6
Continuous
 62
     7
370
     9
100
AcDbPolyline
 90
        4
 70
     1
 43
2.0
 10
2286.945722722191
 20
-1049.29291896693
 42
0.4142135623731
 10
2285.945722722191
 20
-1048.29291896693
 42
0.4142135623731
 10
2284.945722722191
 20
-1049.29291896693
 42
0.4142135623731
 10
2285.945722722191
 20
-1050.29291896693
 42
0.4142135623731
  0
LINE
  5
250
330
1F
100
AcDbEntity
  8
0-B_寸法
  6
Continuous
 62
   120
370
     5
100
AcDbLine
 10
2085.945722722191
 20
-1166.292937524916
 30
0.0
 11
2185.945722722191
 21
-1166.292937524916
 31
0.0
  0
LWPOLYLINE
  5
251
330
1F
100
AcDbEntity
  8
0-B_寸法
  6
Continuous
 62
     7
370
     9
100
AcDbPolyline
 90
        4
 70
     1
 43
2.0
 10
2086.945722722191
 20
-1166.292937524916
 42
0.4142135623731
 10
2085.945722722191
 20
-1165.292937524917
 42
0.4142135623731
 10
2084.945722722191
 20
-1166.292937524916
 42
0.4142135623731
 10
2085.945722722191
 20
-1167.292937524916
 42
0.4142135623731
  0
LINE
  5
252
330
1F
100
AcDbEntity
  8
0-B_寸法
  6
Continuous
 62
   120
370
     5
100
AcDbLine
 10
2085.945722722191
 20
-1169.292937524916
 30
0.0
 11
2085.945722722191
 21
-1166.292937524916
 31
0.0
  0
MTEXT
  5
253
330
1F
100
AcDbEntity
  8
0-B_寸法
  6
Continuous
 62
     7
370
   211
100
AcDbMText
 10
2075.945722722191
 20
-448.6838619457073
 30
0.0
 40
45.72
 41
30.0
 46
0.0
 71
     7
 72
     1
  1
{\fＭＳ ゴシック|b0|i0|c128|p49;3}
 11
6.123031769111886E-17
 21
1.0
 31
0.0
 73
     1
 44
1.0
  0
LINE
  5
254
330
1F
100
AcDbEntity
  8
0-B_寸法
  6
Continuous
 62
   120
370
     5
100
AcDbLine
 10
2085.945722722191
 20
-1169.292937524916
 30
0.0
 11
2185.945722722191
 21
-1169.292937524916
 31
0.0
  0
LWPOLYLINE
  5
255
330
1F
100
AcDbEntity
  8
0-B_寸法
  6
Continuous
 62
     7
370
     9
100
AcDbPolyline
 90
        4
 70
     1
 43
2.0
 10
2086.945722722191
 20
-1169.292937524916
 42
0.4142135623731
 10
2085.945722722191
 20
-1168.292937524916
 42
0.4142135623731
 10
2084.945722722191
 20
-1169.292937524916
 42
0.4142135623731
 10
2085.945722722191
 20
-1170.292937524916
 42
0.4142135623731
  0
LINE
  5
256
330
1F
100
AcDbEntity
  8
0-B_寸法
  6
Continuous
 62
   120
370
     5
100
AcDbLine
 10
1985.945722722191
 20
-1169.292918966931
 30
0.0
 11
2085.945722722191
 21
-1169.292918966931
 31
0.0
  0
LWPOLYLINE
  5
257
330
1F
100
AcDbEntity
  8
0-B_寸法
  6
Continuous
 62
     7
370
     9
100
AcDbPolyline
 90
        4
 70
     1
 43
2.0
 10
1986.945722722191
 20
-1169.292918966931
 42
0.4142135623731
 10
1985.945722722191
 20
-1168.292918966931
 42
0.4142135623731
 10
1984.945722722191
 20
-1169.292918966931
 42
0.4142135623731
 10
1985.945722722191
 20
-1170.292918966931
 42
0.4142135623731
  0
LINE
  5
258
330
1F
100
AcDbEntity
  8
0-B_寸法
  6
Continuous
 62
   120
370
     5
100
AcDbLine
 10
2085.945722722191
 20
-1169.292918966931
 30
0.0
 11
2185.945722722191
 21
-1169.292918966931
 31
0.0
  0
CIRCLE
  5
259
330
1F
100
AcDbEntity
  8
0-5_ダボ
  6
Continuous
 62
     7
370
     9
100
AcDbCircle
 10
2780.945722629113
 20
-564.8145278891856
 30
0.0
 40
2.5
  0
CIRCLE
  5
25A
330
1F
100
AcDbEntity
  8
0-5_ダボ
  6
Continuous
 62
     7
370
     9
100
AcDbCircle
 10
2780.945722629113
 20
-596.814527889186
 30
0.0
 40
2.5
  0
CIRCLE
  5
25B
330
1F
100
AcDbEntity
  8
0-5_ダボ
  6
Continuous
 62
     7
370
     9
100
AcDbCircle
 10
2780.945722629113
 20
-628.8145278891863
 30
0.0
 40
2.5
  0
CIRCLE
  5
25C
330
1F
100
AcDbEntity
  8
0-5_ダボ
  6
Continuous
 62
     7
370
     9
100
AcDbCircle
 10
2780.945722629113
 20
-660.8145278891867
 30
0.0
 40
2.5
  0
CIRCLE
  5
25D
330
1F
100
AcDbEntity
  8
0-5_ダボ
  6
Continuous
 62
     7
370
     9
100
AcDbCircle
 10
2780.945722629113
 20
-692.814527889186
 30
0.0
 40
2.5
  0
CIRCLE
  5
25E
330
1F
100
AcDbEntity
  8
0-5_ダボ
  6
Continuous
 62
     7
370
     9
100
AcDbCircle
 10
2780.945722629113
 20
-724.8145278891865
 30
0.0
 40
2.5
  0
CIRCLE
  5
25F
330
1F
100
AcDbEntity
  8
0-5_ダボ
  6
Continuous
 62
     7
370
     9
100
AcDbCircle
 10
2780.945722629113
 20
-756.8145278891858
 30
0.0
 40
2.5
  0
CIRCLE
  5
260
330
1F
100
AcDbEntity
  8
0-5_ダボ
  6
Continuous
 62
     7
370
     9
100
AcDbCircle
 10
2780.945722629113
 20
-788.8145278891863
 30
0.0
 40
2.5
  0
CIRCLE
  5
261
330
1F
100
AcDbEntity
  8
0-5_ダボ
  6
Continuous
 62
     7
370
     9
100
AcDbCircle
 10
2780.945722629113
 20
-820.8145278891867
 30
0.0
 40
2.5
  0
CIRCLE
  5
262
330
1F
100
AcDbEntity
  8
0-5_ダボ
  6
Continuous
 62
     7
370
     9
100
AcDbCircle
 10
2780.945722629113
 20
-852.8145278891866
 30
0.0
 40
2.5
  0
CIRCLE
  5
263
330
1F
100
AcDbEntity
  8
0-5_ダボ
  6
Continuous
 62
     7
370
     9
100
AcDbCircle
 10
2780.945722629113
 20
-884.8145278891876
 30
0.0
 40
2.5
  0
CIRCLE
  5
264
330
1F
100
AcDbEntity
  8
0-5_ダボ
  6
Continuous
 62
     7
370
     9
100
AcDbCircle
 10
2780.945722629113
 20
-916.8145278891858
 30
0.0
 40
2.5
  0
CIRCLE
  5
265
330
1F
100
AcDbEntity
  8
0-5_ダボ
  6
Continuous
 62
     7
370
     9
100
AcDbCircle
 10
2780.945722629113
 20
-948.8145278891863
 30
0.0
 40
2.5
  0
CIRCLE
  5
266
330
1F
100
AcDbEntity
  8
0-5_ダボ
  6
Continuous
 62
     7
370
     9
100
AcDbCircle
 10
2780.945722629113
 20
-980.8145278891867
 30
0.0
 40
2.5
  0
CIRCLE
  5
267
330
1F
100
AcDbEntity
  8
0-5_ダボ
  6
Continuous
 62
     7
370
     9
100
AcDbCircle
 10
2780.945722629113
 20
-1012.814527889186
 30
0.0
 40
2.5
  0
LINE
  5
268
330
1F
100
AcDbEntity
  8
0-4_棚
  6
Continuous
 62
    40
370
    15
100
AcDbLine
 10
2799.945722629114
 20
-550.3145278891851
 30
0.0
 11
2799.945722629114
 21
-562.3145278891856
 31
0.0
  0
LINE
  5
269
330
1F
100
AcDbEntity
  8
0-4_棚
  6
Continuous
 62
    40
370
    15
100
AcDbLine
 10
2509.945722629114
 20
-550.3145278891851
 30
0.0
 11
2509.945722629114
 21
-562.3145278891856
 31
0.0
  0
LINE
  5
26A
330
1F
100
AcDbEntity
  8
0-4_棚
  6
Continuous
 62
    40
370
    15
100
AcDbLine
 10
2509.945722629114
 20
-562.3145278891856
 30
0.0
 11
2799.945722629114
 21
-562.3145278891856
 31
0.0
  0
LINE
  5
26B
330
1F
100
AcDbEntity
  8
0-4_棚
  6
Continuous
 62
    40
370
    15
100
AcDbLine
 10
2509.945722629114
 20
-550.3145278891851
 30
0.0
 11
2799.945722629114
 21
-550.3145278891851
 31
0.0
  0
LINE
  5
26C
330
1F
100
AcDbEntity
  8
0-4_棚
  6
Continuous
 62
    40
370
    15
100
AcDbLine
 10
2799.945722629114
 20
-742.3145278891865
 30
0.0
 11
2799.945722629114
 21
-754.3145278891858
 31
0.0
  0
LINE
  5
26D
330
1F
100
AcDbEntity
  8
0-4_棚
  6
Continuous
 62
    40
370
    15
100
AcDbLine
 10
2509.945722629114
 20
-742.3145278891865
 30
0.0
 11
2509.945722629114
 21
-754.3145278891858
 31
0.0
  0
LINE
  5
26E
330
1F
100
AcDbEntity
  8
0-4_棚
  6
Continuous
 62
    40
370
    15
100
AcDbLine
 10
2509.945722629114
 20
-754.3145278891858
 30
0.0
 11
2799.945722629114
 21
-754.3145278891858
 31
0.0
  0
LINE
  5
26F
330
1F
100
AcDbEntity
  8
0-4_棚
  6
Continuous
 62
    40
370
    15
100
AcDbLine
 10
2509.945722629114
 20
-742.3145278891865
 30
0.0
 11
2799.945722629114
 21
-742.3145278891865
 31
0.0
  0
LINE
  5
270
330
1F
100
AcDbEntity
  8
0-4_棚
  6
Continuous
 62
    40
370
    15
100
AcDbLine
 10
2509.945722629114
 20
-934.3154269327453
 30
0.0
 11
2509.945722629114
 21
-946.3154269327451
 31
0.0
  0
LINE
  5
271
330
1F
100
AcDbEntity
  8
0-4_棚
  6
Continuous
 62
    40
370
    15
100
AcDbLine
 10
2509.945722629114
 20
-934.3154269327453
 30
0.0
 11
2799.945722629114
 21
-934.3154269327453
 31
0.0
  0
LINE
  5
272
330
1F
100
AcDbEntity
  8
0-4_棚
  6
Continuous
 62
    40
370
    15
100
AcDbLine
 10
2509.945722629114
 20
-946.3154269327451
 30
0.0
 11
2799.945722629114
 21
-946.3154269327451
 31
0.0
  0
LINE
  5
273
330
1F
100
AcDbEntity
  8
0-4_棚
  6
Continuous
 62
    40
370
    15
100
AcDbLine
 10
2799.945722629114
 20
-934.3154269327453
 30
0.0
 11
2799.945722629114
 21
-946.3154269327451
 31
0.0
  0
LINE
  5
274
330
1F
100
AcDbEntity
  8
0-0_補助線
  6
JWW_HOJO
 62
     7
370
     9
100
AcDbLine
 10
2445.660007710831
 20
-756.792918966929
 30
0.0
 11
2802.945722602522
 21
-756.792918966929
 31
0.0
  0
LINE
  5
275
330
1F
100
AcDbEntity
  8
0-0_補助線
  6
JWW_HOJO
 62
     7
370
     9
100
AcDbLine
 10
2443.374293522789
 20
-724.7929189669297
 30
0.0
 11
2802.945722599196
 21
-724.7929189669297
 31
0.0
  0
LINE
  5
276
330
1F
100
AcDbEntity
  8
0-0_補助線
  6
JWW_HOJO
 62
     7
370
     9
100
AcDbLine
 10
2455.660007027132
 20
-980.79291896693
 30
0.0
 11
2802.94572262579
 21
-980.79291896693
 31
0.0
  0
LINE
  5
277
330
1F
100
AcDbEntity
  8
0-0_補助線
  6
JWW_HOJO
 62
     7
370
     9
100
AcDbLine
 10
2453.37429283909
 20
-948.7929189669295
 30
0.0
 11
2802.945722622468
 21
-948.7929189669295
 31
0.0
  0
LINE
  5
278
330
1F
100
AcDbEntity
  8
0-0_補助線
  6
JWW_HOJO
 62
     7
370
     9
100
AcDbLine
 10
2451.088578651048
 20
-916.7929189669302
 30
0.0
 11
2802.945722619142
 21
-916.7929189669302
 31
0.0
  0
LINE
  5
279
330
1F
100
AcDbEntity
  8
0-0_補助線
  6
JWW_HOJO
 62
     7
370
     9
100
AcDbLine
 10
2448.802864463003
 20
-884.7929189669297
 30
0.0
 11
2802.945722615819
 21
-884.7929189669297
 31
0.0
  0
LINE
  5
27A
330
1F
100
AcDbEntity
  8
0-0_補助線
  6
JWW_HOJO
 62
     7
370
     9
100
AcDbLine
 10
2446.51715027496
 20
-852.7929189669298
 30
0.0
 11
2802.945722612493
 21
-852.7929189669298
 31
0.0
  0
LINE
  5
27B
330
1F
100
AcDbEntity
  8
0-0_補助線
  6
JWW_HOJO
 62
     7
370
     9
100
AcDbLine
 10
2444.231436086918
 20
-820.79291896693
 30
0.0
 11
2802.945722609171
 21
-820.79291896693
 31
0.0
  0
LINE
  5
27C
330
1F
100
AcDbEntity
  8
0-0_補助線
  6
JWW_HOJO
 62
     7
370
     9
100
AcDbLine
 10
2441.945721898875
 20
-788.7929189669295
 30
0.0
 11
2802.945722605845
 21
-788.7929189669295
 31
0.0
  0
MTEXT
  5
27D
330
1F
100
AcDbEntity
  8
0-B_寸法
  6
Continuous
 62
     7
370
   211
100
AcDbMText
 10
2275.945722722191
 20
-520.4329189669294
 30
0.0
 40
45.72
 41
90.0
 46
0.0
 71
     7
 72
     1
  1
{\fＭＳ ゴシック|b0|i0|c128|p49;120}
 11
6.123031769111886E-17
 21
1.0
 31
0.0
 73
     1
 44
1.0
  0
LINE
  5
27E
330
1F
100
AcDbEntity
  8
0-B_寸法
  6
Continuous
 62
   120
370
     5
100
AcDbLine
 10
2185.945722722191
 20
-564.7929189669297
 30
0.0
 11
2285.945722722191
 21
-564.7929189669297
 31
0.0
  0
LWPOLYLINE
  5
27F
330
1F
100
AcDbEntity
  8
0-B_寸法
  6
Continuous
 62
     7
370
     9
100
AcDbPolyline
 90
        4
 70
     1
 43
2.0
 10
2186.945722722191
 20
-564.7929189669297
 42
0.4142135623731
 10
2185.945722722191
 20
-563.7929189669297
 42
0.4142135623731
 10
2184.945722722191
 20
-564.7929189669297
 42
0.4142135623731
 10
2185.945722722191
 20
-565.7929189669297
 42
0.4142135623731
  0
LINE
  5
280
330
1F
100
AcDbEntity
  8
0-B_寸法
  6
Continuous
 62
   120
370
     5
100
AcDbLine
 10
2185.945722722191
 20
-1012.79291896693
 30
0.0
 11
2185.945722722191
 21
-564.7929189669297
 31
0.0
  0
LINE
  5
281
330
1F
100
AcDbEntity
  8
0-B_寸法
  6
Continuous
 62
   120
370
     5
100
AcDbLine
 10
2185.945722722191
 20
-1012.79291896693
 30
0.0
 11
2285.945722722191
 21
-1012.79291896693
 31
0.0
  0
LWPOLYLINE
  5
282
330
1F
100
AcDbEntity
  8
0-B_寸法
  6
Continuous
 62
     7
370
     9
100
AcDbPolyline
 90
        4
 70
     1
 43
2.0
 10
2186.945722722191
 20
-1012.79291896693
 42
0.4142135623731
 10
2185.945722722191
 20
-1011.79291896693
 42
0.4142135623731
 10
2184.945722722191
 20
-1012.79291896693
 42
0.4142135623731
 10
2185.945722722191
 20
-1013.79291896693
 42
0.4142135623731
  0
LINE
  5
283
330
1F
100
AcDbEntity
  8
0-B_寸法
  6
Continuous
 62
   120
370
     5
100
AcDbLine
 10
2185.945722722191
 20
-1169.29291896693
 30
0.0
 11
2185.945722722191
 21
-1012.79291896693
 31
0.0
  0
LINE
  5
284
330
1F
100
AcDbEntity
  8
0-0_補助線
  6
JWW_HOJO
 62
     7
370
     9
100
AcDbLine
 10
2296.193164172745
 20
-564.7929189669297
 30
0.0
 11
2802.945722582577
 21
-564.7929189669297
 31
0.0
  0
LINE
  5
285
330
1F
100
AcDbEntity
  8
0-0_補助線
  6
JWW_HOJO
 62
     7
370
     9
100
AcDbLine
 10
2802.945722629116
 20
-1012.792938762116
 30
0.0
 11
2213.880641562629
 21
-1012.792938762116
 31
0.0
  0
CIRCLE
  5
286
330
1F
100
AcDbEntity
  8
0-5_ダボ
  6
Continuous
 62
     7
370
     9
100
AcDbCircle
 10
2494.945722629114
 20
-512.2929189669288
 30
0.0
 40
2.5
  0
CIRCLE
  5
287
330
1F
100
AcDbEntity
  8
0-5_ダボ
  6
Continuous
 62
     7
370
     9
100
AcDbCircle
 10
2494.945722629114
 20
-544.2929189669298
 30
0.0
 40
2.5
  0
LINE
  5
288
330
1F
100
AcDbEntity
  8
0-0_補助線
  6
JWW_HOJO
 62
     7
370
     9
100
AcDbLine
 10
2780.945722629113
 20
-1161.292918966929
 30
0.0
 11
2780.945722629113
 21
-408.2929189669294
 31
0.0
  0
LINE
  5
289
330
1F
100
AcDbEntity
  8
0-B_寸法
  6
Continuous
 62
   120
370
     5
100
AcDbLine
 10
2185.945722722191
 20
-408.2929189669294
 30
0.0
 11
2285.945722722191
 21
-408.2929189669294
 31
0.0
  0
LWPOLYLINE
  5
28A
330
1F
100
AcDbEntity
  8
0-B_寸法
  6
Continuous
 62
     7
370
     9
100
AcDbPolyline
 90
        4
 70
     1
 43
2.0
 10
2186.945722722191
 20
-408.2929189669294
 42
0.4142135623731
 10
2185.945722722191
 20
-407.2929189669293
 42
0.4142135623731
 10
2184.945722722191
 20
-408.2929189669294
 42
0.4142135623731
 10
2185.945722722191
 20
-409.2929189669294
 42
0.4142135623731
  0
LINE
  5
28B
330
1F
100
AcDbEntity
  8
0-B_寸法
  6
Continuous
 62
   120
370
     5
100
AcDbLine
 10
2185.945722722191
 20
-564.7929189669297
 30
0.0
 11
2185.945722722191
 21
-408.2929189669294
 31
0.0
  0
LINE
  5
28C
330
1F
100
AcDbEntity
  8
0-B_寸法
  6
Continuous
 62
   120
370
     5
100
AcDbLine
 10
2285.945722722191
 20
-528.29291896693
 30
0.0
 11
2285.945722722191
 21
-1049.29291896693
 31
0.0
  0
MTEXT
  5
28D
330
1F
100
AcDbEntity
  8
0-B_寸法
  6
Continuous
 62
     7
370
   211
100
AcDbMText
 10
2175.945722722191
 20
-580.4329189669294
 30
0.0
 40
45.72
 41
150.0
 46
0.0
 71
     7
 72
     1
  1
{\fＭＳ ゴシック|b0|i0|c128|p49;156.5}
 11
6.123031769111886E-17
 21
1.0
 31
0.0
 73
     1
 44
1.0
  0
LINE
  5
28E
330
1F
100
AcDbEntity
  8
0-B_寸法
  6
Continuous
 62
   120
370
     5
100
AcDbLine
 10
2285.945722722191
 20
-528.29291896693
 30
0.0
 11
2385.945722629113
 21
-528.29291896693
 31
0.0
  0
LINE
  5
28F
330
1F
100
AcDbEntity
  8
0-B_寸法
  6
Continuous
 62
   120
370
     5
100
AcDbLine
 10
2285.945722722191
 20
-408.2929189669294
 30
0.0
 11
2385.945722629113
 21
-408.2929189669294
 31
0.0
  0
LWPOLYLINE
  5
290
330
1F
100
AcDbEntity
  8
0-B_寸法
  6
Continuous
 62
     7
370
     9
100
AcDbPolyline
 90
        4
 70
     1
 43
2.0
 10
2286.945722722191
 20
-528.29291896693
 42
0.4142135623731
 10
2285.945722722191
 20
-527.29291896693
 42
0.4142135623731
 10
2284.945722722191
 20
-528.29291896693
 42
0.4142135623731
 10
2285.945722722191
 20
-529.29291896693
 42
0.4142135623731
  0
LWPOLYLINE
  5
291
330
1F
100
AcDbEntity
  8
0-B_寸法
  6
Continuous
 62
     7
370
     9
100
AcDbPolyline
 90
        4
 70
     1
 43
2.0
 10
2286.945722722191
 20
-408.2929189669294
 42
0.4142135623731
 10
2285.945722722191
 20
-407.2929189669293
 42
0.4142135623731
 10
2284.945722722191
 20
-408.2929189669294
 42
0.4142135623731
 10
2285.945722722191
 20
-409.2929189669294
 42
0.4142135623731
  0
LINE
  5
292
330
1F
100
AcDbEntity
  8
0-B_寸法
  6
Continuous
 62
   120
370
     5
100
AcDbLine
 10
2285.945722722191
 20
-408.2929189669294
 30
0.0
 11
2285.945722722191
 21
-528.29291896693
 31
0.0
  0
LINE
  5
293
330
1F
100
AcDbEntity
  8
0-B_寸法
  6
Continuous
 62
   120
370
     5
100
AcDbLine
 10
2085.945722722191
 20
-1166.292937524916
 30
0.0
 11
2085.945722722191
 21
-411.2928991717439
 31
0.0
  0
LINE
  5
294
330
1F
100
AcDbEntity
  8
0-B_寸法
  6
Continuous
 62
   120
370
     5
100
AcDbLine
 10
2085.945722722191
 20
-411.2928991717439
 30
0.0
 11
2085.945722722191
 21
-408.2928991717438
 31
0.0
  0
LINE
  5
295
330
1F
100
AcDbEntity
  8
0-B_寸法
  6
Continuous
 62
   120
370
     5
100
AcDbLine
 10
2085.945722722191
 20
-411.2928991717439
 30
0.0
 11
2185.945722722191
 21
-411.2928991717439
 31
0.0
  0
LWPOLYLINE
  5
296
330
1F
100
AcDbEntity
  8
0-B_寸法
  6
Continuous
 62
     7
370
     9
100
AcDbPolyline
 90
        4
 70
     1
 43
2.0
 10
2086.945722722191
 20
-411.2928991717439
 42
0.4142135623731
 10
2085.945722722191
 20
-410.2928991717439
 42
0.4142135623731
 10
2084.945722722191
 20
-411.2928991717439
 42
0.4142135623731
 10
2085.945722722191
 20
-412.2928991717439
 42
0.4142135623731
  0
MTEXT
  5
297
330
1F
100
AcDbEntity
  8
0-B_寸法
  6
Continuous
 62
     7
370
   211
100
AcDbMText
 10
2609.197855430038
 20
-682.7858612535458
 30
0.0
 40
45.72
 41
90.0
 46
0.0
 71
     7
 72
     1
  1
{\fＭＳ ゴシック|b0|i0|c128|p49;P32}
 73
     1
 44
1.0
  0
LINE
  5
298
330
1F
100
AcDbEntity
  8
0-B_寸法
  6
Continuous
 62
   120
370
     5
100
AcDbLine
 10
2085.945722722191
 20
-408.2928991717438
 30
0.0
 11
2185.945722722191
 21
-408.2928991717438
 31
0.0
  0
LWPOLYLINE
  5
299
330
1F
100
AcDbEntity
  8
0-B_寸法
  6
Continuous
 62
     7
370
     9
100
AcDbPolyline
 90
        4
 70
     1
 43
2.0
 10
2086.945722722191
 20
-408.2928991717438
 42
0.4142135623731
 10
2085.945722722191
 20
-407.2928991717438
 42
0.4142135623731
 10
2084.945722722191
 20
-408.2928991717438
 42
0.4142135623731
 10
2085.945722722191
 20
-409.2928991717438
 42
0.4142135623731
  0
LINE
  5
29A
330
1F
100
AcDbEntity
  8
0-B_寸法
  6
Continuous
 62
   120
370
     5
100
AcDbLine
 10
1985.945722722191
 20
-1169.292918966931
 30
0.0
 11
1985.945722722191
 21
-408.2928991717438
 31
0.0
  0
LINE
  5
29B
330
1F
100
AcDbEntity
  8
0-B_寸法
  6
Continuous
 62
   120
370
     5
100
AcDbLine
 10
1985.945722722191
 20
-408.2928991717438
 30
0.0
 11
2085.945722722191
 21
-408.2928991717438
 31
0.0
  0
LWPOLYLINE
  5
29C
330
1F
100
AcDbEntity
  8
0-B_寸法
  6
Continuous
 62
     7
370
     9
100
AcDbPolyline
 90
        4
 70
     1
 43
2.0
 10
1986.945722722191
 20
-408.2928991717438
 42
0.4142135623731
 10
1985.945722722191
 20
-407.2928991717438
 42
0.4142135623731
 10
1984.945722722191
 20
-408.2928991717438
 42
0.4142135623731
 10
1985.945722722191
 20
-409.2928991717438
 42
0.4142135623731
  0
LINE
  5
29D
330
1F
100
AcDbEntity
  8
0-B_寸法
  6
Continuous
 62
   120
370
     5
100
AcDbLine
 10
2085.945722722191
 20
-408.2929189669294
 30
0.0
 11
2185.945722722191
 21
-408.2929189669294
 31
0.0
  0
MTEXT
  5
29E
330
1F
100
AcDbEntity
  8
0-B_寸法
  6
Continuous
 62
     7
370
   211
100
AcDbMText
 10
2175.945722722191
 20
-840.9329189669295
 30
0.0
 40
45.72
 41
90.0
 46
0.0
 71
     7
 72
     1
  1
{\fＭＳ ゴシック|b0|i0|c128|p49;448}
 11
6.123031769111886E-17
 21
1.0
 31
0.0
 73
     1
 44
1.0
  0
MTEXT
  5
29F
330
1F
100
AcDbEntity
  8
0-B_寸法
  6
Continuous
 62
     7
370
   211
100
AcDbMText
 10
1975.945722722191
 20
-840.9329288645226
 30
0.0
 40
45.72
 41
90.0
 46
0.0
 71
     7
 72
     1
  1
{\fＭＳ ゴシック|b0|i0|c128|p49;761}
 11
6.123031769111886E-17
 21
1.0
 31
0.0
 73
     1
 44
1.0
  0
MTEXT
  5
2A0
330
1F
100
AcDbEntity
  8
0-B_寸法
  6
Continuous
 62
     7
370
   211
100
AcDbMText
 10
2275.945722722191
 20
-840.9329387621152
 30
0.0
 40
45.72
 41
90.0
 46
0.0
 71
     7
 72
     1
  1
{\fＭＳ ゴシック|b0|i0|c128|p49;521}
 11
6.123031769111886E-17
 21
1.0
 31
0.0
 73
     1
 44
1.0
  0
MTEXT
  5
2A1
330
1F
100
AcDbEntity
  8
0-B_寸法
  6
Continuous
 62
     7
370
   211
100
AcDbMText
 10
2075.945722722191
 20
-930.9328407877284
 30
0.0
 40
45.71999999999999
 41
270.0
 46
0.0
 71
     7
 72
     1
  1
{\fＭＳ ゴシック|b0|i0|c128|p49;ＤＨ＝755}
 11
6.123031769111886E-17
 21
1.0
 31
0.0
 73
     1
 44
1.0
  0
LINE
  5
2A2
330
1F
100
AcDbEntity
  8
0-6_桟木
  6
Continuous
 62
    92
370
    13
100
AcDbLine
 10
2799.945722629114
 20
-1154.292918966931
 30
0.0
 11
2799.945722629114
 21
-1090.29291896693
 31
0.0
  0
LINE
  5
2A3
330
1F
100
AcDbEntity
  8
0-6_桟木
  6
Continuous
 62
    92
370
    13
100
AcDbLine
 10
2799.945722629114
 20
-1090.29291896693
 30
0.0
 11
2784.945722629114
 21
-1090.29291896693
 31
0.0
  0
LINE
  5
2A4
330
1F
100
AcDbEntity
  8
0-6_桟木
  6
Continuous
 62
    92
370
    13
100
AcDbLine
 10
2784.945722629114
 20
-1090.29291896693
 30
0.0
 11
2784.945722629114
 21
-1154.292918966931
 31
0.0
  0
LINE
  5
2A5
330
1F
100
AcDbEntity
  8
0-6_桟木
  6
Continuous
 62
    92
370
    13
100
AcDbLine
 10
2784.945722629114
 20
-1154.292918966931
 30
0.0
 11
2799.945722629114
 21
-1154.292918966931
 31
0.0
  0
CIRCLE
  5
2A6
330
1F
100
AcDbEntity
  8
0-6_桟木
  6
Continuous
 62
     7
370
     9
100
AcDbCircle
 10
2792.445722629114
 20
-1106.29291896693
 30
0.0
 40
4.0
  0
CIRCLE
  5
2A7
330
1F
100
AcDbEntity
  8
0-6_桟木
  6
Continuous
 62
     7
370
     9
100
AcDbCircle
 10
2792.445722629114
 20
-1138.29291896693
 30
0.0
 40
4.0
  0
LINE
  5
2A8
330
1F
100
AcDbEntity
  8
0-6_桟木
  6
Continuous
 62
    92
370
    13
100
AcDbLine
 10
2799.945722629114
 20
-487.2929189669297
 30
0.0
 11
2799.945722629114
 21
-423.2929189669301
 31
0.0
  0
LINE
  5
2A9
330
1F
100
AcDbEntity
  8
0-6_桟木
  6
Continuous
 62
    92
370
    13
100
AcDbLine
 10
2799.945722629114
 20
-423.2929189669301
 30
0.0
 11
2784.945722629114
 21
-423.2929189669301
 31
0.0
  0
LINE
  5
2AA
330
1F
100
AcDbEntity
  8
0-6_桟木
  6
Continuous
 62
    92
370
    13
100
AcDbLine
 10
2784.945722629114
 20
-423.2929189669301
 30
0.0
 11
2784.945722629114
 21
-487.2929189669297
 31
0.0
  0
LINE
  5
2AB
330
1F
100
AcDbEntity
  8
0-6_桟木
  6
Continuous
 62
    92
370
    13
100
AcDbLine
 10
2784.945722629114
 20
-487.2929189669297
 30
0.0
 11
2799.945722629114
 21
-487.2929189669297
 31
0.0
  0
CIRCLE
  5
2AC
330
1F
100
AcDbEntity
  8
0-6_桟木
  6
Continuous
 62
     7
370
     9
100
AcDbCircle
 10
2792.445722629114
 20
-439.2929189669292
 30
0.0
 40
4.0
  0
CIRCLE
  5
2AD
330
1F
100
AcDbEntity
  8
0-6_桟木
  6
Continuous
 62
     7
370
     9
100
AcDbCircle
 10
2792.445722629114
 20
-471.2929189669297
 30
0.0
 40
4.0
  0
MTEXT
  5
2AE
330
1F
100
AcDbEntity
  8
0-B_寸法
  6
Continuous
 62
     7
370
   211
100
AcDbMText
 10
2175.945722722191
 20
-1161.43291896693
 30
0.0
 40
45.72
 41
150.0
 46
0.0
 71
     7
 72
     1
  1
{\fＭＳ ゴシック|b0|i0|c128|p49;156.5}
 11
6.123031769111886E-17
 21
1.0
 31
0.0
 73
     1
 44
1.0
  0
LWPOLYLINE
  5
2AF
330
1F
100
AcDbEntity
  8
0-B_寸法
  6
Continuous
 62
     7
370
     9
100
AcDbPolyline
 90
        4
 70
     1
 43
2.0
 10
2593.945722629113
 20
-660.7929189669277
 42
0.4142135623731
 10
2592.945722629113
 20
-659.7929189669277
 42
0.4142135623731
 10
2591.945722629112
 20
-660.7929189669277
 42
0.4142135623731
 10
2592.945722629113
 20
-661.7929189669276
 42
0.4142135623731
  0
LWPOLYLINE
  5
2B0
330
1F
100
AcDbEntity
  8
0-B_寸法
  6
Continuous
 62
     7
370
     9
100
AcDbPolyline
 90
        4
 70
     1
 43
2.0
 10
2593.945722629113
 20
-628.7929189669289
 42
0.4142135623731
 10
2592.945722629113
 20
-627.7929189669289
 42
0.4142135623731
 10
2591.945722629112
 20
-628.7929189669289
 42
0.4142135623731
 10
2592.945722629113
 20
-629.7929189669289
 42
0.4142135623731
  0
LINE
  5
2B1
330
1F
100
AcDbEntity
  8
0-B_寸法
  6
Continuous
 62
   120
370
     5
100
AcDbLine
 10
2592.945722629113
 20
-628.7929189669289
 30
0.0
 11
2592.945722629113
 21
-660.7929189669277
 31
0.0
  0
LINE
  5
2B2
330
1F
100
AcDbEntity
  8
0-B_寸法
  6
Continuous
 62
   120
370
     5
100
AcDbLine
 10
2592.945722629113
 20
-660.7929189669277
 30
0.0
 11
2542.945722629113
 21
-660.7929189669277
 31
0.0
  0
LINE
  5
2B3
330
1F
100
AcDbEntity
  8
0-B_寸法
  6
Continuous
 62
   120
370
     5
100
AcDbLine
 10
2592.945722629113
 20
-628.7929189669289
 30
0.0
 11
2542.945722629113
 21
-628.7929189669289
 31
0.0
  0
CIRCLE
  5
2B4
330
1F
100
AcDbEntity
  8
0-5_ダボ
  6
Continuous
 62
     7
370
     9
100
AcDbCircle
 10
2524.945722629114
 20
-564.8145278891856
 30
0.0
 40
2.5
  0
CIRCLE
  5
2B5
330
1F
100
AcDbEntity
  8
0-5_ダボ
  6
Continuous
 62
     7
370
     9
100
AcDbCircle
 10
2524.945722629114
 20
-596.814527889186
 30
0.0
 40
2.5
  0
CIRCLE
  5
2B6
330
1F
100
AcDbEntity
  8
0-5_ダボ
  6
Continuous
 62
     7
370
     9
100
AcDbCircle
 10
2524.945722629114
 20
-628.8145278891863
 30
0.0
 40
2.5
  0
CIRCLE
  5
2B7
330
1F
100
AcDbEntity
  8
0-5_ダボ
  6
Continuous
 62
     7
370
     9
100
AcDbCircle
 10
2524.945722629114
 20
-660.8145278891867
 30
0.0
 40
2.5
  0
CIRCLE
  5
2B8
330
1F
100
AcDbEntity
  8
0-5_ダボ
  6
Continuous
 62
     7
370
     9
100
AcDbCircle
 10
2524.945722629114
 20
-692.814527889186
 30
0.0
 40
2.5
  0
CIRCLE
  5
2B9
330
1F
100
AcDbEntity
  8
0-5_ダボ
  6
Continuous
 62
     7
370
     9
100
AcDbCircle
 10
2524.945722629114
 20
-724.8145278891865
 30
0.0
 40
2.5
  0
CIRCLE
  5
2BA
330
1F
100
AcDbEntity
  8
0-5_ダボ
  6
Continuous
 62
     7
370
     9
100
AcDbCircle
 10
2524.945722629114
 20
-756.8145278891858
 30
0.0
 40
2.5
  0
CIRCLE
  5
2BB
330
1F
100
AcDbEntity
  8
0-5_ダボ
  6
Continuous
 62
     7
370
     9
100
AcDbCircle
 10
2524.945722629114
 20
-788.8145278891863
 30
0.0
 40
2.5
  0
CIRCLE
  5
2BC
330
1F
100
AcDbEntity
  8
0-5_ダボ
  6
Continuous
 62
     7
370
     9
100
AcDbCircle
 10
2524.945722629114
 20
-820.8145278891867
 30
0.0
 40
2.5
  0
CIRCLE
  5
2BD
330
1F
100
AcDbEntity
  8
0-5_ダボ
  6
Continuous
 62
     7
370
     9
100
AcDbCircle
 10
2524.945722629114
 20
-852.8145278891866
 30
0.0
 40
2.5
  0
CIRCLE
  5
2BE
330
1F
100
AcDbEntity
  8
0-5_ダボ
  6
Continuous
 62
     7
370
     9
100
AcDbCircle
 10
2524.945722629114
 20
-884.8145278891876
 30
0.0
 40
2.5
  0
CIRCLE
  5
2BF
330
1F
100
AcDbEntity
  8
0-5_ダボ
  6
Continuous
 62
     7
370
     9
100
AcDbCircle
 10
2524.945722629114
 20
-916.8145278891858
 30
0.0
 40
2.5
  0
CIRCLE
  5
2C0
330
1F
100
AcDbEntity
  8
0-5_ダボ
  6
Continuous
 62
     7
370
     9
100
AcDbCircle
 10
2524.945722629114
 20
-948.8145278891863
 30
0.0
 40
2.5
  0
CIRCLE
  5
2C1
330
1F
100
AcDbEntity
  8
0-5_ダボ
  6
Continuous
 62
     7
370
     9
100
AcDbCircle
 10
2524.945722629114
 20
-980.8145278891867
 30
0.0
 40
2.5
  0
CIRCLE
  5
2C2
330
1F
100
AcDbEntity
  8
0-5_ダボ
  6
Continuous
 62
     7
370
     9
100
AcDbCircle
 10
2524.945722629114
 20
-1012.814527889186
 30
0.0
 40
2.5
  0
LINE
  5
2C3
330
1F
100
AcDbEntity
  8
0-0_補助線
  6
JWW_HOJO
 62
     7
370
     9
100
AcDbLine
 10
2524.945722629114
 20
-410.2929189669298
 30
0.0
 11
2524.945722629114
 21
-1169.292918966931
 31
0.0
  0
LINE
  5
2C4
330
1F
100
AcDbEntity
  8
0-1_本体
  6
Continuous
 62
    40
370
    15
100
AcDbLine
 10
2799.945722629114
 20
-423.2929189669301
 30
0.0
 11
2457.945722629116
 21
-423.2929189669301
 31
0.0
  0
LINE
  5
2C5
330
1F
100
AcDbEntity
  8
0-1_本体
  6
Continuous
 62
    40
370
    15
100
AcDbLine
 10
2457.945722629116
 20
-423.2929189669301
 30
0.0
 11
2457.945722629116
 21
-408.2928991717438
 31
0.0
  0
MTEXT
  5
2C6
330
1F
100
AcDbEntity
  8
0-B_寸法
  6
Continuous
 62
     7
370
   211
100
AcDbMText
 10
2275.945722722191
 20
-1161.43291896693
 30
0.0
 40
45.72
 41
90.0
 46
0.0
 71
     7
 72
     1
  1
{\fＭＳ ゴシック|b0|i0|c128|p49;120}
 11
6.123031769111886E-17
 21
1.0
 31
0.0
 73
     1
 44
1.0
  0
LINE
  5
2C7
330
1F
100
AcDbEntity
  8
0-1_本体
  6
Continuous
 62
    40
370
    15
100
AcDbLine
 10
2799.945722629114
 20
-1161.292918966929
 30
0.0
 11
2799.945722629114
 21
-416.2929189669306
 31
0.0
  0
LINE
  5
2C8
330
1F
100
AcDbEntity
  8
0-1_本体
  6
Continuous
 62
    40
370
    15
100
AcDbLine
 10
2801.445722629117
 20
-1161.292918966929
 30
0.0
 11
2801.445722629117
 21
-416.2929189669306
 31
0.0
  0
LINE
  5
2C9
330
1F
100
AcDbEntity
  8
0-1_本体
  6
Continuous
 62
    40
370
    15
100
AcDbLine
 10
2799.945722629114
 20
-416.2929189669306
 30
0.0
 11
2802.945722629116
 21
-416.2929189669306
 31
0.0
  0
LINE
  5
2CA
330
1F
100
AcDbEntity
  8
0-1_本体
  6
Continuous
 62
     7
370
     9
100
AcDbLine
 10
2802.945722629116
 20
-1169.292918966931
 30
0.0
 11
2802.945722629116
 21
-408.2929189669294
 31
0.0
  0
LINE
  5
2CB
330
1F
100
AcDbEntity
  8
0-1_本体
  6
Continuous
 62
    40
370
    15
100
AcDbLine
 10
2457.945722629116
 20
-408.2929189669301
 30
0.0
 11
2802.945722629116
 21
-408.2929189669301
 31
0.0
  0
MTEXT
  5
2CC
330
1F
100
AcDbEntity
  8
0-B_寸法
  6
Continuous
 62
     7
370
   211
100
AcDbMText
 10
2075.945722722191
 20
-1172.707526812415
 30
0.0
 40
45.72
 41
30.0
 46
0.0
 71
     7
 72
     1
  1
{\fＭＳ ゴシック|b0|i0|c128|p49;3}
 11
6.123031769111886E-17
 21
1.0
 31
0.0
 73
     1
 44
1.0
  0
LWPOLYLINE
  5
2CD
330
1F
100
AcDbEntity
  8
0-B_寸法
  6
Continuous
 62
     7
370
     9
100
AcDbPolyline
 90
        4
 70
     1
 43
2.0
 10
2525.945722629114
 20
-226.2929189669292
 42
0.4142135623731
 10
2524.945722629114
 20
-225.2929189669292
 42
0.4142135623731
 10
2523.945722629115
 20
-226.2929189669292
 42
0.4142135623731
 10
2524.945722629114
 20
-227.2929189669292
 42
0.4142135623731
  0
LINE
  5
2CE
330
1F
100
AcDbEntity
  8
0-B_寸法
  6
Continuous
 62
   120
370
     5
100
AcDbLine
 10
2524.945722629114
 20
-226.2929189669292
 30
0.0
 11
2524.945722629114
 21
-326.2929189669292
 31
0.0
  0
LINE
  5
2CF
330
1F
100
AcDbEntity
  8
0-B_寸法
  6
Continuous
 62
   120
370
     5
100
AcDbLine
 10
2524.945722629114
 20
-226.2929189669292
 30
0.0
 11
2494.945722629114
 21
-226.2929189669292
 31
0.0
  0
LINE
  5
2D0
330
1F
100
AcDbEntity
  8
0-B_寸法
  6
Continuous
 62
   120
370
     5
100
AcDbLine
 10
2780.945722629113
 20
-226.2929189669292
 30
0.0
 11
2524.945722629114
 21
-226.2929189669292
 31
0.0
  0
LWPOLYLINE
  5
2D1
330
1F
100
AcDbEntity
  8
0-B_寸法
  6
Continuous
 62
     7
370
     9
100
AcDbPolyline
 90
        4
 70
     1
 43
2.0
 10
2803.945722582578
 20
-226.2929189669292
 42
0.4142135623731
 10
2802.945722582577
 20
-225.2929189669292
 42
0.4142135623731
 10
2801.945722582577
 20
-226.2929189669292
 42
0.4142135623731
 10
2802.945722582577
 20
-227.2929189669292
 42
0.4142135623731
  0
LINE
  5
2D2
330
1F
100
AcDbEntity
  8
0-B_寸法
  6
Continuous
 62
   120
370
     5
100
AcDbLine
 10
2802.945722582577
 20
-226.2929189669292
 30
0.0
 11
2802.945722582577
 21
-326.2929189669292
 31
0.0
  0
LWPOLYLINE
  5
2D3
330
1F
100
AcDbEntity
  8
0-B_寸法
  6
Continuous
 62
     7
370
     9
100
AcDbPolyline
 90
        4
 70
     1
 43
2.0
 10
2495.945722629114
 20
-226.2929189669292
 42
0.4142135623731
 10
2494.945722629114
 20
-225.2929189669292
 42
0.4142135623731
 10
2493.945722629115
 20
-226.2929189669292
 42
0.4142135623731
 10
2494.945722629114
 20
-227.2929189669292
 42
0.4142135623731
  0
LINE
  5
2D4
330
1F
100
AcDbEntity
  8
0-B_寸法
  6
Continuous
 62
   120
370
     5
100
AcDbLine
 10
2494.945722629114
 20
-226.2929189669292
 30
0.0
 11
2494.945722629114
 21
-326.2929189669292
 31
0.0
  0
LINE
  5
2D5
330
1F
100
AcDbEntity
  8
0-B_寸法
  6
Continuous
 62
   120
370
     5
100
AcDbLine
 10
2494.945722629114
 20
-226.2929189669292
 30
0.0
 11
2457.945722629116
 21
-226.2929189669292
 31
0.0
  0
LWPOLYLINE
  5
2D6
330
1F
100
AcDbEntity
  8
0-B_寸法
  6
Continuous
 62
     7
370
     9
100
AcDbPolyline
 90
        4
 70
     1
 43
2.0
 10
2458.945722629116
 20
-226.2929189669292
 42
0.4142135623731
 10
2457.945722629116
 20
-225.2929189669292
 42
0.4142135623731
 10
2456.945722629117
 20
-226.2929189669292
 42
0.4142135623731
 10
2457.945722629116
 20
-227.2929189669292
 42
0.4142135623731
  0
LINE
  5
2D7
330
1F
100
AcDbEntity
  8
0-B_寸法
  6
Continuous
 62
   120
370
     5
100
AcDbLine
 10
2457.945722629116
 20
-226.2929189669292
 30
0.0
 11
2457.945722629116
 21
-326.2929189669292
 31
0.0
  0
LINE
  5
2D8
330
1F
100
AcDbEntity
  8
0-B_寸法
  6
Continuous
 62
   120
370
     5
100
AcDbLine
 10
2802.945722582577
 20
-226.2929189669292
 30
0.0
 11
2780.945722629113
 21
-226.2929189669292
 31
0.0
  0
LWPOLYLINE
  5
2D9
330
1F
100
AcDbEntity
  8
0-B_寸法
  6
Continuous
 62
     7
370
     9
100
AcDbPolyline
 90
        4
 70
     1
 43
2.0
 10
2781.945722629114
 20
-226.2929189669292
 42
0.4142135623731
 10
2780.945722629113
 20
-225.2929189669292
 42
0.4142135623731
 10
2779.945722629113
 20
-226.2929189669292
 42
0.4142135623731
 10
2780.945722629113
 20
-227.2929189669292
 42
0.4142135623731
  0
LINE
  5
2DA
330
1F
100
AcDbEntity
  8
0-B_寸法
  6
Continuous
 62
   120
370
     5
100
AcDbLine
 10
2780.945722629113
 20
-226.2929189669292
 30
0.0
 11
2780.945722629113
 21
-326.2929189669292
 31
0.0
  0
LINE
  5
2DB
330
1F
100
AcDbEntity
  8
0-0_補助線
  6
JWW_HOJO
 62
   120
370
     5
100
AcDbLine
 10
2385.945722722191
 20
-226.2929189669292
 30
0.0
 11
2852.945722629116
 21
-226.2929189669292
 31
0.0
  0
LINE
  5
2DC
330
1F
100
AcDbEntity
  8
0-0_補助線
  6
JWW_HOJO
 62
   120
370
     5
100
AcDbLine
 10
2285.945722722191
 20
-1169.29291896693
 30
0.0
 11
2285.945722722191
 21
-326.2929189669292
 31
0.0
  0
LINE
  5
2DD
330
1F
100
AcDbEntity
  8
0-0_補助線
  6
JWW_HOJO
 62
   120
370
     5
100
AcDbLine
 10
2185.945722722191
 20
-1169.292937524916
 30
0.0
 11
2185.945722722191
 21
-326.2929189669292
 31
0.0
  0
LINE
  5
2DE
330
1F
100
AcDbEntity
  8
0-B_寸法
  6
Continuous
 62
   120
370
     5
100
AcDbLine
 10
2802.945722722189
 20
-1483.29285958137
 30
0.0
 11
2802.945722722189
 21
-1283.292859581371
 31
0.0
  0
LWPOLYLINE
  5
2DF
330
1F
100
AcDbEntity
  8
0-B_寸法
  6
Continuous
 62
     7
370
     9
100
AcDbPolyline
 90
        4
 70
     1
 43
2.0
 10
2803.94572272219
 20
-1383.292859581371
 42
0.4142135623731
 10
2802.945722722189
 20
-1382.292859581371
 42
0.4142135623731
 10
2801.945722722189
 20
-1383.292859581371
 42
0.4142135623731
 10
2802.945722722189
 20
-1384.292859581371
 42
0.4142135623731
  0
LINE
  5
2E0
330
1F
100
AcDbEntity
  8
0-B_寸法
  6
Continuous
 62
   120
370
     5
100
AcDbLine
 10
2457.945722722191
 20
-1483.29285958137
 30
0.0
 11
2457.945722722191
 21
-1283.292859581371
 31
0.0
  0
LWPOLYLINE
  5
2E1
330
1F
100
AcDbEntity
  8
0-B_寸法
  6
Continuous
 62
     7
370
     9
100
AcDbPolyline
 90
        4
 70
     1
 43
2.0
 10
2458.945722722191
 20
-1483.29285958137
 42
0.4142135623731
 10
2457.945722722191
 20
-1482.29285958137
 42
0.4142135623731
 10
2456.945722722191
 20
-1483.29285958137
 42
0.4142135623731
 10
2457.945722722191
 20
-1484.29285958137
 42
0.4142135623731
  0
LWPOLYLINE
  5
2E2
330
1F
100
AcDbEntity
  8
0-B_寸法
  6
Continuous
 62
     7
370
     9
100
AcDbPolyline
 90
        4
 70
     1
 43
2.0
 10
2803.94572272219
 20
-1483.29285958137
 42
0.4142135623731
 10
2802.945722722189
 20
-1482.29285958137
 42
0.4142135623731
 10
2801.945722722189
 20
-1483.29285958137
 42
0.4142135623731
 10
2802.945722722189
 20
-1484.29285958137
 42
0.4142135623731
  0
LINE
  5
2E3
330
1F
100
AcDbEntity
  8
0-B_寸法
  6
Continuous
 62
   120
370
     5
100
AcDbLine
 10
2802.945722722189
 20
-1483.29285958137
 30
0.0
 11
2457.945722722191
 21
-1483.29285958137
 31
0.0
  0
LINE
  5
2E4
330
1F
100
AcDbEntity
  8
0-6_桟木
  6
Continuous
 62
    92
370
    13
100
AcDbLine
 10
2802.945722722189
 20
-1233.292859581367
 30
0.0
 11
2832.945722722189
 21
-1233.292859581367
 31
0.0
  0
LINE
  5
2E5
330
1F
100
AcDbEntity
  8
0-6_桟木
  6
Continuous
 62
    40
370
    15
100
AcDbLine
 10
2802.945722629112
 20
-1090.292839786183
 30
0.0
 11
2802.945722629112
 21
-1164.292859581369
 31
0.0
  0
LINE
  5
2E6
330
1F
100
AcDbEntity
  8
0-6_桟木
  6
Continuous
 62
     7
370
     9
100
AcDbLine
 10
2802.945722629112
 20
-1164.292839786183
 30
0.0
 11
2802.945722629112
 21
-1090.292839786183
 31
0.0
  0
LINE
  5
2E7
330
1F
100
AcDbEntity
  8
0-6_桟木
  6
Continuous
 62
    92
370
    13
100
AcDbLine
 10
2802.945722722189
 20
-1090.292859581367
 30
0.0
 11
2802.945722722189
 21
-1233.292859581367
 31
0.0
  0
LINE
  5
2E8
330
1F
100
AcDbEntity
  8
0-6_桟木
  6
Continuous
 62
    92
370
    13
100
AcDbLine
 10
2832.945722722189
 20
-1090.292859581367
 30
0.0
 11
2802.945722722189
 21
-1090.292859581367
 31
0.0
  0
LINE
  5
2E9
330
1F
100
AcDbEntity
  8
0-6_桟木
  6
Continuous
 62
    92
370
    13
100
AcDbLine
 10
2832.945722722189
 20
-1233.292859581367
 30
0.0
 11
2832.945722722189
 21
-1090.292859581367
 31
0.0
  0
LINE
  5
2EA
330
1F
100
AcDbEntity
  8
0-6_桟木
  6
Continuous
 62
     7
370
     9
100
AcDbLine
 10
2802.945722722189
 20
-1233.292859581367
 30
0.0
 11
2832.945722722189
 21
-1090.292859581367
 31
0.0
  0
LINE
  5
2EB
330
1F
100
AcDbEntity
  8
0-6_桟木
  6
Continuous
 62
     7
370
     9
100
AcDbLine
 10
2802.945722722189
 20
-1090.292859581367
 30
0.0
 11
2832.945722722189
 21
-1233.292859581367
 31
0.0
  0
LINE
  5
2EC
330
1F
100
AcDbEntity
  8
0-9__
  6
Continuous
 62
     7
370
     9
100
AcDbLine
 10
2802.945722722189
 20
-1169.29285958137
 30
0.0
 11
2802.945722722189
 21
-1233.29285958137
 31
0.0
  0
LINE
  5
2ED
330
1F
100
AcDbEntity
  8
0-9__
  6
Continuous
 62
     7
370
     9
100
AcDbLine
 10
2787.945722722189
 20
-1169.29285958137
 30
0.0
 11
2787.945722722189
 21
-1233.29285958137
 31
0.0
  0
MTEXT
  5
2EE
330
1F
100
AcDbEntity
  8
0-B_寸法
  6
Continuous
 62
     7
370
   211
100
AcDbMText
 10
2585.445722722189
 20
-1480.43285958137
 30
0.0
 40
45.72
 41
90.0
 46
0.0
 71
     7
 72
     1
  1
{\fＭＳ ゴシック|b0|i0|c128|p49;345}
 73
     1
 44
1.0
  0
MTEXT
  5
2EF
330
1F
100
AcDbEntity
  8
0-B_寸法
  6
Continuous
 62
     7
370
   211
100
AcDbMText
 10
1979.945722722191
 20
-1238.432859581372
 30
0.0
 40
45.72
 41
60.0
 46
0.0
 71
     7
 72
     1
  1
{\fＭＳ ゴシック|b0|i0|c128|p49;64}
 11
6.123031769111886E-17
 21
1.0
 31
0.0
 73
     1
 44
1.0
  0
LINE
  5
2F0
330
1F
100
AcDbEntity
  8
0-B_寸法
  6
Continuous
 62
   120
370
     5
100
AcDbLine
 10
1985.945722722191
 20
-1233.292859581371
 30
0.0
 11
2385.945722722191
 21
-1233.292859581371
 31
0.0
  0
LINE
  5
2F1
330
1F
100
AcDbEntity
  8
0-B_寸法
  6
Continuous
 62
   120
370
     5
100
AcDbLine
 10
1985.945722722191
 20
-1169.29285958137
 30
0.0
 11
2385.945722722191
 21
-1169.29285958137
 31
0.0
  0
LWPOLYLINE
  5
2F2
330
1F
100
AcDbEntity
  8
0-B_寸法
  6
Continuous
 62
     7
370
     9
100
AcDbPolyline
 90
        4
 70
     1
 43
2.0
 10
1986.945722722191
 20
-1233.292859581371
 42
0.4142135623731
 10
1985.945722722191
 20
-1232.292859581371
 42
0.4142135623731
 10
1984.945722722191
 20
-1233.292859581371
 42
0.4142135623731
 10
1985.945722722191
 20
-1234.292859581371
 42
0.4142135623731
  0
LWPOLYLINE
  5
2F3
330
1F
100
AcDbEntity
  8
0-B_寸法
  6
Continuous
 62
     7
370
     9
100
AcDbPolyline
 90
        4
 70
     1
 43
2.0
 10
1986.945722722191
 20
-1169.29285958137
 42
0.4142135623731
 10
1985.945722722191
 20
-1168.29285958137
 42
0.4142135623731
 10
1984.945722722191
 20
-1169.29285958137
 42
0.4142135623731
 10
1985.945722722191
 20
-1170.29285958137
 42
0.4142135623731
  0
LINE
  5
2F4
330
1F
100
AcDbEntity
  8
0-B_寸法
  6
Continuous
 62
   120
370
     5
100
AcDbLine
 10
1985.945722722191
 20
-1169.29285958137
 30
0.0
 11
1985.945722722191
 21
-1233.292859581371
 31
0.0
  0
LINE
  5
2F5
330
1F
100
AcDbEntity
  8
0-9__
  6
Continuous
 62
     7
370
     9
100
AcDbLine
 10
2802.945722722189
 20
-1233.29285958137
 30
0.0
 11
2497.945722722189
 21
-1233.29285958137
 31
0.0
  0
LINE
  5
2F6
330
1F
100
AcDbEntity
  8
0-9__
  6
Continuous
 62
     7
370
     9
100
AcDbLine
 10
2497.945722722189
 20
-1233.29285958137
 30
0.0
 11
2497.945722722189
 21
-1169.29285958137
 31
0.0
  0
LINE
  5
2F7
330
1F
100
AcDbEntity
  8
0-9__
  6
Continuous
 62
     7
370
     9
100
AcDbLine
 10
2497.945722722189
 20
-1169.29285958137
 30
0.0
 11
2802.945722722189
 21
-1169.29285958137
 31
0.0
  0
LINE
  5
2F8
330
1F
100
AcDbEntity
  8
0-9__
  6
Continuous
 62
     7
370
     9
100
AcDbLine
 10
2512.945722722189
 20
-1233.29285958137
 30
0.0
 11
2512.945722722189
 21
-1169.29285958137
 31
0.0
  0
LINE
  5
2F9
330
1F
100
AcDbEntity
  8
0-B_寸法
  6
Continuous
 62
   120
370
     5
100
AcDbLine
 10
2497.945722722189
 20
-1383.292859581371
 30
0.0
 11
2497.945722722189
 21
-1283.292859581371
 31
0.0
  0
LWPOLYLINE
  5
2FA
330
1F
100
AcDbEntity
  8
0-B_寸法
  6
Continuous
 62
     7
370
     9
100
AcDbPolyline
 90
        4
 70
     1
 43
2.0
 10
2498.945722722189
 20
-1383.292859581371
 42
0.4142135623731
 10
2497.945722722189
 20
-1382.292859581371
 42
0.4142135623731
 10
2496.94572272219
 20
-1383.292859581371
 42
0.4142135623731
 10
2497.945722722189
 20
-1384.292859581371
 42
0.4142135623731
  0
LINE
  5
2FB
330
1F
100
AcDbEntity
  8
0-B_寸法
  6
Continuous
 62
   120
370
     5
100
AcDbLine
 10
2802.945722722189
 20
-1383.292859581371
 30
0.0
 11
2497.945722722189
 21
-1383.292859581371
 31
0.0
  0
MTEXT
  5
2FC
330
1F
100
AcDbEntity
  8
0-B_寸法
  6
Continuous
 62
     7
370
   211
100
AcDbMText
 10
2515.445722722189
 20
-1380.432859581371
 30
0.0
 40
45.71999999999999
 41
270.0
 46
0.0
 71
     7
 72
     1
  1
{\fＭＳ ゴシック|b0|i0|c128|p49;台輪＝305}
 73
     1
 44
1.0
  0
LWPOLYLINE
  5
2FD
330
1F
100
AcDbEntity
  8
0-B_寸法
  6
Continuous
 62
     7
370
     9
100
AcDbPolyline
 90
        4
 70
     1
 43
2.0
 10
2803.945722768732
 20
-26.29285958136876
 42
0.4142135623731
 10
2802.945722768732
 20
-25.29285958136876
 42
0.4142135623731
 10
2801.945722768732
 20
-26.29285958136876
 42
0.4142135623731
 10
2802.945722768732
 20
-27.29285958136876
 42
0.4142135623731
  0
LINE
  5
2FE
330
1F
100
AcDbEntity
  8
0-B_寸法
  6
Continuous
 62
   120
370
     5
100
AcDbLine
 10
2802.945722629116
 20
73.70714041863124
 30
0.0
 11
2802.945722768732
 21
-326.292859581369
 31
0.0
  0
MTEXT
  5
2FF
330
1F
100
AcDbEntity
  8
0-B_寸法
  6
Continuous
 62
     7
370
   211
100
AcDbMText
 10
2465.445722629116
 20
76.56714041863124
 30
0.0
 40
45.71999999999999
 41
300.0
 46
0.0
 71
     7
 72
     1
  1
{\fＭＳ ゴシック|b0|i0|c128|p49;ｶｳﾝﾀｰ＝375}
 73
     1
 44
1.0
  0
LINE
  5
300
330
1F
100
AcDbEntity
  8
0-B_寸法
  6
Continuous
 62
   120
370
     5
100
AcDbLine
 10
2427.945722629116
 20
73.70714041863124
 30
0.0
 11
2427.945722629116
 21
-326.2928595813684
 31
0.0
  0
LINE
  5
301
330
1F
100
AcDbEntity
  8
0-B_寸法
  6
Continuous
 62
   120
370
     5
100
AcDbLine
 10
2802.945722629116
 20
73.70714041863124
 30
0.0
 11
2427.945722629116
 21
73.70714041863124
 31
0.0
  0
LWPOLYLINE
  5
302
330
1F
100
AcDbEntity
  8
0-B_寸法
  6
Continuous
 62
     7
370
     9
100
AcDbPolyline
 90
        4
 70
     1
 43
2.0
 10
2428.945722629116
 20
73.70714041863124
 42
0.4142135623731
 10
2427.945722629116
 20
74.70714041863124
 42
0.4142135623731
 10
2426.945722629117
 20
73.70714041863124
 42
0.4142135623731
 10
2427.945722629116
 20
72.70714041863124
 42
0.4142135623731
  0
LWPOLYLINE
  5
303
330
1F
100
AcDbEntity
  8
0-B_寸法
  6
Continuous
 62
     7
370
     9
100
AcDbPolyline
 90
        4
 70
     1
 43
2.0
 10
2803.945722629117
 20
73.70714041863124
 42
0.4142135623731
 10
2802.945722629116
 20
74.70714041863124
 42
0.4142135623731
 10
2801.945722629116
 20
73.70714041863124
 42
0.4142135623731
 10
2802.945722629116
 20
72.70714041863124
 42
0.4142135623731
  0
LWPOLYLINE
  5
304
330
1F
100
AcDbEntity
  8
0-B_寸法
  6
Continuous
 62
     7
370
     9
100
AcDbPolyline
 90
        4
 70
     1
 43
2.0
 10
1986.945722722191
 20
-408.2928513333769
 42
0.4142135623731
 10
1985.945722722191
 20
-407.2928513333769
 42
0.4142135623731
 10
1984.945722722191
 20
-408.2928513333769
 42
0.4142135623731
 10
1985.945722722191
 20
-409.2928513333769
 42
0.4142135623731
  0
LINE
  5
305
330
1F
100
AcDbEntity
  8
0-B_寸法
  6
Continuous
 62
   120
370
     5
100
AcDbLine
 10
1985.945722722191
 20
-408.2928513333769
 30
0.0
 11
2385.945722722191
 21
-408.2928513333769
 31
0.0
  0
LINE
  5
306
330
1F
100
AcDbEntity
  8
0-4_棚
  6
Continuous
 62
     7
370
     9
100
AcDbLine
 10
2802.945722629116
 20
-408.2928514300431
 30
0.0
 11
2427.945722629116
 21
-408.2928514300431
 31
0.0
  0
LINE
  5
307
330
1F
100
AcDbEntity
  8
0-4_棚
  6
Continuous
 62
     7
370
     9
100
AcDbLine
 10
2427.945722629116
 20
-398.2928514300431
 30
0.0
 11
2427.945722629116
 21
-408.2928514300431
 31
0.0
  0
MTEXT
  5
308
330
1F
100
AcDbEntity
  8
0-A_文字
  6
Continuous
 62
     7
370
     9
100
AcDbMText
 10
-2622.054277277809
 20
-1776.857879702331
 30
0.0
 40
102.87
 41
540.0
 46
0.0
 71
     7
 72
     1
  1
{\fＭＳ ゴシック|b0|i0|c128|p49;扉配置図}
 73
     1
 44
1.0
  0
MTEXT
  5
309
330
1F
100
AcDbEntity
  8
F-A_文字
  6
Continuous
 62
     7
370
     9
100
AcDbMText
 10
3397.445178354582
 20
-2765.238008466657
 30
0.0
 40
49.53
 41
65.0
 46
0.0
 71
     7
 72
     1
  1
{\fＭＳ ゴシック|b0|i0|c128|p49;01}
 73
     1
 44
1.0
  0
MTEXT
  5
30A
330
1F
100
AcDbEntity
  8
F-A_文字
  6
Continuous
 62
     7
370
     0
100
AcDbMText
 10
2362.445095874641
 20
-2630.951243938205
 30
0.0
 40
51.435
 41
135.0
 46
0.0
 71
     7
 72
     1
  1
{\fＭＳ ゴシック|b0|i0|c128|p49;1/20}
 73
     1
 44
1.0
  0
LINE
  5
30B
330
1F
100
AcDbEntity
  8
0-B_寸法
  6
Continuous
 62
   120
370
     5
100
AcDbLine
 10
-3147.054277231272
 20
-1383.292892678193
 30
0.0
 11
-2352.054277277809
 21
-1383.292892678193
 31
0.0
  0
LINE
  5
30C
330
1F
100
AcDbEntity
  8
0-B_寸法
  6
Continuous
 62
   120
370
     5
100
AcDbLine
 10
-3147.054277231272
 20
-1383.292892678193
 30
0.0
 11
-3147.054277231272
 21
-1283.292892678194
 31
0.0
  0
LWPOLYLINE
  5
30D
330
1F
100
AcDbEntity
  8
0-B_寸法
  6
Continuous
 62
     7
370
     9
100
AcDbPolyline
 90
        4
 70
     1
 43
2.0
 10
-3146.054277231271
 20
-1383.292892678193
 42
0.4142135623731
 10
-3147.054277231272
 20
-1382.292892678193
 42
0.4142135623731
 10
-3148.054277231272
 20
-1383.292892678193
 42
0.4142135623731
 10
-3147.054277231272
 20
-1384.292892678193
 42
0.4142135623731
  0
LINE
  5
30E
330
1F
100
AcDbEntity
  8
0-B_寸法
  6
Continuous
 62
   120
370
     5
100
AcDbLine
 10
-3148.054277277811
 20
-1383.292892678193
 30
0.0
 11
-3147.054277231272
 21
-1383.292892678193
 31
0.0
  0
LINE
  5
30F
330
1F
100
AcDbEntity
  8
0-9__
  6
Continuous
 62
     7
370
     9
100
AcDbLine
 10
-3147.054277277809
 20
-1233.292879702331
 30
0.0
 11
-3147.054277277809
 21
-1169.292879702331
 31
0.0
  0
LINE
  5
310
330
1F
100
AcDbEntity
  8
0-9__
  6
Continuous
 62
     7
370
     9
100
AcDbLine
 10
-3132.054277277809
 20
-1233.292879702331
 30
0.0
 11
-3132.054277277809
 21
-1169.292879702331
 31
0.0
  0
LINE
  5
311
330
1F
100
AcDbEntity
  8
0-9__
  6
Continuous
 62
     7
370
     9
100
AcDbLine
 10
-3147.054277277809
 20
-1169.292879702331
 30
0.0
 11
-2352.054277277809
 21
-1169.292879702331
 31
0.0
  0
LINE
  5
312
330
1F
100
AcDbEntity
  8
0-9__
  6
Continuous
 62
     7
370
     9
100
AcDbLine
 10
-2352.054277277809
 20
-1233.292879702331
 30
0.0
 11
-3147.054277277809
 21
-1233.292879702331
 31
0.0
  0
MTEXT
  5
313
330
1F
100
AcDbEntity
  8
0-B_寸法
  6
Continuous
 62
     7
370
   211
100
AcDbMText
 10
-3186.839921128369
 20
-1380.432892678193
 30
0.0
 40
45.72
 41
30.0
 46
0.0
 71
     7
 72
     1
  1
{\fＭＳ ゴシック|b0|i0|c128|p49;1}
 73
     1
 44
1.0
  0
MTEXT
  5
314
330
1F
100
AcDbEntity
  8
0-B_寸法
  6
Continuous
 62
     7
370
   211
100
AcDbMText
 10
-2884.05427725454
 20
-1380.432892678193
 30
0.0
 40
45.71999999999999
 41
270.0
 46
0.0
 71
     7
 72
     1
  1
{\fＭＳ ゴシック|b0|i0|c128|p49;台輪＝795}
 73
     1
 44
1.0
  0
LINE
  5
315
330
1F
100
AcDbEntity
  8
0-B_寸法
  6
Continuous
 62
   120
370
     5
100
AcDbLine
 10
-1557.054277277811
 20
-1383.292892678193
 30
0.0
 11
-1556.054277231271
 21
-1383.292892678193
 31
0.0
  0
LINE
  5
316
330
1F
100
AcDbEntity
  8
0-B_寸法
  6
Continuous
 62
   120
370
     5
100
AcDbLine
 10
-1557.054277277811
 20
-1383.292892678193
 30
0.0
 11
-1557.054277277811
 21
-1283.292892678194
 31
0.0
  0
LWPOLYLINE
  5
317
330
1F
100
AcDbEntity
  8
0-B_寸法
  6
Continuous
 62
     7
370
     9
100
AcDbPolyline
 90
        4
 70
     1
 43
2.0
 10
-1556.054277277811
 20
-1383.292892678193
 42
0.4142135623731
 10
-1557.054277277811
 20
-1382.292892678193
 42
0.4142135623731
 10
-1558.054277277811
 20
-1383.292892678193
 42
0.4142135623731
 10
-1557.054277277811
 20
-1384.292892678193
 42
0.4142135623731
  0
LINE
  5
318
330
1F
100
AcDbEntity
  8
0-B_寸法
  6
Continuous
 62
   120
370
     5
100
AcDbLine
 10
-2352.054277277809
 20
-1383.292892678193
 30
0.0
 11
-1557.054277277811
 21
-1383.292892678193
 31
0.0
  0
LINE
  5
319
330
1F
100
AcDbEntity
  8
0-9__
  6
Continuous
 62
     7
370
     9
100
AcDbLine
 10
-1557.054277277811
 20
-1169.292879702331
 30
0.0
 11
-1557.054277277811
 21
-1233.292879702331
 31
0.0
  0
LINE
  5
31A
330
1F
100
AcDbEntity
  8
0-9__
  6
Continuous
 62
     7
370
     9
100
AcDbLine
 10
-1572.054277277811
 20
-1169.292879702331
 30
0.0
 11
-1572.054277277811
 21
-1233.292879702331
 31
0.0
  0
LINE
  5
31B
330
1F
100
AcDbEntity
  8
0-9__
  6
Continuous
 62
     7
370
     9
100
AcDbLine
 10
-2352.054277277809
 20
-1169.292879702331
 30
0.0
 11
-1557.054277277811
 21
-1169.292879702331
 31
0.0
  0
LINE
  5
31C
330
1F
100
AcDbEntity
  8
0-9__
  6
Continuous
 62
     7
370
     9
100
AcDbLine
 10
-1557.054277277811
 20
-1233.292879702331
 30
0.0
 11
-2352.054277277809
 21
-1233.292879702331
 31
0.0
  0
MTEXT
  5
31D
330
1F
100
AcDbEntity
  8
0-B_寸法
  6
Continuous
 62
     7
370
   211
100
AcDbMText
 10
-1547.110508105623
 20
-1380.432892678193
 30
0.0
 40
45.72
 41
30.0
 46
0.0
 71
     7
 72
     1
  1
{\fＭＳ ゴシック|b0|i0|c128|p49;1}
 73
     1
 44
1.0
  0
MTEXT
  5
31E
330
1F
100
AcDbEntity
  8
0-B_寸法
  6
Continuous
 62
     7
370
   211
100
AcDbMText
 10
-2090.054277277811
 20
-1380.432892678193
 30
0.0
 40
45.71999999999999
 41
270.0
 46
0.0
 71
     7
 72
     1
  1
{\fＭＳ ゴシック|b0|i0|c128|p49;台輪＝795}
 73
     1
 44
1.0
  0
LINE
  5
31F
330
1F
100
AcDbEntity
  8
0-9__
  6
Continuous
 62
     7
370
     9
100
AcDbLine
 10
-454.0542773243474
 20
-1233.292879702331
 30
0.0
 11
-454.0542773243474
 21
-1169.292879702331
 31
0.0
  0
LINE
  5
320
330
1F
100
AcDbEntity
  8
0-9__
  6
Continuous
 62
     7
370
     9
100
AcDbLine
 10
-439.0542773243474
 20
-1233.292879702331
 30
0.0
 11
-439.0542773243474
 21
-1169.292879702331
 31
0.0
  0
LINE
  5
321
330
1F
100
AcDbEntity
  8
0-9__
  6
Continuous
 62
     7
370
     9
100
AcDbLine
 10
-454.0542773243474
 20
-1169.292879702331
 30
0.0
 11
340.9457226756513
 21
-1169.292879702331
 31
0.0
  0
LINE
  5
322
330
1F
100
AcDbEntity
  8
0-9__
  6
Continuous
 62
     7
370
     9
100
AcDbLine
 10
340.9457226756513
 20
-1233.292879702331
 30
0.0
 11
-454.0542773243474
 21
-1233.292879702331
 31
0.0
  0
LINE
  5
323
330
1F
100
AcDbEntity
  8
0-9__
  6
Continuous
 62
     7
370
     9
100
AcDbLine
 10
1135.94572267565
 20
-1169.292879702331
 30
0.0
 11
1135.94572267565
 21
-1233.292879702331
 31
0.0
  0
LINE
  5
324
330
1F
100
AcDbEntity
  8
0-9__
  6
Continuous
 62
     7
370
     9
100
AcDbLine
 10
1120.94572267565
 20
-1169.292879702331
 30
0.0
 11
1120.94572267565
 21
-1233.292879702331
 31
0.0
  0
LINE
  5
325
330
1F
100
AcDbEntity
  8
0-9__
  6
Continuous
 62
     7
370
     9
100
AcDbLine
 10
340.9457226756513
 20
-1169.292879702331
 30
0.0
 11
1135.94572267565
 21
-1169.292879702331
 31
0.0
  0
LINE
  5
326
330
1F
100
AcDbEntity
  8
0-9__
  6
Continuous
 62
     7
370
     9
100
AcDbLine
 10
1135.94572267565
 20
-1233.292879702331
 30
0.0
 11
340.9457226756513
 21
-1233.292879702331
 31
0.0
  0
MTEXT
  5
327
330
1F
100
AcDbEntity
  8
F-A_文字
  6
Continuous
 62
     7
370
     0
100
AcDbMText
 10
3257.445178354582
 20
-2625.380673426644
 30
0.0
 40
52.57799999999999
 41
345.0
 46
0.0
 71
     7
 72
     1
  1
{\fＭＳ ゴシック|b0|i0|c128|p49;2024.04.01}
 73
     1
 44
1.0
  0
LINE
  5
328
330
1F
100
AcDbEntity
  8
0-B_寸法
  6
Continuous
 62
   120
370
     5
100
AcDbLine
 10
-605.0542773243512
 20
1415.152297103541
 30
0.0
 11
-605.0542773243512
 21
1395.152297103541
 31
0.0
  0
LWPOLYLINE
  5
329
330
1F
100
AcDbEntity
  8
0-B_寸法
  6
Continuous
 62
     7
370
     9
100
AcDbPolyline
 90
        4
 70
     1
 43
2.0
 10
-604.0542773243512
 20
1395.152297103541
 42
0.4142135623731
 10
-605.0542773243512
 20
1396.15229710354
 42
0.4142135623731
 10
-606.0542773243512
 20
1395.152297103541
 42
0.4142135623731
 10
-605.0542773243512
 20
1394.152297103541
 42
0.4142135623731
  0
LINE
  5
32A
330
1F
100
AcDbEntity
  8
0-B_寸法
  6
Continuous
 62
   120
370
     5
100
AcDbLine
 10
-705.0542773243512
 20
1395.152297103541
 30
0.0
 11
-505.0542773243512
 21
1395.152297103541
 31
0.0
  0
LINE
  5
32B
330
1F
100
AcDbEntity
  8
0-B_寸法
  6
Continuous
 62
   120
370
     5
100
AcDbLine
 10
-705.0542773243512
 20
1761.15229710354
 30
0.0
 11
-705.0542773243512
 21
1395.152297103541
 31
0.0
  0
LWPOLYLINE
  5
32C
330
1F
100
AcDbEntity
  8
0-B_寸法
  6
Continuous
 62
     7
370
     9
100
AcDbPolyline
 90
        4
 70
     1
 43
2.0
 10
-704.0542773243512
 20
1395.152297103541
 42
0.4142135623731
 10
-705.0542773243512
 20
1396.15229710354
 42
0.4142135623731
 10
-706.0542773243512
 20
1395.152297103541
 42
0.4142135623731
 10
-705.0542773243512
 20
1394.152297103541
 42
0.4142135623731
  0
MTEXT
  5
32D
330
1F
100
AcDbEntity
  8
0-B_寸法
  6
Continuous
 62
     7
370
   211
100
AcDbMText
 10
-615.0542773243512
 20
1318.551776190729
 30
0.0
 40
45.72
 41
60.0
 46
0.0
 71
     7
 72
     1
  1
{\fＭＳ ゴシック|b0|i0|c128|p49;20}
 11
6.123031769111886E-17
 21
1.0
 31
0.0
 73
     1
 44
1.0
  0
MTEXT
  5
32E
330
1F
100
AcDbEntity
  8
0-B_寸法
  6
Continuous
 62
     7
370
   211
100
AcDbMText
 10
-715.0542773243512
 20
1526.01229710354
 30
0.0
 40
45.72
 41
90.0
 46
0.0
 71
     7
 72
     1
  1
{\fＭＳ ゴシック|b0|i0|c128|p49;366}
 11
6.123031769111886E-17
 21
1.0
 31
0.0
 73
     1
 44
1.0
  0
LINE
  5
32F
330
1F
100
AcDbEntity
  8
0-2_扉
  6
Continuous
 62
    40
370
    15
100
AcDbLine
 10
2456.945722629118
 20
-411.2930037445236
 30
0.0
 11
2456.945722629116
 21
-1166.292859581371
 31
0.0
  0
LINE
  5
330
330
1F
100
AcDbEntity
  8
0-0_補助線
  6
JWW_HOJO
 62
     7
370
     9
100
AcDbLine
 10
2442.088280168219
 20
-692.7929189669298
 30
0.0
 11
2802.945722595874
 21
-692.7929189669298
 31
0.0
  0
LINE
  5
331
330
1F
100
AcDbEntity
  8
0-0_補助線
  6
JWW_HOJO
 62
     7
370
     9
100
AcDbLine
 10
2439.802565980177
 20
-660.79291896693
 30
0.0
 11
2802.945722592548
 21
-660.79291896693
 31
0.0
  0
LINE
  5
332
330
1F
100
AcDbEntity
  8
0-0_補助線
  6
JWW_HOJO
 62
     7
370
     9
100
AcDbLine
 10
2437.516851792133
 20
-628.7929189669295
 30
0.0
 11
2802.945722589226
 21
-628.7929189669295
 31
0.0
  0
LINE
  5
333
330
1F
100
AcDbEntity
  8
0-0_補助線
  6
JWW_HOJO
 62
     7
370
     9
100
AcDbLine
 10
2435.231137604093
 20
-596.7929189669293
 30
0.0
 11
2802.9457225859
 21
-596.7929189669293
 31
0.0
  0
LINE
  5
334
330
1F
100
AcDbEntity
  8
0-2_扉
  6
Continuous
 62
    40
370
    15
100
AcDbLine
 10
2436.945722629116
 20
-1166.292859581371
 30
0.0
 11
2456.945722629118
 21
-1166.29285958137
 31
0.0
  0
LINE
  5
335
330
1F
100
AcDbEntity
  8
0-2_扉
  6
Continuous
 62
    40
370
    15
100
AcDbLine
 10
2436.945722629118
 20
-411.2930037445236
 30
0.0
 11
2436.945722629116
 21
-1166.292859581371
 31
0.0
  0
LINE
  5
336
330
1F
100
AcDbEntity
  8
0-2_扉
  6
Continuous
 62
    40
370
    15
100
AcDbLine
 10
2436.945722629116
 20
-411.2930037445244
 30
0.0
 11
2456.945722629118
 21
-411.2930037445236
 31
0.0
  0
LINE
  5
337
330
1F
100
AcDbEntity
  8
0-B_寸法
  6
Continuous
 62
   120
370
     5
100
AcDbLine
 10
2456.945722768732
 20
-126.2928595813683
 30
0.0
 11
2456.945722768732
 21
-326.2928595813685
 31
0.0
  0
LINE
  5
338
330
1F
100
AcDbEntity
  8
0-B_寸法
  6
Continuous
 62
   120
370
     5
100
AcDbLine
 10
2802.945722768733
 20
-126.2928595813683
 30
0.0
 11
2457.945722768733
 21
-126.2928595813683
 31
0.0
  0
LWPOLYLINE
  5
339
330
1F
100
AcDbEntity
  8
0-B_寸法
  6
Continuous
 62
     7
370
     9
100
AcDbPolyline
 90
        4
 70
     1
 43
2.0
 10
2803.945722768733
 20
-126.2928595813683
 42
0.4142135623731
 10
2802.945722768733
 20
-125.2928595813683
 42
0.4142135623731
 10
2801.945722768733
 20
-126.2928595813683
 42
0.4142135623731
 10
2802.945722768733
 20
-127.2928595813683
 42
0.4142135623731
  0
LWPOLYLINE
  5
33A
330
1F
100
AcDbEntity
  8
0-B_寸法
  6
Continuous
 62
     7
370
     9
100
AcDbPolyline
 90
        4
 70
     1
 43
2.0
 10
2458.945722768733
 20
-126.2928595813683
 42
0.4142135623731
 10
2457.945722768733
 20
-125.2928595813683
 42
0.4142135623731
 10
2456.945722768733
 20
-126.2928595813683
 42
0.4142135623731
 10
2457.945722768733
 20
-127.2928595813683
 42
0.4142135623731
  0
LINE
  5
33B
330
1F
100
AcDbEntity
  8
0-B_寸法
  6
Continuous
 62
   120
370
     5
100
AcDbLine
 10
2802.945722768733
 20
-126.2928595813683
 30
0.0
 11
2802.945722768733
 21
-226.2928595813685
 31
0.0
  0
LINE
  5
33C
330
1F
100
AcDbEntity
  8
0-B_寸法
  6
Continuous
 62
   120
370
     5
100
AcDbLine
 10
2457.945722768733
 20
-126.2928595813683
 30
0.0
 11
2457.945722768733
 21
-226.2928595813685
 31
0.0
  0
LINE
  5
33D
330
1F
100
AcDbEntity
  8
0-B_寸法
  6
Continuous
 62
   120
370
     5
100
AcDbLine
 10
2457.945722768733
 20
-126.2928595813683
 30
0.0
 11
2456.945722768732
 21
-126.2928595813683
 31
0.0
  0
LWPOLYLINE
  5
33E
330
1F
100
AcDbEntity
  8
0-B_寸法
  6
Continuous
 62
     7
370
     9
100
AcDbPolyline
 90
        4
 70
     1
 43
2.0
 10
2457.945722768731
 20
-126.2928595813683
 42
0.4142135623731
 10
2456.945722768732
 20
-125.2928595813683
 42
0.4142135623731
 10
2455.945722768732
 20
-126.2928595813683
 42
0.4142135623731
 10
2456.945722768732
 20
-127.2928595813683
 42
0.4142135623731
  0
LWPOLYLINE
  5
33F
330
1F
100
AcDbEntity
  8
0-B_寸法
  6
Continuous
 62
     7
370
     9
100
AcDbPolyline
 90
        4
 70
     1
 43
2.0
 10
2437.945722629118
 20
-126.2928595813683
 42
0.4142135623731
 10
2436.945722629118
 20
-125.2928595813683
 42
0.4142135623731
 10
2435.945722629118
 20
-126.2928595813683
 42
0.4142135623731
 10
2436.945722629118
 20
-127.2928595813683
 42
0.4142135623731
  0
LINE
  5
340
330
1F
100
AcDbEntity
  8
0-B_寸法
  6
Continuous
 62
   120
370
     5
100
AcDbLine
 10
2436.945722629118
 20
-126.2928595813683
 30
0.0
 11
2436.945722629118
 21
-326.292859581369
 31
0.0
  0
LINE
  5
341
330
1F
100
AcDbEntity
  8
0-B_寸法
  6
Continuous
 62
   120
370
     5
100
AcDbLine
 10
2802.945722768732
 20
-26.29285958136876
 30
0.0
 11
2436.945722629118
 21
-26.29285958136876
 31
0.0
  0
LWPOLYLINE
  5
342
330
1F
100
AcDbEntity
  8
0-B_寸法
  6
Continuous
 62
     7
370
     9
100
AcDbPolyline
 90
        4
 70
     1
 43
2.0
 10
2437.945722629118
 20
-26.29285958136876
 42
0.4142135623731
 10
2436.945722629118
 20
-25.29285958136876
 42
0.4142135623731
 10
2435.945722629118
 20
-26.29285958136876
 42
0.4142135623731
 10
2436.945722629118
 20
-27.29285958136876
 42
0.4142135623731
  0
LINE
  5
343
330
1F
100
AcDbEntity
  8
0-B_寸法
  6
Continuous
 62
   120
370
     5
100
AcDbLine
 10
2436.945722629118
 20
-26.29285958136876
 30
0.0
 11
2436.945722629118
 21
-126.2928595813683
 31
0.0
  0
LINE
  5
344
330
1F
100
AcDbEntity
  8
0-B_寸法
  6
Continuous
 62
   120
370
     5
100
AcDbLine
 10
2456.945722768732
 20
-126.2928595813683
 30
0.0
 11
2436.945722629118
 21
-126.2928595813683
 31
0.0
  0
MTEXT
  5
345
330
1F
100
AcDbEntity
  8
0-B_寸法
  6
Continuous
 62
     7
370
   211
100
AcDbMText
 10
2359.309987870194
 20
-123.4328595813688
 30
0.0
 40
45.72
 41
60.0
 46
0.0
 71
     7
 72
     1
  1
{\fＭＳ ゴシック|b0|i0|c128|p49;20}
 73
     1
 44
1.0
  0
MTEXT
  5
346
330
1F
100
AcDbEntity
  8
0-B_寸法
  6
Continuous
 62
     7
370
   211
100
AcDbMText
 10
2574.945722698925
 20
-23.43285958136876
 30
0.0
 40
45.72
 41
90.0
 46
0.0
 71
     7
 72
     1
  1
{\fＭＳ ゴシック|b0|i0|c128|p49;366}
 73
     1
 44
1.0
  0
LINE
  5
347
330
1F
100
AcDbEntity
  8
0-A_文字
  6
JWW_CENTER1
 62
     7
370
     9
100
AcDbLine
 10
-3149.054277417422
 20
-388.2928793765615
 30
0.0
 11
2802.945722722192
 21
-388.2928793765615
 31
0.0
  0
LINE
  5
348
330
1F
100
AcDbEntity
  8
0-B_寸法
  6
JWW_DASHED2
 62
   120
370
     5
100
AcDbLine
 10
2852.945722701893
 20
-388.2928793765615
 30
0.0
 11
-3148.054277277809
 21
-388.2928793765615
 31
0.0
  0
LINE
  5
349
330
1F
100
AcDbEntity
  8
0-4_棚
  6
Continuous
 62
    92
370
    13
100
AcDbLine
 10
-456.0542772312726
 20
-408.2928793765615
 30
0.0
 11
1137.945722794977
 21
-408.2928793765615
 31
0.0
  0
LINE
  5
34A
330
1F
100
AcDbEntity
  8
0-4_棚
  6
Continuous
 62
    92
370
    13
100
AcDbLine
 10
-3149.054277277808
 20
-408.2928793765615
 30
0.0
 11
-1555.054277277811
 21
-408.2928793765615
 31
0.0
  0
LINE
  5
34B
330
1F
100
AcDbEntity
  8
0-2_扉
  6
Continuous
 62
    40
370
    15
100
AcDbLine
 10
736.9457226756526
 20
1415.15229710354
 30
0.0
 11
342.9457226756517
 21
1415.15229710354
 31
0.0
  0
LINE
  5
34C
330
1F
100
AcDbEntity
  8
0-2_扉
  6
Continuous
 62
    40
370
    15
100
AcDbLine
 10
1134.945722675652
 20
1415.15229710354
 30
0.0
 11
740.9457226756513
 21
1415.15229710354
 31
0.0
  0
LINE
  5
34D
330
1F
100
AcDbEntity
  8
0-2_扉
  6
Continuous
 62
    40
370
    15
100
AcDbLine
 10
-59.05427732434987
 20
1415.15229710354
 30
0.0
 11
-453.0542773243508
 21
1415.15229710354
 31
0.0
  0
LINE
  5
34E
330
1F
100
AcDbEntity
  8
0-2_扉
  6
Continuous
 62
    40
370
    15
100
AcDbLine
 10
338.9457226756497
 20
1415.15229710354
 30
0.0
 11
-55.05427732435123
 21
1415.15229710354
 31
0.0
  0
LINE
  5
34F
330
1F
100
AcDbEntity
  8
0-2_扉
  6
Continuous
 62
    40
370
    15
100
AcDbLine
 10
736.9457226756526
 20
1395.152297103541
 30
0.0
 11
342.9457226756517
 21
1395.152297103541
 31
0.0
  0
LINE
  5
350
330
1F
100
AcDbEntity
  8
0-2_扉
  6
Continuous
 62
    40
370
    15
100
AcDbLine
 10
1134.945722675652
 20
1395.152297103541
 30
0.0
 11
740.9457226756513
 21
1395.152297103541
 31
0.0
  0
LINE
  5
351
330
1F
100
AcDbEntity
  8
0-2_扉
  6
Continuous
 62
    40
370
    15
100
AcDbLine
 10
740.9457226756513
 20
1415.15229710354
 30
0.0
 11
740.9457226756513
 21
1395.152297103541
 31
0.0
  0
LINE
  5
352
330
1F
100
AcDbEntity
  8
0-2_扉
  6
Continuous
 62
    40
370
    15
100
AcDbLine
 10
736.9457226756526
 20
1415.15229710354
 30
0.0
 11
736.9457226756526
 21
1395.152297103541
 31
0.0
  0
LINE
  5
353
330
1F
100
AcDbEntity
  8
0-2_扉
  6
Continuous
 62
    40
370
    15
100
AcDbLine
 10
1134.945722675652
 20
1415.15229710354
 30
0.0
 11
1134.945722675652
 21
1395.152297103541
 31
0.0
  0
LINE
  5
354
330
1F
100
AcDbEntity
  8
0-2_扉
  6
Continuous
 62
    40
370
    15
100
AcDbLine
 10
342.9457226756517
 20
1415.15229710354
 30
0.0
 11
342.9457226756517
 21
1395.152297103541
 31
0.0
  0
LINE
  5
355
330
1F
100
AcDbEntity
  8
0-2_扉
  6
Continuous
 62
    40
370
    15
100
AcDbLine
 10
-59.05427732434987
 20
1395.152297103541
 30
0.0
 11
-453.0542773243508
 21
1395.152297103541
 31
0.0
  0
LINE
  5
356
330
1F
100
AcDbEntity
  8
0-2_扉
  6
Continuous
 62
    40
370
    15
100
AcDbLine
 10
338.9457226756497
 20
1395.152297103541
 30
0.0
 11
-55.05427732435123
 21
1395.152297103541
 31
0.0
  0
LINE
  5
357
330
1F
100
AcDbEntity
  8
0-2_扉
  6
Continuous
 62
    40
370
    15
100
AcDbLine
 10
-55.05427732435123
 20
1415.15229710354
 30
0.0
 11
-55.05427732435123
 21
1395.152297103541
 31
0.0
  0
LINE
  5
358
330
1F
100
AcDbEntity
  8
0-2_扉
  6
Continuous
 62
    40
370
    15
100
AcDbLine
 10
-59.05427732434987
 20
1415.15229710354
 30
0.0
 11
-59.05427732434987
 21
1395.152297103541
 31
0.0
  0
LINE
  5
359
330
1F
100
AcDbEntity
  8
0-2_扉
  6
Continuous
 62
    40
370
    15
100
AcDbLine
 10
338.9457226756497
 20
1415.15229710354
 30
0.0
 11
338.9457226756497
 21
1395.152297103541
 31
0.0
  0
LINE
  5
35A
330
1F
100
AcDbEntity
  8
0-2_扉
  6
Continuous
 62
    40
370
    15
100
AcDbLine
 10
-453.0542773243508
 20
1415.15229710354
 30
0.0
 11
-453.0542773243508
 21
1395.152297103541
 31
0.0
  0
LINE
  5
35B
330
1F
100
AcDbEntity
  8
0-4_棚
  6
Continuous
 62
     7
370
     9
100
AcDbLine
 10
2802.945722629116
 20
-419.2928859749513
 30
0.0
 11
2802.945722629116
 21
-388.2928661797648
 31
0.0
  0
LINE
  5
35C
330
1F
100
AcDbEntity
  8
0-4_棚
  6
Continuous
 62
     7
370
     9
100
AcDbLine
 10
2427.945722629116
 20
-398.2928514300431
 30
0.0
 11
2432.145722629116
 21
-388.2928514300431
 31
0.0
  0
LINE
  5
35D
330
1F
100
AcDbEntity
  8
0-4_棚
  6
Continuous
 62
     7
370
     9
100
AcDbLine
 10
2802.945722629116
 20
-388.2928514300431
 30
0.0
 11
2432.145722629116
 21
-388.2928514300431
 31
0.0
  0
LINE
  5
35E
330
1F
100
AcDbEntity
  8
0-4_棚
  6
Continuous
 62
    92
370
    13
100
AcDbLine
 10
-456.0542772312726
 20
-388.2928909237535
 30
0.0
 11
1137.945722794977
 21
-388.2928909237535
 31
0.0
  0
LINE
  5
35F
330
1F
100
AcDbEntity
  8
0-4_棚
  6
Continuous
 62
    92
370
    13
100
AcDbLine
 10
1137.945722794977
 20
-388.2928909237535
 30
0.0
 11
1137.945722794977
 21
-408.2928793765615
 31
0.0
  0
LINE
  5
360
330
1F
100
AcDbEntity
  8
0-4_棚
  6
Continuous
 62
    92
370
    13
100
AcDbLine
 10
-456.0542772312726
 20
-388.2928909237535
 30
0.0
 11
-456.0542772312726
 21
-408.2928793765615
 31
0.0
  0
LINE
  5
361
330
1F
100
AcDbEntity
  8
0-4_棚
  6
Continuous
 62
    92
370
    13
100
AcDbLine
 10
-1555.054277277811
 20
-388.2928909237535
 30
0.0
 11
-3149.054277277808
 21
-388.2928909237535
 31
0.0
  0
LINE
  5
362
330
1F
100
AcDbEntity
  8
0-4_棚
  6
Continuous
 62
    92
370
    13
100
AcDbLine
 10
-1555.054277277811
 20
-408.2928793765615
 30
0.0
 11
-1555.054277277811
 21
-388.2928909237535
 31
0.0
  0
LINE
  5
363
330
1F
100
AcDbEntity
  8
0-4_棚
  6
Continuous
 62
    92
370
    13
100
AcDbLine
 10
-3149.054277277808
 20
-388.2928909237535
 30
0.0
 11
-3149.054277277808
 21
-408.2928793765615
 31
0.0
  0
LINE
  5
364
330
1F
100
AcDbEntity
  8
0-B_寸法
  6
Continuous
 62
   120
370
     5
100
AcDbLine
 10
1985.945722722191
 20
-408.2928513333769
 30
0.0
 11
1985.945722722191
 21
-388.2928793765615
 31
0.0
  0
LWPOLYLINE
  5
365
330
1F
100
AcDbEntity
  8
0-B_寸法
  6
Continuous
 62
     7
370
     9
100
AcDbPolyline
 90
        4
 70
     1
 43
2.0
 10
1986.945722722191
 20
-388.2928793765615
 42
0.4142135623731
 10
1985.945722722191
 20
-387.2928793765615
 42
0.4142135623731
 10
1984.945722722191
 20
-388.2928793765615
 42
0.4142135623731
 10
1985.945722722191
 20
-389.2928793765615
 42
0.4142135623731
  0
LINE
  5
366
330
1F
100
AcDbEntity
  8
0-B_寸法
  6
Continuous
 62
   120
370
     5
100
AcDbLine
 10
1985.945722722191
 20
-388.2928793765615
 30
0.0
 11
2385.945722722191
 21
-388.2928793765615
 31
0.0
  0
MTEXT
  5
367
330
1F
100
AcDbEntity
  8
0-B_寸法
  6
Continuous
 62
     7
370
   211
100
AcDbMText
 10
1975.945722722191
 20
-389.236095761012
 30
0.0
 40
45.72
 41
60.0
 46
0.0
 71
     7
 72
     1
  1
{\fＭＳ ゴシック|b0|i0|c128|p49;20}
 11
6.123031769111886E-17
 21
1.0
 31
0.0
 73
     1
 44
1.0
  0
LINE
  5
368
330
1F
100
AcDbEntity
  8
0-B_寸法
  6
Continuous
 62
   120
370
     5
100
AcDbLine
 10
-705.0542771847324
 20
-408.2928793765615
 30
0.0
 11
-705.0542771847324
 21
-388.2928793765615
 31
0.0
  0
LINE
  5
369
330
1F
100
AcDbEntity
  8
0-B_寸法
  6
Continuous
 62
   120
370
     5
100
AcDbLine
 10
-705.0542771847324
 20
-388.2928793765615
 30
0.0
 11
-505.0542771847324
 21
-388.2928793765615
 31
0.0
  0
LWPOLYLINE
  5
36A
330
1F
100
AcDbEntity
  8
0-B_寸法
  6
Continuous
 62
     7
370
     9
100
AcDbPolyline
 90
        4
 70
     1
 43
2.0
 10
-704.0542771847324
 20
-388.2928793765615
 42
0.4142135623731
 10
-705.0542771847324
 20
-387.2928793765615
 42
0.4142135623731
 10
-706.0542771847324
 20
-388.2928793765615
 42
0.4142135623731
 10
-705.0542771847324
 20
-389.2928793765615
 42
0.4142135623731
  0
MTEXT
  5
36B
330
1F
100
AcDbEntity
  8
0-B_寸法
  6
Continuous
 62
     7
370
   211
100
AcDbMText
 10
-715.0542771847324
 20
-389.2360833506936
 30
0.0
 40
45.72
 41
60.0
 46
0.0
 71
     7
 72
     1
  1
{\fＭＳ ゴシック|b0|i0|c128|p49;20}
 11
6.123031769111886E-17
 21
1.0
 31
0.0
 73
     1
 44
1.0
  0
LINE
  5
36C
330
1F
100
AcDbEntity
  8
0-B_寸法
  6
Continuous
 62
   120
370
     5
100
AcDbLine
 10
-3498.054277370884
 20
-388.2928909237535
 30
0.0
 11
-3198.054277277809
 21
-388.2928909237535
 31
0.0
  0
LWPOLYLINE
  5
36D
330
1F
100
AcDbEntity
  8
0-B_寸法
  6
Continuous
 62
     7
370
     9
100
AcDbPolyline
 90
        4
 70
     1
 43
2.0
 10
-3497.054277370884
 20
-388.2928909237535
 42
0.4142135623731
 10
-3498.054277370884
 20
-387.2928909237535
 42
0.4142135623731
 10
-3499.054277370885
 20
-388.2928909237535
 42
0.4142135623731
 10
-3498.054277370884
 20
-389.2928909237535
 42
0.4142135623731
  0
LINE
  5
36E
330
1F
100
AcDbEntity
  8
0-B_寸法
  6
Continuous
 62
   120
370
     5
100
AcDbLine
 10
-3498.054277370884
 20
-388.2928909237535
 30
0.0
 11
-3498.054277370884
 21
-1233.292859581369
 31
0.0
  0
LWPOLYLINE
  5
36F
330
1F
100
AcDbEntity
  8
0-B_寸法
  6
Continuous
 62
     7
370
     9
100
AcDbPolyline
 90
        4
 70
     1
 43
2.0
 10
-3297.054277277808
 20
-388.2928909237535
 42
0.4142135623731
 10
-3298.054277277809
 20
-387.2928909237535
 42
0.4142135623731
 10
-3299.054277277809
 20
-388.2928909237535
 42
0.4142135623731
 10
-3298.054277277809
 20
-389.2928909237535
 42
0.4142135623731
  0
LINE
  5
370
330
1F
100
AcDbEntity
  8
0-B_寸法
  6
Continuous
 62
   120
370
     5
100
AcDbLine
 10
-3298.054277277809
 20
-408.2928711285678
 30
0.0
 11
-3298.054277277809
 21
-388.2928909237535
 31
0.0
  0
LWPOLYLINE
  5
371
330
1F
100
AcDbEntity
  8
0-B_寸法
  6
Continuous
 62
     7
370
     9
100
AcDbPolyline
 90
        4
 70
     1
 43
2.0
 10
-3397.054277370884
 20
-388.2928909237535
 42
0.4142135623731
 10
-3398.054277370884
 20
-387.2928909237535
 42
0.4142135623731
 10
-3399.054277370885
 20
-388.2928909237535
 42
0.4142135623731
 10
-3398.054277370884
 20
-389.2928909237535
 42
0.4142135623731
  0
LINE
  5
372
330
1F
100
AcDbEntity
  8
0-B_寸法
  6
Continuous
 62
   120
370
     5
100
AcDbLine
 10
-3398.054277370884
 20
-388.2928909237535
 30
0.0
 11
-3398.054277370884
 21
-1169.292846605509
 31
0.0
  0
MTEXT
  5
373
330
1F
100
AcDbEntity
  8
0-B_寸法
  6
Continuous
 62
     7
370
   211
100
AcDbMText
 10
-3308.054277277809
 20
-389.2360948978856
 30
0.0
 40
45.72
 41
60.0
 46
0.0
 71
     7
 72
     1
  1
{\fＭＳ ゴシック|b0|i0|c128|p49;20}
 11
6.123031769111886E-17
 21
1.0
 31
0.0
 73
     1
 44
1.0
  0
MTEXT
  5
374
330
1F
100
AcDbEntity
  8
0-B_寸法
  6
Continuous
 62
     7
370
   211
100
AcDbMText
 10
-3308.054277277809
 20
-930.9328793765627
 30
0.0
 40
45.71999999999999
 41
270.0
 46
0.0
 71
     7
 72
     1
  1
{\fＭＳ ゴシック|b0|i0|c128|p49;ＤＨ＝755}
 11
6.123031769111886E-17
 21
1.0
 31
0.0
 73
     1
 44
1.0
  0
MTEXT
  5
375
330
1F
100
AcDbEntity
  8
0-B_寸法
  6
Continuous
 62
     7
370
   211
100
AcDbMText
 10
-3408.054277370884
 20
-830.4328588670393
 30
0.0
 40
45.72
 41
90.0
 46
0.0
 71
     7
 72
     1
  1
{\fＭＳ ゴシック|b0|i0|c128|p49;781}
 11
6.123031769111886E-17
 21
1.0
 31
0.0
 73
     1
 44
1.0
  0
MTEXT
  5
376
330
1F
100
AcDbEntity
  8
0-B_寸法
  6
Continuous
 62
     7
370
   211
100
AcDbMText
 10
-3508.054277370884
 20
-862.4328653549685
 30
0.0
 40
45.72
 41
90.0
 46
0.0
 71
     7
 72
     1
  1
{\fＭＳ ゴシック|b0|i0|c128|p49;845}
 11
6.123031769111886E-17
 21
1.0
 31
0.0
 73
     1
 44
1.0
  0
LINE
  5
377
330
1F
100
AcDbEntity
  8
0-6_桟木
  6
Continuous
 62
    92
370
    13
100
AcDbLine
 10
2802.945722629116
 20
-388.2928514300431
 30
0.0
 11
2802.945722629116
 21
-493.2928514300431
 31
0.0
  0
LINE
  5
378
330
1F
100
AcDbEntity
  8
0-6_桟木
  6
Continuous
 62
    92
370
    13
100
AcDbLine
 10
2832.945722629116
 20
-388.2928514300431
 30
0.0
 11
2802.945722629116
 21
-388.2928514300431
 31
0.0
  0
LINE
  5
379
330
1F
100
AcDbEntity
  8
0-6_桟木
  6
Continuous
 62
    92
370
    13
100
AcDbLine
 10
2802.945722629116
 20
-493.2928514300431
 30
0.0
 11
2832.945722629116
 21
-493.2928514300431
 31
0.0
  0
LINE
  5
37A
330
1F
100
AcDbEntity
  8
0-6_桟木
  6
Continuous
 62
    92
370
    13
100
AcDbLine
 10
2832.945722629116
 20
-493.2928514300431
 30
0.0
 11
2832.945722629116
 21
-388.2928514300431
 31
0.0
  0
LINE
  5
37B
330
1F
100
AcDbEntity
  8
0-6_桟木
  6
Continuous
 62
     7
370
     9
100
AcDbLine
 10
2802.945722629116
 20
-493.2928514300431
 30
0.0
 11
2832.945722629116
 21
-388.2928514300431
 31
0.0
  0
LINE
  5
37C
330
1F
100
AcDbEntity
  8
0-6_桟木
  6
Continuous
 62
     7
370
     9
100
AcDbLine
 10
2802.945722629116
 20
-388.2928514300431
 30
0.0
 11
2832.945722629116
 21
-493.2928514300431
 31
0.0
  0
LINE
  5
37D
330
1F
100
AcDbEntity
  8
0-B_寸法
  6
JWW_DASHED2
 62
   120
370
     5
100
AcDbLine
 10
2852.945722701893
 20
-493.2928514300431
 30
0.0
 11
-3148.054277277809
 21
-493.2928514300431
 31
0.0
  0
LWPOLYLINE
  5
37E
330
1F
100
AcDbEntity
  8
0-B_寸法
  6
Continuous
 62
     7
370
     9
100
AcDbPolyline
 90
        4
 70
     1
 43
2.0
 10
2953.945722629114
 20
-493.2928118396677
 42
0.4142135623731
 10
2952.945722629114
 20
-492.2928118396677
 42
0.4142135623731
 10
2951.945722629114
 20
-493.2928118396677
 42
0.4142135623731
 10
2952.945722629114
 20
-494.2928118396677
 42
0.4142135623731
  0
LINE
  5
37F
330
1F
100
AcDbEntity
  8
0-B_寸法
  6
Continuous
 62
   120
370
     5
100
AcDbLine
 10
2952.945722629114
 20
-493.2928118396677
 30
0.0
 11
2852.945722722187
 21
-493.2928118396677
 31
0.0
  0
LINE
  5
380
330
1F
100
AcDbEntity
  8
0-B_寸法
  6
Continuous
 62
   120
370
     5
100
AcDbLine
 10
2952.945722629114
 20
-493.2928118396677
 30
0.0
 11
2952.945722629114
 21
-388.2928514300431
 31
0.0
  0
LWPOLYLINE
  5
381
330
1F
100
AcDbEntity
  8
0-B_寸法
  6
Continuous
 62
     7
370
     9
100
AcDbPolyline
 90
        4
 70
     1
 43
2.0
 10
2953.945722629114
 20
-388.2928514300431
 42
0.4142135623731
 10
2952.945722629114
 20
-387.2928514300431
 42
0.4142135623731
 10
2951.945722629114
 20
-388.2928514300431
 42
0.4142135623731
 10
2952.945722629114
 20
-389.2928514300431
 42
0.4142135623731
  0
LINE
  5
382
330
1F
100
AcDbEntity
  8
0-B_寸法
  6
Continuous
 62
   120
370
     5
100
AcDbLine
 10
2952.945722629114
 20
-388.2928514300431
 30
0.0
 11
2852.945722722187
 21
-388.2928514300431
 31
0.0
  0
LINE
  5
383
330
1F
100
AcDbEntity
  8
0-B_寸法
  6
Continuous
 62
   120
370
     5
100
AcDbLine
 10
2952.945722629114
 20
-1090.292879376559
 30
0.0
 11
2952.945722629114
 21
-493.2928118396677
 31
0.0
  0
MTEXT
  5
384
330
1F
100
AcDbEntity
  8
0-B_寸法
  6
Continuous
 62
     7
370
   211
100
AcDbMText
 10
2942.945722629114
 20
-492.9328316348554
 30
0.0
 40
45.72
 41
90.0
 46
0.0
 71
     7
 72
     1
  1
{\fＭＳ ゴシック|b0|i0|c128|p49;105}
 11
6.123031769111886E-17
 21
1.0
 31
0.0
 73
     1
 44
1.0
  0
MTEXT
  5
385
330
1F
100
AcDbEntity
  8
0-B_寸法
  6
Continuous
 62
     7
370
   211
100
AcDbMText
 10
2942.945722629114
 20
-843.4328694789671
 30
0.0
 40
45.72
 41
90.0
 46
0.0
 71
     7
 72
     1
  1
{\fＭＳ ゴシック|b0|i0|c128|p49;597}
 11
6.123031769111886E-17
 21
1.0
 31
0.0
 73
     1
 44
1.0
  0
MTEXT
  5
386
330
1F
100
AcDbEntity
  8
0-6_桟木
  6
Continuous
 62
     9
370
     5
100
AcDbMText
 10
0.0
 20
-20030.0
 30
0.0
 40
0.0
 41
0.0
 46
0.0
 71
     7
 72
     1
  1
{\fＭＳ ゴシック|b0|i0|c128|p49;Printer_Orientation = 0}
 73
     1
 44
1.0
  0
MTEXT
  5
387
330
1F
100
AcDbEntity
  8
0-6_桟木
  6
Continuous
 62
     9
370
     5
100
AcDbMText
 10
0.0
 20
-20030.0
 30
0.0
 40
0.0
 41
0.0
 46
0.0
 71
     7
 72
     1
  1
{\fＭＳ ゴシック|b0|i0|c128|p49;Printer_PaperSize = 0}
 73
     1
 44
1.0
  0
MTEXT
  5
388
330
1F
100
AcDbEntity
  8
0-6_桟木
  6
Continuous
 62
     9
370
     5
100
AcDbMText
 10
0.0
 20
-20030.0
 30
0.0
 40
0.0
 41
0.0
 46
0.0
 71
     7
 72
     1
  1
{\fＭＳ ゴシック|b0|i0|c128|p49;Printer_D2dBMP = 0}
 73
     1
 44
1.0
  0
MTEXT
  5
389
330
1F
100
AcDbEntity
  8
0-6_桟木
  6
Continuous
 62
     9
370
     5
100
AcDbMText
 10
0.0
 20
-20030.0
 30
0.0
 40
0.0
 41
0.0
 46
0.0
 71
     7
 72
     1
  1
{\fＭＳ ゴシック|b0|i0|c128|p49;Printer_BmpZENTAI = 0}
 73
     1
 44
1.0
  0
MTEXT
  5
38A
330
1F
100
AcDbEntity
  8
0-6_桟木
  6
Continuous
 62
     9
370
     5
100
AcDbMText
 10
0.0
 20
-20030.0
 30
0.0
 40
0.0
 41
0.0
 46
0.0
 71
     7
 72
     1
  1
{\fＭＳ ゴシック|b0|i0|c128|p49;View_Direct2d = 1}
 73
     1
 44
1.0
  0
MTEXT
  5
38B
330
1F
100
AcDbEntity
  8
0-6_桟木
  6
Continuous
 62
     9
370
     5
100
AcDbMText
 10
0.0
 20
-20030.0
 30
0.0
 40
0.0
 41
0.0
 46
0.0
 71
     7
 72
     1
  1
{\fＭＳ ゴシック|b0|i0|c128|p49;Draw_BmpTOUKA = 1}
 73
     1
 44
1.0
  0
ENDSEC
  0
SECTION
  2
OBJECTS
  0
DICTIONARY
  5
C
330
0
100
AcDbDictionary
281
     1
  3
ACAD_GROUP
350
D
  3
ACAD_LAYOUT
350
1A
  3
ACAD_MATERIAL
350
3B
  3
ACAD_MLEADERSTYLE
350
38D
  3
ACAD_MLINESTYLE
350
17
  3
ACAD_PLOTSETTINGS
350
19
  3
ACAD_PLOTSTYLENAME
350
E
  3
ACAD_TABLESTYLE
350
38C
  3
ACAD_VISUALSTYLE
350
2A
  0
DICTIONARY
  5
D
102
{ACAD_REACTORS
330
C
102
}
330
C
100
AcDbDictionary
281
     1
  0
DICTIONARY
  5
1A
102
{ACAD_REACTORS
330
C
102
}
330
C
100
AcDbDictionary
281
     1
  3
Layout1
350
1E
  3
Layout2
350
26
  3
Model
350
22
  0
DICTIONARY
  5
3B
102
{ACAD_REACTORS
330
C
102
}
330
C
100
AcDbDictionary
281
     1
  3
ByBlock
350
3D
  3
ByLayer
350
3C
  3
Global
350
3E
  0
DICTIONARY
  5
38D
102
{ACAD_REACTORS
330
C
102
}
330
C
100
AcDbDictionary
281
     1
  0
DICTIONARY
  5
17
102
{ACAD_REACTORS
330
C
102
}
330
C
100
AcDbDictionary
281
     1
  3
Standard
350
18
  0
DICTIONARY
  5
19
102
{ACAD_REACTORS
330
C
102
}
330
C
100
AcDbDictionary
281
     1
  0
ACDBDICTIONARYWDFLT
  5
E
102
{ACAD_REACTORS
330
C
102
}
330
C
100
AcDbDictionary
281
     1
  3
Normal
350
F
100
AcDbDictionaryWithDefault
340
F
  0
DICTIONARY
  5
38C
102
{ACAD_REACTORS
330
C
102
}
330
C
100
AcDbDictionary
281
     1
  0
DICTIONARY
  5
2A
102
{ACAD_REACTORS
330
C
102
}
330
C
100
AcDbDictionary
281
     1
  3
2dWireframe
350
2F
  3
3D Hidden
350
31
  3
3dWireframe
350
30
  3
Basic
350
32
  3
Brighten
350
36
  3
ColorChange
350
3A
  3
Conceptual
350
34
  3
Dim
350
35
  3
Facepattern
350
39
  3
Flat
350
2B
  3
FlatWithEdges
350
2C
  3
Gouraud
350
2D
  3
GouraudWithEdges
350
2E
  3
Linepattern
350
38
  3
Realistic
350
33
  3
Thicken
350
37
  0
LAYOUT
  5
1E
102
{ACAD_REACTORS
330
1A
102
}
330
1A
100
AcDbPlotSettings
  1

  2
none_device
  4

  6

 40
0.0
 41
0.0
 42
0.0
 43
0.0
 44
0.0
 45
0.0
 46
0.0
 47
0.0
 48
0.0
 49
0.0
140
0.0
141
0.0
142
1.0
143
1.0
 70
   688
 72
     0
 73
     0
 74
     5
  7

 75
    16
 76
     0
 77
     5
 78
   300
147
1.0
148
0.0
149
0.0
100
AcDbLayout
  1
Layout1
 70
     1
 71
     1
 10
0.0
 20
0.0
 11
420.0
 21
297.0
 12
0.0
 22
0.0
 32
0.0
 14
1.000000000000000E+20
 24
1.000000000000000E+20
 34
1.000000000000000E+20
 15
-1.000000000000000E+20
 25
-1.000000000000000E+20
 35
-1.000000000000000E+20
146
0.0
 13
0.0
 23
0.0
 33
0.0
 16
1.0
 26
0.0
 36
0.0
 17
0.0
 27
1.0
 37
0.0
 76
     0
330
1B
  0
LAYOUT
  5
26
102
{ACAD_REACTORS
330
1A
102
}
330
1A
100
AcDbPlotSettings
  1

  2
none_device
  4

  6

 40
0.0
 41
0.0
 42
0.0
 43
0.0
 44
0.0
 45
0.0
 46
0.0
 47
0.0
 48
0.0
 49
0.0
140
0.0
141
0.0
142
1.0
143
1.0
 70
   688
 72
     0
 73
     0
 74
     5
  7

 75
    16
 76
     0
 77
     5
 78
   300
147
1.0
148
0.0
149
0.0
100
AcDbLayout
  1
Layout2
 70
     1
 71
     2
 10
0.0
 20
0.0
 11
0.0
 21
0.0
 12
0.0
 22
0.0
 32
0.0
 14
0.0
 24
0.0
 34
0.0
 15
0.0
 25
0.0
 35
0.0
146
0.0
 13
0.0
 23
0.0
 33
0.0
 16
1.0
 26
0.0
 36
0.0
 17
0.0
 27
1.0
 37
0.0
 76
     0
330
23
  0
LAYOUT
  5
22
102
{ACAD_REACTORS
330
1A
102
}
330
1A
100
AcDbPlotSettings
  1

  2
none_device
  4

  6

 40
0.0
 41
0.0
 42
0.0
 43
0.0
 44
0.0
 45
0.0
 46
0.0
 47
0.0
 48
0.0
 49
0.0
140
0.0
141
0.0
142
1.0
143
1.0
 70
  1712
 72
     0
 73
     0
 74
     0
  7

 75
     0
 76
     0
 77
     5
 78
   300
147
1.0
148
0.0
149
0.0
100
AcDbLayout
  1
Model
 70
     1
 71
     0
 10
-4200.0
 20
-2970.0
 11
4200.0
 21
2970.0
 12
0.0
 22
0.0
 32
0.0
 14
-4200.0
 24
-2970.0
 34
0.0
 15
4200.0
 25
2970.0
 35
0.0
146
0.0
 13
0.0
 23
0.0
 33
0.0
 16
1.0
 26
0.0
 36
0.0
 17
0.0
 27
1.0
 37
0.0
 76
     0
330
1F
331
29
  0
MATERIAL
  5
3D
102
{ACAD_REACTORS
330
3B
102
}
330
3B
100
AcDbMaterial
  1
ByBlock
 72
     1
 94
      127
  0
MATERIAL
  5
3C
102
{ACAD_REACTORS
330
3B
102
}
330
3B
100
AcDbMaterial
  1
ByLayer
 72
     1
 94
      127
  0
MATERIAL
  5
3E
102
{ACAD_REACTORS
330
3B
102
}
330
3B
100
AcDbMaterial
  1
Global
 72
     1
 94
      127
  0
MLINESTYLE
  5
18
102
{ACAD_REACTORS
330
17
102
}
330
17
100
AcDbMlineStyle
  2
Standard
 70
     0
  3

 62
   256
 51
90.0
 52
90.0
 71
     2
 49
0.5
 62
   256
  6
BYLAYER
 49
-0.5
 62
   256
  6
BYLAYER
  0
ACDBPLACEHOLDER
  5
F
102
{ACAD_REACTORS
330
E
102
}
330
E
  0
VISUALSTYLE
  5
2F
102
{ACAD_REACTORS
330
2A
102
}
330
2A
100
AcDbVisualStyle
  2
2dWireframe
 70
     4
177
     2
291
     0
 71
     0
176
     1
 72
     2
176
     1
 73
     0
176
     1
 90
        0
176
     1
 40
-0.6
176
     1
 41
-30.0
176
     1
 62
     5
 63
     7
421
 16777215
176
     1
 74
     1
176
     1
 91
        4
176
     1
 64
     7
176
     1
 65
   257
176
     1
 75
     1
176
     1
175
     1
176
     1
 42
1.0
176
     1
 92
        0
176
     1
 66
   257
176
     1
 43
1.0
176
     1
 76
     1
176
     1
 77
     6
176
     1
 78
     2
176
     1
 67
     7
176
     1
 79
     5
176
     1
170
     0
176
     1
171
     0
176
     1
290
     0
176
     1
 93
        1
176
     1
 44
0.0
176
     1
173
     0
176
     1
  0
VISUALSTYLE
  5
31
102
{ACAD_REACTORS
330
2A
102
}
330
2A
100
AcDbVisualStyle
  2
3D Hidden
 70
     6
177
     2
291
     0
 71
     1
176
     1
 72
     2
176
     1
 73
     2
176
     1
 90
        0
176
     1
 40
-0.6
176
     1
 41
-30.0
176
     1
 62
     5
 63
     7
421
 16777215
176
     1
 74
     2
176
     1
 91
        2
176
     1
 64
     7
176
     1
 65
   257
176
     1
 75
     2
176
     1
175
     1
176
     1
 42
40.0
176
     1
 92
        0
176
     1
 66
   257
176
     1
 43
1.0
176
     1
 76
     1
176
     1
 77
     6
176
     1
 78
     2
176
     1
 67
     7
176
     1
 79
     3
176
     1
170
     0
176
     1
171
     0
176
     1
290
     0
176
     1
 93
        1
176
     1
 44
0.0
176
     1
173
     0
176
     1
  0
VISUALSTYLE
  5
30
102
{ACAD_REACTORS
330
2A
102
}
330
2A
100
AcDbVisualStyle
  2
3dWireframe
 70
     5
177
     2
291
     0
 71
     0
176
     1
 72
     2
176
     1
 73
     0
176
     1
 90
        0
176
     1
 40
-0.6
176
     1
 41
-30.0
176
     1
 62
     5
 63
     7
421
 16777215
176
     1
 74
     1
176
     1
 91
        4
176
     1
 64
     7
176
     1
 65
   257
176
     1
 75
     1
176
     1
175
     1
176
     1
 42
1.0
176
     1
 92
        0
176
     1
 66
   257
176
     1
 43
1.0
176
     1
 76
     1
176
     1
 77
     6
176
     1
 78
     2
176
     1
 67
     7
176
     1
 79
     5
176
     1
170
     0
176
     1
171
     0
176
     1
290
     0
176
     1
 93
        1
176
     1
 44
0.0
176
     1
173
     0
176
     1
  0
VISUALSTYLE
  5
32
102
{ACAD_REACTORS
330
2A
102
}
330
2A
100
AcDbVisualStyle
  2
Basic
 70
     7
177
     2
291
     1
 71
     1
176
     1
 72
     0
176
     1
 73
     1
176
     1
 90
        0
176
     1
 40
-0.6
176
     1
 41
-30.0
176
     1
 62
     5
 63
     7
421
 16777215
176
     1
 74
     0
176
     1
 91
        4
176
     1
 64
     7
176
     1
 65
   257
176
     1
 75
     1
176
     1
175
     1
176
     1
 42
1.0
176
     1
 92
        8
176
     1
 66
     7
176
     1
 43
1.0
176
     1
 76
     1
176
     1
 77
     6
176
     1
 78
     2
176
     1
 67
     7
176
     1
 79
     5
176
     1
170
     0
176
     1
171
     0
176
     1
290
     0
176
     1
 93
        1
176
     1
 44
0.0
176
     1
173
     0
176
     1
  0
VISUALSTYLE
  5
36
102
{ACAD_REACTORS
330
2A
102
}
330
2A
100
AcDbVisualStyle
  2
Brighten
 70
    12
177
     2
291
     1
 71
     2
176
     1
 72
     2
176
     1
 73
     0
176
     1
 90
        0
176
     1
 40
-0.6
176
     1
 41
-30.0
176
     1
 62
     5
 63
     7
421
 16777215
176
     1
 74
     1
176
     1
 91
        4
176
     1
 64
     7
176
     1
 65
   257
176
     1
 75
     1
176
     1
175
     1
176
     1
 42
1.0
176
     1
 92
        8
176
     1
 66
     7
176
     1
 43
1.0
176
     1
 76
     1
176
     1
 77
     6
176
     1
 78
     2
176
     1
 67
     7
176
     1
 79
     5
176
     1
170
     0
176
     1
171
     0
176
     1
290
     0
176
     1
 93
        1
176
     1
 44
50.0
176
     1
173
     0
176
     1
  0
VISUALSTYLE
  5
3A
102
{ACAD_REACTORS
330
2A
102
}
330
2A
100
AcDbVisualStyle
  2
ColorChange
 70
    16
177
     2
291
     1
 71
     2
176
     1
 72
     2
176
     1
 73
     3
176
     1
 90
        0
176
     1
 40
-0.6
176
     1
 41
-30.0
176
     1
 62
     5
 63
     8
421
  8421504
176
     1
 74
     1
176
     1
 91
        4
176
     1
 64
     7
176
     1
 65
   257
176
     1
 75
     1
176
     1
175
     1
176
     1
 42
1.0
176
     1
 92
        8
176
     1
 66
     8
424
  8421504
176
     1
 43
1.0
176
     1
 76
     1
176
     1
 77
     6
176
     1
 78
     2
176
     1
 67
     7
176
     1
 79
     5
176
     1
170
     0
176
     1
171
     0
176
     1
290
     0
176
     1
 93
        1
176
     1
 44
0.0
176
     1
173
     0
176
     1
  0
VISUALSTYLE
  5
34
102
{ACAD_REACTORS
330
2A
102
}
330
2A
100
AcDbVisualStyle
  2
Conceptual
 70
     9
177
     2
291
     0
 71
     3
176
     1
 72
     2
176
     1
 73
     0
176
     1
 90
        0
176
     1
 40
-0.6
176
     1
 41
-30.0
176
     1
 62
     5
 63
     7
421
 16777215
176
     1
 74
     2
176
     1
 91
        2
176
     1
 64
     7
176
     1
 65
   257
176
     1
 75
     1
176
     1
175
     1
176
     1
 42
40.0
176
     1
 92
        8
176
     1
 66
     7
176
     1
 43
1.0
176
     1
 76
     1
176
     1
 77
     6
176
     1
 78
     2
176
     1
 67
     7
176
     1
 79
     3
176
     1
170
     0
176
     1
171
     0
176
     1
290
     0
176
     1
 93
        1
176
     1
 44
0.0
176
     1
173
     0
176
     1
  0
VISUALSTYLE
  5
35
102
{ACAD_REACTORS
330
2A
102
}
330
2A
100
AcDbVisualStyle
  2
Dim
 70
    11
177
     2
291
     1
 71
     2
176
     1
 72
     2
176
     1
 73
     0
176
     1
 90
        0
176
     1
 40
-0.6
176
     1
 41
-30.0
176
     1
 62
     5
 63
     7
421
 16777215
176
     1
 74
     1
176
     1
 91
        4
176
     1
 64
     7
176
     1
 65
   257
176
     1
 75
     1
176
     1
175
     1
176
     1
 42
1.0
176
     1
 92
        8
176
     1
 66
     7
176
     1
 43
1.0
176
     1
 76
     1
176
     1
 77
     6
176
     1
 78
     2
176
     1
 67
     7
176
     1
 79
     5
176
     1
170
     0
176
     1
171
     0
176
     1
290
     0
176
     1
 93
        1
176
     1
 44
-50.0
176
     1
173
     0
176
     1
  0
VISUALSTYLE
  5
39
102
{ACAD_REACTORS
330
2A
102
}
330
2A
100
AcDbVisualStyle
  2
Facepattern
 70
    15
177
     2
291
     1
 71
     2
176
     1
 72
     2
176
     1
 73
     0
176
     1
 90
        0
176
     1
 40
-0.6
176
     1
 41
-30.0
176
     1
 62
     5
 63
     7
421
 16777215
176
     1
 74
     1
176
     1
 91
        4
176
     1
 64
     7
176
     1
 65
   257
176
     1
 75
     1
176
     1
175
     1
176
     1
 42
1.0
176
     1
 92
        8
176
     1
 66
     7
176
     1
 43
1.0
176
     1
 76
     1
176
     1
 77
     6
176
     1
 78
     2
176
     1
 67
     7
176
     1
 79
     5
176
     1
170
     0
176
     1
171
     0
176
     1
290
     0
176
     1
 93
        1
176
     1
 44
0.0
176
     1
173
     0
176
     1
  0
VISUALSTYLE
  5
2B
102
{ACAD_REACTORS
330
2A
102
}
330
2A
100
AcDbVisualStyle
  2
Flat
 70
     0
177
     2
291
     1
 71
     2
176
     1
 72
     1
176
     1
 73
     1
176
     1
 90
        2
176
     1
 40
-0.6
176
     1
 41
30.0
176
     1
 62
     5
 63
     7
421
 16777215
176
     1
 74
     0
176
     1
 91
        4
176
     1
 64
     7
176
     1
 65
   257
176
     1
 75
     1
176
     1
175
     1
176
     1
 42
1.0
176
     1
 92
        8
176
     1
 66
     7
176
     1
 43
1.0
176
     1
 76
     1
176
     1
 77
     6
176
     1
 78
     2
176
     1
 67
     7
176
     1
 79
     5
176
     1
170
     0
176
     1
171
     0
176
     1
290
     0
176
     1
 93
       13
176
     1
 44
0.0
176
     1
173
     0
176
     1
  0
VISUALSTYLE
  5
2C
102
{ACAD_REACTORS
330
2A
102
}
330
2A
100
AcDbVisualStyle
  2
FlatWithEdges
 70
     1
177
     2
291
     1
 71
     2
176
     1
 72
     1
176
     1
 73
     1
176
     1
 90
        2
176
     1
 40
-0.6
176
     1
 41
30.0
176
     1
 62
     5
 63
     7
421
 16777215
176
     1
 74
     1
176
     1
 91
        4
176
     1
 64
     7
176
     1
 65
   257
176
     1
 75
     1
176
     1
175
     1
176
     1
 42
1.0
176
     1
 92
        0
176
     1
 66
   257
176
     1
 43
1.0
176
     1
 76
     1
176
     1
 77
     6
176
     1
 78
     2
176
     1
 67
     7
176
     1
 79
     5
176
     1
170
     0
176
     1
171
     0
176
     1
290
     0
176
     1
 93
       13
176
     1
 44
0.0
176
     1
173
     0
176
     1
  0
VISUALSTYLE
  5
2D
102
{ACAD_REACTORS
330
2A
102
}
330
2A
100
AcDbVisualStyle
  2
Gouraud
 70
     2
177
     2
291
     1
 71
     2
176
     1
 72
     2
176
     1
 73
     1
176
     1
 90
        2
176
     1
 40
-0.6
176
     1
 41
30.0
176
     1
 62
     5
 63
     7
421
 16777215
176
     1
 74
     0
176
     1
 91
        4
176
     1
 64
     7
176
     1
 65
   257
176
     1
 75
     1
176
     1
175
     1
176
     1
 42
1.0
176
     1
 92
        0
176
     1
 66
     7
176
     1
 43
1.0
176
     1
 76
     1
176
     1
 77
     6
176
     1
 78
     2
176
     1
 67
     7
176
     1
 79
     5
176
     1
170
     0
176
     1
171
     0
176
     1
290
     0
176
     1
 93
       13
176
     1
 44
0.0
176
     1
173
     0
176
     1
  0
VISUALSTYLE
  5
2E
102
{ACAD_REACTORS
330
2A
102
}
330
2A
100
AcDbVisualStyle
  2
GouraudWithEdges
 70
     3
177
     2
291
     1
 71
     2
176
     1
 72
     2
176
     1
 73
     1
176
     1
 90
        2
176
     1
 40
-0.6
176
     1
 41
30.0
176
     1
 62
     5
 63
     7
421
 16777215
176
     1
 74
     1
176
     1
 91
        4
176
     1
 64
     7
176
     1
 65
   257
176
     1
 75
     1
176
     1
175
     1
176
     1
 42
1.0
176
     1
 92
        0
176
     1
 66
   257
176
     1
 43
1.0
176
     1
 76
     1
176
     1
 77
     6
176
     1
 78
     2
176
     1
 67
     7
176
     1
 79
     5
176
     1
170
     0
176
     1
171
     0
176
     1
290
     0
176
     1
 93
       13
176
     1
 44
0.0
176
     1
173
     0
176
     1
  0
VISUALSTYLE
  5
38
102
{ACAD_REACTORS
330
2A
102
}
330
2A
100
AcDbVisualStyle
  2
Linepattern
 70
    14
177
     2
291
     1
 71
     2
176
     1
 72
     2
176
     1
 73
     0
176
     1
 90
        0
176
     1
 40
-0.6
176
     1
 41
-30.0
176
     1
 62
     5
 63
     7
421
 16777215
176
     1
 74
     1
176
     1
 91
        4
176
     1
 64
     7
176
     1
 65
   257
176
     1
 75
     7
176
     1
175
     7
176
     1
 42
1.0
176
     1
 92
        8
176
     1
 66
     7
176
     1
 43
1.0
176
     1
 76
     1
176
     1
 77
     6
176
     1
 78
     2
176
     1
 67
     7
176
     1
 79
     5
176
     1
170
     0
176
     1
171
     0
176
     1
290
     0
176
     1
 93
        1
176
     1
 44
0.0
176
     1
173
     0
176
     1
  0
VISUALSTYLE
  5
33
102
{ACAD_REACTORS
330
2A
102
}
330
2A
100
AcDbVisualStyle
  2
Realistic
 70
     8
177
     2
291
     0
 71
     2
176
     1
 72
     2
176
     1
 73
     0
176
     1
 90
        0
176
     1
 40
-0.6
176
     1
 41
-30.0
176
     1
 62
     5
 63
     7
421
 16777215
176
     1
 74
     1
176
     1
 91
        0
176
     1
 64
     7
176
     1
 65
   257
176
     1
 75
     1
176
     1
175
     1
176
     1
 42
1.0
176
     1
 92
        8
176
     1
 66
     8
424
  7895160
176
     1
 43
1.0
176
     1
 76
     1
176
     1
 77
     6
176
     1
 78
     2
176
     1
 67
     7
176
     1
 79
     5
176
     1
170
     0
176
     1
171
     0
176
     1
290
     0
176
     1
 93
       13
176
     1
 44
0.0
176
     1
173
     0
176
     1
  0
VISUALSTYLE
  5
37
102
{ACAD_REACTORS
330
2A
102
}
330
2A
100
AcDbVisualStyle
  2
Thicken
 70
    13
177
     2
291
     1
 71
     2
176
     1
 72
     2
176
     1
 73
     0
176
     1
 90
        0
176
     1
 40
-0.6
176
     1
 41
-30.0
176
     1
 62
     5
 63
     7
421
 16777215
176
     1
 74
     1
176
     1
 91
        4
176
     1
 64
     7
176
     1
 65
   257
176
     1
 75
     1
176
     1
175
     1
176
     1
 42
1.0
176
     1
 92
       12
176
     1
 66
     7
176
     1
 43
1.0
176
     1
 76
     1
176
     1
 77
     6
176
     1
 78
     2
176
     1
 67
     7
176
     1
 79
     5
176
     1
170
     0
176
     1
171
     0
176
     1
290
     0
176
     1
 93
        1
176
     1
 44
0.0
176
     1
173
     0
176
     1
  0
ENDSEC
  0
EOF
