  0
SECTION
  2
HEADER
  9
$ACADVER
  1
AC1024
  9
$ACADMAINTVER
 70
     6
  9
$DWGCODEPAGE
  3
ANSI_932
  9
$INSBASE
 10
0.0
 20
0.0
 30
0.0
  9
$EXTMIN
 10
-4200.0
 20
-2970.0
 30
0.0
  9
$EXTMAX
 10
4200.0
 20
2970.0
 30
0.0
  9
$LIMMIN
 10
-4200.0
 20
-2970.0
  9
$LIMMAX
 10
4200.0
 20
2970.0
  9
$ORTHOMODE
 70
     0
  9
$REGENMODE
 70
     1
  9
$FILLMODE
 70
     1
  9
$QTEXTMODE
 70
     0
  9
$MIRRTEXT
 70
     1
  9
$LTSCALE
 40
20.0
  9
$ATTMODE
 70
     1
  9
$TEXTSIZE
 40
2.5
  9
$TRACEWID
 40
1.0
  9
$TEXTSTYLE
  7
Standard
  9
$CLAYER
  8
0
  9
$CELTYPE
  6
ByLayer
  9
$CECOLOR
 62
   256
  9
$CELTSCALE
 40
1.0
  9
$DISPSILH
 70
     0
  9
$DIMSCALE
 40
1.0
  9
$DIMASZ
 40
2.5
  9
$DIMEXO
 40
0.625
  9
$DIMDLI
 40
3.75
  9
$DIMRND
 40
0.0
  9
$DIMDLE
 40
0.0
  9
$DIMEXE
 40
1.25
  9
$DIMTP
 40
0.0
  9
$DIMTM
 40
0.0
  9
$DIMTXT
 40
2.5
  9
$DIMCEN
 40
2.5
  9
$DIMTSZ
 40
0.0
  9
$DIMTOL
 70
     0
  9
$DIMLIM
 70
     0
  9
$DIMTIH
 70
     0
  9
$DIMTOH
 70
     0
  9
$DIMSE1
 70
     0
  9
$DIMSE2
 70
     0
  9
$DIMTAD
 70
     1
  9
$DIMZIN
 70
     8
  9
$DIMBLK
  1

  9
$DIMASO
 70
     1
  9
$DIMSHO
 70
     1
  9
$DIMPOST
  1

  9
$DIMAPOST
  1

  9
$DIMALT
 70
     0
  9
$DIMALTD
 70
     3
  9
$DIMALTF
 40
0.03937007874016
  9
$DIMLFAC
 40
1.0
  9
$DIMTOFL
 70
     1
  9
$DIMTVP
 40
0.0
  9
$DIMTIX
 70
     0
  9
$DIMSOXD
 70
     0
  9
$DIMSAH
 70
     0
  9
$DIMBLK1
  1

  9
$DIMBLK2
  1

  9
$DIMSTYLE
  2
ISO-25
  9
$DIMCLRD
 70
     0
  9
$DIMCLRE
 70
     0
  9
$DIMCLRT
 70
     0
  9
$DIMTFAC
 40
1.0
  9
$DIMGAP
 40
0.625
  9
$DIMJUST
 70
     0
  9
$DIMSD1
 70
     0
  9
$DIMSD2
 70
     0
  9
$DIMTOLJ
 70
     0
  9
$DIMTZIN
 70
     8
  9
$DIMALTZ
 70
     0
  9
$DIMALTTZ
 70
     0
  9
$DIMUPT
 70
     0
  9
$DIMDEC
 70
     2
  9
$DIMTDEC
 70
     2
  9
$DIMALTU
 70
     2
  9
$DIMALTTD
 70
     3
  9
$DIMTXSTY
  7
Standard
  9
$DIMAUNIT
 70
     0
  9
$DIMADEC
 70
     0
  9
$DIMALTRND
 40
0.0
  9
$DIMAZIN
 70
     0
  9
$DIMDSEP
 70
    44
  9
$DIMATFIT
 70
     3
  9
$DIMFRAC
 70
     0
  9
$DIMLDRBLK
  1

  9
$DIMLUNIT
 70
     2
  9
$DIMLWD
 70
    -2
  9
$DIMLWE
 70
    -2
  9
$DIMTMOVE
 70
     0
  9
$DIMFXL
 40
1.0
  9
$DIMFXLON
 70
     0
  9
$DIMJOGANG
 40
0.7853981633974483
  9
$DIMTFILL
 70
     0
  9
$DIMTFILLCLR
 70
     0
  9
$DIMARCSYM
 70
     0
  9
$DIMLTYPE
  6

  9
$DIMLTEX1
  6

  9
$DIMLTEX2
  6

  9
$DIMTXTDIRECTION
 70
     0
  9
$LUNITS
 70
     2
  9
$LUPREC
 70
     4
  9
$SKETCHINC
 40
1.0
  9
$FILLETRAD
 40
10.0
  9
$AUNITS
 70
     0
  9
$AUPREC
 70
     0
  9
$MENU
  1
.
  9
$ELEVATION
 40
0.0
  9
$PELEVATION
 40
0.0
  9
$THICKNESS
 40
0.0
  9
$LIMCHECK
 70
     0
  9
$CHAMFERA
 40
10.0
  9
$CHAMFERB
 40
10.0
  9
$CHAMFERC
 40
20.0
  9
$CHAMFERD
 40
0.0
  9
$SKPOLY
 70
     0
  9
$TDCREATE
 40
2460350.651086042
  9
$TDUCREATE
 40
2460350.276086042
  9
$TDUPDATE
 40
2460350.651086053
  9
$TDUUPDATE
 40
2460350.276086053
  9
$TDINDWG
 40
0.0000000116
  9
$TDUSRTIMER
 40
0.0000000116
  9
$USRTIMER
 70
     1
  9
$ANGBASE
 50
0.0
  9
$ANGDIR
 70
     0
  9
$PDMODE
 70
     0
  9
$PDSIZE
 40
0.0
  9
$PLINEWID
 40
0.0
  9
$SPLFRAME
 70
     0
  9
$SPLINETYPE
 70
     6
  9
$SPLINESEGS
 70
     8
  9
$HANDSEED
  5
36A
  9
$SURFTAB1
 70
     6
  9
$SURFTAB2
 70
     6
  9
$SURFTYPE
 70
     6
  9
$SURFU
 70
     6
  9
$SURFV
 70
     6
  9
$UCSBASE
  2

  9
$UCSNAME
  2

  9
$UCSORG
 10
0.0
 20
0.0
 30
0.0
  9
$UCSXDIR
 10
1.0
 20
0.0
 30
0.0
  9
$UCSYDIR
 10
0.0
 20
1.0
 30
0.0
  9
$UCSORTHOREF
  2

  9
$UCSORTHOVIEW
 70
     0
  9
$UCSORGTOP
 10
0.0
 20
0.0
 30
0.0
  9
$UCSORGBOTTOM
 10
0.0
 20
0.0
 30
0.0
  9
$UCSORGLEFT
 10
0.0
 20
0.0
 30
0.0
  9
$UCSORGRIGHT
 10
0.0
 20
0.0
 30
0.0
  9
$UCSORGFRONT
 10
0.0
 20
0.0
 30
0.0
  9
$UCSORGBACK
 10
0.0
 20
0.0
 30
0.0
  9
$PUCSBASE
  2

  9
$PUCSNAME
  2

  9
$PUCSORG
 10
0.0
 20
0.0
 30
0.0
  9
$PUCSXDIR
 10
1.0
 20
0.0
 30
0.0
  9
$PUCSYDIR
 10
0.0
 20
1.0
 30
0.0
  9
$PUCSORTHOREF
  2

  9
$PUCSORTHOVIEW
 70
     0
  9
$PUCSORGTOP
 10
0.0
 20
0.0
 30
0.0
  9
$PUCSORGBOTTOM
 10
0.0
 20
0.0
 30
0.0
  9
$PUCSORGLEFT
 10
0.0
 20
0.0
 30
0.0
  9
$PUCSORGRIGHT
 10
0.0
 20
0.0
 30
0.0
  9
$PUCSORGFRONT
 10
0.0
 20
0.0
 30
0.0
  9
$PUCSORGBACK
 10
0.0
 20
0.0
 30
0.0
  9
$USERI1
 70
     0
  9
$USERI2
 70
     0
  9
$USERI3
 70
     0
  9
$USERI4
 70
     0
  9
$USERI5
 70
     0
  9
$USERR1
 40
0.0
  9
$USERR2
 40
0.0
  9
$USERR3
 40
0.0
  9
$USERR4
 40
0.0
  9
$USERR5
 40
0.0
  9
$WORLDVIEW
 70
     1
  9
$SHADEDGE
 70
     3
  9
$SHADEDIF
 70
    70
  9
$TILEMODE
 70
     1
  9
$MAXACTVP
 70
    64
  9
$PINSBASE
 10
0.0
 20
0.0
 30
0.0
  9
$PLIMCHECK
 70
     0
  9
$PEXTMIN
 10
1.000000000000000E+20
 20
1.000000000000000E+20
 30
1.000000000000000E+20
  9
$PEXTMAX
 10
-1.000000000000000E+20
 20
-1.000000000000000E+20
 30
-1.000000000000000E+20
  9
$PLIMMIN
 10
0.0
 20
0.0
  9
$PLIMMAX
 10
420.0
 20
297.0
  9
$UNITMODE
 70
     0
  9
$VISRETAIN
 70
     1
  9
$PLINEGEN
 70
     0
  9
$PSLTSCALE
 70
     1
  9
$TREEDEPTH
 70
  3020
  9
$CMLSTYLE
  2
Standard
  9
$CMLJUST
 70
     0
  9
$CMLSCALE
 40
20.0
  9
$PROXYGRAPHICS
 70
     1
  9
$MEASUREMENT
 70
     1
  9
$CELWEIGHT
370
    -1
  9
$ENDCAPS
280
     0
  9
$JOINSTYLE
280
     0
  9
$LWDISPLAY
290
     0
  9
$INSUNITS
 70
     4
  9
$HYPERLINKBASE
  1

  9
$STYLESHEET
  1

  9
$XEDIT
290
     1
  9
$CEPSNTYPE
380
     0
  9
$PSTYLEMODE
290
     1
  9
$FINGERPRINTGUID
  2
{4560926D-9582-4665-A091-6BEECC0E30C3}
  9
$VERSIONGUID
  2
{FAEB1C32-E019-11D5-929B-00C0DF256EC4}
  9
$EXTNAMES
290
     1
  9
$PSVPSCALE
 40
0.0
  9
$OLESTARTUP
290
     0
  9
$SORTENTS
280
   127
  9
$INDEXCTL
280
     0
  9
$HIDETEXT
280
     1
  9
$XCLIPFRAME
280
     2
  9
$HALOGAP
280
     0
  9
$OBSCOLOR
 70
   257
  9
$OBSLTYPE
280
     0
  9
$INTERSECTIONDISPLAY
280
     0
  9
$INTERSECTIONCOLOR
 70
   257
  9
$DIMASSOC
280
     2
  9
$PROJECTNAME
  1

  9
$CAMERADISPLAY
290
     0
  9
$LENSLENGTH
 40
50.0
  9
$CAMERAHEIGHT
 40
0.0
  9
$STEPSPERSEC
 40
2.0
  9
$STEPSIZE
 40
6.0
  9
$3DDWFPREC
 40
2.0
  9
$PSOLWIDTH
 40
5.0
  9
$PSOLHEIGHT
 40
80.0
  9
$LOFTANG1
 40
1.570796326794897
  9
$LOFTANG2
 40
1.570796326794897
  9
$LOFTMAG1
 40
0.0
  9
$LOFTMAG2
 40
0.0
  9
$LOFTPARAM
 70
     7
  9
$LOFTNORMALS
280
     1
  9
$LATITUDE
 40
37.795
  9
$LONGITUDE
 40
-122.394
  9
$NORTHDIRECTION
 40
0.0
  9
$TIMEZONE
 70
 -8000
  9
$LIGHTGLYPHDISPLAY
280
     1
  9
$TILEMODELIGHTSYNCH
280
     1
  9
$SOLIDHIST
280
     1
  9
$SHOWHIST
280
     1
  9
$DWFFRAME
280
     2
  9
$DGNFRAME
280
     2
  9
$REALWORLDSCALE
290
     1
  9
$INTERFERECOLOR
 62
   256
  9
$CSHADOW
280
     0
  9
$SHADOWPLANELOCATION
 40
0.0
  0
ENDSEC
  0
SECTION
  2
CLASSES
  0
CLASS
  1
ACDBDICTIONARYWDFLT
  2
AcDbDictionaryWithDefault
  3
ObjectDBX Classes
 90
        0
 91
        4
280
     0
281
     0
  0
CLASS
  1
VISUALSTYLE
  2
AcDbVisualStyle
  3
ObjectDBX Classes
 90
     4095
 91
        4
280
     0
281
     0
  0
CLASS
  1
MATERIAL
  2
AcDbMaterial
  3
ObjectDBX Classes
 90
     1153
 91
        4
280
     0
281
     0
  0
ENDSEC
  0
SECTION
  2
TABLES
  0
TABLE
  2
VPORT
  5
8
330
0
100
AcDbSymbolTable
 70
     1
  0
VPORT
  5
29
330
8
100
AcDbSymbolTableRecord
100
AcDbViewportTableRecord
  2
*Active
 70
     0
 10
0.0
 20
0.0
 11
1.0
 21
1.0
 12
0.0
 22
0.0
 13
0.0
 23
0.0
 14
10.0
 24
10.0
 15
10.0
 25
10.0
 16
0.0
 26
0.0
 36
1.0
 17
0.0
 27
0.0
 37
0.0
 40
6534.000000000001
 41
1.414141414141414
 42
50.0
 43
0.0
 44
0.0
 50
0.0
 51
0.0
 71
     0
 72
 10000
 73
     1
 74
     3
 75
     0
 76
     0
 77
     0
 78
     0
281
     0
 65
     1
110
0.0
120
0.0
130
0.0
111
1.0
121
0.0
131
0.0
112
0.0
122
1.0
132
0.0
 79
     0
146
0.0
 60
     3
 61
     5
292
     1
282
     1
141
0.0
142
0.0
 63
   250
  0
ENDTAB
  0
TABLE
  2
LTYPE
  5
5
330
0
100
AcDbSymbolTable
 70
     5
  0
LTYPE
  5
14
330
5
100
AcDbSymbolTableRecord
100
AcDbLinetypeTableRecord
  2
ByBlock
 70
     0
  3

 72
    65
 73
     0
 40
0.0
  0
LTYPE
  5
15
330
5
100
AcDbSymbolTableRecord
100
AcDbLinetypeTableRecord
  2
ByLayer
 70
     0
  3

 72
    65
 73
     0
 40
0.0
  0
LTYPE
  5
16
330
5
100
AcDbSymbolTableRecord
100
AcDbLinetypeTableRecord
  2
Continuous
 70
     0
  3
Solid line
 72
    65
 73
     0
 40
0.0
  0
LTYPE
  5
3F
330
5
100
AcDbSymbolTableRecord
100
AcDbLinetypeTableRecord
  2
JWW_HOJO
 70
     0
  3
  -   -   -   -   -   -   -   - 
 72
    65
 73
     2
 40
1.693333333333333
 49
-1.27
 74
     0
 49
0.4233333333333333
 74
     0
  0
LTYPE
  5
40
330
5
100
AcDbSymbolTableRecord
100
AcDbLinetypeTableRecord
  2
JWW_DASHED2
 70
     0
  3
--    ----    ----    ----    --
 72
    65
 73
     2
 40
1.693333333333333
 49
0.8466666666666667
 74
     0
 49
-0.8466666666666667
 74
     0
  0
LTYPE
  5
41
330
5
100
AcDbSymbolTableRecord
100
AcDbLinetypeTableRecord
  2
JWW_CENTER1
 70
     0
  3
-----  --  ----------  --  -----
 72
    65
 73
     4
 40
3.386666666666667
 49
2.116666666666667
 74
     0
 49
-0.4233333333333333
 74
     0
 49
0.4233333333333333
 74
     0
 49
-0.4233333333333333
 74
     0
  0
LTYPE
  5
42
330
5
100
AcDbSymbolTableRecord
100
AcDbLinetypeTableRecord
  2
JWW_DASHED1
 70
     0
  3
-  --  --  --  --  --  --  --  -
 72
    65
 73
     2
 40
0.3386666666666667
 49
0.1693333333333333
 74
     0
 49
-0.1693333333333333
 74
     0
  0
ENDTAB
  0
TABLE
  2
LAYER
  5
2
330
0
100
AcDbSymbolTable
 70
    15
  0
LAYER
  5
10
330
2
100
AcDbSymbolTableRecord
100
AcDbLayerTableRecord
  2
0
 70
     0
 62
     7
  6
Continuous
370
    -3
390
F
347
3E
  0
LAYER
  5
43
330
2
100
AcDbSymbolTableRecord
100
AcDbLayerTableRecord
  2
F-0_補助線
 70
     0
 62
     7
  6
Continuous
370
    -3
390
F
347
3E
  0
LAYER
  5
44
330
2
100
AcDbSymbolTableRecord
100
AcDbLayerTableRecord
  2
枠
 70
     0
 62
     7
  6
Continuous
370
    -3
390
F
347
3E
  0
LAYER
  5
45
330
2
100
AcDbSymbolTableRecord
100
AcDbLayerTableRecord
  2
F-A_文字
 70
     0
 62
     7
  6
Continuous
370
    -3
390
F
347
3E
  0
LAYER
  5
46
330
2
100
AcDbSymbolTableRecord
100
AcDbLayerTableRecord
  2
0-A_文字
 70
     0
 62
     7
  6
Continuous
370
    -3
390
F
347
3E
  0
LAYER
  5
47
330
2
100
AcDbSymbolTableRecord
100
AcDbLayerTableRecord
  2
0-0_補助線
 70
     0
 62
     7
  6
Continuous
370
    -3
390
F
347
3E
  0
LAYER
  5
48
330
2
100
AcDbSymbolTableRecord
100
AcDbLayerTableRecord
  2
0-B_寸法
 70
     0
 62
     7
  6
Continuous
370
    -3
390
F
347
3E
  0
LAYER
  5
49
330
2
100
AcDbSymbolTableRecord
100
AcDbLayerTableRecord
  2
0-2_扉
 70
     0
 62
     7
  6
Continuous
370
    -3
390
F
347
3E
  0
LAYER
  5
4A
330
2
100
AcDbSymbolTableRecord
100
AcDbLayerTableRecord
  2
0-1_本体
 70
     0
 62
     7
  6
Continuous
370
    -3
390
F
347
3E
  0
LAYER
  5
4B
330
2
100
AcDbSymbolTableRecord
100
AcDbLayerTableRecord
  2
0-4_棚
 70
     0
 62
     7
  6
Continuous
370
    -3
390
F
347
3E
  0
LAYER
  5
4C
330
2
100
AcDbSymbolTableRecord
100
AcDbLayerTableRecord
  2
0-6_桟木
 70
     0
 62
     7
  6
Continuous
370
    -3
390
F
347
3E
  0
LAYER
  5
4D
330
2
100
AcDbSymbolTableRecord
100
AcDbLayerTableRecord
  2
0-3_扉仕上
 70
     0
 62
     7
  6
Continuous
370
    -3
390
F
347
3E
  0
LAYER
  5
4E
330
2
100
AcDbSymbolTableRecord
100
AcDbLayerTableRecord
  2
0-9__
 70
     0
 62
     7
  6
Continuous
370
    -3
390
F
347
3E
  0
LAYER
  5
4F
330
2
100
AcDbSymbolTableRecord
100
AcDbLayerTableRecord
  2
0-7__
 70
     0
 62
     7
  6
Continuous
370
    -3
390
F
347
3E
  0
LAYER
  5
50
330
2
100
AcDbSymbolTableRecord
100
AcDbLayerTableRecord
  2
0-5_ダボ
 70
     0
 62
     7
  6
Continuous
370
    -3
390
F
347
3E
  0
ENDTAB
  0
TABLE
  2
STYLE
  5
3
330
0
100
AcDbSymbolTable
 70
     1
  0
STYLE
  5
11
330
3
100
AcDbSymbolTableRecord
100
AcDbTextStyleTableRecord
  2
Standard
 70
     0
 40
0.0
 41
1.0
 50
0.0
 71
     0
 42
2.5
  3
txt
  4

  0
ENDTAB
  0
TABLE
  2
VIEW
  5
6
330
0
100
AcDbSymbolTable
 70
     0
  0
ENDTAB
  0
TABLE
  2
UCS
  5
7
330
0
100
AcDbSymbolTable
 70
     0
  0
ENDTAB
  0
TABLE
  2
APPID
  5
9
330
0
100
AcDbSymbolTable
 70
     1
  0
APPID
  5
12
330
9
100
AcDbSymbolTableRecord
100
AcDbRegAppTableRecord
  2
ACAD
 70
     0
  0
ENDTAB
  0
TABLE
  2
DIMSTYLE
  5
A
330
0
100
AcDbSymbolTable
 70
     1
100
AcDbDimStyleTable
  0
DIMSTYLE
105
27
330
A
100
AcDbSymbolTableRecord
100
AcDbDimStyleTableRecord
  2
ISO-25
 70
     0
 41
2.5
 42
0.625
 43
3.75
 44
1.25
 73
     0
 74
     0
 77
     1
 78
     8
140
2.5
141
2.5
143
0.03937007874016
147
0.625
171
     3
172
     1
178
     0
271
     2
272
     2
274
     3
278
    44
283
     0
284
     8
340
11
  0
ENDTAB
  0
TABLE
  2
BLOCK_RECORD
  5
1
330
0
100
AcDbSymbolTable
 70
     1
  0
BLOCK_RECORD
  5
1F
330
1
100
AcDbSymbolTableRecord
100
AcDbBlockTableRecord
  2
*Model_Space
340
22
 70
     0
280
     1
281
     0
  0
BLOCK_RECORD
  5
1B
330
1
100
AcDbSymbolTableRecord
100
AcDbBlockTableRecord
  2
*Paper_Space
340
1E
 70
     0
280
     1
281
     0
  0
BLOCK_RECORD
  5
23
330
1
100
AcDbSymbolTableRecord
100
AcDbBlockTableRecord
  2
*Paper_Space0
340
26
 70
     0
280
     1
281
     0
  0
ENDTAB
  0
ENDSEC
  0
SECTION
  2
BLOCKS
  0
BLOCK
  5
20
330
1F
100
AcDbEntity
  8
0
100
AcDbBlockBegin
  2
*Model_Space
 70
     0
 10
0.0
 20
0.0
 30
0.0
  3
*Model_Space
  1

  0
ENDBLK
  5
21
330
1F
100
AcDbEntity
  8
0
100
AcDbBlockEnd
  0
BLOCK
  5
1C
330
1B
100
AcDbEntity
 67
     1
  8
0
100
AcDbBlockBegin
  2
*Paper_Space
 70
     0
 10
0.0
 20
0.0
 30
0.0
  3
*Paper_Space
  1

  0
ENDBLK
  5
1D
330
1B
100
AcDbEntity
 67
     1
  8
0
100
AcDbBlockEnd
  0
BLOCK
  5
24
330
23
100
AcDbEntity
  8
0
100
AcDbBlockBegin
  2
*Paper_Space0
 70
     0
 10
0.0
 20
0.0
 30
0.0
  3
*Paper_Space0
  1

  0
ENDBLK
  5
25
330
23
100
AcDbEntity
  8
0
100
AcDbBlockEnd
  0
ENDSEC
  0
SECTION
  2
ENTITIES
  0
LINE
  5
51
330
1F
100
AcDbEntity
  8
F-0_補助線
  6
JWW_HOJO
 62
   120
370
     5
100
AcDbLine
 10
-4093.387555624515
 20
-2970.0
 30
0.0
 11
-4093.387555624515
 21
2949.99973606419
 31
0.0
  0
LINE
  5
52
330
1F
100
AcDbEntity
  8
F-0_補助線
  6
JWW_HOJO
 62
   120
370
     5
100
AcDbLine
 10
-4093.387555624515
 20
2949.99973606419
 30
0.0
 11
4106.611784535958
 21
2949.99973606419
 31
0.0
  0
LINE
  5
53
330
1F
100
AcDbEntity
  8
F-0_補助線
  6
JWW_HOJO
 62
   120
370
     5
100
AcDbLine
 10
4106.611784535958
 20
2949.99973606419
 30
0.0
 11
4106.611784535958
 21
-2970.0
 31
0.0
  0
LINE
  5
54
330
1F
100
AcDbEntity
  8
F-0_補助線
  6
JWW_HOJO
 62
   120
370
     5
100
AcDbLine
 10
4106.611784535958
 20
-2970.0
 30
0.0
 11
-4093.387555624515
 21
-2970.0
 31
0.0
  0
LINE
  5
55
330
1F
100
AcDbEntity
  8
F-0_補助線
  6
JWW_HOJO
 62
     7
370
     9
100
AcDbLine
 10
673.2788361090155
 20
-2530.000002061998
 30
0.0
 11
673.2788361090155
 21
-2796.666672165329
 31
0.0
  0
LINE
  5
56
330
1F
100
AcDbEntity
  8
F-0_補助線
  6
JWW_HOJO
 62
     7
370
     9
100
AcDbLine
 10
339.945722722191
 20
-2530.000002061998
 30
0.0
 11
339.945722722191
 21
-2796.666672165329
 31
0.0
  0
LINE
  5
57
330
1F
100
AcDbEntity
  8
枠
  6
Continuous
 62
   200
370
    20
100
AcDbLine
 10
3906.611619576076
 20
2783.333179370777
 30
0.0
 11
3906.611619576076
 21
-2803.333443306588
 31
0.0
  0
LINE
  5
58
330
1F
100
AcDbEntity
  8
枠
  6
Continuous
 62
   200
370
    20
100
AcDbLine
 10
-3893.387545314522
 20
2783.333179370777
 30
0.0
 11
-3893.387545314522
 21
-2803.333443306588
 31
0.0
  0
LINE
  5
59
330
1F
100
AcDbEntity
  8
枠
  6
Continuous
 62
   200
370
    20
100
AcDbLine
 10
3906.611619576076
 20
-2803.333335051665
 30
0.0
 11
-3893.387390664634
 21
-2803.333335051665
 31
0.0
  0
LINE
  5
5A
330
1F
100
AcDbEntity
  8
枠
  6
Continuous
 62
   200
370
    20
100
AcDbLine
 10
-3886.720882428186
 20
2783.333179370777
 30
0.0
 11
-3886.720882428186
 21
-2803.333443306588
 31
0.0
  0
LINE
  5
5B
330
1F
100
AcDbEntity
  8
枠
  6
Continuous
 62
   200
370
    20
100
AcDbLine
 10
-3890.054206138861
 20
2783.333179370777
 30
0.0
 11
-3890.054206138861
 21
-2803.333443306588
 31
0.0
  0
LINE
  5
5C
330
1F
100
AcDbEntity
  8
枠
  6
Continuous
 62
   200
370
    20
100
AcDbLine
 10
3903.278110285536
 20
2783.333179370777
 30
0.0
 11
3903.278110285536
 21
-2803.333443306588
 31
0.0
  0
LINE
  5
5D
330
1F
100
AcDbEntity
  8
枠
  6
Continuous
 62
   200
370
    20
100
AcDbLine
 10
3899.945095874641
 20
2783.333179370777
 30
0.0
 11
3899.945095874641
 21
-2803.333443306588
 31
0.0
  0
LINE
  5
5E
330
1F
100
AcDbEntity
  8
枠
  6
Continuous
 62
   200
370
    20
100
AcDbLine
 10
3906.611619576076
 20
-2799.999995876003
 30
0.0
 11
-3893.387390664634
 21
-2799.999995876003
 31
0.0
  0
LINE
  5
5F
330
1F
100
AcDbEntity
  8
枠
  6
Continuous
 62
   200
370
    20
100
AcDbLine
 10
3906.611619576076
 20
-2796.666672165329
 30
0.0
 11
-3893.387390664634
 21
-2796.666672165329
 31
0.0
  0
LINE
  5
60
330
1F
100
AcDbEntity
  8
枠
  6
Continuous
 62
   200
370
    20
100
AcDbLine
 10
2899.945260834522
 20
-2530.000002061998
 30
0.0
 11
2899.945260834522
 21
-2796.666672165329
 31
0.0
  0
LINE
  5
61
330
1F
100
AcDbEntity
  8
枠
  6
Continuous
 62
   200
370
    20
100
AcDbLine
 10
1899.944930914759
 20
-2530.000002061998
 30
0.0
 11
1899.944930914759
 21
-2796.666672165329
 31
0.0
  0
LINE
  5
62
330
1F
100
AcDbEntity
  8
枠
  6
Continuous
 62
   200
370
    20
100
AcDbLine
 10
6.612361895544154
 20
-2530.000002061998
 30
0.0
 11
6.612361895544154
 21
-2796.666672165329
 31
0.0
  0
LINE
  5
63
330
1F
100
AcDbEntity
  8
枠
  6
Continuous
 62
   200
370
    20
100
AcDbLine
 10
6.612361895544154
 20
-2663.333290718697
 30
0.0
 11
3899.945095874641
 21
-2663.336909526103
 31
0.0
  0
LINE
  5
64
330
1F
100
AcDbEntity
  8
枠
  6
Continuous
 62
   200
370
    20
100
AcDbLine
 10
-3893.387390664634
 20
2783.333179370777
 30
0.0
 11
3906.611619576076
 21
2783.333179370777
 31
0.0
  0
LINE
  5
65
330
1F
100
AcDbEntity
  8
枠
  6
Continuous
 62
   200
370
    20
100
AcDbLine
 10
-3893.387390664634
 20
2776.666655669342
 30
0.0
 11
3906.611619576076
 21
2776.666655669342
 31
0.0
  0
LINE
  5
66
330
1F
100
AcDbEntity
  8
枠
  6
Continuous
 62
   200
370
    20
100
AcDbLine
 10
-3893.387390664634
 20
2779.999670080237
 30
0.0
 11
3906.611619576076
 21
2779.999670080237
 31
0.0
  0
LINE
  5
67
330
1F
100
AcDbEntity
  8
F-0_補助線
  6
JWW_HOJO
 62
     7
370
     9
100
AcDbLine
 10
-3886.720882428186
 20
-2663.333290718927
 30
0.0
 11
6.612361895544154
 21
-2663.333290718927
 31
0.0
  0
LINE
  5
68
330
1F
100
AcDbEntity
  8
F-0_補助線
  6
JWW_HOJO
 62
     7
370
     9
100
AcDbLine
 10
-3886.720882428186
 20
-2603.333290718927
 30
0.0
 11
6.612361895544154
 21
-2603.333290718927
 31
0.0
  0
LINE
  5
69
330
1F
100
AcDbEntity
  8
F-0_補助線
  6
JWW_HOJO
 62
     7
370
     9
100
AcDbLine
 10
-3886.720882428186
 20
-2723.333290718927
 30
0.0
 11
6.612361895544154
 21
-2723.333290718927
 31
0.0
  0
LINE
  5
6A
330
1F
100
AcDbEntity
  8
F-0_補助線
  6
JWW_HOJO
 62
     7
370
     9
100
AcDbLine
 10
6.612272045125565
 20
-2759.999826518655
 30
0.0
 11
3899.945006024222
 21
-2760.003445326061
 31
0.0
  0
LINE
  5
6B
330
1F
100
AcDbEntity
  8
F-0_補助線
  6
JWW_HOJO
 62
     7
370
     9
100
AcDbLine
 10
6.612327814426635
 20
-2699.999826518681
 30
0.0
 11
3899.945061793523
 21
-2700.003445326087
 31
0.0
  0
LINE
  5
6C
330
1F
100
AcDbEntity
  8
F-0_補助線
  6
JWW_HOJO
 62
     7
370
     9
100
AcDbLine
 10
6.612395976906669
 20
-2626.666491478713
 30
0.0
 11
3899.945129956002
 21
-2626.670110286119
 31
0.0
  0
LINE
  5
6D
330
1F
100
AcDbEntity
  8
F-0_補助線
  6
JWW_HOJO
 62
     7
370
     9
100
AcDbLine
 10
6.612451746207739
 20
-2566.66649147874
 30
0.0
 11
3899.945185725303
 21
-2566.670110286145
 31
0.0
  0
LINE
  5
6E
330
1F
100
AcDbEntity
  8
F-0_補助線
  6
JWW_HOJO
 62
     7
370
     9
100
AcDbLine
 10
1959.944930914759
 20
-2530.000002061998
 30
0.0
 11
1959.944930914759
 21
-2796.666672165329
 31
0.0
  0
LINE
  5
6F
330
1F
100
AcDbEntity
  8
F-0_補助線
  6
JWW_HOJO
 62
     7
370
     9
100
AcDbLine
 10
66.61236189554415
 20
-2530.000002061998
 30
0.0
 11
66.61236189554415
 21
-2796.666672165329
 31
0.0
  0
LINE
  5
70
330
1F
100
AcDbEntity
  8
F-0_補助線
  6
JWW_HOJO
 62
     7
370
     9
100
AcDbLine
 10
2959.945260834522
 20
-2530.000002061998
 30
0.0
 11
2959.945260834522
 21
-2796.666672165329
 31
0.0
  0
MTEXT
  5
71
330
1F
100
AcDbEntity
  8
F-A_文字
  6
Continuous
 62
     7
370
     0
100
AcDbMText
 10
66.61236189554415
 20
-2591.426547247957
 30
0.0
 40
30.48
 41
120.0
 46
0.0
 71
     7
 72
     1
  1
{\fＭＳ ゴシック|b0|i0|c128|p49;図面名}
 73
     1
 44
1.0
  0
MTEXT
  5
72
330
1F
100
AcDbEntity
  8
F-A_文字
  6
Continuous
 62
     7
370
     0
100
AcDbMText
 10
1959.944930914759
 20
-2591.428307078516
 30
0.0
 40
30.48
 41
200.0
 46
0.0
 71
     7
 72
     1
  1
{\fＭＳ ゴシック|b0|i0|c128|p49;ＳＣＡＬＥ}
 73
     1
 44
1.0
  0
MTEXT
  5
73
330
1F
100
AcDbEntity
  8
F-A_文字
  6
Continuous
 62
     7
370
     0
100
AcDbMText
 10
2959.945260834522
 20
-2591.429236567169
 30
0.0
 40
30.48
 41
160.0
 46
0.0
 71
     7
 72
     1
  1
{\fＭＳ ゴシック|b0|i0|c128|p49;ＤＡＴＥ}
 73
     1
 44
1.0
  0
MTEXT
  5
74
330
1F
100
AcDbEntity
  8
F-A_文字
  6
Continuous
 62
     7
370
     0
100
AcDbMText
 10
893.5575789779642
 20
-2630.949274399892
 30
0.0
 40
51.435
 41
270.0
 46
0.0
 71
     7
 72
     1
  1
{\fＭＳ ゴシック|b0|i0|c128|p49;玄関収納}
 73
     1
 44
1.0
  0
MTEXT
  5
75
330
1F
100
AcDbEntity
  8
F-A_文字
  6
Continuous
 62
     7
370
     0
100
AcDbMText
 10
2362.445095874641
 20
-2630.951243938205
 30
0.0
 40
51.435
 41
135.0
 46
0.0
 71
     7
 72
     1
  1
{\fＭＳ ゴシック|b0|i0|c128|p49;1/20}
 73
     1
 44
1.0
  0
MTEXT
  5
76
330
1F
100
AcDbEntity
  8
F-A_文字
  6
Continuous
 62
     7
370
     0
100
AcDbMText
 10
339.945722722191
 20
-2634.331527915002
 30
0.0
 40
45.72
 41
240.0
 46
0.0
 71
     7
 72
     1
  1
{\fＭＳ ゴシック|b0|i0|c128|p49;DOORETUS}
 73
     1
 44
1.0
  0
LINE
  5
77
330
1F
100
AcDbEntity
  8
枠
  6
Continuous
 62
   200
370
    20
100
AcDbLine
 10
3906.611619576076
 20
-2530.000002061998
 30
0.0
 11
-3893.387390664634
 21
-2530.000002061998
 31
0.0
  0
LINE
  5
78
330
1F
100
AcDbEntity
  8
枠
  6
Continuous
 62
   200
370
    20
100
AcDbLine
 10
3906.611619576076
 20
-2526.666678351325
 30
0.0
 11
-3893.387390664634
 21
-2526.666678351325
 31
0.0
  0
LINE
  5
79
330
1F
100
AcDbEntity
  8
F-0_補助線
  6
JWW_HOJO
 62
     7
370
     9
100
AcDbLine
 10
-3391.752473459741
 20
-2530.000002061999
 30
0.0
 11
-3391.752473459741
 21
-2803.333443306588
 31
0.0
  0
LINE
  5
7A
330
1F
100
AcDbEntity
  8
F-0_補助線
  6
JWW_HOJO
 62
     7
370
     9
100
AcDbLine
 10
-33.38763810445585
 20
-2530.000002061998
 30
0.0
 11
-33.38763810445585
 21
-2796.666672165329
 31
0.0
  0
MTEXT
  5
7B
330
1F
100
AcDbEntity
  8
F-A_文字
  6
Continuous
 62
     7
370
     0
100
AcDbMText
 10
1959.944930914759
 20
-2724.761642118573
 30
0.0
 40
30.48
 41
160.0
 46
0.0
 71
     7
 72
     1
  1
{\fＭＳ ゴシック|b0|i0|c128|p49;ＦＩＬＥ}
 73
     1
 44
1.0
  0
MTEXT
  5
7C
330
1F
100
AcDbEntity
  8
F-A_文字
  6
Continuous
 62
     7
370
     0
100
AcDbMText
 10
2959.945260834522
 20
-2724.762571607227
 30
0.0
 40
30.48
 41
120.0
 46
0.0
 71
     7
 72
     1
  1
{\fＭＳ ゴシック|b0|i0|c128|p49;ＮＯ．}
 73
     1
 44
1.0
  0
MTEXT
  5
7D
330
1F
100
AcDbEntity
  8
F-A_文字
  6
Continuous
 62
     7
370
     0
100
AcDbMText
 10
929.9449309147587
 20
-2730.760446177432
 30
0.0
 40
30.48
 41
80.0
 46
0.0
 71
     7
 72
     1
  1
{\fＭＳ ゴシック|b0|i0|c128|p49;株式}
 73
     1
 44
1.0
  0
MTEXT
  5
7E
330
1F
100
AcDbEntity
  8
F-A_文字
  6
Continuous
 62
     7
370
     0
100
AcDbMText
 10
1069.944930914759
 20
-2776.187836349286
 30
0.0
 40
67.62750000000003
 41
710.0000000000002
 46
0.0
 71
     7
 72
     1
  1
{\fＭＳ ゴシック|b0|i0|c128|p49;ウッドワン・・・}
 73
     1
 44
1.0
  0
MTEXT
  5
7F
330
1F
100
AcDbEntity
  8
F-A_文字
  6
Continuous
 62
     7
370
     0
100
AcDbMText
 10
929.9449309147587
 20
-2778.760446177458
 30
0.0
 40
30.48
 41
80.0
 46
0.0
 71
     7
 72
     1
  1
{\fＭＳ ゴシック|b0|i0|c128|p49;会社}
 73
     1
 44
1.0
  0
MTEXT
  5
80
330
1F
100
AcDbEntity
  8
F-A_文字
  6
Continuous
 62
     7
370
     0
100
AcDbMText
 10
3845.547985115293
 20
-2876.560946013945
 30
0.0
 40
45.72
 41
60.0
 46
0.0
 71
     7
 72
     1
  1
{\fＭＳ ゴシック|b0|i0|c128|p49;）}
 73
     1
 44
1.0
  0
MTEXT
  5
81
330
1F
100
AcDbEntity
  8
F-A_文字
  6
Continuous
 62
     7
370
     0
100
AcDbMText
 10
3566.743078270199
 20
-2877.490295913237
 30
0.0
 40
45.72
 41
30.0
 46
0.0
 71
     7
 72
     1
  1
{\fＭＳ ゴシック|b0|i0|c128|p49;,}
 73
     1
 44
1.0
  0
MTEXT
  5
82
330
1F
100
AcDbEntity
  8
F-A_文字
  6
Continuous
 62
     7
370
     0
100
AcDbMText
 10
3389.2372856524
 20
-2876.514644858855
 30
0.0
 40
49.53
 41
65.0
 46
0.0
 71
     7
 72
     1
  1
{\fＭＳ ゴシック|b0|i0|c128|p49;$y}
 73
     1
 44
1.0
  0
MTEXT
  5
83
330
1F
100
AcDbEntity
  8
F-A_文字
  6
Continuous
 62
     7
370
     0
100
AcDbMText
 10
3492.395099678281
 20
-2876.514644858855
 30
0.0
 40
49.53
 41
65.0
 46
0.0
 71
     7
 72
     1
  1
{\fＭＳ ゴシック|b0|i0|c128|p49;$m}
 73
     1
 44
1.0
  0
MTEXT
  5
84
330
1F
100
AcDbEntity
  8
F-A_文字
  6
Continuous
 62
     7
370
     0
100
AcDbMText
 10
3595.552921333554
 20
-2876.514644858855
 30
0.0
 40
49.53
 41
65.0
 46
0.0
 71
     7
 72
     1
  1
{\fＭＳ ゴシック|b0|i0|c128|p49;$d}
 73
     1
 44
1.0
  0
MTEXT
  5
85
330
1F
100
AcDbEntity
  8
F-A_文字
  6
Continuous
 62
     7
370
     0
100
AcDbMText
 10
3698.710742988826
 20
-2876.514644858855
 30
0.0
 40
49.53
 41
130.0
 46
0.0
 71
     7
 72
     1
  1
{\fＭＳ ゴシック|b0|i0|c128|p49;印刷}
 73
     1
 44
1.0
  0
MTEXT
  5
86
330
1F
100
AcDbEntity
  8
F-A_文字
  6
Continuous
 62
     7
370
     0
100
AcDbMText
 10
3295.968027210818
 20
-2879.348995711821
 30
0.0
 40
45.72
 41
60.0
 46
0.0
 71
     7
 72
     1
  1
{\fＭＳ ゴシック|b0|i0|c128|p49;（}
 73
     1
 44
1.0
  0
MTEXT
  5
87
330
1F
100
AcDbEntity
  8
F-A_文字
  6
Continuous
 62
     7
370
     0
100
AcDbMText
 10
3460.797206917048
 20
-2879.348995711821
 30
0.0
 40
45.72
 41
30.0
 46
0.0
 71
     7
 72
     1
  1
{\fＭＳ ゴシック|b0|i0|c128|p49;,}
 73
     1
 44
1.0
  0
LINE
  5
88
330
1F
100
AcDbEntity
  8
0-A_文字
  6
Continuous
 62
     7
370
     9
100
AcDbLine
 10
-3743.332919558964
 20
2486.666787637018
 30
0.0
 11
-3743.332919558964
 21
2636.666787637018
 31
0.0
  0
LINE
  5
89
330
1F
100
AcDbEntity
  8
0-A_文字
  6
Continuous
 62
     7
370
     9
100
AcDbLine
 10
-3743.332919558964
 20
2636.666787637018
 30
0.0
 11
-2563.109199698324
 21
2636.666787637018
 31
0.0
  0
LINE
  5
8A
330
1F
100
AcDbEntity
  8
0-A_文字
  6
Continuous
 62
     7
370
     9
100
AcDbLine
 10
-3743.332919558964
 20
2486.666787637018
 30
0.0
 11
-2563.109199698324
 21
2486.666787637018
 31
0.0
  0
LINE
  5
8B
330
1F
100
AcDbEntity
  8
0-A_文字
  6
Continuous
 62
     7
370
     9
100
AcDbLine
 10
-2563.109199698324
 20
2486.666787637018
 30
0.0
 11
-2563.109199698324
 21
2636.666787637018
 31
0.0
  0
MTEXT
  5
8C
330
1F
100
AcDbEntity
  8
0-A_文字
  6
Continuous
 62
     7
370
     9
100
AcDbMText
 10
-3403.221059628644
 20
2499.766787637018
 30
0.0
 40
76.2
 41
500.0
 46
0.0
 71
     7
 72
     1
  1
{\fＭＳ ゴシック|b0|i0|c128|p49;Ｂ－４０１}
 73
     1
 44
1.0
  0
MTEXT
  5
8D
330
1F
100
AcDbEntity
  8
0-A_文字
  6
Continuous
 62
     7
370
     9
100
AcDbMText
 10
-2486.989705360312
 20
2499.766787637018
 30
0.0
 40
76.20000000000002
 41
1300.0
 46
0.0
 71
     7
 72
     1
  1
{\fＭＳ ゴシック|b0|i0|c128|p49;（フロアーキャビネット右）}
 73
     1
 44
1.0
  0
MTEXT
  5
8E
330
1F
100
AcDbEntity
  8
F-A_文字
  6
Continuous
 62
     7
370
     0
100
AcDbMText
 10
-3386.720882428186
 20
-2696.799362147498
 30
0.0
 40
53.06785714285712
 41
1950.0
 46
0.0
 71
     7
 72
     1
  1
{\fＭＳ ゴシック|b0|i0|c128|p49;ドレタス　玄関収納　組合せプラン　床置きタイプ　Ｂ４０１}
 73
     1
 44
1.0
  0
MTEXT
  5
8F
330
1F
100
AcDbEntity
  8
F-A_文字
  6
Continuous
 62
     7
370
     9
100
AcDbMText
 10
3397.445178354582
 20
-2765.238008466657
 30
0.0
 40
49.53
 41
65.0
 46
0.0
 71
     7
 72
     1
  1
{\fＭＳ ゴシック|b0|i0|c128|p49;01}
 73
     1
 44
1.0
  0
LINE
  5
90
330
1F
100
AcDbEntity
  8
0-0_補助線
  6
JWW_HOJO
 62
   120
370
     5
100
AcDbLine
 10
-1444.509965398914
 20
-1563.7928595809
 30
0.0
 11
-1444.509965398914
 21
-126.2928595809012
 31
0.0
  0
LINE
  5
91
330
1F
100
AcDbEntity
  8
0-0_補助線
  6
JWW_HOJO
 62
   120
370
     5
100
AcDbLine
 10
-1544.509965398914
 20
-1563.7928595809
 30
0.0
 11
-1544.509965398914
 21
-126.2928595809012
 31
0.0
  0
LINE
  5
92
330
1F
100
AcDbEntity
  8
0-0_補助線
  6
JWW_HOJO
 62
   120
370
     5
100
AcDbLine
 10
-2938.509965398912
 20
-326.2928595809012
 30
0.0
 11
-1444.509965398914
 21
-326.2928595809012
 31
0.0
  0
LINE
  5
93
330
1F
100
AcDbEntity
  8
0-0_補助線
  6
JWW_HOJO
 62
   120
370
     5
100
AcDbLine
 10
-2938.509965398912
 20
-226.2928595809012
 30
0.0
 11
-1444.509965398914
 21
-226.2928595809012
 31
0.0
  0
LINE
  5
94
330
1F
100
AcDbEntity
  8
0-0_補助線
  6
JWW_HOJO
 62
   120
370
     5
100
AcDbLine
 10
-2938.509965398912
 20
-126.2928595809012
 30
0.0
 11
-1444.509965398914
 21
-126.2928595809012
 31
0.0
  0
LINE
  5
95
330
1F
100
AcDbEntity
  8
0-0_補助線
  6
JWW_HOJO
 62
   120
370
     5
100
AcDbLine
 10
-2938.509965398912
 20
-126.2928595809012
 30
0.0
 11
-2938.509965398912
 21
-1563.7928595809
 31
0.0
  0
LINE
  5
96
330
1F
100
AcDbEntity
  8
0-0_補助線
  6
JWW_HOJO
 62
   120
370
     5
100
AcDbLine
 10
-2838.509965398912
 20
-126.2928595809012
 30
0.0
 11
-2838.509965398912
 21
-1563.7928595809
 31
0.0
  0
LINE
  5
97
330
1F
100
AcDbEntity
  8
0-0_補助線
  6
JWW_HOJO
 62
   120
370
     5
100
AcDbLine
 10
949.4900346010871
 20
938.1520070699565
 30
0.0
 11
949.4900346010871
 21
1611.152007069957
 31
0.0
  0
LINE
  5
98
330
1F
100
AcDbEntity
  8
0-0_補助線
  6
JWW_HOJO
 62
   120
370
     5
100
AcDbLine
 10
949.4900346010871
 20
-126.2928397857144
 30
0.0
 11
949.4900346010871
 21
-1563.792839785714
 31
0.0
  0
LINE
  5
99
330
1F
100
AcDbEntity
  8
0-B_寸法
  6
Continuous
 62
   120
370
     5
100
AcDbLine
 10
-444.5099653989166
 20
1561.151971459431
 30
0.0
 11
-444.5099653989166
 21
1216.151971459431
 31
0.0
  0
LWPOLYLINE
  5
9A
330
1F
100
AcDbEntity
  8
0-B_寸法
  6
Continuous
 62
     7
370
     9
100
AcDbPolyline
 90
        4
 70
     1
 43
2.0
 10
-443.5099653989166
 20
1561.151971459431
 42
0.4142135623731
 10
-444.5099653989166
 20
1562.151971459431
 42
0.4142135623731
 10
-445.5099653989166
 20
1561.151971459431
 42
0.4142135623731
 10
-444.5099653989166
 20
1560.151971459431
 42
0.4142135623731
  0
LINE
  5
9B
330
1F
100
AcDbEntity
  8
0-B_寸法
  6
Continuous
 62
   120
370
     5
100
AcDbLine
 10
-544.5099653989166
 20
1561.151971459431
 30
0.0
 11
-344.5099653989166
 21
1561.151971459431
 31
0.0
  0
MTEXT
  5
9C
330
1F
100
AcDbEntity
  8
0-B_寸法
  6
Continuous
 62
     7
370
   211
100
AcDbMText
 10
-454.5099653989166
 20
1336.511971459432
 30
0.0
 40
45.72
 41
90.0
 46
0.0
 71
     7
 72
     1
  1
{\fＭＳ ゴシック|b0|i0|c128|p49;345}
 11
6.123031769111886E-17
 21
1.0
 31
0.0
 73
     1
 44
1.0
  0
LINE
  5
9D
330
1F
100
AcDbEntity
  8
0-B_寸法
  6
Continuous
 62
   120
370
     5
100
AcDbLine
 10
-444.5099653989166
 20
1216.151971459431
 30
0.0
 11
-444.5099653989166
 21
1215.151971459431
 31
0.0
  0
MTEXT
  5
9E
330
1F
100
AcDbEntity
  8
0-B_寸法
  6
Continuous
 62
     7
370
   211
100
AcDbMText
 10
-454.5099653989166
 20
1193.511971459431
 30
0.0
 40
45.72
 41
30.0
 46
0.0
 71
     7
 72
     1
  1
{\fＭＳ ゴシック|b0|i0|c128|p49;1}
 11
6.123031769111886E-17
 21
1.0
 31
0.0
 73
     1
 44
1.0
  0
LWPOLYLINE
  5
9F
330
1F
100
AcDbEntity
  8
0-B_寸法
  6
Continuous
 62
     7
370
     9
100
AcDbPolyline
 90
        4
 70
     1
 43
2.0
 10
-543.5099653989166
 20
1561.151971459431
 42
0.4142135623731
 10
-544.5099653989166
 20
1562.151971459431
 42
0.4142135623731
 10
-545.5099653989166
 20
1561.151971459431
 42
0.4142135623731
 10
-544.5099653989166
 20
1560.151971459431
 42
0.4142135623731
  0
LWPOLYLINE
  5
A0
330
1F
100
AcDbEntity
  8
0-B_寸法
  6
Continuous
 62
     7
370
     9
100
AcDbPolyline
 90
        4
 70
     1
 43
2.0
 10
-543.5099653989166
 20
-1169.292839785714
 42
0.4142135623731
 10
-544.5099653989166
 20
-1168.292839785714
 42
0.4142135623731
 10
-545.5099653989166
 20
-1169.292839785714
 42
0.4142135623731
 10
-544.5099653989166
 20
-1170.292839785714
 42
0.4142135623731
  0
LINE
  5
A1
330
1F
100
AcDbEntity
  8
0-B_寸法
  6
Continuous
 62
   120
370
     5
100
AcDbLine
 10
-544.5099653989166
 20
-1169.292839785714
 30
0.0
 11
-444.5099653989166
 21
-1169.292839785714
 31
0.0
  0
LINE
  5
A2
330
1F
100
AcDbEntity
  8
0-0_補助線
  6
JWW_HOJO
 62
   120
370
     5
100
AcDbLine
 10
-544.5099653989178
 20
1611.152007069957
 30
0.0
 11
-544.5099653989178
 21
938.1520070699565
 31
0.0
  0
LINE
  5
A3
330
1F
100
AcDbEntity
  8
0-0_補助線
  6
JWW_HOJO
 62
   120
370
     5
100
AcDbLine
 10
-344.5099653989166
 20
1611.152007069957
 30
0.0
 11
-344.5099653989166
 21
938.1520070699565
 31
0.0
  0
LINE
  5
A4
330
1F
100
AcDbEntity
  8
0-0_補助線
  6
JWW_HOJO
 62
   120
370
     5
100
AcDbLine
 10
-444.5099653989166
 20
1611.152007069957
 30
0.0
 11
-444.5099653989166
 21
938.1520070699565
 31
0.0
  0
LINE
  5
A5
330
1F
100
AcDbEntity
  8
0-B_寸法
  6
Continuous
 62
   120
370
     5
100
AcDbLine
 10
-544.5099653989166
 20
-1169.292839785714
 30
0.0
 11
-544.5099653989166
 21
-408.292839785714
 31
0.0
  0
LWPOLYLINE
  5
A6
330
1F
100
AcDbEntity
  8
0-B_寸法
  6
Continuous
 62
     7
370
     9
100
AcDbPolyline
 90
        4
 70
     1
 43
2.0
 10
-543.5099653989166
 20
-408.292839785714
 42
0.4142135623731
 10
-544.5099653989166
 20
-407.292839785714
 42
0.4142135623731
 10
-545.5099653989166
 20
-408.292839785714
 42
0.4142135623731
 10
-544.5099653989166
 20
-409.292839785714
 42
0.4142135623731
  0
LINE
  5
A7
330
1F
100
AcDbEntity
  8
0-B_寸法
  6
Continuous
 62
   120
370
     5
100
AcDbLine
 10
-544.5099653989166
 20
-408.292839785714
 30
0.0
 11
-444.5099653989166
 21
-408.292839785714
 31
0.0
  0
MTEXT
  5
A8
330
1F
100
AcDbEntity
  8
0-B_寸法
  6
Continuous
 62
     7
370
   211
100
AcDbMText
 10
-454.5099653989166
 20
-481.9035467550466
 30
0.0
 40
45.72
 41
60.0
 46
0.0
 71
     7
 72
     1
  1
{\fＭＳ ゴシック|b0|i0|c128|p49;15}
 11
6.123031769111886E-17
 21
1.0
 31
0.0
 73
     1
 44
1.0
  0
LINE
  5
A9
330
1F
100
AcDbEntity
  8
0-B_寸法
  6
Continuous
 62
   120
370
     5
100
AcDbLine
 10
-444.5099653989166
 20
-1169.292839785714
 30
0.0
 11
-444.5099653989166
 21
-1154.292839785714
 31
0.0
  0
LWPOLYLINE
  5
AA
330
1F
100
AcDbEntity
  8
0-B_寸法
  6
Continuous
 62
     7
370
     9
100
AcDbPolyline
 90
        4
 70
     1
 43
2.0
 10
-443.5099653989166
 20
-1169.292839785714
 42
0.4142135623731
 10
-444.5099653989166
 20
-1168.292839785714
 42
0.4142135623731
 10
-445.5099653989166
 20
-1169.292839785714
 42
0.4142135623731
 10
-444.5099653989166
 20
-1170.292839785714
 42
0.4142135623731
  0
LWPOLYLINE
  5
AB
330
1F
100
AcDbEntity
  8
0-B_寸法
  6
Continuous
 62
     7
370
     9
100
AcDbPolyline
 90
        4
 70
     1
 43
2.0
 10
-443.5099653989166
 20
-1154.292839785714
 42
0.4142135623731
 10
-444.5099653989166
 20
-1153.292839785714
 42
0.4142135623731
 10
-445.5099653989166
 20
-1154.292839785714
 42
0.4142135623731
 10
-444.5099653989166
 20
-1155.292839785714
 42
0.4142135623731
  0
LINE
  5
AC
330
1F
100
AcDbEntity
  8
0-B_寸法
  6
Continuous
 62
   120
370
     5
100
AcDbLine
 10
-444.5099653989166
 20
-1169.292839785714
 30
0.0
 11
-344.5099653989166
 21
-1169.292839785714
 31
0.0
  0
LINE
  5
AD
330
1F
100
AcDbEntity
  8
0-B_寸法
  6
Continuous
 62
   120
370
     5
100
AcDbLine
 10
-444.5099653989166
 20
-1154.292839785714
 30
0.0
 11
-344.5099653989166
 21
-1154.292839785714
 31
0.0
  0
LINE
  5
AE
330
1F
100
AcDbEntity
  8
0-B_寸法
  6
Continuous
 62
   120
370
     5
100
AcDbLine
 10
-444.5099653989166
 20
-1154.292839785714
 30
0.0
 11
-444.5099653989166
 21
-423.292839785714
 31
0.0
  0
LWPOLYLINE
  5
AF
330
1F
100
AcDbEntity
  8
0-B_寸法
  6
Continuous
 62
     7
370
     9
100
AcDbPolyline
 90
        4
 70
     1
 43
2.0
 10
-443.5099653989166
 20
-423.292839785714
 42
0.4142135623731
 10
-444.5099653989166
 20
-422.292839785714
 42
0.4142135623731
 10
-445.5099653989166
 20
-423.292839785714
 42
0.4142135623731
 10
-444.5099653989166
 20
-424.292839785714
 42
0.4142135623731
  0
LINE
  5
B0
330
1F
100
AcDbEntity
  8
0-B_寸法
  6
Continuous
 62
   120
370
     5
100
AcDbLine
 10
-444.5099653989166
 20
-423.292839785714
 30
0.0
 11
-344.5099653989166
 21
-423.292839785714
 31
0.0
  0
MTEXT
  5
B1
330
1F
100
AcDbEntity
  8
0-B_寸法
  6
Continuous
 62
     7
370
   211
100
AcDbMText
 10
-454.5099653989166
 20
-840.9328397857132
 30
0.0
 40
45.72
 41
90.0
 46
0.0
 71
     7
 72
     1
  1
{\fＭＳ ゴシック|b0|i0|c128|p49;731}
 11
6.123031769111886E-17
 21
1.0
 31
0.0
 73
     1
 44
1.0
  0
LINE
  5
B2
330
1F
100
AcDbEntity
  8
0-B_寸法
  6
Continuous
 62
   120
370
     5
100
AcDbLine
 10
-444.5099653989166
 20
-423.292839785714
 30
0.0
 11
-444.5099653989166
 21
-408.292839785714
 31
0.0
  0
LWPOLYLINE
  5
B3
330
1F
100
AcDbEntity
  8
0-B_寸法
  6
Continuous
 62
     7
370
     9
100
AcDbPolyline
 90
        4
 70
     1
 43
2.0
 10
-443.5099653989166
 20
-408.292839785714
 42
0.4142135623731
 10
-444.5099653989166
 20
-407.292839785714
 42
0.4142135623731
 10
-445.5099653989166
 20
-408.292839785714
 42
0.4142135623731
 10
-444.5099653989166
 20
-409.292839785714
 42
0.4142135623731
  0
LINE
  5
B4
330
1F
100
AcDbEntity
  8
0-B_寸法
  6
Continuous
 62
   120
370
     5
100
AcDbLine
 10
-444.5099653989166
 20
-408.292839785714
 30
0.0
 11
-344.5099653989166
 21
-408.292839785714
 31
0.0
  0
MTEXT
  5
B5
330
1F
100
AcDbEntity
  8
0-B_寸法
  6
Continuous
 62
     7
370
   211
100
AcDbMText
 10
-454.5099653989166
 20
-1169.814553795669
 30
0.0
 40
45.72
 41
60.0
 46
0.0
 71
     7
 72
     1
  1
{\fＭＳ ゴシック|b0|i0|c128|p49;15}
 11
6.123031769111886E-17
 21
1.0
 31
0.0
 73
     1
 44
1.0
  0
MTEXT
  5
B6
330
1F
100
AcDbEntity
  8
0-B_寸法
  6
Continuous
 62
     7
370
   211
100
AcDbMText
 10
-554.5099653989166
 20
-840.9328595808998
 30
0.0
 40
45.72
 41
90.0
 46
0.0
 71
     7
 72
     1
  1
{\fＭＳ ゴシック|b0|i0|c128|p49;761}
 11
6.123031769111886E-17
 21
1.0
 31
0.0
 73
     1
 44
1.0
  0
LINE
  5
B7
330
1F
100
AcDbEntity
  8
0-B_寸法
  6
Continuous
 62
   120
370
     5
100
AcDbLine
 10
-544.5099653058389
 20
-408.29283153772
 30
0.0
 11
-344.5099653058389
 21
-408.29283153772
 31
0.0
  0
LWPOLYLINE
  5
B8
330
1F
100
AcDbEntity
  8
0-B_寸法
  6
Continuous
 62
     7
370
     9
100
AcDbPolyline
 90
        4
 70
     1
 43
2.0
 10
-543.5099653058389
 20
-408.29283153772
 42
0.4142135623731
 10
-544.5099653058389
 20
-407.29283153772
 42
0.4142135623731
 10
-545.5099653058389
 20
-408.29283153772
 42
0.4142135623731
 10
-544.5099653058389
 20
-409.29283153772
 42
0.4142135623731
  0
LINE
  5
B9
330
1F
100
AcDbEntity
  8
0-0_補助線
  6
JWW_HOJO
 62
   120
370
     5
100
AcDbLine
 10
-444.5099653989166
 20
-126.2928397857144
 30
0.0
 11
-444.5099653989166
 21
-1563.792839785714
 31
0.0
  0
LINE
  5
BA
330
1F
100
AcDbEntity
  8
0-0_補助線
  6
JWW_HOJO
 62
   120
370
     5
100
AcDbLine
 10
-344.5099653989166
 20
-126.2928397857144
 30
0.0
 11
-344.5099653989166
 21
-1563.792839785714
 31
0.0
  0
LINE
  5
BB
330
1F
100
AcDbEntity
  8
0-0_補助線
  6
JWW_HOJO
 62
   120
370
     5
100
AcDbLine
 10
-544.5099653989178
 20
1611.152007069957
 30
0.0
 11
949.4900346010871
 21
1611.152007069957
 31
0.0
  0
LINE
  5
BC
330
1F
100
AcDbEntity
  8
0-0_補助線
  6
JWW_HOJO
 62
   120
370
     5
100
AcDbLine
 10
-544.5099653989178
 20
938.1520070699565
 30
0.0
 11
949.4900346010871
 21
938.1520070699565
 31
0.0
  0
LINE
  5
BD
330
1F
100
AcDbEntity
  8
0-0_補助線
  6
JWW_HOJO
 62
     7
370
     9
100
AcDbLine
 10
-544.5099653989178
 20
1561.152007069957
 30
0.0
 11
949.4900346010871
 21
1561.152007069957
 31
0.0
  0
LINE
  5
BE
330
1F
100
AcDbEntity
  8
0-0_補助線
  6
JWW_HOJO
 62
     7
370
     9
100
AcDbLine
 10
-544.5099653989178
 20
1216.152007069956
 30
0.0
 11
949.4900346010871
 21
1216.152007069956
 31
0.0
  0
LINE
  5
BF
330
1F
100
AcDbEntity
  8
0-0_補助線
  6
JWW_HOJO
 62
   120
370
     5
100
AcDbLine
 10
-544.5099653989178
 20
1038.152007069957
 30
0.0
 11
949.4900346010871
 21
1038.152007069957
 31
0.0
  0
LINE
  5
C0
330
1F
100
AcDbEntity
  8
0-0_補助線
  6
JWW_HOJO
 62
   120
370
     5
100
AcDbLine
 10
-444.5099653989166
 20
-126.2928397857144
 30
0.0
 11
949.4900346010871
 21
-126.2928397857144
 31
0.0
  0
LINE
  5
C1
330
1F
100
AcDbEntity
  8
0-0_補助線
  6
JWW_HOJO
 62
   120
370
     5
100
AcDbLine
 10
-444.5099653989166
 20
-326.2928397857144
 30
0.0
 11
949.4900346010871
 21
-326.2928397857144
 31
0.0
  0
LINE
  5
C2
330
1F
100
AcDbEntity
  8
0-0_補助線
  6
JWW_HOJO
 62
   120
370
     5
100
AcDbLine
 10
-444.5099653989166
 20
-226.2928397857144
 30
0.0
 11
949.4900346010871
 21
-226.2928397857144
 31
0.0
  0
LINE
  5
C3
330
1F
100
AcDbEntity
  8
0-A_文字
  6
Continuous
 62
     7
370
     9
100
AcDbLine
 10
-122.5099653989156
 20
638.1520070699565
 30
0.0
 11
-122.5099653989156
 21
788.1520070699565
 31
0.0
  0
LINE
  5
C4
330
1F
100
AcDbEntity
  8
0-A_文字
  6
Continuous
 62
     7
370
     9
100
AcDbLine
 10
727.4900346010844
 20
638.1520070699565
 30
0.0
 11
-122.5099653989156
 21
638.1520070699565
 31
0.0
  0
LINE
  5
C5
330
1F
100
AcDbEntity
  8
0-A_文字
  6
Continuous
 62
     7
370
     9
100
AcDbLine
 10
727.4900346010844
 20
788.1520070699565
 30
0.0
 11
727.4900346010844
 21
638.1520070699565
 31
0.0
  0
LINE
  5
C6
330
1F
100
AcDbEntity
  8
0-A_文字
  6
Continuous
 62
     7
370
     9
100
AcDbLine
 10
-122.5099653989156
 20
788.1520070699565
 30
0.0
 11
727.4900346010844
 21
788.1520070699565
 31
0.0
  0
MTEXT
  5
C7
330
1F
100
AcDbEntity
  8
0-A_文字
  6
Continuous
 62
     7
370
     9
100
AcDbMText
 10
102.4900346010844
 20
643.9520070699565
 30
0.0
 40
101.6
 41
400.0
 46
0.0
 71
     7
 72
     1
  1
{\fＭＳ ゴシック|b0|i0|c128|p49;平面図}
 73
     1
 44
1.0
  0
LINE
  5
C8
330
1F
100
AcDbEntity
  8
0-0_補助線
  6
JWW_HOJO
 62
   120
370
     5
100
AcDbLine
 10
2916.490034461463
 20
-326.2928397857132
 30
0.0
 11
2916.490034461463
 21
-1563.792839785714
 31
0.0
  0
LINE
  5
C9
330
1F
100
AcDbEntity
  8
0-0_補助線
  6
JWW_HOJO
 62
     7
370
     9
100
AcDbLine
 10
2916.490034461463
 20
-376.2928397857144
 30
0.0
 11
-3038.509965398912
 21
-376.2928397857144
 31
0.0
  0
LINE
  5
CA
330
1F
100
AcDbEntity
  8
0-0_補助線
  6
JWW_HOJO
 62
     7
370
     9
100
AcDbLine
 10
-3038.509965398912
 20
-1169.292839785714
 30
0.0
 11
2916.490034461463
 21
-1169.292839785714
 31
0.0
  0
LINE
  5
CB
330
1F
100
AcDbEntity
  8
0-0_補助線
  6
JWW_HOJO
 62
   120
370
     5
100
AcDbLine
 10
-3038.509965398912
 20
-408.292839785714
 30
0.0
 11
2916.490034461463
 21
-408.292839785714
 31
0.0
  0
LINE
  5
CC
330
1F
100
AcDbEntity
  8
0-2_扉
  6
Continuous
 62
    40
370
    15
100
AcDbLine
 10
105.4900346010834
 20
1215.152007069956
 30
0.0
 11
499.4900346010837
 21
1215.152007069956
 31
0.0
  0
LINE
  5
CD
330
1F
100
AcDbEntity
  8
0-2_扉
  6
Continuous
 62
    40
370
    15
100
AcDbLine
 10
-292.5099653989184
 20
1215.152007069956
 30
0.0
 11
101.4900346010825
 21
1215.152007069956
 31
0.0
  0
LINE
  5
CE
330
1F
100
AcDbEntity
  8
0-0_補助線
  6
JWW_HOJO
 62
     7
370
     9
100
AcDbLine
 10
-294.5099653989166
 20
1611.152007069957
 30
0.0
 11
-294.5099653989166
 21
-1563.792839785714
 31
0.0
  0
LINE
  5
CF
330
1F
100
AcDbEntity
  8
0-1_本体
  6
Continuous
 62
    92
370
    13
100
AcDbLine
 10
501.490034601083
 20
-1169.292839785714
 30
0.0
 11
-294.5099653989166
 21
-1169.292839785714
 31
0.0
  0
LINE
  5
D0
330
1F
100
AcDbEntity
  8
0-4_棚
  6
Continuous
 62
    92
370
    13
100
AcDbLine
 10
486.4900346010842
 20
1268.152007069955
 30
0.0
 11
-279.5099653989166
 21
1268.152007069955
 31
0.0
  0
LINE
  5
D1
330
1F
100
AcDbEntity
  8
0-1_本体
  6
Continuous
 62
    40
370
    15
100
AcDbLine
 10
-279.5099653989166
 20
1558.152007069956
 30
0.0
 11
-279.5099653989166
 21
1216.152007069956
 31
0.0
  0
LINE
  5
D2
330
1F
100
AcDbEntity
  8
0-1_本体
  6
Continuous
 62
    40
370
    15
100
AcDbLine
 10
486.4900346010842
 20
1558.152007069956
 30
0.0
 11
486.4900346010842
 21
1216.152007069956
 31
0.0
  0
LINE
  5
D3
330
1F
100
AcDbEntity
  8
0-1_本体
  6
Continuous
 62
    40
370
    15
100
AcDbLine
 10
-294.5099653989166
 20
1216.152007069956
 30
0.0
 11
-294.5099653989166
 21
1561.152007069957
 31
0.0
  0
LINE
  5
D4
330
1F
100
AcDbEntity
  8
0-1_本体
  6
Continuous
 62
    40
370
    15
100
AcDbLine
 10
-279.5099653989166
 20
1216.152007069956
 30
0.0
 11
-294.5099653989166
 21
1216.152007069956
 31
0.0
  0
LINE
  5
D5
330
1F
100
AcDbEntity
  8
0-1_本体
  6
Continuous
 62
    40
370
    15
100
AcDbLine
 10
501.4900346010842
 20
1216.152007069956
 30
0.0
 11
501.4900346010842
 21
1561.152007069957
 31
0.0
  0
LINE
  5
D6
330
1F
100
AcDbEntity
  8
0-1_本体
  6
Continuous
 62
    40
370
    15
100
AcDbLine
 10
486.4900346010842
 20
1216.152007069956
 30
0.0
 11
501.4900346010842
 21
1216.152007069956
 31
0.0
  0
LINE
  5
D7
330
1F
100
AcDbEntity
  8
0-1_本体
  6
Continuous
 62
    92
370
    13
100
AcDbLine
 10
486.4900346010825
 20
-1154.292839785714
 30
0.0
 11
-279.5099653989166
 21
-1154.292839785714
 31
0.0
  0
LINE
  5
D8
330
1F
100
AcDbEntity
  8
0-0_補助線
  6
JWW_HOJO
 62
     7
370
     9
100
AcDbLine
 10
501.4900346010847
 20
1611.152007069957
 30
0.0
 11
501.4900346010847
 21
-1563.792839785714
 31
0.0
  0
LINE
  5
D9
330
1F
100
AcDbEntity
  8
0-6_桟木
  6
JWW_DASHED2
 62
     7
370
     9
100
AcDbLine
 10
-279.5099653989166
 20
-1090.292839785714
 30
0.0
 11
486.4900346010825
 21
-1090.292839785714
 31
0.0
  0
LINE
  5
DA
330
1F
100
AcDbEntity
  8
0-4_棚
  6
Continuous
 62
    92
370
    13
100
AcDbLine
 10
486.4900346010825
 20
-550.3144487079694
 30
0.0
 11
-279.5099653989166
 21
-550.3144487079694
 31
0.0
  0
LINE
  5
DB
330
1F
100
AcDbEntity
  8
0-4_棚
  6
Continuous
 62
    92
370
    13
100
AcDbLine
 10
486.4900346010825
 20
-562.3144487079694
 30
0.0
 11
-279.5099653989166
 21
-562.3144487079694
 31
0.0
  0
LINE
  5
DC
330
1F
100
AcDbEntity
  8
0-4_棚
  6
Continuous
 62
    92
370
    13
100
AcDbLine
 10
486.4900346010825
 20
-742.3144487079702
 30
0.0
 11
-279.5099653989166
 21
-742.3144487079702
 31
0.0
  0
LINE
  5
DD
330
1F
100
AcDbEntity
  8
0-4_棚
  6
Continuous
 62
    92
370
    13
100
AcDbLine
 10
486.4900346010825
 20
-754.3144487079699
 30
0.0
 11
-279.5099653989166
 21
-754.3144487079699
 31
0.0
  0
LINE
  5
DE
330
1F
100
AcDbEntity
  8
0-4_棚
  6
Continuous
 62
    92
370
    13
100
AcDbLine
 10
486.4900346010825
 20
-934.3153477515293
 30
0.0
 11
-279.5099653989166
 21
-934.3153477515293
 31
0.0
  0
LINE
  5
DF
330
1F
100
AcDbEntity
  8
0-4_棚
  6
Continuous
 62
    92
370
    13
100
AcDbLine
 10
486.4900346010825
 20
-946.3153477515291
 30
0.0
 11
-279.5099653989166
 21
-946.3153477515291
 31
0.0
  0
LINE
  5
E0
330
1F
100
AcDbEntity
  8
0-1_本体
  6
Continuous
 62
    92
370
    13
100
AcDbLine
 10
-294.5099653989166
 20
-1169.292839785714
 30
0.0
 11
-294.5099653989166
 21
-408.292839785714
 31
0.0
  0
LINE
  5
E1
330
1F
100
AcDbEntity
  8
0-1_本体
  6
Continuous
 62
    92
370
    13
100
AcDbLine
 10
-279.5099653989166
 20
-1169.292839785714
 30
0.0
 11
-279.5099653989166
 21
-408.292839785714
 31
0.0
  0
LINE
  5
E2
330
1F
100
AcDbEntity
  8
0-1_本体
  6
Continuous
 62
    92
370
    13
100
AcDbLine
 10
486.4900346010825
 20
-408.292839785714
 30
0.0
 11
486.4900346010825
 21
-1169.292839785714
 31
0.0
  0
LINE
  5
E3
330
1F
100
AcDbEntity
  8
0-6_桟木
  6
JWW_DASHED2
 62
     7
370
     9
100
AcDbLine
 10
-279.5099653989166
 20
-487.292839785714
 30
0.0
 11
486.4900346010825
 21
-487.292839785714
 31
0.0
  0
LINE
  5
E4
330
1F
100
AcDbEntity
  8
0-1_本体
  6
Continuous
 62
    92
370
    13
100
AcDbLine
 10
486.4900346010825
 20
-423.292839785714
 30
0.0
 11
-279.5099653989166
 21
-423.292839785714
 31
0.0
  0
LINE
  5
E5
330
1F
100
AcDbEntity
  8
0-0_補助線
  6
JWW_HOJO
 62
     7
370
     9
100
AcDbLine
 10
899.4900346010849
 20
1611.152007069957
 30
0.0
 11
899.4900346010849
 21
-1563.792839785714
 31
0.0
  0
LINE
  5
E6
330
1F
100
AcDbEntity
  8
0-2_扉
  6
Continuous
 62
    40
370
    15
100
AcDbLine
 10
503.4900346010841
 20
1215.152007069956
 30
0.0
 11
897.490034601085
 21
1215.152007069956
 31
0.0
  0
LINE
  5
E7
330
1F
100
AcDbEntity
  8
0-1_本体
  6
Continuous
 62
    92
370
    13
100
AcDbLine
 10
516.4900346010847
 20
-1169.292839785714
 30
0.0
 11
501.4900346010847
 21
-1169.292839785714
 31
0.0
  0
LINE
  5
E8
330
1F
100
AcDbEntity
  8
0-1_本体
  6
Continuous
 62
    40
370
    15
100
AcDbLine
 10
516.4900346010847
 20
1216.152007069956
 30
0.0
 11
501.4900346010847
 21
1216.152007069956
 31
0.0
  0
LINE
  5
E9
330
1F
100
AcDbEntity
  8
0-1_本体
  6
Continuous
 62
    40
370
    15
100
AcDbLine
 10
516.4900346010847
 20
1558.152007069956
 30
0.0
 11
516.4900346010847
 21
1216.152007069956
 31
0.0
  0
LINE
  5
EA
330
1F
100
AcDbEntity
  8
0-1_本体
  6
Continuous
 62
    40
370
    15
100
AcDbLine
 10
501.4900346010847
 20
1561.152007069957
 30
0.0
 11
509.4900346010849
 21
1561.152007069957
 31
0.0
  0
LINE
  5
EB
330
1F
100
AcDbEntity
  8
0-1_本体
  6
Continuous
 62
    40
370
    15
100
AcDbLine
 10
509.4900346010849
 20
1561.152007069957
 30
0.0
 11
509.4900346010849
 21
1558.152007069956
 31
0.0
  0
LINE
  5
EC
330
1F
100
AcDbEntity
  8
0-1_本体
  6
Continuous
 62
    92
370
    13
100
AcDbLine
 10
884.4900346010849
 20
-1154.292839785714
 30
0.0
 11
516.4900346010847
 21
-1154.292839785714
 31
0.0
  0
LINE
  5
ED
330
1F
100
AcDbEntity
  8
0-1_本体
  6
Continuous
 62
    40
370
    15
100
AcDbLine
 10
884.4900346010849
 20
1216.152007069956
 30
0.0
 11
899.4900346010849
 21
1216.152007069956
 31
0.0
  0
LINE
  5
EE
330
1F
100
AcDbEntity
  8
0-1_本体
  6
Continuous
 62
    40
370
    15
100
AcDbLine
 10
899.4900346010849
 20
1216.152007069956
 30
0.0
 11
899.4900346010849
 21
1561.152007069957
 31
0.0
  0
LINE
  5
EF
330
1F
100
AcDbEntity
  8
0-1_本体
  6
Continuous
 62
    40
370
    15
100
AcDbLine
 10
884.4900346010849
 20
1558.152007069956
 30
0.0
 11
884.4900346010849
 21
1216.152007069956
 31
0.0
  0
LINE
  5
F0
330
1F
100
AcDbEntity
  8
0-1_本体
  6
Continuous
 62
    40
370
    15
100
AcDbLine
 10
899.4900346010849
 20
1561.152007069957
 30
0.0
 11
891.490034601083
 21
1561.152007069957
 31
0.0
  0
LINE
  5
F1
330
1F
100
AcDbEntity
  8
0-1_本体
  6
Continuous
 62
    40
370
    15
100
AcDbLine
 10
891.490034601083
 20
1558.152007069956
 30
0.0
 11
509.4900346010849
 21
1558.152007069956
 31
0.0
  0
LINE
  5
F2
330
1F
100
AcDbEntity
  8
0-1_本体
  6
Continuous
 62
    40
370
    15
100
AcDbLine
 10
891.490034601083
 20
1559.652007069957
 30
0.0
 11
509.4900346010849
 21
1559.652007069957
 31
0.0
  0
LINE
  5
F3
330
1F
100
AcDbEntity
  8
0-1_本体
  6
Continuous
 62
     7
370
     9
100
AcDbLine
 10
891.490034601083
 20
1561.152007069957
 30
0.0
 11
509.4900346010849
 21
1561.152007069957
 31
0.0
  0
LINE
  5
F4
330
1F
100
AcDbEntity
  8
0-1_本体
  6
Continuous
 62
    40
370
    15
100
AcDbLine
 10
891.490034601083
 20
1561.152007069957
 30
0.0
 11
891.490034601083
 21
1558.152007069956
 31
0.0
  0
LINE
  5
F5
330
1F
100
AcDbEntity
  8
0-4_棚
  6
Continuous
 62
    92
370
    13
100
AcDbLine
 10
884.4900346010849
 20
1268.152007069957
 30
0.0
 11
516.4900346010847
 21
1268.152007069957
 31
0.0
  0
LINE
  5
F6
330
1F
100
AcDbEntity
  8
0-6_桟木
  6
JWW_DASHED2
 62
     7
370
     9
100
AcDbLine
 10
516.4900346010847
 20
-1090.292839785714
 30
0.0
 11
884.4900346010849
 21
-1090.292839785714
 31
0.0
  0
LINE
  5
F7
330
1F
100
AcDbEntity
  8
0-4_棚
  6
Continuous
 62
    92
370
    13
100
AcDbLine
 10
884.4900346010849
 20
-550.3144487079694
 30
0.0
 11
516.4900346010847
 21
-550.3144487079694
 31
0.0
  0
LINE
  5
F8
330
1F
100
AcDbEntity
  8
0-4_棚
  6
Continuous
 62
    92
370
    13
100
AcDbLine
 10
884.4900346010849
 20
-562.3144487079694
 30
0.0
 11
516.4900346010847
 21
-562.3144487079694
 31
0.0
  0
LINE
  5
F9
330
1F
100
AcDbEntity
  8
0-4_棚
  6
Continuous
 62
    92
370
    13
100
AcDbLine
 10
884.4900346010849
 20
-742.3144487079702
 30
0.0
 11
516.4900346010847
 21
-742.3144487079702
 31
0.0
  0
LINE
  5
FA
330
1F
100
AcDbEntity
  8
0-4_棚
  6
Continuous
 62
    92
370
    13
100
AcDbLine
 10
884.4900346010849
 20
-754.3144487079699
 30
0.0
 11
516.4900346010847
 21
-754.3144487079699
 31
0.0
  0
LINE
  5
FB
330
1F
100
AcDbEntity
  8
0-4_棚
  6
Continuous
 62
    92
370
    13
100
AcDbLine
 10
884.4900346010849
 20
-934.3153477515293
 30
0.0
 11
516.4900346010847
 21
-934.3153477515293
 31
0.0
  0
LINE
  5
FC
330
1F
100
AcDbEntity
  8
0-4_棚
  6
Continuous
 62
    92
370
    13
100
AcDbLine
 10
884.4900346010849
 20
-946.3153477515291
 30
0.0
 11
516.4900346010847
 21
-946.3153477515291
 31
0.0
  0
LINE
  5
FD
330
1F
100
AcDbEntity
  8
0-1_本体
  6
Continuous
 62
    92
370
    13
100
AcDbLine
 10
899.4900346010849
 20
-408.292839785714
 30
0.0
 11
899.4900346010849
 21
-1169.292839785714
 31
0.0
  0
LINE
  5
FE
330
1F
100
AcDbEntity
  8
0-1_本体
  6
Continuous
 62
    92
370
    13
100
AcDbLine
 10
884.4900346010849
 20
-408.292839785714
 30
0.0
 11
884.4900346010849
 21
-1169.292839785714
 31
0.0
  0
LINE
  5
FF
330
1F
100
AcDbEntity
  8
0-1_本体
  6
Continuous
 62
    92
370
    13
100
AcDbLine
 10
516.4900346010847
 20
-1169.292839785714
 30
0.0
 11
516.4900346010847
 21
-408.292839785714
 31
0.0
  0
LINE
  5
100
330
1F
100
AcDbEntity
  8
0-6_桟木
  6
JWW_DASHED2
 62
     7
370
     9
100
AcDbLine
 10
516.4900346010847
 20
-487.2928397857149
 30
0.0
 11
884.4900346010849
 21
-487.2928397857149
 31
0.0
  0
LINE
  5
101
330
1F
100
AcDbEntity
  8
0-1_本体
  6
Continuous
 62
    92
370
    13
100
AcDbLine
 10
884.4900346010849
 20
-423.292839785714
 30
0.0
 11
516.4900346010847
 21
-423.292839785714
 31
0.0
  0
LINE
  5
102
330
1F
100
AcDbEntity
  8
0-B_寸法
  6
Continuous
 62
   120
370
     5
100
AcDbLine
 10
-295.5099654919957
 20
-226.2928397857144
 30
0.0
 11
900.4900345080046
 21
-226.2928397857144
 31
0.0
  0
LWPOLYLINE
  5
103
330
1F
100
AcDbEntity
  8
0-B_寸法
  6
Continuous
 62
     7
370
     9
100
AcDbPolyline
 90
        4
 70
     1
 43
2.0
 10
-294.5099654919957
 20
-226.2928397857144
 42
0.4142135623731
 10
-295.5099654919957
 20
-225.2928397857144
 42
0.4142135623731
 10
-296.5099654919957
 20
-226.2928397857144
 42
0.4142135623731
 10
-295.5099654919957
 20
-227.2928397857144
 42
0.4142135623731
  0
LWPOLYLINE
  5
104
330
1F
100
AcDbEntity
  8
0-B_寸法
  6
Continuous
 62
     7
370
     9
100
AcDbPolyline
 90
        4
 70
     1
 43
2.0
 10
901.4900345080046
 20
-226.2928397857144
 42
0.4142135623731
 10
900.4900345080046
 20
-225.2928397857144
 42
0.4142135623731
 10
899.4900345080046
 20
-226.2928397857144
 42
0.4142135623731
 10
900.4900345080046
 20
-227.2928397857144
 42
0.4142135623731
  0
LINE
  5
105
330
1F
100
AcDbEntity
  8
0-B_寸法
  6
Continuous
 62
   120
370
     5
100
AcDbLine
 10
-295.5099654919957
 20
-226.2928397857144
 30
0.0
 11
-295.5099654919957
 21
-326.2928397857144
 31
0.0
  0
LINE
  5
106
330
1F
100
AcDbEntity
  8
0-B_寸法
  6
Continuous
 62
   120
370
     5
100
AcDbLine
 10
900.4900345080046
 20
-226.2928397857144
 30
0.0
 11
900.4900345080046
 21
-326.2928397857144
 31
0.0
  0
MTEXT
  5
107
330
1F
100
AcDbEntity
  8
0-B_寸法
  6
Continuous
 62
     7
370
   211
100
AcDbMText
 10
122.4900346010776
 20
-223.4328397857138
 30
0.0
 40
45.72000000000114
 41
360.0000000000091
 46
0.0
 71
     7
 72
     1
  1
{\fＭＳ ゴシック|b0|i0|c128|p49;ｶｳﾝﾀｰ＝1,196}
 73
     1
 44
1.0
  0
LINE
  5
108
330
1F
100
AcDbEntity
  8
0-B_寸法
  6
Continuous
 62
   120
370
     5
100
AcDbLine
 10
899.4900346010849
 20
938.1520070699565
 30
0.0
 11
-294.5099653989166
 21
938.1520070699565
 31
0.0
  0
LWPOLYLINE
  5
109
330
1F
100
AcDbEntity
  8
0-B_寸法
  6
Continuous
 62
     7
370
     9
100
AcDbPolyline
 90
        4
 70
     1
 43
2.0
 10
900.4900346010847
 20
938.1520070699565
 42
0.4142135623731
 10
899.4900346010849
 20
939.1520070699564
 42
0.4142135623731
 10
898.490034601085
 20
938.1520070699565
 42
0.4142135623731
 10
899.4900346010849
 20
937.1520070699567
 42
0.4142135623731
  0
LWPOLYLINE
  5
10A
330
1F
100
AcDbEntity
  8
0-B_寸法
  6
Continuous
 62
     7
370
     9
100
AcDbPolyline
 90
        4
 70
     1
 43
2.0
 10
-293.5099653989166
 20
938.1520070699565
 42
0.4142135623731
 10
-294.5099653989166
 20
939.1520070699564
 42
0.4142135623731
 10
-295.5099653989166
 20
938.1520070699565
 42
0.4142135623731
 10
-294.5099653989166
 20
937.1520070699567
 42
0.4142135623731
  0
LINE
  5
10B
330
1F
100
AcDbEntity
  8
0-B_寸法
  6
Continuous
 62
   120
370
     5
100
AcDbLine
 10
899.4900346010849
 20
938.1520070699565
 30
0.0
 11
899.4900346010849
 21
1038.152007069957
 31
0.0
  0
LINE
  5
10C
330
1F
100
AcDbEntity
  8
0-B_寸法
  6
Continuous
 62
   120
370
     5
100
AcDbLine
 10
-294.5099653989166
 20
938.1520070699565
 30
0.0
 11
-294.5099653989166
 21
1038.152007069957
 31
0.0
  0
MTEXT
  5
10D
330
1F
100
AcDbEntity
  8
0-B_寸法
  6
Continuous
 62
     7
370
   211
100
AcDbMText
 10
227.4900346010838
 20
941.0120070699566
 30
0.0
 40
45.72
 41
150.0
 46
0.0
 71
     7
 72
     1
  1
{\fＭＳ ゴシック|b0|i0|c128|p49;1,194}
 73
     1
 44
1.0
  0
LINE
  5
10E
330
1F
100
AcDbEntity
  8
0-4_棚
  6
Continuous
 62
    92
370
    13
100
AcDbLine
 10
900.4900345080046
 20
-408.292859580898
 30
0.0
 11
-295.5099654919957
 21
-408.292859580898
 31
0.0
  0
LINE
  5
10F
330
1F
100
AcDbEntity
  8
0-1_本体
  6
Continuous
 62
    92
370
    13
100
AcDbLine
 10
501.490034601083
 20
-1169.292839785714
 30
0.0
 11
501.490034601083
 21
-408.292839785714
 31
0.0
  0
MTEXT
  5
110
330
1F
100
AcDbEntity
  8
0-B_寸法
  6
Continuous
 62
     7
370
   211
100
AcDbMText
 10
291.3093036384311
 20
-1159.432839785714
 30
0.0
 40
45.72
 41
60.0
 46
0.0
 71
     7
 72
     1
  1
{\fＭＳ ゴシック|b0|i0|c128|p49;64}
 11
6.123031769111886E-17
 21
1.0
 31
0.0
 73
     1
 44
1.0
  0
LINE
  5
111
330
1F
100
AcDbEntity
  8
0-B_寸法
  6
Continuous
 62
   120
370
     5
100
AcDbLine
 10
301.309303638431
 20
-1090.292839785714
 30
0.0
 11
298.3249543689629
 21
-1090.292839785714
 31
0.0
  0
LINE
  5
112
330
1F
100
AcDbEntity
  8
0-B_寸法
  6
Continuous
 62
   120
370
     5
100
AcDbLine
 10
301.309303638431
 20
-1154.292839785714
 30
0.0
 11
298.3249543689629
 21
-1154.292839785714
 31
0.0
  0
LWPOLYLINE
  5
113
330
1F
100
AcDbEntity
  8
0-B_寸法
  6
Continuous
 62
     7
370
     9
100
AcDbPolyline
 90
        4
 70
     1
 43
2.0
 10
302.3093036384311
 20
-1090.292839785714
 42
0.4142135623731
 10
301.309303638431
 20
-1089.292839785714
 42
0.4142135623731
 10
300.309303638431
 20
-1090.292839785714
 42
0.4142135623731
 10
301.309303638431
 20
-1091.292839785714
 42
0.4142135623731
  0
LWPOLYLINE
  5
114
330
1F
100
AcDbEntity
  8
0-B_寸法
  6
Continuous
 62
     7
370
     9
100
AcDbPolyline
 90
        4
 70
     1
 43
2.0
 10
302.3093036384311
 20
-1154.292839785714
 42
0.4142135623731
 10
301.309303638431
 20
-1153.292839785714
 42
0.4142135623731
 10
300.309303638431
 20
-1154.292839785714
 42
0.4142135623731
 10
301.309303638431
 20
-1155.292839785714
 42
0.4142135623731
  0
LINE
  5
115
330
1F
100
AcDbEntity
  8
0-B_寸法
  6
Continuous
 62
   120
370
     5
100
AcDbLine
 10
301.309303638431
 20
-1154.292839785714
 30
0.0
 11
301.309303638431
 21
-1090.292839785714
 31
0.0
  0
MTEXT
  5
116
330
1F
100
AcDbEntity
  8
0-B_寸法
  6
Continuous
 62
     7
370
   211
100
AcDbMText
 10
291.3093036384311
 20
-492.4328397857144
 30
0.0
 40
45.72
 41
60.0
 46
0.0
 71
     7
 72
     1
  1
{\fＭＳ ゴシック|b0|i0|c128|p49;64}
 11
6.123031769111886E-17
 21
1.0
 31
0.0
 73
     1
 44
1.0
  0
LINE
  5
117
330
1F
100
AcDbEntity
  8
0-B_寸法
  6
Continuous
 62
   120
370
     5
100
AcDbLine
 10
301.309303638431
 20
-423.2928397857145
 30
0.0
 11
298.3249543689629
 21
-423.2928397857145
 31
0.0
  0
LINE
  5
118
330
1F
100
AcDbEntity
  8
0-B_寸法
  6
Continuous
 62
   120
370
     5
100
AcDbLine
 10
301.309303638431
 20
-487.292839785714
 30
0.0
 11
298.3249543689629
 21
-487.292839785714
 31
0.0
  0
LWPOLYLINE
  5
119
330
1F
100
AcDbEntity
  8
0-B_寸法
  6
Continuous
 62
     7
370
     9
100
AcDbPolyline
 90
        4
 70
     1
 43
2.0
 10
302.3093036384311
 20
-423.2928397857145
 42
0.4142135623731
 10
301.309303638431
 20
-422.2928397857145
 42
0.4142135623731
 10
300.309303638431
 20
-423.2928397857145
 42
0.4142135623731
 10
301.309303638431
 20
-424.2928397857145
 42
0.4142135623731
  0
LWPOLYLINE
  5
11A
330
1F
100
AcDbEntity
  8
0-B_寸法
  6
Continuous
 62
     7
370
     9
100
AcDbPolyline
 90
        4
 70
     1
 43
2.0
 10
302.3093036384311
 20
-487.292839785714
 42
0.4142135623731
 10
301.309303638431
 20
-486.292839785714
 42
0.4142135623731
 10
300.309303638431
 20
-487.292839785714
 42
0.4142135623731
 10
301.309303638431
 20
-488.292839785714
 42
0.4142135623731
  0
LINE
  5
11B
330
1F
100
AcDbEntity
  8
0-B_寸法
  6
Continuous
 62
   120
370
     5
100
AcDbLine
 10
301.309303638431
 20
-487.292839785714
 30
0.0
 11
301.309303638431
 21
-423.2928397857145
 31
0.0
  0
MTEXT
  5
11C
330
1F
100
AcDbEntity
  8
0-B_寸法
  6
Continuous
 62
     7
370
   211
100
AcDbMText
 10
663.1804256904638
 20
-1159.432839785714
 30
0.0
 40
45.72
 41
60.0
 46
0.0
 71
     7
 72
     1
  1
{\fＭＳ ゴシック|b0|i0|c128|p49;64}
 11
6.123031769111886E-17
 21
1.0
 31
0.0
 73
     1
 44
1.0
  0
LINE
  5
11D
330
1F
100
AcDbEntity
  8
0-B_寸法
  6
Continuous
 62
   120
370
     5
100
AcDbLine
 10
673.1804256904638
 20
-1154.292839785714
 30
0.0
 11
673.1804256904638
 21
-1090.292839785714
 31
0.0
  0
LWPOLYLINE
  5
11E
330
1F
100
AcDbEntity
  8
0-B_寸法
  6
Continuous
 62
     7
370
     9
100
AcDbPolyline
 90
        4
 70
     1
 43
2.0
 10
674.1804256904638
 20
-1090.292839785714
 42
0.4142135623731
 10
673.1804256904638
 20
-1089.292839785714
 42
0.4142135623731
 10
672.1804256904638
 20
-1090.292839785714
 42
0.4142135623731
 10
673.1804256904638
 20
-1091.292839785714
 42
0.4142135623731
  0
LINE
  5
11F
330
1F
100
AcDbEntity
  8
0-B_寸法
  6
Continuous
 62
   120
370
     5
100
AcDbLine
 10
673.1804256904638
 20
-1090.292839785714
 30
0.0
 11
670.1960764209952
 21
-1090.292839785714
 31
0.0
  0
LWPOLYLINE
  5
120
330
1F
100
AcDbEntity
  8
0-B_寸法
  6
Continuous
 62
     7
370
     9
100
AcDbPolyline
 90
        4
 70
     1
 43
2.0
 10
674.1804256904638
 20
-1154.292839785714
 42
0.4142135623731
 10
673.1804256904638
 20
-1153.292839785714
 42
0.4142135623731
 10
672.1804256904638
 20
-1154.292839785714
 42
0.4142135623731
 10
673.1804256904638
 20
-1155.292839785714
 42
0.4142135623731
  0
LINE
  5
121
330
1F
100
AcDbEntity
  8
0-B_寸法
  6
Continuous
 62
   120
370
     5
100
AcDbLine
 10
673.1804256904638
 20
-1154.292839785714
 30
0.0
 11
670.1960764209952
 21
-1154.292839785714
 31
0.0
  0
MTEXT
  5
122
330
1F
100
AcDbEntity
  8
0-B_寸法
  6
Continuous
 62
     7
370
   211
100
AcDbMText
 10
663.1804256904638
 20
-492.4328397857144
 30
0.0
 40
45.72
 41
60.0
 46
0.0
 71
     7
 72
     1
  1
{\fＭＳ ゴシック|b0|i0|c128|p49;64}
 11
6.123031769111886E-17
 21
1.0
 31
0.0
 73
     1
 44
1.0
  0
LINE
  5
123
330
1F
100
AcDbEntity
  8
0-B_寸法
  6
Continuous
 62
   120
370
     5
100
AcDbLine
 10
673.1804256904638
 20
-487.2928397857149
 30
0.0
 11
673.1804256904638
 21
-423.2928397857145
 31
0.0
  0
LWPOLYLINE
  5
124
330
1F
100
AcDbEntity
  8
0-B_寸法
  6
Continuous
 62
     7
370
     9
100
AcDbPolyline
 90
        4
 70
     1
 43
2.0
 10
674.1804256904638
 20
-423.2928397857145
 42
0.4142135623731
 10
673.1804256904638
 20
-422.2928397857145
 42
0.4142135623731
 10
672.1804256904638
 20
-423.2928397857145
 42
0.4142135623731
 10
673.1804256904638
 20
-424.2928397857145
 42
0.4142135623731
  0
LINE
  5
125
330
1F
100
AcDbEntity
  8
0-B_寸法
  6
Continuous
 62
   120
370
     5
100
AcDbLine
 10
673.1804256904638
 20
-423.2928397857145
 30
0.0
 11
670.1960764209952
 21
-423.2928397857145
 31
0.0
  0
LWPOLYLINE
  5
126
330
1F
100
AcDbEntity
  8
0-B_寸法
  6
Continuous
 62
     7
370
     9
100
AcDbPolyline
 90
        4
 70
     1
 43
2.0
 10
674.1804256904638
 20
-487.2928397857149
 42
0.4142135623731
 10
673.1804256904638
 20
-486.2928397857149
 42
0.4142135623731
 10
672.1804256904638
 20
-487.2928397857149
 42
0.4142135623731
 10
673.1804256904638
 20
-488.2928397857149
 42
0.4142135623731
  0
LINE
  5
127
330
1F
100
AcDbEntity
  8
0-B_寸法
  6
Continuous
 62
   120
370
     5
100
AcDbLine
 10
673.1804256904638
 20
-487.2928397857149
 30
0.0
 11
670.1960764209952
 21
-487.2928397857149
 31
0.0
  0
LINE
  5
128
330
1F
100
AcDbEntity
  8
0-3_扉仕上
  6
JWW_CENTER1
 62
     7
370
     9
100
AcDbLine
 10
-2388.509965398911
 20
-411.2928397857158
 30
0.0
 11
-1994.509965398913
 21
-788.7928496833078
 31
0.0
  0
LINE
  5
129
330
1F
100
AcDbEntity
  8
0-3_扉仕上
  6
JWW_CENTER1
 62
     7
370
     9
100
AcDbLine
 10
-1994.509965398913
 20
-788.7928496833078
 30
0.0
 11
-2388.509965398911
 21
-1166.292859580901
 31
0.0
  0
LINE
  5
12A
330
1F
100
AcDbEntity
  8
0-3_扉仕上
  6
JWW_CENTER1
 62
     7
370
     9
100
AcDbLine
 10
-2392.509965398912
 20
-411.2928397857158
 30
0.0
 11
-2786.509965398911
 21
-788.7928496833078
 31
0.0
  0
LINE
  5
12B
330
1F
100
AcDbEntity
  8
0-3_扉仕上
  6
JWW_CENTER1
 62
     7
370
     9
100
AcDbLine
 10
-2786.509965398911
 20
-788.7928496833078
 30
0.0
 11
-2392.509965398912
 21
-1166.292859580901
 31
0.0
  0
LINE
  5
12C
330
1F
100
AcDbEntity
  8
0-1_本体
  6
Continuous
 62
     7
370
     9
100
AcDbLine
 10
-1992.509965398913
 20
-1169.292859580901
 30
0.0
 11
-2788.509965398912
 21
-1169.292859580901
 31
0.0
  0
LINE
  5
12D
330
1F
100
AcDbEntity
  8
0-2_扉
  6
Continuous
 62
    92
370
    13
100
AcDbLine
 10
-2388.509965398911
 20
-1166.292859580901
 30
0.0
 11
-1994.509965398911
 21
-1166.292859580901
 31
0.0
  0
LINE
  5
12E
330
1F
100
AcDbEntity
  8
0-2_扉
  6
Continuous
 62
    92
370
    13
100
AcDbLine
 10
-2392.509965398912
 20
-1166.292859580901
 30
0.0
 11
-2786.509965398914
 21
-1166.292859580901
 31
0.0
  0
LINE
  5
12F
330
1F
100
AcDbEntity
  8
0-1_本体
  6
Continuous
 62
     7
370
     9
100
AcDbLine
 10
-2788.509965398912
 20
-1169.292859580901
 30
0.0
 11
-2788.509965398912
 21
-408.2928595809011
 31
0.0
  0
LINE
  5
130
330
1F
100
AcDbEntity
  8
0-2_扉
  6
Continuous
 62
    92
370
    13
100
AcDbLine
 10
-1994.509965398911
 20
-411.2930037440546
 30
0.0
 11
-1994.509965398911
 21
-1166.292859580901
 31
0.0
  0
LINE
  5
131
330
1F
100
AcDbEntity
  8
0-2_扉
  6
Continuous
 62
    92
370
    13
100
AcDbLine
 10
-2786.509965398914
 20
-411.2930037440546
 30
0.0
 11
-2786.509965398914
 21
-1166.292859580901
 31
0.0
  0
LINE
  5
132
330
1F
100
AcDbEntity
  8
0-2_扉
  6
Continuous
 62
    92
370
    13
100
AcDbLine
 10
-2392.509965398912
 20
-411.2930037440546
 30
0.0
 11
-2392.509965398912
 21
-1166.292859580901
 31
0.0
  0
LINE
  5
133
330
1F
100
AcDbEntity
  8
0-2_扉
  6
Continuous
 62
    92
370
    13
100
AcDbLine
 10
-2388.509965398911
 20
-411.2930037440546
 30
0.0
 11
-2388.509965398911
 21
-1166.292859580901
 31
0.0
  0
LINE
  5
134
330
1F
100
AcDbEntity
  8
0-2_扉
  6
Continuous
 62
    92
370
    13
100
AcDbLine
 10
-2392.509965398912
 20
-411.2930037440546
 30
0.0
 11
-2786.509965398914
 21
-411.2930037440546
 31
0.0
  0
LINE
  5
135
330
1F
100
AcDbEntity
  8
0-2_扉
  6
Continuous
 62
    92
370
    13
100
AcDbLine
 10
-2388.509965398911
 20
-411.2930037440546
 30
0.0
 11
-1994.509965398911
 21
-411.2930037440546
 31
0.0
  0
LINE
  5
136
330
1F
100
AcDbEntity
  8
0-0_補助線
  6
JWW_HOJO
 62
     7
370
     9
100
AcDbLine
 10
-2788.509965398912
 20
-1563.7928595809
 30
0.0
 11
-2788.509965398912
 21
-126.2928595809012
 31
0.0
  0
LINE
  5
137
330
1F
100
AcDbEntity
  8
0-0_補助線
  6
JWW_HOJO
 62
     7
370
     9
100
AcDbLine
 10
-1992.509965398913
 20
-126.2928595809012
 30
0.0
 11
-1992.509965398913
 21
-1563.7928595809
 31
0.0
  0
LINE
  5
138
330
1F
100
AcDbEntity
  8
0-3_扉仕上
  6
JWW_CENTER1
 62
     7
370
     9
100
AcDbLine
 10
-1990.509965398913
 20
-411.2928397857158
 30
0.0
 11
-1596.509965398915
 21
-788.7928496833078
 31
0.0
  0
LINE
  5
139
330
1F
100
AcDbEntity
  8
0-3_扉仕上
  6
JWW_CENTER1
 62
     7
370
     9
100
AcDbLine
 10
-1596.509965398915
 20
-788.7928496833078
 30
0.0
 11
-1990.509965398913
 21
-1166.292859580901
 31
0.0
  0
LINE
  5
13A
330
1F
100
AcDbEntity
  8
0-1_本体
  6
Continuous
 62
     7
370
     9
100
AcDbLine
 10
-1594.509965398914
 20
-1169.292859580901
 30
0.0
 11
-1992.509965398913
 21
-1169.292859580901
 31
0.0
  0
LINE
  5
13B
330
1F
100
AcDbEntity
  8
0-2_扉
  6
Continuous
 62
    92
370
    13
100
AcDbLine
 10
-1990.509965398913
 20
-1166.292859580901
 30
0.0
 11
-1596.509965398915
 21
-1166.292859580901
 31
0.0
  0
LINE
  5
13C
330
1F
100
AcDbEntity
  8
0-1_本体
  6
Continuous
 62
     7
370
     9
100
AcDbLine
 10
-1594.509965398914
 20
-408.2928595809011
 30
0.0
 11
-1594.509965398914
 21
-1169.292859580901
 31
0.0
  0
LINE
  5
13D
330
1F
100
AcDbEntity
  8
0-2_扉
  6
Continuous
 62
    92
370
    13
100
AcDbLine
 10
-1990.509965398913
 20
-411.2928397857158
 30
0.0
 11
-1990.509965398913
 21
-1166.292859580901
 31
0.0
  0
LINE
  5
13E
330
1F
100
AcDbEntity
  8
0-2_扉
  6
Continuous
 62
    92
370
    13
100
AcDbLine
 10
-1596.509965398915
 20
-411.2928397857158
 30
0.0
 11
-1596.509965398915
 21
-1166.292859580901
 31
0.0
  0
LINE
  5
13F
330
1F
100
AcDbEntity
  8
0-2_扉
  6
Continuous
 62
    92
370
    13
100
AcDbLine
 10
-1990.509965398913
 20
-411.2928397857158
 30
0.0
 11
-1596.509965398915
 21
-411.2928397857158
 31
0.0
  0
LINE
  5
140
330
1F
100
AcDbEntity
  8
0-0_補助線
  6
JWW_HOJO
 62
     7
370
     9
100
AcDbLine
 10
-1594.509965398914
 20
-126.2928595809012
 30
0.0
 11
-1594.509965398914
 21
-1563.7928595809
 31
0.0
  0
MTEXT
  5
141
330
1F
100
AcDbEntity
  8
0-B_寸法
  6
Continuous
 62
     7
370
   211
100
AcDbMText
 10
-2802.509965398912
 20
-223.4328725567516
 30
0.0
 40
45.72
 41
30.0
 46
0.0
 71
     7
 72
     1
  1
{\fＭＳ ゴシック|b0|i0|c128|p49;2}
 73
     1
 44
1.0
  0
MTEXT
  5
142
330
1F
100
AcDbEntity
  8
0-B_寸法
  6
Continuous
 62
     7
370
   211
100
AcDbMText
 10
-2724.509965398912
 20
-223.4328725567517
 30
0.0
 40
45.71999999999999
 41
270.0
 46
0.0
 71
     7
 72
     1
  1
{\fＭＳ ゴシック|b0|i0|c128|p49;ＤＷ＝394}
 73
     1
 44
1.0
  0
MTEXT
  5
143
330
1F
100
AcDbEntity
  8
0-B_寸法
  6
Continuous
 62
     7
370
   211
100
AcDbMText
 10
-2405.509965398911
 20
-223.4328725567516
 30
0.0
 40
45.72
 41
30.0
 46
0.0
 71
     7
 72
     1
  1
{\fＭＳ ゴシック|b0|i0|c128|p49;4}
 73
     1
 44
1.0
  0
MTEXT
  5
144
330
1F
100
AcDbEntity
  8
0-B_寸法
  6
Continuous
 62
     7
370
   211
100
AcDbMText
 10
-2326.509965398913
 20
-223.4328725567517
 30
0.0
 40
45.71999999999999
 41
270.0
 46
0.0
 71
     7
 72
     1
  1
{\fＭＳ ゴシック|b0|i0|c128|p49;ＤＷ＝394}
 73
     1
 44
1.0
  0
MTEXT
  5
145
330
1F
100
AcDbEntity
  8
0-B_寸法
  6
Continuous
 62
     7
370
   211
100
AcDbMText
 10
-2029.509965398912
 20
-223.4328725567516
 30
0.0
 40
45.72
 41
30.0
 46
0.0
 71
     7
 72
     1
  1
{\fＭＳ ゴシック|b0|i0|c128|p49;2}
 73
     1
 44
1.0
  0
MTEXT
  5
146
330
1F
100
AcDbEntity
  8
0-B_寸法
  6
Continuous
 62
     7
370
   211
100
AcDbMText
 10
-1987.509965398909
 20
-223.4328725567462
 30
0.0
 40
45.72
 41
30.0
 46
0.0
 71
     7
 72
     1
  1
{\fＭＳ ゴシック|b0|i0|c128|p49;2}
 73
     1
 44
1.0
  0
MTEXT
  5
147
330
1F
100
AcDbEntity
  8
0-B_寸法
  6
Continuous
 62
     7
370
   211
100
AcDbMText
 10
-1928.509965398911
 20
-223.4328725567463
 30
0.0
 40
45.71999999999999
 41
270.0
 46
0.0
 71
     7
 72
     1
  1
{\fＭＳ ゴシック|b0|i0|c128|p49;ＤＷ＝394}
 73
     1
 44
1.0
  0
LINE
  5
148
330
1F
100
AcDbEntity
  8
0-B_寸法
  6
Continuous
 62
   120
370
     5
100
AcDbLine
 10
-1992.509965398909
 20
-226.2928725567463
 30
0.0
 11
-1992.509965398913
 21
-326.2928725567517
 31
0.0
  0
LWPOLYLINE
  5
149
330
1F
100
AcDbEntity
  8
0-B_寸法
  6
Continuous
 62
     7
370
     9
100
AcDbPolyline
 90
        4
 70
     1
 43
2.0
 10
-1991.509965398909
 20
-226.2928725567463
 42
0.4142135623731
 10
-1992.509965398909
 20
-225.2928725567463
 42
0.4142135623731
 10
-1993.509965398909
 20
-226.2928725567463
 42
0.4142135623731
 10
-1992.509965398909
 20
-227.2928725567463
 42
0.4142135623731
  0
LINE
  5
14A
330
1F
100
AcDbEntity
  8
0-B_寸法
  6
Continuous
 62
   120
370
     5
100
AcDbLine
 10
-1990.509965398911
 20
-226.2928725567463
 30
0.0
 11
-1992.509965398909
 21
-226.2928725567463
 31
0.0
  0
LINE
  5
14B
330
1F
100
AcDbEntity
  8
0-B_寸法
  6
Continuous
 62
   120
370
     5
100
AcDbLine
 10
-1990.509965398911
 20
-226.2928725567463
 30
0.0
 11
-1990.509965398911
 21
-326.2928725567463
 31
0.0
  0
LWPOLYLINE
  5
14C
330
1F
100
AcDbEntity
  8
0-B_寸法
  6
Continuous
 62
     7
370
     9
100
AcDbPolyline
 90
        4
 70
     1
 43
2.0
 10
-1989.509965398911
 20
-226.2928725567463
 42
0.4142135623731
 10
-1990.509965398911
 20
-225.2928725567463
 42
0.4142135623731
 10
-1991.509965398911
 20
-226.2928725567463
 42
0.4142135623731
 10
-1990.509965398911
 20
-227.2928725567463
 42
0.4142135623731
  0
LINE
  5
14D
330
1F
100
AcDbEntity
  8
0-B_寸法
  6
Continuous
 62
   120
370
     5
100
AcDbLine
 10
-1596.509965398909
 20
-226.2928725567463
 30
0.0
 11
-1990.509965398911
 21
-226.2928725567463
 31
0.0
  0
LINE
  5
14E
330
1F
100
AcDbEntity
  8
0-B_寸法
  6
Continuous
 62
   120
370
     5
100
AcDbLine
 10
-1596.509965398909
 20
-226.2928725567463
 30
0.0
 11
-1596.509965398909
 21
-326.2928725567463
 31
0.0
  0
LINE
  5
14F
330
1F
100
AcDbEntity
  8
0-B_寸法
  6
Continuous
 62
   120
370
     5
100
AcDbLine
 10
-1594.509965398911
 20
-226.2928725567463
 30
0.0
 11
-1594.509965398911
 21
-326.2928725567463
 31
0.0
  0
LWPOLYLINE
  5
150
330
1F
100
AcDbEntity
  8
0-B_寸法
  6
Continuous
 62
     7
370
     9
100
AcDbPolyline
 90
        4
 70
     1
 43
2.0
 10
-1595.509965398909
 20
-226.2928725567463
 42
0.4142135623731
 10
-1596.509965398909
 20
-225.2928725567463
 42
0.4142135623731
 10
-1597.509965398909
 20
-226.2928725567463
 42
0.4142135623731
 10
-1596.509965398909
 20
-227.2928725567463
 42
0.4142135623731
  0
LWPOLYLINE
  5
151
330
1F
100
AcDbEntity
  8
0-B_寸法
  6
Continuous
 62
     7
370
     9
100
AcDbPolyline
 90
        4
 70
     1
 43
2.0
 10
-1593.509965398911
 20
-226.2928725567463
 42
0.4142135623731
 10
-1594.509965398911
 20
-225.2928725567463
 42
0.4142135623731
 10
-1595.509965398911
 20
-226.2928725567463
 42
0.4142135623731
 10
-1594.509965398911
 20
-227.2928725567463
 42
0.4142135623731
  0
LINE
  5
152
330
1F
100
AcDbEntity
  8
0-B_寸法
  6
Continuous
 62
   120
370
     5
100
AcDbLine
 10
-1594.509965398911
 20
-226.2928725567463
 30
0.0
 11
-1596.509965398909
 21
-226.2928725567463
 31
0.0
  0
LINE
  5
153
330
1F
100
AcDbEntity
  8
0-B_寸法
  6
Continuous
 62
   120
370
     5
100
AcDbLine
 10
-1992.509965398913
 20
-226.2928725567517
 30
0.0
 11
-1994.509965398911
 21
-226.2928725567517
 31
0.0
  0
LWPOLYLINE
  5
154
330
1F
100
AcDbEntity
  8
0-B_寸法
  6
Continuous
 62
     7
370
     9
100
AcDbPolyline
 90
        4
 70
     1
 43
2.0
 10
-1993.509965398911
 20
-226.2928725567517
 42
0.4142135623731
 10
-1994.509965398911
 20
-225.2928725567517
 42
0.4142135623731
 10
-1995.509965398911
 20
-226.2928725567517
 42
0.4142135623731
 10
-1994.509965398911
 20
-227.2928725567517
 42
0.4142135623731
  0
LINE
  5
155
330
1F
100
AcDbEntity
  8
0-B_寸法
  6
Continuous
 62
   120
370
     5
100
AcDbLine
 10
-1994.509965398911
 20
-226.2928725567517
 30
0.0
 11
-1994.509965398911
 21
-326.2928725567517
 31
0.0
  0
LINE
  5
156
330
1F
100
AcDbEntity
  8
0-B_寸法
  6
Continuous
 62
   120
370
     5
100
AcDbLine
 10
-1994.509965398911
 20
-226.2928725567517
 30
0.0
 11
-2388.509965398911
 21
-226.2928725567517
 31
0.0
  0
LWPOLYLINE
  5
157
330
1F
100
AcDbEntity
  8
0-B_寸法
  6
Continuous
 62
     7
370
     9
100
AcDbPolyline
 90
        4
 70
     1
 43
2.0
 10
-2387.509965398911
 20
-226.2928725567517
 42
0.4142135623731
 10
-2388.509965398911
 20
-225.2928725567517
 42
0.4142135623731
 10
-2389.50996539891
 20
-226.2928725567517
 42
0.4142135623731
 10
-2388.509965398911
 20
-227.2928725567517
 42
0.4142135623731
  0
LINE
  5
158
330
1F
100
AcDbEntity
  8
0-B_寸法
  6
Continuous
 62
   120
370
     5
100
AcDbLine
 10
-2388.509965398911
 20
-226.2928725567517
 30
0.0
 11
-2388.509965398911
 21
-326.2928725567517
 31
0.0
  0
LINE
  5
159
330
1F
100
AcDbEntity
  8
0-B_寸法
  6
Continuous
 62
   120
370
     5
100
AcDbLine
 10
-2388.509965398911
 20
-226.2928725567517
 30
0.0
 11
-2392.509965398913
 21
-226.2928725567517
 31
0.0
  0
LWPOLYLINE
  5
15A
330
1F
100
AcDbEntity
  8
0-B_寸法
  6
Continuous
 62
     7
370
     9
100
AcDbPolyline
 90
        4
 70
     1
 43
2.0
 10
-2391.509965398913
 20
-226.2928725567517
 42
0.4142135623731
 10
-2392.509965398913
 20
-225.2928725567517
 42
0.4142135623731
 10
-2393.509965398913
 20
-226.2928725567517
 42
0.4142135623731
 10
-2392.509965398913
 20
-227.2928725567517
 42
0.4142135623731
  0
LINE
  5
15B
330
1F
100
AcDbEntity
  8
0-B_寸法
  6
Continuous
 62
   120
370
     5
100
AcDbLine
 10
-2392.509965398913
 20
-226.2928725567517
 30
0.0
 11
-2392.509965398913
 21
-326.2928725567517
 31
0.0
  0
LINE
  5
15C
330
1F
100
AcDbEntity
  8
0-B_寸法
  6
Continuous
 62
   120
370
     5
100
AcDbLine
 10
-2392.509965398913
 20
-226.2928725567517
 30
0.0
 11
-2786.509965398913
 21
-226.2928725567517
 31
0.0
  0
LWPOLYLINE
  5
15D
330
1F
100
AcDbEntity
  8
0-B_寸法
  6
Continuous
 62
     7
370
     9
100
AcDbPolyline
 90
        4
 70
     1
 43
2.0
 10
-2785.509965398912
 20
-226.2928725567517
 42
0.4142135623731
 10
-2786.509965398913
 20
-225.2928725567517
 42
0.4142135623731
 10
-2787.509965398913
 20
-226.2928725567517
 42
0.4142135623731
 10
-2786.509965398913
 20
-227.2928725567517
 42
0.4142135623731
  0
LINE
  5
15E
330
1F
100
AcDbEntity
  8
0-B_寸法
  6
Continuous
 62
   120
370
     5
100
AcDbLine
 10
-2786.509965398913
 20
-226.2928725567517
 30
0.0
 11
-2786.509965398913
 21
-326.2928725567517
 31
0.0
  0
LINE
  5
15F
330
1F
100
AcDbEntity
  8
0-B_寸法
  6
Continuous
 62
   120
370
     5
100
AcDbLine
 10
-2786.509965398913
 20
-226.2928725567517
 30
0.0
 11
-2788.509965398911
 21
-226.2928725567517
 31
0.0
  0
LWPOLYLINE
  5
160
330
1F
100
AcDbEntity
  8
0-B_寸法
  6
Continuous
 62
     7
370
     9
100
AcDbPolyline
 90
        4
 70
     1
 43
2.0
 10
-2787.50996539891
 20
-226.2928725567517
 42
0.4142135623731
 10
-2788.509965398911
 20
-225.2928725567517
 42
0.4142135623731
 10
-2789.509965398911
 20
-226.2928725567517
 42
0.4142135623731
 10
-2788.509965398911
 20
-227.2928725567517
 42
0.4142135623731
  0
LINE
  5
161
330
1F
100
AcDbEntity
  8
0-B_寸法
  6
Continuous
 62
   120
370
     5
100
AcDbLine
 10
-2788.509965398911
 20
-226.2928725567517
 30
0.0
 11
-2788.509965398911
 21
-326.2928725567517
 31
0.0
  0
MTEXT
  5
162
330
1F
100
AcDbEntity
  8
0-B_寸法
  6
Continuous
 62
     7
370
   211
100
AcDbMText
 10
-1610.509965398911
 20
-223.4328725567462
 30
0.0
 40
45.72
 41
30.0
 46
0.0
 71
     7
 72
     1
  1
{\fＭＳ ゴシック|b0|i0|c128|p49;2}
 73
     1
 44
1.0
  0
LINE
  5
163
330
1F
100
AcDbEntity
  8
0-4_棚
  6
Continuous
 62
    92
370
    13
100
AcDbLine
 10
-1593.509965491991
 20
-408.2928793760851
 30
0.0
 11
-2789.509965491989
 21
-408.2928793760851
 31
0.0
  0
LINE
  5
164
330
1F
100
AcDbEntity
  8
0-1_本体
  6
Continuous
 62
     7
370
     9
100
AcDbLine
 10
-1992.509965398913
 20
-1169.292859580901
 30
0.0
 11
-1992.509965398913
 21
-408.2928595809011
 31
0.0
  0
LINE
  5
165
330
1F
100
AcDbEntity
  8
0-0_補助線
  6
JWW_HOJO
 62
   120
370
     5
100
AcDbLine
 10
1849.49003455454
 20
-326.2928991712729
 30
0.0
 11
2916.490034461465
 21
-326.2928991712729
 31
0.0
  0
LINE
  5
166
330
1F
100
AcDbEntity
  8
0-A_文字
  6
Continuous
 62
     7
370
     9
100
AcDbLine
 10
-2616.509965398915
 20
-1783.292859580908
 30
0.0
 11
-2616.509965398915
 21
-1633.292859580909
 31
0.0
  0
LINE
  5
167
330
1F
100
AcDbEntity
  8
0-A_文字
  6
Continuous
 62
     7
370
     9
100
AcDbLine
 10
-1766.509965398913
 20
-1783.292859580908
 30
0.0
 11
-2616.509965398915
 21
-1783.292859580908
 31
0.0
  0
LINE
  5
168
330
1F
100
AcDbEntity
  8
0-A_文字
  6
Continuous
 62
     7
370
     9
100
AcDbLine
 10
-1766.509965398913
 20
-1633.292859580909
 30
0.0
 11
-1766.509965398913
 21
-1783.292859580908
 31
0.0
  0
LINE
  5
169
330
1F
100
AcDbEntity
  8
0-A_文字
  6
Continuous
 62
     7
370
     9
100
AcDbLine
 10
-2616.509965398915
 20
-1633.292859580909
 30
0.0
 11
-1766.509965398913
 21
-1633.292859580909
 31
0.0
  0
MTEXT
  5
16A
330
1F
100
AcDbEntity
  8
0-A_文字
  6
Continuous
 62
     7
370
     9
100
AcDbMText
 10
-1524.509965398906
 20
-1240.432859580909
 30
0.0
 40
45.72
 41
180.0
 46
0.0
 71
     7
 72
     1
  1
{\fＭＳ ゴシック|b0|i0|c128|p49;▽床面}
 73
     1
 44
1.0
  0
LINE
  5
16B
330
1F
100
AcDbEntity
  8
0-3_扉仕上
  6
Continuous
 62
     7
370
     9
100
AcDbLine
 10
-2788.509965398913
 20
-1233.292859580908
 30
0.0
 11
-1344.509965398906
 21
-1233.292859580908
 31
0.0
  0
LINE
  5
16C
330
1F
100
AcDbEntity
  8
0-A_文字
  6
Continuous
 62
     7
370
     9
100
AcDbLine
 10
-122.5099653989122
 20
-1783.292826809859
 30
0.0
 11
-122.5099653989122
 21
-1633.292826809859
 31
0.0
  0
LINE
  5
16D
330
1F
100
AcDbEntity
  8
0-A_文字
  6
Continuous
 62
     7
370
     9
100
AcDbLine
 10
727.4900346010867
 20
-1783.292826809859
 30
0.0
 11
-122.5099653989122
 21
-1783.292826809859
 31
0.0
  0
LINE
  5
16E
330
1F
100
AcDbEntity
  8
0-A_文字
  6
Continuous
 62
     7
370
     9
100
AcDbLine
 10
727.4900346010867
 20
-1633.292826809859
 30
0.0
 11
727.4900346010867
 21
-1783.292826809859
 31
0.0
  0
LINE
  5
16F
330
1F
100
AcDbEntity
  8
0-A_文字
  6
Continuous
 62
     7
370
     9
100
AcDbLine
 10
-122.5099653989122
 20
-1633.292826809859
 30
0.0
 11
727.4900346010867
 21
-1633.292826809859
 31
0.0
  0
MTEXT
  5
170
330
1F
100
AcDbEntity
  8
0-A_文字
  6
Continuous
 62
     7
370
     9
100
AcDbMText
 10
-2.509965398911618
 20
-1776.646160143192
 30
0.0
 40
103.2933333333334
 41
610.0
 46
0.0
 71
     7
 72
     1
  1
{\fＭＳ ゴシック|b0|i0|c128|p49;ｷｬﾋﾞﾈｯﾄ図}
 73
     1
 44
1.0
  0
MTEXT
  5
171
330
1F
100
AcDbEntity
  8
0-B_寸法
  6
Continuous
 62
     7
370
   211
100
AcDbMText
 10
2906.49003455454
 20
-1213.932839785712
 30
0.0
 40
45.72
 41
90.0
 46
0.0
 71
     7
 72
     1
  1
{\fＭＳ ゴシック|b0|i0|c128|p49;143}
 11
6.123031769111886E-17
 21
1.0
 31
0.0
 73
     1
 44
1.0
  0
LINE
  5
172
330
1F
100
AcDbEntity
  8
0-B_寸法
  6
Continuous
 62
   120
370
     5
100
AcDbLine
 10
2916.49003455454
 20
-1233.292839785711
 30
0.0
 11
2916.49003455454
 21
-1090.292839785711
 31
0.0
  0
LWPOLYLINE
  5
173
330
1F
100
AcDbEntity
  8
0-B_寸法
  6
Continuous
 62
     7
370
     9
100
AcDbPolyline
 90
        4
 70
     1
 43
2.0
 10
2917.49003455454
 20
-1233.292839785711
 42
0.4142135623731
 10
2916.49003455454
 20
-1232.292839785711
 42
0.4142135623731
 10
2915.49003455454
 20
-1233.292839785711
 42
0.4142135623731
 10
2916.49003455454
 20
-1234.292839785711
 42
0.4142135623731
  0
LINE
  5
174
330
1F
100
AcDbEntity
  8
0-B_寸法
  6
Continuous
 62
   120
370
     5
100
AcDbLine
 10
2916.49003455454
 20
-1233.292839785711
 30
0.0
 11
2816.490034554538
 21
-1233.292839785711
 31
0.0
  0
LINE
  5
175
330
1F
100
AcDbEntity
  8
0-B_寸法
  6
Continuous
 62
   120
370
     5
100
AcDbLine
 10
2916.49003455454
 20
-1090.292839785711
 30
0.0
 11
2816.490034554538
 21
-1090.292839785711
 31
0.0
  0
LWPOLYLINE
  5
176
330
1F
100
AcDbEntity
  8
0-B_寸法
  6
Continuous
 62
     7
370
     9
100
AcDbPolyline
 90
        4
 70
     1
 43
2.0
 10
2917.490034461463
 20
-1090.292839785711
 42
0.4142135623731
 10
2916.490034461463
 20
-1089.292839785711
 42
0.4142135623731
 10
2915.490034461463
 20
-1090.292839785711
 42
0.4142135623731
 10
2916.490034461463
 20
-1091.292839785711
 42
0.4142135623731
  0
MTEXT
  5
177
330
1F
100
AcDbEntity
  8
0-A_文字
  6
Continuous
 62
     7
370
   211
100
AcDbMText
 10
1587.989938761461
 20
-1968.382696824706
 30
0.0
 40
45.72000000000001
 41
1890.0
 46
0.0
 71
     7
 72
     1
  1
{\fＭＳ ゴシック|b0|i0|c128|p49;※下地用の木桟木は105m/m×30m/m以上の堅い木を使用してください。}
 73
     1
 44
1.0
  0
MTEXT
  5
178
330
1F
100
AcDbEntity
  8
0-A_文字
  6
Continuous
 62
     7
370
   211
100
AcDbMText
 10
1587.989938761467
 20
-1894.247246910536
 30
0.0
 40
45.7199999999992
 41
1049.999999999982
 46
0.0
 71
     7
 72
     1
  1
{\fＭＳ ゴシック|b0|i0|c128|p49;※棚板は可動式32m/mピッチで調整可能}
 73
     1
 44
1.0
  0
MTEXT
  5
179
330
1F
100
AcDbEntity
  8
0-A_文字
  6
Continuous
 62
     7
370
     9
100
AcDbMText
 10
2082.989938761465
 20
-1779.307125499992
 30
0.0
 40
97.97142857142858
 41
900.0
 46
0.0
 71
     7
 72
     1
  1
{\fＭＳ ゴシック|b0|i0|c128|p49;Ａ－Ａ’断面図}
 73
     1
 44
1.0
  0
LINE
  5
17A
330
1F
100
AcDbEntity
  8
0-A_文字
  6
Continuous
 62
     7
370
     9
100
AcDbLine
 10
3052.989938761465
 20
-1783.292839785706
 30
0.0
 11
2012.989938761465
 21
-1783.292839785706
 31
0.0
  0
LINE
  5
17B
330
1F
100
AcDbEntity
  8
0-A_文字
  6
Continuous
 62
     7
370
     9
100
AcDbLine
 10
2012.989938761465
 20
-1633.292839785706
 30
0.0
 11
3052.989938761465
 21
-1633.292839785706
 31
0.0
  0
LINE
  5
17C
330
1F
100
AcDbEntity
  8
0-A_文字
  6
Continuous
 62
     7
370
     9
100
AcDbLine
 10
2012.989938761465
 20
-1633.292839785706
 30
0.0
 11
2012.989938761465
 21
-1783.292839785706
 31
0.0
  0
LINE
  5
17D
330
1F
100
AcDbEntity
  8
0-A_文字
  6
Continuous
 62
     7
370
     9
100
AcDbLine
 10
3052.989938761465
 20
-1633.292839785706
 30
0.0
 11
3052.989938761465
 21
-1783.292839785706
 31
0.0
  0
LINE
  5
17E
330
1F
100
AcDbEntity
  8
0-A_文字
  6
JWW_CENTER1
 62
     7
370
     9
100
AcDbLine
 10
-2788.509965398912
 20
-1233.292839785714
 30
0.0
 11
2766.490034554538
 21
-1233.292839785714
 31
0.0
  0
LINE
  5
17F
330
1F
100
AcDbEntity
  8
0-B_寸法
  6
JWW_DASHED2
 62
   120
370
     5
100
AcDbLine
 10
2766.490034461463
 20
-1090.292839785714
 30
0.0
 11
-2788.509965398912
 21
-1090.292839785714
 31
0.0
  0
LINE
  5
180
330
1F
100
AcDbEntity
  8
0-B_寸法
  6
JWW_DASHED2
 62
   120
370
     5
100
AcDbLine
 10
2766.490034461463
 20
-1233.292839785711
 30
0.0
 11
-2788.509965398912
 21
-1233.292839785711
 31
0.0
  0
LINE
  5
181
330
1F
100
AcDbEntity
  8
0-B_寸法
  6
JWW_HOJO
 62
   120
370
     5
100
AcDbLine
 10
-3038.509965398912
 20
-1283.292839785714
 30
0.0
 11
2916.490034461463
 21
-1283.292839785714
 31
0.0
  0
LINE
  5
182
330
1F
100
AcDbEntity
  8
0-B_寸法
  6
JWW_HOJO
 62
   120
370
     5
100
AcDbLine
 10
-3038.509965398912
 20
-1483.292839785714
 30
0.0
 11
2916.490034461463
 21
-1483.292839785714
 31
0.0
  0
LINE
  5
183
330
1F
100
AcDbEntity
  8
0-B_寸法
  6
JWW_HOJO
 62
   120
370
     5
100
AcDbLine
 10
-3038.509965398912
 20
-1383.292839785714
 30
0.0
 11
2916.490034461463
 21
-1383.292839785714
 31
0.0
  0
LINE
  5
184
330
1F
100
AcDbEntity
  8
0-B_寸法
  6
Continuous
 62
   120
370
     5
100
AcDbLine
 10
-544.5099653989157
 20
-1233.292826809859
 30
0.0
 11
-344.509965398918
 21
-1233.292826809859
 31
0.0
  0
LINE
  5
185
330
1F
100
AcDbEntity
  8
0-B_寸法
  6
Continuous
 62
   120
370
     5
100
AcDbLine
 10
-544.5099653989157
 20
-1169.292826809859
 30
0.0
 11
-344.509965398918
 21
-1169.292826809859
 31
0.0
  0
LWPOLYLINE
  5
186
330
1F
100
AcDbEntity
  8
0-B_寸法
  6
Continuous
 62
     7
370
     9
100
AcDbPolyline
 90
        4
 70
     1
 43
2.0
 10
-543.5099653989157
 20
-1233.292826809859
 42
0.4142135623731
 10
-544.5099653989157
 20
-1232.292826809859
 42
0.4142135623731
 10
-545.5099653989158
 20
-1233.292826809859
 42
0.4142135623731
 10
-544.5099653989157
 20
-1234.292826809859
 42
0.4142135623731
  0
LWPOLYLINE
  5
187
330
1F
100
AcDbEntity
  8
0-B_寸法
  6
Continuous
 62
     7
370
     9
100
AcDbPolyline
 90
        4
 70
     1
 43
2.0
 10
-543.5099653989157
 20
-1169.292826809859
 42
0.4142135623731
 10
-544.5099653989157
 20
-1168.292826809859
 42
0.4142135623731
 10
-545.5099653989158
 20
-1169.292826809859
 42
0.4142135623731
 10
-544.5099653989157
 20
-1170.292826809859
 42
0.4142135623731
  0
LINE
  5
188
330
1F
100
AcDbEntity
  8
0-B_寸法
  6
Continuous
 62
   120
370
     5
100
AcDbLine
 10
-544.5099653989157
 20
-1169.292826809859
 30
0.0
 11
-544.5099653989157
 21
-1233.292826809859
 31
0.0
  0
MTEXT
  5
189
330
1F
100
AcDbEntity
  8
0-B_寸法
  6
Continuous
 62
     7
370
   211
100
AcDbMText
 10
-554.5099653989203
 20
-1238.43282680986
 30
0.0
 40
45.72
 41
60.0
 46
0.0
 71
     7
 72
     1
  1
{\fＭＳ ゴシック|b0|i0|c128|p49;64}
 11
6.123031769111886E-17
 21
1.0
 31
0.0
 73
     1
 44
1.0
  0
MTEXT
  5
18A
330
1F
100
AcDbEntity
  8
0-B_寸法
  6
Continuous
 62
     7
370
   211
100
AcDbMText
 10
-354.1667158739708
 20
-1380.432826809843
 30
0.0
 40
45.72
 41
60.0
 46
0.0
 71
     7
 72
     1
  1
{\fＭＳ ゴシック|b0|i0|c128|p49;15}
 73
     1
 44
1.0
  0
MTEXT
  5
18B
330
1F
100
AcDbEntity
  8
0-B_寸法
  6
Continuous
 62
     7
370
   211
100
AcDbMText
 10
58.49003460108666
 20
-1380.432826809843
 30
0.0
 40
45.72
 41
90.0
 46
0.0
 71
     7
 72
     1
  1
{\fＭＳ ゴシック|b0|i0|c128|p49;766}
 73
     1
 44
1.0
  0
MTEXT
  5
18C
330
1F
100
AcDbEntity
  8
0-B_寸法
  6
Continuous
 62
     7
370
   211
100
AcDbMText
 10
421.4900346010884
 20
-1380.432826809843
 30
0.0
 40
45.72
 41
60.0
 46
0.0
 71
     7
 72
     1
  1
{\fＭＳ ゴシック|b0|i0|c128|p49;15}
 73
     1
 44
1.0
  0
MTEXT
  5
18D
330
1F
100
AcDbEntity
  8
0-B_寸法
  6
Continuous
 62
     7
370
   211
100
AcDbMText
 10
521.4900346010902
 20
-1380.432826809843
 30
0.0
 40
45.72
 41
60.0
 46
0.0
 71
     7
 72
     1
  1
{\fＭＳ ゴシック|b0|i0|c128|p49;15}
 73
     1
 44
1.0
  0
MTEXT
  5
18E
330
1F
100
AcDbEntity
  8
0-B_寸法
  6
Continuous
 62
     7
370
   211
100
AcDbMText
 10
655.4900346010911
 20
-1380.432826809843
 30
0.0
 40
45.72
 41
90.0
 46
0.0
 71
     7
 72
     1
  1
{\fＭＳ ゴシック|b0|i0|c128|p49;368}
 73
     1
 44
1.0
  0
MTEXT
  5
18F
330
1F
100
AcDbEntity
  8
0-B_寸法
  6
Continuous
 62
     7
370
   211
100
AcDbMText
 10
911.2390905259097
 20
-1380.432826809843
 30
0.0
 40
45.72
 41
60.0
 46
0.0
 71
     7
 72
     1
  1
{\fＭＳ ゴシック|b0|i0|c128|p49;15}
 73
     1
 44
1.0
  0
MTEXT
  5
190
330
1F
100
AcDbEntity
  8
0-B_寸法
  6
Continuous
 62
     7
370
   211
100
AcDbMText
 10
58.49003460108666
 20
-1480.432826809843
 30
0.0
 40
45.72
 41
90.0
 46
0.0
 71
     7
 72
     1
  1
{\fＭＳ ゴシック|b0|i0|c128|p49;796}
 73
     1
 44
1.0
  0
MTEXT
  5
191
330
1F
100
AcDbEntity
  8
0-B_寸法
  6
Continuous
 62
     7
370
   211
100
AcDbMText
 10
655.4900346010911
 20
-1480.432826809843
 30
0.0
 40
45.72
 41
90.0
 46
0.0
 71
     7
 72
     1
  1
{\fＭＳ ゴシック|b0|i0|c128|p49;398}
 73
     1
 44
1.0
  0
LINE
  5
192
330
1F
100
AcDbEntity
  8
0-B_寸法
  6
Continuous
 62
   120
370
     5
100
AcDbLine
 10
501.4900346010896
 20
-1383.292826809843
 30
0.0
 11
-294.5099653989136
 21
-1383.292826809843
 31
0.0
  0
LWPOLYLINE
  5
193
330
1F
100
AcDbEntity
  8
0-B_寸法
  6
Continuous
 62
     7
370
     9
100
AcDbPolyline
 90
        4
 70
     1
 43
2.0
 10
487.4900346010896
 20
-1383.292826809843
 42
0.4142135623731
 10
486.4900346010896
 20
-1382.292826809843
 42
0.4142135623731
 10
485.4900346010896
 20
-1383.292826809843
 42
0.4142135623731
 10
486.4900346010896
 20
-1384.292826809843
 42
0.4142135623731
  0
LINE
  5
194
330
1F
100
AcDbEntity
  8
0-B_寸法
  6
Continuous
 62
   120
370
     5
100
AcDbLine
 10
486.4900346010896
 20
-1383.292826809843
 30
0.0
 11
486.4900346010896
 21
-1283.292826809843
 31
0.0
  0
LWPOLYLINE
  5
195
330
1F
100
AcDbEntity
  8
0-B_寸法
  6
Continuous
 62
     7
370
     9
100
AcDbPolyline
 90
        4
 70
     1
 43
2.0
 10
-278.5099653989136
 20
-1383.292826809843
 42
0.4142135623731
 10
-279.5099653989136
 20
-1382.292826809843
 42
0.4142135623731
 10
-280.5099653989136
 20
-1383.292826809843
 42
0.4142135623731
 10
-279.5099653989136
 20
-1384.292826809843
 42
0.4142135623731
  0
LINE
  5
196
330
1F
100
AcDbEntity
  8
0-B_寸法
  6
Continuous
 62
   120
370
     5
100
AcDbLine
 10
-279.5099653989136
 20
-1383.292826809843
 30
0.0
 11
-279.5099653989136
 21
-1283.292826809843
 31
0.0
  0
LWPOLYLINE
  5
197
330
1F
100
AcDbEntity
  8
0-B_寸法
  6
Continuous
 62
     7
370
     9
100
AcDbPolyline
 90
        4
 70
     1
 43
2.0
 10
-293.5099653989136
 20
-1383.292826809843
 42
0.4142135623731
 10
-294.5099653989136
 20
-1382.292826809843
 42
0.4142135623731
 10
-295.5099653989136
 20
-1383.292826809843
 42
0.4142135623731
 10
-294.5099653989136
 20
-1384.292826809843
 42
0.4142135623731
  0
LINE
  5
198
330
1F
100
AcDbEntity
  8
0-B_寸法
  6
Continuous
 62
   120
370
     5
100
AcDbLine
 10
-294.5099653989136
 20
-1483.292826809843
 30
0.0
 11
-294.5099653989136
 21
-1283.292826809843
 31
0.0
  0
LINE
  5
199
330
1F
100
AcDbEntity
  8
0-B_寸法
  6
Continuous
 62
   120
370
     5
100
AcDbLine
 10
501.4900346010896
 20
-1483.292826809843
 30
0.0
 11
-294.5099653989136
 21
-1483.292826809843
 31
0.0
  0
LWPOLYLINE
  5
19A
330
1F
100
AcDbEntity
  8
0-B_寸法
  6
Continuous
 62
     7
370
     9
100
AcDbPolyline
 90
        4
 70
     1
 43
2.0
 10
-293.5099653989136
 20
-1483.292826809843
 42
0.4142135623731
 10
-294.5099653989136
 20
-1482.292826809843
 42
0.4142135623731
 10
-295.5099653989136
 20
-1483.292826809843
 42
0.4142135623731
 10
-294.5099653989136
 20
-1484.292826809842
 42
0.4142135623731
  0
LINE
  5
19B
330
1F
100
AcDbEntity
  8
0-B_寸法
  6
Continuous
 62
   120
370
     5
100
AcDbLine
 10
899.4900346010905
 20
-1383.292826809843
 30
0.0
 11
884.4900346010905
 21
-1383.292826809843
 31
0.0
  0
LWPOLYLINE
  5
19C
330
1F
100
AcDbEntity
  8
0-B_寸法
  6
Continuous
 62
     7
370
     9
100
AcDbPolyline
 90
        4
 70
     1
 43
2.0
 10
900.4900346010904
 20
-1383.292826809843
 42
0.4142135623731
 10
899.4900346010905
 20
-1382.292826809843
 42
0.4142135623731
 10
898.4900346010907
 20
-1383.292826809843
 42
0.4142135623731
 10
899.4900346010905
 20
-1384.292826809843
 42
0.4142135623731
  0
LWPOLYLINE
  5
19D
330
1F
100
AcDbEntity
  8
0-B_寸法
  6
Continuous
 62
     7
370
     9
100
AcDbPolyline
 90
        4
 70
     1
 43
2.0
 10
885.4900346010904
 20
-1383.292826809843
 42
0.4142135623731
 10
884.4900346010905
 20
-1382.292826809843
 42
0.4142135623731
 10
883.4900346010907
 20
-1383.292826809843
 42
0.4142135623731
 10
884.4900346010905
 20
-1384.292826809843
 42
0.4142135623731
  0
LINE
  5
19E
330
1F
100
AcDbEntity
  8
0-B_寸法
  6
Continuous
 62
   120
370
     5
100
AcDbLine
 10
884.4900346010905
 20
-1383.292826809843
 30
0.0
 11
884.4900346010905
 21
-1283.292826809843
 31
0.0
  0
LINE
  5
19F
330
1F
100
AcDbEntity
  8
0-B_寸法
  6
Continuous
 62
   120
370
     5
100
AcDbLine
 10
884.4900346010905
 20
-1383.292826809843
 30
0.0
 11
516.4900346010895
 21
-1383.292826809843
 31
0.0
  0
LWPOLYLINE
  5
1A0
330
1F
100
AcDbEntity
  8
0-B_寸法
  6
Continuous
 62
     7
370
     9
100
AcDbPolyline
 90
        4
 70
     1
 43
2.0
 10
517.4900346010896
 20
-1383.292826809843
 42
0.4142135623731
 10
516.4900346010895
 20
-1382.292826809843
 42
0.4142135623731
 10
515.4900346010895
 20
-1383.292826809843
 42
0.4142135623731
 10
516.4900346010895
 20
-1384.292826809843
 42
0.4142135623731
  0
LINE
  5
1A1
330
1F
100
AcDbEntity
  8
0-B_寸法
  6
Continuous
 62
   120
370
     5
100
AcDbLine
 10
516.4900346010895
 20
-1383.292826809843
 30
0.0
 11
516.4900346010895
 21
-1283.292826809843
 31
0.0
  0
LINE
  5
1A2
330
1F
100
AcDbEntity
  8
0-B_寸法
  6
Continuous
 62
   120
370
     5
100
AcDbLine
 10
516.4900346010895
 20
-1383.292826809843
 30
0.0
 11
501.4900346010896
 21
-1383.292826809843
 31
0.0
  0
LWPOLYLINE
  5
1A3
330
1F
100
AcDbEntity
  8
0-B_寸法
  6
Continuous
 62
     7
370
     9
100
AcDbPolyline
 90
        4
 70
     1
 43
2.0
 10
502.4900346010896
 20
-1383.292826809843
 42
0.4142135623731
 10
501.4900346010896
 20
-1382.292826809843
 42
0.4142135623731
 10
500.4900346010896
 20
-1383.292826809843
 42
0.4142135623731
 10
501.4900346010896
 20
-1384.292826809843
 42
0.4142135623731
  0
LINE
  5
1A4
330
1F
100
AcDbEntity
  8
0-B_寸法
  6
Continuous
 62
   120
370
     5
100
AcDbLine
 10
501.4900346010896
 20
-1483.292826809843
 30
0.0
 11
501.4900346010896
 21
-1283.292826809843
 31
0.0
  0
LINE
  5
1A5
330
1F
100
AcDbEntity
  8
0-B_寸法
  6
Continuous
 62
   120
370
     5
100
AcDbLine
 10
899.4900346010905
 20
-1483.292826809843
 30
0.0
 11
501.4900346010896
 21
-1483.292826809843
 31
0.0
  0
LWPOLYLINE
  5
1A6
330
1F
100
AcDbEntity
  8
0-B_寸法
  6
Continuous
 62
     7
370
     9
100
AcDbPolyline
 90
        4
 70
     1
 43
2.0
 10
900.4900346010904
 20
-1483.292826809843
 42
0.4142135623731
 10
899.4900346010905
 20
-1482.292826809843
 42
0.4142135623731
 10
898.4900346010907
 20
-1483.292826809843
 42
0.4142135623731
 10
899.4900346010905
 20
-1484.292826809842
 42
0.4142135623731
  0
LWPOLYLINE
  5
1A7
330
1F
100
AcDbEntity
  8
0-B_寸法
  6
Continuous
 62
     7
370
     9
100
AcDbPolyline
 90
        4
 70
     1
 43
2.0
 10
502.4900346010896
 20
-1483.292826809843
 42
0.4142135623731
 10
501.4900346010896
 20
-1482.292826809843
 42
0.4142135623731
 10
500.4900346010896
 20
-1483.292826809843
 42
0.4142135623731
 10
501.4900346010896
 20
-1484.292826809842
 42
0.4142135623731
  0
LINE
  5
1A8
330
1F
100
AcDbEntity
  8
0-B_寸法
  6
Continuous
 62
   120
370
     5
100
AcDbLine
 10
899.4900346010905
 20
-1483.292826809843
 30
0.0
 11
899.4900346010905
 21
-1283.292826809843
 31
0.0
  0
LINE
  5
1A9
330
1F
100
AcDbEntity
  8
0-B_寸法
  6
Continuous
 62
   120
370
     5
100
AcDbLine
 10
-1594.509965305837
 20
-1483.292859580909
 30
0.0
 11
-1992.509965398913
 21
-1483.292859580909
 31
0.0
  0
LWPOLYLINE
  5
1AA
330
1F
100
AcDbEntity
  8
0-B_寸法
  6
Continuous
 62
     7
370
     9
100
AcDbPolyline
 90
        4
 70
     1
 43
2.0
 10
-1593.509965305837
 20
-1483.292859580909
 42
0.4142135623731
 10
-1594.509965305837
 20
-1482.292859580909
 42
0.4142135623731
 10
-1595.509965305837
 20
-1483.292859580909
 42
0.4142135623731
 10
-1594.509965305837
 20
-1484.292859580909
 42
0.4142135623731
  0
LWPOLYLINE
  5
1AB
330
1F
100
AcDbEntity
  8
0-B_寸法
  6
Continuous
 62
     7
370
     9
100
AcDbPolyline
 90
        4
 70
     1
 43
2.0
 10
-1991.509965398913
 20
-1483.292859580909
 42
0.4142135623731
 10
-1992.509965398913
 20
-1482.292859580909
 42
0.4142135623731
 10
-1993.509965398913
 20
-1483.292859580909
 42
0.4142135623731
 10
-1992.509965398913
 20
-1484.292859580909
 42
0.4142135623731
  0
LINE
  5
1AC
330
1F
100
AcDbEntity
  8
0-B_寸法
  6
Continuous
 62
   120
370
     5
100
AcDbLine
 10
-1992.509965398914
 20
-1483.292859580909
 30
0.0
 11
-2788.509965398913
 21
-1483.292859580909
 31
0.0
  0
LWPOLYLINE
  5
1AD
330
1F
100
AcDbEntity
  8
0-B_寸法
  6
Continuous
 62
     7
370
     9
100
AcDbPolyline
 90
        4
 70
     1
 43
2.0
 10
-2787.509965398913
 20
-1483.292859580909
 42
0.4142135623731
 10
-2788.509965398913
 20
-1482.292859580909
 42
0.4142135623731
 10
-2789.509965398913
 20
-1483.292859580909
 42
0.4142135623731
 10
-2788.509965398913
 20
-1484.292859580909
 42
0.4142135623731
  0
LINE
  5
1AE
330
1F
100
AcDbEntity
  8
0-B_寸法
  6
Continuous
 62
   120
370
     5
100
AcDbLine
 10
-1594.509965305837
 20
-1483.292859580909
 30
0.0
 11
-1594.509965305837
 21
-1383.292859580909
 31
0.0
  0
LINE
  5
1AF
330
1F
100
AcDbEntity
  8
0-B_寸法
  6
Continuous
 62
   120
370
     5
100
AcDbLine
 10
-2788.509965398913
 20
-1483.292859580909
 30
0.0
 11
-2788.509965398913
 21
-1383.292859580909
 31
0.0
  0
LINE
  5
1B0
330
1F
100
AcDbEntity
  8
0-B_寸法
  6
Continuous
 62
   120
370
     5
100
AcDbLine
 10
-1992.509965398913
 20
-1483.292859580909
 30
0.0
 11
-1992.509965398913
 21
-1383.292859580909
 31
0.0
  0
MTEXT
  5
1B1
330
1F
100
AcDbEntity
  8
0-B_寸法
  6
Continuous
 62
     7
370
   211
100
AcDbMText
 10
-1838.509965352374
 20
-1480.432859580909
 30
0.0
 40
45.72
 41
90.0
 46
0.0
 71
     7
 72
     1
  1
{\fＭＳ ゴシック|b0|i0|c128|p49;398}
 73
     1
 44
1.0
  0
MTEXT
  5
1B2
330
1F
100
AcDbEntity
  8
0-B_寸法
  6
Continuous
 62
     7
370
   211
100
AcDbMText
 10
-2435.509965398915
 20
-1480.432859580909
 30
0.0
 40
45.72
 41
90.0
 46
0.0
 71
     7
 72
     1
  1
{\fＭＳ ゴシック|b0|i0|c128|p49;796}
 73
     1
 44
1.0
  0
LINE
  5
1B3
330
1F
100
AcDbEntity
  8
0-9__
  6
Continuous
 62
     7
370
     9
100
AcDbLine
 10
-1977.509965398914
 20
-1169.292859580909
 30
0.0
 11
-1977.509965398914
 21
-1233.292859580909
 31
0.0
  0
LINE
  5
1B4
330
1F
100
AcDbEntity
  8
0-9__
  6
Continuous
 62
     7
370
     9
100
AcDbLine
 10
-2007.509965398914
 20
-1233.292859580909
 30
0.0
 11
-2007.509965398914
 21
-1169.292859580909
 31
0.0
  0
LINE
  5
1B5
330
1F
100
AcDbEntity
  8
0-9__
  6
Continuous
 62
     7
370
     9
100
AcDbLine
 10
-1992.509965398914
 20
-1233.292859580909
 30
0.0
 11
-1992.509965398914
 21
-1169.292859580909
 31
0.0
  0
LWPOLYLINE
  5
1B6
330
1F
100
AcDbEntity
  8
0-B_寸法
  6
Continuous
 62
     7
370
     9
100
AcDbPolyline
 90
        4
 70
     1
 43
2.0
 10
-1593.509965398914
 20
-1383.292839785714
 42
0.4142135623731
 10
-1594.509965398914
 20
-1382.292839785714
 42
0.4142135623731
 10
-1595.509965398914
 20
-1383.292839785714
 42
0.4142135623731
 10
-1594.509965398914
 20
-1384.292839785714
 42
0.4142135623731
  0
LINE
  5
1B7
330
1F
100
AcDbEntity
  8
0-B_寸法
  6
Continuous
 62
   120
370
     5
100
AcDbLine
 10
-1594.509965398914
 20
-1383.292839785714
 30
0.0
 11
-1594.509965398914
 21
-1283.292839785714
 31
0.0
  0
LWPOLYLINE
  5
1B8
330
1F
100
AcDbEntity
  8
0-B_寸法
  6
Continuous
 62
     7
370
     9
100
AcDbPolyline
 90
        4
 70
     1
 43
2.0
 10
-1991.509965398914
 20
-1383.292839785714
 42
0.4142135623731
 10
-1992.509965398914
 20
-1382.292839785714
 42
0.4142135623731
 10
-1993.509965398914
 20
-1383.292839785714
 42
0.4142135623731
 10
-1992.509965398914
 20
-1384.292839785714
 42
0.4142135623731
  0
LINE
  5
1B9
330
1F
100
AcDbEntity
  8
0-B_寸法
  6
Continuous
 62
   120
370
     5
100
AcDbLine
 10
-1992.509965398914
 20
-1383.292839785714
 30
0.0
 11
-1992.509965398914
 21
-1283.292839785714
 31
0.0
  0
LWPOLYLINE
  5
1BA
330
1F
100
AcDbEntity
  8
0-B_寸法
  6
Continuous
 62
     7
370
     9
100
AcDbPolyline
 90
        4
 70
     1
 43
2.0
 10
-2787.509965398912
 20
-1383.292839785714
 42
0.4142135623731
 10
-2788.509965398912
 20
-1382.292839785714
 42
0.4142135623731
 10
-2789.509965398913
 20
-1383.292839785714
 42
0.4142135623731
 10
-2788.509965398912
 20
-1384.292839785714
 42
0.4142135623731
  0
LINE
  5
1BB
330
1F
100
AcDbEntity
  8
0-B_寸法
  6
Continuous
 62
   120
370
     5
100
AcDbLine
 10
-2788.509965398912
 20
-1383.292839785714
 30
0.0
 11
-2788.509965398912
 21
-1283.292839785714
 31
0.0
  0
LINE
  5
1BC
330
1F
100
AcDbEntity
  8
0-9__
  6
Continuous
 62
     7
370
     9
100
AcDbLine
 10
516.4900346010819
 20
-1169.292839785723
 30
0.0
 11
516.4900346010819
 21
-1233.292839785722
 31
0.0
  0
LINE
  5
1BD
330
1F
100
AcDbEntity
  8
0-9__
  6
Continuous
 62
     7
370
     9
100
AcDbLine
 10
486.4900346010819
 20
-1233.292839785722
 30
0.0
 11
486.4900346010819
 21
-1169.292839785723
 31
0.0
  0
LINE
  5
1BE
330
1F
100
AcDbEntity
  8
0-9__
  6
Continuous
 62
     7
370
     9
100
AcDbLine
 10
501.4900346010819
 20
-1233.292839785722
 30
0.0
 11
501.4900346010819
 21
-1169.292839785723
 31
0.0
  0
LINE
  5
1BF
330
1F
100
AcDbEntity
  8
0-7__
  6
Continuous
 62
     7
370
     9
100
AcDbLine
 10
89.49003460108031
 20
-946.3153477515294
 30
0.0
 11
89.49003460108031
 21
-1154.292839785714
 31
0.0
  0
LINE
  5
1C0
330
1F
100
AcDbEntity
  8
0-7__
  6
Continuous
 62
     7
370
     9
100
AcDbLine
 10
117.4900346010804
 20
-946.3153477515294
 30
0.0
 11
117.4900346010804
 21
-1154.292839785714
 31
0.0
  0
LINE
  5
1C1
330
1F
100
AcDbEntity
  8
0-7__
  6
JWW_DASHED1
 62
     7
370
     9
100
AcDbLine
 10
89.49003460108031
 20
-946.3153477515294
 30
0.0
 11
89.49003460108031
 21
-934.3153477515284
 31
0.0
  0
LINE
  5
1C2
330
1F
100
AcDbEntity
  8
0-7__
  6
JWW_DASHED1
 62
     7
370
     9
100
AcDbLine
 10
117.4900346010804
 20
-946.3153477515294
 30
0.0
 11
117.4900346010804
 21
-934.3153477515284
 31
0.0
  0
LINE
  5
1C3
330
1F
100
AcDbEntity
  8
0-7__
  6
JWW_DASHED1
 62
     7
370
     9
100
AcDbLine
 10
89.49003460108031
 20
-754.3144487079699
 30
0.0
 11
89.49003460108031
 21
-742.3144487079691
 31
0.0
  0
LINE
  5
1C4
330
1F
100
AcDbEntity
  8
0-7__
  6
JWW_DASHED1
 62
     7
370
     9
100
AcDbLine
 10
117.4900346010804
 20
-754.3144487079699
 30
0.0
 11
117.4900346010804
 21
-742.3144487079691
 31
0.0
  0
LINE
  5
1C5
330
1F
100
AcDbEntity
  8
0-7__
  6
Continuous
 62
     7
370
     9
100
AcDbLine
 10
117.4900346010804
 20
-754.3144487079699
 30
0.0
 11
117.4900346010804
 21
-934.3153477515284
 31
0.0
  0
LINE
  5
1C6
330
1F
100
AcDbEntity
  8
0-7__
  6
Continuous
 62
     7
370
     9
100
AcDbLine
 10
89.49003460108031
 20
-754.3144487079699
 30
0.0
 11
89.49003460108031
 21
-934.3153477515284
 31
0.0
  0
LINE
  5
1C7
330
1F
100
AcDbEntity
  8
0-7__
  6
JWW_DASHED1
 62
     7
370
     9
100
AcDbLine
 10
89.49003460108031
 20
-562.3144487079699
 30
0.0
 11
89.49003460108031
 21
-550.314448707969
 31
0.0
  0
LINE
  5
1C8
330
1F
100
AcDbEntity
  8
0-7__
  6
JWW_DASHED1
 62
     7
370
     9
100
AcDbLine
 10
117.4900346010804
 20
-562.3144487079699
 30
0.0
 11
117.4900346010804
 21
-550.314448707969
 31
0.0
  0
LINE
  5
1C9
330
1F
100
AcDbEntity
  8
0-7__
  6
Continuous
 62
     7
370
     9
100
AcDbLine
 10
117.4900346010804
 20
-562.3144487079717
 30
0.0
 11
117.4900346010804
 21
-742.3144487079702
 31
0.0
  0
LINE
  5
1CA
330
1F
100
AcDbEntity
  8
0-7__
  6
Continuous
 62
     7
370
     9
100
AcDbLine
 10
89.49003460108031
 20
-562.3144487079717
 30
0.0
 11
89.49003460108031
 21
-742.3144487079702
 31
0.0
  0
LINE
  5
1CB
330
1F
100
AcDbEntity
  8
0-7__
  6
Continuous
 62
     7
370
     9
100
AcDbLine
 10
89.49003460108031
 20
-423.292839785714
 30
0.0
 11
89.49003460108031
 21
-550.3144487079703
 31
0.0
  0
LINE
  5
1CC
330
1F
100
AcDbEntity
  8
0-7__
  6
Continuous
 62
     7
370
     9
100
AcDbLine
 10
117.4900346010804
 20
-423.292839785714
 30
0.0
 11
117.4900346010804
 21
-550.3144487079703
 31
0.0
  0
MTEXT
  5
1CD
330
1F
100
AcDbEntity
  8
0-A_文字
  6
Continuous
 62
     7
370
     9
100
AcDbMText
 10
-216.7391757406782
 20
1607.575318672573
 30
0.0
 40
45.72
 41
90.0
 46
0.0
 71
     7
 72
     1
  1
{\fＭＳ ゴシック|b0|i0|c128|p49;Ａ }
 73
     1
 44
1.0
  0
MTEXT
  5
1CE
330
1F
100
AcDbEntity
  8
0-A_文字
  6
Continuous
 62
     7
370
     9
100
AcDbMText
 10
-216.7391757406782
 20
1079.448695467339
 30
0.0
 40
45.72
 41
90.0
 46
0.0
 71
     7
 72
     1
  1
{\fＭＳ ゴシック|b0|i0|c128|p49;Ａ'}
 73
     1
 44
1.0
  0
LINE
  5
1CF
330
1F
100
AcDbEntity
  8
0-A_文字
  6
Continuous
 62
     7
370
     9
100
AcDbLine
 10
-23.87101827657183
 20
1638.715318672573
 30
0.0
 11
-23.87101827657183
 21
1116.588695467337
 31
0.0
  0
LINE
  5
1D0
330
1F
100
AcDbEntity
  8
0-A_文字
  6
Continuous
 62
     7
370
     9
100
AcDbLine
 10
-126.7391757406782
 20
1116.588695467337
 30
0.0
 11
-23.87101827657183
 21
1144.152007069956
 31
0.0
  0
LINE
  5
1D1
330
1F
100
AcDbEntity
  8
0-A_文字
  6
Continuous
 62
     7
370
     9
100
AcDbLine
 10
-23.87101827657183
 20
1116.588695467337
 30
0.0
 11
-126.7391757406782
 21
1116.588695467337
 31
0.0
  0
LINE
  5
1D2
330
1F
100
AcDbEntity
  8
0-A_文字
  6
Continuous
 62
     7
370
     9
100
AcDbLine
 10
-126.7391757406782
 20
1638.715318672573
 30
0.0
 11
-23.87101827657183
 21
1611.152007069956
 31
0.0
  0
LINE
  5
1D3
330
1F
100
AcDbEntity
  8
0-A_文字
  6
Continuous
 62
     7
370
     9
100
AcDbLine
 10
-23.87101827657183
 20
1638.715318672573
 30
0.0
 11
-126.7391757406782
 21
1638.715318672573
 31
0.0
  0
LINE
  5
1D4
330
1F
100
AcDbEntity
  8
0-A_文字
  6
Continuous
 62
     7
370
     9
100
AcDbLine
 10
135.3615829059808
 20
1635.08538111031
 30
0.0
 11
508.5005428923867
 21
1635.08538111031
 31
0.0
  0
LINE
  5
1D5
330
1F
100
AcDbEntity
  8
0-A_文字
  6
Continuous
 62
     7
370
     9
100
AcDbLine
 10
92.91135346755368
 20
1561.55942693
 30
0.0
 11
135.3615829059808
 21
1635.08538111031
 31
0.0
  0
MTEXT
  5
1D6
330
1F
100
AcDbEntity
  8
0-A_文字
  6
Continuous
 62
     7
370
     9
100
AcDbMText
 10
148.5005428923867
 20
1630.075422506819
 30
0.0
 40
45.72
 41
360.0
 46
0.0
 71
     7
 72
     1
  1
{\fＭＳ ゴシック|b0|i0|c128|p49;背板連結樹脂}
 73
     1
 44
1.0
  0
LINE
  5
1D7
330
1F
100
AcDbEntity
  8
0-A_文字
  6
Continuous
 62
     7
370
     9
100
AcDbLine
 10
135.3615829059808
 20
-356.6150251208086
 30
0.0
 11
508.5005428923867
 21
-356.6150251208086
 31
0.0
  0
LINE
  5
1D8
330
1F
100
AcDbEntity
  8
0-A_文字
  6
Continuous
 62
     7
370
     9
100
AcDbLine
 10
92.91135346755368
 20
-430.1409793011186
 30
0.0
 11
135.3615829059808
 21
-356.6150251208086
 31
0.0
  0
MTEXT
  5
1D9
330
1F
100
AcDbEntity
  8
0-A_文字
  6
Continuous
 62
     7
370
     9
100
AcDbMText
 10
148.5005428923867
 20
-361.6249837243004
 30
0.0
 40
45.72
 41
360.0
 46
0.0
 71
     7
 72
     1
  1
{\fＭＳ ゴシック|b0|i0|c128|p49;背板連結樹脂}
 73
     1
 44
1.0
  0
MTEXT
  5
1DA
330
1F
100
AcDbEntity
  8
0-B_寸法
  6
Continuous
 62
     7
370
   211
100
AcDbMText
 10
-2948.509965398911
 20
-431.9328595809014
 30
0.0
 40
45.72
 41
30.0
 46
0.0
 71
     7
 72
     1
  1
{\fＭＳ ゴシック|b0|i0|c128|p49;3}
 11
6.123031769111886E-17
 21
1.0
 31
0.0
 73
     1
 44
1.0
  0
MTEXT
  5
1DB
330
1F
100
AcDbEntity
  8
0-B_寸法
  6
Continuous
 62
     7
370
   211
100
AcDbMText
 10
-2948.509965398911
 20
-930.9328793760858
 30
0.0
 40
45.71999999999999
 41
270.0
 46
0.0
 71
     7
 72
     1
  1
{\fＭＳ ゴシック|b0|i0|c128|p49;ＤＨ＝755}
 11
6.123031769111886E-17
 21
1.0
 31
0.0
 73
     1
 44
1.0
  0
MTEXT
  5
1DC
330
1F
100
AcDbEntity
  8
0-B_寸法
  6
Continuous
 62
     7
370
   211
100
AcDbMText
 10
-2948.509965398911
 20
-1164.803442185028
 30
0.0
 40
45.72
 41
30.0
 46
0.0
 71
     7
 72
     1
  1
{\fＭＳ ゴシック|b0|i0|c128|p49;3}
 11
6.123031769111886E-17
 21
1.0
 31
0.0
 73
     1
 44
1.0
  0
LINE
  5
1DD
330
1F
100
AcDbEntity
  8
0-B_寸法
  6
Continuous
 62
   120
370
     5
100
AcDbLine
 10
-2938.509965398911
 20
-1166.292859580901
 30
0.0
 11
-2838.509965398911
 21
-1166.292859580901
 31
0.0
  0
LINE
  5
1DE
330
1F
100
AcDbEntity
  8
0-B_寸法
  6
Continuous
 62
   120
370
     5
100
AcDbLine
 10
-2938.509965398911
 20
-1169.292859580901
 30
0.0
 11
-2838.509965398911
 21
-1169.292859580901
 31
0.0
  0
LWPOLYLINE
  5
1DF
330
1F
100
AcDbEntity
  8
0-B_寸法
  6
Continuous
 62
     7
370
     9
100
AcDbPolyline
 90
        4
 70
     1
 43
2.0
 10
-2937.509965398911
 20
-1166.292859580901
 42
0.4142135623731
 10
-2938.509965398911
 20
-1165.292859580901
 42
0.4142135623731
 10
-2939.509965398911
 20
-1166.292859580901
 42
0.4142135623731
 10
-2938.509965398911
 20
-1167.292859580901
 42
0.4142135623731
  0
LWPOLYLINE
  5
1E0
330
1F
100
AcDbEntity
  8
0-B_寸法
  6
Continuous
 62
     7
370
     9
100
AcDbPolyline
 90
        4
 70
     1
 43
2.0
 10
-2937.509965398911
 20
-1169.292859580901
 42
0.4142135623731
 10
-2938.509965398911
 20
-1168.292859580901
 42
0.4142135623731
 10
-2939.509965398911
 20
-1169.292859580901
 42
0.4142135623731
 10
-2938.509965398911
 20
-1170.292859580901
 42
0.4142135623731
  0
LINE
  5
1E1
330
1F
100
AcDbEntity
  8
0-B_寸法
  6
Continuous
 62
   120
370
     5
100
AcDbLine
 10
-2938.509965398911
 20
-1169.292859580901
 30
0.0
 11
-2938.509965398911
 21
-1166.292859580901
 31
0.0
  0
LINE
  5
1E2
330
1F
100
AcDbEntity
  8
0-B_寸法
  6
Continuous
 62
   120
370
     5
100
AcDbLine
 10
-2938.509965398911
 20
-411.2928595809004
 30
0.0
 11
-2838.509965398911
 21
-411.2928595809004
 31
0.0
  0
LWPOLYLINE
  5
1E3
330
1F
100
AcDbEntity
  8
0-B_寸法
  6
Continuous
 62
     7
370
     9
100
AcDbPolyline
 90
        4
 70
     1
 43
2.0
 10
-2937.509965398911
 20
-411.2928595809004
 42
0.4142135623731
 10
-2938.509965398911
 20
-410.2928595809004
 42
0.4142135623731
 10
-2939.509965398911
 20
-411.2928595809004
 42
0.4142135623731
 10
-2938.509965398911
 20
-412.2928595809004
 42
0.4142135623731
  0
LINE
  5
1E4
330
1F
100
AcDbEntity
  8
0-B_寸法
  6
Continuous
 62
   120
370
     5
100
AcDbLine
 10
-2938.509965398911
 20
-1166.292859580901
 30
0.0
 11
-2938.509965398911
 21
-411.2928595809004
 31
0.0
  0
LINE
  5
1E5
330
1F
100
AcDbEntity
  8
0-B_寸法
  6
Continuous
 62
   120
370
     5
100
AcDbLine
 10
-2938.509965398911
 20
-408.2928595809011
 30
0.0
 11
-2838.509965398911
 21
-408.2928595809011
 31
0.0
  0
LWPOLYLINE
  5
1E6
330
1F
100
AcDbEntity
  8
0-B_寸法
  6
Continuous
 62
     7
370
     9
100
AcDbPolyline
 90
        4
 70
     1
 43
2.0
 10
-2937.509965398911
 20
-408.2928595809011
 42
0.4142135623731
 10
-2938.509965398911
 20
-407.2928595809011
 42
0.4142135623731
 10
-2939.509965398911
 20
-408.2928595809011
 42
0.4142135623731
 10
-2938.509965398911
 20
-409.2928595809011
 42
0.4142135623731
  0
LINE
  5
1E7
330
1F
100
AcDbEntity
  8
0-B_寸法
  6
Continuous
 62
   120
370
     5
100
AcDbLine
 10
-2938.509965398911
 20
-411.2928595809004
 30
0.0
 11
-2938.509965398911
 21
-408.2928595809011
 31
0.0
  0
LINE
  5
1E8
330
1F
100
AcDbEntity
  8
0-B_寸法
  6
Continuous
 62
   120
370
     5
100
AcDbLine
 10
-2938.509965305835
 20
-408.2928513329063
 30
0.0
 11
-2838.509965305835
 21
-408.2928513329063
 31
0.0
  0
LWPOLYLINE
  5
1E9
330
1F
100
AcDbEntity
  8
0-B_寸法
  6
Continuous
 62
     7
370
     9
100
AcDbPolyline
 90
        4
 70
     1
 43
2.0
 10
-2937.509965305835
 20
-408.2928513329063
 42
0.4142135623731
 10
-2938.509965305835
 20
-407.2928513329063
 42
0.4142135623731
 10
-2939.509965305835
 20
-408.2928513329063
 42
0.4142135623731
 10
-2938.509965305835
 20
-409.2928513329063
 42
0.4142135623731
  0
LINE
  5
1EA
330
1F
100
AcDbEntity
  8
0-B_寸法
  6
Continuous
 62
   120
370
     5
100
AcDbLine
 10
-3038.509965398911
 20
-1169.292846605038
 30
0.0
 11
-2838.509965398911
 21
-1169.292846605038
 31
0.0
  0
LWPOLYLINE
  5
1EB
330
1F
100
AcDbEntity
  8
0-B_寸法
  6
Continuous
 62
     7
370
     9
100
AcDbPolyline
 90
        4
 70
     1
 43
2.0
 10
-3037.509965398911
 20
-1169.292846605038
 42
0.4142135623731
 10
-3038.509965398911
 20
-1168.292846605038
 42
0.4142135623731
 10
-3039.509965398911
 20
-1169.292846605038
 42
0.4142135623731
 10
-3038.509965398911
 20
-1170.292846605038
 42
0.4142135623731
  0
LINE
  5
1EC
330
1F
100
AcDbEntity
  8
0-B_寸法
  6
Continuous
 62
   120
370
     5
100
AcDbLine
 10
-3038.509965398911
 20
-1233.292859580901
 30
0.0
 11
-2838.509965398911
 21
-1233.292859580901
 31
0.0
  0
LWPOLYLINE
  5
1ED
330
1F
100
AcDbEntity
  8
0-B_寸法
  6
Continuous
 62
     7
370
     9
100
AcDbPolyline
 90
        4
 70
     1
 43
2.0
 10
-3037.509965398911
 20
-1233.292859580901
 42
0.4142135623731
 10
-3038.509965398911
 20
-1232.292859580901
 42
0.4142135623731
 10
-3039.509965398911
 20
-1233.292859580901
 42
0.4142135623731
 10
-3038.509965398911
 20
-1234.292859580901
 42
0.4142135623731
  0
LINE
  5
1EE
330
1F
100
AcDbEntity
  8
0-B_寸法
  6
Continuous
 62
   120
370
     5
100
AcDbLine
 10
-3038.509965398911
 20
-1233.292859580901
 30
0.0
 11
-3038.509965398911
 21
-1169.292859580901
 31
0.0
  0
LWPOLYLINE
  5
1EF
330
1F
100
AcDbEntity
  8
0-B_寸法
  6
Continuous
 62
     7
370
     9
100
AcDbPolyline
 90
        4
 70
     1
 43
2.0
 10
-3037.509965398911
 20
-1169.292846605038
 42
0.4142135623731
 10
-3038.509965398911
 20
-1168.292846605038
 42
0.4142135623731
 10
-3039.509965398911
 20
-1169.292846605038
 42
0.4142135623731
 10
-3038.509965398911
 20
-1170.292846605038
 42
0.4142135623731
  0
LINE
  5
1F0
330
1F
100
AcDbEntity
  8
0-B_寸法
  6
Continuous
 62
   120
370
     5
100
AcDbLine
 10
-3038.509965398911
 20
-1169.292846605038
 30
0.0
 11
-2838.509965398911
 21
-1169.292846605038
 31
0.0
  0
LWPOLYLINE
  5
1F1
330
1F
100
AcDbEntity
  8
0-B_寸法
  6
Continuous
 62
     7
370
     9
100
AcDbPolyline
 90
        4
 70
     1
 43
2.0
 10
-3137.509965398911
 20
-1233.292859580901
 42
0.4142135623731
 10
-3138.509965398911
 20
-1232.292859580901
 42
0.4142135623731
 10
-3139.509965398911
 20
-1233.292859580901
 42
0.4142135623731
 10
-3138.509965398911
 20
-1234.292859580901
 42
0.4142135623731
  0
LINE
  5
1F2
330
1F
100
AcDbEntity
  8
0-B_寸法
  6
Continuous
 62
   120
370
     5
100
AcDbLine
 10
-3138.509965398911
 20
-1233.292859580901
 30
0.0
 11
-2838.509965398911
 21
-1233.292859580901
 31
0.0
  0
MTEXT
  5
1F3
330
1F
100
AcDbEntity
  8
0-B_寸法
  6
Continuous
 62
     7
370
   211
100
AcDbMText
 10
-3048.509965398911
 20
-1238.432859580901
 30
0.0
 40
45.72
 41
60.0
 46
0.0
 71
     7
 72
     1
  1
{\fＭＳ ゴシック|b0|i0|c128|p49;64}
 11
6.123031769111886E-17
 21
1.0
 31
0.0
 73
     1
 44
1.0
  0
LINE
  5
1F4
330
1F
100
AcDbEntity
  8
0-A_文字
  6
Continuous
 62
     7
370
     9
100
AcDbLine
 10
2856.998100599183
 20
-269.8317962401217
 30
0.0
 11
3150.017760695626
 21
-269.8317962401217
 31
0.0
  0
MTEXT
  5
1F5
330
1F
100
AcDbEntity
  8
0-A_文字
  6
Continuous
 62
     7
370
     9
100
AcDbMText
 10
2860.22667176976
 20
-248.724156096757
 30
0.0
 40
45.72
 41
330.0
 46
0.0
 71
     7
 72
     1
  1
{\fＭＳ ゴシック|b0|i0|c128|p49;30×105程度}
 73
     1
 44
1.0
  0
MTEXT
  5
1F6
330
1F
100
AcDbEntity
  8
0-A_文字
  6
Continuous
 62
     7
370
     9
100
AcDbMText
 10
2860.226671769763
 20
-174.181726812231
 30
0.0
 40
45.72
 41
240.0
 46
0.0
 71
     7
 72
     1
  1
{\fＭＳ ゴシック|b0|i0|c128|p49;下地位置}
 73
     1
 44
1.0
  0
MTEXT
  5
1F7
330
1F
100
AcDbEntity
  8
0-A_文字
  6
Continuous
 62
     7
370
     9
100
AcDbMText
 10
2860.226671769763
 20
-97.5686744920239
 30
0.0
 40
45.72
 41
180.0
 46
0.0
 71
     7
 72
     1
  1
{\fＭＳ ゴシック|b0|i0|c128|p49;補強材}
 73
     1
 44
1.0
  0
LINE
  5
1F8
330
1F
100
AcDbEntity
  8
0-A_文字
  6
Continuous
 62
     7
370
     9
100
AcDbLine
 10
2779.965006544753
 20
-403.2570290066187
 30
0.0
 11
2856.998100599183
 21
-269.8317962401217
 31
0.0
  0
LINE
  5
1F9
330
1F
100
AcDbEntity
  8
0-1_本体
  6
Continuous
 62
    40
370
    15
100
AcDbLine
 10
-294.5099653989166
 20
1561.152007069957
 30
0.0
 11
-286.5099653989164
 21
1561.152007069957
 31
0.0
  0
LINE
  5
1FA
330
1F
100
AcDbEntity
  8
0-1_本体
  6
Continuous
 62
    40
370
    15
100
AcDbLine
 10
-286.5099653989164
 20
1561.152007069957
 30
0.0
 11
-286.5099653989164
 21
1558.152007069956
 31
0.0
  0
LINE
  5
1FB
330
1F
100
AcDbEntity
  8
0-1_本体
  6
Continuous
 62
    40
370
    15
100
AcDbLine
 10
-286.5099653989164
 20
1558.152007069956
 30
0.0
 11
97.99003460108331
 21
1558.152007069956
 31
0.0
  0
LINE
  5
1FC
330
1F
100
AcDbEntity
  8
0-1_本体
  6
Continuous
 62
    40
370
    15
100
AcDbLine
 10
-286.5099653989164
 20
1559.652007069956
 30
0.0
 11
97.99003460108331
 21
1559.652007069956
 31
0.0
  0
LINE
  5
1FD
330
1F
100
AcDbEntity
  8
0-1_本体
  6
Continuous
 62
     7
370
     9
100
AcDbLine
 10
-286.5099653989164
 20
1561.152007069957
 30
0.0
 11
97.99003460108331
 21
1561.152007069957
 31
0.0
  0
LINE
  5
1FE
330
1F
100
AcDbEntity
  8
0-1_本体
  6
Continuous
 62
    40
370
    15
100
AcDbLine
 10
493.490034601083
 20
1561.152007069957
 30
0.0
 11
493.490034601083
 21
1558.152007069956
 31
0.0
  0
LINE
  5
1FF
330
1F
100
AcDbEntity
  8
0-1_本体
  6
Continuous
 62
    40
370
    15
100
AcDbLine
 10
493.490034601083
 20
1558.152007069956
 30
0.0
 11
108.9900346010835
 21
1558.152007069956
 31
0.0
  0
LINE
  5
200
330
1F
100
AcDbEntity
  8
0-1_本体
  6
Continuous
 62
    40
370
    15
100
AcDbLine
 10
493.490034601083
 20
1559.652007069956
 30
0.0
 11
108.9900346010835
 21
1559.652007069956
 31
0.0
  0
LINE
  5
201
330
1F
100
AcDbEntity
  8
0-1_本体
  6
Continuous
 62
     7
370
     9
100
AcDbLine
 10
493.490034601083
 20
1561.152007069957
 30
0.0
 11
108.9900346010835
 21
1561.152007069957
 31
0.0
  0
LINE
  5
202
330
1F
100
AcDbEntity
  8
0-1_本体
  6
Continuous
 62
    40
370
    15
100
AcDbLine
 10
493.490034601083
 20
1561.152007069957
 30
0.0
 11
501.4900346010836
 21
1561.152007069957
 31
0.0
  0
LINE
  5
203
330
1F
100
AcDbEntity
  8
0-7__
  6
Continuous
 62
     7
370
     9
100
AcDbLine
 10
98.99003460108354
 20
1561.152007069957
 30
0.0
 11
107.9900346010833
 21
1561.152007069957
 31
0.0
  0
LINE
  5
204
330
1F
100
AcDbEntity
  8
0-7__
  6
Continuous
 62
     7
370
     9
100
AcDbLine
 10
87.49003460108341
 20
1561.652007069957
 30
0.0
 11
87.49003460108341
 21
1561.152007069957
 31
0.0
  0
ARC
  5
205
330
1F
100
AcDbEntity
  8
0-7__
  6
Continuous
 62
     7
370
     9
100
AcDbCircle
 10
87.99003460108331
 20
1561.652007069957
 30
0.0
 40
0.5
100
AcDbArc
 50
90.0
 51
180.0
  0
LINE
  5
206
330
1F
100
AcDbEntity
  8
0-7__
  6
Continuous
 62
     7
370
     9
100
AcDbLine
 10
119.4900346010833
 20
1561.652007069957
 30
0.0
 11
119.4900346010833
 21
1561.152007069957
 31
0.0
  0
LINE
  5
207
330
1F
100
AcDbEntity
  8
0-7__
  6
Continuous
 62
     7
370
     9
100
AcDbLine
 10
118.9900346010835
 20
1562.152007069957
 30
0.0
 11
87.99003460108331
 21
1562.152007069957
 31
0.0
  0
ARC
  5
208
330
1F
100
AcDbEntity
  8
0-7__
  6
Continuous
 62
     7
370
     9
100
AcDbCircle
 10
118.9900346010835
 20
1561.652007069957
 30
0.0
 40
0.5
100
AcDbArc
 50
0.0
 51
90.00000000000001
  0
LINE
  5
209
330
1F
100
AcDbEntity
  8
0-7__
  6
Continuous
 62
     7
370
     9
100
AcDbLine
 10
89.4900346010833
 20
1558.152007069956
 30
0.0
 11
97.99003460108331
 21
1558.152007069956
 31
0.0
  0
LINE
  5
20A
330
1F
100
AcDbEntity
  8
0-7__
  6
Continuous
 62
     7
370
     9
100
AcDbLine
 10
89.4900346010833
 20
1557.652007069956
 30
0.0
 11
89.4900346010833
 21
1558.152007069956
 31
0.0
  0
ARC
  5
20B
330
1F
100
AcDbEntity
  8
0-7__
  6
Continuous
 62
     7
370
     9
100
AcDbCircle
 10
89.99003460108341
 20
1557.652007069956
 30
0.0
 40
0.5
100
AcDbArc
 50
180.0
 51
270.0
  0
LINE
  5
20C
330
1F
100
AcDbEntity
  8
0-7__
  6
Continuous
 62
     7
370
     9
100
AcDbLine
 10
116.9900346010833
 20
1557.152007069957
 30
0.0
 11
89.99003460108341
 21
1557.152007069957
 31
0.0
  0
LINE
  5
20D
330
1F
100
AcDbEntity
  8
0-7__
  6
Continuous
 62
     7
370
     9
100
AcDbLine
 10
117.4900346010834
 20
1557.652007069956
 30
0.0
 11
117.4900346010834
 21
1558.152007069956
 31
0.0
  0
ARC
  5
20E
330
1F
100
AcDbEntity
  8
0-7__
  6
Continuous
 62
     7
370
     9
100
AcDbCircle
 10
116.9900346010833
 20
1557.652007069956
 30
0.0
 40
0.5
100
AcDbArc
 50
270.0
 51
0.0
  0
LINE
  5
20F
330
1F
100
AcDbEntity
  8
0-7__
  6
Continuous
 62
     7
370
     9
100
AcDbLine
 10
97.99003460108331
 20
1558.152007069956
 30
0.0
 11
97.99003460108331
 21
1561.152007069957
 31
0.0
  0
LINE
  5
210
330
1F
100
AcDbEntity
  8
0-7__
  6
Continuous
 62
     7
370
     9
100
AcDbLine
 10
98.99003460108354
 20
1558.152007069956
 30
0.0
 11
98.99003460108354
 21
1561.152007069957
 31
0.0
  0
LINE
  5
211
330
1F
100
AcDbEntity
  8
0-7__
  6
Continuous
 62
     7
370
     9
100
AcDbLine
 10
107.9900346010833
 20
1558.152007069956
 30
0.0
 11
107.9900346010833
 21
1561.152007069957
 31
0.0
  0
LINE
  5
212
330
1F
100
AcDbEntity
  8
0-7__
  6
Continuous
 62
     7
370
     9
100
AcDbLine
 10
98.99003460108354
 20
1558.152007069956
 30
0.0
 11
107.9900346010833
 21
1558.152007069956
 31
0.0
  0
LINE
  5
213
330
1F
100
AcDbEntity
  8
0-7__
  6
Continuous
 62
     7
370
     9
100
AcDbLine
 10
108.9900346010835
 20
1558.152007069956
 30
0.0
 11
108.9900346010835
 21
1561.152007069957
 31
0.0
  0
LINE
  5
214
330
1F
100
AcDbEntity
  8
0-7__
  6
Continuous
 62
     7
370
     9
100
AcDbLine
 10
108.9900346010835
 20
1558.152007069956
 30
0.0
 11
117.4900346010834
 21
1558.152007069956
 31
0.0
  0
LINE
  5
215
330
1F
100
AcDbEntity
  8
0-7__
  6
Continuous
 62
     7
370
     9
100
AcDbLine
 10
87.49003460108341
 20
1561.152007069957
 30
0.0
 11
97.99003460108331
 21
1561.152007069957
 31
0.0
  0
LINE
  5
216
330
1F
100
AcDbEntity
  8
0-7__
  6
Continuous
 62
     7
370
     9
100
AcDbLine
 10
108.9900346010835
 20
1561.152007069957
 30
0.0
 11
119.4900346010833
 21
1561.152007069957
 31
0.0
  0
LINE
  5
217
330
1F
100
AcDbEntity
  8
0-0_補助線
  6
JWW_HOJO
 62
   120
370
     5
100
AcDbLine
 10
2349.490034554538
 20
-1563.792839785714
 30
0.0
 11
2349.490034554538
 21
-226.2928397857141
 31
0.0
  0
LINE
  5
218
330
1F
100
AcDbEntity
  8
0-0_補助線
  6
JWW_HOJO
 62
   120
370
     5
100
AcDbLine
 10
2049.490034554538
 20
-1563.792839785714
 30
0.0
 11
2049.490034554538
 21
-326.2928397857141
 31
0.0
  0
LINE
  5
219
330
1F
100
AcDbEntity
  8
0-0_補助線
  6
JWW_HOJO
 62
   120
370
     5
100
AcDbLine
 10
1949.490034554539
 20
-1563.792839785714
 30
0.0
 11
1949.490034554539
 21
-326.2928397857141
 31
0.0
  0
LINE
  5
21A
330
1F
100
AcDbEntity
  8
0-0_補助線
  6
JWW_HOJO
 62
   120
370
     5
100
AcDbLine
 10
1849.490034554539
 20
-1563.792839785714
 30
0.0
 11
1849.490034554539
 21
-326.2928397857141
 31
0.0
  0
LINE
  5
21B
330
1F
100
AcDbEntity
  8
0-0_補助線
  6
JWW_HOJO
 62
     7
370
     9
100
AcDbLine
 10
2421.490034461463
 20
-326.2928397857141
 30
0.0
 11
2421.490034461463
 21
-1563.792839785714
 31
0.0
  0
LINE
  5
21C
330
1F
100
AcDbEntity
  8
0-0_補助線
  6
JWW_HOJO
 62
     7
370
     9
100
AcDbLine
 10
2766.490034461463
 20
-1563.792839785714
 30
0.0
 11
2766.490034461463
 21
-326.2928397857141
 31
0.0
  0
LINE
  5
21D
330
1F
100
AcDbEntity
  8
0-0_補助線
  6
JWW_HOJO
 62
   120
370
     5
100
AcDbLine
 10
2816.490034461463
 20
-1563.792839785714
 30
0.0
 11
2816.490034461463
 21
-226.2928397857141
 31
0.0
  0
MTEXT
  5
21E
330
1F
100
AcDbEntity
  8
0-B_寸法
  6
Continuous
 62
     7
370
   211
100
AcDbMText
 10
2405.990034601078
 20
-123.432899171273
 30
0.0
 40
45.72
 41
30.0
 46
0.0
 71
     7
 72
     1
  1
{\fＭＳ ゴシック|b0|i0|c128|p49;1}
 73
     1
 44
1.0
  0
MTEXT
  5
21F
330
1F
100
AcDbEntity
  8
0-B_寸法
  6
Continuous
 62
     7
370
   211
100
AcDbMText
 10
2548.99003460108
 20
-123.432899171273
 30
0.0
 40
45.72
 41
90.0
 46
0.0
 71
     7
 72
     1
  1
{\fＭＳ ゴシック|b0|i0|c128|p49;345}
 73
     1
 44
1.0
  0
MTEXT
  5
220
330
1F
100
AcDbEntity
  8
0-B_寸法
  6
Continuous
 62
     7
370
   211
100
AcDbMText
 10
2427.110081882198
 20
-223.4328991712731
 30
0.0
 40
45.72
 41
60.0
 46
0.0
 71
     7
 72
     1
  1
{\fＭＳ ゴシック|b0|i0|c128|p49;37}
 73
     1
 44
1.0
  0
MTEXT
  5
221
330
1F
100
AcDbEntity
  8
0-B_寸法
  6
Continuous
 62
     7
370
   211
100
AcDbMText
 10
2506.643136310905
 20
-223.4328991712731
 30
0.0
 40
45.72
 41
60.0
 46
0.0
 71
     7
 72
     1
  1
{\fＭＳ ゴシック|b0|i0|c128|p49;30}
 73
     1
 44
1.0
  0
MTEXT
  5
222
330
1F
100
AcDbEntity
  8
0-B_寸法
  6
Continuous
 62
     7
370
   211
100
AcDbMText
 10
2591.054363876358
 20
-223.4328991712731
 30
0.0
 40
45.72
 41
90.0
 46
0.0
 71
     7
 72
     1
  1
{\fＭＳ ゴシック|b0|i0|c128|p49;256}
 73
     1
 44
1.0
  0
LINE
  5
223
330
1F
100
AcDbEntity
  8
0-1_本体
  6
Continuous
 62
    40
370
    15
100
AcDbLine
 10
2763.490034461462
 20
-1161.292899171273
 30
0.0
 11
2766.490034461463
 21
-1161.292899171273
 31
0.0
  0
LINE
  5
224
330
1F
100
AcDbEntity
  8
0-1_本体
  6
Continuous
 62
    40
370
    15
100
AcDbLine
 10
2421.490034461463
 20
-1154.292899171274
 30
0.0
 11
2421.490034461463
 21
-1169.292899171274
 31
0.0
  0
CIRCLE
  5
225
330
1F
100
AcDbEntity
  8
0-5_ダボ
  6
Continuous
 62
     7
370
     9
100
AcDbCircle
 10
2458.490034461462
 20
-1033.292899171273
 30
0.0
 40
2.5
  0
CIRCLE
  5
226
330
1F
100
AcDbEntity
  8
0-5_ダボ
  6
Continuous
 62
     7
370
     9
100
AcDbCircle
 10
2458.490034461462
 20
-1065.292899171274
 30
0.0
 40
2.5
  0
LINE
  5
227
330
1F
100
AcDbEntity
  8
0-1_本体
  6
Continuous
 62
    40
370
    15
100
AcDbLine
 10
2421.490034461463
 20
-1154.292899171274
 30
0.0
 11
2763.490034461462
 21
-1154.292899171274
 31
0.0
  0
LINE
  5
228
330
1F
100
AcDbEntity
  8
0-1_本体
  6
Continuous
 62
    40
370
    15
100
AcDbLine
 10
2766.490034461463
 20
-1169.292899171274
 30
0.0
 11
2421.490034461463
 21
-1169.292899171274
 31
0.0
  0
LINE
  5
229
330
1F
100
AcDbEntity
  8
0-B_寸法
  6
Continuous
 62
   120
370
     5
100
AcDbLine
 10
2149.490034554538
 20
-1169.292899171274
 30
0.0
 11
2249.490034554538
 21
-1169.292899171274
 31
0.0
  0
LWPOLYLINE
  5
22A
330
1F
100
AcDbEntity
  8
0-B_寸法
  6
Continuous
 62
     7
370
     9
100
AcDbPolyline
 90
        4
 70
     1
 43
2.0
 10
2150.490034554538
 20
-1169.292899171274
 42
0.4142135623731
 10
2149.490034554538
 20
-1168.292899171274
 42
0.4142135623731
 10
2148.490034554539
 20
-1169.292899171274
 42
0.4142135623731
 10
2149.490034554538
 20
-1170.292899171274
 42
0.4142135623731
  0
MTEXT
  5
22B
330
1F
100
AcDbEntity
  8
0-B_寸法
  6
Continuous
 62
     7
370
   211
100
AcDbMText
 10
2703.027573411187
 20
-223.4328991712731
 30
0.0
 40
45.72
 41
60.0
 46
0.0
 71
     7
 72
     1
  1
{\fＭＳ ゴシック|b0|i0|c128|p49;22}
 73
     1
 44
1.0
  0
LINE
  5
22C
330
1F
100
AcDbEntity
  8
0-B_寸法
  6
Continuous
 62
   120
370
     5
100
AcDbLine
 10
2249.490034554538
 20
-1169.292899171274
 30
0.0
 11
2349.490034461461
 21
-1169.292899171274
 31
0.0
  0
LWPOLYLINE
  5
22D
330
1F
100
AcDbEntity
  8
0-B_寸法
  6
Continuous
 62
     7
370
     9
100
AcDbPolyline
 90
        4
 70
     1
 43
2.0
 10
2250.490034554538
 20
-1169.292899171274
 42
0.4142135623731
 10
2249.490034554538
 20
-1168.292899171274
 42
0.4142135623731
 10
2248.490034554539
 20
-1169.292899171274
 42
0.4142135623731
 10
2249.490034554538
 20
-1170.292899171274
 42
0.4142135623731
  0
LINE
  5
22E
330
1F
100
AcDbEntity
  8
0-B_寸法
  6
Continuous
 62
   120
370
     5
100
AcDbLine
 10
2249.490034554538
 20
-1049.292899171274
 30
0.0
 11
2249.490034554538
 21
-1169.292899171274
 31
0.0
  0
LINE
  5
22F
330
1F
100
AcDbEntity
  8
0-B_寸法
  6
Continuous
 62
   120
370
     5
100
AcDbLine
 10
2249.490034554538
 20
-1049.292899171274
 30
0.0
 11
2349.490034461461
 21
-1049.292899171274
 31
0.0
  0
LWPOLYLINE
  5
230
330
1F
100
AcDbEntity
  8
0-B_寸法
  6
Continuous
 62
     7
370
     9
100
AcDbPolyline
 90
        4
 70
     1
 43
2.0
 10
2250.490034554538
 20
-1049.292899171274
 42
0.4142135623731
 10
2249.490034554538
 20
-1048.292899171274
 42
0.4142135623731
 10
2248.490034554539
 20
-1049.292899171274
 42
0.4142135623731
 10
2249.490034554538
 20
-1050.292899171274
 42
0.4142135623731
  0
LINE
  5
231
330
1F
100
AcDbEntity
  8
0-B_寸法
  6
Continuous
 62
   120
370
     5
100
AcDbLine
 10
2049.490034554538
 20
-1166.29291772926
 30
0.0
 11
2149.490034554538
 21
-1166.29291772926
 31
0.0
  0
LWPOLYLINE
  5
232
330
1F
100
AcDbEntity
  8
0-B_寸法
  6
Continuous
 62
     7
370
     9
100
AcDbPolyline
 90
        4
 70
     1
 43
2.0
 10
2050.490034554538
 20
-1166.29291772926
 42
0.4142135623731
 10
2049.490034554538
 20
-1165.29291772926
 42
0.4142135623731
 10
2048.490034554539
 20
-1166.29291772926
 42
0.4142135623731
 10
2049.490034554538
 20
-1167.29291772926
 42
0.4142135623731
  0
LINE
  5
233
330
1F
100
AcDbEntity
  8
0-B_寸法
  6
Continuous
 62
   120
370
     5
100
AcDbLine
 10
2049.490034554538
 20
-1169.29291772926
 30
0.0
 11
2049.490034554538
 21
-1166.29291772926
 31
0.0
  0
MTEXT
  5
234
330
1F
100
AcDbEntity
  8
0-B_寸法
  6
Continuous
 62
     7
370
   211
100
AcDbMText
 10
2039.490034554539
 20
-448.6838421500512
 30
0.0
 40
45.72
 41
30.0
 46
0.0
 71
     7
 72
     1
  1
{\fＭＳ ゴシック|b0|i0|c128|p49;3}
 11
6.123031769111886E-17
 21
1.0
 31
0.0
 73
     1
 44
1.0
  0
LINE
  5
235
330
1F
100
AcDbEntity
  8
0-B_寸法
  6
Continuous
 62
   120
370
     5
100
AcDbLine
 10
2049.490034554538
 20
-1169.29291772926
 30
0.0
 11
2149.490034554538
 21
-1169.29291772926
 31
0.0
  0
LWPOLYLINE
  5
236
330
1F
100
AcDbEntity
  8
0-B_寸法
  6
Continuous
 62
     7
370
     9
100
AcDbPolyline
 90
        4
 70
     1
 43
2.0
 10
2050.490034554538
 20
-1169.29291772926
 42
0.4142135623731
 10
2049.490034554538
 20
-1168.29291772926
 42
0.4142135623731
 10
2048.490034554539
 20
-1169.29291772926
 42
0.4142135623731
 10
2049.490034554538
 20
-1170.29291772926
 42
0.4142135623731
  0
LINE
  5
237
330
1F
100
AcDbEntity
  8
0-B_寸法
  6
Continuous
 62
   120
370
     5
100
AcDbLine
 10
1949.490034554539
 20
-1169.292899171274
 30
0.0
 11
2049.490034554538
 21
-1169.292899171274
 31
0.0
  0
LWPOLYLINE
  5
238
330
1F
100
AcDbEntity
  8
0-B_寸法
  6
Continuous
 62
     7
370
     9
100
AcDbPolyline
 90
        4
 70
     1
 43
2.0
 10
1950.490034554539
 20
-1169.292899171274
 42
0.4142135623731
 10
1949.490034554539
 20
-1168.292899171274
 42
0.4142135623731
 10
1948.490034554539
 20
-1169.292899171274
 42
0.4142135623731
 10
1949.490034554539
 20
-1170.292899171274
 42
0.4142135623731
  0
LINE
  5
239
330
1F
100
AcDbEntity
  8
0-B_寸法
  6
Continuous
 62
   120
370
     5
100
AcDbLine
 10
2049.490034554538
 20
-1169.292899171274
 30
0.0
 11
2149.490034554538
 21
-1169.292899171274
 31
0.0
  0
CIRCLE
  5
23A
330
1F
100
AcDbEntity
  8
0-5_ダボ
  6
Continuous
 62
     7
370
     9
100
AcDbCircle
 10
2744.490034461461
 20
-564.8145080935295
 30
0.0
 40
2.5
  0
CIRCLE
  5
23B
330
1F
100
AcDbEntity
  8
0-5_ダボ
  6
Continuous
 62
     7
370
     9
100
AcDbCircle
 10
2744.490034461461
 20
-596.8145080935299
 30
0.0
 40
2.5
  0
CIRCLE
  5
23C
330
1F
100
AcDbEntity
  8
0-5_ダボ
  6
Continuous
 62
     7
370
     9
100
AcDbCircle
 10
2744.490034461461
 20
-628.8145080935301
 30
0.0
 40
2.5
  0
CIRCLE
  5
23D
330
1F
100
AcDbEntity
  8
0-5_ダボ
  6
Continuous
 62
     7
370
     9
100
AcDbCircle
 10
2744.490034461461
 20
-660.8145080935305
 30
0.0
 40
2.5
  0
CIRCLE
  5
23E
330
1F
100
AcDbEntity
  8
0-5_ダボ
  6
Continuous
 62
     7
370
     9
100
AcDbCircle
 10
2744.490034461461
 20
-692.8145080935299
 30
0.0
 40
2.5
  0
CIRCLE
  5
23F
330
1F
100
AcDbEntity
  8
0-5_ダボ
  6
Continuous
 62
     7
370
     9
100
AcDbCircle
 10
2744.490034461461
 20
-724.8145080935303
 30
0.0
 40
2.5
  0
CIRCLE
  5
240
330
1F
100
AcDbEntity
  8
0-5_ダボ
  6
Continuous
 62
     7
370
     9
100
AcDbCircle
 10
2744.490034461461
 20
-756.8145080935296
 30
0.0
 40
2.5
  0
CIRCLE
  5
241
330
1F
100
AcDbEntity
  8
0-5_ダボ
  6
Continuous
 62
     7
370
     9
100
AcDbCircle
 10
2744.490034461461
 20
-788.8145080935301
 30
0.0
 40
2.5
  0
CIRCLE
  5
242
330
1F
100
AcDbEntity
  8
0-5_ダボ
  6
Continuous
 62
     7
370
     9
100
AcDbCircle
 10
2744.490034461461
 20
-820.8145080935305
 30
0.0
 40
2.5
  0
CIRCLE
  5
243
330
1F
100
AcDbEntity
  8
0-5_ダボ
  6
Continuous
 62
     7
370
     9
100
AcDbCircle
 10
2744.490034461461
 20
-852.8145080935304
 30
0.0
 40
2.5
  0
CIRCLE
  5
244
330
1F
100
AcDbEntity
  8
0-5_ダボ
  6
Continuous
 62
     7
370
     9
100
AcDbCircle
 10
2744.490034461461
 20
-884.8145080935315
 30
0.0
 40
2.5
  0
CIRCLE
  5
245
330
1F
100
AcDbEntity
  8
0-5_ダボ
  6
Continuous
 62
     7
370
     9
100
AcDbCircle
 10
2744.490034461461
 20
-916.8145080935296
 30
0.0
 40
2.5
  0
CIRCLE
  5
246
330
1F
100
AcDbEntity
  8
0-5_ダボ
  6
Continuous
 62
     7
370
     9
100
AcDbCircle
 10
2744.490034461461
 20
-948.8145080935301
 30
0.0
 40
2.5
  0
CIRCLE
  5
247
330
1F
100
AcDbEntity
  8
0-5_ダボ
  6
Continuous
 62
     7
370
     9
100
AcDbCircle
 10
2744.490034461461
 20
-980.8145080935305
 30
0.0
 40
2.5
  0
CIRCLE
  5
248
330
1F
100
AcDbEntity
  8
0-5_ダボ
  6
Continuous
 62
     7
370
     9
100
AcDbCircle
 10
2744.490034461461
 20
-1012.81450809353
 30
0.0
 40
2.5
  0
LINE
  5
249
330
1F
100
AcDbEntity
  8
0-4_棚
  6
Continuous
 62
    40
370
    15
100
AcDbLine
 10
2763.490034461462
 20
-550.3145080935291
 30
0.0
 11
2763.490034461462
 21
-562.3145080935295
 31
0.0
  0
LINE
  5
24A
330
1F
100
AcDbEntity
  8
0-4_棚
  6
Continuous
 62
    40
370
    15
100
AcDbLine
 10
2473.490034461462
 20
-550.3145080935291
 30
0.0
 11
2473.490034461462
 21
-562.3145080935295
 31
0.0
  0
LINE
  5
24B
330
1F
100
AcDbEntity
  8
0-4_棚
  6
Continuous
 62
    40
370
    15
100
AcDbLine
 10
2473.490034461462
 20
-562.3145080935295
 30
0.0
 11
2763.490034461462
 21
-562.3145080935295
 31
0.0
  0
LINE
  5
24C
330
1F
100
AcDbEntity
  8
0-4_棚
  6
Continuous
 62
    40
370
    15
100
AcDbLine
 10
2473.490034461462
 20
-550.3145080935291
 30
0.0
 11
2763.490034461462
 21
-550.3145080935291
 31
0.0
  0
LINE
  5
24D
330
1F
100
AcDbEntity
  8
0-4_棚
  6
Continuous
 62
    40
370
    15
100
AcDbLine
 10
2763.490034461462
 20
-742.3145080935303
 30
0.0
 11
2763.490034461462
 21
-754.3145080935296
 31
0.0
  0
LINE
  5
24E
330
1F
100
AcDbEntity
  8
0-4_棚
  6
Continuous
 62
    40
370
    15
100
AcDbLine
 10
2473.490034461462
 20
-742.3145080935303
 30
0.0
 11
2473.490034461462
 21
-754.3145080935296
 31
0.0
  0
LINE
  5
24F
330
1F
100
AcDbEntity
  8
0-4_棚
  6
Continuous
 62
    40
370
    15
100
AcDbLine
 10
2473.490034461462
 20
-754.3145080935296
 30
0.0
 11
2763.490034461462
 21
-754.3145080935296
 31
0.0
  0
LINE
  5
250
330
1F
100
AcDbEntity
  8
0-4_棚
  6
Continuous
 62
    40
370
    15
100
AcDbLine
 10
2473.490034461462
 20
-742.3145080935303
 30
0.0
 11
2763.490034461462
 21
-742.3145080935303
 31
0.0
  0
LINE
  5
251
330
1F
100
AcDbEntity
  8
0-4_棚
  6
Continuous
 62
    40
370
    15
100
AcDbLine
 10
2473.490034461462
 20
-934.3154071370891
 30
0.0
 11
2473.490034461462
 21
-946.315407137089
 31
0.0
  0
LINE
  5
252
330
1F
100
AcDbEntity
  8
0-4_棚
  6
Continuous
 62
    40
370
    15
100
AcDbLine
 10
2473.490034461462
 20
-934.3154071370891
 30
0.0
 11
2763.490034461462
 21
-934.3154071370891
 31
0.0
  0
LINE
  5
253
330
1F
100
AcDbEntity
  8
0-4_棚
  6
Continuous
 62
    40
370
    15
100
AcDbLine
 10
2473.490034461462
 20
-946.315407137089
 30
0.0
 11
2763.490034461462
 21
-946.315407137089
 31
0.0
  0
LINE
  5
254
330
1F
100
AcDbEntity
  8
0-4_棚
  6
Continuous
 62
    40
370
    15
100
AcDbLine
 10
2763.490034461462
 20
-934.3154071370891
 30
0.0
 11
2763.490034461462
 21
-946.315407137089
 31
0.0
  0
LINE
  5
255
330
1F
100
AcDbEntity
  8
0-0_補助線
  6
JWW_HOJO
 62
     7
370
     9
100
AcDbLine
 10
2419.20431885948
 20
-980.7928991712738
 30
0.0
 11
2766.490034458137
 21
-980.7928991712738
 31
0.0
  0
LINE
  5
256
330
1F
100
AcDbEntity
  8
0-0_補助線
  6
JWW_HOJO
 62
     7
370
     9
100
AcDbLine
 10
2416.918604671438
 20
-948.7928991712733
 30
0.0
 11
2766.490034454815
 21
-948.7928991712733
 31
0.0
  0
LINE
  5
257
330
1F
100
AcDbEntity
  8
0-0_補助線
  6
JWW_HOJO
 62
     7
370
     9
100
AcDbLine
 10
2414.632890483395
 20
-916.792899171274
 30
0.0
 11
2766.490034451489
 21
-916.792899171274
 31
0.0
  0
LINE
  5
258
330
1F
100
AcDbEntity
  8
0-0_補助線
  6
JWW_HOJO
 62
     7
370
     9
100
AcDbLine
 10
2412.34717629535
 20
-884.7928991712736
 30
0.0
 11
2766.490034448167
 21
-884.7928991712736
 31
0.0
  0
MTEXT
  5
259
330
1F
100
AcDbEntity
  8
0-B_寸法
  6
Continuous
 62
     7
370
   211
100
AcDbMText
 10
2239.490034554538
 20
-520.4328991712732
 30
0.0
 40
45.72
 41
90.0
 46
0.0
 71
     7
 72
     1
  1
{\fＭＳ ゴシック|b0|i0|c128|p49;120}
 11
6.123031769111886E-17
 21
1.0
 31
0.0
 73
     1
 44
1.0
  0
LINE
  5
25A
330
1F
100
AcDbEntity
  8
0-B_寸法
  6
Continuous
 62
   120
370
     5
100
AcDbLine
 10
2149.490034554538
 20
-564.7928991712736
 30
0.0
 11
2249.490034554538
 21
-564.7928991712736
 31
0.0
  0
LWPOLYLINE
  5
25B
330
1F
100
AcDbEntity
  8
0-B_寸法
  6
Continuous
 62
     7
370
     9
100
AcDbPolyline
 90
        4
 70
     1
 43
2.0
 10
2150.490034554538
 20
-564.7928991712736
 42
0.4142135623731
 10
2149.490034554538
 20
-563.7928991712736
 42
0.4142135623731
 10
2148.490034554539
 20
-564.7928991712736
 42
0.4142135623731
 10
2149.490034554538
 20
-565.7928991712736
 42
0.4142135623731
  0
LINE
  5
25C
330
1F
100
AcDbEntity
  8
0-B_寸法
  6
Continuous
 62
   120
370
     5
100
AcDbLine
 10
2149.490034554538
 20
-1012.792899171274
 30
0.0
 11
2149.490034554538
 21
-564.7928991712736
 31
0.0
  0
LINE
  5
25D
330
1F
100
AcDbEntity
  8
0-B_寸法
  6
Continuous
 62
   120
370
     5
100
AcDbLine
 10
2149.490034554538
 20
-1012.792899171274
 30
0.0
 11
2249.490034554538
 21
-1012.792899171274
 31
0.0
  0
LWPOLYLINE
  5
25E
330
1F
100
AcDbEntity
  8
0-B_寸法
  6
Continuous
 62
     7
370
     9
100
AcDbPolyline
 90
        4
 70
     1
 43
2.0
 10
2150.490034554538
 20
-1012.792899171274
 42
0.4142135623731
 10
2149.490034554538
 20
-1011.792899171274
 42
0.4142135623731
 10
2148.490034554539
 20
-1012.792899171274
 42
0.4142135623731
 10
2149.490034554538
 20
-1013.792899171274
 42
0.4142135623731
  0
LINE
  5
25F
330
1F
100
AcDbEntity
  8
0-B_寸法
  6
Continuous
 62
   120
370
     5
100
AcDbLine
 10
2149.490034554538
 20
-1169.292899171274
 30
0.0
 11
2149.490034554538
 21
-1012.792899171274
 31
0.0
  0
LINE
  5
260
330
1F
100
AcDbEntity
  8
0-0_補助線
  6
JWW_HOJO
 62
     7
370
     9
100
AcDbLine
 10
2259.737476005093
 20
-564.7928991712736
 30
0.0
 11
2766.490034414925
 21
-564.7928991712736
 31
0.0
  0
LINE
  5
261
330
1F
100
AcDbEntity
  8
0-0_補助線
  6
JWW_HOJO
 62
     7
370
     9
100
AcDbLine
 10
2766.490034461463
 20
-1012.792918966459
 30
0.0
 11
2177.424953394976
 21
-1012.792918966459
 31
0.0
  0
CIRCLE
  5
262
330
1F
100
AcDbEntity
  8
0-5_ダボ
  6
Continuous
 62
     7
370
     9
100
AcDbCircle
 10
2458.490034461462
 20
-512.2928991712728
 30
0.0
 40
2.5
  0
CIRCLE
  5
263
330
1F
100
AcDbEntity
  8
0-5_ダボ
  6
Continuous
 62
     7
370
     9
100
AcDbCircle
 10
2458.490034461462
 20
-544.2928991712738
 30
0.0
 40
2.5
  0
LINE
  5
264
330
1F
100
AcDbEntity
  8
0-0_補助線
  6
JWW_HOJO
 62
     7
370
     9
100
AcDbLine
 10
2744.490034461461
 20
-1161.292899171273
 30
0.0
 11
2744.490034461461
 21
-408.2928991712732
 31
0.0
  0
LINE
  5
265
330
1F
100
AcDbEntity
  8
0-B_寸法
  6
Continuous
 62
   120
370
     5
100
AcDbLine
 10
2149.490034554538
 20
-408.2928991712732
 30
0.0
 11
2249.490034554538
 21
-408.2928991712732
 31
0.0
  0
LWPOLYLINE
  5
266
330
1F
100
AcDbEntity
  8
0-B_寸法
  6
Continuous
 62
     7
370
     9
100
AcDbPolyline
 90
        4
 70
     1
 43
2.0
 10
2150.490034554538
 20
-408.2928991712732
 42
0.4142135623731
 10
2149.490034554538
 20
-407.2928991712732
 42
0.4142135623731
 10
2148.490034554539
 20
-408.2928991712732
 42
0.4142135623731
 10
2149.490034554538
 20
-409.2928991712733
 42
0.4142135623731
  0
LINE
  5
267
330
1F
100
AcDbEntity
  8
0-B_寸法
  6
Continuous
 62
   120
370
     5
100
AcDbLine
 10
2149.490034554538
 20
-564.7928991712736
 30
0.0
 11
2149.490034554538
 21
-408.2928991712732
 31
0.0
  0
LINE
  5
268
330
1F
100
AcDbEntity
  8
0-B_寸法
  6
Continuous
 62
   120
370
     5
100
AcDbLine
 10
2249.490034554538
 20
-528.2928991712738
 30
0.0
 11
2249.490034554538
 21
-1049.292899171274
 31
0.0
  0
MTEXT
  5
269
330
1F
100
AcDbEntity
  8
0-B_寸法
  6
Continuous
 62
     7
370
   211
100
AcDbMText
 10
2139.490034554538
 20
-580.4328991712732
 30
0.0
 40
45.72
 41
150.0
 46
0.0
 71
     7
 72
     1
  1
{\fＭＳ ゴシック|b0|i0|c128|p49;156.5}
 11
6.123031769111886E-17
 21
1.0
 31
0.0
 73
     1
 44
1.0
  0
LINE
  5
26A
330
1F
100
AcDbEntity
  8
0-B_寸法
  6
Continuous
 62
   120
370
     5
100
AcDbLine
 10
2249.490034554538
 20
-528.2928991712738
 30
0.0
 11
2349.490034461461
 21
-528.2928991712738
 31
0.0
  0
LINE
  5
26B
330
1F
100
AcDbEntity
  8
0-B_寸法
  6
Continuous
 62
   120
370
     5
100
AcDbLine
 10
2249.490034554538
 20
-408.2928991712732
 30
0.0
 11
2349.490034461461
 21
-408.2928991712732
 31
0.0
  0
LWPOLYLINE
  5
26C
330
1F
100
AcDbEntity
  8
0-B_寸法
  6
Continuous
 62
     7
370
     9
100
AcDbPolyline
 90
        4
 70
     1
 43
2.0
 10
2250.490034554538
 20
-528.2928991712738
 42
0.4142135623731
 10
2249.490034554538
 20
-527.2928991712738
 42
0.4142135623731
 10
2248.490034554539
 20
-528.2928991712738
 42
0.4142135623731
 10
2249.490034554538
 20
-529.2928991712738
 42
0.4142135623731
  0
LWPOLYLINE
  5
26D
330
1F
100
AcDbEntity
  8
0-B_寸法
  6
Continuous
 62
     7
370
     9
100
AcDbPolyline
 90
        4
 70
     1
 43
2.0
 10
2250.490034554538
 20
-408.2928991712732
 42
0.4142135623731
 10
2249.490034554538
 20
-407.2928991712732
 42
0.4142135623731
 10
2248.490034554539
 20
-408.2928991712732
 42
0.4142135623731
 10
2249.490034554538
 20
-409.2928991712733
 42
0.4142135623731
  0
LINE
  5
26E
330
1F
100
AcDbEntity
  8
0-B_寸法
  6
Continuous
 62
   120
370
     5
100
AcDbLine
 10
2249.490034554538
 20
-408.2928991712732
 30
0.0
 11
2249.490034554538
 21
-528.2928991712738
 31
0.0
  0
LINE
  5
26F
330
1F
100
AcDbEntity
  8
0-B_寸法
  6
Continuous
 62
   120
370
     5
100
AcDbLine
 10
2049.490034554538
 20
-1166.29291772926
 30
0.0
 11
2049.490034554538
 21
-411.2928793760878
 31
0.0
  0
LINE
  5
270
330
1F
100
AcDbEntity
  8
0-B_寸法
  6
Continuous
 62
   120
370
     5
100
AcDbLine
 10
2049.490034554538
 20
-411.2928793760878
 30
0.0
 11
2049.490034554538
 21
-408.2928793760877
 31
0.0
  0
LINE
  5
271
330
1F
100
AcDbEntity
  8
0-B_寸法
  6
Continuous
 62
   120
370
     5
100
AcDbLine
 10
2049.490034554538
 20
-411.2928793760878
 30
0.0
 11
2149.490034554538
 21
-411.2928793760878
 31
0.0
  0
LWPOLYLINE
  5
272
330
1F
100
AcDbEntity
  8
0-B_寸法
  6
Continuous
 62
     7
370
     9
100
AcDbPolyline
 90
        4
 70
     1
 43
2.0
 10
2050.490034554538
 20
-411.2928793760878
 42
0.4142135623731
 10
2049.490034554538
 20
-410.2928793760878
 42
0.4142135623731
 10
2048.490034554539
 20
-411.2928793760878
 42
0.4142135623731
 10
2049.490034554538
 20
-412.2928793760878
 42
0.4142135623731
  0
MTEXT
  5
273
330
1F
100
AcDbEntity
  8
0-B_寸法
  6
Continuous
 62
     7
370
   211
100
AcDbMText
 10
2572.742167262385
 20
-682.7858414578897
 30
0.0
 40
45.72
 41
90.0
 46
0.0
 71
     7
 72
     1
  1
{\fＭＳ ゴシック|b0|i0|c128|p49;P32}
 73
     1
 44
1.0
  0
LINE
  5
274
330
1F
100
AcDbEntity
  8
0-B_寸法
  6
Continuous
 62
   120
370
     5
100
AcDbLine
 10
2049.490034554538
 20
-408.2928793760877
 30
0.0
 11
2149.490034554538
 21
-408.2928793760877
 31
0.0
  0
LWPOLYLINE
  5
275
330
1F
100
AcDbEntity
  8
0-B_寸法
  6
Continuous
 62
     7
370
     9
100
AcDbPolyline
 90
        4
 70
     1
 43
2.0
 10
2050.490034554538
 20
-408.2928793760877
 42
0.4142135623731
 10
2049.490034554538
 20
-407.2928793760877
 42
0.4142135623731
 10
2048.490034554539
 20
-408.2928793760877
 42
0.4142135623731
 10
2049.490034554538
 20
-409.2928793760877
 42
0.4142135623731
  0
LINE
  5
276
330
1F
100
AcDbEntity
  8
0-B_寸法
  6
Continuous
 62
   120
370
     5
100
AcDbLine
 10
1949.490034554539
 20
-1169.292899171274
 30
0.0
 11
1949.490034554539
 21
-408.2928793760877
 31
0.0
  0
LINE
  5
277
330
1F
100
AcDbEntity
  8
0-B_寸法
  6
Continuous
 62
   120
370
     5
100
AcDbLine
 10
1949.490034554539
 20
-408.2928793760877
 30
0.0
 11
2049.490034554538
 21
-408.2928793760877
 31
0.0
  0
LWPOLYLINE
  5
278
330
1F
100
AcDbEntity
  8
0-B_寸法
  6
Continuous
 62
     7
370
     9
100
AcDbPolyline
 90
        4
 70
     1
 43
2.0
 10
1950.490034554539
 20
-408.2928793760877
 42
0.4142135623731
 10
1949.490034554539
 20
-407.2928793760877
 42
0.4142135623731
 10
1948.490034554539
 20
-408.2928793760877
 42
0.4142135623731
 10
1949.490034554539
 20
-409.2928793760877
 42
0.4142135623731
  0
LINE
  5
279
330
1F
100
AcDbEntity
  8
0-B_寸法
  6
Continuous
 62
   120
370
     5
100
AcDbLine
 10
2049.490034554538
 20
-408.2928991712732
 30
0.0
 11
2149.490034554538
 21
-408.2928991712732
 31
0.0
  0
MTEXT
  5
27A
330
1F
100
AcDbEntity
  8
0-B_寸法
  6
Continuous
 62
     7
370
   211
100
AcDbMText
 10
2139.490034554538
 20
-840.9328991712733
 30
0.0
 40
45.72
 41
90.0
 46
0.0
 71
     7
 72
     1
  1
{\fＭＳ ゴシック|b0|i0|c128|p49;448}
 11
6.123031769111886E-17
 21
1.0
 31
0.0
 73
     1
 44
1.0
  0
MTEXT
  5
27B
330
1F
100
AcDbEntity
  8
0-B_寸法
  6
Continuous
 62
     7
370
   211
100
AcDbMText
 10
1939.490034554539
 20
-840.9329090688665
 30
0.0
 40
45.72
 41
90.0
 46
0.0
 71
     7
 72
     1
  1
{\fＭＳ ゴシック|b0|i0|c128|p49;761}
 11
6.123031769111886E-17
 21
1.0
 31
0.0
 73
     1
 44
1.0
  0
MTEXT
  5
27C
330
1F
100
AcDbEntity
  8
0-B_寸法
  6
Continuous
 62
     7
370
   211
100
AcDbMText
 10
2239.490034554538
 20
-840.932918966459
 30
0.0
 40
45.72
 41
90.0
 46
0.0
 71
     7
 72
     1
  1
{\fＭＳ ゴシック|b0|i0|c128|p49;521}
 11
6.123031769111886E-17
 21
1.0
 31
0.0
 73
     1
 44
1.0
  0
MTEXT
  5
27D
330
1F
100
AcDbEntity
  8
0-B_寸法
  6
Continuous
 62
     7
370
   211
100
AcDbMText
 10
2039.490034554539
 20
-930.9328209920723
 30
0.0
 40
45.71999999999999
 41
270.0
 46
0.0
 71
     7
 72
     1
  1
{\fＭＳ ゴシック|b0|i0|c128|p49;ＤＨ＝755}
 11
6.123031769111886E-17
 21
1.0
 31
0.0
 73
     1
 44
1.0
  0
LINE
  5
27E
330
1F
100
AcDbEntity
  8
0-6_桟木
  6
Continuous
 62
    92
370
    13
100
AcDbLine
 10
2763.490034461462
 20
-1154.292899171274
 30
0.0
 11
2763.490034461462
 21
-1090.292899171274
 31
0.0
  0
LINE
  5
27F
330
1F
100
AcDbEntity
  8
0-6_桟木
  6
Continuous
 62
    92
370
    13
100
AcDbLine
 10
2763.490034461462
 20
-1090.292899171274
 30
0.0
 11
2748.490034461462
 21
-1090.292899171274
 31
0.0
  0
LINE
  5
280
330
1F
100
AcDbEntity
  8
0-6_桟木
  6
Continuous
 62
    92
370
    13
100
AcDbLine
 10
2748.490034461462
 20
-1090.292899171274
 30
0.0
 11
2748.490034461462
 21
-1154.292899171274
 31
0.0
  0
LINE
  5
281
330
1F
100
AcDbEntity
  8
0-6_桟木
  6
Continuous
 62
    92
370
    13
100
AcDbLine
 10
2748.490034461462
 20
-1154.292899171274
 30
0.0
 11
2763.490034461462
 21
-1154.292899171274
 31
0.0
  0
CIRCLE
  5
282
330
1F
100
AcDbEntity
  8
0-6_桟木
  6
Continuous
 62
     7
370
     9
100
AcDbCircle
 10
2755.990034461462
 20
-1106.292899171274
 30
0.0
 40
4.0
  0
CIRCLE
  5
283
330
1F
100
AcDbEntity
  8
0-6_桟木
  6
Continuous
 62
     7
370
     9
100
AcDbCircle
 10
2755.990034461462
 20
-1138.292899171274
 30
0.0
 40
4.0
  0
LINE
  5
284
330
1F
100
AcDbEntity
  8
0-6_桟木
  6
Continuous
 62
    92
370
    13
100
AcDbLine
 10
2763.490034461462
 20
-487.2928991712736
 30
0.0
 11
2763.490034461462
 21
-423.292899171274
 31
0.0
  0
LINE
  5
285
330
1F
100
AcDbEntity
  8
0-6_桟木
  6
Continuous
 62
    92
370
    13
100
AcDbLine
 10
2763.490034461462
 20
-423.292899171274
 30
0.0
 11
2748.490034461462
 21
-423.292899171274
 31
0.0
  0
LINE
  5
286
330
1F
100
AcDbEntity
  8
0-6_桟木
  6
Continuous
 62
    92
370
    13
100
AcDbLine
 10
2748.490034461462
 20
-423.292899171274
 30
0.0
 11
2748.490034461462
 21
-487.2928991712736
 31
0.0
  0
LINE
  5
287
330
1F
100
AcDbEntity
  8
0-6_桟木
  6
Continuous
 62
    92
370
    13
100
AcDbLine
 10
2748.490034461462
 20
-487.2928991712736
 30
0.0
 11
2763.490034461462
 21
-487.2928991712736
 31
0.0
  0
CIRCLE
  5
288
330
1F
100
AcDbEntity
  8
0-6_桟木
  6
Continuous
 62
     7
370
     9
100
AcDbCircle
 10
2755.990034461462
 20
-439.2928991712731
 30
0.0
 40
4.0
  0
CIRCLE
  5
289
330
1F
100
AcDbEntity
  8
0-6_桟木
  6
Continuous
 62
     7
370
     9
100
AcDbCircle
 10
2755.990034461462
 20
-471.2928991712737
 30
0.0
 40
4.0
  0
MTEXT
  5
28A
330
1F
100
AcDbEntity
  8
0-B_寸法
  6
Continuous
 62
     7
370
   211
100
AcDbMText
 10
2139.490034554538
 20
-1161.432899171274
 30
0.0
 40
45.72
 41
150.0
 46
0.0
 71
     7
 72
     1
  1
{\fＭＳ ゴシック|b0|i0|c128|p49;156.5}
 11
6.123031769111886E-17
 21
1.0
 31
0.0
 73
     1
 44
1.0
  0
LWPOLYLINE
  5
28B
330
1F
100
AcDbEntity
  8
0-B_寸法
  6
Continuous
 62
     7
370
     9
100
AcDbPolyline
 90
        4
 70
     1
 43
2.0
 10
2557.49003446146
 20
-660.7928991712715
 42
0.4142135623731
 10
2556.49003446146
 20
-659.7928991712716
 42
0.4142135623731
 10
2555.49003446146
 20
-660.7928991712715
 42
0.4142135623731
 10
2556.49003446146
 20
-661.7928991712715
 42
0.4142135623731
  0
LWPOLYLINE
  5
28C
330
1F
100
AcDbEntity
  8
0-B_寸法
  6
Continuous
 62
     7
370
     9
100
AcDbPolyline
 90
        4
 70
     1
 43
2.0
 10
2557.49003446146
 20
-628.7928991712728
 42
0.4142135623731
 10
2556.49003446146
 20
-627.7928991712728
 42
0.4142135623731
 10
2555.49003446146
 20
-628.7928991712728
 42
0.4142135623731
 10
2556.49003446146
 20
-629.7928991712728
 42
0.4142135623731
  0
LINE
  5
28D
330
1F
100
AcDbEntity
  8
0-B_寸法
  6
Continuous
 62
   120
370
     5
100
AcDbLine
 10
2556.49003446146
 20
-628.7928991712728
 30
0.0
 11
2556.49003446146
 21
-660.7928991712715
 31
0.0
  0
LINE
  5
28E
330
1F
100
AcDbEntity
  8
0-B_寸法
  6
Continuous
 62
   120
370
     5
100
AcDbLine
 10
2556.49003446146
 20
-660.7928991712715
 30
0.0
 11
2506.49003446146
 21
-660.7928991712715
 31
0.0
  0
LINE
  5
28F
330
1F
100
AcDbEntity
  8
0-B_寸法
  6
Continuous
 62
   120
370
     5
100
AcDbLine
 10
2556.49003446146
 20
-628.7928991712728
 30
0.0
 11
2506.49003446146
 21
-628.7928991712728
 31
0.0
  0
CIRCLE
  5
290
330
1F
100
AcDbEntity
  8
0-5_ダボ
  6
Continuous
 62
     7
370
     9
100
AcDbCircle
 10
2488.490034461462
 20
-564.8145080935295
 30
0.0
 40
2.5
  0
CIRCLE
  5
291
330
1F
100
AcDbEntity
  8
0-5_ダボ
  6
Continuous
 62
     7
370
     9
100
AcDbCircle
 10
2488.490034461462
 20
-596.8145080935299
 30
0.0
 40
2.5
  0
CIRCLE
  5
292
330
1F
100
AcDbEntity
  8
0-5_ダボ
  6
Continuous
 62
     7
370
     9
100
AcDbCircle
 10
2488.490034461462
 20
-628.8145080935301
 30
0.0
 40
2.5
  0
CIRCLE
  5
293
330
1F
100
AcDbEntity
  8
0-5_ダボ
  6
Continuous
 62
     7
370
     9
100
AcDbCircle
 10
2488.490034461462
 20
-660.8145080935305
 30
0.0
 40
2.5
  0
CIRCLE
  5
294
330
1F
100
AcDbEntity
  8
0-5_ダボ
  6
Continuous
 62
     7
370
     9
100
AcDbCircle
 10
2488.490034461462
 20
-692.8145080935299
 30
0.0
 40
2.5
  0
CIRCLE
  5
295
330
1F
100
AcDbEntity
  8
0-5_ダボ
  6
Continuous
 62
     7
370
     9
100
AcDbCircle
 10
2488.490034461462
 20
-724.8145080935303
 30
0.0
 40
2.5
  0
CIRCLE
  5
296
330
1F
100
AcDbEntity
  8
0-5_ダボ
  6
Continuous
 62
     7
370
     9
100
AcDbCircle
 10
2488.490034461462
 20
-756.8145080935296
 30
0.0
 40
2.5
  0
CIRCLE
  5
297
330
1F
100
AcDbEntity
  8
0-5_ダボ
  6
Continuous
 62
     7
370
     9
100
AcDbCircle
 10
2488.490034461462
 20
-788.8145080935301
 30
0.0
 40
2.5
  0
CIRCLE
  5
298
330
1F
100
AcDbEntity
  8
0-5_ダボ
  6
Continuous
 62
     7
370
     9
100
AcDbCircle
 10
2488.490034461462
 20
-820.8145080935305
 30
0.0
 40
2.5
  0
CIRCLE
  5
299
330
1F
100
AcDbEntity
  8
0-5_ダボ
  6
Continuous
 62
     7
370
     9
100
AcDbCircle
 10
2488.490034461462
 20
-852.8145080935304
 30
0.0
 40
2.5
  0
CIRCLE
  5
29A
330
1F
100
AcDbEntity
  8
0-5_ダボ
  6
Continuous
 62
     7
370
     9
100
AcDbCircle
 10
2488.490034461462
 20
-884.8145080935315
 30
0.0
 40
2.5
  0
CIRCLE
  5
29B
330
1F
100
AcDbEntity
  8
0-5_ダボ
  6
Continuous
 62
     7
370
     9
100
AcDbCircle
 10
2488.490034461462
 20
-916.8145080935296
 30
0.0
 40
2.5
  0
CIRCLE
  5
29C
330
1F
100
AcDbEntity
  8
0-5_ダボ
  6
Continuous
 62
     7
370
     9
100
AcDbCircle
 10
2488.490034461462
 20
-948.8145080935301
 30
0.0
 40
2.5
  0
CIRCLE
  5
29D
330
1F
100
AcDbEntity
  8
0-5_ダボ
  6
Continuous
 62
     7
370
     9
100
AcDbCircle
 10
2488.490034461462
 20
-980.8145080935305
 30
0.0
 40
2.5
  0
CIRCLE
  5
29E
330
1F
100
AcDbEntity
  8
0-5_ダボ
  6
Continuous
 62
     7
370
     9
100
AcDbCircle
 10
2488.490034461462
 20
-1012.81450809353
 30
0.0
 40
2.5
  0
LINE
  5
29F
330
1F
100
AcDbEntity
  8
0-0_補助線
  6
JWW_HOJO
 62
     7
370
     9
100
AcDbLine
 10
2488.490034461462
 20
-410.2928991712737
 30
0.0
 11
2488.490034461462
 21
-1169.292899171274
 31
0.0
  0
LINE
  5
2A0
330
1F
100
AcDbEntity
  8
0-1_本体
  6
Continuous
 62
    40
370
    15
100
AcDbLine
 10
2763.490034461462
 20
-423.292899171274
 30
0.0
 11
2421.490034461463
 21
-423.292899171274
 31
0.0
  0
LINE
  5
2A1
330
1F
100
AcDbEntity
  8
0-1_本体
  6
Continuous
 62
    40
370
    15
100
AcDbLine
 10
2421.490034461463
 20
-423.292899171274
 30
0.0
 11
2421.490034461463
 21
-408.2928793760877
 31
0.0
  0
MTEXT
  5
2A2
330
1F
100
AcDbEntity
  8
0-B_寸法
  6
Continuous
 62
     7
370
   211
100
AcDbMText
 10
2239.490034554538
 20
-1161.432899171274
 30
0.0
 40
45.72
 41
90.0
 46
0.0
 71
     7
 72
     1
  1
{\fＭＳ ゴシック|b0|i0|c128|p49;120}
 11
6.123031769111886E-17
 21
1.0
 31
0.0
 73
     1
 44
1.0
  0
LINE
  5
2A3
330
1F
100
AcDbEntity
  8
0-1_本体
  6
Continuous
 62
    40
370
    15
100
AcDbLine
 10
2763.490034461462
 20
-1161.292899171273
 30
0.0
 11
2763.490034461462
 21
-416.2928991712745
 31
0.0
  0
LINE
  5
2A4
330
1F
100
AcDbEntity
  8
0-1_本体
  6
Continuous
 62
    40
370
    15
100
AcDbLine
 10
2764.990034461464
 20
-1161.292899171273
 30
0.0
 11
2764.990034461464
 21
-416.2928991712745
 31
0.0
  0
LINE
  5
2A5
330
1F
100
AcDbEntity
  8
0-1_本体
  6
Continuous
 62
    40
370
    15
100
AcDbLine
 10
2763.490034461462
 20
-416.2928991712745
 30
0.0
 11
2766.490034461463
 21
-416.2928991712745
 31
0.0
  0
LINE
  5
2A6
330
1F
100
AcDbEntity
  8
0-1_本体
  6
Continuous
 62
     7
370
     9
100
AcDbLine
 10
2766.490034461463
 20
-1169.292899171274
 30
0.0
 11
2766.490034461463
 21
-408.2928991712732
 31
0.0
  0
LINE
  5
2A7
330
1F
100
AcDbEntity
  8
0-1_本体
  6
Continuous
 62
    40
370
    15
100
AcDbLine
 10
2421.490034461463
 20
-408.292899171274
 30
0.0
 11
2766.490034461463
 21
-408.292899171274
 31
0.0
  0
LINE
  5
2A8
330
1F
100
AcDbEntity
  8
0-B_寸法
  6
Continuous
 62
   120
370
     5
100
AcDbLine
 10
2420.490034601079
 20
-126.2928991712722
 30
0.0
 11
2420.490034601079
 21
-326.2928991712724
 31
0.0
  0
LINE
  5
2A9
330
1F
100
AcDbEntity
  8
0-B_寸法
  6
Continuous
 62
   120
370
     5
100
AcDbLine
 10
2766.49003460108
 20
-126.2928991712722
 30
0.0
 11
2421.49003460108
 21
-126.2928991712722
 31
0.0
  0
LWPOLYLINE
  5
2AA
330
1F
100
AcDbEntity
  8
0-B_寸法
  6
Continuous
 62
     7
370
     9
100
AcDbPolyline
 90
        4
 70
     1
 43
2.0
 10
2767.49003460108
 20
-126.2928991712722
 42
0.4142135623731
 10
2766.49003460108
 20
-125.2928991712722
 42
0.4142135623731
 10
2765.49003460108
 20
-126.2928991712722
 42
0.4142135623731
 10
2766.49003460108
 20
-127.2928991712722
 42
0.4142135623731
  0
LWPOLYLINE
  5
2AB
330
1F
100
AcDbEntity
  8
0-B_寸法
  6
Continuous
 62
     7
370
     9
100
AcDbPolyline
 90
        4
 70
     1
 43
2.0
 10
2422.49003460108
 20
-126.2928991712722
 42
0.4142135623731
 10
2421.49003460108
 20
-125.2928991712722
 42
0.4142135623731
 10
2420.49003460108
 20
-126.2928991712722
 42
0.4142135623731
 10
2421.49003460108
 20
-127.2928991712722
 42
0.4142135623731
  0
LINE
  5
2AC
330
1F
100
AcDbEntity
  8
0-B_寸法
  6
Continuous
 62
   120
370
     5
100
AcDbLine
 10
2766.49003460108
 20
-126.2928991712722
 30
0.0
 11
2766.49003460108
 21
-226.2928991712724
 31
0.0
  0
LINE
  5
2AD
330
1F
100
AcDbEntity
  8
0-B_寸法
  6
Continuous
 62
   120
370
     5
100
AcDbLine
 10
2421.49003460108
 20
-126.2928991712722
 30
0.0
 11
2421.49003460108
 21
-226.2928991712724
 31
0.0
  0
MTEXT
  5
2AE
330
1F
100
AcDbEntity
  8
0-B_寸法
  6
Continuous
 62
     7
370
   211
100
AcDbMText
 10
2039.490034554539
 20
-1172.707507016759
 30
0.0
 40
45.72
 41
30.0
 46
0.0
 71
     7
 72
     1
  1
{\fＭＳ ゴシック|b0|i0|c128|p49;3}
 11
6.123031769111886E-17
 21
1.0
 31
0.0
 73
     1
 44
1.0
  0
LINE
  5
2AF
330
1F
100
AcDbEntity
  8
0-B_寸法
  6
Continuous
 62
   120
370
     5
100
AcDbLine
 10
2421.49003460108
 20
-126.2928991712722
 30
0.0
 11
2420.490034601079
 21
-126.2928991712722
 31
0.0
  0
LWPOLYLINE
  5
2B0
330
1F
100
AcDbEntity
  8
0-B_寸法
  6
Continuous
 62
     7
370
     9
100
AcDbPolyline
 90
        4
 70
     1
 43
2.0
 10
2421.490034601079
 20
-126.2928991712722
 42
0.4142135623731
 10
2420.490034601079
 20
-125.2928991712722
 42
0.4142135623731
 10
2419.490034601079
 20
-126.2928991712722
 42
0.4142135623731
 10
2420.490034601079
 20
-127.2928991712722
 42
0.4142135623731
  0
LWPOLYLINE
  5
2B1
330
1F
100
AcDbEntity
  8
0-B_寸法
  6
Continuous
 62
     7
370
     9
100
AcDbPolyline
 90
        4
 70
     1
 43
2.0
 10
2489.490034461462
 20
-226.2928991712731
 42
0.4142135623731
 10
2488.490034461462
 20
-225.2928991712731
 42
0.4142135623731
 10
2487.490034461462
 20
-226.2928991712731
 42
0.4142135623731
 10
2488.490034461462
 20
-227.2928991712731
 42
0.4142135623731
  0
LINE
  5
2B2
330
1F
100
AcDbEntity
  8
0-B_寸法
  6
Continuous
 62
   120
370
     5
100
AcDbLine
 10
2488.490034461462
 20
-226.2928991712731
 30
0.0
 11
2488.490034461462
 21
-326.2928991712731
 31
0.0
  0
LINE
  5
2B3
330
1F
100
AcDbEntity
  8
0-B_寸法
  6
Continuous
 62
   120
370
     5
100
AcDbLine
 10
2488.490034461462
 20
-226.2928991712731
 30
0.0
 11
2458.490034461462
 21
-226.2928991712731
 31
0.0
  0
LINE
  5
2B4
330
1F
100
AcDbEntity
  8
0-B_寸法
  6
Continuous
 62
   120
370
     5
100
AcDbLine
 10
2744.490034461461
 20
-226.2928991712731
 30
0.0
 11
2488.490034461462
 21
-226.2928991712731
 31
0.0
  0
LWPOLYLINE
  5
2B5
330
1F
100
AcDbEntity
  8
0-B_寸法
  6
Continuous
 62
     7
370
     9
100
AcDbPolyline
 90
        4
 70
     1
 43
2.0
 10
2767.490034414925
 20
-226.2928991712731
 42
0.4142135623731
 10
2766.490034414925
 20
-225.2928991712731
 42
0.4142135623731
 10
2765.490034414925
 20
-226.2928991712731
 42
0.4142135623731
 10
2766.490034414925
 20
-227.2928991712731
 42
0.4142135623731
  0
LINE
  5
2B6
330
1F
100
AcDbEntity
  8
0-B_寸法
  6
Continuous
 62
   120
370
     5
100
AcDbLine
 10
2766.490034414925
 20
-226.2928991712731
 30
0.0
 11
2766.490034414925
 21
-326.2928991712731
 31
0.0
  0
LWPOLYLINE
  5
2B7
330
1F
100
AcDbEntity
  8
0-B_寸法
  6
Continuous
 62
     7
370
     9
100
AcDbPolyline
 90
        4
 70
     1
 43
2.0
 10
2459.490034461462
 20
-226.2928991712731
 42
0.4142135623731
 10
2458.490034461462
 20
-225.2928991712731
 42
0.4142135623731
 10
2457.490034461462
 20
-226.2928991712731
 42
0.4142135623731
 10
2458.490034461462
 20
-227.2928991712731
 42
0.4142135623731
  0
LINE
  5
2B8
330
1F
100
AcDbEntity
  8
0-B_寸法
  6
Continuous
 62
   120
370
     5
100
AcDbLine
 10
2458.490034461462
 20
-226.2928991712731
 30
0.0
 11
2458.490034461462
 21
-326.2928991712731
 31
0.0
  0
LINE
  5
2B9
330
1F
100
AcDbEntity
  8
0-B_寸法
  6
Continuous
 62
   120
370
     5
100
AcDbLine
 10
2458.490034461462
 20
-226.2928991712731
 30
0.0
 11
2421.490034461463
 21
-226.2928991712731
 31
0.0
  0
LWPOLYLINE
  5
2BA
330
1F
100
AcDbEntity
  8
0-B_寸法
  6
Continuous
 62
     7
370
     9
100
AcDbPolyline
 90
        4
 70
     1
 43
2.0
 10
2422.490034461463
 20
-226.2928991712731
 42
0.4142135623731
 10
2421.490034461463
 20
-225.2928991712731
 42
0.4142135623731
 10
2420.490034461464
 20
-226.2928991712731
 42
0.4142135623731
 10
2421.490034461463
 20
-227.2928991712731
 42
0.4142135623731
  0
LINE
  5
2BB
330
1F
100
AcDbEntity
  8
0-B_寸法
  6
Continuous
 62
   120
370
     5
100
AcDbLine
 10
2421.490034461463
 20
-226.2928991712731
 30
0.0
 11
2421.490034461463
 21
-326.2928991712731
 31
0.0
  0
LINE
  5
2BC
330
1F
100
AcDbEntity
  8
0-B_寸法
  6
Continuous
 62
   120
370
     5
100
AcDbLine
 10
2766.490034414925
 20
-226.2928991712731
 30
0.0
 11
2744.490034461461
 21
-226.2928991712731
 31
0.0
  0
LWPOLYLINE
  5
2BD
330
1F
100
AcDbEntity
  8
0-B_寸法
  6
Continuous
 62
     7
370
     9
100
AcDbPolyline
 90
        4
 70
     1
 43
2.0
 10
2745.490034461461
 20
-226.2928991712731
 42
0.4142135623731
 10
2744.490034461461
 20
-225.2928991712731
 42
0.4142135623731
 10
2743.490034461461
 20
-226.2928991712731
 42
0.4142135623731
 10
2744.490034461461
 20
-227.2928991712731
 42
0.4142135623731
  0
LINE
  5
2BE
330
1F
100
AcDbEntity
  8
0-B_寸法
  6
Continuous
 62
   120
370
     5
100
AcDbLine
 10
2744.490034461461
 20
-226.2928991712731
 30
0.0
 11
2744.490034461461
 21
-326.2928991712731
 31
0.0
  0
LINE
  5
2BF
330
1F
100
AcDbEntity
  8
0-0_補助線
  6
JWW_HOJO
 62
   120
370
     5
100
AcDbLine
 10
2349.490034554538
 20
-226.2928991712731
 30
0.0
 11
2816.490034461463
 21
-226.2928991712731
 31
0.0
  0
LINE
  5
2C0
330
1F
100
AcDbEntity
  8
0-0_補助線
  6
JWW_HOJO
 62
   120
370
     5
100
AcDbLine
 10
2249.490034554538
 20
-1169.292899171274
 30
0.0
 11
2249.490034554538
 21
-326.2928991712731
 31
0.0
  0
LINE
  5
2C1
330
1F
100
AcDbEntity
  8
0-0_補助線
  6
JWW_HOJO
 62
   120
370
     5
100
AcDbLine
 10
2149.490034554538
 20
-1169.29291772926
 30
0.0
 11
2149.490034554538
 21
-326.2928991712731
 31
0.0
  0
LINE
  5
2C2
330
1F
100
AcDbEntity
  8
0-B_寸法
  6
Continuous
 62
   120
370
     5
100
AcDbLine
 10
2766.490034554537
 20
-1483.292839785714
 30
0.0
 11
2766.490034554537
 21
-1283.292839785715
 31
0.0
  0
LWPOLYLINE
  5
2C3
330
1F
100
AcDbEntity
  8
0-B_寸法
  6
Continuous
 62
     7
370
     9
100
AcDbPolyline
 90
        4
 70
     1
 43
2.0
 10
2767.490034554537
 20
-1383.292839785715
 42
0.4142135623731
 10
2766.490034554537
 20
-1382.292839785715
 42
0.4142135623731
 10
2765.490034554537
 20
-1383.292839785715
 42
0.4142135623731
 10
2766.490034554537
 20
-1384.292839785715
 42
0.4142135623731
  0
LINE
  5
2C4
330
1F
100
AcDbEntity
  8
0-B_寸法
  6
Continuous
 62
   120
370
     5
100
AcDbLine
 10
2421.490034554538
 20
-1483.292839785714
 30
0.0
 11
2421.490034554538
 21
-1283.292839785715
 31
0.0
  0
LWPOLYLINE
  5
2C5
330
1F
100
AcDbEntity
  8
0-B_寸法
  6
Continuous
 62
     7
370
     9
100
AcDbPolyline
 90
        4
 70
     1
 43
2.0
 10
2422.490034554538
 20
-1483.292839785714
 42
0.4142135623731
 10
2421.490034554538
 20
-1482.292839785714
 42
0.4142135623731
 10
2420.490034554538
 20
-1483.292839785714
 42
0.4142135623731
 10
2421.490034554538
 20
-1484.292839785714
 42
0.4142135623731
  0
LWPOLYLINE
  5
2C6
330
1F
100
AcDbEntity
  8
0-B_寸法
  6
Continuous
 62
     7
370
     9
100
AcDbPolyline
 90
        4
 70
     1
 43
2.0
 10
2767.490034554537
 20
-1483.292839785714
 42
0.4142135623731
 10
2766.490034554537
 20
-1482.292839785714
 42
0.4142135623731
 10
2765.490034554537
 20
-1483.292839785714
 42
0.4142135623731
 10
2766.490034554537
 20
-1484.292839785714
 42
0.4142135623731
  0
LINE
  5
2C7
330
1F
100
AcDbEntity
  8
0-B_寸法
  6
Continuous
 62
   120
370
     5
100
AcDbLine
 10
2766.490034554537
 20
-1483.292839785714
 30
0.0
 11
2421.490034554538
 21
-1483.292839785714
 31
0.0
  0
LINE
  5
2C8
330
1F
100
AcDbEntity
  8
0-6_桟木
  6
Continuous
 62
    92
370
    13
100
AcDbLine
 10
2766.490034554537
 20
-1233.292839785711
 30
0.0
 11
2796.490034554537
 21
-1233.292839785711
 31
0.0
  0
LINE
  5
2C9
330
1F
100
AcDbEntity
  8
0-6_桟木
  6
Continuous
 62
    40
370
    15
100
AcDbLine
 10
2766.490034461459
 20
-1090.292819990527
 30
0.0
 11
2766.490034461459
 21
-1164.292839785712
 31
0.0
  0
LINE
  5
2CA
330
1F
100
AcDbEntity
  8
0-6_桟木
  6
Continuous
 62
     7
370
     9
100
AcDbLine
 10
2766.490034461459
 20
-1164.292819990527
 30
0.0
 11
2766.490034461459
 21
-1090.292819990527
 31
0.0
  0
LINE
  5
2CB
330
1F
100
AcDbEntity
  8
0-6_桟木
  6
Continuous
 62
    92
370
    13
100
AcDbLine
 10
2766.490034554537
 20
-1090.292839785711
 30
0.0
 11
2766.490034554537
 21
-1233.292839785711
 31
0.0
  0
LINE
  5
2CC
330
1F
100
AcDbEntity
  8
0-6_桟木
  6
Continuous
 62
    92
370
    13
100
AcDbLine
 10
2796.490034554537
 20
-1090.292839785711
 30
0.0
 11
2766.490034554537
 21
-1090.292839785711
 31
0.0
  0
LINE
  5
2CD
330
1F
100
AcDbEntity
  8
0-6_桟木
  6
Continuous
 62
    92
370
    13
100
AcDbLine
 10
2796.490034554537
 20
-1233.292839785711
 30
0.0
 11
2796.490034554537
 21
-1090.292839785711
 31
0.0
  0
LINE
  5
2CE
330
1F
100
AcDbEntity
  8
0-6_桟木
  6
Continuous
 62
     7
370
     9
100
AcDbLine
 10
2766.490034554537
 20
-1233.292839785711
 30
0.0
 11
2796.490034554537
 21
-1090.292839785711
 31
0.0
  0
LINE
  5
2CF
330
1F
100
AcDbEntity
  8
0-6_桟木
  6
Continuous
 62
     7
370
     9
100
AcDbLine
 10
2766.490034554537
 20
-1090.292839785711
 30
0.0
 11
2796.490034554537
 21
-1233.292839785711
 31
0.0
  0
LINE
  5
2D0
330
1F
100
AcDbEntity
  8
0-9__
  6
Continuous
 62
     7
370
     9
100
AcDbLine
 10
2766.490034554537
 20
-1169.292839785714
 30
0.0
 11
2766.490034554537
 21
-1233.292839785714
 31
0.0
  0
LINE
  5
2D1
330
1F
100
AcDbEntity
  8
0-9__
  6
Continuous
 62
     7
370
     9
100
AcDbLine
 10
2751.490034554537
 20
-1169.292839785714
 30
0.0
 11
2751.490034554537
 21
-1233.292839785714
 31
0.0
  0
MTEXT
  5
2D2
330
1F
100
AcDbEntity
  8
0-B_寸法
  6
Continuous
 62
     7
370
   211
100
AcDbMText
 10
2548.990034554537
 20
-1480.432839785714
 30
0.0
 40
45.72
 41
90.0
 46
0.0
 71
     7
 72
     1
  1
{\fＭＳ ゴシック|b0|i0|c128|p49;345}
 73
     1
 44
1.0
  0
MTEXT
  5
2D3
330
1F
100
AcDbEntity
  8
0-B_寸法
  6
Continuous
 62
     7
370
   211
100
AcDbMText
 10
1943.490034554538
 20
-1238.432839785715
 30
0.0
 40
45.72
 41
60.0
 46
0.0
 71
     7
 72
     1
  1
{\fＭＳ ゴシック|b0|i0|c128|p49;64}
 11
6.123031769111886E-17
 21
1.0
 31
0.0
 73
     1
 44
1.0
  0
LINE
  5
2D4
330
1F
100
AcDbEntity
  8
0-B_寸法
  6
Continuous
 62
   120
370
     5
100
AcDbLine
 10
1949.490034554539
 20
-1233.292839785715
 30
0.0
 11
2349.490034554538
 21
-1233.292839785715
 31
0.0
  0
LINE
  5
2D5
330
1F
100
AcDbEntity
  8
0-B_寸法
  6
Continuous
 62
   120
370
     5
100
AcDbLine
 10
1949.490034554539
 20
-1169.292839785714
 30
0.0
 11
2349.490034554538
 21
-1169.292839785714
 31
0.0
  0
LWPOLYLINE
  5
2D6
330
1F
100
AcDbEntity
  8
0-B_寸法
  6
Continuous
 62
     7
370
     9
100
AcDbPolyline
 90
        4
 70
     1
 43
2.0
 10
1950.490034554539
 20
-1233.292839785715
 42
0.4142135623731
 10
1949.490034554539
 20
-1232.292839785715
 42
0.4142135623731
 10
1948.490034554539
 20
-1233.292839785715
 42
0.4142135623731
 10
1949.490034554539
 20
-1234.292839785715
 42
0.4142135623731
  0
LWPOLYLINE
  5
2D7
330
1F
100
AcDbEntity
  8
0-B_寸法
  6
Continuous
 62
     7
370
     9
100
AcDbPolyline
 90
        4
 70
     1
 43
2.0
 10
1950.490034554539
 20
-1169.292839785714
 42
0.4142135623731
 10
1949.490034554539
 20
-1168.292839785714
 42
0.4142135623731
 10
1948.490034554539
 20
-1169.292839785714
 42
0.4142135623731
 10
1949.490034554539
 20
-1170.292839785714
 42
0.4142135623731
  0
LINE
  5
2D8
330
1F
100
AcDbEntity
  8
0-B_寸法
  6
Continuous
 62
   120
370
     5
100
AcDbLine
 10
1949.490034554539
 20
-1169.292839785714
 30
0.0
 11
1949.490034554539
 21
-1233.292839785715
 31
0.0
  0
LINE
  5
2D9
330
1F
100
AcDbEntity
  8
0-9__
  6
Continuous
 62
     7
370
     9
100
AcDbLine
 10
2766.490034554537
 20
-1233.292839785714
 30
0.0
 11
2461.490034554537
 21
-1233.292839785714
 31
0.0
  0
LINE
  5
2DA
330
1F
100
AcDbEntity
  8
0-9__
  6
Continuous
 62
     7
370
     9
100
AcDbLine
 10
2461.490034554537
 20
-1233.292839785714
 30
0.0
 11
2461.490034554537
 21
-1169.292839785714
 31
0.0
  0
LINE
  5
2DB
330
1F
100
AcDbEntity
  8
0-9__
  6
Continuous
 62
     7
370
     9
100
AcDbLine
 10
2461.490034554537
 20
-1169.292839785714
 30
0.0
 11
2766.490034554537
 21
-1169.292839785714
 31
0.0
  0
LINE
  5
2DC
330
1F
100
AcDbEntity
  8
0-9__
  6
Continuous
 62
     7
370
     9
100
AcDbLine
 10
2476.490034554537
 20
-1233.292839785714
 30
0.0
 11
2476.490034554537
 21
-1169.292839785714
 31
0.0
  0
LINE
  5
2DD
330
1F
100
AcDbEntity
  8
0-B_寸法
  6
Continuous
 62
   120
370
     5
100
AcDbLine
 10
2461.490034554537
 20
-1383.292839785715
 30
0.0
 11
2461.490034554537
 21
-1283.292839785715
 31
0.0
  0
LWPOLYLINE
  5
2DE
330
1F
100
AcDbEntity
  8
0-B_寸法
  6
Continuous
 62
     7
370
     9
100
AcDbPolyline
 90
        4
 70
     1
 43
2.0
 10
2462.490034554537
 20
-1383.292839785715
 42
0.4142135623731
 10
2461.490034554537
 20
-1382.292839785715
 42
0.4142135623731
 10
2460.490034554537
 20
-1383.292839785715
 42
0.4142135623731
 10
2461.490034554537
 20
-1384.292839785715
 42
0.4142135623731
  0
LINE
  5
2DF
330
1F
100
AcDbEntity
  8
0-B_寸法
  6
Continuous
 62
   120
370
     5
100
AcDbLine
 10
2766.490034554537
 20
-1383.292839785715
 30
0.0
 11
2461.490034554537
 21
-1383.292839785715
 31
0.0
  0
MTEXT
  5
2E0
330
1F
100
AcDbEntity
  8
0-B_寸法
  6
Continuous
 62
     7
370
   211
100
AcDbMText
 10
2478.990034554537
 20
-1380.432839785715
 30
0.0
 40
45.71999999999999
 41
270.0
 46
0.0
 71
     7
 72
     1
  1
{\fＭＳ ゴシック|b0|i0|c128|p49;台輪＝305}
 73
     1
 44
1.0
  0
LWPOLYLINE
  5
2E1
330
1F
100
AcDbEntity
  8
0-B_寸法
  6
Continuous
 62
     7
370
     9
100
AcDbPolyline
 90
        4
 70
     1
 43
2.0
 10
2767.490034601079
 20
-26.29283978571266
 42
0.4142135623731
 10
2766.490034601079
 20
-25.29283978571266
 42
0.4142135623731
 10
2765.490034601079
 20
-26.29283978571266
 42
0.4142135623731
 10
2766.490034601079
 20
-27.29283978571266
 42
0.4142135623731
  0
LINE
  5
2E2
330
1F
100
AcDbEntity
  8
0-B_寸法
  6
Continuous
 62
   120
370
     5
100
AcDbLine
 10
2766.490034461463
 20
73.70716021428734
 30
0.0
 11
2766.490034601079
 21
-326.2928397857129
 31
0.0
  0
MTEXT
  5
2E3
330
1F
100
AcDbEntity
  8
0-B_寸法
  6
Continuous
 62
     7
370
   211
100
AcDbMText
 10
2428.990034461463
 20
76.56716021428734
 30
0.0
 40
45.71999999999999
 41
300.0
 46
0.0
 71
     7
 72
     1
  1
{\fＭＳ ゴシック|b0|i0|c128|p49;ｶｳﾝﾀｰ＝375}
 73
     1
 44
1.0
  0
LINE
  5
2E4
330
1F
100
AcDbEntity
  8
0-B_寸法
  6
Continuous
 62
   120
370
     5
100
AcDbLine
 10
2391.490034461463
 20
73.70716021428734
 30
0.0
 11
2391.490034461463
 21
-326.2928397857122
 31
0.0
  0
LINE
  5
2E5
330
1F
100
AcDbEntity
  8
0-B_寸法
  6
Continuous
 62
   120
370
     5
100
AcDbLine
 10
2766.490034461463
 20
73.70716021428734
 30
0.0
 11
2391.490034461463
 21
73.70716021428734
 31
0.0
  0
LWPOLYLINE
  5
2E6
330
1F
100
AcDbEntity
  8
0-B_寸法
  6
Continuous
 62
     7
370
     9
100
AcDbPolyline
 90
        4
 70
     1
 43
2.0
 10
2392.490034461463
 20
73.70716021428734
 42
0.4142135623731
 10
2391.490034461463
 20
74.70716021428734
 42
0.4142135623731
 10
2390.490034461464
 20
73.70716021428734
 42
0.4142135623731
 10
2391.490034461463
 20
72.70716021428734
 42
0.4142135623731
  0
LWPOLYLINE
  5
2E7
330
1F
100
AcDbEntity
  8
0-B_寸法
  6
Continuous
 62
     7
370
     9
100
AcDbPolyline
 90
        4
 70
     1
 43
2.0
 10
2767.490034461464
 20
73.70716021428734
 42
0.4142135623731
 10
2766.490034461463
 20
74.70716021428734
 42
0.4142135623731
 10
2765.490034461463
 20
73.70716021428734
 42
0.4142135623731
 10
2766.490034461463
 20
72.70716021428734
 42
0.4142135623731
  0
LWPOLYLINE
  5
2E8
330
1F
100
AcDbEntity
  8
0-B_寸法
  6
Continuous
 62
     7
370
     9
100
AcDbPolyline
 90
        4
 70
     1
 43
2.0
 10
1950.490034554539
 20
-408.2928315377208
 42
0.4142135623731
 10
1949.490034554539
 20
-407.2928315377208
 42
0.4142135623731
 10
1948.490034554539
 20
-408.2928315377208
 42
0.4142135623731
 10
1949.490034554539
 20
-409.2928315377208
 42
0.4142135623731
  0
LINE
  5
2E9
330
1F
100
AcDbEntity
  8
0-B_寸法
  6
Continuous
 62
   120
370
     5
100
AcDbLine
 10
1949.490034554539
 20
-408.2928315377208
 30
0.0
 11
2349.490034554538
 21
-408.2928315377208
 31
0.0
  0
LINE
  5
2EA
330
1F
100
AcDbEntity
  8
0-4_棚
  6
Continuous
 62
     7
370
     9
100
AcDbLine
 10
2766.490034461463
 20
-408.292831634387
 30
0.0
 11
2391.490034461463
 21
-408.292831634387
 31
0.0
  0
LINE
  5
2EB
330
1F
100
AcDbEntity
  8
0-4_棚
  6
Continuous
 62
     7
370
     9
100
AcDbLine
 10
2391.490034461463
 20
-398.292831634387
 30
0.0
 11
2391.490034461463
 21
-408.292831634387
 31
0.0
  0
MTEXT
  5
2EC
330
1F
100
AcDbEntity
  8
0-A_文字
  6
Continuous
 62
     7
370
     9
100
AcDbMText
 10
-2461.509965398914
 20
-1776.857859580909
 30
0.0
 40
102.87
 41
540.0
 46
0.0
 71
     7
 72
     1
  1
{\fＭＳ ゴシック|b0|i0|c128|p49;扉配置図}
 73
     1
 44
1.0
  0
LINE
  5
2ED
330
1F
100
AcDbEntity
  8
0-9__
  6
Continuous
 62
     7
370
     9
100
AcDbLine
 10
-2787.509965398913
 20
-1233.292859580909
 30
0.0
 11
-1992.509965398914
 21
-1233.292859580909
 31
0.0
  0
LINE
  5
2EE
330
1F
100
AcDbEntity
  8
0-9__
  6
Continuous
 62
     7
370
     9
100
AcDbLine
 10
-1992.509965398914
 20
-1169.292859580909
 30
0.0
 11
-2787.509965398913
 21
-1169.292859580909
 31
0.0
  0
LINE
  5
2EF
330
1F
100
AcDbEntity
  8
0-9__
  6
Continuous
 62
     7
370
     9
100
AcDbLine
 10
-2772.509965398913
 20
-1169.292859580909
 30
0.0
 11
-2772.509965398913
 21
-1233.292859580909
 31
0.0
  0
LINE
  5
2F0
330
1F
100
AcDbEntity
  8
0-9__
  6
Continuous
 62
     7
370
     9
100
AcDbLine
 10
-2787.509965398913
 20
-1169.292859580909
 30
0.0
 11
-2787.509965398913
 21
-1233.292859580909
 31
0.0
  0
LINE
  5
2F1
330
1F
100
AcDbEntity
  8
0-B_寸法
  6
Continuous
 62
   120
370
     5
100
AcDbLine
 10
-1992.509965398914
 20
-1383.292839785714
 30
0.0
 11
-2787.509965398913
 21
-1383.292839785714
 31
0.0
  0
LWPOLYLINE
  5
2F2
330
1F
100
AcDbEntity
  8
0-B_寸法
  6
Continuous
 62
     7
370
     9
100
AcDbPolyline
 90
        4
 70
     1
 43
2.0
 10
-2786.509965398913
 20
-1383.292839785714
 42
0.4142135623731
 10
-2787.509965398913
 20
-1382.292839785714
 42
0.4142135623731
 10
-2788.509965398914
 20
-1383.292839785714
 42
0.4142135623731
 10
-2787.509965398913
 20
-1384.292839785714
 42
0.4142135623731
  0
LINE
  5
2F3
330
1F
100
AcDbEntity
  8
0-B_寸法
  6
Continuous
 62
   120
370
     5
100
AcDbLine
 10
-2787.509965398913
 20
-1383.292839785714
 30
0.0
 11
-2787.509965398913
 21
-1283.292839785714
 31
0.0
  0
LINE
  5
2F4
330
1F
100
AcDbEntity
  8
0-B_寸法
  6
Continuous
 62
   120
370
     5
100
AcDbLine
 10
-2787.509965398913
 20
-1383.292839785714
 30
0.0
 11
-2788.509965398912
 21
-1383.292839785714
 31
0.0
  0
MTEXT
  5
2F5
330
1F
100
AcDbEntity
  8
0-B_寸法
  6
Continuous
 62
     7
370
   211
100
AcDbMText
 10
-2822.509965398913
 20
-1380.432839785715
 30
0.0
 40
45.72
 41
30.0
 46
0.0
 71
     7
 72
     1
  1
{\fＭＳ ゴシック|b0|i0|c128|p49;1}
 73
     1
 44
1.0
  0
MTEXT
  5
2F6
330
1F
100
AcDbEntity
  8
0-B_寸法
  6
Continuous
 62
     7
370
   211
100
AcDbMText
 10
-2524.509965398913
 20
-1380.432839785715
 30
0.0
 40
45.71999999999999
 41
270.0
 46
0.0
 71
     7
 72
     1
  1
{\fＭＳ ゴシック|b0|i0|c128|p49;台輪＝795}
 73
     1
 44
1.0
  0
LINE
  5
2F7
330
1F
100
AcDbEntity
  8
0-9__
  6
Continuous
 62
     7
370
     9
100
AcDbLine
 10
-1610.509965398913
 20
-1233.292859580909
 30
0.0
 11
-1610.509965398913
 21
-1169.292859580909
 31
0.0
  0
LINE
  5
2F8
330
1F
100
AcDbEntity
  8
0-9__
  6
Continuous
 62
     7
370
     9
100
AcDbLine
 10
-1595.509965398913
 20
-1233.292859580909
 30
0.0
 11
-1595.509965398913
 21
-1169.292859580909
 31
0.0
  0
LINE
  5
2F9
330
1F
100
AcDbEntity
  8
0-9__
  6
Continuous
 62
     7
370
     9
100
AcDbLine
 10
-1992.509965398914
 20
-1233.292859580909
 30
0.0
 11
-1595.509965398913
 21
-1233.292859580909
 31
0.0
  0
LINE
  5
2FA
330
1F
100
AcDbEntity
  8
0-9__
  6
Continuous
 62
     7
370
     9
100
AcDbLine
 10
-1595.509965398913
 20
-1169.292859580909
 30
0.0
 11
-1992.509965398914
 21
-1169.292859580909
 31
0.0
  0
LINE
  5
2FB
330
1F
100
AcDbEntity
  8
0-B_寸法
  6
Continuous
 62
   120
370
     5
100
AcDbLine
 10
-1594.509965398914
 20
-1383.292839785714
 30
0.0
 11
-1595.509965398913
 21
-1383.292839785714
 31
0.0
  0
LWPOLYLINE
  5
2FC
330
1F
100
AcDbEntity
  8
0-B_寸法
  6
Continuous
 62
     7
370
     9
100
AcDbPolyline
 90
        4
 70
     1
 43
2.0
 10
-1594.509965398913
 20
-1383.292839785714
 42
0.4142135623731
 10
-1595.509965398913
 20
-1382.292839785714
 42
0.4142135623731
 10
-1596.509965398913
 20
-1383.292839785714
 42
0.4142135623731
 10
-1595.509965398913
 20
-1384.292839785714
 42
0.4142135623731
  0
LINE
  5
2FD
330
1F
100
AcDbEntity
  8
0-B_寸法
  6
Continuous
 62
   120
370
     5
100
AcDbLine
 10
-1595.509965398913
 20
-1383.292839785714
 30
0.0
 11
-1595.509965398913
 21
-1283.292839785714
 31
0.0
  0
LINE
  5
2FE
330
1F
100
AcDbEntity
  8
0-B_寸法
  6
Continuous
 62
   120
370
     5
100
AcDbLine
 10
-1595.509965398913
 20
-1383.292839785714
 30
0.0
 11
-1992.509965398914
 21
-1383.292839785714
 31
0.0
  0
MTEXT
  5
2FF
330
1F
100
AcDbEntity
  8
0-B_寸法
  6
Continuous
 62
     7
370
   211
100
AcDbMText
 10
-1590.509965398913
 20
-1380.432839785715
 30
0.0
 40
45.72
 41
30.0
 46
0.0
 71
     7
 72
     1
  1
{\fＭＳ ゴシック|b0|i0|c128|p49;1}
 73
     1
 44
1.0
  0
MTEXT
  5
300
330
1F
100
AcDbEntity
  8
0-B_寸法
  6
Continuous
 62
     7
370
   211
100
AcDbMText
 10
-1929.509965398913
 20
-1380.432839785715
 30
0.0
 40
45.71999999999999
 41
270.0
 46
0.0
 71
     7
 72
     1
  1
{\fＭＳ ゴシック|b0|i0|c128|p49;台輪＝397}
 73
     1
 44
1.0
  0
LINE
  5
301
330
1F
100
AcDbEntity
  8
0-9__
  6
Continuous
 62
     7
370
     9
100
AcDbLine
 10
-293.5099653989179
 20
-1233.292839785722
 30
0.0
 11
501.4900346010819
 21
-1233.292839785722
 31
0.0
  0
LINE
  5
302
330
1F
100
AcDbEntity
  8
0-9__
  6
Continuous
 62
     7
370
     9
100
AcDbLine
 10
501.4900346010819
 20
-1169.292839785723
 30
0.0
 11
-293.5099653989179
 21
-1169.292839785723
 31
0.0
  0
LINE
  5
303
330
1F
100
AcDbEntity
  8
0-9__
  6
Continuous
 62
     7
370
     9
100
AcDbLine
 10
-278.5099653989179
 20
-1169.292839785723
 30
0.0
 11
-278.5099653989179
 21
-1233.292839785722
 31
0.0
  0
LINE
  5
304
330
1F
100
AcDbEntity
  8
0-9__
  6
Continuous
 62
     7
370
     9
100
AcDbLine
 10
-293.5099653989179
 20
-1169.292839785723
 30
0.0
 11
-293.5099653989179
 21
-1233.292839785722
 31
0.0
  0
LINE
  5
305
330
1F
100
AcDbEntity
  8
0-1_本体
  6
Continuous
 62
    92
370
    13
100
AcDbLine
 10
885.4900346010847
 20
-1169.292839785714
 30
0.0
 11
899.4900346010849
 21
-1169.292839785714
 31
0.0
  0
LINE
  5
306
330
1F
100
AcDbEntity
  8
0-1_本体
  6
Continuous
 62
    92
370
    13
100
AcDbLine
 10
885.4900346010847
 20
-1169.292839785714
 30
0.0
 11
516.4900346010847
 21
-1169.292839785714
 31
0.0
  0
LINE
  5
307
330
1F
100
AcDbEntity
  8
0-9__
  6
Continuous
 62
     7
370
     9
100
AcDbLine
 10
883.490034601082
 20
-1233.292839785722
 30
0.0
 11
883.490034601082
 21
-1169.292839785723
 31
0.0
  0
LINE
  5
308
330
1F
100
AcDbEntity
  8
0-9__
  6
Continuous
 62
     7
370
     9
100
AcDbLine
 10
898.490034601082
 20
-1233.292839785722
 30
0.0
 11
898.490034601082
 21
-1169.292839785723
 31
0.0
  0
LINE
  5
309
330
1F
100
AcDbEntity
  8
0-9__
  6
Continuous
 62
     7
370
     9
100
AcDbLine
 10
501.4900346010819
 20
-1233.292839785722
 30
0.0
 11
898.490034601082
 21
-1233.292839785722
 31
0.0
  0
LINE
  5
30A
330
1F
100
AcDbEntity
  8
0-9__
  6
Continuous
 62
     7
370
     9
100
AcDbLine
 10
898.490034601082
 20
-1169.292839785723
 30
0.0
 11
501.4900346010819
 21
-1169.292839785723
 31
0.0
  0
MTEXT
  5
30B
330
1F
100
AcDbEntity
  8
F-A_文字
  6
Continuous
 62
     7
370
     0
100
AcDbMText
 10
3257.445178354582
 20
-2625.380673426644
 30
0.0
 40
52.57799999999999
 41
345.0
 46
0.0
 71
     7
 72
     1
  1
{\fＭＳ ゴシック|b0|i0|c128|p49;2024.04.01}
 73
     1
 44
1.0
  0
LINE
  5
30C
330
1F
100
AcDbEntity
  8
0-2_扉
  6
Continuous
 62
    40
370
    15
100
AcDbLine
 10
105.4900346010834
 20
1195.152007069956
 30
0.0
 11
499.4900346010837
 21
1195.152007069956
 31
0.0
  0
LINE
  5
30D
330
1F
100
AcDbEntity
  8
0-2_扉
  6
Continuous
 62
    40
370
    15
100
AcDbLine
 10
-292.5099653989184
 20
1195.152007069956
 30
0.0
 11
101.4900346010825
 21
1195.152007069956
 31
0.0
  0
LINE
  5
30E
330
1F
100
AcDbEntity
  8
0-2_扉
  6
Continuous
 62
    40
370
    15
100
AcDbLine
 10
101.4900346010825
 20
1215.152007069956
 30
0.0
 11
101.4900346010825
 21
1195.152007069956
 31
0.0
  0
LINE
  5
30F
330
1F
100
AcDbEntity
  8
0-2_扉
  6
Continuous
 62
    40
370
    15
100
AcDbLine
 10
105.4900346010834
 20
1215.152007069956
 30
0.0
 11
105.4900346010834
 21
1195.152007069956
 31
0.0
  0
LINE
  5
310
330
1F
100
AcDbEntity
  8
0-2_扉
  6
Continuous
 62
    40
370
    15
100
AcDbLine
 10
-292.5099653989184
 20
1215.152007069956
 30
0.0
 11
-292.5099653989184
 21
1195.152007069956
 31
0.0
  0
LINE
  5
311
330
1F
100
AcDbEntity
  8
0-2_扉
  6
Continuous
 62
    40
370
    15
100
AcDbLine
 10
499.4900346010837
 20
1215.152007069956
 30
0.0
 11
499.4900346010837
 21
1195.152007069956
 31
0.0
  0
LINE
  5
312
330
1F
100
AcDbEntity
  8
0-2_扉
  6
Continuous
 62
    40
370
    15
100
AcDbLine
 10
897.490034601085
 20
1215.152007069956
 30
0.0
 11
897.490034601085
 21
1195.152007069956
 31
0.0
  0
LINE
  5
313
330
1F
100
AcDbEntity
  8
0-2_扉
  6
Continuous
 62
    40
370
    15
100
AcDbLine
 10
503.4900346010841
 20
1215.152007069956
 30
0.0
 11
503.4900346010841
 21
1195.152007069956
 31
0.0
  0
LINE
  5
314
330
1F
100
AcDbEntity
  8
0-2_扉
  6
Continuous
 62
    40
370
    15
100
AcDbLine
 10
503.4900346010841
 20
1195.152007069956
 30
0.0
 11
897.490034601085
 21
1195.152007069956
 31
0.0
  0
LWPOLYLINE
  5
315
330
1F
100
AcDbEntity
  8
0-B_寸法
  6
Continuous
 62
     7
370
     9
100
AcDbPolyline
 90
        4
 70
     1
 43
2.0
 10
-443.5099653989166
 20
1216.152007069956
 42
0.4142135623731
 10
-444.5099653989166
 20
1217.152007069956
 42
0.4142135623731
 10
-445.5099653989166
 20
1216.152007069956
 42
0.4142135623731
 10
-444.5099653989166
 20
1215.152007069956
 42
0.4142135623731
  0
LINE
  5
316
330
1F
100
AcDbEntity
  8
0-B_寸法
  6
Continuous
 62
   120
370
     5
100
AcDbLine
 10
-444.5099653989166
 20
1216.152007069956
 30
0.0
 11
-344.5099653989166
 21
1216.152007069956
 31
0.0
  0
LWPOLYLINE
  5
317
330
1F
100
AcDbEntity
  8
0-B_寸法
  6
Continuous
 62
     7
370
     9
100
AcDbPolyline
 90
        4
 70
     1
 43
2.0
 10
-443.5099653989166
 20
1215.152007069956
 42
0.4142135623731
 10
-444.5099653989166
 20
1216.152007069956
 42
0.4142135623731
 10
-445.5099653989166
 20
1215.152007069956
 42
0.4142135623731
 10
-444.5099653989166
 20
1214.152007069956
 42
0.4142135623731
  0
LINE
  5
318
330
1F
100
AcDbEntity
  8
0-B_寸法
  6
Continuous
 62
   120
370
     5
100
AcDbLine
 10
-444.5099653989166
 20
1215.152007069956
 30
0.0
 11
-344.5099653989166
 21
1215.152007069956
 31
0.0
  0
LINE
  5
319
330
1F
100
AcDbEntity
  8
0-B_寸法
  6
Continuous
 62
   120
370
     5
100
AcDbLine
 10
-444.5099653989166
 20
1215.151971459431
 30
0.0
 11
-444.5099653989166
 21
1195.152007069956
 31
0.0
  0
LWPOLYLINE
  5
31A
330
1F
100
AcDbEntity
  8
0-B_寸法
  6
Continuous
 62
     7
370
     9
100
AcDbPolyline
 90
        4
 70
     1
 43
2.0
 10
-443.5099653989166
 20
1195.152007069956
 42
0.4142135623731
 10
-444.5099653989166
 20
1196.152007069956
 42
0.4142135623731
 10
-445.5099653989166
 20
1195.152007069956
 42
0.4142135623731
 10
-444.5099653989166
 20
1194.152007069956
 42
0.4142135623731
  0
LINE
  5
31B
330
1F
100
AcDbEntity
  8
0-B_寸法
  6
Continuous
 62
   120
370
     5
100
AcDbLine
 10
-544.5099653989166
 20
1195.152007069956
 30
0.0
 11
-344.5099653989166
 21
1195.152007069956
 31
0.0
  0
LINE
  5
31C
330
1F
100
AcDbEntity
  8
0-B_寸法
  6
Continuous
 62
   120
370
     5
100
AcDbLine
 10
-544.5099653989166
 20
1561.151971459431
 30
0.0
 11
-544.5099653989166
 21
1195.152007069956
 31
0.0
  0
LWPOLYLINE
  5
31D
330
1F
100
AcDbEntity
  8
0-B_寸法
  6
Continuous
 62
     7
370
     9
100
AcDbPolyline
 90
        4
 70
     1
 43
2.0
 10
-543.5099653989166
 20
1195.152007069956
 42
0.4142135623731
 10
-544.5099653989166
 20
1196.152007069956
 42
0.4142135623731
 10
-545.5099653989166
 20
1195.152007069956
 42
0.4142135623731
 10
-544.5099653989166
 20
1194.152007069956
 42
0.4142135623731
  0
MTEXT
  5
31E
330
1F
100
AcDbEntity
  8
0-B_寸法
  6
Continuous
 62
     7
370
   211
100
AcDbMText
 10
-454.5099653989166
 20
1118.551486157147
 30
0.0
 40
45.72
 41
60.0
 46
0.0
 71
     7
 72
     1
  1
{\fＭＳ ゴシック|b0|i0|c128|p49;20}
 11
6.123031769111886E-17
 21
1.0
 31
0.0
 73
     1
 44
1.0
  0
MTEXT
  5
31F
330
1F
100
AcDbEntity
  8
0-B_寸法
  6
Continuous
 62
     7
370
   211
100
AcDbMText
 10
-554.5099653989166
 20
1326.011989264693
 30
0.0
 40
45.72
 41
90.0
 46
0.0
 71
     7
 72
     1
  1
{\fＭＳ ゴシック|b0|i0|c128|p49;366}
 11
6.123031769111886E-17
 21
1.0
 31
0.0
 73
     1
 44
1.0
  0
LINE
  5
320
330
1F
100
AcDbEntity
  8
0-2_扉
  6
Continuous
 62
    40
370
    15
100
AcDbLine
 10
2420.490034461466
 20
-411.2929839488675
 30
0.0
 11
2420.490034461463
 21
-1166.292839785714
 31
0.0
  0
LINE
  5
321
330
1F
100
AcDbEntity
  8
0-0_補助線
  6
JWW_HOJO
 62
     7
370
     9
100
AcDbLine
 10
2410.204020376651
 20
-756.7928991712729
 30
0.0
 11
2766.49003443487
 21
-756.7928991712729
 31
0.0
  0
LINE
  5
322
330
1F
100
AcDbEntity
  8
0-0_補助線
  6
JWW_HOJO
 62
     7
370
     9
100
AcDbLine
 10
2407.918306188609
 20
-724.7928991712736
 30
0.0
 11
2766.490034431544
 21
-724.7928991712736
 31
0.0
  0
LINE
  5
323
330
1F
100
AcDbEntity
  8
0-0_補助線
  6
JWW_HOJO
 62
     7
370
     9
100
AcDbLine
 10
2405.632592000567
 20
-692.7928991712737
 30
0.0
 11
2766.490034428221
 21
-692.7928991712737
 31
0.0
  0
LINE
  5
324
330
1F
100
AcDbEntity
  8
0-0_補助線
  6
JWW_HOJO
 62
     7
370
     9
100
AcDbLine
 10
2403.346877812524
 20
-660.7928991712738
 30
0.0
 11
2766.490034424895
 21
-660.7928991712738
 31
0.0
  0
LINE
  5
325
330
1F
100
AcDbEntity
  8
0-0_補助線
  6
JWW_HOJO
 62
     7
370
     9
100
AcDbLine
 10
2401.06116362448
 20
-628.7928991712733
 30
0.0
 11
2766.490034421573
 21
-628.7928991712733
 31
0.0
  0
LINE
  5
326
330
1F
100
AcDbEntity
  8
0-0_補助線
  6
JWW_HOJO
 62
     7
370
     9
100
AcDbLine
 10
2398.77544943644
 20
-596.7928991712731
 30
0.0
 11
2766.490034418247
 21
-596.7928991712731
 31
0.0
  0
LINE
  5
327
330
1F
100
AcDbEntity
  8
0-0_補助線
  6
JWW_HOJO
 62
     7
370
     9
100
AcDbLine
 10
2411.06116294078
 20
-852.7928991712737
 30
0.0
 11
2766.490034444841
 21
-852.7928991712737
 31
0.0
  0
LINE
  5
328
330
1F
100
AcDbEntity
  8
0-0_補助線
  6
JWW_HOJO
 62
     7
370
     9
100
AcDbLine
 10
2408.775448752738
 20
-820.7928991712738
 30
0.0
 11
2766.490034441518
 21
-820.7928991712738
 31
0.0
  0
LINE
  5
329
330
1F
100
AcDbEntity
  8
0-0_補助線
  6
JWW_HOJO
 62
     7
370
     9
100
AcDbLine
 10
2406.489734564694
 20
-788.7928991712733
 30
0.0
 11
2766.490034438192
 21
-788.7928991712733
 31
0.0
  0
LINE
  5
32A
330
1F
100
AcDbEntity
  8
0-2_扉
  6
Continuous
 62
    40
370
    15
100
AcDbLine
 10
2400.490034461463
 20
-1166.292839785714
 30
0.0
 11
2420.490034461466
 21
-1166.292839785714
 31
0.0
  0
LINE
  5
32B
330
1F
100
AcDbEntity
  8
0-2_扉
  6
Continuous
 62
    40
370
    15
100
AcDbLine
 10
2400.490034461466
 20
-411.2929839488675
 30
0.0
 11
2400.490034461463
 21
-1166.292839785714
 31
0.0
  0
LINE
  5
32C
330
1F
100
AcDbEntity
  8
0-2_扉
  6
Continuous
 62
    40
370
    15
100
AcDbLine
 10
2400.490034461463
 20
-411.2929839488683
 30
0.0
 11
2420.490034461466
 21
-411.2929839488675
 31
0.0
  0
LINE
  5
32D
330
1F
100
AcDbEntity
  8
0-B_寸法
  6
Continuous
 62
   120
370
     5
100
AcDbLine
 10
2400.490034461465
 20
-126.2928397857122
 30
0.0
 11
2400.490034461465
 21
-326.2928397857129
 31
0.0
  0
LINE
  5
32E
330
1F
100
AcDbEntity
  8
0-B_寸法
  6
Continuous
 62
   120
370
     5
100
AcDbLine
 10
2766.490034601079
 20
-26.29283978571266
 30
0.0
 11
2400.490034461465
 21
-26.29283978571266
 31
0.0
  0
LWPOLYLINE
  5
32F
330
1F
100
AcDbEntity
  8
0-B_寸法
  6
Continuous
 62
     7
370
     9
100
AcDbPolyline
 90
        4
 70
     1
 43
2.0
 10
2401.490034461465
 20
-26.29283978571266
 42
0.4142135623731
 10
2400.490034461465
 20
-25.29283978571266
 42
0.4142135623731
 10
2399.490034461465
 20
-26.29283978571266
 42
0.4142135623731
 10
2400.490034461465
 20
-27.29283978571266
 42
0.4142135623731
  0
LINE
  5
330
330
1F
100
AcDbEntity
  8
0-B_寸法
  6
Continuous
 62
   120
370
     5
100
AcDbLine
 10
2400.490034461465
 20
-26.29283978571266
 30
0.0
 11
2400.490034461465
 21
-126.2928397857122
 31
0.0
  0
LWPOLYLINE
  5
331
330
1F
100
AcDbEntity
  8
0-B_寸法
  6
Continuous
 62
     7
370
     9
100
AcDbPolyline
 90
        4
 70
     1
 43
2.0
 10
2401.490034461465
 20
-126.2928991712722
 42
0.4142135623731
 10
2400.490034461465
 20
-125.2928991712722
 42
0.4142135623731
 10
2399.490034461465
 20
-126.2928991712722
 42
0.4142135623731
 10
2400.490034461465
 20
-127.2928991712722
 42
0.4142135623731
  0
LINE
  5
332
330
1F
100
AcDbEntity
  8
0-B_寸法
  6
Continuous
 62
   120
370
     5
100
AcDbLine
 10
2420.490034601079
 20
-126.2928991712722
 30
0.0
 11
2400.490034461465
 21
-126.2928991712722
 31
0.0
  0
MTEXT
  5
333
330
1F
100
AcDbEntity
  8
0-B_寸法
  6
Continuous
 62
     7
370
   211
100
AcDbMText
 10
2322.854299702542
 20
-123.4328397857127
 30
0.0
 40
45.72
 41
60.0
 46
0.0
 71
     7
 72
     1
  1
{\fＭＳ ゴシック|b0|i0|c128|p49;20}
 73
     1
 44
1.0
  0
MTEXT
  5
334
330
1F
100
AcDbEntity
  8
0-B_寸法
  6
Continuous
 62
     7
370
   211
100
AcDbMText
 10
2537.990088414535
 20
-23.43283978571266
 30
0.0
 40
45.72
 41
90.0
 46
0.0
 71
     7
 72
     1
  1
{\fＭＳ ゴシック|b0|i0|c128|p49;366}
 73
     1
 44
1.0
  0
LINE
  5
335
330
1F
100
AcDbEntity
  8
0-B_寸法
  6
JWW_DASHED2
 62
   120
370
     5
100
AcDbLine
 10
2766.490034368388
 20
-388.2928323625192
 30
0.0
 11
-2788.509965398912
 21
-388.29281751613
 31
0.0
  0
LINE
  5
336
330
1F
100
AcDbEntity
  8
0-B_寸法
  6
JWW_DASHED2
 62
   120
370
     5
100
AcDbLine
 10
2766.490034461465
 20
-388.2928521577057
 30
0.0
 11
-2788.509965398912
 21
-388.2928373113163
 31
0.0
  0
LINE
  5
337
330
1F
100
AcDbEntity
  8
0-A_文字
  6
JWW_CENTER1
 62
     7
370
     9
100
AcDbLine
 10
-2788.509965398912
 20
-388.2928175161294
 30
0.0
 11
2766.490034461465
 21
-388.2928323625192
 31
0.0
  0
LINE
  5
338
330
1F
100
AcDbEntity
  8
0-4_棚
  6
Continuous
 62
    92
370
    13
100
AcDbLine
 10
-295.5099654919957
 20
-408.292859580898
 30
0.0
 11
-295.5099654919957
 21
-388.2928711280911
 31
0.0
  0
LINE
  5
339
330
1F
100
AcDbEntity
  8
0-4_棚
  6
Continuous
 62
    92
370
    13
100
AcDbLine
 10
900.4900345080046
 20
-408.292859580898
 30
0.0
 11
900.4900345080046
 21
-388.2928711280911
 31
0.0
  0
LINE
  5
33A
330
1F
100
AcDbEntity
  8
0-4_棚
  6
Continuous
 62
    92
370
    13
100
AcDbLine
 10
-295.5099654919957
 20
-388.2928711280911
 30
0.0
 11
900.4900345080046
 21
-388.2928711280911
 31
0.0
  0
LINE
  5
33B
330
1F
100
AcDbEntity
  8
0-4_棚
  6
Continuous
 62
    92
370
    13
100
AcDbLine
 10
-2789.509965491989
 20
-408.2928793760851
 30
0.0
 11
-2789.509965491989
 21
-388.2928909232777
 31
0.0
  0
LINE
  5
33C
330
1F
100
AcDbEntity
  8
0-4_棚
  6
Continuous
 62
    92
370
    13
100
AcDbLine
 10
-1593.509965491991
 20
-408.2928793760851
 30
0.0
 11
-1593.509965491991
 21
-388.2928909232777
 31
0.0
  0
LINE
  5
33D
330
1F
100
AcDbEntity
  8
0-4_棚
  6
Continuous
 62
    92
370
    13
100
AcDbLine
 10
-2789.509965491989
 20
-388.2928909232777
 30
0.0
 11
-1593.509965491991
 21
-388.2928909232777
 31
0.0
  0
LINE
  5
33E
330
1F
100
AcDbEntity
  8
0-4_棚
  6
Continuous
 62
     7
370
     9
100
AcDbLine
 10
2766.490034461463
 20
-419.2928661792952
 30
0.0
 11
2766.490034461463
 21
-388.2928463841087
 31
0.0
  0
LINE
  5
33F
330
1F
100
AcDbEntity
  8
0-4_棚
  6
Continuous
 62
     7
370
     9
100
AcDbLine
 10
2391.490034461463
 20
-398.292831634387
 30
0.0
 11
2395.690034461464
 21
-388.292831634387
 31
0.0
  0
LINE
  5
340
330
1F
100
AcDbEntity
  8
0-4_棚
  6
Continuous
 62
     7
370
     9
100
AcDbLine
 10
2766.490034461463
 20
-388.292831634387
 30
0.0
 11
2395.690034461464
 21
-388.292831634387
 31
0.0
  0
LINE
  5
341
330
1F
100
AcDbEntity
  8
0-B_寸法
  6
Continuous
 62
   120
370
     5
100
AcDbLine
 10
1949.490034554539
 20
-408.2928315377208
 30
0.0
 11
1949.490034554539
 21
-388.2928499741774
 31
0.0
  0
LWPOLYLINE
  5
342
330
1F
100
AcDbEntity
  8
0-B_寸法
  6
Continuous
 62
     7
370
     9
100
AcDbPolyline
 90
        4
 70
     1
 43
2.0
 10
1950.490034554539
 20
-388.2928499741774
 42
0.4142135623731
 10
1949.490034554539
 20
-387.2928499741773
 42
0.4142135623731
 10
1948.490034554539
 20
-388.2928499741774
 42
0.4142135623731
 10
1949.490034554539
 20
-389.2928499741774
 42
0.4142135623731
  0
LINE
  5
343
330
1F
100
AcDbEntity
  8
0-B_寸法
  6
Continuous
 62
   120
370
     5
100
AcDbLine
 10
1949.490034554539
 20
-388.2928499741774
 30
0.0
 11
2349.490034554538
 21
-388.2928499741774
 31
0.0
  0
MTEXT
  5
344
330
1F
100
AcDbEntity
  8
0-B_寸法
  6
Continuous
 62
     7
370
   211
100
AcDbMText
 10
1939.490034554539
 20
-389.2360663586279
 30
0.0
 40
45.72
 41
60.0
 46
0.0
 71
     7
 72
     1
  1
{\fＭＳ ゴシック|b0|i0|c128|p49;20}
 11
6.123031769111886E-17
 21
1.0
 31
0.0
 73
     1
 44
1.0
  0
LWPOLYLINE
  5
345
330
1F
100
AcDbEntity
  8
0-B_寸法
  6
Continuous
 62
     7
370
     9
100
AcDbPolyline
 90
        4
 70
     1
 43
2.0
 10
-543.5099653058389
 20
-388.2928433086697
 42
0.4142135623731
 10
-544.5099653058389
 20
-387.2928433086697
 42
0.4142135623731
 10
-545.5099653058389
 20
-388.2928433086697
 42
0.4142135623731
 10
-544.5099653058389
 20
-389.2928433086697
 42
0.4142135623731
  0
LINE
  5
346
330
1F
100
AcDbEntity
  8
0-B_寸法
  6
Continuous
 62
   120
370
     5
100
AcDbLine
 10
-544.5099653058389
 20
-388.2928433086697
 30
0.0
 11
-344.5099653058401
 21
-388.2928433086697
 31
0.0
  0
LINE
  5
347
330
1F
100
AcDbEntity
  8
0-B_寸法
  6
Continuous
 62
   120
370
     5
100
AcDbLine
 10
-544.5099653058389
 20
-408.2928513329043
 30
0.0
 11
-544.5099653058389
 21
-388.2928433086697
 31
0.0
  0
MTEXT
  5
348
330
1F
100
AcDbEntity
  8
0-B_寸法
  6
Continuous
 62
     7
370
   211
100
AcDbMText
 10
-554.5099653058389
 20
-389.2360472828016
 30
0.0
 40
45.72
 41
60.0
 46
0.0
 71
     7
 72
     1
  1
{\fＭＳ ゴシック|b0|i0|c128|p49;20}
 11
6.123031769111886E-17
 21
1.0
 31
0.0
 73
     1
 44
1.0
  0
LWPOLYLINE
  5
349
330
1F
100
AcDbEntity
  8
0-B_寸法
  6
Continuous
 62
     7
370
     9
100
AcDbPolyline
 90
        4
 70
     1
 43
2.0
 10
-2937.509965305835
 20
-388.2928175161294
 42
0.4142135623731
 10
-2938.509965305835
 20
-387.2928175161294
 42
0.4142135623731
 10
-2939.509965305835
 20
-388.2928175161294
 42
0.4142135623731
 10
-2938.509965305835
 20
-389.2928175161294
 42
0.4142135623731
  0
LINE
  5
34A
330
1F
100
AcDbEntity
  8
0-B_寸法
  6
Continuous
 62
   120
370
     5
100
AcDbLine
 10
-3138.509965398911
 20
-388.2928175161294
 30
0.0
 11
-2838.509965305835
 21
-388.2928175161294
 31
0.0
  0
LINE
  5
34B
330
1F
100
AcDbEntity
  8
0-B_寸法
  6
Continuous
 62
   120
370
     5
100
AcDbLine
 10
-2938.509965305835
 20
-408.2928711280914
 30
0.0
 11
-2938.509965305835
 21
-388.2928175161294
 31
0.0
  0
LINE
  5
34C
330
1F
100
AcDbEntity
  8
0-B_寸法
  6
Continuous
 62
   120
370
     5
100
AcDbLine
 10
-3038.509965398911
 20
-1169.292846605038
 30
0.0
 11
-3038.509965398911
 21
-388.2928175161294
 31
0.0
  0
LWPOLYLINE
  5
34D
330
1F
100
AcDbEntity
  8
0-B_寸法
  6
Continuous
 62
     7
370
     9
100
AcDbPolyline
 90
        4
 70
     1
 43
2.0
 10
-3037.509965398911
 20
-388.2928175161294
 42
0.4142135623731
 10
-3038.509965398911
 20
-387.2928175161294
 42
0.4142135623731
 10
-3039.509965398911
 20
-388.2928175161294
 42
0.4142135623731
 10
-3038.509965398911
 20
-389.2928175161294
 42
0.4142135623731
  0
LINE
  5
34E
330
1F
100
AcDbEntity
  8
0-B_寸法
  6
Continuous
 62
   120
370
     5
100
AcDbLine
 10
-3138.509965398911
 20
-1233.292859580901
 30
0.0
 11
-3138.509965398911
 21
-388.2928175161294
 31
0.0
  0
LWPOLYLINE
  5
34F
330
1F
100
AcDbEntity
  8
0-B_寸法
  6
Continuous
 62
     7
370
     9
100
AcDbPolyline
 90
        4
 70
     1
 43
2.0
 10
-3137.509965398911
 20
-388.2928175161294
 42
0.4142135623731
 10
-3138.509965398911
 20
-387.2928175161294
 42
0.4142135623731
 10
-3139.509965398911
 20
-388.2928175161294
 42
0.4142135623731
 10
-3138.509965398911
 20
-389.2928175161294
 42
0.4142135623731
  0
MTEXT
  5
350
330
1F
100
AcDbEntity
  8
0-B_寸法
  6
Continuous
 62
     7
370
   211
100
AcDbMText
 10
-3148.509965398911
 20
-862.4328752520893
 30
0.0
 40
45.72
 41
90.0
 46
0.0
 71
     7
 72
     1
  1
{\fＭＳ ゴシック|b0|i0|c128|p49;845}
 11
6.123031769111886E-17
 21
1.0
 31
0.0
 73
     1
 44
1.0
  0
MTEXT
  5
351
330
1F
100
AcDbEntity
  8
0-B_寸法
  6
Continuous
 62
     7
370
   211
100
AcDbMText
 10
-3048.509965398911
 20
-830.4328687641583
 30
0.0
 40
45.72
 41
90.0
 46
0.0
 71
     7
 72
     1
  1
{\fＭＳ ゴシック|b0|i0|c128|p49;781}
 11
6.123031769111886E-17
 21
1.0
 31
0.0
 73
     1
 44
1.0
  0
LINE
  5
352
330
1F
100
AcDbEntity
  8
0-6_桟木
  6
Continuous
 62
    92
370
    13
100
AcDbLine
 10
2766.490034461463
 20
-388.2928521577057
 30
0.0
 11
2766.490034461463
 21
-493.2928521577057
 31
0.0
  0
LINE
  5
353
330
1F
100
AcDbEntity
  8
0-6_桟木
  6
Continuous
 62
    92
370
    13
100
AcDbLine
 10
2796.490034461463
 20
-388.2928521577057
 30
0.0
 11
2766.490034461463
 21
-388.2928521577057
 31
0.0
  0
LINE
  5
354
330
1F
100
AcDbEntity
  8
0-6_桟木
  6
Continuous
 62
    92
370
    13
100
AcDbLine
 10
2766.490034461463
 20
-493.2928521577057
 30
0.0
 11
2796.490034461463
 21
-493.2928521577057
 31
0.0
  0
LINE
  5
355
330
1F
100
AcDbEntity
  8
0-6_桟木
  6
Continuous
 62
    92
370
    13
100
AcDbLine
 10
2796.490034461463
 20
-493.2928521577057
 30
0.0
 11
2796.490034461463
 21
-388.2928521577057
 31
0.0
  0
LINE
  5
356
330
1F
100
AcDbEntity
  8
0-6_桟木
  6
Continuous
 62
     7
370
     9
100
AcDbLine
 10
2766.490034461463
 20
-493.2928521577057
 30
0.0
 11
2796.490034461463
 21
-388.2928521577057
 31
0.0
  0
LINE
  5
357
330
1F
100
AcDbEntity
  8
0-6_桟木
  6
Continuous
 62
     7
370
     9
100
AcDbLine
 10
2766.490034461463
 20
-388.2928521577057
 30
0.0
 11
2796.490034461463
 21
-493.2928521577057
 31
0.0
  0
LINE
  5
358
330
1F
100
AcDbEntity
  8
0-B_寸法
  6
JWW_DASHED2
 62
   120
370
     5
100
AcDbLine
 10
2766.490034461465
 20
-493.2928521577057
 30
0.0
 11
-2788.509965398912
 21
-493.2928521577057
 31
0.0
  0
LWPOLYLINE
  5
359
330
1F
100
AcDbEntity
  8
0-B_寸法
  6
Continuous
 62
     7
370
     9
100
AcDbPolyline
 90
        4
 70
     1
 43
2.0
 10
2917.490034368388
 20
-493.2928125673309
 42
0.4142135623731
 10
2916.490034368388
 20
-492.2928125673309
 42
0.4142135623731
 10
2915.490034368388
 20
-493.2928125673309
 42
0.4142135623731
 10
2916.490034368388
 20
-494.2928125673309
 42
0.4142135623731
  0
LINE
  5
35A
330
1F
100
AcDbEntity
  8
0-B_寸法
  6
Continuous
 62
   120
370
     5
100
AcDbLine
 10
2916.490034368388
 20
-493.2928125673309
 30
0.0
 11
2816.490034461461
 21
-493.2928125673309
 31
0.0
  0
LINE
  5
35B
330
1F
100
AcDbEntity
  8
0-B_寸法
  6
Continuous
 62
   120
370
     5
100
AcDbLine
 10
2916.490034368388
 20
-493.2928125673309
 30
0.0
 11
2916.490034368388
 21
-388.2928521577057
 31
0.0
  0
LWPOLYLINE
  5
35C
330
1F
100
AcDbEntity
  8
0-B_寸法
  6
Continuous
 62
     7
370
     9
100
AcDbPolyline
 90
        4
 70
     1
 43
2.0
 10
2917.490034368388
 20
-388.2928521577057
 42
0.4142135623731
 10
2916.490034368388
 20
-387.2928521577057
 42
0.4142135623731
 10
2915.490034368388
 20
-388.2928521577057
 42
0.4142135623731
 10
2916.490034368388
 20
-389.2928521577057
 42
0.4142135623731
  0
LINE
  5
35D
330
1F
100
AcDbEntity
  8
0-B_寸法
  6
Continuous
 62
   120
370
     5
100
AcDbLine
 10
2916.490034368388
 20
-388.2928521577057
 30
0.0
 11
2816.490034461461
 21
-388.2928521577057
 31
0.0
  0
MTEXT
  5
35E
330
1F
100
AcDbEntity
  8
0-B_寸法
  6
Continuous
 62
     7
370
   211
100
AcDbMText
 10
2906.490034368388
 20
-492.9328323625186
 30
0.0
 40
45.72
 41
90.0
 46
0.0
 71
     7
 72
     1
  1
{\fＭＳ ゴシック|b0|i0|c128|p49;105}
 11
6.123031769111886E-17
 21
1.0
 31
0.0
 73
     1
 44
1.0
  0
LINE
  5
35F
330
1F
100
AcDbEntity
  8
0-B_寸法
  6
Continuous
 62
   120
370
     5
100
AcDbLine
 10
2916.490034368388
 20
-1090.292859580896
 30
0.0
 11
2916.490034368388
 21
-493.2928125673309
 31
0.0
  0
MTEXT
  5
360
330
1F
100
AcDbEntity
  8
0-B_寸法
  6
Continuous
 62
     7
370
   211
100
AcDbMText
 10
2906.490034368388
 20
-843.4328496833041
 30
0.0
 40
45.72
 41
90.0
 46
0.0
 71
     7
 72
     1
  1
{\fＭＳ ゴシック|b0|i0|c128|p49;597}
 11
6.123031769111886E-17
 21
1.0
 31
0.0
 73
     1
 44
1.0
  0
MTEXT
  5
361
330
1F
100
AcDbEntity
  8
0-B_寸法
  6
Continuous
 62
     7
370
   211
100
AcDbMText
 10
-2948.509965305835
 20
-389.2360016950758
 30
0.0
 40
45.72
 41
60.0
 46
0.0
 71
     7
 72
     1
  1
{\fＭＳ ゴシック|b0|i0|c128|p49;20}
 11
6.123031769111886E-17
 21
1.0
 31
0.0
 73
     1
 44
1.0
  0
MTEXT
  5
362
330
1F
100
AcDbEntity
  8
0-6_桟木
  6
Continuous
 62
     9
370
     5
100
AcDbMText
 10
0.0
 20
-20030.0
 30
0.0
 40
0.0
 41
0.0
 46
0.0
 71
     7
 72
     1
  1
{\fＭＳ ゴシック|b0|i0|c128|p49;Printer_Orientation = 0}
 73
     1
 44
1.0
  0
MTEXT
  5
363
330
1F
100
AcDbEntity
  8
0-6_桟木
  6
Continuous
 62
     9
370
     5
100
AcDbMText
 10
0.0
 20
-20030.0
 30
0.0
 40
0.0
 41
0.0
 46
0.0
 71
     7
 72
     1
  1
{\fＭＳ ゴシック|b0|i0|c128|p49;Printer_PaperSize = 0}
 73
     1
 44
1.0
  0
MTEXT
  5
364
330
1F
100
AcDbEntity
  8
0-6_桟木
  6
Continuous
 62
     9
370
     5
100
AcDbMText
 10
0.0
 20
-20030.0
 30
0.0
 40
0.0
 41
0.0
 46
0.0
 71
     7
 72
     1
  1
{\fＭＳ ゴシック|b0|i0|c128|p49;Printer_D2dBMP = 0}
 73
     1
 44
1.0
  0
MTEXT
  5
365
330
1F
100
AcDbEntity
  8
0-6_桟木
  6
Continuous
 62
     9
370
     5
100
AcDbMText
 10
0.0
 20
-20030.0
 30
0.0
 40
0.0
 41
0.0
 46
0.0
 71
     7
 72
     1
  1
{\fＭＳ ゴシック|b0|i0|c128|p49;Printer_BmpZENTAI = 0}
 73
     1
 44
1.0
  0
MTEXT
  5
366
330
1F
100
AcDbEntity
  8
0-6_桟木
  6
Continuous
 62
     9
370
     5
100
AcDbMText
 10
0.0
 20
-20030.0
 30
0.0
 40
0.0
 41
0.0
 46
0.0
 71
     7
 72
     1
  1
{\fＭＳ ゴシック|b0|i0|c128|p49;View_Direct2d = 1}
 73
     1
 44
1.0
  0
MTEXT
  5
367
330
1F
100
AcDbEntity
  8
0-6_桟木
  6
Continuous
 62
     9
370
     5
100
AcDbMText
 10
0.0
 20
-20030.0
 30
0.0
 40
0.0
 41
0.0
 46
0.0
 71
     7
 72
     1
  1
{\fＭＳ ゴシック|b0|i0|c128|p49;Draw_BmpTOUKA = 1}
 73
     1
 44
1.0
  0
ENDSEC
  0
SECTION
  2
OBJECTS
  0
DICTIONARY
  5
C
330
0
100
AcDbDictionary
281
     1
  3
ACAD_GROUP
350
D
  3
ACAD_LAYOUT
350
1A
  3
ACAD_MATERIAL
350
3B
  3
ACAD_MLEADERSTYLE
350
369
  3
ACAD_MLINESTYLE
350
17
  3
ACAD_PLOTSETTINGS
350
19
  3
ACAD_PLOTSTYLENAME
350
E
  3
ACAD_TABLESTYLE
350
368
  3
ACAD_VISUALSTYLE
350
2A
  0
DICTIONARY
  5
D
102
{ACAD_REACTORS
330
C
102
}
330
C
100
AcDbDictionary
281
     1
  0
DICTIONARY
  5
1A
102
{ACAD_REACTORS
330
C
102
}
330
C
100
AcDbDictionary
281
     1
  3
Layout1
350
1E
  3
Layout2
350
26
  3
Model
350
22
  0
DICTIONARY
  5
3B
102
{ACAD_REACTORS
330
C
102
}
330
C
100
AcDbDictionary
281
     1
  3
ByBlock
350
3D
  3
ByLayer
350
3C
  3
Global
350
3E
  0
DICTIONARY
  5
369
102
{ACAD_REACTORS
330
C
102
}
330
C
100
AcDbDictionary
281
     1
  0
DICTIONARY
  5
17
102
{ACAD_REACTORS
330
C
102
}
330
C
100
AcDbDictionary
281
     1
  3
Standard
350
18
  0
DICTIONARY
  5
19
102
{ACAD_REACTORS
330
C
102
}
330
C
100
AcDbDictionary
281
     1
  0
ACDBDICTIONARYWDFLT
  5
E
102
{ACAD_REACTORS
330
C
102
}
330
C
100
AcDbDictionary
281
     1
  3
Normal
350
F
100
AcDbDictionaryWithDefault
340
F
  0
DICTIONARY
  5
368
102
{ACAD_REACTORS
330
C
102
}
330
C
100
AcDbDictionary
281
     1
  0
DICTIONARY
  5
2A
102
{ACAD_REACTORS
330
C
102
}
330
C
100
AcDbDictionary
281
     1
  3
2dWireframe
350
2F
  3
3D Hidden
350
31
  3
3dWireframe
350
30
  3
Basic
350
32
  3
Brighten
350
36
  3
ColorChange
350
3A
  3
Conceptual
350
34
  3
Dim
350
35
  3
Facepattern
350
39
  3
Flat
350
2B
  3
FlatWithEdges
350
2C
  3
Gouraud
350
2D
  3
GouraudWithEdges
350
2E
  3
Linepattern
350
38
  3
Realistic
350
33
  3
Thicken
350
37
  0
LAYOUT
  5
1E
102
{ACAD_REACTORS
330
1A
102
}
330
1A
100
AcDbPlotSettings
  1

  2
none_device
  4

  6

 40
0.0
 41
0.0
 42
0.0
 43
0.0
 44
0.0
 45
0.0
 46
0.0
 47
0.0
 48
0.0
 49
0.0
140
0.0
141
0.0
142
1.0
143
1.0
 70
   688
 72
     0
 73
     0
 74
     5
  7

 75
    16
 76
     0
 77
     5
 78
   300
147
1.0
148
0.0
149
0.0
100
AcDbLayout
  1
Layout1
 70
     1
 71
     1
 10
0.0
 20
0.0
 11
420.0
 21
297.0
 12
0.0
 22
0.0
 32
0.0
 14
1.000000000000000E+20
 24
1.000000000000000E+20
 34
1.000000000000000E+20
 15
-1.000000000000000E+20
 25
-1.000000000000000E+20
 35
-1.000000000000000E+20
146
0.0
 13
0.0
 23
0.0
 33
0.0
 16
1.0
 26
0.0
 36
0.0
 17
0.0
 27
1.0
 37
0.0
 76
     0
330
1B
  0
LAYOUT
  5
26
102
{ACAD_REACTORS
330
1A
102
}
330
1A
100
AcDbPlotSettings
  1

  2
none_device
  4

  6

 40
0.0
 41
0.0
 42
0.0
 43
0.0
 44
0.0
 45
0.0
 46
0.0
 47
0.0
 48
0.0
 49
0.0
140
0.0
141
0.0
142
1.0
143
1.0
 70
   688
 72
     0
 73
     0
 74
     5
  7

 75
    16
 76
     0
 77
     5
 78
   300
147
1.0
148
0.0
149
0.0
100
AcDbLayout
  1
Layout2
 70
     1
 71
     2
 10
0.0
 20
0.0
 11
0.0
 21
0.0
 12
0.0
 22
0.0
 32
0.0
 14
0.0
 24
0.0
 34
0.0
 15
0.0
 25
0.0
 35
0.0
146
0.0
 13
0.0
 23
0.0
 33
0.0
 16
1.0
 26
0.0
 36
0.0
 17
0.0
 27
1.0
 37
0.0
 76
     0
330
23
  0
LAYOUT
  5
22
102
{ACAD_REACTORS
330
1A
102
}
330
1A
100
AcDbPlotSettings
  1

  2
none_device
  4

  6

 40
0.0
 41
0.0
 42
0.0
 43
0.0
 44
0.0
 45
0.0
 46
0.0
 47
0.0
 48
0.0
 49
0.0
140
0.0
141
0.0
142
1.0
143
1.0
 70
  1712
 72
     0
 73
     0
 74
     0
  7

 75
     0
 76
     0
 77
     5
 78
   300
147
1.0
148
0.0
149
0.0
100
AcDbLayout
  1
Model
 70
     1
 71
     0
 10
-4200.0
 20
-2970.0
 11
4200.0
 21
2970.0
 12
0.0
 22
0.0
 32
0.0
 14
-4200.0
 24
-2970.0
 34
0.0
 15
4200.0
 25
2970.0
 35
0.0
146
0.0
 13
0.0
 23
0.0
 33
0.0
 16
1.0
 26
0.0
 36
0.0
 17
0.0
 27
1.0
 37
0.0
 76
     0
330
1F
331
29
  0
MATERIAL
  5
3D
102
{ACAD_REACTORS
330
3B
102
}
330
3B
100
AcDbMaterial
  1
ByBlock
 72
     1
 94
      127
  0
MATERIAL
  5
3C
102
{ACAD_REACTORS
330
3B
102
}
330
3B
100
AcDbMaterial
  1
ByLayer
 72
     1
 94
      127
  0
MATERIAL
  5
3E
102
{ACAD_REACTORS
330
3B
102
}
330
3B
100
AcDbMaterial
  1
Global
 72
     1
 94
      127
  0
MLINESTYLE
  5
18
102
{ACAD_REACTORS
330
17
102
}
330
17
100
AcDbMlineStyle
  2
Standard
 70
     0
  3

 62
   256
 51
90.0
 52
90.0
 71
     2
 49
0.5
 62
   256
  6
BYLAYER
 49
-0.5
 62
   256
  6
BYLAYER
  0
ACDBPLACEHOLDER
  5
F
102
{ACAD_REACTORS
330
E
102
}
330
E
  0
VISUALSTYLE
  5
2F
102
{ACAD_REACTORS
330
2A
102
}
330
2A
100
AcDbVisualStyle
  2
2dWireframe
 70
     4
177
     2
291
     0
 71
     0
176
     1
 72
     2
176
     1
 73
     0
176
     1
 90
        0
176
     1
 40
-0.6
176
     1
 41
-30.0
176
     1
 62
     5
 63
     7
421
 16777215
176
     1
 74
     1
176
     1
 91
        4
176
     1
 64
     7
176
     1
 65
   257
176
     1
 75
     1
176
     1
175
     1
176
     1
 42
1.0
176
     1
 92
        0
176
     1
 66
   257
176
     1
 43
1.0
176
     1
 76
     1
176
     1
 77
     6
176
     1
 78
     2
176
     1
 67
     7
176
     1
 79
     5
176
     1
170
     0
176
     1
171
     0
176
     1
290
     0
176
     1
 93
        1
176
     1
 44
0.0
176
     1
173
     0
176
     1
  0
VISUALSTYLE
  5
31
102
{ACAD_REACTORS
330
2A
102
}
330
2A
100
AcDbVisualStyle
  2
3D Hidden
 70
     6
177
     2
291
     0
 71
     1
176
     1
 72
     2
176
     1
 73
     2
176
     1
 90
        0
176
     1
 40
-0.6
176
     1
 41
-30.0
176
     1
 62
     5
 63
     7
421
 16777215
176
     1
 74
     2
176
     1
 91
        2
176
     1
 64
     7
176
     1
 65
   257
176
     1
 75
     2
176
     1
175
     1
176
     1
 42
40.0
176
     1
 92
        0
176
     1
 66
   257
176
     1
 43
1.0
176
     1
 76
     1
176
     1
 77
     6
176
     1
 78
     2
176
     1
 67
     7
176
     1
 79
     3
176
     1
170
     0
176
     1
171
     0
176
     1
290
     0
176
     1
 93
        1
176
     1
 44
0.0
176
     1
173
     0
176
     1
  0
VISUALSTYLE
  5
30
102
{ACAD_REACTORS
330
2A
102
}
330
2A
100
AcDbVisualStyle
  2
3dWireframe
 70
     5
177
     2
291
     0
 71
     0
176
     1
 72
     2
176
     1
 73
     0
176
     1
 90
        0
176
     1
 40
-0.6
176
     1
 41
-30.0
176
     1
 62
     5
 63
     7
421
 16777215
176
     1
 74
     1
176
     1
 91
        4
176
     1
 64
     7
176
     1
 65
   257
176
     1
 75
     1
176
     1
175
     1
176
     1
 42
1.0
176
     1
 92
        0
176
     1
 66
   257
176
     1
 43
1.0
176
     1
 76
     1
176
     1
 77
     6
176
     1
 78
     2
176
     1
 67
     7
176
     1
 79
     5
176
     1
170
     0
176
     1
171
     0
176
     1
290
     0
176
     1
 93
        1
176
     1
 44
0.0
176
     1
173
     0
176
     1
  0
VISUALSTYLE
  5
32
102
{ACAD_REACTORS
330
2A
102
}
330
2A
100
AcDbVisualStyle
  2
Basic
 70
     7
177
     2
291
     1
 71
     1
176
     1
 72
     0
176
     1
 73
     1
176
     1
 90
        0
176
     1
 40
-0.6
176
     1
 41
-30.0
176
     1
 62
     5
 63
     7
421
 16777215
176
     1
 74
     0
176
     1
 91
        4
176
     1
 64
     7
176
     1
 65
   257
176
     1
 75
     1
176
     1
175
     1
176
     1
 42
1.0
176
     1
 92
        8
176
     1
 66
     7
176
     1
 43
1.0
176
     1
 76
     1
176
     1
 77
     6
176
     1
 78
     2
176
     1
 67
     7
176
     1
 79
     5
176
     1
170
     0
176
     1
171
     0
176
     1
290
     0
176
     1
 93
        1
176
     1
 44
0.0
176
     1
173
     0
176
     1
  0
VISUALSTYLE
  5
36
102
{ACAD_REACTORS
330
2A
102
}
330
2A
100
AcDbVisualStyle
  2
Brighten
 70
    12
177
     2
291
     1
 71
     2
176
     1
 72
     2
176
     1
 73
     0
176
     1
 90
        0
176
     1
 40
-0.6
176
     1
 41
-30.0
176
     1
 62
     5
 63
     7
421
 16777215
176
     1
 74
     1
176
     1
 91
        4
176
     1
 64
     7
176
     1
 65
   257
176
     1
 75
     1
176
     1
175
     1
176
     1
 42
1.0
176
     1
 92
        8
176
     1
 66
     7
176
     1
 43
1.0
176
     1
 76
     1
176
     1
 77
     6
176
     1
 78
     2
176
     1
 67
     7
176
     1
 79
     5
176
     1
170
     0
176
     1
171
     0
176
     1
290
     0
176
     1
 93
        1
176
     1
 44
50.0
176
     1
173
     0
176
     1
  0
VISUALSTYLE
  5
3A
102
{ACAD_REACTORS
330
2A
102
}
330
2A
100
AcDbVisualStyle
  2
ColorChange
 70
    16
177
     2
291
     1
 71
     2
176
     1
 72
     2
176
     1
 73
     3
176
     1
 90
        0
176
     1
 40
-0.6
176
     1
 41
-30.0
176
     1
 62
     5
 63
     8
421
  8421504
176
     1
 74
     1
176
     1
 91
        4
176
     1
 64
     7
176
     1
 65
   257
176
     1
 75
     1
176
     1
175
     1
176
     1
 42
1.0
176
     1
 92
        8
176
     1
 66
     8
424
  8421504
176
     1
 43
1.0
176
     1
 76
     1
176
     1
 77
     6
176
     1
 78
     2
176
     1
 67
     7
176
     1
 79
     5
176
     1
170
     0
176
     1
171
     0
176
     1
290
     0
176
     1
 93
        1
176
     1
 44
0.0
176
     1
173
     0
176
     1
  0
VISUALSTYLE
  5
34
102
{ACAD_REACTORS
330
2A
102
}
330
2A
100
AcDbVisualStyle
  2
Conceptual
 70
     9
177
     2
291
     0
 71
     3
176
     1
 72
     2
176
     1
 73
     0
176
     1
 90
        0
176
     1
 40
-0.6
176
     1
 41
-30.0
176
     1
 62
     5
 63
     7
421
 16777215
176
     1
 74
     2
176
     1
 91
        2
176
     1
 64
     7
176
     1
 65
   257
176
     1
 75
     1
176
     1
175
     1
176
     1
 42
40.0
176
     1
 92
        8
176
     1
 66
     7
176
     1
 43
1.0
176
     1
 76
     1
176
     1
 77
     6
176
     1
 78
     2
176
     1
 67
     7
176
     1
 79
     3
176
     1
170
     0
176
     1
171
     0
176
     1
290
     0
176
     1
 93
        1
176
     1
 44
0.0
176
     1
173
     0
176
     1
  0
VISUALSTYLE
  5
35
102
{ACAD_REACTORS
330
2A
102
}
330
2A
100
AcDbVisualStyle
  2
Dim
 70
    11
177
     2
291
     1
 71
     2
176
     1
 72
     2
176
     1
 73
     0
176
     1
 90
        0
176
     1
 40
-0.6
176
     1
 41
-30.0
176
     1
 62
     5
 63
     7
421
 16777215
176
     1
 74
     1
176
     1
 91
        4
176
     1
 64
     7
176
     1
 65
   257
176
     1
 75
     1
176
     1
175
     1
176
     1
 42
1.0
176
     1
 92
        8
176
     1
 66
     7
176
     1
 43
1.0
176
     1
 76
     1
176
     1
 77
     6
176
     1
 78
     2
176
     1
 67
     7
176
     1
 79
     5
176
     1
170
     0
176
     1
171
     0
176
     1
290
     0
176
     1
 93
        1
176
     1
 44
-50.0
176
     1
173
     0
176
     1
  0
VISUALSTYLE
  5
39
102
{ACAD_REACTORS
330
2A
102
}
330
2A
100
AcDbVisualStyle
  2
Facepattern
 70
    15
177
     2
291
     1
 71
     2
176
     1
 72
     2
176
     1
 73
     0
176
     1
 90
        0
176
     1
 40
-0.6
176
     1
 41
-30.0
176
     1
 62
     5
 63
     7
421
 16777215
176
     1
 74
     1
176
     1
 91
        4
176
     1
 64
     7
176
     1
 65
   257
176
     1
 75
     1
176
     1
175
     1
176
     1
 42
1.0
176
     1
 92
        8
176
     1
 66
     7
176
     1
 43
1.0
176
     1
 76
     1
176
     1
 77
     6
176
     1
 78
     2
176
     1
 67
     7
176
     1
 79
     5
176
     1
170
     0
176
     1
171
     0
176
     1
290
     0
176
     1
 93
        1
176
     1
 44
0.0
176
     1
173
     0
176
     1
  0
VISUALSTYLE
  5
2B
102
{ACAD_REACTORS
330
2A
102
}
330
2A
100
AcDbVisualStyle
  2
Flat
 70
     0
177
     2
291
     1
 71
     2
176
     1
 72
     1
176
     1
 73
     1
176
     1
 90
        2
176
     1
 40
-0.6
176
     1
 41
30.0
176
     1
 62
     5
 63
     7
421
 16777215
176
     1
 74
     0
176
     1
 91
        4
176
     1
 64
     7
176
     1
 65
   257
176
     1
 75
     1
176
     1
175
     1
176
     1
 42
1.0
176
     1
 92
        8
176
     1
 66
     7
176
     1
 43
1.0
176
     1
 76
     1
176
     1
 77
     6
176
     1
 78
     2
176
     1
 67
     7
176
     1
 79
     5
176
     1
170
     0
176
     1
171
     0
176
     1
290
     0
176
     1
 93
       13
176
     1
 44
0.0
176
     1
173
     0
176
     1
  0
VISUALSTYLE
  5
2C
102
{ACAD_REACTORS
330
2A
102
}
330
2A
100
AcDbVisualStyle
  2
FlatWithEdges
 70
     1
177
     2
291
     1
 71
     2
176
     1
 72
     1
176
     1
 73
     1
176
     1
 90
        2
176
     1
 40
-0.6
176
     1
 41
30.0
176
     1
 62
     5
 63
     7
421
 16777215
176
     1
 74
     1
176
     1
 91
        4
176
     1
 64
     7
176
     1
 65
   257
176
     1
 75
     1
176
     1
175
     1
176
     1
 42
1.0
176
     1
 92
        0
176
     1
 66
   257
176
     1
 43
1.0
176
     1
 76
     1
176
     1
 77
     6
176
     1
 78
     2
176
     1
 67
     7
176
     1
 79
     5
176
     1
170
     0
176
     1
171
     0
176
     1
290
     0
176
     1
 93
       13
176
     1
 44
0.0
176
     1
173
     0
176
     1
  0
VISUALSTYLE
  5
2D
102
{ACAD_REACTORS
330
2A
102
}
330
2A
100
AcDbVisualStyle
  2
Gouraud
 70
     2
177
     2
291
     1
 71
     2
176
     1
 72
     2
176
     1
 73
     1
176
     1
 90
        2
176
     1
 40
-0.6
176
     1
 41
30.0
176
     1
 62
     5
 63
     7
421
 16777215
176
     1
 74
     0
176
     1
 91
        4
176
     1
 64
     7
176
     1
 65
   257
176
     1
 75
     1
176
     1
175
     1
176
     1
 42
1.0
176
     1
 92
        0
176
     1
 66
     7
176
     1
 43
1.0
176
     1
 76
     1
176
     1
 77
     6
176
     1
 78
     2
176
     1
 67
     7
176
     1
 79
     5
176
     1
170
     0
176
     1
171
     0
176
     1
290
     0
176
     1
 93
       13
176
     1
 44
0.0
176
     1
173
     0
176
     1
  0
VISUALSTYLE
  5
2E
102
{ACAD_REACTORS
330
2A
102
}
330
2A
100
AcDbVisualStyle
  2
GouraudWithEdges
 70
     3
177
     2
291
     1
 71
     2
176
     1
 72
     2
176
     1
 73
     1
176
     1
 90
        2
176
     1
 40
-0.6
176
     1
 41
30.0
176
     1
 62
     5
 63
     7
421
 16777215
176
     1
 74
     1
176
     1
 91
        4
176
     1
 64
     7
176
     1
 65
   257
176
     1
 75
     1
176
     1
175
     1
176
     1
 42
1.0
176
     1
 92
        0
176
     1
 66
   257
176
     1
 43
1.0
176
     1
 76
     1
176
     1
 77
     6
176
     1
 78
     2
176
     1
 67
     7
176
     1
 79
     5
176
     1
170
     0
176
     1
171
     0
176
     1
290
     0
176
     1
 93
       13
176
     1
 44
0.0
176
     1
173
     0
176
     1
  0
VISUALSTYLE
  5
38
102
{ACAD_REACTORS
330
2A
102
}
330
2A
100
AcDbVisualStyle
  2
Linepattern
 70
    14
177
     2
291
     1
 71
     2
176
     1
 72
     2
176
     1
 73
     0
176
     1
 90
        0
176
     1
 40
-0.6
176
     1
 41
-30.0
176
     1
 62
     5
 63
     7
421
 16777215
176
     1
 74
     1
176
     1
 91
        4
176
     1
 64
     7
176
     1
 65
   257
176
     1
 75
     7
176
     1
175
     7
176
     1
 42
1.0
176
     1
 92
        8
176
     1
 66
     7
176
     1
 43
1.0
176
     1
 76
     1
176
     1
 77
     6
176
     1
 78
     2
176
     1
 67
     7
176
     1
 79
     5
176
     1
170
     0
176
     1
171
     0
176
     1
290
     0
176
     1
 93
        1
176
     1
 44
0.0
176
     1
173
     0
176
     1
  0
VISUALSTYLE
  5
33
102
{ACAD_REACTORS
330
2A
102
}
330
2A
100
AcDbVisualStyle
  2
Realistic
 70
     8
177
     2
291
     0
 71
     2
176
     1
 72
     2
176
     1
 73
     0
176
     1
 90
        0
176
     1
 40
-0.6
176
     1
 41
-30.0
176
     1
 62
     5
 63
     7
421
 16777215
176
     1
 74
     1
176
     1
 91
        0
176
     1
 64
     7
176
     1
 65
   257
176
     1
 75
     1
176
     1
175
     1
176
     1
 42
1.0
176
     1
 92
        8
176
     1
 66
     8
424
  7895160
176
     1
 43
1.0
176
     1
 76
     1
176
     1
 77
     6
176
     1
 78
     2
176
     1
 67
     7
176
     1
 79
     5
176
     1
170
     0
176
     1
171
     0
176
     1
290
     0
176
     1
 93
       13
176
     1
 44
0.0
176
     1
173
     0
176
     1
  0
VISUALSTYLE
  5
37
102
{ACAD_REACTORS
330
2A
102
}
330
2A
100
AcDbVisualStyle
  2
Thicken
 70
    13
177
     2
291
     1
 71
     2
176
     1
 72
     2
176
     1
 73
     0
176
     1
 90
        0
176
     1
 40
-0.6
176
     1
 41
-30.0
176
     1
 62
     5
 63
     7
421
 16777215
176
     1
 74
     1
176
     1
 91
        4
176
     1
 64
     7
176
     1
 65
   257
176
     1
 75
     1
176
     1
175
     1
176
     1
 42
1.0
176
     1
 92
       12
176
     1
 66
     7
176
     1
 43
1.0
176
     1
 76
     1
176
     1
 77
     6
176
     1
 78
     2
176
     1
 67
     7
176
     1
 79
     5
176
     1
170
     0
176
     1
171
     0
176
     1
290
     0
176
     1
 93
        1
176
     1
 44
0.0
176
     1
173
     0
176
     1
  0
ENDSEC
  0
EOF
