  0
SECTION
  2
HEADER
  9
$ACADVER
  1
AC1024
  9
$ACADMAINTVER
 70
     6
  9
$DWGCODEPAGE
  3
ANSI_932
  9
$INSBASE
 10
0.0
 20
0.0
 30
0.0
  9
$EXTMIN
 10
-8910.0
 20
-6300.0
 30
0.0
  9
$EXTMAX
 10
8910.0
 20
6300.0
 30
0.0
  9
$LIMMIN
 10
-8910.0
 20
-6300.0
  9
$LIMMAX
 10
8910.0
 20
6300.0
  9
$ORTHOMODE
 70
     0
  9
$REGENMODE
 70
     1
  9
$FILLMODE
 70
     1
  9
$QTEXTMODE
 70
     0
  9
$MIRRTEXT
 70
     1
  9
$LTSCALE
 40
30.0
  9
$ATTMODE
 70
     1
  9
$TEXTSIZE
 40
2.5
  9
$TRACEWID
 40
1.0
  9
$TEXTSTYLE
  7
Standard
  9
$CLAYER
  8
0
  9
$CELTYPE
  6
ByLayer
  9
$CECOLOR
 62
   256
  9
$CELTSCALE
 40
1.0
  9
$DISPSILH
 70
     0
  9
$DIMSCALE
 40
1.0
  9
$DIMASZ
 40
2.5
  9
$DIMEXO
 40
0.625
  9
$DIMDLI
 40
3.75
  9
$DIMRND
 40
0.0
  9
$DIMDLE
 40
0.0
  9
$DIMEXE
 40
1.25
  9
$DIMTP
 40
0.0
  9
$DIMTM
 40
0.0
  9
$DIMTXT
 40
2.5
  9
$DIMCEN
 40
2.5
  9
$DIMTSZ
 40
0.0
  9
$DIMTOL
 70
     0
  9
$DIMLIM
 70
     0
  9
$DIMTIH
 70
     0
  9
$DIMTOH
 70
     0
  9
$DIMSE1
 70
     0
  9
$DIMSE2
 70
     0
  9
$DIMTAD
 70
     1
  9
$DIMZIN
 70
     8
  9
$DIMBLK
  1

  9
$DIMASO
 70
     1
  9
$DIMSHO
 70
     1
  9
$DIMPOST
  1

  9
$DIMAPOST
  1

  9
$DIMALT
 70
     0
  9
$DIMALTD
 70
     3
  9
$DIMALTF
 40
0.03937007874016
  9
$DIMLFAC
 40
1.0
  9
$DIMTOFL
 70
     1
  9
$DIMTVP
 40
0.0
  9
$DIMTIX
 70
     0
  9
$DIMSOXD
 70
     0
  9
$DIMSAH
 70
     0
  9
$DIMBLK1
  1

  9
$DIMBLK2
  1

  9
$DIMSTYLE
  2
ISO-25
  9
$DIMCLRD
 70
     0
  9
$DIMCLRE
 70
     0
  9
$DIMCLRT
 70
     0
  9
$DIMTFAC
 40
1.0
  9
$DIMGAP
 40
0.625
  9
$DIMJUST
 70
     0
  9
$DIMSD1
 70
     0
  9
$DIMSD2
 70
     0
  9
$DIMTOLJ
 70
     0
  9
$DIMTZIN
 70
     8
  9
$DIMALTZ
 70
     0
  9
$DIMALTTZ
 70
     0
  9
$DIMUPT
 70
     0
  9
$DIMDEC
 70
     2
  9
$DIMTDEC
 70
     2
  9
$DIMALTU
 70
     2
  9
$DIMALTTD
 70
     3
  9
$DIMTXSTY
  7
Standard
  9
$DIMAUNIT
 70
     0
  9
$DIMADEC
 70
     0
  9
$DIMALTRND
 40
0.0
  9
$DIMAZIN
 70
     0
  9
$DIMDSEP
 70
    44
  9
$DIMATFIT
 70
     3
  9
$DIMFRAC
 70
     0
  9
$DIMLDRBLK
  1

  9
$DIMLUNIT
 70
     2
  9
$DIMLWD
 70
    -2
  9
$DIMLWE
 70
    -2
  9
$DIMTMOVE
 70
     0
  9
$DIMFXL
 40
1.0
  9
$DIMFXLON
 70
     0
  9
$DIMJOGANG
 40
0.7853981633974483
  9
$DIMTFILL
 70
     0
  9
$DIMTFILLCLR
 70
     0
  9
$DIMARCSYM
 70
     0
  9
$DIMLTYPE
  6

  9
$DIMLTEX1
  6

  9
$DIMLTEX2
  6

  9
$DIMTXTDIRECTION
 70
     0
  9
$LUNITS
 70
     2
  9
$LUPREC
 70
     4
  9
$SKETCHINC
 40
1.0
  9
$FILLETRAD
 40
10.0
  9
$AUNITS
 70
     0
  9
$AUPREC
 70
     0
  9
$MENU
  1
.
  9
$ELEVATION
 40
0.0
  9
$PELEVATION
 40
0.0
  9
$THICKNESS
 40
0.0
  9
$LIMCHECK
 70
     0
  9
$CHAMFERA
 40
10.0
  9
$CHAMFERB
 40
10.0
  9
$CHAMFERC
 40
20.0
  9
$CHAMFERD
 40
0.0
  9
$SKPOLY
 70
     0
  9
$TDCREATE
 40
2459681.738316169
  9
$TDUCREATE
 40
2459681.363316169
  9
$TDUPDATE
 40
2459681.738316181
  9
$TDUUPDATE
 40
2459681.363316181
  9
$TDINDWG
 40
0.0000000116
  9
$TDUSRTIMER
 40
0.0000000116
  9
$USRTIMER
 70
     1
  9
$ANGBASE
 50
0.0
  9
$ANGDIR
 70
     0
  9
$PDMODE
 70
     0
  9
$PDSIZE
 40
0.0
  9
$PLINEWID
 40
0.0
  9
$SPLFRAME
 70
     0
  9
$SPLINETYPE
 70
     6
  9
$SPLINESEGS
 70
     8
  9
$HANDSEED
  5
54F
  9
$SURFTAB1
 70
     6
  9
$SURFTAB2
 70
     6
  9
$SURFTYPE
 70
     6
  9
$SURFU
 70
     6
  9
$SURFV
 70
     6
  9
$UCSBASE
  2

  9
$UCSNAME
  2

  9
$UCSORG
 10
0.0
 20
0.0
 30
0.0
  9
$UCSXDIR
 10
1.0
 20
0.0
 30
0.0
  9
$UCSYDIR
 10
0.0
 20
1.0
 30
0.0
  9
$UCSORTHOREF
  2

  9
$UCSORTHOVIEW
 70
     0
  9
$UCSORGTOP
 10
0.0
 20
0.0
 30
0.0
  9
$UCSORGBOTTOM
 10
0.0
 20
0.0
 30
0.0
  9
$UCSORGLEFT
 10
0.0
 20
0.0
 30
0.0
  9
$UCSORGRIGHT
 10
0.0
 20
0.0
 30
0.0
  9
$UCSORGFRONT
 10
0.0
 20
0.0
 30
0.0
  9
$UCSORGBACK
 10
0.0
 20
0.0
 30
0.0
  9
$PUCSBASE
  2

  9
$PUCSNAME
  2

  9
$PUCSORG
 10
0.0
 20
0.0
 30
0.0
  9
$PUCSXDIR
 10
1.0
 20
0.0
 30
0.0
  9
$PUCSYDIR
 10
0.0
 20
1.0
 30
0.0
  9
$PUCSORTHOREF
  2

  9
$PUCSORTHOVIEW
 70
     0
  9
$PUCSORGTOP
 10
0.0
 20
0.0
 30
0.0
  9
$PUCSORGBOTTOM
 10
0.0
 20
0.0
 30
0.0
  9
$PUCSORGLEFT
 10
0.0
 20
0.0
 30
0.0
  9
$PUCSORGRIGHT
 10
0.0
 20
0.0
 30
0.0
  9
$PUCSORGFRONT
 10
0.0
 20
0.0
 30
0.0
  9
$PUCSORGBACK
 10
0.0
 20
0.0
 30
0.0
  9
$USERI1
 70
     0
  9
$USERI2
 70
     0
  9
$USERI3
 70
     0
  9
$USERI4
 70
     0
  9
$USERI5
 70
     0
  9
$USERR1
 40
0.0
  9
$USERR2
 40
0.0
  9
$USERR3
 40
0.0
  9
$USERR4
 40
0.0
  9
$USERR5
 40
0.0
  9
$WORLDVIEW
 70
     1
  9
$SHADEDGE
 70
     3
  9
$SHADEDIF
 70
    70
  9
$TILEMODE
 70
     1
  9
$MAXACTVP
 70
    64
  9
$PINSBASE
 10
0.0
 20
0.0
 30
0.0
  9
$PLIMCHECK
 70
     0
  9
$PEXTMIN
 10
1.000000000000000E+20
 20
1.000000000000000E+20
 30
1.000000000000000E+20
  9
$PEXTMAX
 10
-1.000000000000000E+20
 20
-1.000000000000000E+20
 30
-1.000000000000000E+20
  9
$PLIMMIN
 10
0.0
 20
0.0
  9
$PLIMMAX
 10
420.0
 20
297.0
  9
$UNITMODE
 70
     0
  9
$VISRETAIN
 70
     1
  9
$PLINEGEN
 70
     0
  9
$PSLTSCALE
 70
     1
  9
$TREEDEPTH
 70
  3020
  9
$CMLSTYLE
  2
Standard
  9
$CMLJUST
 70
     0
  9
$CMLSCALE
 40
20.0
  9
$PROXYGRAPHICS
 70
     1
  9
$MEASUREMENT
 70
     1
  9
$CELWEIGHT
370
    -1
  9
$ENDCAPS
280
     0
  9
$JOINSTYLE
280
     0
  9
$LWDISPLAY
290
     0
  9
$INSUNITS
 70
     4
  9
$HYPERLINKBASE
  1

  9
$STYLESHEET
  1

  9
$XEDIT
290
     1
  9
$CEPSNTYPE
380
     0
  9
$PSTYLEMODE
290
     1
  9
$FINGERPRINTGUID
  2
{B270804E-F9BB-4976-AA32-EBC1F4AA649B}
  9
$VERSIONGUID
  2
{FAEB1C32-E019-11D5-929B-00C0DF256EC4}
  9
$EXTNAMES
290
     1
  9
$PSVPSCALE
 40
0.0
  9
$OLESTARTUP
290
     0
  9
$SORTENTS
280
   127
  9
$INDEXCTL
280
     0
  9
$HIDETEXT
280
     1
  9
$XCLIPFRAME
280
     2
  9
$HALOGAP
280
     0
  9
$OBSCOLOR
 70
   257
  9
$OBSLTYPE
280
     0
  9
$INTERSECTIONDISPLAY
280
     0
  9
$INTERSECTIONCOLOR
 70
   257
  9
$DIMASSOC
280
     2
  9
$PROJECTNAME
  1

  9
$CAMERADISPLAY
290
     0
  9
$LENSLENGTH
 40
50.0
  9
$CAMERAHEIGHT
 40
0.0
  9
$STEPSPERSEC
 40
2.0
  9
$STEPSIZE
 40
6.0
  9
$3DDWFPREC
 40
2.0
  9
$PSOLWIDTH
 40
5.0
  9
$PSOLHEIGHT
 40
80.0
  9
$LOFTANG1
 40
1.570796326794897
  9
$LOFTANG2
 40
1.570796326794897
  9
$LOFTMAG1
 40
0.0
  9
$LOFTMAG2
 40
0.0
  9
$LOFTPARAM
 70
     7
  9
$LOFTNORMALS
280
     1
  9
$LATITUDE
 40
37.795
  9
$LONGITUDE
 40
-122.394
  9
$NORTHDIRECTION
 40
0.0
  9
$TIMEZONE
 70
 -8000
  9
$LIGHTGLYPHDISPLAY
280
     1
  9
$TILEMODELIGHTSYNCH
280
     1
  9
$SOLIDHIST
280
     1
  9
$SHOWHIST
280
     1
  9
$DWFFRAME
280
     2
  9
$DGNFRAME
280
     2
  9
$REALWORLDSCALE
290
     1
  9
$INTERFERECOLOR
 62
   256
  9
$CSHADOW
280
     0
  9
$SHADOWPLANELOCATION
 40
0.0
  0
ENDSEC
  0
SECTION
  2
CLASSES
  0
CLASS
  1
ACDBDICTIONARYWDFLT
  2
AcDbDictionaryWithDefault
  3
ObjectDBX Classes
 90
        0
 91
        4
280
     0
281
     0
  0
CLASS
  1
VISUALSTYLE
  2
AcDbVisualStyle
  3
ObjectDBX Classes
 90
     4095
 91
        4
280
     0
281
     0
  0
CLASS
  1
MATERIAL
  2
AcDbMaterial
  3
ObjectDBX Classes
 90
     1153
 91
        4
280
     0
281
     0
  0
ENDSEC
  0
SECTION
  2
TABLES
  0
TABLE
  2
VPORT
  5
8
330
0
100
AcDbSymbolTable
 70
     1
  0
VPORT
  5
29
330
8
100
AcDbSymbolTableRecord
100
AcDbViewportTableRecord
  2
*Active
 70
     0
 10
0.0
 20
0.0
 11
1.0
 21
1.0
 12
0.0
 22
0.0
 13
0.0
 23
0.0
 14
10.0
 24
10.0
 15
10.0
 25
10.0
 16
0.0
 26
0.0
 36
1.0
 17
0.0
 27
0.0
 37
0.0
 40
13860.0
 41
1.414285714285714
 42
50.0
 43
0.0
 44
0.0
 50
0.0
 51
0.0
 71
     0
 72
 10000
 73
     1
 74
     3
 75
     0
 76
     0
 77
     0
 78
     0
281
     0
 65
     1
110
0.0
120
0.0
130
0.0
111
1.0
121
0.0
131
0.0
112
0.0
122
1.0
132
0.0
 79
     0
146
0.0
 60
     3
 61
     5
292
     1
282
     1
141
0.0
142
0.0
 63
   250
  0
ENDTAB
  0
TABLE
  2
LTYPE
  5
5
330
0
100
AcDbSymbolTable
 70
     4
  0
LTYPE
  5
14
330
5
100
AcDbSymbolTableRecord
100
AcDbLinetypeTableRecord
  2
ByBlock
 70
     0
  3

 72
    65
 73
     0
 40
0.0
  0
LTYPE
  5
15
330
5
100
AcDbSymbolTableRecord
100
AcDbLinetypeTableRecord
  2
ByLayer
 70
     0
  3

 72
    65
 73
     0
 40
0.0
  0
LTYPE
  5
16
330
5
100
AcDbSymbolTableRecord
100
AcDbLinetypeTableRecord
  2
Continuous
 70
     0
  3
Solid line
 72
    65
 73
     0
 40
0.0
  0
LTYPE
  5
3F
330
5
100
AcDbSymbolTableRecord
100
AcDbLinetypeTableRecord
  2
JWW_HOJO
 70
     0
  3
  -   -   -   -   -   -   -   - 
 72
    65
 73
     2
 40
1.693333333333333
 49
-1.27
 74
     0
 49
0.4233333333333333
 74
     0
  0
LTYPE
  5
40
330
5
100
AcDbSymbolTableRecord
100
AcDbLinetypeTableRecord
  2
JWW_DASHED1
 70
     0
  3
-  --  --  --  --  --  --  --  -
 72
    65
 73
     2
 40
1.693333333333333
 49
0.8466666666666667
 74
     0
 49
-0.8466666666666667
 74
     0
  0
LTYPE
  5
41
330
5
100
AcDbSymbolTableRecord
100
AcDbLinetypeTableRecord
  2
JWW_CENTER1
 70
     0
  3
-----  --  ----------  --  -----
 72
    65
 73
     4
 40
6.773333333333333
 49
4.233333333333333
 74
     0
 49
-0.8466666666666667
 74
     0
 49
0.8466666666666667
 74
     0
 49
-0.8466666666666667
 74
     0
  0
ENDTAB
  0
TABLE
  2
LAYER
  5
2
330
0
100
AcDbSymbolTable
 70
    16
  0
LAYER
  5
10
330
2
100
AcDbSymbolTableRecord
100
AcDbLayerTableRecord
  2
0
 70
     0
 62
     7
  6
Continuous
370
    -3
390
F
347
3E
  0
LAYER
  5
42
330
2
100
AcDbSymbolTableRecord
100
AcDbLayerTableRecord
  2
F-0_補助線
 70
     0
 62
     7
  6
Continuous
370
    -3
390
F
347
3E
  0
LAYER
  5
43
330
2
100
AcDbSymbolTableRecord
100
AcDbLayerTableRecord
  2
F-1_枠
 70
     0
 62
     7
  6
Continuous
370
    -3
390
F
347
3E
  0
LAYER
  5
44
330
2
100
AcDbSymbolTableRecord
100
AcDbLayerTableRecord
  2
0-A_文字
 70
     0
 62
     7
  6
Continuous
370
    -3
390
F
347
3E
  0
LAYER
  5
45
330
2
100
AcDbSymbolTableRecord
100
AcDbLayerTableRecord
  2
0-0_補助線
 70
     0
 62
     7
  6
Continuous
370
    -3
390
F
347
3E
  0
LAYER
  5
46
330
2
100
AcDbSymbolTableRecord
100
AcDbLayerTableRecord
  2
0-B_寸法
 70
     0
 62
     7
  6
Continuous
370
    -3
390
F
347
3E
  0
LAYER
  5
47
330
2
100
AcDbSymbolTableRecord
100
AcDbLayerTableRecord
  2
0-C_ハッチ
 70
     0
 62
     7
  6
Continuous
370
    -3
390
F
347
3E
  0
LAYER
  5
48
330
2
100
AcDbSymbolTableRecord
100
AcDbLayerTableRecord
  2
0-3_仕上げ
 70
     0
 62
     7
  6
Continuous
370
    -3
390
F
347
3E
  0
LAYER
  5
49
330
2
100
AcDbSymbolTableRecord
100
AcDbLayerTableRecord
  2
0-1_通り芯
 70
     0
 62
     7
  6
Continuous
370
    -3
390
F
347
3E
  0
LAYER
  5
4A
330
2
100
AcDbSymbolTableRecord
100
AcDbLayerTableRecord
  2
戸当り
 70
     0
 62
     7
  6
Continuous
370
    -3
390
F
347
3E
  0
LAYER
  5
4B
330
2
100
AcDbSymbolTableRecord
100
AcDbLayerTableRecord
  2
F-A_文字
 70
     0
 62
     7
  6
Continuous
370
    -3
390
F
347
3E
  0
LAYER
  5
4C
330
2
100
AcDbSymbolTableRecord
100
AcDbLayerTableRecord
  2
0-6_扉
 70
     0
 62
     7
  6
Continuous
370
    -3
390
F
347
3E
  0
LAYER
  5
4D
330
2
100
AcDbSymbolTableRecord
100
AcDbLayerTableRecord
  2
0-4_枠
 70
     0
 62
     7
  6
Continuous
370
    -3
390
F
347
3E
  0
LAYER
  5
4E
330
2
100
AcDbSymbolTableRecord
100
AcDbLayerTableRecord
  2
0-7_金物
 70
     0
 62
     7
  6
Continuous
370
    -3
390
F
347
3E
  0
LAYER
  5
4F
330
2
100
AcDbSymbolTableRecord
100
AcDbLayerTableRecord
  2
1-4_枠
 70
     0
 62
     7
  6
Continuous
370
    -3
390
F
347
3E
  0
LAYER
  5
50
330
2
100
AcDbSymbolTableRecord
100
AcDbLayerTableRecord
  2
1-B_寸法
 70
     0
 62
     7
  6
Continuous
370
    -3
390
F
347
3E
  0
ENDTAB
  0
TABLE
  2
STYLE
  5
3
330
0
100
AcDbSymbolTable
 70
     1
  0
STYLE
  5
11
330
3
100
AcDbSymbolTableRecord
100
AcDbTextStyleTableRecord
  2
Standard
 70
     0
 40
0.0
 41
1.0
 50
0.0
 71
     0
 42
2.5
  3
txt
  4

  0
ENDTAB
  0
TABLE
  2
VIEW
  5
6
330
0
100
AcDbSymbolTable
 70
     0
  0
ENDTAB
  0
TABLE
  2
UCS
  5
7
330
0
100
AcDbSymbolTable
 70
     0
  0
ENDTAB
  0
TABLE
  2
APPID
  5
9
330
0
100
AcDbSymbolTable
 70
     1
  0
APPID
  5
12
330
9
100
AcDbSymbolTableRecord
100
AcDbRegAppTableRecord
  2
ACAD
 70
     0
  0
ENDTAB
  0
TABLE
  2
DIMSTYLE
  5
A
330
0
100
AcDbSymbolTable
 70
     1
100
AcDbDimStyleTable
  0
DIMSTYLE
105
27
330
A
100
AcDbSymbolTableRecord
100
AcDbDimStyleTableRecord
  2
ISO-25
 70
     0
 41
2.5
 42
0.625
 43
3.75
 44
1.25
 73
     0
 74
     0
 77
     1
 78
     8
140
2.5
141
2.5
143
0.03937007874016
147
0.625
171
     3
172
     1
178
     0
271
     2
272
     2
274
     3
278
    44
283
     0
284
     8
340
11
  0
ENDTAB
  0
TABLE
  2
BLOCK_RECORD
  5
1
330
0
100
AcDbSymbolTable
 70
     3
  0
BLOCK_RECORD
  5
1F
330
1
100
AcDbSymbolTableRecord
100
AcDbBlockTableRecord
  2
*Model_Space
340
22
 70
     0
280
     1
281
     0
  0
BLOCK_RECORD
  5
1B
330
1
100
AcDbSymbolTableRecord
100
AcDbBlockTableRecord
  2
*Paper_Space
340
1E
 70
     0
280
     1
281
     0
  0
BLOCK_RECORD
  5
23
330
1
100
AcDbSymbolTableRecord
100
AcDbBlockTableRecord
  2
*Paper_Space0
340
26
 70
     0
280
     1
281
     0
  0
BLOCK_RECORD
  5
51
330
1
100
AcDbSymbolTableRecord
100
AcDbBlockTableRecord
  2
2@@SfigorgFlag@@4
340
0
102
{BLKREFS
331
382
331
3AD
331
45A
331
45B
102
}
 70
     0
280
     1
281
     0
  0
BLOCK_RECORD
  5
54
330
1
100
AcDbSymbolTableRecord
100
AcDbBlockTableRecord
  2
01@@SfigorgFlag@@4
340
0
102
{BLKREFS
331
3D8
331
403
102
}
 70
     0
280
     1
281
     0
  0
ENDTAB
  0
ENDSEC
  0
SECTION
  2
BLOCKS
  0
BLOCK
  5
20
330
1F
100
AcDbEntity
  8
0
100
AcDbBlockBegin
  2
*Model_Space
 70
     0
 10
0.0
 20
0.0
 30
0.0
  3
*Model_Space
  1

  0
ENDBLK
  5
21
330
1F
100
AcDbEntity
  8
0
100
AcDbBlockEnd
  0
BLOCK
  5
1C
330
1B
100
AcDbEntity
 67
     1
  8
0
100
AcDbBlockBegin
  2
*Paper_Space
 70
     0
 10
0.0
 20
0.0
 30
0.0
  3
*Paper_Space
  1

  0
ENDBLK
  5
1D
330
1B
100
AcDbEntity
 67
     1
  8
0
100
AcDbBlockEnd
  0
BLOCK
  5
24
330
23
100
AcDbEntity
  8
0
100
AcDbBlockBegin
  2
*Paper_Space0
 70
     0
 10
0.0
 20
0.0
 30
0.0
  3
*Paper_Space0
  1

  0
ENDBLK
  5
25
330
23
100
AcDbEntity
  8
0
100
AcDbBlockEnd
  0
BLOCK
  5
52
330
51
100
AcDbEntity
  8
0
100
AcDbBlockBegin
  2
2@@SfigorgFlag@@4
 70
     0
 10
0.0
 20
0.0
 30
0.0
  3
2@@SfigorgFlag@@4
  1

  0
ARC
  5
4C7
330
51
100
AcDbEntity
  8
0-0_補助線
  6
Continuous
 62
     7
370
     9
100
AcDbCircle
 10
-1.629130730832998
 20
-1.784377180280984
 30
0.0
 40
0.06
100
AcDbArc
 50
180.0
 51
270.0
  0
LINE
  5
4C8
330
51
100
AcDbEntity
  8
0-0_補助線
  6
Continuous
 62
     7
370
     9
100
AcDbLine
 10
-0.3091307308329974
 20
-1.844377180280972
 30
0.0
 11
-1.629130730832998
 21
-1.844377180280972
 31
0.0
  0
ARC
  5
4C9
330
51
100
AcDbEntity
  8
0-0_補助線
  6
Continuous
 62
     7
370
     9
100
AcDbCircle
 10
-0.3091307308329974
 20
-1.784377180280984
 30
0.0
 40
0.06
100
AcDbArc
 50
270.0
 51
0.0
  0
ARC
  5
4CA
330
51
100
AcDbEntity
  8
0-0_補助線
  6
Continuous
 62
     7
370
     9
100
AcDbCircle
 10
-1.769130730832991
 20
3.015622819719027
 30
0.0
 40
0.2
100
AcDbArc
 50
90.0
 51
180.0
  0
ARC
  5
4CB
330
51
100
AcDbEntity
  8
0-0_補助線
  6
Continuous
 62
     7
370
     9
100
AcDbCircle
 10
-0.3091307308329974
 20
2.875622819719027
 30
0.0
 40
0.06
100
AcDbArc
 50
0.0
 51
90.0
  0
LINE
  5
4CC
330
51
100
AcDbEntity
  8
0-0_補助線
  6
Continuous
 62
     7
370
     9
100
AcDbLine
 10
-1.629130730832998
 20
2.935622819719029
 30
0.0
 11
-0.3091307308329974
 21
2.935622819719029
 31
0.0
  0
ARC
  5
4CD
330
51
100
AcDbEntity
  8
0-0_補助線
  6
Continuous
 62
     7
370
     9
100
AcDbCircle
 10
-1.629130730832998
 20
2.875622819719027
 30
0.0
 40
0.06
100
AcDbArc
 50
90.0
 51
180.0
  0
ARC
  5
4CE
330
51
100
AcDbEntity
  8
0-0_補助線
  6
Continuous
 62
     7
370
     9
100
AcDbCircle
 10
-1.769130730832991
 20
3.015622819719027
 30
0.0
 40
0.16
100
AcDbArc
 50
90.0
 51
180.0
  0
LINE
  5
4CF
330
51
100
AcDbEntity
  8
0-0_補助線
  6
Continuous
 62
     7
370
     9
100
AcDbLine
 10
-1.969130730832994
 20
-1.924377180280985
 30
0.0
 11
-1.969130730832994
 21
3.015622819719027
 31
0.0
  0
ARC
  5
4D0
330
51
100
AcDbEntity
  8
0-0_補助線
  6
Continuous
 62
     7
370
     9
100
AcDbCircle
 10
-1.769130730832991
 20
-1.924377180280985
 30
0.0
 40
0.2
100
AcDbArc
 50
180.0
 51
270.0
  0
ARC
  5
4D1
330
51
100
AcDbEntity
  8
0-0_補助線
  6
Continuous
 62
     7
370
     9
100
AcDbCircle
 10
-0.5692916963789258
 20
-2.144031477529182
 30
0.0
 40
1.2
100
AcDbArc
 50
179.0615344703278
 51
259.2981547751684
  0
LWPOLYLINE
  5
4D2
330
51
100
AcDbEntity
  8
0-0_補助線
  6
Continuous
 62
     7
370
     9
100
AcDbPolyline
 90
        4
 70
     1
 43
0.1
 10
-0.7291307308329962
 20
-3.324377180280976
 42
0.4142135623731
 10
-0.7791307308329962
 20
-3.274377180280976
 42
0.4142135623731
 10
-0.8291307308329963
 20
-3.324377180280976
 42
0.4142135623731
 10
-0.7791307308329962
 20
-3.374377180280976
 42
0.4142135623731
  0
ARC
  5
4D3
330
51
100
AcDbEntity
  8
0-0_補助線
  6
Continuous
 62
     7
370
     9
100
AcDbCircle
 10
-0.7791307308329962
 20
-3.254377180280983
 30
0.0
 40
0.07
100
AcDbArc
 50
259.2981547751684
 51
79.29815477516837
  0
ARC
  5
4D4
330
51
100
AcDbEntity
  8
0-0_補助線
  6
Continuous
 62
     7
370
     9
100
AcDbCircle
 10
-0.5692916963789258
 20
-2.144031477529182
 30
0.0
 40
1.06
100
AcDbArc
 50
178.9375728139377
 51
259.2981547751684
  0
LINE
  5
4D5
330
51
100
AcDbEntity
  8
0-0_補助線
  6
Continuous
 62
     7
370
     9
100
AcDbLine
 10
-1.929130730832995
 20
3.015622819719027
 30
0.0
 11
-1.929130730832995
 21
-1.924377180280985
 31
0.0
  0
LINE
  5
4D6
330
51
100
AcDbEntity
  8
0-0_補助線
  6
Continuous
 62
     7
370
     9
100
AcDbLine
 10
-1.929130730832995
 20
-1.924377180280985
 30
0.0
 11
-1.969130730832994
 21
-1.924377180280985
 31
0.0
  0
LINE
  5
4D7
330
51
100
AcDbEntity
  8
0-0_補助線
  6
Continuous
 62
     7
370
     9
100
AcDbLine
 10
-1.689130730832993
 20
2.875622819719027
 30
0.0
 11
-1.689130730832993
 21
-1.784377180280984
 31
0.0
  0
LINE
  5
4D8
330
51
100
AcDbEntity
  8
0-0_補助線
  6
Continuous
 62
     7
370
     9
100
AcDbLine
 10
0.0708692691670052
 20
-2.584377180280981
 30
0.0
 11
-0.0881142420878476
 21
-2.584377180280981
 31
0.0
  0
ARC
  5
4D9
330
51
100
AcDbEntity
  8
0-0_補助線
  6
Continuous
 62
     7
370
     9
100
AcDbCircle
 10
-0.0881142420878476
 20
-2.524377180280979
 30
0.0
 40
0.06
100
AcDbArc
 50
193.9281985493309
 51
270.0
  0
ARC
  5
4DA
330
51
100
AcDbEntity
  8
0-0_補助線
  6
Continuous
 62
     7
370
     9
100
AcDbCircle
 10
0.0708692691670052
 20
-2.524377180280979
 30
0.0
 40
0.06
100
AcDbArc
 50
270.0
 51
14.29438185742976
  0
LINE
  5
4DB
330
51
100
AcDbEntity
  8
0-0_補助線
  6
Continuous
 62
     7
370
     9
100
AcDbLine
 10
0.0308692691670061
 20
-2.124377180280973
 30
0.0
 11
0.1290116659424712
 21
-2.509562940604084
 31
0.0
  0
LINE
  5
4DC
330
51
100
AcDbEntity
  8
0-0_補助線
  6
Continuous
 62
     7
370
     9
100
AcDbLine
 10
-0.2378325535497154
 20
-2.169934834753576
 30
0.0
 11
-0.1463501301266419
 21
-2.538819525808378
 31
0.0
  0
LINE
  5
4DD
330
51
100
AcDbEntity
  8
0-0_補助線
  6
Continuous
 62
     7
370
     9
100
AcDbLine
 10
-0.2960684415885098
 20
-2.124377180280973
 30
0.0
 11
-1.769130730832991
 21
-2.124377180280973
 31
0.0
  0
ARC
  5
4DE
330
51
100
AcDbEntity
  8
0-0_補助線
  6
Continuous
 62
     7
370
     9
100
AcDbCircle
 10
-0.2960684415885098
 20
-2.184377180280975
 30
0.0
 40
0.06
100
AcDbArc
 50
13.92819854933141
 51
90.00000000000001
  0
LINE
  5
4DF
330
51
100
AcDbEntity
  8
0-0_補助線
  6
Continuous
 62
     7
370
     9
100
AcDbLine
 10
-0.2491307308329951
 20
2.875622819719027
 30
0.0
 11
-0.2491307308329951
 21
-1.784377180280984
 31
0.0
  0
LINE
  5
4E0
330
51
100
AcDbEntity
  8
0-0_補助線
  6
Continuous
 62
     7
370
     9
100
AcDbLine
 10
0.4308692691670046
 20
-1.559377180280975
 30
0.0
 11
0.4308692691670046
 21
-1.699377180280976
 31
0.0
  0
LINE
  5
4E1
330
51
100
AcDbEntity
  8
0-0_補助線
  6
Continuous
 62
     7
370
     9
100
AcDbLine
 10
0.8308692691670032
 20
-2.119377180280978
 30
0.0
 11
0.8308692691670032
 21
-1.979377180280977
 31
0.0
  0
LINE
  5
4E2
330
51
100
AcDbEntity
  8
0-0_補助線
  6
Continuous
 62
     7
370
     9
100
AcDbLine
 10
0.6308692691670075
 20
-1.699377180280976
 30
0.0
 11
0.5024027720209432
 21
-1.534767462733626
 31
0.0
  0
LINE
  5
4E3
330
51
100
AcDbEntity
  8
0-0_補助線
  6
Continuous
 62
     7
370
     9
100
AcDbLine
 10
1.030869269167006
 20
-1.979377180280977
 30
0.0
 11
0.9024027720209418
 21
-2.143986897828341
 31
0.0
  0
LINE
  5
4E4
330
51
100
AcDbEntity
  8
0-0_補助線
  6
Continuous
 62
     7
370
     9
100
AcDbLine
 10
1.230869269167009
 20
-1.559377180280975
 30
0.0
 11
1.230869269167009
 21
-1.699377180280976
 31
0.0
  0
ARC
  5
4E5
330
51
100
AcDbEntity
  8
0-0_補助線
  6
Continuous
 62
     7
370
     9
100
AcDbCircle
 10
0.8708692691670095
 20
-2.119377180280978
 30
0.0
 40
0.04
100
AcDbArc
 50
180.0
 51
322.0304252330487
  0
ARC
  5
4E6
330
51
100
AcDbEntity
  8
0-0_補助線
  6
Continuous
 62
     7
370
     9
100
AcDbCircle
 10
0.4708692691670038
 20
-1.559377180280975
 30
0.0
 40
0.04
100
AcDbArc
 50
37.96957476694966
 51
180.0
  0
LINE
  5
4E7
330
51
100
AcDbEntity
  8
0-0_補助線
  6
Continuous
 62
     7
370
     9
100
AcDbLine
 10
1.511545229617482
 20
-1.820289200070164
 30
0.0
 11
1.303139653347195
 21
-1.535741988196648
 31
0.0
  0
ARC
  5
4E8
330
51
100
AcDbEntity
  8
0-0_補助線
  6
Continuous
 62
     7
370
     9
100
AcDbCircle
 10
1.270869269167008
 20
-1.559377180280975
 30
0.0
 40
0.04
100
AcDbArc
 50
36.21946651197781
 51
180.0
  0
ARC
  5
4E9
330
51
100
AcDbEntity
  8
0-0_補助線
  6
Continuous
 62
     7
370
     9
100
AcDbCircle
 10
1.430869269167005
 20
-1.879377180280983
 30
0.0
 40
0.1
100
AcDbArc
 50
270.0
 51
36.21946651947428
  0
LINE
  5
4EA
330
51
100
AcDbEntity
  8
0-0_補助線
  6
Continuous
 62
     7
370
     9
100
AcDbLine
 10
0.4308692691670046
 20
2.190622819719025
 30
0.0
 11
0.4308692691670046
 21
2.330622819719025
 31
0.0
  0
LINE
  5
4EB
330
51
100
AcDbEntity
  8
0-0_補助線
  6
Continuous
 62
     7
370
     9
100
AcDbLine
 10
0.8308692691670032
 20
2.750622819719027
 30
0.0
 11
0.8308692691670032
 21
2.610622819719026
 31
0.0
  0
LINE
  5
4EC
330
51
100
AcDbEntity
  8
0-0_補助線
  6
Continuous
 62
     7
370
     9
100
AcDbLine
 10
0.6308692691670075
 20
2.330622819719025
 30
0.0
 11
0.5024027720209432
 21
2.166013102171661
 31
0.0
  0
LINE
  5
4ED
330
51
100
AcDbEntity
  8
0-0_補助線
  6
Continuous
 62
     7
370
     9
100
AcDbLine
 10
1.030869269167006
 20
2.610622819719026
 30
0.0
 11
0.9024027720209418
 21
2.775232537266376
 31
0.0
  0
LINE
  5
4EE
330
51
100
AcDbEntity
  8
0-0_補助線
  6
Continuous
 62
     7
370
     9
100
AcDbLine
 10
1.230869269167009
 20
2.190622819719025
 30
0.0
 11
1.230869269167009
 21
2.330622819719025
 31
0.0
  0
ARC
  5
4EF
330
51
100
AcDbEntity
  8
0-0_補助線
  6
Continuous
 62
     7
370
     9
100
AcDbCircle
 10
0.8708692691670095
 20
2.750622819719027
 30
0.0
 40
0.04
100
AcDbArc
 50
37.96957476695127
 51
180.0
  0
ARC
  5
4F0
330
51
100
AcDbEntity
  8
0-0_補助線
  6
Continuous
 62
     7
370
     9
100
AcDbCircle
 10
0.4708692691670038
 20
2.190622819719025
 30
0.0
 40
0.04
100
AcDbArc
 50
180.0
 51
322.0304252330503
  0
LINE
  5
4F1
330
51
100
AcDbEntity
  8
0-0_補助線
  6
Continuous
 62
     7
370
     9
100
AcDbLine
 10
1.511545229617482
 20
2.451534839508213
 30
0.0
 11
1.303139653347195
 21
2.166987627634697
 31
0.0
  0
ARC
  5
4F2
330
51
100
AcDbEntity
  8
0-0_補助線
  6
Continuous
 62
     7
370
     9
100
AcDbCircle
 10
1.270869269167008
 20
2.190622819719025
 30
0.0
 40
0.04
100
AcDbArc
 50
180.0
 51
323.7805334880222
  0
ARC
  5
4F3
330
51
100
AcDbEntity
  8
0-0_補助線
  6
Continuous
 62
     7
370
     9
100
AcDbCircle
 10
1.430869269167005
 20
2.510622819719018
 30
0.0
 40
0.1
100
AcDbArc
 50
323.7805334805258
 51
90.0
  0
LINE
  5
4F4
330
51
100
AcDbEntity
  8
0-0_補助線
  6
Continuous
 62
     7
370
     9
100
AcDbLine
 10
-1.769130730832991
 20
3.175622819719024
 30
0.0
 11
0.1274378116619275
 21
3.175622819719024
 31
0.0
  0
LINE
  5
4F5
330
51
100
AcDbEntity
  8
0-0_補助線
  6
Continuous
 62
     7
370
     9
100
AcDbLine
 10
-1.769130730832991
 20
3.21562281971903
 30
0.0
 11
0.0708692691670052
 21
3.21562281971903
 31
0.0
  0
LINE
  5
4F6
330
51
100
AcDbEntity
  8
0-0_補助線
  6
Continuous
 62
     7
370
     9
100
AcDbLine
 10
1.430869269167005
 20
-1.979377180280977
 30
0.0
 11
1.030869269167006
 21
-1.979377180280977
 31
0.0
  0
LINE
  5
4F7
330
51
100
AcDbEntity
  8
0-0_補助線
  6
Continuous
 62
     7
370
     9
100
AcDbLine
 10
0.8308692691670032
 20
-1.979377180280977
 30
0.0
 11
0.0308692691670061
 21
-1.979377180280977
 31
0.0
  0
LINE
  5
4F8
330
51
100
AcDbEntity
  8
0-0_補助線
  6
Continuous
 62
     7
370
     9
100
AcDbLine
 10
0.0308692691670061
 20
-1.699377180280976
 30
0.0
 11
0.4308692691670046
 21
-1.699377180280976
 31
0.0
  0
LINE
  5
4F9
330
51
100
AcDbEntity
  8
0-0_補助線
  6
Continuous
 62
     7
370
     9
100
AcDbLine
 10
0.6308692691670075
 20
-1.699377180280976
 30
0.0
 11
1.230869269167009
 21
-1.699377180280976
 31
0.0
  0
LINE
  5
4FA
330
51
100
AcDbEntity
  8
0-0_補助線
  6
Continuous
 62
     7
370
     9
100
AcDbLine
 10
0.0308692691670061
 20
2.330622819719025
 30
0.0
 11
0.4308692691670046
 21
2.330622819719025
 31
0.0
  0
LINE
  5
4FB
330
51
100
AcDbEntity
  8
0-0_補助線
  6
Continuous
 62
     7
370
     9
100
AcDbLine
 10
0.6308692691670075
 20
2.330622819719025
 30
0.0
 11
1.230869269167009
 21
2.330622819719025
 31
0.0
  0
LINE
  5
4FC
330
51
100
AcDbEntity
  8
0-0_補助線
  6
Continuous
 62
     7
370
     9
100
AcDbLine
 10
1.430869269167005
 20
2.610622819719026
 30
0.0
 11
1.030869269167006
 21
2.610622819719026
 31
0.0
  0
LINE
  5
4FD
330
51
100
AcDbEntity
  8
0-0_補助線
  6
Continuous
 62
     7
370
     9
100
AcDbLine
 10
0.8308692691670032
 20
2.610622819719026
 30
0.0
 11
0.0308692691670061
 21
2.610622819719026
 31
0.0
  0
LINE
  5
4FE
330
51
100
AcDbEntity
  8
0-0_補助線
  6
Continuous
 62
     7
370
     9
100
AcDbLine
 10
0.0308692691670061
 20
2.610622819719026
 30
0.0
 11
0.1298643253643306
 21
3.144687402750549
 31
0.0
  0
ARC
  5
4FF
330
51
100
AcDbEntity
  8
0-0_補助線
  6
Continuous
 62
     7
370
     9
100
AcDbCircle
 10
0.0708692691670052
 20
3.155622819719028
 30
0.0
 40
0.06
100
AcDbArc
 50
349.4987515888594
 51
90.0
  0
LINE
  5
500
330
51
100
AcDbEntity
  8
0-0_補助線
  6
Continuous
 62
     7
370
     9
100
AcDbLine
 10
0.0308692691670061
 20
2.330622819719025
 30
0.0
 11
0.0308692691670061
 21
-1.699377180280976
 31
0.0
  0
LINE
  5
501
330
51
100
AcDbEntity
  8
0-0_補助線
  6
Continuous
 62
     7
370
     9
100
AcDbLine
 10
0.0308692691670061
 20
-1.979377180280977
 30
0.0
 11
0.0308692691670061
 21
-2.124377180280973
 31
0.0
  0
ENDBLK
  5
53
330
51
100
AcDbEntity
  8
0
100
AcDbBlockEnd
  0
BLOCK
  5
55
330
54
100
AcDbEntity
  8
0
100
AcDbBlockBegin
  2
01@@SfigorgFlag@@4
 70
     0
 10
0.0
 20
0.0
 30
0.0
  3
01@@SfigorgFlag@@4
  1

  0
LINE
  5
502
330
54
100
AcDbEntity
  8
0-0_補助線
  6
Continuous
 62
     7
370
     9
100
AcDbLine
 10
2.295000000000044
 20
0.0292483078921251
 30
0.0
 11
2.400000000000063
 21
0.0292483078921251
 31
0.0
  0
LINE
  5
503
330
54
100
AcDbEntity
  8
0-0_補助線
  6
Continuous
 62
     7
370
     9
100
AcDbLine
 10
1.875000000000057
 20
0.4292483078921272
 30
0.0
 11
2.015000000000072
 21
0.4292483078921272
 31
0.0
  0
LINE
  5
504
330
54
100
AcDbEntity
  8
0-0_補助線
  6
Continuous
 62
     7
370
     9
100
AcDbLine
 10
2.435000000000059
 20
0.8292483078921258
 30
0.0
 11
2.295000000000044
 21
0.8292483078921258
 31
0.0
  0
LINE
  5
505
330
54
100
AcDbEntity
  8
0-0_補助線
  6
Continuous
 62
     7
370
     9
100
AcDbLine
 10
2.015000000000072
 20
0.6292483078921265
 30
0.0
 11
1.850390282452707
 21
0.5007818107460622
 31
0.0
  0
LINE
  5
506
330
54
100
AcDbEntity
  8
0-0_補助線
  6
Continuous
 62
     7
370
     9
100
AcDbLine
 10
2.295000000000044
 20
1.029248307892125
 30
0.0
 11
2.459609717547409
 21
0.9007818107460608
 31
0.0
  0
LINE
  5
507
330
54
100
AcDbEntity
  8
0-0_補助線
  6
Continuous
 62
     7
370
     9
100
AcDbLine
 10
1.875000000000057
 20
1.229248307892128
 30
0.0
 11
2.015000000000072
 21
1.229248307892128
 31
0.0
  0
ARC
  5
508
330
54
100
AcDbEntity
  8
0-0_補助線
  6
Continuous
 62
     7
370
     9
100
AcDbCircle
 10
2.435000000000059
 20
0.8692483078921249
 30
0.0
 40
0.04
100
AcDbArc
 50
270.0
 51
52.03042523304873
  0
ARC
  5
509
330
54
100
AcDbEntity
  8
0-0_補助線
  6
Continuous
 62
     7
370
     9
100
AcDbCircle
 10
1.875000000000057
 20
0.4692483078921228
 30
0.0
 40
0.04
100
AcDbArc
 50
127.9695747669497
 51
270.0
  0
LINE
  5
50A
330
54
100
AcDbEntity
  8
0-0_補助線
  6
Continuous
 62
     7
370
     9
100
AcDbLine
 10
2.135912019789231
 20
1.509924268342598
 30
0.0
 11
1.851364807915729
 21
1.301518692072314
 31
0.0
  0
ARC
  5
50B
330
54
100
AcDbEntity
  8
0-0_補助線
  6
Continuous
 62
     7
370
     9
100
AcDbCircle
 10
1.875000000000057
 20
1.269248307892124
 30
0.0
 40
0.04
100
AcDbArc
 50
126.2194665119778
 51
270.0
  0
ARC
  5
50C
330
54
100
AcDbEntity
  8
0-0_補助線
  6
Continuous
 62
     7
370
     9
100
AcDbCircle
 10
2.19500000000005
 20
1.429248307892124
 30
0.0
 40
0.1
100
AcDbArc
 50
0.0
 51
126.2194665194743
  0
LINE
  5
50D
330
54
100
AcDbEntity
  8
0-0_補助線
  6
Continuous
 62
     7
370
     9
100
AcDbLine
 10
-1.874999999999943
 20
0.4292483078921272
 30
0.0
 11
-2.01499999999993
 21
0.4292483078921272
 31
0.0
  0
LINE
  5
50E
330
54
100
AcDbEntity
  8
0-0_補助線
  6
Continuous
 62
     7
370
     9
100
AcDbLine
 10
-2.434999999999945
 20
0.8292483078921258
 30
0.0
 11
-2.294999999999931
 21
0.8292483078921258
 31
0.0
  0
LINE
  5
50F
330
54
100
AcDbEntity
  8
0-0_補助線
  6
Continuous
 62
     7
370
     9
100
AcDbLine
 10
-2.01499999999993
 20
0.6292483078921265
 30
0.0
 11
-1.850390282452594
 21
0.5007818107460622
 31
0.0
  0
LINE
  5
510
330
54
100
AcDbEntity
  8
0-0_補助線
  6
Continuous
 62
     7
370
     9
100
AcDbLine
 10
-2.294999999999931
 20
1.029248307892125
 30
0.0
 11
-2.459609717547295
 21
0.9007818107460643
 31
0.0
  0
LINE
  5
511
330
54
100
AcDbEntity
  8
0-0_補助線
  6
Continuous
 62
     7
370
     9
100
AcDbLine
 10
-1.874999999999943
 20
1.229248307892128
 30
0.0
 11
-2.01499999999993
 21
1.229248307892128
 31
0.0
  0
ARC
  5
512
330
54
100
AcDbEntity
  8
0-0_補助線
  6
Continuous
 62
     7
370
     9
100
AcDbCircle
 10
-2.434999999999945
 20
0.8692483078921249
 30
0.0
 40
0.04
100
AcDbArc
 50
127.9695747669513
 51
270.0
  0
ARC
  5
513
330
54
100
AcDbEntity
  8
0-0_補助線
  6
Continuous
 62
     7
370
     9
100
AcDbCircle
 10
-1.874999999999943
 20
0.4692483078921263
 30
0.0
 40
0.04
100
AcDbArc
 50
270.0
 51
52.03042523305033
  0
LINE
  5
514
330
54
100
AcDbEntity
  8
0-0_補助線
  6
Continuous
 62
     7
370
     9
100
AcDbLine
 10
-2.135912019789117
 20
1.509924268342598
 30
0.0
 11
-1.851364807915616
 21
1.301518692072317
 31
0.0
  0
ARC
  5
515
330
54
100
AcDbEntity
  8
0-0_補助線
  6
Continuous
 62
     7
370
     9
100
AcDbCircle
 10
-1.874999999999943
 20
1.269248307892124
 30
0.0
 40
0.04
100
AcDbArc
 50
270.0
 51
53.78053348802219
  0
ARC
  5
516
330
54
100
AcDbEntity
  8
0-0_補助線
  6
Continuous
 62
     7
370
     9
100
AcDbCircle
 10
-2.194999999999936
 20
1.429248307892124
 30
0.0
 40
0.1
100
AcDbArc
 50
53.78053348052574
 51
180.0
  0
LINE
  5
517
330
54
100
AcDbEntity
  8
0-0_補助線
  6
Continuous
 62
     7
370
     9
100
AcDbLine
 10
2.295000000000044
 20
1.429248307892124
 30
0.0
 11
2.295000000000044
 21
1.029248307892125
 31
0.0
  0
LINE
  5
518
330
54
100
AcDbEntity
  8
0-0_補助線
  6
Continuous
 62
     7
370
     9
100
AcDbLine
 10
2.295000000000044
 20
0.8292483078921258
 30
0.0
 11
2.295000000000044
 21
0.0292483078921251
 31
0.0
  0
LINE
  5
519
330
54
100
AcDbEntity
  8
0-0_補助線
  6
Continuous
 62
     7
370
     9
100
AcDbLine
 10
2.015000000000072
 20
0.0292483078921251
 30
0.0
 11
2.015000000000072
 21
0.4292483078921272
 31
0.0
  0
LINE
  5
51A
330
54
100
AcDbEntity
  8
0-0_補助線
  6
Continuous
 62
     7
370
     9
100
AcDbLine
 10
2.015000000000072
 20
0.6292483078921265
 30
0.0
 11
2.015000000000072
 21
1.229248307892128
 31
0.0
  0
LINE
  5
51B
330
54
100
AcDbEntity
  8
0-0_補助線
  6
Continuous
 62
     7
370
     9
100
AcDbLine
 10
-2.01499999999993
 20
0.0292483078921286
 30
0.0
 11
-2.01499999999993
 21
0.4292483078921272
 31
0.0
  0
LINE
  5
51C
330
54
100
AcDbEntity
  8
0-0_補助線
  6
Continuous
 62
     7
370
     9
100
AcDbLine
 10
-2.01499999999993
 20
0.6292483078921265
 30
0.0
 11
-2.01499999999993
 21
1.229248307892128
 31
0.0
  0
LINE
  5
51D
330
54
100
AcDbEntity
  8
0-0_補助線
  6
Continuous
 62
     7
370
     9
100
AcDbLine
 10
-2.294999999999931
 20
1.429248307892124
 30
0.0
 11
-2.294999999999931
 21
1.029248307892125
 31
0.0
  0
LINE
  5
51E
330
54
100
AcDbEntity
  8
0-0_補助線
  6
Continuous
 62
     7
370
     9
100
AcDbLine
 10
-2.294999999999931
 20
0.8292483078921258
 30
0.0
 11
-2.294999999999931
 21
0.0292483078921286
 31
0.0
  0
LINE
  5
51F
330
54
100
AcDbEntity
  8
0-0_補助線
  6
Continuous
 62
     7
370
     9
100
AcDbLine
 10
-2.01499999999993
 20
0.0292483078921286
 30
0.0
 11
2.015000000000072
 21
0.0292483078921251
 31
0.0
  0
ARC
  5
520
330
54
100
AcDbEntity
  8
0-0_補助線
  6
Continuous
 62
     7
370
     9
100
AcDbCircle
 10
2.060000000000059
 20
-1.630751692107875
 30
0.0
 40
0.06
100
AcDbArc
 50
270.0
 51
0.0
  0
LINE
  5
521
330
54
100
AcDbEntity
  8
0-0_補助線
  6
Continuous
 62
     7
370
     9
100
AcDbLine
 10
2.120000000000061
 20
-0.3107516921078783
 30
0.0
 11
2.120000000000061
 21
-1.630751692107875
 31
0.0
  0
ARC
  5
522
330
54
100
AcDbEntity
  8
0-0_補助線
  6
Continuous
 62
     7
370
     9
100
AcDbCircle
 10
2.060000000000059
 20
-0.3107516921078783
 30
0.0
 40
0.06
100
AcDbArc
 50
0.0
 51
90.0
  0
ARC
  5
523
330
54
100
AcDbEntity
  8
0-0_補助線
  6
Continuous
 62
     7
370
     9
100
AcDbCircle
 10
2.200000000000045
 20
-1.770751692107872
 30
0.0
 40
0.2
100
AcDbArc
 50
270.0
 51
0.0
  0
LINE
  5
524
330
54
100
AcDbEntity
  8
0-0_補助線
  6
Continuous
 62
     7
370
     9
100
AcDbLine
 10
2.400000000000063
 20
-0.2976894028633943
 30
0.0
 11
2.400000000000063
 21
-1.770751692107872
 31
0.0
  0
ARC
  5
525
330
54
100
AcDbEntity
  8
0-0_補助線
  6
Continuous
 62
     7
370
     9
100
AcDbCircle
 10
2.460000000000065
 20
-0.2976894028633943
 30
0.0
 40
0.06
100
AcDbArc
 50
103.9281985493314
 51
180.0
  0
LINE
  5
526
330
54
100
AcDbEntity
  8
0-0_補助線
  6
Continuous
 62
     7
370
     9
100
AcDbLine
 10
2.900000000000063
 20
0.0692483078921242
 30
0.0
 11
2.900000000000063
 21
-0.0897352033627286
 31
0.0
  0
LINE
  5
527
330
54
100
AcDbEntity
  8
0-0_補助線
  6
Continuous
 62
     7
370
     9
100
AcDbLine
 10
2.853095847616288
 20
-0.1482885873401969
 30
0.0
 11
2.446904152383837
 21
-0.2391360188859224
 31
0.0
  0
LINE
  5
528
330
54
100
AcDbEntity
  8
0-0_補助線
  6
Continuous
 62
     7
370
     9
100
AcDbLine
 10
2.400000000000063
 20
0.0292483078921251
 30
0.0
 11
2.826503425747205
 21
0.1277106246734299
 31
0.0
  0
ARC
  5
529
330
54
100
AcDbEntity
  8
0-0_補助線
  6
Continuous
 62
     7
370
     9
100
AcDbCircle
 10
2.84000000000006
 20
-0.0897352033627286
 30
0.0
 40
0.06
100
AcDbArc
 50
282.6070972495236
 51
0.0
  0
ARC
  5
52A
330
54
100
AcDbEntity
  8
0-0_補助線
  6
Continuous
 62
     7
370
     9
100
AcDbCircle
 10
2.84000000000006
 20
0.0692483078921242
 30
0.0
 40
0.06
100
AcDbArc
 50
0.0
 51
102.9995207492461
  0
ARC
  5
52B
330
54
100
AcDbEntity
  8
0-0_補助線
  6
Continuous
 62
     7
370
     9
100
AcDbCircle
 10
2.200000000000045
 20
-1.770751692107872
 30
0.0
 40
0.16
100
AcDbArc
 50
270.0
 51
0.0
  0
LINE
  5
52C
330
54
100
AcDbEntity
  8
0-0_補助線
  6
Continuous
 62
     7
370
     9
100
AcDbLine
 10
2.36000000000007
 20
-0.2976894028633943
 30
0.0
 11
2.36000000000007
 21
-1.770751692107872
 31
0.0
  0
ARC
  5
52D
330
54
100
AcDbEntity
  8
0-0_補助線
  6
Continuous
 62
     7
370
     9
100
AcDbCircle
 10
2.460000000000065
 20
-0.2976894028633943
 30
0.0
 40
0.1
100
AcDbArc
 50
103.9281985493314
 51
180.0
  0
LINE
  5
52E
330
54
100
AcDbEntity
  8
0-0_補助線
  6
Continuous
 62
     7
370
     9
100
AcDbLine
 10
2.84436528254048
 20
-0.1092529980215105
 30
0.0
 11
2.438173587308029
 21
-0.2001004295672359
 31
0.0
  0
ARC
  5
52F
330
54
100
AcDbEntity
  8
0-0_補助線
  6
Continuous
 62
     7
370
     9
100
AcDbCircle
 10
2.84000000000006
 20
-0.0897352033627286
 30
0.0
 40
0.02
100
AcDbArc
 50
282.6070972495236
 51
0.0
  0
LINE
  5
530
330
54
100
AcDbEntity
  8
0-0_補助線
  6
Continuous
 62
     7
370
     9
100
AcDbLine
 10
2.86000000000007
 20
0.0692483078921242
 30
0.0
 11
2.86000000000007
 21
-0.0897352033627286
 31
0.0
  0
ARC
  5
531
330
54
100
AcDbEntity
  8
0-0_補助線
  6
Continuous
 62
     7
370
     9
100
AcDbCircle
 10
2.84000000000006
 20
0.0692483078921242
 30
0.0
 40
0.02
100
AcDbArc
 50
0.0
 51
102.9995207492461
  0
LINE
  5
532
330
54
100
AcDbEntity
  8
0-0_補助線
  6
Continuous
 62
     7
370
     9
100
AcDbLine
 10
2.408997716168614
 20
-0.0097265699620763
 30
0.0
 11
2.835501141915785
 21
0.0887357468192285
 31
0.0
  0
LINE
  5
533
330
54
100
AcDbEntity
  8
0-0_補助線
  6
Continuous
 62
     7
370
     9
100
AcDbLine
 10
2.408997716168614
 20
-0.0097265699620763
 30
0.0
 11
2.398644954364528
 21
0.0289104630894848
 31
0.0
  0
LINE
  5
534
330
54
100
AcDbEntity
  8
0-0_補助線
  6
Continuous
 62
     7
370
     9
100
AcDbLine
 10
-2.294999999999931
 20
0.0292483078921286
 30
0.0
 11
-2.399999999999949
 21
0.0292483078921286
 31
0.0
  0
ARC
  5
535
330
54
100
AcDbEntity
  8
0-0_補助線
  6
Continuous
 62
     7
370
     9
100
AcDbCircle
 10
-2.059999999999945
 20
-1.630751692107875
 30
0.0
 40
0.06
100
AcDbArc
 50
180.0
 51
270.0
  0
LINE
  5
536
330
54
100
AcDbEntity
  8
0-0_補助線
  6
Continuous
 62
     7
370
     9
100
AcDbLine
 10
-2.119999999999948
 20
-0.3107516921078748
 30
0.0
 11
-2.119999999999948
 21
-1.630751692107875
 31
0.0
  0
ARC
  5
537
330
54
100
AcDbEntity
  8
0-0_補助線
  6
Continuous
 62
     7
370
     9
100
AcDbCircle
 10
-2.059999999999945
 20
-0.3107516921078748
 30
0.0
 40
0.06
100
AcDbArc
 50
90.0
 51
180.0
  0
ARC
  5
538
330
54
100
AcDbEntity
  8
0-0_補助線
  6
Continuous
 62
     7
370
     9
100
AcDbCircle
 10
-2.199999999999932
 20
-1.770751692107872
 30
0.0
 40
0.2
100
AcDbArc
 50
180.0
 51
270.0
  0
LINE
  5
539
330
54
100
AcDbEntity
  8
0-0_補助線
  6
Continuous
 62
     7
370
     9
100
AcDbLine
 10
-2.399999999999949
 20
-0.2976894028633943
 30
0.0
 11
-2.399999999999949
 21
-1.770751692107872
 31
0.0
  0
ARC
  5
53A
330
54
100
AcDbEntity
  8
0-0_補助線
  6
Continuous
 62
     7
370
     9
100
AcDbCircle
 10
-2.459999999999951
 20
-0.2976894028633943
 30
0.0
 40
0.06
100
AcDbArc
 50
0.0
 51
76.0718014506686
  0
LINE
  5
53B
330
54
100
AcDbEntity
  8
0-0_補助線
  6
Continuous
 62
     7
370
     9
100
AcDbLine
 10
-2.899999999999949
 20
0.0692483078921242
 30
0.0
 11
-2.899999999999949
 21
-0.0897352033627286
 31
0.0
  0
LINE
  5
53C
330
54
100
AcDbEntity
  8
0-0_補助線
  6
Continuous
 62
     7
370
     9
100
AcDbLine
 10
-2.853095847616174
 20
-0.1482885873401933
 30
0.0
 11
-2.446904152383723
 21
-0.2391360188859224
 31
0.0
  0
LINE
  5
53D
330
54
100
AcDbEntity
  8
0-0_補助線
  6
Continuous
 62
     7
370
     9
100
AcDbLine
 10
-2.399999999999949
 20
0.0292483078921286
 30
0.0
 11
-2.826503425747092
 21
0.1277106246734299
 31
0.0
  0
ARC
  5
53E
330
54
100
AcDbEntity
  8
0-0_補助線
  6
Continuous
 62
     7
370
     9
100
AcDbCircle
 10
-2.839999999999947
 20
-0.0897352033627286
 30
0.0
 40
0.06
100
AcDbArc
 50
180.0
 51
257.3929027504764
  0
ARC
  5
53F
330
54
100
AcDbEntity
  8
0-0_補助線
  6
Continuous
 62
     7
370
     9
100
AcDbCircle
 10
-2.839999999999947
 20
0.0692483078921242
 30
0.0
 40
0.06
100
AcDbArc
 50
77.00047925075384
 51
180.0
  0
ARC
  5
540
330
54
100
AcDbEntity
  8
0-0_補助線
  6
Continuous
 62
     7
370
     9
100
AcDbCircle
 10
-2.199999999999932
 20
-1.770751692107872
 30
0.0
 40
0.16
100
AcDbArc
 50
180.0
 51
270.0
  0
LINE
  5
541
330
54
100
AcDbEntity
  8
0-0_補助線
  6
Continuous
 62
     7
370
     9
100
AcDbLine
 10
-2.359999999999928
 20
-0.2976894028633943
 30
0.0
 11
-2.359999999999928
 21
-1.770751692107872
 31
0.0
  0
ARC
  5
542
330
54
100
AcDbEntity
  8
0-0_補助線
  6
Continuous
 62
     7
370
     9
100
AcDbCircle
 10
-2.459999999999951
 20
-0.2976894028633943
 30
0.0
 40
0.1
100
AcDbArc
 50
0.0
 51
76.0718014506686
  0
LINE
  5
543
330
54
100
AcDbEntity
  8
0-0_補助線
  6
Continuous
 62
     7
370
     9
100
AcDbLine
 10
-2.844365282540366
 20
-0.1092529980215069
 30
0.0
 11
-2.438173587307915
 21
-0.2001004295672359
 31
0.0
  0
ARC
  5
544
330
54
100
AcDbEntity
  8
0-0_補助線
  6
Continuous
 62
     7
370
     9
100
AcDbCircle
 10
-2.839999999999947
 20
-0.0897352033627286
 30
0.0
 40
0.02
100
AcDbArc
 50
180.0
 51
257.3929027504764
  0
LINE
  5
545
330
54
100
AcDbEntity
  8
0-0_補助線
  6
Continuous
 62
     7
370
     9
100
AcDbLine
 10
-2.859999999999957
 20
0.0692483078921242
 30
0.0
 11
-2.859999999999957
 21
-0.0897352033627286
 31
0.0
  0
ARC
  5
546
330
54
100
AcDbEntity
  8
0-0_補助線
  6
Continuous
 62
     7
370
     9
100
AcDbCircle
 10
-2.839999999999947
 20
0.0692483078921242
 30
0.0
 40
0.02
100
AcDbArc
 50
77.00047925075384
 51
180.0
  0
LINE
  5
547
330
54
100
AcDbEntity
  8
0-0_補助線
  6
Continuous
 62
     7
370
     9
100
AcDbLine
 10
-2.4089977161685
 20
-0.0097265699620763
 30
0.0
 11
-2.835501141915671
 21
0.0887357468192285
 31
0.0
  0
LINE
  5
548
330
54
100
AcDbEntity
  8
0-0_補助線
  6
Continuous
 62
     7
370
     9
100
AcDbLine
 10
-2.4089977161685
 20
-0.0097265699620763
 30
0.0
 11
-2.398644954364414
 21
0.0289104630894848
 31
0.0
  0
LINE
  5
549
330
54
100
AcDbEntity
  8
0-0_補助線
  6
Continuous
 62
     7
370
     9
100
AcDbLine
 10
-2.059999999999945
 20
-0.2507516921078725
 30
0.0
 11
2.060000000000059
 21
-0.2507516921078761
 31
0.0
  0
LINE
  5
54A
330
54
100
AcDbEntity
  8
0-0_補助線
  6
Continuous
 62
     7
370
     9
100
AcDbLine
 10
-2.059999999999945
 20
-1.690751692107877
 30
0.0
 11
2.060000000000059
 21
-1.690751692107877
 31
0.0
  0
LINE
  5
54B
330
54
100
AcDbEntity
  8
0-0_補助線
  6
Continuous
 62
     7
370
     9
100
AcDbLine
 10
-2.199999999999932
 20
-1.930751692107876
 30
0.0
 11
2.200000000000045
 21
-1.930751692107876
 31
0.0
  0
LINE
  5
54C
330
54
100
AcDbEntity
  8
0-0_補助線
  6
Continuous
 62
     7
370
     9
100
AcDbLine
 10
2.200000000000045
 20
-1.970751692107875
 30
0.0
 11
-2.199999999999932
 21
-1.970751692107875
 31
0.0
  0
ENDBLK
  5
56
330
54
100
AcDbEntity
  8
0
100
AcDbBlockEnd
  0
ENDSEC
  0
SECTION
  2
ENTITIES
  0
LINE
  5
57
330
1F
100
AcDbEntity
  8
F-0_補助線
  6
JWW_HOJO
 62
     7
370
     9
100
AcDbLine
 10
0.0004222817773325
 20
-3924.99953926621
 30
0.0
 11
5839.99952325042
 21
-3925.004967477321
 31
0.0
  0
LINE
  5
58
330
1F
100
AcDbEntity
  8
F-0_補助線
  6
JWW_HOJO
 62
     7
370
     9
100
AcDbLine
 10
0.0005059357289383
 20
-3834.99953926625
 30
0.0
 11
5839.999606904372
 21
-3835.00496747736
 31
0.0
  0
LINE
  5
59
330
1F
100
AcDbEntity
  8
F-0_補助線
  6
JWW_HOJO
 62
   120
370
     5
100
AcDbLine
 10
-6149.999505120355
 20
-4439.999802048143
 30
0.0
 11
-6149.999505120355
 21
4439.999802048143
 31
0.0
  0
LINE
  5
5A
330
1F
100
AcDbEntity
  8
F-0_補助線
  6
JWW_HOJO
 62
   120
370
     5
100
AcDbLine
 10
-6149.999505120355
 20
4439.999802048143
 30
0.0
 11
6149.999505120355
 21
4439.999802048143
 31
0.0
  0
LINE
  5
5B
330
1F
100
AcDbEntity
  8
F-0_補助線
  6
JWW_HOJO
 62
   120
370
     5
100
AcDbLine
 10
6149.999505120355
 20
4439.999802048143
 30
0.0
 11
6149.999505120355
 21
-4439.999802048143
 31
0.0
  0
LINE
  5
5C
330
1F
100
AcDbEntity
  8
F-0_補助線
  6
JWW_HOJO
 62
   120
370
     5
100
AcDbLine
 10
6149.999505120355
 20
-4439.999802048143
 30
0.0
 11
-6149.999505120355
 21
-4439.999802048143
 31
0.0
  0
LINE
  5
5D
330
1F
100
AcDbEntity
  8
F-1_枠
  6
Continuous
 62
   200
370
    20
100
AcDbLine
 10
5849.999257680533
 20
4189.999967008023
 30
0.0
 11
5849.999257680533
 21
-4189.999967008024
 31
0.0
  0
LINE
  5
5E
330
1F
100
AcDbEntity
  8
F-1_枠
  6
Continuous
 62
   200
370
    20
100
AcDbLine
 10
-5849.999489655365
 20
4189.999967008023
 30
0.0
 11
-5849.999489655365
 21
-4189.999967008024
 31
0.0
  0
LINE
  5
5F
330
1F
100
AcDbEntity
  8
F-1_枠
  6
Continuous
 62
   200
370
    20
100
AcDbLine
 10
-5839.999495325861
 20
4189.999967008023
 30
0.0
 11
-5839.999495325861
 21
-4189.999967008024
 31
0.0
  0
LINE
  5
60
330
1F
100
AcDbEntity
  8
F-1_枠
  6
Continuous
 62
   200
370
    20
100
AcDbLine
 10
-5844.999480891873
 20
4189.999967008023
 30
0.0
 11
-5844.999480891873
 21
-4189.999967008024
 31
0.0
  0
LINE
  5
61
330
1F
100
AcDbEntity
  8
F-1_枠
  6
Continuous
 62
   200
370
    20
100
AcDbLine
 10
5844.998993744722
 20
4189.999967008023
 30
0.0
 11
5844.998993744722
 21
-4189.999967008024
 31
0.0
  0
LINE
  5
62
330
1F
100
AcDbEntity
  8
F-1_枠
  6
Continuous
 62
   200
370
    20
100
AcDbLine
 10
5839.99947212838
 20
4189.999967008023
 30
0.0
 11
5839.99947212838
 21
-4189.999967008024
 31
0.0
  0
LINE
  5
63
330
1F
100
AcDbEntity
  8
F-1_枠
  6
Continuous
 62
   200
370
    20
100
AcDbLine
 10
-5849.999257680532
 20
4189.999967008023
 30
0.0
 11
5849.999257680533
 21
4189.999967008023
 31
0.0
  0
LINE
  5
64
330
1F
100
AcDbEntity
  8
F-1_枠
  6
Continuous
 62
   200
370
    20
100
AcDbLine
 10
-5849.999257680532
 20
4180.00018145587
 30
0.0
 11
5849.999257680533
 21
4180.00018145587
 31
0.0
  0
LINE
  5
65
330
1F
100
AcDbEntity
  8
F-1_枠
  6
Continuous
 62
   200
370
    20
100
AcDbLine
 10
-5849.999257680532
 20
4184.999703072212
 30
0.0
 11
5849.999257680533
 21
4184.999703072212
 31
0.0
  0
LINE
  5
66
330
1F
100
AcDbEntity
  8
0-A_文字
  6
Continuous
 62
    92
370
    13
100
AcDbLine
 10
-5659.999727300696
 20
3730.000343838255
 30
0.0
 11
-5659.999727300696
 21
4000.000343838255
 31
0.0
  0
LINE
  5
67
330
1F
100
AcDbEntity
  8
0-A_文字
  6
Continuous
 62
    92
370
    13
100
AcDbLine
 10
-5659.999727300696
 20
4000.000343838255
 30
0.0
 11
-3109.999727300696
 21
4000.000343838255
 31
0.0
  0
LINE
  5
68
330
1F
100
AcDbEntity
  8
0-A_文字
  6
Continuous
 62
    92
370
    13
100
AcDbLine
 10
-5659.999727300696
 20
3730.000343838255
 30
0.0
 11
-3109.999727300696
 21
3730.000343838255
 31
0.0
  0
LINE
  5
69
330
1F
100
AcDbEntity
  8
0-A_文字
  6
Continuous
 62
    92
370
    13
100
AcDbLine
 10
-3109.999727300696
 20
4000.000343838255
 30
0.0
 11
-3109.999727300696
 21
3730.000343838255
 31
0.0
  0
LINE
  5
6A
330
1F
100
AcDbEntity
  8
0-0_補助線
  6
JWW_HOJO
 62
   120
370
     5
100
AcDbLine
 10
-5112.301570896749
 20
1419.431911698657
 30
0.0
 11
-5112.301570896749
 21
2709.431911698658
 31
0.0
  0
LWPOLYLINE
  5
6B
330
1F
100
AcDbEntity
  8
0-B_寸法
  6
Continuous
 62
     7
370
     9
100
AcDbPolyline
 90
        4
 70
     1
 43
3.0
 10
-4189.203019493378
 20
789.4319116986574
 42
0.4142135623731
 10
-4190.703019493378
 20
790.9319116986575
 42
0.4142135623731
 10
-4192.203019493378
 20
789.4319116986574
 42
0.4142135623731
 10
-4190.703019493378
 20
787.9319116986574
 42
0.4142135623731
  0
LINE
  5
6C
330
1F
100
AcDbEntity
  8
0-B_寸法
  6
Continuous
 62
   120
370
     5
100
AcDbLine
 10
-4190.703019493378
 20
789.4319116986574
 30
0.0
 11
-4190.703019493378
 21
1419.431911698658
 31
0.0
  0
LINE
  5
6D
330
1F
100
AcDbEntity
  8
0-B_寸法
  6
Continuous
 62
   120
370
     5
100
AcDbLine
 10
-4046.703019493378
 20
999.4319116986574
 30
0.0
 11
-4046.703019493378
 21
1419.431911698658
 31
0.0
  0
MTEXT
  5
6E
330
1F
100
AcDbEntity
  8
0-B_寸法
  6
Continuous
 62
     7
370
   211
100
AcDbMText
 10
-4178.703019493377
 20
1000.151911698657
 30
0.0
 40
91.44
 41
120.0
 46
0.0
 71
     7
 72
     1
  1
{\fＭＳ ゴシック|b0|i0|c128|p49;24}
 73
     1
 44
1.0
  0
LWPOLYLINE
  5
6F
330
1F
100
AcDbEntity
  8
0-B_寸法
  6
Continuous
 62
     7
370
     9
100
AcDbPolyline
 90
        4
 70
     1
 43
3.0
 10
-4189.203019493378
 20
999.4319116986574
 42
0.4142135623731
 10
-4190.703019493378
 20
1000.931911698657
 42
0.4142135623731
 10
-4192.203019493378
 20
999.4319116986574
 42
0.4142135623731
 10
-4190.703019493378
 20
997.9319116986575
 42
0.4142135623731
  0
LWPOLYLINE
  5
70
330
1F
100
AcDbEntity
  8
0-B_寸法
  6
Continuous
 62
     7
370
     9
100
AcDbPolyline
 90
        4
 70
     1
 43
3.0
 10
-4045.203019493378
 20
999.4319116986574
 42
0.4142135623731
 10
-4046.703019493378
 20
1000.931911698657
 42
0.4142135623731
 10
-4048.203019493379
 20
999.4319116986574
 42
0.4142135623731
 10
-4046.703019493378
 20
997.9319116986575
 42
0.4142135623731
  0
LINE
  5
71
330
1F
100
AcDbEntity
  8
0-B_寸法
  6
Continuous
 62
   120
370
     5
100
AcDbLine
 10
-4016.703019493378
 20
1209.431911698657
 30
0.0
 11
-4016.703019493378
 21
1419.431911698658
 31
0.0
  0
MTEXT
  5
72
330
1F
100
AcDbEntity
  8
0-B_寸法
  6
Continuous
 62
     7
370
   211
100
AcDbMText
 10
-4007.788538457299
 20
1210.151911698657
 30
0.0
 40
91.44
 41
60.0
 46
0.0
 71
     7
 72
     1
  1
{\fＭＳ ゴシック|b0|i0|c128|p49;5}
 73
     1
 44
1.0
  0
LWPOLYLINE
  5
73
330
1F
100
AcDbEntity
  8
0-B_寸法
  6
Continuous
 62
     7
370
     9
100
AcDbPolyline
 90
        4
 70
     1
 43
3.0
 10
-4045.203019493378
 20
1209.431911698657
 42
0.4142135623731
 10
-4046.703019493378
 20
1210.931911698657
 42
0.4142135623731
 10
-4048.203019493379
 20
1209.431911698657
 42
0.4142135623731
 10
-4046.703019493378
 20
1207.931911698658
 42
0.4142135623731
  0
LWPOLYLINE
  5
74
330
1F
100
AcDbEntity
  8
0-B_寸法
  6
Continuous
 62
     7
370
     9
100
AcDbPolyline
 90
        4
 70
     1
 43
3.0
 10
-4015.203019493378
 20
1209.431911698657
 42
0.4142135623731
 10
-4016.703019493378
 20
1210.931911698657
 42
0.4142135623731
 10
-4018.203019493379
 20
1209.431911698657
 42
0.4142135623731
 10
-4016.703019493378
 20
1207.931911698658
 42
0.4142135623731
  0
MTEXT
  5
75
330
1F
100
AcDbEntity
  8
0-B_寸法
  6
Continuous
 62
     7
370
     0
100
AcDbMText
 10
-3753.173029807302
 20
1960.151911698657
 30
0.0
 40
91.44
 41
180.0
 46
0.0
 71
     7
 72
     1
  1
{\fＭＳ ゴシック|b0|i0|c128|p49;155}
 11
6.123031769111886E-17
 21
1.0
 31
0.0
 73
     1
 44
1.0
  0
LINE
  5
76
330
1F
100
AcDbEntity
  8
0-C_ハッチ
  6
JWW_DASHED1
 62
   120
370
     5
100
AcDbLine
 10
-4942.595943412003
 20
2379.43191169866
 30
0.0
 11
-4867.595943412009
 21
2454.431911698658
 31
0.0
  0
LINE
  5
77
330
1F
100
AcDbEntity
  8
0-C_ハッチ
  6
JWW_DASHED1
 62
   120
370
     5
100
AcDbLine
 10
-4985.022350283217
 20
2379.431911698646
 30
0.0
 11
-4910.022350283203
 21
2454.43191169866
 31
0.0
  0
LINE
  5
78
330
1F
100
AcDbEntity
  8
0-C_ハッチ
  6
JWW_DASHED1
 62
   120
370
     5
100
AcDbLine
 10
-5027.448757154414
 20
2379.431911698649
 30
0.0
 11
-4952.4487571544
 21
2454.431911698663
 31
0.0
  0
LINE
  5
79
330
1F
100
AcDbEntity
  8
0-C_ハッチ
  6
JWW_DASHED1
 62
   120
370
     5
100
AcDbLine
 10
-5069.875164025554
 20
2379.431911698656
 30
0.0
 11
-4994.875164025568
 21
2454.431911698644
 31
0.0
  0
LINE
  5
7A
330
1F
100
AcDbEntity
  8
0-C_ハッチ
  6
JWW_DASHED1
 62
   120
370
     5
100
AcDbLine
 10
-4968.773433472912
 20
1674.431911698658
 30
0.0
 11
-4893.773433472918
 21
1749.431911698657
 31
0.0
  0
LINE
  5
7B
330
1F
100
AcDbEntity
  8
0-C_ハッチ
  6
JWW_DASHED1
 62
   120
370
     5
100
AcDbLine
 10
-5011.199840344131
 20
1674.431911698644
 30
0.0
 11
-4936.199840344112
 21
1749.43191169866
 31
0.0
  0
LINE
  5
7C
330
1F
100
AcDbEntity
  8
0-C_ハッチ
  6
JWW_DASHED1
 62
   120
370
     5
100
AcDbLine
 10
-5053.626247215326
 20
1674.431911698648
 30
0.0
 11
-4978.626247215309
 21
1749.431911698663
 31
0.0
  0
LINE
  5
7D
330
1F
100
AcDbEntity
  8
0-C_ハッチ
  6
JWW_DASHED1
 62
   120
370
     5
100
AcDbLine
 10
-5096.052654086465
 20
1674.431911698656
 30
0.0
 11
-5021.052654086477
 21
1749.431911698644
 31
0.0
  0
LWPOLYLINE
  5
7E
330
1F
100
AcDbEntity
  8
0-B_寸法
  6
Continuous
 62
     7
370
     9
100
AcDbPolyline
 90
        4
 70
     1
 43
3.0
 10
-3736.673029807302
 20
1599.431911698658
 42
0.4142135623731
 10
-3738.173029807302
 20
1600.931911698658
 42
0.4142135623731
 10
-3739.673029807302
 20
1599.431911698658
 42
0.4142135623731
 10
-3738.173029807302
 20
1597.931911698658
 42
0.4142135623731
  0
LWPOLYLINE
  5
7F
330
1F
100
AcDbEntity
  8
0-B_寸法
  6
Continuous
 62
     7
370
     9
100
AcDbPolyline
 90
        4
 70
     1
 43
3.0
 10
-3736.673029807302
 20
2529.431911698658
 42
0.4142135623731
 10
-3738.173029807302
 20
2530.931911698657
 42
0.4142135623731
 10
-3739.673029807302
 20
2529.431911698658
 42
0.4142135623731
 10
-3738.173029807302
 20
2527.931911698658
 42
0.4142135623731
  0
LINE
  5
80
330
1F
100
AcDbEntity
  8
0-B_寸法
  6
Continuous
 62
   120
370
     5
100
AcDbLine
 10
-3738.173029807302
 20
2529.431911698658
 30
0.0
 11
-3738.173029807302
 21
1599.431911698658
 31
0.0
  0
LINE
  5
81
330
1F
100
AcDbEntity
  8
0-B_寸法
  6
Continuous
 62
   120
370
     5
100
AcDbLine
 10
-3738.173029807302
 20
1599.431911698658
 30
0.0
 11
-3945.3051686309
 21
1599.431911698658
 31
0.0
  0
LINE
  5
82
330
1F
100
AcDbEntity
  8
0-B_寸法
  6
Continuous
 62
   120
370
     5
100
AcDbLine
 10
-3738.173029807302
 20
2529.431911698658
 30
0.0
 11
-3945.3051686309
 21
2529.431911698658
 31
0.0
  0
LINE
  5
83
330
1F
100
AcDbEntity
  8
0-3_仕上げ
  6
Continuous
 62
    92
370
    13
100
AcDbLine
 10
-4871.703019493378
 20
2379.431911698669
 30
0.0
 11
-4871.703019493378
 21
1749.431911698665
 31
0.0
  0
LINE
  5
84
330
1F
100
AcDbEntity
  8
0-3_仕上げ
  6
Continuous
 62
     7
370
     9
100
AcDbLine
 10
-4241.703019493378
 20
1749.431911698665
 30
0.0
 11
-4871.703019493378
 21
2379.431911698669
 31
0.0
  0
LINE
  5
85
330
1F
100
AcDbEntity
  8
0-3_仕上げ
  6
Continuous
 62
     7
370
     9
100
AcDbLine
 10
-4871.703019493378
 20
1749.431911698665
 30
0.0
 11
-4241.703019493378
 21
2379.431911698669
 31
0.0
  0
LINE
  5
86
330
1F
100
AcDbEntity
  8
0-C_ハッチ
  6
JWW_DASHED1
 62
   120
370
     5
100
AcDbLine
 10
-4772.890315927255
 20
2379.431911698671
 30
0.0
 11
-4697.890315927258
 21
2454.431911698671
 31
0.0
  0
LINE
  5
87
330
1F
100
AcDbEntity
  8
0-C_ハッチ
  6
JWW_DASHED1
 62
   120
370
     5
100
AcDbLine
 10
-4815.316722798471
 20
2379.431911698654
 30
0.0
 11
-4740.316722798458
 21
2454.431911698669
 31
0.0
  0
LINE
  5
88
330
1F
100
AcDbEntity
  8
0-C_ハッチ
  6
JWW_DASHED1
 62
   120
370
     5
100
AcDbLine
 10
-4857.743129669671
 20
2379.431911698656
 30
0.0
 11
-4782.743129669658
 21
2454.431911698671
 31
0.0
  0
LINE
  5
89
330
1F
100
AcDbEntity
  8
0-C_ハッチ
  6
JWW_DASHED1
 62
   120
370
     5
100
AcDbLine
 10
-4900.16953654081
 20
2379.431911698661
 30
0.0
 11
-4825.169536540822
 21
2454.431911698654
 31
0.0
  0
LINE
  5
8A
330
1F
100
AcDbEntity
  8
0-C_ハッチ
  6
JWW_DASHED1
 62
   120
370
     5
100
AcDbLine
 10
-4756.641399116967
 20
1674.431911698671
 30
0.0
 11
-4681.641399116967
 21
1749.431911698669
 31
0.0
  0
LINE
  5
8B
330
1F
100
AcDbEntity
  8
0-C_ハッチ
  6
JWW_DASHED1
 62
   120
370
     5
100
AcDbLine
 10
-4799.067805988177
 20
1674.431911698657
 30
0.0
 11
-4724.067805988164
 21
1749.431911698674
 31
0.0
  0
LINE
  5
8C
330
1F
100
AcDbEntity
  8
0-C_ハッチ
  6
JWW_DASHED1
 62
   120
370
     5
100
AcDbLine
 10
-4841.494212859374
 20
1674.431911698661
 30
0.0
 11
-4766.49421285936
 21
1749.431911698674
 31
0.0
  0
LINE
  5
8D
330
1F
100
AcDbEntity
  8
0-C_ハッチ
  6
JWW_DASHED1
 62
   120
370
     5
100
AcDbLine
 10
-4883.920619730523
 20
1674.431911698658
 30
0.0
 11
-4808.920619730531
 21
1749.431911698651
 31
0.0
  0
LINE
  5
8E
330
1F
100
AcDbEntity
  8
0-C_ハッチ
  6
JWW_DASHED1
 62
   120
370
     5
100
AcDbLine
 10
-4926.347026601723
 20
1674.43191169866
 30
0.0
 11
-4851.347026601731
 21
1749.431911698654
 31
0.0
  0
LINE
  5
8F
330
1F
100
AcDbEntity
  8
0-C_ハッチ
  6
JWW_DASHED1
 62
   120
370
     5
100
AcDbLine
 10
-4639.214992245753
 20
1749.431911698665
 30
0.0
 11
-4714.214992245764
 21
1674.431911698654
 31
0.0
  0
LINE
  5
90
330
1F
100
AcDbEntity
  8
0-C_ハッチ
  6
JWW_DASHED1
 62
   120
370
     5
100
AcDbLine
 10
-4596.788585374553
 20
1749.431911698665
 30
0.0
 11
-4671.78858537455
 21
1674.431911698668
 31
0.0
  0
LINE
  5
91
330
1F
100
AcDbEntity
  8
0-C_ハッチ
  6
JWW_DASHED1
 62
   120
370
     5
100
AcDbLine
 10
-4554.362178503358
 20
1749.431911698661
 30
0.0
 11
-4629.362178503353
 21
1674.431911698664
 31
0.0
  0
LINE
  5
92
330
1F
100
AcDbEntity
  8
0-C_ハッチ
  6
JWW_DASHED1
 62
   120
370
     5
100
AcDbLine
 10
-4511.935771632218
 20
1749.431911698654
 30
0.0
 11
-4586.935771632215
 21
1674.431911698657
 31
0.0
  0
LINE
  5
93
330
1F
100
AcDbEntity
  8
0-C_ハッチ
  6
JWW_DASHED1
 62
   120
370
     5
100
AcDbLine
 10
-4469.509364761021
 20
1749.431911698651
 30
0.0
 11
-4544.509364761018
 21
1674.431911698654
 31
0.0
  0
LINE
  5
94
330
1F
100
AcDbEntity
  8
0-C_ハッチ
  6
JWW_DASHED1
 62
   120
370
     5
100
AcDbLine
 10
-4427.082957889821
 20
1749.431911698649
 30
0.0
 11
-4502.082957889818
 21
1674.431911698653
 31
0.0
  0
LINE
  5
95
330
1F
100
AcDbEntity
  8
0-C_ハッチ
  6
JWW_DASHED1
 62
   120
370
     5
100
AcDbLine
 10
-4384.656551018607
 20
1749.431911698663
 30
0.0
 11
-4459.656551018621
 21
1674.431911698649
 31
0.0
  0
LINE
  5
96
330
1F
100
AcDbEntity
  8
0-C_ハッチ
  6
JWW_DASHED1
 62
   120
370
     5
100
AcDbLine
 10
-4342.230144147407
 20
1749.431911698665
 30
0.0
 11
-4417.230144147418
 21
1674.431911698654
 31
0.0
  0
LINE
  5
97
330
1F
100
AcDbEntity
  8
0-C_ハッチ
  6
JWW_DASHED1
 62
   120
370
     5
100
AcDbLine
 10
-4299.803737276199
 20
1749.431911698674
 30
0.0
 11
-4374.803737276199
 21
1674.431911698674
 31
0.0
  0
LINE
  5
98
330
1F
100
AcDbEntity
  8
0-C_ハッチ
  6
JWW_DASHED1
 62
   120
370
     5
100
AcDbLine
 10
-4257.377330405001
 20
1749.431911698669
 30
0.0
 11
-4332.377330404999
 21
1674.431911698674
 31
0.0
  0
LINE
  5
99
330
1F
100
AcDbEntity
  8
0-C_ハッチ
  6
JWW_DASHED1
 62
   120
370
     5
100
AcDbLine
 10
-4214.950923533805
 20
1749.431911698668
 30
0.0
 11
-4289.950923533801
 21
1674.431911698671
 31
0.0
  0
LINE
  5
9A
330
1F
100
AcDbEntity
  8
0-C_ハッチ
  6
JWW_DASHED1
 62
   120
370
     5
100
AcDbLine
 10
-4190.703019493383
 20
1731.253408867944
 30
0.0
 11
-4247.524516662662
 21
1674.431911698664
 31
0.0
  0
LINE
  5
9B
330
1F
100
AcDbEntity
  8
0-C_ハッチ
  6
JWW_DASHED1
 62
   120
370
     5
100
AcDbLine
 10
-4190.70301949338
 20
1688.827001996745
 30
0.0
 11
-4205.098109791467
 21
1674.431911698661
 31
0.0
  0
LINE
  5
9C
330
1F
100
AcDbEntity
  8
0-C_ハッチ
  6
JWW_DASHED1
 62
   120
370
     5
100
AcDbLine
 10
-4655.463909056063
 20
2454.431911698668
 30
0.0
 11
-4730.463909056065
 21
2379.431911698642
 31
0.0
  0
LINE
  5
9D
330
1F
100
AcDbEntity
  8
0-C_ハッチ
  6
JWW_DASHED1
 62
   120
370
     5
100
AcDbLine
 10
-4613.037502184844
 20
2454.431911698665
 30
0.0
 11
-4688.037502184838
 21
2379.431911698669
 31
0.0
  0
LINE
  5
9E
330
1F
100
AcDbEntity
  8
0-C_ハッチ
  6
JWW_DASHED1
 62
   120
370
     5
100
AcDbLine
 10
-4570.611095313641
 20
2454.431911698667
 30
0.0
 11
-4645.611095313641
 21
2379.431911698668
 31
0.0
  0
LINE
  5
9F
330
1F
100
AcDbEntity
  8
0-C_ハッチ
  6
JWW_DASHED1
 62
   120
370
     5
100
AcDbLine
 10
-4528.184688442444
 20
2454.431911698663
 30
0.0
 11
-4603.184688442444
 21
2379.431911698665
 31
0.0
  0
LINE
  5
A0
330
1F
100
AcDbEntity
  8
0-C_ハッチ
  6
JWW_DASHED1
 62
   120
370
     5
100
AcDbLine
 10
-4485.758281571249
 20
2454.431911698661
 30
0.0
 11
-4560.758281571244
 21
2379.431911698665
 31
0.0
  0
LINE
  5
A1
330
1F
100
AcDbEntity
  8
0-C_ハッチ
  6
JWW_DASHED1
 62
   120
370
     5
100
AcDbLine
 10
-4443.331874700109
 20
2454.431911698654
 30
0.0
 11
-4518.331874700106
 21
2379.431911698658
 31
0.0
  0
LINE
  5
A2
330
1F
100
AcDbEntity
  8
0-C_ハッチ
  6
JWW_DASHED1
 62
   120
370
     5
100
AcDbLine
 10
-4400.905467828912
 20
2454.431911698652
 30
0.0
 11
-4475.905467828909
 21
2379.431911698654
 31
0.0
  0
LINE
  5
A3
330
1F
100
AcDbEntity
  8
0-C_ハッチ
  6
JWW_DASHED1
 62
   120
370
     5
100
AcDbLine
 10
-4358.479060957698
 20
2454.431911698665
 30
0.0
 11
-4433.479060957712
 21
2379.431911698652
 31
0.0
  0
LINE
  5
A4
330
1F
100
AcDbEntity
  8
0-C_ハッチ
  6
JWW_DASHED1
 62
   120
370
     5
100
AcDbLine
 10
-4316.052654086498
 20
2454.431911698665
 30
0.0
 11
-4391.052654086509
 21
2379.431911698654
 31
0.0
  0
LINE
  5
A5
330
1F
100
AcDbEntity
  8
0-C_ハッチ
  6
JWW_DASHED1
 62
   120
370
     5
100
AcDbLine
 10
-4273.626247215304
 20
2454.431911698661
 30
0.0
 11
-4348.626247215296
 21
2379.431911698667
 31
0.0
  0
LINE
  5
A6
330
1F
100
AcDbEntity
  8
0-C_ハッチ
  6
JWW_DASHED1
 62
   120
370
     5
100
AcDbLine
 10
-4231.199840344092
 20
2454.431911698671
 30
0.0
 11
-4306.19984034409
 21
2379.431911698674
 31
0.0
  0
LINE
  5
A7
330
1F
100
AcDbEntity
  8
0-C_ハッチ
  6
JWW_DASHED1
 62
   120
370
     5
100
AcDbLine
 10
-4190.703019493391
 20
2452.502325678173
 30
0.0
 11
-4263.773433472892
 21
2379.431911698671
 31
0.0
  0
LINE
  5
A8
330
1F
100
AcDbEntity
  8
0-C_ハッチ
  6
JWW_DASHED1
 62
   120
370
     5
100
AcDbLine
 10
-4190.703019493391
 20
2410.075918806973
 30
0.0
 11
-4221.347026601696
 21
2379.431911698668
 31
0.0
  0
LINE
  5
A9
330
1F
100
AcDbEntity
  8
0-3_仕上げ
  6
Continuous
 62
    92
370
    13
100
AcDbLine
 10
-4241.703019493378
 20
2379.431911698669
 30
0.0
 11
-4241.703019493378
 21
1749.431911698665
 31
0.0
  0
MTEXT
  5
AA
330
1F
100
AcDbEntity
  8
0-A_文字
  6
Continuous
 62
     7
370
     9
100
AcDbMText
 10
-4550.703019493376
 20
1435.151911698658
 30
0.0
 40
91.44
 41
720.0
 46
0.0
 71
     7
 72
     1
  1
{\fＭＳ ゴシック|b0|i0|c128|p49;（ラッチ側）}
 73
     1
 44
1.0
  0
LINE
  5
AB
330
1F
100
AcDbEntity
  8
0-0_補助線
  6
JWW_HOJO
 62
   120
370
     5
100
AcDbLine
 10
-2396.703019493377
 20
2709.431911698658
 30
0.0
 11
-2396.703019493377
 21
1419.431911698657
 31
0.0
  0
LINE
  5
AC
330
1F
100
AcDbEntity
  8
0-0_補助線
  6
JWW_HOJO
 62
   120
370
     5
100
AcDbLine
 10
-2516.703019493378
 20
2709.431911698658
 30
0.0
 11
-2516.703019493378
 21
1419.431911698657
 31
0.0
  0
LINE
  5
AD
330
1F
100
AcDbEntity
  8
0-B_寸法
  6
Continuous
 62
   120
370
     5
100
AcDbLine
 10
-740.7030194933784
 20
789.4319116986574
 30
0.0
 11
-740.7030194933784
 21
1419.431911698658
 31
0.0
  0
LWPOLYLINE
  5
AE
330
1F
100
AcDbEntity
  8
0-B_寸法
  6
Continuous
 62
     7
370
     9
100
AcDbPolyline
 90
        4
 70
     1
 43
3.0
 10
-739.2030194933784
 20
789.4319116986574
 42
0.4142135623731
 10
-740.7030194933784
 20
790.9319116986575
 42
0.4142135623731
 10
-742.2030194933785
 20
789.4319116986574
 42
0.4142135623731
 10
-740.7030194933784
 20
787.9319116986574
 42
0.4142135623731
  0
LINE
  5
AF
330
1F
100
AcDbEntity
  8
0-B_寸法
  6
Continuous
 62
   120
370
     5
100
AcDbLine
 10
-884.7030194933773
 20
1209.431911698657
 30
0.0
 11
-4046.703019493378
 21
1209.431911698657
 31
0.0
  0
LINE
  5
B0
330
1F
100
AcDbEntity
  8
0-B_寸法
  6
Continuous
 62
   120
370
     5
100
AcDbLine
 10
-884.7030194933773
 20
999.4319116986574
 30
0.0
 11
-884.7030194933773
 21
1419.431911698658
 31
0.0
  0
MTEXT
  5
B1
330
1F
100
AcDbEntity
  8
0-B_寸法
  6
Continuous
 62
     7
370
   211
100
AcDbMText
 10
-872.7030194933786
 20
1000.151911698657
 30
0.0
 40
91.44
 41
120.0
 46
0.0
 71
     7
 72
     1
  1
{\fＭＳ ゴシック|b0|i0|c128|p49;24}
 73
     1
 44
1.0
  0
LWPOLYLINE
  5
B2
330
1F
100
AcDbEntity
  8
0-B_寸法
  6
Continuous
 62
     7
370
     9
100
AcDbPolyline
 90
        4
 70
     1
 43
3.0
 10
-883.2030194933773
 20
999.4319116986574
 42
0.4142135623731
 10
-884.7030194933773
 20
1000.931911698657
 42
0.4142135623731
 10
-886.2030194933774
 20
999.4319116986574
 42
0.4142135623731
 10
-884.7030194933773
 20
997.9319116986575
 42
0.4142135623731
  0
LWPOLYLINE
  5
B3
330
1F
100
AcDbEntity
  8
0-B_寸法
  6
Continuous
 62
     7
370
     9
100
AcDbPolyline
 90
        4
 70
     1
 43
3.0
 10
-739.2030194933784
 20
999.4319116986574
 42
0.4142135623731
 10
-740.7030194933784
 20
1000.931911698657
 42
0.4142135623731
 10
-742.2030194933785
 20
999.4319116986574
 42
0.4142135623731
 10
-740.7030194933784
 20
997.9319116986575
 42
0.4142135623731
  0
LINE
  5
B4
330
1F
100
AcDbEntity
  8
0-B_寸法
  6
Continuous
 62
   120
370
     5
100
AcDbLine
 10
-740.7030194933784
 20
999.4319116986574
 30
0.0
 11
-4190.703019493378
 21
999.4319116986574
 31
0.0
  0
LINE
  5
B5
330
1F
100
AcDbEntity
  8
0-B_寸法
  6
Continuous
 62
   120
370
     5
100
AcDbLine
 10
-896.7030194933773
 20
1209.431911698657
 30
0.0
 11
-896.7030194933773
 21
1419.431911698658
 31
0.0
  0
MTEXT
  5
B6
330
1F
100
AcDbEntity
  8
0-B_寸法
  6
Continuous
 62
     7
370
   211
100
AcDbMText
 10
-968.0776478533579
 20
1210.151911698657
 30
0.0
 40
91.44
 41
60.0
 46
0.0
 71
     7
 72
     1
  1
{\fＭＳ ゴシック|b0|i0|c128|p49;2}
 73
     1
 44
1.0
  0
LWPOLYLINE
  5
B7
330
1F
100
AcDbEntity
  8
0-B_寸法
  6
Continuous
 62
     7
370
     9
100
AcDbPolyline
 90
        4
 70
     1
 43
3.0
 10
-895.2030194933773
 20
1209.431911698657
 42
0.4142135623731
 10
-896.7030194933773
 20
1210.931911698657
 42
0.4142135623731
 10
-898.2030194933773
 20
1209.431911698657
 42
0.4142135623731
 10
-896.7030194933773
 20
1207.931911698658
 42
0.4142135623731
  0
LWPOLYLINE
  5
B8
330
1F
100
AcDbEntity
  8
0-B_寸法
  6
Continuous
 62
     7
370
     9
100
AcDbPolyline
 90
        4
 70
     1
 43
3.0
 10
-883.2030194933773
 20
1209.431911698657
 42
0.4142135623731
 10
-884.7030194933773
 20
1210.931911698657
 42
0.4142135623731
 10
-886.2030194933774
 20
1209.431911698657
 42
0.4142135623731
 10
-884.7030194933773
 20
1207.931911698658
 42
0.4142135623731
  0
LINE
  5
B9
330
1F
100
AcDbEntity
  8
0-C_ハッチ
  6
JWW_DASHED1
 62
   120
370
     5
100
AcDbLine
 10
-740.7030194933784
 20
1715.787904590331
 30
0.0
 11
-707.0590123850593
 21
1749.431911698647
 31
0.0
  0
LINE
  5
BA
330
1F
100
AcDbEntity
  8
0-C_ハッチ
  6
JWW_DASHED1
 62
   120
370
     5
100
AcDbLine
 10
-740.1678125036123
 20
1673.896704708892
 30
0.0
 11
-664.6326055138636
 21
1749.431911698644
 31
0.0
  0
LINE
  5
BB
330
1F
100
AcDbEntity
  8
0-C_ハッチ
  6
JWW_DASHED1
 62
   120
370
     5
100
AcDbLine
 10
-740.7030194933784
 20
2437.036821400566
 30
0.0
 11
-723.3079291952871
 21
2454.431911698654
 31
0.0
  0
LINE
  5
BC
330
1F
100
AcDbEntity
  8
0-C_ハッチ
  6
JWW_DASHED1
 62
   120
370
     5
100
AcDbLine
 10
-740.7030194933784
 20
2394.610414529367
 30
0.0
 11
-680.8815223240915
 21
2454.431911698652
 31
0.0
  0
LINE
  5
BD
330
1F
100
AcDbEntity
  8
0-3_仕上げ
  6
Continuous
 62
    92
370
    13
100
AcDbLine
 10
-419.7030194933788
 20
1749.431911698657
 30
0.0
 11
-419.7030194933788
 21
2379.431911698658
 31
0.0
  0
LINE
  5
BE
330
1F
100
AcDbEntity
  8
0-3_仕上げ
  6
Continuous
 62
    92
370
    13
100
AcDbLine
 10
-689.7030194933789
 20
2379.431911698658
 30
0.0
 11
-689.7030194933789
 21
1749.431911698657
 31
0.0
  0
LINE
  5
BF
330
1F
100
AcDbEntity
  8
0-3_仕上げ
  6
Continuous
 62
     7
370
     9
100
AcDbLine
 10
-419.7030194933788
 20
1749.431911698657
 30
0.0
 11
-689.7030194933789
 21
2379.431911698658
 31
0.0
  0
LINE
  5
C0
330
1F
100
AcDbEntity
  8
0-C_ハッチ
  6
JWW_DASHED1
 62
   120
370
     5
100
AcDbLine
 10
-458.8966742257341
 20
2379.431911698665
 30
0.0
 11
-383.8966742257392
 21
2454.431911698661
 31
0.0
  0
LINE
  5
C1
330
1F
100
AcDbEntity
  8
0-C_ハッチ
  6
JWW_DASHED1
 62
   120
370
     5
100
AcDbLine
 10
-501.3230810969324
 20
2379.431911698667
 30
0.0
 11
-426.3230810969347
 21
2454.431911698663
 31
0.0
  0
LINE
  5
C2
330
1F
100
AcDbEntity
  8
0-C_ハッチ
  6
JWW_DASHED1
 62
   120
370
     5
100
AcDbLine
 10
-543.749487968146
 20
2379.431911698653
 30
0.0
 11
-468.7494879681324
 21
2454.431911698667
 31
0.0
  0
LINE
  5
C3
330
1F
100
AcDbEntity
  8
0-C_ハッチ
  6
JWW_DASHED1
 62
   120
370
     5
100
AcDbLine
 10
-586.175894839346
 20
2379.431911698652
 30
0.0
 11
-511.1758948393359
 21
2454.431911698661
 31
0.0
  0
LINE
  5
C4
330
1F
100
AcDbEntity
  8
0-C_ハッチ
  6
JWW_DASHED1
 62
   120
370
     5
100
AcDbLine
 10
-628.6023017105553
 20
2379.431911698642
 30
0.0
 11
-553.6023017105597
 21
2454.43191169864
 31
0.0
  0
LINE
  5
C5
330
1F
100
AcDbEntity
  8
0-C_ハッチ
  6
JWW_DASHED1
 62
   120
370
     5
100
AcDbLine
 10
-671.0287085817529
 20
2379.431911698646
 30
0.0
 11
-596.0287085817553
 21
2454.431911698642
 31
0.0
  0
LINE
  5
C6
330
1F
100
AcDbEntity
  8
0-C_ハッチ
  6
JWW_DASHED1
 62
   120
370
     5
100
AcDbLine
 10
-713.4551154529485
 20
2379.431911698647
 30
0.0
 11
-638.4551154529529
 21
2454.431911698644
 31
0.0
  0
LINE
  5
C7
330
1F
100
AcDbEntity
  8
0-C_ハッチ
  6
JWW_DASHED1
 62
   120
370
     5
100
AcDbLine
 10
-485.0741642866447
 20
1674.431911698661
 30
0.0
 11
-410.0741642866481
 21
1749.431911698657
 31
0.0
  0
LINE
  5
C8
330
1F
100
AcDbEntity
  8
0-C_ハッチ
  6
JWW_DASHED1
 62
   120
370
     5
100
AcDbLine
 10
-527.5005711578413
 20
1674.431911698664
 30
0.0
 11
-452.5005711578447
 21
1749.431911698661
 31
0.0
  0
LINE
  5
C9
330
1F
100
AcDbEntity
  8
0-C_ハッチ
  6
JWW_DASHED1
 62
   120
370
     5
100
AcDbLine
 10
-569.9269780290549
 20
1674.431911698651
 30
0.0
 11
-494.926978029043
 21
1749.431911698665
 31
0.0
  0
LINE
  5
CA
330
1F
100
AcDbEntity
  8
0-C_ハッチ
  6
JWW_DASHED1
 62
   120
370
     5
100
AcDbLine
 10
-612.3533849002567
 20
1674.431911698651
 30
0.0
 11
-537.3533849002456
 21
1749.431911698661
 31
0.0
  0
LINE
  5
CB
330
1F
100
AcDbEntity
  8
0-C_ハッチ
  6
JWW_DASHED1
 62
   120
370
     5
100
AcDbLine
 10
-654.7797917714524
 20
1674.431911698654
 30
0.0
 11
-579.7797917714573
 21
1749.431911698649
 31
0.0
  0
LINE
  5
CC
330
1F
100
AcDbEntity
  8
0-C_ハッチ
  6
JWW_DASHED1
 62
   120
370
     5
100
AcDbLine
 10
-697.2061986426636
 20
1674.431911698644
 30
0.0
 11
-622.2061986426661
 21
1749.43191169864
 31
0.0
  0
MTEXT
  5
CD
330
1F
100
AcDbEntity
  8
0-A_文字
  6
Continuous
 62
     7
370
     9
100
AcDbMText
 10
-1037.703019493377
 20
1435.151911698658
 30
0.0
 40
91.44
 41
600.0
 46
0.0
 71
     7
 72
     1
  1
{\fＭＳ ゴシック|b0|i0|c128|p49;（丁番側）}
 73
     1
 44
1.0
  0
LINE
  5
CE
330
1F
100
AcDbEntity
  8
0-B_寸法
  6
Continuous
 62
   120
370
     5
100
AcDbLine
 10
-740.7030194933784
 20
789.4319116986574
 30
0.0
 11
-4190.703019493378
 21
789.4319116986574
 31
0.0
  0
LINE
  5
CF
330
1F
100
AcDbEntity
  8
0-3_仕上げ
  6
Continuous
 62
    40
370
    15
100
AcDbLine
 10
-4190.703019493378
 20
2454.431911698658
 30
0.0
 11
-5112.301570896749
 21
2454.431911698658
 31
0.0
  0
LINE
  5
D0
330
1F
100
AcDbEntity
  8
0-C_ハッチ
  6
JWW_DASHED1
 62
   120
370
     5
100
AcDbLine
 10
-5112.301570896749
 20
2421.85831856986
 30
0.0
 11
-5079.727977767956
 21
2454.431911698653
 31
0.0
  0
LINE
  5
D1
330
1F
100
AcDbEntity
  8
0-C_ハッチ
  6
JWW_DASHED1
 62
   120
370
     5
100
AcDbLine
 10
-5112.301570896749
 20
2379.43191169866
 30
0.0
 11
-5037.30157089676
 21
2454.431911698649
 31
0.0
  0
LINE
  5
D2
330
1F
100
AcDbEntity
  8
0-3_仕上げ
  6
Continuous
 62
    40
370
    15
100
AcDbLine
 10
-4190.703019493378
 20
2379.431911698658
 30
0.0
 11
-5112.30157089675
 21
2379.431911698658
 31
0.0
  0
LINE
  5
D3
330
1F
100
AcDbEntity
  8
0-3_仕上げ
  6
Continuous
 62
    40
370
    15
100
AcDbLine
 10
-4190.703019493378
 20
1749.431911698657
 30
0.0
 11
-5112.301570896749
 21
1749.431911698657
 31
0.0
  0
LINE
  5
D4
330
1F
100
AcDbEntity
  8
0-C_ハッチ
  6
JWW_DASHED1
 62
   120
370
     5
100
AcDbLine
 10
-5112.301570896749
 20
1743.03580863077
 30
0.0
 11
-5105.905467828865
 21
1749.431911698653
 31
0.0
  0
LINE
  5
D5
330
1F
100
AcDbEntity
  8
0-C_ハッチ
  6
JWW_DASHED1
 62
   120
370
     5
100
AcDbLine
 10
-5112.301570896749
 20
1700.60940175957
 30
0.0
 11
-5063.479060957671
 21
1749.431911698647
 31
0.0
  0
LINE
  5
D6
330
1F
100
AcDbEntity
  8
0-3_仕上げ
  6
Continuous
 62
    40
370
    15
100
AcDbLine
 10
-4190.703019493378
 20
1674.431911698657
 30
0.0
 11
-5112.301570896749
 21
1674.431911698657
 31
0.0
  0
LINE
  5
D7
330
1F
100
AcDbEntity
  8
0-0_補助線
  6
JWW_HOJO
 62
   120
370
     5
100
AcDbLine
 10
-348.3972875752762
 20
1419.431911698657
 30
0.0
 11
-348.3972875752762
 21
2709.431911698658
 31
0.0
  0
LINE
  5
D8
330
1F
100
AcDbEntity
  8
0-3_仕上げ
  6
Continuous
 62
    40
370
    15
100
AcDbLine
 10
-348.3972875752762
 20
2454.431911698658
 30
0.0
 11
-740.7030194933784
 21
2454.431911698658
 31
0.0
  0
LINE
  5
D9
330
1F
100
AcDbEntity
  8
0-3_仕上げ
  6
Continuous
 62
    40
370
    15
100
AcDbLine
 10
-348.3972875752762
 20
1674.431911698657
 30
0.0
 11
-740.7030194933784
 21
1674.431911698657
 31
0.0
  0
LINE
  5
DA
330
1F
100
AcDbEntity
  8
0-3_仕上げ
  6
Continuous
 62
    40
370
    15
100
AcDbLine
 10
-348.3972875752762
 20
1749.431911698657
 30
0.0
 11
-740.7030194933784
 21
1749.431911698657
 31
0.0
  0
LINE
  5
DB
330
1F
100
AcDbEntity
  8
0-3_仕上げ
  6
Continuous
 62
    40
370
    15
100
AcDbLine
 10
-348.3972875752762
 20
2379.431911698658
 30
0.0
 11
-740.7030194933784
 21
2379.431911698658
 31
0.0
  0
LINE
  5
DC
330
1F
100
AcDbEntity
  8
0-C_ハッチ
  6
JWW_DASHED1
 62
   120
370
     5
100
AcDbLine
 10
-416.4702673545392
 20
2379.431911698661
 30
0.0
 11
-348.3972875752762
 21
2447.504891477923
 31
0.0
  0
LINE
  5
DD
330
1F
100
AcDbEntity
  8
0-C_ハッチ
  6
JWW_DASHED1
 62
   120
370
     5
100
AcDbLine
 10
-400.2213505443095
 20
1674.431911698653
 30
0.0
 11
-348.3972875752762
 21
1726.255974667687
 31
0.0
  0
LINE
  5
DE
330
1F
100
AcDbEntity
  8
0-1_通り芯
  6
JWW_CENTER1
 62
   120
370
     5
100
AcDbLine
 10
-348.3972875752762
 20
2064.431911698658
 30
0.0
 11
-5112.301570896749
 21
2064.431911698658
 31
0.0
  0
LINE
  5
DF
330
1F
100
AcDbEntity
  8
0-C_ハッチ
  6
JWW_DASHED1
 62
   120
370
     5
100
AcDbLine
 10
-374.0438604834006
 20
2379.431911698654
 30
0.0
 11
-348.3972875752762
 21
2405.078484606778
 31
0.0
  0
LINE
  5
E0
330
1F
100
AcDbEntity
  8
0-C_ハッチ
  6
JWW_DASHED1
 62
   120
370
     5
100
AcDbLine
 10
-442.6477574155061
 20
1674.431911698654
 30
0.0
 11
-367.6477574155035
 21
1749.431911698657
 31
0.0
  0
LINE
  5
E1
330
1F
100
AcDbEntity
  8
0-0_補助線
  6
JWW_HOJO
 62
   120
370
     5
100
AcDbLine
 10
-348.3972875752762
 20
2709.431911698658
 30
0.0
 11
-5532.301570896748
 21
2709.431911698658
 31
0.0
  0
LINE
  5
E2
330
1F
100
AcDbEntity
  8
0-0_補助線
  6
JWW_HOJO
 62
   120
370
     5
100
AcDbLine
 10
-348.3972875752762
 20
1419.431911698657
 30
0.0
 11
-5532.301570896748
 21
1419.431911698657
 31
0.0
  0
MTEXT
  5
E3
330
1F
100
AcDbEntity
  8
0-A_文字
  6
Continuous
 62
     7
370
     9
100
AcDbMText
 10
348.3972643777952
 20
2827.488583388549
 30
0.0
 40
101.2371428571429
 41
930.0
 46
0.0
 71
     7
 72
     1
  1
{\fＭＳ ゴシック|b0|i0|c128|p49;■欄間横断面図}
 73
     1
 44
1.0
  0
MTEXT
  5
E4
330
1F
100
AcDbEntity
  8
0-A_文字
  6
Continuous
 62
     7
370
     9
100
AcDbMText
 10
4983.301547699267
 20
3777.597214004789
 30
0.0
 40
76.19999999999999
 41
300.0
 46
0.0
 71
     7
 72
     1
  1
{\fＭＳ ゴシック|b0|i0|c128|p49;左吊元}
 73
     1
 44
1.0
  0
MTEXT
  5
E5
330
1F
100
AcDbEntity
  8
0-A_文字
  6
Continuous
 62
     7
370
     9
100
AcDbMText
 10
4185.301547699268
 20
3777.597214004789
 30
0.0
 40
76.19999999999999
 41
300.0
 46
0.0
 71
     7
 72
     1
  1
{\fＭＳ ゴシック|b0|i0|c128|p49;右吊元}
 73
     1
 44
1.0
  0
LINE
  5
E6
330
1F
100
AcDbEntity
  8
0-A_文字
  6
Continuous
 62
    92
370
    13
100
AcDbLine
 10
3936.301547699268
 20
3892.497214004789
 30
0.0
 11
3936.301547699268
 21
2926.497214004789
 31
0.0
  0
LINE
  5
E7
330
1F
100
AcDbEntity
  8
0-A_文字
  6
Continuous
 62
    92
370
    13
100
AcDbLine
 10
3936.301547699268
 20
3766.497214004789
 30
0.0
 11
5532.301547699268
 21
3766.497214004789
 31
0.0
  0
LINE
  5
E8
330
1F
100
AcDbEntity
  8
0-A_文字
  6
Continuous
 62
    92
370
    13
100
AcDbLine
 10
5532.301547699268
 20
3892.497214004789
 30
0.0
 11
3936.301547699268
 21
3892.497214004789
 31
0.0
  0
LINE
  5
E9
330
1F
100
AcDbEntity
  8
0-A_文字
  6
Continuous
 62
    92
370
    13
100
AcDbLine
 10
5532.301547699268
 20
3892.497214004789
 30
0.0
 11
5532.301547699268
 21
2926.497214004789
 31
0.0
  0
LINE
  5
EA
330
1F
100
AcDbEntity
  8
0-A_文字
  6
Continuous
 62
    92
370
    13
100
AcDbLine
 10
5532.301547699268
 20
2926.497214004789
 30
0.0
 11
3936.301547699268
 21
2926.497214004789
 31
0.0
  0
LINE
  5
EB
330
1F
100
AcDbEntity
  8
0-A_文字
  6
Continuous
 62
    92
370
    13
100
AcDbLine
 10
4734.301547699268
 20
3892.497214004789
 30
0.0
 11
4734.301547699268
 21
2926.497214004789
 31
0.0
  0
LINE
  5
EC
330
1F
100
AcDbEntity
  8
0-0_補助線
  6
JWW_HOJO
 62
   120
370
     5
100
AcDbLine
 10
5511.301547699268
 20
3892.497214004789
 30
0.0
 11
5511.301547699268
 21
2926.497214004789
 31
0.0
  0
LINE
  5
ED
330
1F
100
AcDbEntity
  8
0-0_補助線
  6
JWW_HOJO
 62
   120
370
     5
100
AcDbLine
 10
4755.301547699267
 20
3892.497214004789
 30
0.0
 11
4755.301547699267
 21
2926.497214004789
 31
0.0
  0
LINE
  5
EE
330
1F
100
AcDbEntity
  8
戸当り
  6
Continuous
 62
    40
370
    15
100
AcDbLine
 10
5288.701547699267
 20
3644.343305929246
 30
0.0
 11
5511.301547699268
 21
3644.343305929246
 31
0.0
  0
LINE
  5
EF
330
1F
100
AcDbEntity
  8
戸当り
  6
Continuous
 62
    40
370
    15
100
AcDbLine
 10
5288.701547699267
 20
3644.343305929246
 30
0.0
 11
5288.701547699267
 21
3606.543305929246
 31
0.0
  0
LINE
  5
F0
330
1F
100
AcDbEntity
  8
戸当り
  6
Continuous
 62
    40
370
    15
100
AcDbLine
 10
4977.901547699267
 20
3644.343305929247
 30
0.0
 11
4755.301547699267
 21
3644.343305929247
 31
0.0
  0
LINE
  5
F1
330
1F
100
AcDbEntity
  8
戸当り
  6
Continuous
 62
    40
370
    15
100
AcDbLine
 10
4490.701547699268
 20
3644.343305929246
 30
0.0
 11
4713.301547699267
 21
3644.343305929246
 31
0.0
  0
LINE
  5
F2
330
1F
100
AcDbEntity
  8
戸当り
  6
Continuous
 62
    40
370
    15
100
AcDbLine
 10
4179.901547699268
 20
3644.343305929247
 30
0.0
 11
4179.901547699268
 21
3606.543305929246
 31
0.0
  0
LINE
  5
F3
330
1F
100
AcDbEntity
  8
戸当り
  6
Continuous
 62
    40
370
    15
100
AcDbLine
 10
4179.901547699268
 20
3644.343305929247
 30
0.0
 11
3957.301547699267
 21
3644.343305929247
 31
0.0
  0
LINE
  5
F4
330
1F
100
AcDbEntity
  8
0-0_補助線
  6
JWW_HOJO
 62
   120
370
     5
100
AcDbLine
 10
4713.301547699267
 20
3892.497214004789
 30
0.0
 11
4713.301547699267
 21
2926.497214004789
 31
0.0
  0
LINE
  5
F5
330
1F
100
AcDbEntity
  8
0-0_補助線
  6
JWW_HOJO
 62
   120
370
     5
100
AcDbLine
 10
3957.301547699267
 20
3892.497214004789
 30
0.0
 11
3957.301547699267
 21
2926.497214004789
 31
0.0
  0
LINE
  5
F6
330
1F
100
AcDbEntity
  8
戸当り
  6
Continuous
 62
    40
370
    15
100
AcDbLine
 10
3957.301547699267
 20
3606.543305929246
 30
0.0
 11
4713.301547699267
 21
3606.543305929246
 31
0.0
  0
LINE
  5
F7
330
1F
100
AcDbEntity
  8
戸当り
  6
Continuous
 62
    40
370
    15
100
AcDbLine
 10
4490.701547699268
 20
3644.343305929246
 30
0.0
 11
4490.701547699268
 21
3295.743305929246
 31
0.0
  0
ARC
  5
F8
330
1F
100
AcDbEntity
  8
戸当り
  6
Continuous
 62
    40
370
    15
100
AcDbCircle
 10
4490.701547699268
 20
3606.543305929246
 30
0.0
 40
310.8
100
AcDbArc
 50
180.0
 51
270.0
  0
LINE
  5
F9
330
1F
100
AcDbEntity
  8
戸当り
  6
Continuous
 62
    40
370
    15
100
AcDbLine
 10
5511.301547699268
 20
3606.543305929246
 30
0.0
 11
4755.301547699267
 21
3606.543305929246
 31
0.0
  0
LINE
  5
FA
330
1F
100
AcDbEntity
  8
戸当り
  6
Continuous
 62
    40
370
    15
100
AcDbLine
 10
4977.901547699267
 20
3644.343305929247
 30
0.0
 11
4977.901547699267
 21
3295.743305929246
 31
0.0
  0
ARC
  5
FB
330
1F
100
AcDbEntity
  8
戸当り
  6
Continuous
 62
    40
370
    15
100
AcDbCircle
 10
4977.901547699267
 20
3606.543305929246
 30
0.0
 40
310.8
100
AcDbArc
 50
270.0
 51
0.0
  0
ELLIPSE
  5
FC
330
1F
100
AcDbEntity
  8
戸当り
  6
Continuous
 62
    92
370
    13
100
AcDbEllipse
 10
5059.657745147761
 20
3135.381460941973
 30
0.0
 11
-17.7763823922528
 21
100.8148742797557
 31
0.0
210
0.0
220
0.0
230
1.0
 40
0.4000000000000001
 41
1.850633272656679
 42
2.442876790075129
  0
ELLIPSE
  5
FD
330
1F
100
AcDbEntity
  8
戸当り
  6
Continuous
 62
    92
370
    13
100
AcDbEllipse
 10
5059.657745147761
 20
3135.381460941973
 30
0.0
 11
-17.7763823922528
 21
100.8148742797557
 31
0.0
210
0.0
220
0.0
230
1.0
 40
0.4000000000000001
 41
3.840308517104466
 42
4.432552034522944
  0
ELLIPSE
  5
FE
330
1F
100
AcDbEntity
  8
戸当り
  6
Continuous
 62
    92
370
    13
100
AcDbEllipse
 10
5059.237999097858
 20
3137.76195908363
 30
0.0
 11
-14.67024424252691
 21
83.19908946199426
 31
0.0
210
0.0
220
0.0
230
1.0
 40
0.5
 41
4.340591432030095
 42
8.225779182329084
  0
LINE
  5
FF
330
1F
100
AcDbEntity
  8
戸当り
  6
Continuous
 62
    92
370
    13
100
AcDbLine
 10
5099.207628920523
 20
3062.764411618704
 30
0.0
 11
5047.329504830986
 21
3053.616898633177
 31
0.0
  0
LINE
  5
100
330
1F
100
AcDbEntity
  8
戸当り
  6
Continuous
 62
    92
370
    13
100
AcDbLine
 10
5101.395595959127
 20
3050.35583393075
 30
0.0
 11
5049.51747186959
 21
3041.208320945223
 31
0.0
  0
ELLIPSE
  5
101
330
1F
100
AcDbEntity
  8
戸当り
  6
Continuous
 62
    92
370
    13
100
AcDbEllipse
 10
5075.456533914357
 20
3045.782077437987
 30
0.0
 11
-7.622927487939132
 21
43.23177007461331
 31
0.0
210
0.0
220
0.0
230
1.0
 40
0.6000000000000001
 41
1.570796326794897
 42
4.71238898038469
  0
ELLIPSE
  5
102
330
1F
100
AcDbEntity
  8
戸当り
  6
Continuous
 62
    92
370
    13
100
AcDbEllipse
 10
5214.118514085637
 20
3171.432296431781
 30
0.0
 11
26.49533313827761
 21
98.88192943551533
 31
0.0
210
0.0
220
0.0
230
0.9999999999999999
 40
0.4
 41
1.850633272656679
 42
2.442876790075129
  0
ELLIPSE
  5
103
330
1F
100
AcDbEntity
  8
戸当り
  6
Continuous
 62
    92
370
    13
100
AcDbEllipse
 10
5214.118514085637
 20
3171.432296431781
 30
0.0
 11
26.49533313827761
 21
98.88192943551533
 31
0.0
210
0.0
220
0.0
230
0.9999999999999999
 40
0.4
 41
3.840308517104466
 42
4.432552034522944
  0
ELLIPSE
  5
104
330
1F
100
AcDbEntity
  8
戸当り
  6
Continuous
 62
    92
370
    13
100
AcDbEllipse
 10
5214.74413695874
 20
3173.767152780572
 30
0.0
 11
21.86569797210526
 21
81.6038957748525
 31
0.0
210
0.0
220
0.0
230
1.0
 40
0.5
 41
4.340591432030095
 42
8.225779182329084
  0
LINE
  5
105
330
1F
100
AcDbEntity
  8
戸当り
  6
Continuous
 62
    92
370
    13
100
AcDbLine
 10
5219.273590567547
 20
3088.904396026386
 30
0.0
 11
5168.390136691154
 21
3102.538576400672
 31
0.0
  0
LINE
  5
106
330
1F
100
AcDbEntity
  8
戸当り
  6
Continuous
 62
    92
370
    13
100
AcDbLine
 10
5216.012470599257
 20
3076.733730615144
 30
0.0
 11
5165.129016722863
 21
3090.36791098943
 31
0.0
  0
ELLIPSE
  5
107
330
1F
100
AcDbEntity
  8
戸当り
  6
Continuous
 62
    92
370
    13
100
AcDbEllipse
 10
5190.570743661059
 20
3083.550820802287
 30
0.0
 11
11.36181697857171
 21
42.40287823032828
 31
0.0
210
0.0
220
0.0
230
0.9999999999999999
 40
0.6
 41
1.570796326794897
 42
4.71238898038469
  0
LINE
  5
108
330
1F
100
AcDbEntity
  8
0-0_補助線
  6
JWW_HOJO
 62
   120
370
     5
100
AcDbLine
 10
5133.301547699267
 20
3892.497214004789
 30
0.0
 11
5133.301547699267
 21
2926.497214004789
 31
0.0
  0
LINE
  5
109
330
1F
100
AcDbEntity
  8
0-0_補助線
  6
JWW_HOJO
 62
   120
370
     5
100
AcDbLine
 10
4335.301547699266
 20
3892.497214004789
 30
0.0
 11
4335.301547699266
 21
2926.497214004789
 31
0.0
  0
ELLIPSE
  5
10A
330
1F
100
AcDbEntity
  8
戸当り
  6
Continuous
 62
    92
370
    13
100
AcDbEllipse
 10
4261.657745147761
 20
3135.381460941973
 30
0.0
 11
-17.7763823922528
 21
100.8148742797557
 31
0.0
210
0.0
220
0.0
230
1.0
 40
0.4000000000000001
 41
1.850633272656679
 42
2.442876790075129
  0
ELLIPSE
  5
10B
330
1F
100
AcDbEntity
  8
戸当り
  6
Continuous
 62
    92
370
    13
100
AcDbEllipse
 10
4261.657745147761
 20
3135.381460941973
 30
0.0
 11
-17.7763823922528
 21
100.8148742797557
 31
0.0
210
0.0
220
0.0
230
1.0
 40
0.4000000000000001
 41
3.840308517104466
 42
4.432552034522944
  0
ELLIPSE
  5
10C
330
1F
100
AcDbEntity
  8
戸当り
  6
Continuous
 62
    92
370
    13
100
AcDbEllipse
 10
4261.237999097859
 20
3137.76195908363
 30
0.0
 11
-14.67024424252691
 21
83.19908946199426
 31
0.0
210
0.0
220
0.0
230
1.0
 40
0.5
 41
4.340591432030095
 42
8.225779182329084
  0
LINE
  5
10D
330
1F
100
AcDbEntity
  8
戸当り
  6
Continuous
 62
    92
370
    13
100
AcDbLine
 10
4301.207628920521
 20
3062.764411618704
 30
0.0
 11
4249.329504830986
 21
3053.616898633177
 31
0.0
  0
LINE
  5
10E
330
1F
100
AcDbEntity
  8
戸当り
  6
Continuous
 62
    92
370
    13
100
AcDbLine
 10
4303.395595959126
 20
3050.35583393075
 30
0.0
 11
4251.517471869589
 21
3041.208320945223
 31
0.0
  0
ELLIPSE
  5
10F
330
1F
100
AcDbEntity
  8
戸当り
  6
Continuous
 62
    92
370
    13
100
AcDbEllipse
 10
4277.456533914356
 20
3045.782077437987
 30
0.0
 11
-7.622927487939132
 21
43.23177007461331
 31
0.0
210
0.0
220
0.0
230
1.0
 40
0.6000000000000001
 41
1.570796326794897
 42
4.71238898038469
  0
ELLIPSE
  5
110
330
1F
100
AcDbEntity
  8
戸当り
  6
Continuous
 62
    92
370
    13
100
AcDbEllipse
 10
4416.118514085638
 20
3171.432296431781
 30
0.0
 11
26.49533313827761
 21
98.88192943551533
 31
0.0
210
0.0
220
0.0
230
0.9999999999999999
 40
0.4
 41
1.850633272656679
 42
2.442876790075129
  0
ELLIPSE
  5
111
330
1F
100
AcDbEntity
  8
戸当り
  6
Continuous
 62
    92
370
    13
100
AcDbEllipse
 10
4416.118514085638
 20
3171.432296431781
 30
0.0
 11
26.49533313827761
 21
98.88192943551533
 31
0.0
210
0.0
220
0.0
230
0.9999999999999999
 40
0.4
 41
3.840308517104466
 42
4.432552034522944
  0
ELLIPSE
  5
112
330
1F
100
AcDbEntity
  8
戸当り
  6
Continuous
 62
    92
370
    13
100
AcDbEllipse
 10
4416.744136958738
 20
3173.767152780572
 30
0.0
 11
21.86569797210526
 21
81.6038957748525
 31
0.0
210
0.0
220
0.0
230
1.0
 40
0.5
 41
4.340591432030095
 42
8.225779182329084
  0
LINE
  5
113
330
1F
100
AcDbEntity
  8
戸当り
  6
Continuous
 62
    92
370
    13
100
AcDbLine
 10
4421.273590567547
 20
3088.904396026386
 30
0.0
 11
4370.390136691153
 21
3102.538576400672
 31
0.0
  0
LINE
  5
114
330
1F
100
AcDbEntity
  8
戸当り
  6
Continuous
 62
    92
370
    13
100
AcDbLine
 10
4418.012470599256
 20
3076.733730615144
 30
0.0
 11
4367.129016722862
 21
3090.36791098943
 31
0.0
  0
ELLIPSE
  5
115
330
1F
100
AcDbEntity
  8
戸当り
  6
Continuous
 62
    92
370
    13
100
AcDbEllipse
 10
4392.570743661059
 20
3083.550820802287
 30
0.0
 11
11.36181697857171
 21
42.40287823032828
 31
0.0
210
0.0
220
0.0
230
0.9999999999999999
 40
0.6
 41
1.570796326794897
 42
4.71238898038469
  0
MTEXT
  5
116
330
1F
100
AcDbEntity
  8
0-A_文字
  6
Continuous
 62
     7
370
     9
100
AcDbMText
 10
3936.30154769927
 20
3912.979714004789
 30
0.0
 40
100.965
 41
795.0
 46
0.0
 71
     7
 72
     1
  1
{\fＭＳ ゴシック|b0|i0|c128|p49;■吊り手方向}
 73
     1
 44
1.0
  0
MTEXT
  5
117
330
1F
100
AcDbEntity
  8
F-A_文字
  6
Continuous
 62
     7
370
     0
100
AcDbMText
 10
5340.196445721716
 20
-4301.235083535615
 30
0.0
 40
68.58
 41
45.0
 46
0.0
 71
     7
 72
     1
  1
{\fＭＳ ゴシック|b0|i0|c128|p49;,}
 73
     1
 44
1.0
  0
MTEXT
  5
118
330
1F
100
AcDbEntity
  8
F-A_文字
  6
Continuous
 62
     7
370
     0
100
AcDbMText
 10
5073.937756795019
 20
-4299.77160695404
 30
0.0
 40
74.295
 41
97.5
 46
0.0
 71
     7
 72
     1
  1
{\fＭＳ ゴシック|b0|i0|c128|p49;$y}
 73
     1
 44
1.0
  0
MTEXT
  5
119
330
1F
100
AcDbEntity
  8
F-A_文字
  6
Continuous
 62
     7
370
     0
100
AcDbMText
 10
5228.67447783384
 20
-4299.77160695404
 30
0.0
 40
74.295
 41
97.5
 46
0.0
 71
     7
 72
     1
  1
{\fＭＳ ゴシック|b0|i0|c128|p49;$m}
 73
     1
 44
1.0
  0
MTEXT
  5
11A
330
1F
100
AcDbEntity
  8
F-A_文字
  6
Continuous
 62
     7
370
     0
100
AcDbMText
 10
5383.411210316748
 20
-4299.77160695404
 30
0.0
 40
74.295
 41
97.5
 46
0.0
 71
     7
 72
     1
  1
{\fＭＳ ゴシック|b0|i0|c128|p49;$d}
 73
     1
 44
1.0
  0
MTEXT
  5
11B
330
1F
100
AcDbEntity
  8
F-A_文字
  6
Continuous
 62
     7
370
     0
100
AcDbMText
 10
5538.147942799657
 20
-4299.77160695404
 30
0.0
 40
74.295
 41
195.0
 46
0.0
 71
     7
 72
     1
  1
{\fＭＳ ゴシック|b0|i0|c128|p49;印刷}
 73
     1
 44
1.0
  0
MTEXT
  5
11C
330
1F
100
AcDbEntity
  8
F-A_文字
  6
Continuous
 62
     7
370
     0
100
AcDbMText
 10
5181.27763869199
 20
-4304.02313323349
 30
0.0
 40
68.58
 41
45.0
 46
0.0
 71
     7
 72
     1
  1
{\fＭＳ ゴシック|b0|i0|c128|p49;,}
 73
     1
 44
1.0
  0
MTEXT
  5
11D
330
1F
100
AcDbEntity
  8
F-A_文字
  6
Continuous
 62
     7
370
     0
100
AcDbMText
 10
5758.403805989357
 20
-4299.841058686677
 30
0.0
 40
68.58
 41
90.0
 46
0.0
 71
     7
 72
     1
  1
{\fＭＳ ゴシック|b0|i0|c128|p49;）}
 73
     1
 44
1.0
  0
MTEXT
  5
11E
330
1F
100
AcDbEntity
  8
F-A_文字
  6
Continuous
 62
     7
370
     0
100
AcDbMText
 10
4934.033869132644
 20
-4304.02313323349
 30
0.0
 40
68.58
 41
90.0
 46
0.0
 71
     7
 72
     1
  1
{\fＭＳ ゴシック|b0|i0|c128|p49;（}
 73
     1
 44
1.0
  0
LINE
  5
11F
330
1F
100
AcDbEntity
  8
F-0_補助線
  6
JWW_HOJO
 62
     7
370
     9
100
AcDbLine
 10
500.0004123997047
 20
-3779.999805141138
 30
0.0
 11
500.0004123997047
 21
-4179.999810296134
 31
0.0
  0
LINE
  5
120
330
1F
100
AcDbEntity
  8
F-1_枠
  6
Continuous
 62
   200
370
    20
100
AcDbLine
 10
4339.999719568202
 20
-3779.999805141139
 30
0.0
 11
4339.999719568202
 21
-4179.999810296136
 31
0.0
  0
LINE
  5
121
330
1F
100
AcDbEntity
  8
F-1_枠
  6
Continuous
 62
   200
370
    20
100
AcDbLine
 10
2839.999224688557
 20
-3779.999805141139
 30
0.0
 11
2839.999224688557
 21
-4179.999810296135
 31
0.0
  0
LINE
  5
122
330
1F
100
AcDbEntity
  8
F-1_枠
  6
Continuous
 62
   200
370
    20
100
AcDbLine
 10
0.0003711597344136
 20
-3779.999805141138
 30
0.0
 11
0.0003711597344136
 21
-4179.999810296134
 31
0.0
  0
LINE
  5
123
330
1F
100
AcDbEntity
  8
F-1_枠
  6
Continuous
 62
   200
370
    20
100
AcDbLine
 10
0.0003711597344136
 20
-3979.999738126186
 30
0.0
 11
5839.99947212838
 21
-3980.005166337297
 31
0.0
  0
LINE
  5
124
330
1F
100
AcDbEntity
  8
F-0_補助線
  6
JWW_HOJO
 62
     7
370
     9
100
AcDbLine
 10
-5839.999495325861
 20
-3979.99973812653
 30
0.0
 11
0.0003711597344136
 21
-3979.999738126532
 31
0.0
  0
LINE
  5
125
330
1F
100
AcDbEntity
  8
F-0_補助線
  6
JWW_HOJO
 62
     7
370
     9
100
AcDbLine
 10
-5839.999495325861
 20
-3889.99973812653
 30
0.0
 11
0.0003711597344136
 21
-3889.999738126532
 31
0.0
  0
LINE
  5
126
330
1F
100
AcDbEntity
  8
F-0_補助線
  6
JWW_HOJO
 62
     7
370
     9
100
AcDbLine
 10
-5839.999495325861
 20
-4069.99973812653
 30
0.0
 11
0.0003711597344136
 21
-4069.999738126532
 31
0.0
  0
LINE
  5
127
330
1F
100
AcDbEntity
  8
F-0_補助線
  6
JWW_HOJO
 62
     7
370
     9
100
AcDbLine
 10
0.0002363841065289
 20
-4124.999541826123
 30
0.0
 11
5839.99933735275
 21
-4125.004970037234
 31
0.0
  0
LINE
  5
128
330
1F
100
AcDbEntity
  8
F-0_補助線
  6
JWW_HOJO
 62
     7
370
     9
100
AcDbLine
 10
0.0003200380581347
 20
-4034.999541826163
 30
0.0
 11
5839.999421006702
 21
-4035.004970037273
 31
0.0
  0
LINE
  5
129
330
1F
100
AcDbEntity
  8
F-0_補助線
  6
JWW_HOJO
 62
     7
370
     9
100
AcDbLine
 10
2929.999224688557
 20
-3779.999805141139
 30
0.0
 11
2929.999224688557
 21
-4179.999810296135
 31
0.0
  0
LINE
  5
12A
330
1F
100
AcDbEntity
  8
F-0_補助線
  6
JWW_HOJO
 62
     7
370
     9
100
AcDbLine
 10
90.00037115973441
 20
-3779.999805141138
 30
0.0
 11
90.00037115973441
 21
-4179.999810296134
 31
0.0
  0
LINE
  5
12B
330
1F
100
AcDbEntity
  8
F-0_補助線
  6
JWW_HOJO
 62
     7
370
     9
100
AcDbLine
 10
4429.999719568202
 20
-3779.999805141139
 30
0.0
 11
4429.999719568202
 21
-4179.999810296136
 31
0.0
  0
MTEXT
  5
12C
330
1F
100
AcDbEntity
  8
F-A_文字
  6
Continuous
 62
     7
370
     0
100
AcDbMText
 10
4429.999719568202
 20
-3872.143656898896
 30
0.0
 40
45.72
 41
240.0
 46
0.0
 71
     7
 72
     1
  1
{\fＭＳ ゴシック|b0|i0|c128|p49;ＤＡＴＥ}
 73
     1
 44
1.0
  0
MTEXT
  5
12D
330
1F
100
AcDbEntity
  8
F-A_文字
  6
Continuous
 62
     7
370
     0
100
AcDbMText
 10
4429.999719568202
 20
-4072.143659458982
 30
0.0
 40
45.72
 41
180.0
 46
0.0
 71
     7
 72
     1
  1
{\fＭＳ ゴシック|b0|i0|c128|p49;ＮＯ．}
 73
     1
 44
1.0
  0
MTEXT
  5
12E
330
1F
100
AcDbEntity
  8
F-A_文字
  6
Continuous
 62
     7
370
     0
100
AcDbMText
 10
2929.999224688557
 20
-3872.142262665915
 30
0.0
 40
45.72
 41
300.0
 46
0.0
 71
     7
 72
     1
  1
{\fＭＳ ゴシック|b0|i0|c128|p49;ＳＣＡＬＥ}
 73
     1
 44
1.0
  0
MTEXT
  5
12F
330
1F
100
AcDbEntity
  8
F-A_文字
  6
Continuous
 62
     7
370
     0
100
AcDbMText
 10
2929.999224688557
 20
-4072.142265226001
 30
0.0
 40
45.72
 41
240.0
 46
0.0
 71
     7
 72
     1
  1
{\fＭＳ ゴシック|b0|i0|c128|p49;ＦＩＬＥ}
 73
     1
 44
1.0
  0
MTEXT
  5
130
330
1F
100
AcDbEntity
  8
F-A_文字
  6
Continuous
 62
     7
370
     0
100
AcDbMText
 10
90.00037115973441
 20
-3872.139622920076
 30
0.0
 40
45.72
 41
180.0
 46
0.0
 71
     7
 72
     1
  1
{\fＭＳ ゴシック|b0|i0|c128|p49;図面名}
 73
     1
 44
1.0
  0
MTEXT
  5
131
330
1F
100
AcDbEntity
  8
F-A_文字
  6
Continuous
 62
     7
370
     0
100
AcDbMText
 10
1594.999224688556
 20
-4149.281556572069
 30
0.0
 40
101.44125
 41
1065.0
 46
0.0
 71
     7
 72
     1
  1
{\fＭＳ ゴシック|b0|i0|c128|p49;ウッドワン・・・}
 73
     1
 44
1.0
  0
MTEXT
  5
132
330
1F
100
AcDbEntity
  8
F-A_文字
  6
Continuous
 62
     7
370
     0
100
AcDbMText
 10
1384.999224688556
 20
-4081.140471314289
 30
0.0
 40
45.72
 41
120.0
 46
0.0
 71
     7
 72
     1
  1
{\fＭＳ ゴシック|b0|i0|c128|p49;株式}
 73
     1
 44
1.0
  0
MTEXT
  5
133
330
1F
100
AcDbEntity
  8
F-A_文字
  6
Continuous
 62
     7
370
     0
100
AcDbMText
 10
1384.999224688556
 20
-4153.140471314328
 30
0.0
 40
45.72
 41
120.0
 46
0.0
 71
     7
 72
     1
  1
{\fＭＳ ゴシック|b0|i0|c128|p49;会社}
 73
     1
 44
1.0
  0
LINE
  5
134
330
1F
100
AcDbEntity
  8
F-1_枠
  6
Continuous
 62
   200
370
    20
100
AcDbLine
 10
5849.999257680533
 20
-3779.99980514114
 30
0.0
 11
-5849.999257680533
 21
-3779.999805141137
 31
0.0
  0
LINE
  5
135
330
1F
100
AcDbEntity
  8
F-1_枠
  6
Continuous
 62
   200
370
    20
100
AcDbLine
 10
5849.999257680533
 20
-3774.99981957513
 30
0.0
 11
-5849.999257680533
 21
-3774.999819575127
 31
0.0
  0
LINE
  5
136
330
1F
100
AcDbEntity
  8
F-0_補助線
  6
JWW_HOJO
 62
     7
370
     9
100
AcDbLine
 10
-5097.546881873193
 20
-3779.999805141138
 30
0.0
 11
-5097.546881873193
 21
-4189.999967008021
 31
0.0
  0
LINE
  5
137
330
1F
100
AcDbEntity
  8
F-0_補助線
  6
JWW_HOJO
 62
     7
370
     9
100
AcDbLine
 10
-59.99962884026559
 20
-3779.999805141138
 30
0.0
 11
-59.99962884026559
 21
-4179.999810296134
 31
0.0
  0
MTEXT
  5
138
330
1F
100
AcDbEntity
  8
F-A_文字
  6
Continuous
 62
     7
370
     0
100
AcDbMText
 10
3559.999472128379
 20
-3931.90291795545
 30
0.0
 40
76.19999999999999
 41
150.0
 46
0.0
 71
     7
 72
     1
  1
{\fＭＳ ゴシック|b0|i0|c128|p49;1/5}
 73
     1
 44
1.0
  0
LINE
  5
139
330
1F
100
AcDbEntity
  8
F-1_枠
  6
Continuous
 62
   200
370
    20
100
AcDbLine
 10
5849.999257680533
 20
-4189.999804625641
 30
0.0
 11
-5849.999257680533
 21
-4189.999804625638
 31
0.0
  0
LINE
  5
13A
330
1F
100
AcDbEntity
  8
F-1_枠
  6
Continuous
 62
   200
370
    20
100
AcDbLine
 10
5849.999257680533
 20
-4184.999795862147
 30
0.0
 11
-5849.999257680533
 21
-4184.999795862144
 31
0.0
  0
LINE
  5
13B
330
1F
100
AcDbEntity
  8
F-1_枠
  6
Continuous
 62
   200
370
    20
100
AcDbLine
 10
5849.999257680533
 20
-4179.999810296136
 30
0.0
 11
-5849.999257680533
 21
-4179.999810296134
 31
0.0
  0
LINE
  5
13C
330
1F
100
AcDbEntity
  8
0-6_扉
  6
Continuous
 62
   200
370
    20
100
AcDbLine
 10
-4016.703019493378
 20
1659.431911698658
 30
0.0
 11
-4016.703019493378
 21
1875.431911698658
 31
0.0
  0
LINE
  5
13D
330
1F
100
AcDbEntity
  8
0-6_扉
  6
Continuous
 62
   200
370
    20
100
AcDbLine
 10
-4016.703019493378
 20
1875.431911698658
 30
0.0
 11
-2516.703019493378
 21
1875.431911698658
 31
0.0
  0
LINE
  5
13E
330
1F
100
AcDbEntity
  8
0-6_扉
  6
Continuous
 62
   200
370
    20
100
AcDbLine
 10
-4016.703019493378
 20
1659.431911698658
 30
0.0
 11
-2516.703019493378
 21
1659.431911698658
 31
0.0
  0
LINE
  5
13F
330
1F
100
AcDbEntity
  8
0-6_扉
  6
Continuous
 62
   200
370
    20
100
AcDbLine
 10
-2396.703019493377
 20
1875.431911698658
 30
0.0
 11
-896.7030194933773
 21
1875.431911698658
 31
0.0
  0
LINE
  5
140
330
1F
100
AcDbEntity
  8
0-6_扉
  6
Continuous
 62
   200
370
    20
100
AcDbLine
 10
-2396.703019493377
 20
1659.431911698658
 30
0.0
 11
-896.7030194933773
 21
1659.431911698658
 31
0.0
  0
LINE
  5
141
330
1F
100
AcDbEntity
  8
0-6_扉
  6
Continuous
 62
   200
370
    20
100
AcDbLine
 10
-896.7030194933773
 20
1875.431911698658
 30
0.0
 11
-896.7030194933773
 21
1659.431911698658
 31
0.0
  0
LINE
  5
142
330
1F
100
AcDbEntity
  8
0-1_通り芯
  6
JWW_CENTER1
 62
   120
370
     5
100
AcDbLine
 10
2314.999472128381
 20
-3232.000723503738
 30
0.0
 11
2314.999472128381
 21
259.9999917520024
 31
0.0
  0
LINE
  5
143
330
1F
100
AcDbEntity
  8
0-0_補助線
  6
JWW_HOJO
 62
   120
370
     5
100
AcDbLine
 10
3199.999472128379
 20
-3112.000723503738
 30
0.0
 11
3199.999472128379
 21
259.9999917520024
 31
0.0
  0
LINE
  5
144
330
1F
100
AcDbEntity
  8
0-3_仕上げ
  6
Continuous
 62
    40
370
    15
100
AcDbLine
 10
1639.999472128376
 20
-3112.00092949739
 30
0.0
 11
2308.99947212838
 21
-3112.00092949739
 31
0.0
  0
LINE
  5
145
330
1F
100
AcDbEntity
  8
0-1_通り芯
  6
JWW_CENTER1
 62
   120
370
     5
100
AcDbLine
 10
1639.999472128376
 20
-3112.000723503738
 30
0.0
 11
3004.142604953681
 21
-3112.000723503738
 31
0.0
  0
LWPOLYLINE
  5
146
330
1F
100
AcDbEntity
  8
0-B_寸法
  6
Continuous
 62
     7
370
     9
100
AcDbPolyline
 90
        4
 70
     1
 43
3.0
 10
3411.499472128379
 20
-3040.000929497392
 42
0.4142135623731
 10
3409.999472128379
 20
-3038.500929497392
 42
0.4142135623731
 10
3408.499472128379
 20
-3040.000929497392
 42
0.4142135623731
 10
3409.999472128379
 20
-3041.500929497392
 42
0.4142135623731
  0
LINE
  5
147
330
1F
100
AcDbEntity
  8
0-3_仕上げ
  6
Continuous
 62
    40
370
    15
100
AcDbLine
 10
1639.999472128376
 20
-3040.000929497392
 30
0.0
 11
2989.999472128379
 21
-3040.000929497392
 31
0.0
  0
LINE
  5
148
330
1F
100
AcDbEntity
  8
0-3_仕上げ
  6
Continuous
 62
     7
370
     9
100
AcDbLine
 10
1639.999472128376
 20
-3049.000929497391
 30
0.0
 11
2989.999472128379
 21
-3049.000929497391
 31
0.0
  0
LINE
  5
149
330
1F
100
AcDbEntity
  8
0-3_仕上げ
  6
Continuous
 62
     7
370
     9
100
AcDbLine
 10
1639.999472128376
 20
-3103.00092949739
 30
0.0
 11
2989.999472128379
 21
-3103.00092949739
 31
0.0
  0
LINE
  5
14A
330
1F
100
AcDbEntity
  8
0-3_仕上げ
  6
Continuous
 62
     7
370
     9
100
AcDbLine
 10
1639.999472128376
 20
-3058.00092949739
 30
0.0
 11
2989.999472128379
 21
-3058.00092949739
 31
0.0
  0
LINE
  5
14B
330
1F
100
AcDbEntity
  8
0-3_仕上げ
  6
Continuous
 62
     7
370
     9
100
AcDbLine
 10
1639.999472128376
 20
-3067.00092949739
 30
0.0
 11
2989.999472128379
 21
-3067.00092949739
 31
0.0
  0
LINE
  5
14C
330
1F
100
AcDbEntity
  8
0-3_仕上げ
  6
Continuous
 62
     7
370
     9
100
AcDbLine
 10
1639.999472128376
 20
-3076.00092949739
 30
0.0
 11
2989.999472128379
 21
-3076.00092949739
 31
0.0
  0
LINE
  5
14D
330
1F
100
AcDbEntity
  8
0-3_仕上げ
  6
Continuous
 62
     7
370
     9
100
AcDbLine
 10
1639.999472128376
 20
-3085.00092949739
 30
0.0
 11
2989.999472128379
 21
-3085.00092949739
 31
0.0
  0
LINE
  5
14E
330
1F
100
AcDbEntity
  8
0-3_仕上げ
  6
Continuous
 62
     7
370
     9
100
AcDbLine
 10
1639.999472128376
 20
-3094.000929497391
 30
0.0
 11
2989.999472128379
 21
-3094.000929497391
 31
0.0
  0
LINE
  5
14F
330
1F
100
AcDbEntity
  8
0-0_補助線
  6
JWW_HOJO
 62
   120
370
     5
100
AcDbLine
 10
2989.999472128379
 20
-3112.000723503738
 30
0.0
 11
1429.999472128376
 21
-3112.000723503738
 31
0.0
  0
LWPOLYLINE
  5
150
330
1F
100
AcDbEntity
  8
0-B_寸法
  6
Continuous
 62
     7
370
     9
100
AcDbPolyline
 90
        4
 70
     1
 43
3.0
 10
3621.49947212838
 20
-3112.000723503738
 42
0.4142135623731
 10
3619.99947212838
 20
-3110.500723503738
 42
0.4142135623731
 10
3618.49947212838
 20
-3112.000723503738
 42
0.4142135623731
 10
3619.99947212838
 20
-3113.500723503738
 42
0.4142135623731
  0
LINE
  5
151
330
1F
100
AcDbEntity
  8
0-B_寸法
  6
Continuous
 62
   120
370
     5
100
AcDbLine
 10
3619.99947212838
 20
-3112.000723503738
 30
0.0
 11
2989.999472128379
 21
-3112.000723503738
 31
0.0
  0
LINE
  5
152
330
1F
100
AcDbEntity
  8
0-3_仕上げ
  6
Continuous
 62
     7
370
     9
100
AcDbLine
 10
1999.999472128381
 20
-292.0000082479977
 30
0.0
 11
2629.999472128381
 21
-22.00000824799773
 31
0.0
  0
LINE
  5
153
330
1F
100
AcDbEntity
  8
0-3_仕上げ
  6
Continuous
 62
    92
370
    13
100
AcDbLine
 10
1999.999472128381
 20
-22.00000824799773
 30
0.0
 11
2629.999472128381
 21
-22.00000824799773
 31
0.0
  0
LINE
  5
154
330
1F
100
AcDbEntity
  8
0-3_仕上げ
  6
Continuous
 62
    92
370
    13
100
AcDbLine
 10
1999.999472128381
 20
-292.0000082479977
 30
0.0
 11
2629.999472128381
 21
-292.0000082479977
 31
0.0
  0
LINE
  5
155
330
1F
100
AcDbEntity
  8
0-C_ハッチ
  6
JWW_DASHED1
 62
   120
370
     5
100
AcDbLine
 10
1924.999472128367
 20
-251.5031873972826
 30
0.0
 11
1999.999472128366
 21
-176.5031873972852
 31
0.0
  0
LINE
  5
156
330
1F
100
AcDbEntity
  8
0-C_ハッチ
  6
JWW_DASHED1
 62
   120
370
     5
100
AcDbLine
 10
1924.999472128379
 20
-209.0767805260715
 30
0.0
 11
1999.999472128374
 21
-134.0767805260771
 31
0.0
  0
LINE
  5
157
330
1F
100
AcDbEntity
  8
0-C_ハッチ
  6
JWW_DASHED1
 62
   120
370
     5
100
AcDbLine
 10
1924.999472128374
 20
-166.6503736548758
 30
0.0
 11
1999.999472128386
 21
-91.6503736548647
 31
0.0
  0
LINE
  5
158
330
1F
100
AcDbEntity
  8
0-C_ハッチ
  6
JWW_DASHED1
 62
   120
370
     5
100
AcDbLine
 10
1924.999472128374
 20
-124.2239667836758
 30
0.0
 11
1999.999472128388
 21
-49.22396678366297
 31
0.0
  0
LINE
  5
159
330
1F
100
AcDbEntity
  8
0-C_ハッチ
  6
JWW_DASHED1
 62
   120
370
     5
100
AcDbLine
 10
1924.999472128388
 20
-81.7975599124621
 30
0.0
 11
1999.999472128386
 21
-6.797559912464664
 31
0.0
  0
LINE
  5
15A
330
1F
100
AcDbEntity
  8
0-C_ハッチ
  6
JWW_DASHED1
 62
   120
370
     5
100
AcDbLine
 10
1924.999472128386
 20
-39.37115304126465
 30
0.0
 11
1999.999472128381
 21
35.62884695873024
 31
0.0
  0
LINE
  5
15B
330
1F
100
AcDbEntity
  8
0-C_ハッチ
  6
JWW_DASHED1
 62
   120
370
     5
100
AcDbLine
 10
1924.999472128379
 20
3.055253829873976
 30
0.0
 11
1999.999472128374
 21
78.05525382986886
 31
0.0
  0
LINE
  5
15C
330
1F
100
AcDbEntity
  8
0-C_ハッチ
  6
JWW_DASHED1
 62
   120
370
     5
100
AcDbLine
 10
1924.999472128376
 20
45.48166070107143
 30
0.0
 11
1999.999472128374
 21
120.481660701068
 31
0.0
  0
LINE
  5
15D
330
1F
100
AcDbEntity
  8
0-C_ハッチ
  6
JWW_DASHED1
 62
   120
370
     5
100
AcDbLine
 10
1924.999472128374
 20
87.90806757226804
 30
0.0
 11
1999.999472128373
 21
162.9080675722646
 31
0.0
  0
LINE
  5
15E
330
1F
100
AcDbEntity
  8
0-C_ハッチ
  6
JWW_DASHED1
 62
   120
370
     5
100
AcDbLine
 10
2629.999472128372
 20
-267.7521042075695
 30
0.0
 11
2704.999472128371
 21
-192.7521042075738
 31
0.0
  0
LINE
  5
15F
330
1F
100
AcDbEntity
  8
0-C_ハッチ
  6
JWW_DASHED1
 62
   120
370
     5
100
AcDbLine
 10
2629.999472128371
 20
-225.3256973363737
 30
0.0
 11
2704.999472128367
 21
-150.3256973363763
 31
0.0
  0
LINE
  5
160
330
1F
100
AcDbEntity
  8
0-C_ハッチ
  6
JWW_DASHED1
 62
   120
370
     5
100
AcDbLine
 10
2629.999472128367
 20
-182.899290465175
 30
0.0
 11
2704.999472128367
 21
-107.8992904651784
 31
0.0
  0
LINE
  5
161
330
1F
100
AcDbEntity
  8
0-C_ハッチ
  6
JWW_DASHED1
 62
   120
370
     5
100
AcDbLine
 10
2629.999472128374
 20
-140.4728835939669
 30
0.0
 11
2704.999472128388
 21
-65.4728835939558
 31
0.0
  0
LINE
  5
162
330
1F
100
AcDbEntity
  8
0-C_ハッチ
  6
JWW_DASHED1
 62
   120
370
     5
100
AcDbLine
 10
2629.999472128376
 20
-98.04647672276474
 30
0.0
 11
2704.99947212839
 21
-23.04647672275408
 31
0.0
  0
LINE
  5
163
330
1F
100
AcDbEntity
  8
0-C_ハッチ
  6
JWW_DASHED1
 62
   120
370
     5
100
AcDbLine
 10
2629.99947212839
 20
-55.62006985155151
 30
0.0
 11
2704.999472128388
 21
19.37993014844508
 31
0.0
  0
LINE
  5
164
330
1F
100
AcDbEntity
  8
0-C_ハッチ
  6
JWW_DASHED1
 62
   120
370
     5
100
AcDbLine
 10
2629.999472128388
 20
-13.19366298035405
 30
0.0
 11
2704.999472128388
 21
61.80633701964425
 31
0.0
  0
LINE
  5
165
330
1F
100
AcDbEntity
  8
0-C_ハッチ
  6
JWW_DASHED1
 62
   120
370
     5
100
AcDbLine
 10
2629.999472128386
 20
29.2327438908417
 30
0.0
 11
2704.999472128384
 21
104.2327438908391
 31
0.0
  0
LINE
  5
166
330
1F
100
AcDbEntity
  8
0-C_ハッチ
  6
JWW_DASHED1
 62
   120
370
     5
100
AcDbLine
 10
2629.999472128379
 20
71.65915076198118
 30
0.0
 11
2704.999472128376
 21
146.6591507619786
 31
0.0
  0
LINE
  5
167
330
1F
100
AcDbEntity
  8
0-C_ハッチ
  6
JWW_DASHED1
 62
   120
370
     5
100
AcDbLine
 10
2629.999472128374
 20
114.0855576331778
 30
0.0
 11
2704.999472128374
 21
189.0855576331752
 31
0.0
  0
LINE
  5
168
330
1F
100
AcDbEntity
  8
0-C_ハッチ
  6
JWW_DASHED1
 62
   120
370
     5
100
AcDbLine
 10
1924.999472128381
 20
-293.929594268469
 30
0.0
 11
1999.999472128367
 21
-218.9295942684826
 31
0.0
  0
LINE
  5
169
330
1F
100
AcDbEntity
  8
0-C_ハッチ
  6
JWW_DASHED1
 62
   120
370
     5
100
AcDbLine
 10
1924.999472128381
 20
-336.3560011396669
 30
0.0
 11
1999.999472128373
 21
-261.3560011396805
 31
0.0
  0
LINE
  5
16A
330
1F
100
AcDbEntity
  8
0-C_ハッチ
  6
JWW_DASHED1
 62
   120
370
     5
100
AcDbLine
 10
1963.781871891244
 20
-340.0000082479971
 30
0.0
 11
1999.999472128381
 21
-303.7824080108622
 31
0.0
  0
LINE
  5
16B
330
1F
100
AcDbEntity
  8
0-C_ハッチ
  6
JWW_DASHED1
 62
   120
370
     5
100
AcDbLine
 10
2629.999472128381
 20
-310.1785110787068
 30
0.0
 11
2704.999472128376
 21
-235.1785110787124
 31
0.0
  0
LINE
  5
16C
330
1F
100
AcDbEntity
  8
0-C_ハッチ
  6
JWW_DASHED1
 62
   120
370
     5
100
AcDbLine
 10
2642.604381830286
 20
-340.0000082479971
 30
0.0
 11
2704.999472128381
 21
-277.6049179499081
 31
0.0
  0
LINE
  5
16D
330
1F
100
AcDbEntity
  8
0-C_ハッチ
  6
JWW_DASHED1
 62
   120
370
     5
100
AcDbLine
 10
2685.030788701481
 20
-340.0000082479971
 30
0.0
 11
2704.999472128384
 21
-320.0313248210966
 31
0.0
  0
LINE
  5
16E
330
1F
100
AcDbEntity
  8
0-4_枠
  6
Continuous
 62
   120
370
     5
100
AcDbLine
 10
1873.999472128378
 20
-340.0000082479971
 30
0.0
 11
1849.999472128376
 21
-340.0000082479971
 31
0.0
  0
LINE
  5
16F
330
1F
100
AcDbEntity
  8
0-4_枠
  6
Continuous
 62
   120
370
     5
100
AcDbLine
 10
2755.999472128379
 20
-340.0000082479971
 30
0.0
 11
2779.999472128379
 21
-340.0000082479971
 31
0.0
  0
LINE
  5
170
330
1F
100
AcDbEntity
  8
0-B_寸法
  6
Continuous
 62
   120
370
     5
100
AcDbLine
 10
2755.999472128379
 20
-792.5299979340728
 30
0.0
 11
2755.999472128379
 21
-585.3978591104715
 31
0.0
  0
LINE
  5
171
330
1F
100
AcDbEntity
  8
0-B_寸法
  6
Continuous
 62
   120
370
     5
100
AcDbLine
 10
1873.999472128378
 20
-792.5299979340728
 30
0.0
 11
2755.999472128379
 21
-792.5299979340728
 31
0.0
  0
LINE
  5
172
330
1F
100
AcDbEntity
  8
0-B_寸法
  6
Continuous
 62
   120
370
     5
100
AcDbLine
 10
1873.999472128378
 20
-792.5299979340728
 30
0.0
 11
1873.999472128378
 21
-585.3978591104715
 31
0.0
  0
MTEXT
  5
173
330
1F
100
AcDbEntity
  8
0-B_寸法
  6
Continuous
 62
     7
370
     0
100
AcDbMText
 10
2179.999472128376
 20
-791.8099979340727
 30
0.0
 40
91.44
 41
180.0
 46
0.0
 71
     7
 72
     1
  1
{\fＭＳ ゴシック|b0|i0|c128|p49;147}
 73
     1
 44
1.0
  0
LWPOLYLINE
  5
174
330
1F
100
AcDbEntity
  8
0-B_寸法
  6
Continuous
 62
     7
370
     9
100
AcDbPolyline
 90
        4
 70
     1
 43
3.0
 10
2757.499472128378
 20
-792.5299979340728
 42
0.4142135623731
 10
2755.999472128379
 20
-791.0299979340726
 42
0.4142135623731
 10
2754.499472128379
 20
-792.5299979340728
 42
0.4142135623731
 10
2755.999472128379
 20
-794.0299979340728
 42
0.4142135623731
  0
LWPOLYLINE
  5
175
330
1F
100
AcDbEntity
  8
0-B_寸法
  6
Continuous
 62
     7
370
     9
100
AcDbPolyline
 90
        4
 70
     1
 43
3.0
 10
1875.499472128378
 20
-792.5299979340728
 42
0.4142135623731
 10
1873.999472128378
 20
-791.0299979340726
 42
0.4142135623731
 10
1872.499472128378
 20
-792.5299979340728
 42
0.4142135623731
 10
1873.999472128378
 20
-794.0299979340728
 42
0.4142135623731
  0
LWPOLYLINE
  5
176
330
1F
100
AcDbEntity
  8
0-B_寸法
  6
Continuous
 62
     7
370
     9
100
AcDbPolyline
 90
        4
 70
     1
 43
3.0
 10
3201.499472128379
 20
-484.0000082479979
 42
0.4142135623731
 10
3199.999472128379
 20
-482.5000082479979
 42
0.4142135623731
 10
3198.499472128379
 20
-484.0000082479979
 42
0.4142135623731
 10
3199.999472128379
 20
-485.5000082479979
 42
0.4142135623731
  0
LINE
  5
177
330
1F
100
AcDbEntity
  8
0-B_寸法
  6
Continuous
 62
   120
370
     5
100
AcDbLine
 10
3409.999472128379
 20
-484.0000082479979
 30
0.0
 11
2989.999472128379
 21
-484.0000082479979
 31
0.0
  0
LWPOLYLINE
  5
178
330
1F
100
AcDbEntity
  8
0-B_寸法
  6
Continuous
 62
     7
370
     9
100
AcDbPolyline
 90
        4
 70
     1
 43
3.0
 10
3411.499472128379
 20
-484.0000082479979
 42
0.4142135623731
 10
3409.999472128379
 20
-482.5000082479979
 42
0.4142135623731
 10
3408.499472128379
 20
-484.0000082479979
 42
0.4142135623731
 10
3409.999472128379
 20
-485.5000082479979
 42
0.4142135623731
  0
LINE
  5
179
330
1F
100
AcDbEntity
  8
0-B_寸法
  6
Continuous
 62
   120
370
     5
100
AcDbLine
 10
3619.99947212838
 20
-340.0000082479971
 30
0.0
 11
2989.999472128379
 21
-340.0000082479971
 31
0.0
  0
LWPOLYLINE
  5
17A
330
1F
100
AcDbEntity
  8
0-B_寸法
  6
Continuous
 62
     7
370
     9
100
AcDbPolyline
 90
        4
 70
     1
 43
3.0
 10
3621.49947212838
 20
-340.0000082479971
 42
0.4142135623731
 10
3619.99947212838
 20
-338.5000082479971
 42
0.4142135623731
 10
3618.49947212838
 20
-340.0000082479971
 42
0.4142135623731
 10
3619.99947212838
 20
-341.5000082479971
 42
0.4142135623731
  0
LINE
  5
17B
330
1F
100
AcDbEntity
  8
0-C_ハッチ
  6
JWW_DASHED1
 62
   120
370
     5
100
AcDbLine
 10
1924.999472128374
 20
130.3344744434681
 30
0.0
 11
1999.999472128369
 21
205.3344744434646
 31
0.0
  0
LINE
  5
17C
330
1F
100
AcDbEntity
  8
0-C_ハッチ
  6
JWW_DASHED1
 62
   120
370
     5
100
AcDbLine
 10
1924.999472128386
 20
172.7608813146783
 30
0.0
 11
1999.999472128397
 21
247.7608813146919
 31
0.0
  0
LINE
  5
17D
330
1F
100
AcDbEntity
  8
0-C_ハッチ
  6
JWW_DASHED1
 62
   120
370
     5
100
AcDbLine
 10
2629.999472128374
 20
156.5119645043787
 30
0.0
 11
2704.999472128388
 21
231.5119645043889
 31
0.0
  0
LINE
  5
17E
330
1F
100
AcDbEntity
  8
0-C_ハッチ
  6
JWW_DASHED1
 62
   120
370
     5
100
AcDbLine
 10
2629.999472128372
 20
198.9383713755744
 30
0.0
 11
2691.061092504801
 21
259.9999917520024
 31
0.0
  0
LINE
  5
17F
330
1F
100
AcDbEntity
  8
0-C_ハッチ
  6
JWW_DASHED1
 62
   120
370
     5
100
AcDbLine
 10
1924.999472128395
 20
257.6136950570885
 30
0.0
 11
1927.385768823307
 21
259.9999917520024
 31
0.0
  0
LINE
  5
180
330
1F
100
AcDbEntity
  8
0-C_ハッチ
  6
JWW_DASHED1
 62
   120
370
     5
100
AcDbLine
 10
1924.999472128381
 20
215.1872881858766
 30
0.0
 11
1969.812175694507
 21
259.9999917520024
 31
0.0
  0
LINE
  5
181
330
1F
100
AcDbEntity
  8
0-C_ハッチ
  6
JWW_DASHED1
 62
   120
370
     5
100
AcDbLine
 10
2629.999472128384
 20
241.3647782467855
 30
0.0
 11
2648.634685633598
 21
259.9999917520024
 31
0.0
  0
LINE
  5
182
330
1F
100
AcDbEntity
  8
0-3_仕上げ
  6
Continuous
 62
    40
370
    15
100
AcDbLine
 10
1924.999472128381
 20
-340.0000082479971
 30
0.0
 11
1924.999472128381
 21
259.9999917520024
 31
0.0
  0
LINE
  5
183
330
1F
100
AcDbEntity
  8
0-3_仕上げ
  6
Continuous
 62
    40
370
    15
100
AcDbLine
 10
1999.999472128381
 20
-340.0000082479971
 30
0.0
 11
1999.999472128381
 21
259.9999917520024
 31
0.0
  0
LINE
  5
184
330
1F
100
AcDbEntity
  8
0-3_仕上げ
  6
Continuous
 62
    40
370
    15
100
AcDbLine
 10
2629.999472128381
 20
-340.0000082479971
 30
0.0
 11
2629.999472128381
 21
259.9999917520024
 31
0.0
  0
LINE
  5
185
330
1F
100
AcDbEntity
  8
0-3_仕上げ
  6
Continuous
 62
    40
370
    15
100
AcDbLine
 10
2704.999472128384
 20
-340.0000082479971
 30
0.0
 11
2704.999472128384
 21
259.9999917520024
 31
0.0
  0
LINE
  5
186
330
1F
100
AcDbEntity
  8
0-0_補助線
  6
JWW_HOJO
 62
   120
370
     5
100
AcDbLine
 10
1639.999472128376
 20
-3112.000723503738
 30
0.0
 11
1639.999472128376
 21
259.9999917520024
 31
0.0
  0
LINE
  5
187
330
1F
100
AcDbEntity
  8
0-0_補助線
  6
JWW_HOJO
 62
   120
370
     5
100
AcDbLine
 10
1429.999472128376
 20
-3112.000723503738
 30
0.0
 11
1429.999472128376
 21
259.9999917520024
 31
0.0
  0
LINE
  5
188
330
1F
100
AcDbEntity
  8
0-0_補助線
  6
JWW_HOJO
 62
   120
370
     5
100
AcDbLine
 10
2989.999472128379
 20
-3112.000723503738
 30
0.0
 11
2989.999472128379
 21
259.9999917520024
 31
0.0
  0
LINE
  5
189
330
1F
100
AcDbEntity
  8
0-0_補助線
  6
JWW_HOJO
 62
   120
370
     5
100
AcDbLine
 10
1429.999472128376
 20
259.9999917520024
 30
0.0
 11
3619.99947212838
 21
259.9999917520024
 31
0.0
  0
LINE
  5
18A
330
1F
100
AcDbEntity
  8
0-0_補助線
  6
JWW_HOJO
 62
   120
370
     5
100
AcDbLine
 10
2893.608328407355
 20
-2189.652143493418
 30
0.0
 11
1736.390615849404
 21
-2189.652143493418
 31
0.0
  0
LINE
  5
18B
330
1F
100
AcDbEntity
  8
0-0_補助線
  6
JWW_HOJO
 62
   120
370
     5
100
AcDbLine
 10
2893.608328407355
 20
-2309.652143493418
 30
0.0
 11
1736.390615849404
 21
-2309.652143493418
 31
0.0
  0
LINE
  5
18C
330
1F
100
AcDbEntity
  8
0-4_枠
  6
Continuous
 62
   120
370
     5
100
AcDbLine
 10
1849.999472128376
 20
-3040.000929497392
 30
0.0
 11
1849.999472128376
 21
-2309.652143493418
 31
0.0
  0
LINE
  5
18D
330
1F
100
AcDbEntity
  8
0-4_枠
  6
Continuous
 62
   120
370
     5
100
AcDbLine
 10
2779.999472128379
 20
-3040.000929497392
 30
0.0
 11
2779.999472128379
 21
-2309.652143493418
 31
0.0
  0
LINE
  5
18E
330
1F
100
AcDbEntity
  8
0-0_補助線
  6
JWW_HOJO
 62
   120
370
     5
100
AcDbLine
 10
2893.608328407355
 20
-884.7475605965992
 30
0.0
 11
1736.390615849404
 21
-884.7475605965992
 31
0.0
  0
LINE
  5
18F
330
1F
100
AcDbEntity
  8
0-0_補助線
  6
JWW_HOJO
 62
   120
370
     5
100
AcDbLine
 10
2893.608328407355
 20
-1004.747560596599
 30
0.0
 11
1736.390615849404
 21
-1004.747560596599
 31
0.0
  0
LINE
  5
190
330
1F
100
AcDbEntity
  8
0-4_枠
  6
Continuous
 62
   120
370
     5
100
AcDbLine
 10
2779.999472128379
 20
-884.7475605965992
 30
0.0
 11
2779.999472128379
 21
-340.0000082479971
 31
0.0
  0
LINE
  5
191
330
1F
100
AcDbEntity
  8
0-4_枠
  6
Continuous
 62
   120
370
     5
100
AcDbLine
 10
2779.999472128379
 20
-2189.652143493418
 30
0.0
 11
2779.999472128379
 21
-1004.747560596599
 31
0.0
  0
LINE
  5
192
330
1F
100
AcDbEntity
  8
0-4_枠
  6
Continuous
 62
   120
370
     5
100
AcDbLine
 10
1849.999472128376
 20
-2189.652143493418
 30
0.0
 11
1849.999472128376
 21
-1004.747560596599
 31
0.0
  0
LINE
  5
193
330
1F
100
AcDbEntity
  8
0-4_枠
  6
Continuous
 62
   120
370
     5
100
AcDbLine
 10
1849.999472128376
 20
-884.7475605965992
 30
0.0
 11
1849.999472128376
 21
-340.0000082479971
 31
0.0
  0
LINE
  5
194
330
1F
100
AcDbEntity
  8
0-B_寸法
  6
Continuous
 62
   120
370
     5
100
AcDbLine
 10
3199.999472128379
 20
-1369.826075870707
 30
0.0
 11
2989.999472128379
 21
-1369.826075870707
 31
0.0
  0
LWPOLYLINE
  5
195
330
1F
100
AcDbEntity
  8
0-B_寸法
  6
Continuous
 62
     7
370
     9
100
AcDbPolyline
 90
        4
 70
     1
 43
3.0
 10
3201.499472128379
 20
-1369.826075870707
 42
0.4142135623731
 10
3199.999472128379
 20
-1368.326075870707
 42
0.4142135623731
 10
3198.499472128379
 20
-1369.826075870707
 42
0.4142135623731
 10
3199.999472128379
 20
-1371.326075870707
 42
0.4142135623731
  0
LINE
  5
196
330
1F
100
AcDbEntity
  8
0-B_寸法
  6
Continuous
 62
   120
370
     5
100
AcDbLine
 10
3199.999472128379
 20
-1345.826075870707
 30
0.0
 11
2989.999472128379
 21
-1345.826075870707
 31
0.0
  0
LWPOLYLINE
  5
197
330
1F
100
AcDbEntity
  8
0-B_寸法
  6
Continuous
 62
     7
370
     9
100
AcDbPolyline
 90
        4
 70
     1
 43
3.0
 10
3201.499472128379
 20
-1345.826075870707
 42
0.4142135623731
 10
3199.999472128379
 20
-1344.326075870707
 42
0.4142135623731
 10
3198.499472128379
 20
-1345.826075870707
 42
0.4142135623731
 10
3199.999472128379
 20
-1347.326075870707
 42
0.4142135623731
  0
LINE
  5
198
330
1F
100
AcDbEntity
  8
0-B_寸法
  6
Continuous
 62
   120
370
     5
100
AcDbLine
 10
3199.999472128379
 20
-514.0000082479979
 30
0.0
 11
2989.999472128379
 21
-514.0000082479979
 31
0.0
  0
LWPOLYLINE
  5
199
330
1F
100
AcDbEntity
  8
0-B_寸法
  6
Continuous
 62
     7
370
     9
100
AcDbPolyline
 90
        4
 70
     1
 43
3.0
 10
3201.499472128379
 20
-514.0000082479979
 42
0.4142135623731
 10
3199.999472128379
 20
-512.5000082479979
 42
0.4142135623731
 10
3198.499472128379
 20
-514.0000082479979
 42
0.4142135623731
 10
3199.999472128379
 20
-515.5000082479979
 42
0.4142135623731
  0
MTEXT
  5
19A
330
1F
100
AcDbEntity
  8
0-B_寸法
  6
Continuous
 62
     7
370
     0
100
AcDbMText
 10
3187.021477568884
 20
-593.5899594584075
 30
0.0
 40
91.44
 41
60.0
 46
0.0
 71
     7
 72
     1
  1
{\fＭＳ ゴシック|b0|i0|c128|p49;5}
 11
6.123031769111886E-17
 21
1.0
 31
0.0
 73
     1
 44
1.0
  0
MTEXT
  5
19B
330
1F
100
AcDbEntity
  8
0-B_寸法
  6
Continuous
 62
     7
370
     0
100
AcDbMText
 10
3186.918651483702
 20
-2501.192993421962
 30
0.0
 40
91.44000000000001
 41
660.0000000000002
 46
0.0
 71
     7
 72
     1
  1
{\fＭＳ ゴシック|b0|i0|c128|p49;ＤＨ＝1,995}
 11
6.123031769111886E-17
 21
1.0
 31
0.0
 73
     1
 44
1.0
  0
MTEXT
  5
19C
330
1F
100
AcDbEntity
  8
0-B_寸法
  6
Continuous
 62
     7
370
     0
100
AcDbMText
 10
3187.021477568884
 20
-1461.776682430581
 30
0.0
 40
91.44
 41
60.0
 46
0.0
 71
     7
 72
     1
  1
{\fＭＳ ゴシック|b0|i0|c128|p49;4}
 11
6.123031769111886E-17
 21
1.0
 31
0.0
 73
     1
 44
1.0
  0
MTEXT
  5
19D
330
1F
100
AcDbEntity
  8
0-B_寸法
  6
Continuous
 62
     7
370
     0
100
AcDbMText
 10
3187.021477568884
 20
-1220.904717523608
 30
0.0
 40
74.81454545454542
 41
540.0
 46
0.0
 71
     7
 72
     1
  1
{\fＭＳ ゴシック|b0|i0|c128|p49;欄間Ｈ＝359}
 11
6.123031769111886E-17
 21
1.0
 31
0.0
 73
     1
 44
1.0
  0
LINE
  5
19E
330
1F
100
AcDbEntity
  8
0-0_補助線
  6
JWW_HOJO
 62
   120
370
     5
100
AcDbLine
 10
3619.99947212838
 20
-3040.000929497392
 30
0.0
 11
3619.99947212838
 21
259.9999917520024
 31
0.0
  0
LINE
  5
19F
330
1F
100
AcDbEntity
  8
0-B_寸法
  6
Continuous
 62
   120
370
     5
100
AcDbLine
 10
3619.99947212838
 20
-340.0000082479971
 30
0.0
 11
3619.99947212838
 21
-3112.000723503738
 31
0.0
  0
LWPOLYLINE
  5
1A0
330
1F
100
AcDbEntity
  8
0-B_寸法
  6
Continuous
 62
     7
370
     9
100
AcDbPolyline
 90
        4
 70
     1
 43
3.0
 10
3201.499472128379
 20
-2962.000420235305
 42
0.4142135623731
 10
3199.999472128379
 20
-2960.500420235305
 42
0.4142135623731
 10
3198.499472128379
 20
-2962.000420235305
 42
0.4142135623731
 10
3199.999472128379
 20
-2963.500420235305
 42
0.4142135623731
  0
LWPOLYLINE
  5
1A1
330
1F
100
AcDbEntity
  8
0-B_寸法
  6
Continuous
 62
     7
370
     9
100
AcDbPolyline
 90
        4
 70
     1
 43
3.0
 10
3411.499472128379
 20
-340.0000082479971
 42
0.4142135623731
 10
3409.999472128379
 20
-338.5000082479971
 42
0.4142135623731
 10
3408.499472128379
 20
-340.0000082479971
 42
0.4142135623731
 10
3409.999472128379
 20
-341.5000082479971
 42
0.4142135623731
  0
MTEXT
  5
1A2
330
1F
100
AcDbEntity
  8
0-B_寸法
  6
Continuous
 62
     7
370
     0
100
AcDbMText
 10
3396.701767541383
 20
-477.7058852224256
 30
0.0
 40
91.44
 41
120.0
 46
0.0
 71
     7
 72
     1
  1
{\fＭＳ ゴシック|b0|i0|c128|p49;24}
 11
6.123031769111886E-17
 21
1.0
 31
0.0
 73
     1
 44
1.0
  0
LINE
  5
1A3
330
1F
100
AcDbEntity
  8
0-B_寸法
  6
Continuous
 62
   120
370
     5
100
AcDbLine
 10
3619.99947212838
 20
-3040.000929497392
 30
0.0
 11
2989.999472128379
 21
-3040.000929497392
 31
0.0
  0
MTEXT
  5
1A4
330
1F
100
AcDbEntity
  8
0-B_寸法
  6
Continuous
 62
     7
370
     0
100
AcDbMText
 10
3611.084821701676
 20
-2058.280062607434
 30
0.0
 40
91.44000000000001
 41
660.0000000000002
 46
0.0
 71
     7
 72
     1
  1
{\fＭＳ ゴシック|b0|i0|c128|p49;枠外＝2,400}
 11
6.123031769111886E-17
 21
1.0
 31
0.0
 73
     1
 44
1.0
  0
LINE
  5
1A5
330
1F
100
AcDbEntity
  8
0-0_補助線
  6
JWW_HOJO
 62
   120
370
     5
100
AcDbLine
 10
3409.999472128379
 20
-3040.000929497392
 30
0.0
 11
3409.999472128379
 21
259.9999917520024
 31
0.0
  0
LWPOLYLINE
  5
1A6
330
1F
100
AcDbEntity
  8
0-B_寸法
  6
Continuous
 62
     7
370
     9
100
AcDbPolyline
 90
        4
 70
     1
 43
3.0
 10
3621.49947212838
 20
-3040.000929497392
 42
0.4142135623731
 10
3619.99947212838
 20
-3038.500929497392
 42
0.4142135623731
 10
3618.49947212838
 20
-3040.000929497392
 42
0.4142135623731
 10
3619.99947212838
 20
-3041.500929497392
 42
0.4142135623731
  0
LINE
  5
1A7
330
1F
100
AcDbEntity
  8
0-B_寸法
  6
Continuous
 62
   120
370
     5
100
AcDbLine
 10
3409.999472128379
 20
-340.0000082479971
 30
0.0
 11
3409.999472128379
 21
-3040.000929497392
 31
0.0
  0
MTEXT
  5
1A8
330
1F
100
AcDbEntity
  8
0-A_文字
  6
Continuous
 62
     7
370
     9
100
AcDbMText
 10
1429.005131013729
 20
339.6350252501478
 30
0.0
 40
102.1976470588235
 41
1140.0
 46
0.0
 71
     7
 72
     1
  1
{\fＭＳ ゴシック|b0|i0|c128|p49;■縦断面図[3方枠]}
 73
     1
 44
1.0
  0
LINE
  5
1A9
330
1F
100
AcDbEntity
  8
0-B_寸法
  6
Continuous
 62
   120
370
     5
100
AcDbLine
 10
3199.999472128379
 20
-484.0000082479979
 30
0.0
 11
3199.999472128379
 21
-3040.000929497392
 31
0.0
  0
MTEXT
  5
1AA
330
1F
100
AcDbEntity
  8
0-B_寸法
  6
Continuous
 62
     7
370
     0
100
AcDbMText
 10
3195.053592850498
 20
-2964.113765275786
 30
0.0
 40
91.44
 41
120.0
 46
0.0
 71
     7
 72
     1
  1
{\fＭＳ ゴシック|b0|i0|c128|p49;13}
 11
6.123031769111886E-17
 21
1.0
 31
0.0
 73
     1
 44
1.0
  0
LWPOLYLINE
  5
1AB
330
1F
100
AcDbEntity
  8
0-B_寸法
  6
Continuous
 62
     7
370
     9
100
AcDbPolyline
 90
        4
 70
     1
 43
3.0
 10
3201.499472128379
 20
-3040.000929497392
 42
0.4142135623731
 10
3199.999472128379
 20
-3038.500929497392
 42
0.4142135623731
 10
3198.499472128379
 20
-3040.000929497392
 42
0.4142135623731
 10
3199.999472128379
 20
-3041.500929497392
 42
0.4142135623731
  0
LINE
  5
1AC
330
1F
100
AcDbEntity
  8
0-B_寸法
  6
Continuous
 62
   120
370
     5
100
AcDbLine
 10
3199.999472128379
 20
-2962.000420235305
 30
0.0
 11
2989.999472128379
 21
-2962.000420235305
 31
0.0
  0
MTEXT
  5
1AD
330
1F
100
AcDbEntity
  8
0-B_寸法
  6
Continuous
 62
     7
370
   211
100
AcDbMText
 10
3394.999472128379
 20
-2058.280062607434
 30
0.0
 40
91.44000000000001
 41
660.0000000000002
 46
0.0
 71
     7
 72
     1
  1
{\fＭＳ ゴシック|b0|i0|c128|p49;枠内＝2,376}
 11
6.123031769111886E-17
 21
1.0
 31
0.0
 73
     1
 44
1.0
  0
LINE
  5
1AE
330
1F
100
AcDbEntity
  8
0-1_通り芯
  6
JWW_CENTER1
 62
   120
370
     5
100
AcDbLine
 10
1639.999472128376
 20
-340.0000082479971
 30
0.0
 11
3004.142604953681
 21
-340.0000082479971
 31
0.0
  0
LINE
  5
1AF
330
1F
100
AcDbEntity
  8
0-6_扉
  6
Continuous
 62
   200
370
    20
100
AcDbLine
 10
2503.999472128382
 20
-1345.826075870707
 30
0.0
 11
2719.999472128379
 21
-1345.826075870707
 31
0.0
  0
LINE
  5
1B0
330
1F
100
AcDbEntity
  8
0-6_扉
  6
Continuous
 62
   200
370
    20
100
AcDbLine
 10
2503.999472128382
 20
-1369.826075870707
 30
0.0
 11
2719.999472128379
 21
-1369.826075870707
 31
0.0
  0
LINE
  5
1B1
330
1F
100
AcDbEntity
  8
0-6_扉
  6
Continuous
 62
   200
370
    20
100
AcDbLine
 10
2719.999472128379
 20
-1369.826075870707
 30
0.0
 11
2719.999472128379
 21
-2189.652143493418
 31
0.0
  0
LINE
  5
1B2
330
1F
100
AcDbEntity
  8
0-6_扉
  6
Continuous
 62
   200
370
    20
100
AcDbLine
 10
2503.999472128382
 20
-1369.826075870707
 30
0.0
 11
2503.999472128382
 21
-2189.652143493418
 31
0.0
  0
LINE
  5
1B3
330
1F
100
AcDbEntity
  8
0-B_寸法
  6
Continuous
 62
   120
370
     5
100
AcDbLine
 10
2719.999472128379
 20
-1271.514754162878
 30
0.0
 11
2503.999472128382
 21
-1271.514754162878
 31
0.0
  0
LWPOLYLINE
  5
1B4
330
1F
100
AcDbEntity
  8
0-B_寸法
  6
Continuous
 62
     7
370
     9
100
AcDbPolyline
 90
        4
 70
     1
 43
3.0
 10
2721.499472128379
 20
-1271.514754162878
 42
0.4142135623731
 10
2719.999472128379
 20
-1270.014754162878
 42
0.4142135623731
 10
2718.499472128379
 20
-1271.514754162878
 42
0.4142135623731
 10
2719.999472128379
 20
-1273.014754162878
 42
0.4142135623731
  0
LWPOLYLINE
  5
1B5
330
1F
100
AcDbEntity
  8
0-B_寸法
  6
Continuous
 62
     7
370
     9
100
AcDbPolyline
 90
        4
 70
     1
 43
3.0
 10
2505.499472128382
 20
-1271.514754162878
 42
0.4142135623731
 10
2503.999472128382
 20
-1270.014754162878
 42
0.4142135623731
 10
2502.499472128382
 20
-1271.514754162878
 42
0.4142135623731
 10
2503.999472128382
 20
-1273.014754162878
 42
0.4142135623731
  0
MTEXT
  5
1B6
330
1F
100
AcDbEntity
  8
0-B_寸法
  6
Continuous
 62
     7
370
   211
100
AcDbMText
 10
2551.999472128381
 20
-1270.794754162878
 30
0.0
 40
91.44
 41
120.0
 46
0.0
 71
     7
 72
     1
  1
{\fＭＳ ゴシック|b0|i0|c128|p49;36}
 73
     1
 44
1.0
  0
LINE
  5
1B7
330
1F
100
AcDbEntity
  8
0-6_扉
  6
Continuous
 62
   200
370
    20
100
AcDbLine
 10
2719.999472128379
 20
-1004.747560596599
 30
0.0
 11
2719.999472128379
 21
-1345.826075870707
 31
0.0
  0
LINE
  5
1B8
330
1F
100
AcDbEntity
  8
0-6_扉
  6
Continuous
 62
   200
370
    20
100
AcDbLine
 10
2503.999472128382
 20
-1004.747560596599
 30
0.0
 11
2503.999472128382
 21
-1345.826075870707
 31
0.0
  0
LINE
  5
1B9
330
1F
100
AcDbEntity
  8
0-6_扉
  6
Continuous
 62
   200
370
    20
100
AcDbLine
 10
2719.999472128379
 20
-514.0000082479979
 30
0.0
 11
2719.999472128379
 21
-884.7475605965992
 31
0.0
  0
LINE
  5
1BA
330
1F
100
AcDbEntity
  8
0-6_扉
  6
Continuous
 62
   200
370
    20
100
AcDbLine
 10
2503.999472128382
 20
-514.0000082479979
 30
0.0
 11
2503.999472128382
 21
-884.7475605965992
 31
0.0
  0
LINE
  5
1BB
330
1F
100
AcDbEntity
  8
0-6_扉
  6
Continuous
 62
   200
370
    20
100
AcDbLine
 10
2503.999472128382
 20
-2962.000420235305
 30
0.0
 11
2719.999472128379
 21
-2962.000420235305
 31
0.0
  0
LINE
  5
1BC
330
1F
100
AcDbEntity
  8
0-6_扉
  6
Continuous
 62
   200
370
    20
100
AcDbLine
 10
2503.999472128382
 20
-2309.652143493418
 30
0.0
 11
2503.999472128382
 21
-2962.000420235305
 31
0.0
  0
LINE
  5
1BD
330
1F
100
AcDbEntity
  8
0-6_扉
  6
Continuous
 62
   200
370
    20
100
AcDbLine
 10
2719.999472128379
 20
-2309.652143493418
 30
0.0
 11
2719.999472128379
 21
-2962.000420235305
 31
0.0
  0
LINE
  5
1BE
330
1F
100
AcDbEntity
  8
0-B_寸法
  6
Continuous
 62
   120
370
     5
100
AcDbLine
 10
2719.999472128379
 20
-2036.100701562187
 30
0.0
 11
2503.999472128382
 21
-2036.100701562187
 31
0.0
  0
LWPOLYLINE
  5
1BF
330
1F
100
AcDbEntity
  8
0-B_寸法
  6
Continuous
 62
     7
370
     9
100
AcDbPolyline
 90
        4
 70
     1
 43
3.0
 10
2721.499472128379
 20
-2036.100701562187
 42
0.4142135623731
 10
2719.999472128379
 20
-2034.600701562187
 42
0.4142135623731
 10
2718.499472128379
 20
-2036.100701562187
 42
0.4142135623731
 10
2719.999472128379
 20
-2037.600701562187
 42
0.4142135623731
  0
LWPOLYLINE
  5
1C0
330
1F
100
AcDbEntity
  8
0-B_寸法
  6
Continuous
 62
     7
370
     9
100
AcDbPolyline
 90
        4
 70
     1
 43
3.0
 10
2505.499472128382
 20
-2036.100701562187
 42
0.4142135623731
 10
2503.999472128382
 20
-2034.600701562187
 42
0.4142135623731
 10
2502.499472128382
 20
-2036.100701562187
 42
0.4142135623731
 10
2503.999472128382
 20
-2037.600701562187
 42
0.4142135623731
  0
MTEXT
  5
1C1
330
1F
100
AcDbEntity
  8
0-B_寸法
  6
Continuous
 62
     7
370
   211
100
AcDbMText
 10
2551.999472128381
 20
-2035.380701562187
 30
0.0
 40
91.44
 41
120.0
 46
0.0
 71
     7
 72
     1
  1
{\fＭＳ ゴシック|b0|i0|c128|p49;36}
 73
     1
 44
1.0
  0
MTEXT
  5
1C2
330
1F
100
AcDbEntity
  8
0-A_文字
  6
Continuous
 62
     7
370
     9
100
AcDbMText
 10
-1410.874659403642
 20
606.1546474997822
 30
0.0
 40
68.58000000000001
 41
720.0
 46
0.0
 71
     7
 72
     1
  1
{\fＭＳ ゴシック|b0|i0|c128|p49;※図示：右吊り元}
 73
     1
 44
1.0
  0
MTEXT
  5
1C3
330
1F
100
AcDbEntity
  8
0-B_寸法
  6
Continuous
 62
     7
370
   211
100
AcDbMText
 10
-4237.999495325857
 20
-2035.380701562186
 30
0.0
 40
91.44
 41
120.0
 46
0.0
 71
     7
 72
     1
  1
{\fＭＳ ゴシック|b0|i0|c128|p49;36}
 73
     1
 44
1.0
  0
LWPOLYLINE
  5
1C4
330
1F
100
AcDbEntity
  8
0-B_寸法
  6
Continuous
 62
     7
370
     9
100
AcDbPolyline
 90
        4
 70
     1
 43
3.0
 10
-4284.499495325856
 20
-2036.100701562186
 42
0.4142135623731
 10
-4285.999495325856
 20
-2034.600701562186
 42
0.4142135623731
 10
-4287.499495325857
 20
-2036.100701562186
 42
0.4142135623731
 10
-4285.999495325856
 20
-2037.600701562186
 42
0.4142135623731
  0
LWPOLYLINE
  5
1C5
330
1F
100
AcDbEntity
  8
0-B_寸法
  6
Continuous
 62
     7
370
     9
100
AcDbPolyline
 90
        4
 70
     1
 43
3.0
 10
-4068.499495325857
 20
-2036.100701562186
 42
0.4142135623731
 10
-4069.999495325858
 20
-2034.600701562186
 42
0.4142135623731
 10
-4071.499495325858
 20
-2036.100701562186
 42
0.4142135623731
 10
-4069.999495325858
 20
-2037.600701562186
 42
0.4142135623731
  0
LINE
  5
1C6
330
1F
100
AcDbEntity
  8
0-B_寸法
  6
Continuous
 62
   120
370
     5
100
AcDbLine
 10
-4069.999495325858
 20
-2036.100701562186
 30
0.0
 11
-4285.999495325856
 21
-2036.100701562186
 31
0.0
  0
LINE
  5
1C7
330
1F
100
AcDbEntity
  8
0-6_扉
  6
Continuous
 62
   200
370
    20
100
AcDbLine
 10
-4285.999495325856
 20
-514.0000082479979
 30
0.0
 11
-4285.999495325856
 21
-884.7475605965992
 31
0.0
  0
LINE
  5
1C8
330
1F
100
AcDbEntity
  8
0-6_扉
  6
Continuous
 62
   200
370
    20
100
AcDbLine
 10
-4069.999495325858
 20
-514.0000082479979
 30
0.0
 11
-4069.999495325858
 21
-884.7475605965992
 31
0.0
  0
LINE
  5
1C9
330
1F
100
AcDbEntity
  8
0-6_扉
  6
Continuous
 62
   200
370
    20
100
AcDbLine
 10
-4285.999495325856
 20
-1004.747560596599
 30
0.0
 11
-4285.999495325856
 21
-1345.826075870707
 31
0.0
  0
LINE
  5
1CA
330
1F
100
AcDbEntity
  8
0-6_扉
  6
Continuous
 62
   200
370
    20
100
AcDbLine
 10
-4069.999495325858
 20
-1004.747560596599
 30
0.0
 11
-4069.999495325858
 21
-1345.826075870707
 31
0.0
  0
MTEXT
  5
1CB
330
1F
100
AcDbEntity
  8
0-B_寸法
  6
Continuous
 62
     7
370
   211
100
AcDbMText
 10
-4237.999495325857
 20
-1270.794754162878
 30
0.0
 40
91.44
 41
120.0
 46
0.0
 71
     7
 72
     1
  1
{\fＭＳ ゴシック|b0|i0|c128|p49;36}
 73
     1
 44
1.0
  0
LWPOLYLINE
  5
1CC
330
1F
100
AcDbEntity
  8
0-B_寸法
  6
Continuous
 62
     7
370
     9
100
AcDbPolyline
 90
        4
 70
     1
 43
3.0
 10
-4284.499495325856
 20
-1271.514754162878
 42
0.4142135623731
 10
-4285.999495325856
 20
-1270.014754162878
 42
0.4142135623731
 10
-4287.499495325857
 20
-1271.514754162878
 42
0.4142135623731
 10
-4285.999495325856
 20
-1273.014754162878
 42
0.4142135623731
  0
LWPOLYLINE
  5
1CD
330
1F
100
AcDbEntity
  8
0-B_寸法
  6
Continuous
 62
     7
370
     9
100
AcDbPolyline
 90
        4
 70
     1
 43
3.0
 10
-4068.499495325857
 20
-1271.514754162878
 42
0.4142135623731
 10
-4069.999495325858
 20
-1270.014754162878
 42
0.4142135623731
 10
-4071.499495325858
 20
-1271.514754162878
 42
0.4142135623731
 10
-4069.999495325858
 20
-1273.014754162878
 42
0.4142135623731
  0
LINE
  5
1CE
330
1F
100
AcDbEntity
  8
0-B_寸法
  6
Continuous
 62
   120
370
     5
100
AcDbLine
 10
-4069.999495325858
 20
-1271.514754162878
 30
0.0
 11
-4285.999495325856
 21
-1271.514754162878
 31
0.0
  0
LINE
  5
1CF
330
1F
100
AcDbEntity
  8
0-6_扉
  6
Continuous
 62
   200
370
    20
100
AcDbLine
 10
-4285.999495325856
 20
-1369.826075870707
 30
0.0
 11
-4285.999495325856
 21
-2189.652143493417
 31
0.0
  0
LINE
  5
1D0
330
1F
100
AcDbEntity
  8
0-6_扉
  6
Continuous
 62
   200
370
    20
100
AcDbLine
 10
-4069.999495325858
 20
-1369.826075870707
 30
0.0
 11
-4069.999495325858
 21
-2189.652143493417
 31
0.0
  0
LINE
  5
1D1
330
1F
100
AcDbEntity
  8
0-6_扉
  6
Continuous
 62
   200
370
    20
100
AcDbLine
 10
-4285.999495325856
 20
-1369.826075870707
 30
0.0
 11
-4069.999495325858
 21
-1369.826075870707
 31
0.0
  0
LINE
  5
1D2
330
1F
100
AcDbEntity
  8
0-6_扉
  6
Continuous
 62
   200
370
    20
100
AcDbLine
 10
-4285.999495325856
 20
-1345.826075870707
 30
0.0
 11
-4069.999495325858
 21
-1345.826075870707
 31
0.0
  0
LINE
  5
1D3
330
1F
100
AcDbEntity
  8
0-6_扉
  6
Continuous
 62
   200
370
    20
100
AcDbLine
 10
-4069.999495325858
 20
-2309.652143493417
 30
0.0
 11
-4069.999495325858
 21
-2943.999910973217
 31
0.0
  0
LINE
  5
1D4
330
1F
100
AcDbEntity
  8
0-6_扉
  6
Continuous
 62
   200
370
    20
100
AcDbLine
 10
-4285.999495325856
 20
-2309.652143493417
 30
0.0
 11
-4285.999495325856
 21
-2943.999910973217
 31
0.0
  0
LINE
  5
1D5
330
1F
100
AcDbEntity
  8
0-6_扉
  6
Continuous
 62
   200
370
    20
100
AcDbLine
 10
-4285.999495325856
 20
-2943.999910973217
 30
0.0
 11
-4069.999495325858
 21
-2943.999910973217
 31
0.0
  0
LINE
  5
1D6
330
1F
100
AcDbEntity
  8
0-3_仕上げ
  6
Continuous
 62
    40
370
    15
100
AcDbLine
 10
-4480.999495325857
 20
-3094.000420235302
 30
0.0
 11
-4480.999495325857
 21
-3022.000420235304
 31
0.0
  0
LINE
  5
1D7
330
1F
100
AcDbEntity
  8
0-3_仕上げ
  6
Continuous
 62
    40
370
    15
100
AcDbLine
 10
-4066.999495325857
 20
-3094.000420235302
 30
0.0
 11
-4066.999495325857
 21
-3022.000420235304
 31
0.0
  0
LINE
  5
1D8
330
1F
100
AcDbEntity
  8
0-3_仕上げ
  6
Continuous
 62
    40
370
    15
100
AcDbLine
 10
-5149.999495325861
 20
-3022.000420235304
 30
0.0
 11
-4480.999495325857
 21
-3022.000420235304
 31
0.0
  0
LINE
  5
1D9
330
1F
100
AcDbEntity
  8
0-3_仕上げ
  6
Continuous
 62
    40
370
    15
100
AcDbLine
 10
-5149.999495325861
 20
-3094.000420235302
 30
0.0
 11
-4480.999495325857
 21
-3094.000420235302
 31
0.0
  0
LINE
  5
1DA
330
1F
100
AcDbEntity
  8
0-3_仕上げ
  6
Continuous
 62
     7
370
     9
100
AcDbLine
 10
-5149.999495325861
 20
-3031.000420235303
 30
0.0
 11
-4480.999495325857
 21
-3031.000420235303
 31
0.0
  0
LINE
  5
1DB
330
1F
100
AcDbEntity
  8
0-3_仕上げ
  6
Continuous
 62
     7
370
     9
100
AcDbLine
 10
-5149.999495325861
 20
-3085.000420235302
 30
0.0
 11
-4480.999495325857
 21
-3085.000420235302
 31
0.0
  0
LINE
  5
1DC
330
1F
100
AcDbEntity
  8
0-3_仕上げ
  6
Continuous
 62
     7
370
     9
100
AcDbLine
 10
-5149.999495325861
 20
-3040.000420235302
 30
0.0
 11
-4480.999495325857
 21
-3040.000420235302
 31
0.0
  0
LINE
  5
1DD
330
1F
100
AcDbEntity
  8
0-3_仕上げ
  6
Continuous
 62
     7
370
     9
100
AcDbLine
 10
-5149.999495325861
 20
-3049.000420235302
 30
0.0
 11
-4480.999495325857
 21
-3049.000420235302
 31
0.0
  0
LINE
  5
1DE
330
1F
100
AcDbEntity
  8
0-3_仕上げ
  6
Continuous
 62
     7
370
     9
100
AcDbLine
 10
-5149.999495325861
 20
-3058.000420235302
 30
0.0
 11
-4480.999495325857
 21
-3058.000420235302
 31
0.0
  0
LINE
  5
1DF
330
1F
100
AcDbEntity
  8
0-3_仕上げ
  6
Continuous
 62
     7
370
     9
100
AcDbLine
 10
-5149.999495325861
 20
-3067.000420235302
 30
0.0
 11
-4480.999495325857
 21
-3067.000420235302
 31
0.0
  0
LINE
  5
1E0
330
1F
100
AcDbEntity
  8
0-3_仕上げ
  6
Continuous
 62
     7
370
     9
100
AcDbLine
 10
-5149.999495325861
 20
-3076.000420235303
 30
0.0
 11
-4480.999495325857
 21
-3076.000420235303
 31
0.0
  0
LINE
  5
1E1
330
1F
100
AcDbEntity
  8
0-3_仕上げ
  6
Continuous
 62
    40
370
    15
100
AcDbLine
 10
-3799.999495325858
 20
-3022.000420235304
 30
0.0
 11
-4066.999495325857
 21
-3022.000420235304
 31
0.0
  0
LINE
  5
1E2
330
1F
100
AcDbEntity
  8
0-3_仕上げ
  6
Continuous
 62
    40
370
    15
100
AcDbLine
 10
-3799.999495325858
 20
-3094.000420235302
 30
0.0
 11
-4066.999495325857
 21
-3094.000420235302
 31
0.0
  0
LINE
  5
1E3
330
1F
100
AcDbEntity
  8
0-3_仕上げ
  6
Continuous
 62
     7
370
     9
100
AcDbLine
 10
-3799.999495325858
 20
-3031.000420235303
 30
0.0
 11
-4066.999495325857
 21
-3031.000420235303
 31
0.0
  0
LINE
  5
1E4
330
1F
100
AcDbEntity
  8
0-3_仕上げ
  6
Continuous
 62
     7
370
     9
100
AcDbLine
 10
-3799.999495325858
 20
-3085.000420235302
 30
0.0
 11
-4066.999495325857
 21
-3085.000420235302
 31
0.0
  0
LINE
  5
1E5
330
1F
100
AcDbEntity
  8
0-3_仕上げ
  6
Continuous
 62
     7
370
     9
100
AcDbLine
 10
-3799.999495325858
 20
-3040.000420235302
 30
0.0
 11
-4066.999495325857
 21
-3040.000420235302
 31
0.0
  0
LINE
  5
1E6
330
1F
100
AcDbEntity
  8
0-3_仕上げ
  6
Continuous
 62
     7
370
     9
100
AcDbLine
 10
-3799.999495325858
 20
-3049.000420235302
 30
0.0
 11
-4066.999495325857
 21
-3049.000420235302
 31
0.0
  0
LINE
  5
1E7
330
1F
100
AcDbEntity
  8
0-3_仕上げ
  6
Continuous
 62
     7
370
     9
100
AcDbLine
 10
-3799.999495325858
 20
-3058.000420235302
 30
0.0
 11
-4066.999495325857
 21
-3058.000420235302
 31
0.0
  0
LINE
  5
1E8
330
1F
100
AcDbEntity
  8
0-3_仕上げ
  6
Continuous
 62
     7
370
     9
100
AcDbLine
 10
-3799.999495325858
 20
-3067.000420235302
 30
0.0
 11
-4066.999495325857
 21
-3067.000420235302
 31
0.0
  0
LINE
  5
1E9
330
1F
100
AcDbEntity
  8
0-3_仕上げ
  6
Continuous
 62
     7
370
     9
100
AcDbLine
 10
-3799.999495325858
 20
-3076.000420235303
 30
0.0
 11
-4066.999495325857
 21
-3076.000420235303
 31
0.0
  0
LINE
  5
1EA
330
1F
100
AcDbEntity
  8
0-1_通り芯
  6
JWW_CENTER1
 62
   120
370
     5
100
AcDbLine
 10
-5149.999495325861
 20
-3094.00021424165
 30
0.0
 11
-3785.856362500556
 21
-3094.00021424165
 31
0.0
  0
LINE
  5
1EB
330
1F
100
AcDbEntity
  8
0-0_補助線
  6
JWW_HOJO
 62
   120
370
     5
100
AcDbLine
 10
-3169.999495325858
 20
-3094.00021424165
 30
0.0
 11
-5359.999495325861
 21
-3094.00021424165
 31
0.0
  0
LINE
  5
1EC
330
1F
100
AcDbEntity
  8
0-B_寸法
  6
Continuous
 62
   120
370
     5
100
AcDbLine
 10
-3589.999495325858
 20
-2943.999910973217
 30
0.0
 11
-3799.999495325858
 21
-2943.999910973217
 31
0.0
  0
MTEXT
  5
1ED
330
1F
100
AcDbEntity
  8
0-B_寸法
  6
Continuous
 62
     7
370
     0
100
AcDbMText
 10
-3606.25156333355
 20
-2970.073238028488
 30
0.0
 40
91.44
 41
120.0
 46
0.0
 71
     7
 72
     1
  1
{\fＭＳ ゴシック|b0|i0|c128|p49;10}
 11
6.123031769111886E-17
 21
1.0
 31
0.0
 73
     1
 44
1.0
  0
LWPOLYLINE
  5
1EE
330
1F
100
AcDbEntity
  8
0-B_寸法
  6
Continuous
 62
     7
370
     9
100
AcDbPolyline
 90
        4
 70
     1
 43
3.0
 10
-3588.499495325858
 20
-2943.999910973217
 42
0.4142135623731
 10
-3589.999495325858
 20
-2942.499910973217
 42
0.4142135623731
 10
-3591.499495325858
 20
-2943.999910973217
 42
0.4142135623731
 10
-3589.999495325858
 20
-2945.499910973217
 42
0.4142135623731
  0
LWPOLYLINE
  5
1EF
330
1F
100
AcDbEntity
  8
0-B_寸法
  6
Continuous
 62
     7
370
     9
100
AcDbPolyline
 90
        4
 70
     1
 43
3.0
 10
-3588.499495325858
 20
-3003.999910973217
 42
0.4142135623731
 10
-3589.999495325858
 20
-3002.499910973217
 42
0.4142135623731
 10
-3591.499495325858
 20
-3003.999910973217
 42
0.4142135623731
 10
-3589.999495325858
 20
-3005.499910973217
 42
0.4142135623731
  0
LINE
  5
1F0
330
1F
100
AcDbEntity
  8
0-B_寸法
  6
Continuous
 62
   120
370
     5
100
AcDbLine
 10
-3379.999495325858
 20
-3003.999910973217
 30
0.0
 11
-3799.999495325858
 21
-3003.999910973217
 31
0.0
  0
LWPOLYLINE
  5
1F1
330
1F
100
AcDbEntity
  8
0-B_寸法
  6
Continuous
 62
     7
370
     9
100
AcDbPolyline
 90
        4
 70
     1
 43
3.0
 10
-3378.499495325858
 20
-3003.999910973217
 42
0.4142135623731
 10
-3379.999495325858
 20
-3002.499910973217
 42
0.4142135623731
 10
-3381.499495325858
 20
-3003.999910973217
 42
0.4142135623731
 10
-3379.999495325858
 20
-3005.499910973217
 42
0.4142135623731
  0
LINE
  5
1F2
330
1F
100
AcDbEntity
  8
0-B_寸法
  6
Continuous
 62
   120
370
     5
100
AcDbLine
 10
-3169.999495325858
 20
-3094.00021424165
 30
0.0
 11
-3799.999495325858
 21
-3094.00021424165
 31
0.0
  0
LWPOLYLINE
  5
1F3
330
1F
100
AcDbEntity
  8
0-B_寸法
  6
Continuous
 62
     7
370
     9
100
AcDbPolyline
 90
        4
 70
     1
 43
3.0
 10
-3168.499495325858
 20
-3094.00021424165
 42
0.4142135623731
 10
-3169.999495325858
 20
-3092.50021424165
 42
0.4142135623731
 10
-3171.499495325858
 20
-3094.00021424165
 42
0.4142135623731
 10
-3169.999495325858
 20
-3095.50021424165
 42
0.4142135623731
  0
LINE
  5
1F4
330
1F
100
AcDbEntity
  8
0-3_仕上げ
  6
Continuous
 62
     7
370
     9
100
AcDbLine
 10
-4789.999495325857
 20
-292.0000082479977
 30
0.0
 11
-4159.999495325857
 21
-22.00000824799773
 31
0.0
  0
LINE
  5
1F5
330
1F
100
AcDbEntity
  8
0-3_仕上げ
  6
Continuous
 62
    92
370
    13
100
AcDbLine
 10
-4789.999495325857
 20
-22.00000824799773
 30
0.0
 11
-4159.999495325857
 21
-22.00000824799773
 31
0.0
  0
LINE
  5
1F6
330
1F
100
AcDbEntity
  8
0-3_仕上げ
  6
Continuous
 62
    92
370
    13
100
AcDbLine
 10
-4789.999495325857
 20
-292.0000082479977
 30
0.0
 11
-4159.999495325857
 21
-292.0000082479977
 31
0.0
  0
LINE
  5
1F7
330
1F
100
AcDbEntity
  8
0-C_ハッチ
  6
JWW_DASHED1
 62
   120
370
     5
100
AcDbLine
 10
-4864.99949532587
 20
-251.5031873972826
 30
0.0
 11
-4789.999495325872
 21
-176.5031873972852
 31
0.0
  0
LINE
  5
1F8
330
1F
100
AcDbEntity
  8
0-C_ハッチ
  6
JWW_DASHED1
 62
   120
370
     5
100
AcDbLine
 10
-4864.999495325857
 20
-209.0767805260715
 30
0.0
 11
-4789.999495325863
 21
-134.0767805260771
 31
0.0
  0
LINE
  5
1F9
330
1F
100
AcDbEntity
  8
0-C_ハッチ
  6
JWW_DASHED1
 62
   120
370
     5
100
AcDbLine
 10
-4864.999495325863
 20
-166.6503736548758
 30
0.0
 11
-4789.999495325851
 21
-91.6503736548647
 31
0.0
  0
LINE
  5
1FA
330
1F
100
AcDbEntity
  8
0-C_ハッチ
  6
JWW_DASHED1
 62
   120
370
     5
100
AcDbLine
 10
-4864.999495325863
 20
-124.2239667836758
 30
0.0
 11
-4789.999495325849
 21
-49.22396678366297
 31
0.0
  0
LINE
  5
1FB
330
1F
100
AcDbEntity
  8
0-C_ハッチ
  6
JWW_DASHED1
 62
   120
370
     5
100
AcDbLine
 10
-4864.999495325849
 20
-81.7975599124621
 30
0.0
 11
-4789.999495325851
 21
-6.797559912464664
 31
0.0
  0
LINE
  5
1FC
330
1F
100
AcDbEntity
  8
0-C_ハッチ
  6
JWW_DASHED1
 62
   120
370
     5
100
AcDbLine
 10
-4864.999495325851
 20
-39.37115304126465
 30
0.0
 11
-4789.999495325857
 21
35.62884695873024
 31
0.0
  0
LINE
  5
1FD
330
1F
100
AcDbEntity
  8
0-C_ハッチ
  6
JWW_DASHED1
 62
   120
370
     5
100
AcDbLine
 10
-4864.999495325857
 20
3.055253829873976
 30
0.0
 11
-4789.999495325863
 21
78.05525382986886
 31
0.0
  0
LINE
  5
1FE
330
1F
100
AcDbEntity
  8
0-C_ハッチ
  6
JWW_DASHED1
 62
   120
370
     5
100
AcDbLine
 10
-4864.999495325861
 20
45.48166070107143
 30
0.0
 11
-4789.999495325863
 21
120.481660701068
 31
0.0
  0
LINE
  5
1FF
330
1F
100
AcDbEntity
  8
0-C_ハッチ
  6
JWW_DASHED1
 62
   120
370
     5
100
AcDbLine
 10
-4864.999495325863
 20
87.90806757226804
 30
0.0
 11
-4789.999495325865
 21
162.9080675722646
 31
0.0
  0
LINE
  5
200
330
1F
100
AcDbEntity
  8
0-C_ハッチ
  6
JWW_DASHED1
 62
   120
370
     5
100
AcDbLine
 10
-4159.999495325865
 20
-267.7521042075695
 30
0.0
 11
-4084.999495325868
 21
-192.7521042075738
 31
0.0
  0
LINE
  5
201
330
1F
100
AcDbEntity
  8
0-C_ハッチ
  6
JWW_DASHED1
 62
   120
370
     5
100
AcDbLine
 10
-4159.999495325868
 20
-225.3256973363737
 30
0.0
 11
-4084.99949532587
 21
-150.3256973363763
 31
0.0
  0
LINE
  5
202
330
1F
100
AcDbEntity
  8
0-C_ハッチ
  6
JWW_DASHED1
 62
   120
370
     5
100
AcDbLine
 10
-4159.99949532587
 20
-182.899290465175
 30
0.0
 11
-4084.99949532587
 21
-107.8992904651784
 31
0.0
  0
LINE
  5
203
330
1F
100
AcDbEntity
  8
0-C_ハッチ
  6
JWW_DASHED1
 62
   120
370
     5
100
AcDbLine
 10
-4159.999495325863
 20
-140.4728835939669
 30
0.0
 11
-4084.999495325849
 21
-65.4728835939558
 31
0.0
  0
LINE
  5
204
330
1F
100
AcDbEntity
  8
0-C_ハッチ
  6
JWW_DASHED1
 62
   120
370
     5
100
AcDbLine
 10
-4159.999495325861
 20
-98.04647672276474
 30
0.0
 11
-4084.999495325847
 21
-23.04647672275408
 31
0.0
  0
LINE
  5
205
330
1F
100
AcDbEntity
  8
0-C_ハッチ
  6
JWW_DASHED1
 62
   120
370
     5
100
AcDbLine
 10
-4159.999495325847
 20
-55.62006985155151
 30
0.0
 11
-4084.999495325849
 21
19.37993014844508
 31
0.0
  0
LINE
  5
206
330
1F
100
AcDbEntity
  8
0-C_ハッチ
  6
JWW_DASHED1
 62
   120
370
     5
100
AcDbLine
 10
-4159.999495325849
 20
-13.19366298035405
 30
0.0
 11
-4084.999495325849
 21
61.80633701964425
 31
0.0
  0
LINE
  5
207
330
1F
100
AcDbEntity
  8
0-C_ハッチ
  6
JWW_DASHED1
 62
   120
370
     5
100
AcDbLine
 10
-4159.999495325851
 20
29.2327438908417
 30
0.0
 11
-4084.999495325855
 21
104.2327438908391
 31
0.0
  0
LINE
  5
208
330
1F
100
AcDbEntity
  8
0-C_ハッチ
  6
JWW_DASHED1
 62
   120
370
     5
100
AcDbLine
 10
-4159.999495325857
 20
71.65915076198118
 30
0.0
 11
-4084.999495325861
 21
146.6591507619786
 31
0.0
  0
LINE
  5
209
330
1F
100
AcDbEntity
  8
0-C_ハッチ
  6
JWW_DASHED1
 62
   120
370
     5
100
AcDbLine
 10
-4159.999495325863
 20
114.0855576331778
 30
0.0
 11
-4084.999495325863
 21
189.0855576331752
 31
0.0
  0
LINE
  5
20A
330
1F
100
AcDbEntity
  8
0-C_ハッチ
  6
JWW_DASHED1
 62
   120
370
     5
100
AcDbLine
 10
-4864.999495325857
 20
-293.929594268469
 30
0.0
 11
-4789.99949532587
 21
-218.9295942684826
 31
0.0
  0
LINE
  5
20B
330
1F
100
AcDbEntity
  8
0-C_ハッチ
  6
JWW_DASHED1
 62
   120
370
     5
100
AcDbLine
 10
-4864.999495325857
 20
-336.3560011396669
 30
0.0
 11
-4789.999495325865
 21
-261.3560011396805
 31
0.0
  0
LINE
  5
20C
330
1F
100
AcDbEntity
  8
0-C_ハッチ
  6
JWW_DASHED1
 62
   120
370
     5
100
AcDbLine
 10
-4826.217095562994
 20
-340.0000082479971
 30
0.0
 11
-4789.999495325857
 21
-303.7824080108622
 31
0.0
  0
LINE
  5
20D
330
1F
100
AcDbEntity
  8
0-C_ハッチ
  6
JWW_DASHED1
 62
   120
370
     5
100
AcDbLine
 10
-4159.999495325857
 20
-310.1785110787068
 30
0.0
 11
-4084.999495325861
 21
-235.1785110787124
 31
0.0
  0
LINE
  5
20E
330
1F
100
AcDbEntity
  8
0-C_ハッチ
  6
JWW_DASHED1
 62
   120
370
     5
100
AcDbLine
 10
-4147.394585623952
 20
-340.0000082479971
 30
0.0
 11
-4084.999495325856
 21
-277.6049179499081
 31
0.0
  0
LINE
  5
20F
330
1F
100
AcDbEntity
  8
0-C_ハッチ
  6
JWW_DASHED1
 62
   120
370
     5
100
AcDbLine
 10
-4104.968178752757
 20
-340.0000082479971
 30
0.0
 11
-4084.999495325855
 21
-320.0313248210966
 31
0.0
  0
LINE
  5
210
330
1F
100
AcDbEntity
  8
0-4_枠
  6
Continuous
 62
   120
370
     5
100
AcDbLine
 10
-4915.999495325859
 20
-340.0000082479971
 30
0.0
 11
-4939.999495325861
 21
-340.0000082479971
 31
0.0
  0
LINE
  5
211
330
1F
100
AcDbEntity
  8
0-4_枠
  6
Continuous
 62
   120
370
     5
100
AcDbLine
 10
-4033.99949532586
 20
-340.0000082479971
 30
0.0
 11
-4009.999495325858
 21
-340.0000082479971
 31
0.0
  0
LINE
  5
212
330
1F
100
AcDbEntity
  8
0-B_寸法
  6
Continuous
 62
   120
370
     5
100
AcDbLine
 10
-4033.99949532586
 20
-792.5299979340728
 30
0.0
 11
-4033.99949532586
 21
-585.3978591104715
 31
0.0
  0
LINE
  5
213
330
1F
100
AcDbEntity
  8
0-B_寸法
  6
Continuous
 62
   120
370
     5
100
AcDbLine
 10
-4915.999495325859
 20
-792.5299979340728
 30
0.0
 11
-4033.99949532586
 21
-792.5299979340728
 31
0.0
  0
LINE
  5
214
330
1F
100
AcDbEntity
  8
0-B_寸法
  6
Continuous
 62
   120
370
     5
100
AcDbLine
 10
-4915.999495325859
 20
-792.5299979340728
 30
0.0
 11
-4915.999495325859
 21
-585.3978591104715
 31
0.0
  0
MTEXT
  5
215
330
1F
100
AcDbEntity
  8
0-B_寸法
  6
Continuous
 62
     7
370
     0
100
AcDbMText
 10
-4609.999495325861
 20
-791.8099979340727
 30
0.0
 40
91.44
 41
180.0
 46
0.0
 71
     7
 72
     1
  1
{\fＭＳ ゴシック|b0|i0|c128|p49;147}
 73
     1
 44
1.0
  0
LWPOLYLINE
  5
216
330
1F
100
AcDbEntity
  8
0-B_寸法
  6
Continuous
 62
     7
370
     9
100
AcDbPolyline
 90
        4
 70
     1
 43
3.0
 10
-4032.49949532586
 20
-792.5299979340728
 42
0.4142135623731
 10
-4033.99949532586
 20
-791.0299979340726
 42
0.4142135623731
 10
-4035.49949532586
 20
-792.5299979340728
 42
0.4142135623731
 10
-4033.99949532586
 20
-794.0299979340728
 42
0.4142135623731
  0
LWPOLYLINE
  5
217
330
1F
100
AcDbEntity
  8
0-B_寸法
  6
Continuous
 62
     7
370
     9
100
AcDbPolyline
 90
        4
 70
     1
 43
3.0
 10
-4914.499495325859
 20
-792.5299979340728
 42
0.4142135623731
 10
-4915.999495325859
 20
-791.0299979340726
 42
0.4142135623731
 10
-4917.499495325859
 20
-792.5299979340728
 42
0.4142135623731
 10
-4915.999495325859
 20
-794.0299979340728
 42
0.4142135623731
  0
LWPOLYLINE
  5
218
330
1F
100
AcDbEntity
  8
0-B_寸法
  6
Continuous
 62
     7
370
     9
100
AcDbPolyline
 90
        4
 70
     1
 43
3.0
 10
-3588.499495325858
 20
-484.0000082479979
 42
0.4142135623731
 10
-3589.999495325858
 20
-482.5000082479979
 42
0.4142135623731
 10
-3591.499495325858
 20
-484.0000082479979
 42
0.4142135623731
 10
-3589.999495325858
 20
-485.5000082479979
 42
0.4142135623731
  0
LINE
  5
219
330
1F
100
AcDbEntity
  8
0-B_寸法
  6
Continuous
 62
   120
370
     5
100
AcDbLine
 10
-3379.999495325858
 20
-484.0000082479979
 30
0.0
 11
-3799.999495325858
 21
-484.0000082479979
 31
0.0
  0
LWPOLYLINE
  5
21A
330
1F
100
AcDbEntity
  8
0-B_寸法
  6
Continuous
 62
     7
370
     9
100
AcDbPolyline
 90
        4
 70
     1
 43
3.0
 10
-3378.499495325858
 20
-484.0000082479979
 42
0.4142135623731
 10
-3379.999495325858
 20
-482.5000082479979
 42
0.4142135623731
 10
-3381.499495325858
 20
-484.0000082479979
 42
0.4142135623731
 10
-3379.999495325858
 20
-485.5000082479979
 42
0.4142135623731
  0
LINE
  5
21B
330
1F
100
AcDbEntity
  8
0-B_寸法
  6
Continuous
 62
   120
370
     5
100
AcDbLine
 10
-3169.999495325858
 20
-340.0000082479971
 30
0.0
 11
-3799.999495325858
 21
-340.0000082479971
 31
0.0
  0
LINE
  5
21C
330
1F
100
AcDbEntity
  8
0-B_寸法
  6
Continuous
 62
   120
370
     5
100
AcDbLine
 10
-3169.999495325858
 20
-340.0000082479971
 30
0.0
 11
-3169.999495325858
 21
-3094.00021424165
 31
0.0
  0
LWPOLYLINE
  5
21D
330
1F
100
AcDbEntity
  8
0-B_寸法
  6
Continuous
 62
     7
370
     9
100
AcDbPolyline
 90
        4
 70
     1
 43
3.0
 10
-3168.499495325858
 20
-340.0000082479971
 42
0.4142135623731
 10
-3169.999495325858
 20
-338.5000082479971
 42
0.4142135623731
 10
-3171.499495325858
 20
-340.0000082479971
 42
0.4142135623731
 10
-3169.999495325858
 20
-341.5000082479971
 42
0.4142135623731
  0
LINE
  5
21E
330
1F
100
AcDbEntity
  8
0-C_ハッチ
  6
JWW_DASHED1
 62
   120
370
     5
100
AcDbLine
 10
-4864.999495325863
 20
130.3344744434681
 30
0.0
 11
-4789.999495325868
 21
205.3344744434646
 31
0.0
  0
LINE
  5
21F
330
1F
100
AcDbEntity
  8
0-C_ハッチ
  6
JWW_DASHED1
 62
   120
370
     5
100
AcDbLine
 10
-4864.999495325851
 20
172.7608813146783
 30
0.0
 11
-4789.999495325841
 21
247.7608813146919
 31
0.0
  0
LINE
  5
220
330
1F
100
AcDbEntity
  8
0-C_ハッチ
  6
JWW_DASHED1
 62
   120
370
     5
100
AcDbLine
 10
-4159.999495325863
 20
156.5119645043787
 30
0.0
 11
-4084.999495325849
 21
231.5119645043889
 31
0.0
  0
LINE
  5
221
330
1F
100
AcDbEntity
  8
0-C_ハッチ
  6
JWW_DASHED1
 62
   120
370
     5
100
AcDbLine
 10
-4159.999495325865
 20
198.9383713755744
 30
0.0
 11
-4098.937874949435
 21
259.9999917520024
 31
0.0
  0
LINE
  5
222
330
1F
100
AcDbEntity
  8
0-C_ハッチ
  6
JWW_DASHED1
 62
   120
370
     5
100
AcDbLine
 10
-4864.999495325843
 20
257.6136950570885
 30
0.0
 11
-4862.61319863093
 21
259.9999917520024
 31
0.0
  0
LINE
  5
223
330
1F
100
AcDbEntity
  8
0-C_ハッチ
  6
JWW_DASHED1
 62
   120
370
     5
100
AcDbLine
 10
-4864.999495325857
 20
215.1872881858766
 30
0.0
 11
-4820.18679175973
 21
259.9999917520024
 31
0.0
  0
LINE
  5
224
330
1F
100
AcDbEntity
  8
0-C_ハッチ
  6
JWW_DASHED1
 62
   120
370
     5
100
AcDbLine
 10
-4159.999495325855
 20
241.3647782467855
 30
0.0
 11
-4141.364281820639
 21
259.9999917520024
 31
0.0
  0
LINE
  5
225
330
1F
100
AcDbEntity
  8
0-3_仕上げ
  6
Continuous
 62
    40
370
    15
100
AcDbLine
 10
-4864.999495325857
 20
-340.0000082479971
 30
0.0
 11
-4864.999495325857
 21
259.9999917520024
 31
0.0
  0
LINE
  5
226
330
1F
100
AcDbEntity
  8
0-3_仕上げ
  6
Continuous
 62
    40
370
    15
100
AcDbLine
 10
-4789.999495325857
 20
-340.0000082479971
 30
0.0
 11
-4789.999495325857
 21
259.9999917520024
 31
0.0
  0
LINE
  5
227
330
1F
100
AcDbEntity
  8
0-3_仕上げ
  6
Continuous
 62
    40
370
    15
100
AcDbLine
 10
-4159.999495325857
 20
-340.0000082479971
 30
0.0
 11
-4159.999495325857
 21
259.9999917520024
 31
0.0
  0
LINE
  5
228
330
1F
100
AcDbEntity
  8
0-3_仕上げ
  6
Continuous
 62
    40
370
    15
100
AcDbLine
 10
-4084.999495325855
 20
-340.0000082479971
 30
0.0
 11
-4084.999495325855
 21
259.9999917520024
 31
0.0
  0
LINE
  5
229
330
1F
100
AcDbEntity
  8
0-0_補助線
  6
JWW_HOJO
 62
   120
370
     5
100
AcDbLine
 10
-5149.999495325861
 20
-3094.00021424165
 30
0.0
 11
-5149.999495325861
 21
259.9999917520024
 31
0.0
  0
LINE
  5
22A
330
1F
100
AcDbEntity
  8
0-0_補助線
  6
JWW_HOJO
 62
   120
370
     5
100
AcDbLine
 10
-5359.999495325861
 20
-3094.00021424165
 30
0.0
 11
-5359.999495325861
 21
259.9999917520024
 31
0.0
  0
LINE
  5
22B
330
1F
100
AcDbEntity
  8
0-0_補助線
  6
JWW_HOJO
 62
   120
370
     5
100
AcDbLine
 10
-3799.999495325858
 20
-3094.00021424165
 30
0.0
 11
-3799.999495325858
 21
259.9999917520024
 31
0.0
  0
LINE
  5
22C
330
1F
100
AcDbEntity
  8
0-0_補助線
  6
JWW_HOJO
 62
   120
370
     5
100
AcDbLine
 10
-3169.999495325858
 20
-3094.00021424165
 30
0.0
 11
-3169.999495325858
 21
259.9999917520024
 31
0.0
  0
LINE
  5
22D
330
1F
100
AcDbEntity
  8
0-0_補助線
  6
JWW_HOJO
 62
   120
370
     5
100
AcDbLine
 10
-5359.999495325861
 20
259.9999917520024
 30
0.0
 11
-3169.999495325858
 21
259.9999917520024
 31
0.0
  0
LINE
  5
22E
330
1F
100
AcDbEntity
  8
0-1_通り芯
  6
JWW_CENTER1
 62
   120
370
     5
100
AcDbLine
 10
-4474.999495325857
 20
-3214.00021424165
 30
0.0
 11
-4474.999495325857
 21
259.9999917520024
 31
0.0
  0
LWPOLYLINE
  5
22F
330
1F
100
AcDbEntity
  8
0-B_寸法
  6
Continuous
 62
     7
370
     9
100
AcDbPolyline
 90
        4
 70
     1
 43
3.0
 10
-3378.499495325858
 20
-3022.000420235304
 42
0.4142135623731
 10
-3379.999495325858
 20
-3020.500420235304
 42
0.4142135623731
 10
-3381.499495325858
 20
-3022.000420235304
 42
0.4142135623731
 10
-3379.999495325858
 20
-3023.500420235304
 42
0.4142135623731
  0
MTEXT
  5
230
330
1F
100
AcDbEntity
  8
0-B_寸法
  6
Continuous
 62
     7
370
     0
100
AcDbMText
 10
-3387.706205317981
 20
-3013.181272555102
 30
0.0
 40
91.44
 41
60.0
 46
0.0
 71
     7
 72
     1
  1
{\fＭＳ ゴシック|b0|i0|c128|p49;3}
 11
6.123031769111886E-17
 21
1.0
 31
0.0
 73
     1
 44
1.0
  0
LINE
  5
231
330
1F
100
AcDbEntity
  8
0-0_補助線
  6
JWW_HOJO
 62
   120
370
     5
100
AcDbLine
 10
-3589.999495325858
 20
-3094.00021424165
 30
0.0
 11
-3589.999495325858
 21
259.9999917520024
 31
0.0
  0
LINE
  5
232
330
1F
100
AcDbEntity
  8
0-0_補助線
  6
JWW_HOJO
 62
   120
370
     5
100
AcDbLine
 10
-3896.390639046882
 20
-2189.652143493417
 30
0.0
 11
-5053.608351604834
 21
-2189.652143493417
 31
0.0
  0
LINE
  5
233
330
1F
100
AcDbEntity
  8
0-0_補助線
  6
JWW_HOJO
 62
   120
370
     5
100
AcDbLine
 10
-3896.390639046882
 20
-2309.652143493417
 30
0.0
 11
-5053.608351604834
 21
-2309.652143493417
 31
0.0
  0
LINE
  5
234
330
1F
100
AcDbEntity
  8
0-4_枠
  6
Continuous
 62
   120
370
     5
100
AcDbLine
 10
-4939.999495325861
 20
-3022.000420235304
 30
0.0
 11
-4939.999495325861
 21
-2309.652143493417
 31
0.0
  0
LINE
  5
235
330
1F
100
AcDbEntity
  8
0-4_枠
  6
Continuous
 62
   120
370
     5
100
AcDbLine
 10
-4009.999495325858
 20
-3022.000420235304
 30
0.0
 11
-4009.999495325858
 21
-2309.652143493417
 31
0.0
  0
LINE
  5
236
330
1F
100
AcDbEntity
  8
0-0_補助線
  6
JWW_HOJO
 62
   120
370
     5
100
AcDbLine
 10
-3896.390639046882
 20
-884.7475605965992
 30
0.0
 11
-5053.608351604834
 21
-884.7475605965992
 31
0.0
  0
LINE
  5
237
330
1F
100
AcDbEntity
  8
0-0_補助線
  6
JWW_HOJO
 62
   120
370
     5
100
AcDbLine
 10
-3896.390639046882
 20
-1004.747560596599
 30
0.0
 11
-5053.608351604834
 21
-1004.747560596599
 31
0.0
  0
LINE
  5
238
330
1F
100
AcDbEntity
  8
0-4_枠
  6
Continuous
 62
   120
370
     5
100
AcDbLine
 10
-4009.999495325858
 20
-884.7475605965992
 30
0.0
 11
-4009.999495325858
 21
-340.0000082479971
 31
0.0
  0
LINE
  5
239
330
1F
100
AcDbEntity
  8
0-4_枠
  6
Continuous
 62
   120
370
     5
100
AcDbLine
 10
-4009.999495325858
 20
-2189.652143493417
 30
0.0
 11
-4009.999495325858
 21
-1004.747560596599
 31
0.0
  0
LINE
  5
23A
330
1F
100
AcDbEntity
  8
0-4_枠
  6
Continuous
 62
   120
370
     5
100
AcDbLine
 10
-4939.999495325861
 20
-2189.652143493417
 30
0.0
 11
-4939.999495325861
 21
-1004.747560596599
 31
0.0
  0
LINE
  5
23B
330
1F
100
AcDbEntity
  8
0-4_枠
  6
Continuous
 62
   120
370
     5
100
AcDbLine
 10
-4939.999495325861
 20
-884.7475605965992
 30
0.0
 11
-4939.999495325861
 21
-340.0000082479971
 31
0.0
  0
LINE
  5
23C
330
1F
100
AcDbEntity
  8
0-B_寸法
  6
Continuous
 62
   120
370
     5
100
AcDbLine
 10
-3589.999495325858
 20
-1369.826075870707
 30
0.0
 11
-3799.999495325858
 21
-1369.826075870707
 31
0.0
  0
LWPOLYLINE
  5
23D
330
1F
100
AcDbEntity
  8
0-B_寸法
  6
Continuous
 62
     7
370
     9
100
AcDbPolyline
 90
        4
 70
     1
 43
3.0
 10
-3588.499495325858
 20
-1369.826075870707
 42
0.4142135623731
 10
-3589.999495325858
 20
-1368.326075870707
 42
0.4142135623731
 10
-3591.499495325858
 20
-1369.826075870707
 42
0.4142135623731
 10
-3589.999495325858
 20
-1371.326075870707
 42
0.4142135623731
  0
LINE
  5
23E
330
1F
100
AcDbEntity
  8
0-B_寸法
  6
Continuous
 62
   120
370
     5
100
AcDbLine
 10
-3589.999495325858
 20
-1345.826075870707
 30
0.0
 11
-3799.999495325858
 21
-1345.826075870707
 31
0.0
  0
LWPOLYLINE
  5
23F
330
1F
100
AcDbEntity
  8
0-B_寸法
  6
Continuous
 62
     7
370
     9
100
AcDbPolyline
 90
        4
 70
     1
 43
3.0
 10
-3588.499495325858
 20
-1345.826075870707
 42
0.4142135623731
 10
-3589.999495325858
 20
-1344.326075870707
 42
0.4142135623731
 10
-3591.499495325858
 20
-1345.826075870707
 42
0.4142135623731
 10
-3589.999495325858
 20
-1347.326075870707
 42
0.4142135623731
  0
LINE
  5
240
330
1F
100
AcDbEntity
  8
0-B_寸法
  6
Continuous
 62
   120
370
     5
100
AcDbLine
 10
-3589.999495325858
 20
-514.0000082479979
 30
0.0
 11
-3799.999495325858
 21
-514.0000082479979
 31
0.0
  0
LWPOLYLINE
  5
241
330
1F
100
AcDbEntity
  8
0-B_寸法
  6
Continuous
 62
     7
370
     9
100
AcDbPolyline
 90
        4
 70
     1
 43
3.0
 10
-3588.499495325858
 20
-514.0000082479979
 42
0.4142135623731
 10
-3589.999495325858
 20
-512.5000082479979
 42
0.4142135623731
 10
-3591.499495325858
 20
-514.0000082479979
 42
0.4142135623731
 10
-3589.999495325858
 20
-515.5000082479979
 42
0.4142135623731
  0
MTEXT
  5
242
330
1F
100
AcDbEntity
  8
0-B_寸法
  6
Continuous
 62
     7
370
     0
100
AcDbMText
 10
-3602.977489885355
 20
-593.5899594584075
 30
0.0
 40
91.44
 41
60.0
 46
0.0
 71
     7
 72
     1
  1
{\fＭＳ ゴシック|b0|i0|c128|p49;5}
 11
6.123031769111886E-17
 21
1.0
 31
0.0
 73
     1
 44
1.0
  0
MTEXT
  5
243
330
1F
100
AcDbEntity
  8
0-B_寸法
  6
Continuous
 62
     7
370
     0
100
AcDbMText
 10
-3603.080315970537
 20
-2501.192993421962
 30
0.0
 40
91.43999999999997
 41
660.0
 46
0.0
 71
     7
 72
     1
  1
{\fＭＳ ゴシック|b0|i0|c128|p49;ＤＨ＝1,995}
 11
6.123031769111886E-17
 21
1.0
 31
0.0
 73
     1
 44
1.0
  0
MTEXT
  5
244
330
1F
100
AcDbEntity
  8
0-B_寸法
  6
Continuous
 62
     7
370
     0
100
AcDbMText
 10
-3602.977489885355
 20
-1461.776682430581
 30
0.0
 40
91.44
 41
60.0
 46
0.0
 71
     7
 72
     1
  1
{\fＭＳ ゴシック|b0|i0|c128|p49;4}
 11
6.123031769111886E-17
 21
1.0
 31
0.0
 73
     1
 44
1.0
  0
MTEXT
  5
245
330
1F
100
AcDbEntity
  8
0-B_寸法
  6
Continuous
 62
     7
370
     0
100
AcDbMText
 10
-3602.977489885355
 20
-1220.904717523608
 30
0.0
 40
74.81454545454542
 41
540.0
 46
0.0
 71
     7
 72
     1
  1
{\fＭＳ ゴシック|b0|i0|c128|p49;欄間Ｈ＝359}
 11
6.123031769111886E-17
 21
1.0
 31
0.0
 73
     1
 44
1.0
  0
MTEXT
  5
246
330
1F
100
AcDbEntity
  8
0-B_寸法
  6
Continuous
 62
     7
370
   211
100
AcDbMText
 10
-3394.999495325858
 20
-2058.280062607433
 30
0.0
 40
91.43999999999997
 41
660.0
 46
0.0
 71
     7
 72
     1
  1
{\fＭＳ ゴシック|b0|i0|c128|p49;枠内＝2,373}
 11
6.123031769111886E-17
 21
1.0
 31
0.0
 73
     1
 44
1.0
  0
LWPOLYLINE
  5
247
330
1F
100
AcDbEntity
  8
0-B_寸法
  6
Continuous
 62
     7
370
     9
100
AcDbPolyline
 90
        4
 70
     1
 43
3.0
 10
-3378.499495325858
 20
-340.0000082479971
 42
0.4142135623731
 10
-3379.999495325858
 20
-338.5000082479971
 42
0.4142135623731
 10
-3381.499495325858
 20
-340.0000082479971
 42
0.4142135623731
 10
-3379.999495325858
 20
-341.5000082479971
 42
0.4142135623731
  0
MTEXT
  5
248
330
1F
100
AcDbEntity
  8
0-B_寸法
  6
Continuous
 62
     7
370
     0
100
AcDbMText
 10
-3393.297199912855
 20
-477.7058852224256
 30
0.0
 40
91.44
 41
120.0
 46
0.0
 71
     7
 72
     1
  1
{\fＭＳ ゴシック|b0|i0|c128|p49;24}
 11
6.123031769111886E-17
 21
1.0
 31
0.0
 73
     1
 44
1.0
  0
LINE
  5
249
330
1F
100
AcDbEntity
  8
0-B_寸法
  6
Continuous
 62
   120
370
     5
100
AcDbLine
 10
-3589.999495325858
 20
-484.0000082479979
 30
0.0
 11
-3589.999495325858
 21
-3003.999910973217
 31
0.0
  0
MTEXT
  5
24A
330
1F
100
AcDbEntity
  8
0-A_文字
  6
Continuous
 62
     7
370
     9
100
AcDbMText
 10
-5359.999495314671
 20
339.6350252232535
 30
0.0
 40
102.1976470588235
 41
1140.0
 46
0.0
 71
     7
 72
     1
  1
{\fＭＳ ゴシック|b0|i0|c128|p49;■縦断面図[4方枠]}
 73
     1
 44
1.0
  0
LINE
  5
24B
330
1F
100
AcDbEntity
  8
0-1_通り芯
  6
JWW_CENTER1
 62
   120
370
     5
100
AcDbLine
 10
-5149.999495325861
 20
-340.0000082479971
 30
0.0
 11
-3785.856362500556
 21
-340.0000082479971
 31
0.0
  0
LINE
  5
24C
330
1F
100
AcDbEntity
  8
0-4_枠
  6
Continuous
 62
    92
370
    13
100
AcDbLine
 10
-4480.999747095876
 20
-3006.999928139354
 30
0.0
 11
-4066.99924355584
 21
-3006.999928139354
 31
0.0
  0
ARC
  5
24D
330
1F
100
AcDbEntity
  8
0-4_枠
  6
Continuous
 62
    92
370
    13
100
AcDbCircle
 10
-4066.999495325858
 20
-3022.00021424165
 30
0.0
 40
18.0
100
AcDbArc
 50
0.0000000000000127
 51
90.00000000000001
  0
LINE
  5
24E
330
1F
100
AcDbEntity
  8
0-4_枠
  6
Continuous
 62
    92
370
    13
100
AcDbLine
 10
-4480.999495325857
 20
-3004.00021424165
 30
0.0
 11
-4066.999495325858
 21
-3004.00021424165
 31
0.0
  0
ARC
  5
24F
330
1F
100
AcDbEntity
  8
0-4_枠
  6
Continuous
 62
    92
370
    13
100
AcDbCircle
 10
-4480.999495325857
 20
-3022.00021424165
 30
0.0
 40
18.0
100
AcDbArc
 50
90.0
 51
180.0
  0
ARC
  5
250
330
1F
100
AcDbEntity
  8
0-4_枠
  6
Continuous
 62
    92
370
    13
100
AcDbCircle
 10
-4480.999495325857
 20
-3022.00021424165
 30
0.0
 40
15.0
100
AcDbArc
 50
90.0
 51
180.0
  0
ARC
  5
251
330
1F
100
AcDbEntity
  8
0-4_枠
  6
Continuous
 62
    92
370
    13
100
AcDbCircle
 10
-4066.999495325858
 20
-3022.00021424165
 30
0.0
 40
15.0
100
AcDbArc
 50
0.0000000000000127
 51
90.00000000000001
  0
LINE
  5
252
330
1F
100
AcDbEntity
  8
0-C_ハッチ
  6
Continuous
 62
   120
370
     5
100
AcDbLine
 10
-4195.029578774149
 20
-3094.000214241642
 30
0.0
 11
-4108.029292671872
 21
-3006.999928139364
 31
0.0
  0
LINE
  5
253
330
1F
100
AcDbEntity
  8
0-C_ハッチ
  6
Continuous
 62
   120
370
     5
100
AcDbLine
 10
-4254.426548393804
 20
-3094.000214241652
 30
0.0
 11
-4167.426262291512
 21
-3006.999928139359
 31
0.0
  0
LINE
  5
254
330
1F
100
AcDbEntity
  8
0-C_ハッチ
  6
Continuous
 62
   120
370
     5
100
AcDbLine
 10
-4313.823518013492
 20
-3094.000214241636
 30
0.0
 11
-4226.823231911214
 21
-3006.999928139359
 31
0.0
  0
LINE
  5
255
330
1F
100
AcDbEntity
  8
0-C_ハッチ
  6
Continuous
 62
   120
370
     5
100
AcDbLine
 10
-4373.220487633146
 20
-3094.000214241647
 30
0.0
 11
-4286.220201530855
 21
-3006.999928139353
 31
0.0
  0
LINE
  5
256
330
1F
100
AcDbEntity
  8
0-C_ハッチ
  6
Continuous
 62
   120
370
     5
100
AcDbLine
 10
-4432.617457252862
 20
-3094.00021424166
 30
0.0
 11
-4345.61717115057
 21
-3006.999928139364
 31
0.0
  0
LINE
  5
257
330
1F
100
AcDbEntity
  8
0-C_ハッチ
  6
Continuous
 62
   120
370
     5
100
AcDbLine
 10
-4479.411396492202
 20
-3022.00021424165
 30
0.0
 11
-4464.411110389913
 21
-3006.999928139363
 31
0.0
  0
LINE
  5
258
330
1F
100
AcDbEntity
  8
0-4_枠
  6
Continuous
 62
    92
370
    13
100
AcDbLine
 10
-4474.999495325857
 20
-3022.00021424165
 30
0.0
 11
-4498.999495325861
 21
-3022.00021424165
 31
0.0
  0
LINE
  5
259
330
1F
100
AcDbEntity
  8
0-4_枠
  6
Continuous
 62
    92
370
    13
100
AcDbLine
 10
-4474.999495325857
 20
-3094.00021424165
 30
0.0
 11
-4474.999495325857
 21
-3022.00021424165
 31
0.0
  0
LINE
  5
25A
330
1F
100
AcDbEntity
  8
0-4_枠
  6
Continuous
 62
    92
370
    13
100
AcDbLine
 10
-4072.999495325858
 20
-3094.00021424165
 30
0.0
 11
-4474.999495325857
 21
-3094.00021424165
 31
0.0
  0
LINE
  5
25B
330
1F
100
AcDbEntity
  8
0-4_枠
  6
Continuous
 62
    92
370
    13
100
AcDbLine
 10
-4072.999495325858
 20
-3094.00021424165
 30
0.0
 11
-4072.999495325858
 21
-3022.00021424165
 31
0.0
  0
LINE
  5
25C
330
1F
100
AcDbEntity
  8
0-4_枠
  6
Continuous
 62
    92
370
    13
100
AcDbLine
 10
-4072.999495325858
 20
-3022.00021424165
 30
0.0
 11
-4048.999495325861
 21
-3022.00021424165
 31
0.0
  0
LINE
  5
25D
330
1F
100
AcDbEntity
  8
0-C_ハッチ
  6
Continuous
 62
   120
370
     5
100
AcDbLine
 10
-4474.999495325857
 20
-3076.985282695004
 30
0.0
 11
-4405.014140770198
 21
-3006.999928139348
 31
0.0
  0
LINE
  5
25E
330
1F
100
AcDbEntity
  8
0-C_ハッチ
  6
Continuous
 62
   120
370
     5
100
AcDbLine
 10
-4135.632609154509
 20
-3094.00021424165
 30
0.0
 11
-4072.999495325858
 21
-3031.367100413003
 31
0.0
  0
LINE
  5
25F
330
1F
100
AcDbEntity
  8
0-B_寸法
  6
Continuous
 62
   120
370
     5
100
AcDbLine
 10
-4480.999495325857
 20
-3334.00021424165
 30
0.0
 11
-4474.999495325857
 21
-3334.00021424165
 31
0.0
  0
LWPOLYLINE
  5
260
330
1F
100
AcDbEntity
  8
0-B_寸法
  6
Continuous
 62
     7
370
     9
100
AcDbPolyline
 90
        4
 70
     1
 43
3.0
 10
-4479.499495325857
 20
-3334.00021424165
 42
0.4142135623731
 10
-4480.999495325857
 20
-3332.50021424165
 42
0.4142135623731
 10
-4482.499495325857
 20
-3334.00021424165
 42
0.4142135623731
 10
-4480.999495325857
 20
-3335.50021424165
 42
0.4142135623731
  0
LWPOLYLINE
  5
261
330
1F
100
AcDbEntity
  8
0-B_寸法
  6
Continuous
 62
     7
370
     9
100
AcDbPolyline
 90
        4
 70
     1
 43
3.0
 10
-4473.499495325857
 20
-3334.00021424165
 42
0.4142135623731
 10
-4474.999495325857
 20
-3332.50021424165
 42
0.4142135623731
 10
-4476.499495325857
 20
-3334.00021424165
 42
0.4142135623731
 10
-4474.999495325857
 20
-3335.50021424165
 42
0.4142135623731
  0
LINE
  5
262
330
1F
100
AcDbEntity
  8
0-B_寸法
  6
Continuous
 62
   120
370
     5
100
AcDbLine
 10
-4480.999495325857
 20
-3334.00021424165
 30
0.0
 11
-4480.999495325857
 21
-3154.00021424165
 31
0.0
  0
LINE
  5
263
330
1F
100
AcDbEntity
  8
0-B_寸法
  6
Continuous
 62
   120
370
     5
100
AcDbLine
 10
-4474.999495325857
 20
-3334.00021424165
 30
0.0
 11
-4474.999495325857
 21
-3154.00021424165
 31
0.0
  0
LINE
  5
264
330
1F
100
AcDbEntity
  8
0-B_寸法
  6
Continuous
 62
   120
370
     5
100
AcDbLine
 10
-4474.999495325857
 20
-3334.00021424165
 30
0.0
 11
-4072.999495325858
 21
-3334.00021424165
 31
0.0
  0
LWPOLYLINE
  5
265
330
1F
100
AcDbEntity
  8
0-B_寸法
  6
Continuous
 62
     7
370
     9
100
AcDbPolyline
 90
        4
 70
     1
 43
3.0
 10
-4071.499495325857
 20
-3334.00021424165
 42
0.4142135623731
 10
-4072.999495325858
 20
-3332.50021424165
 42
0.4142135623731
 10
-4074.499495325858
 20
-3334.00021424165
 42
0.4142135623731
 10
-4072.999495325858
 20
-3335.50021424165
 42
0.4142135623731
  0
LINE
  5
266
330
1F
100
AcDbEntity
  8
0-B_寸法
  6
Continuous
 62
   120
370
     5
100
AcDbLine
 10
-4072.999495325858
 20
-3334.00021424165
 30
0.0
 11
-4072.999495325858
 21
-3154.00021424165
 31
0.0
  0
MTEXT
  5
267
330
1F
100
AcDbEntity
  8
0-B_寸法
  6
Continuous
 62
     7
370
   211
100
AcDbMText
 10
-4337.749495325857
 20
-3330.42271424165
 30
0.0
 40
97.15499999999999
 41
127.5
 46
0.0
 71
     7
 72
     1
  1
{\fＭＳ ゴシック|b0|i0|c128|p49;67}
 73
     1
 44
1.0
  0
LINE
  5
268
330
1F
100
AcDbEntity
  8
0-B_寸法
  6
Continuous
 62
   120
370
     5
100
AcDbLine
 10
-4072.999495325858
 20
-3334.00021424165
 30
0.0
 11
-4066.999495325859
 21
-3334.00021424165
 31
0.0
  0
LWPOLYLINE
  5
269
330
1F
100
AcDbEntity
  8
0-B_寸法
  6
Continuous
 62
     7
370
     9
100
AcDbPolyline
 90
        4
 70
     1
 43
3.0
 10
-4065.499495325858
 20
-3334.00021424165
 42
0.4142135623731
 10
-4066.999495325859
 20
-3332.50021424165
 42
0.4142135623731
 10
-4068.499495325859
 20
-3334.00021424165
 42
0.4142135623731
 10
-4066.999495325859
 20
-3335.50021424165
 42
0.4142135623731
  0
LINE
  5
26A
330
1F
100
AcDbEntity
  8
0-B_寸法
  6
Continuous
 62
   120
370
     5
100
AcDbLine
 10
-4066.999495325859
 20
-3334.00021424165
 30
0.0
 11
-4066.999495325859
 21
-3154.00021424165
 31
0.0
  0
MTEXT
  5
26B
330
1F
100
AcDbEntity
  8
0-B_寸法
  6
Continuous
 62
     7
370
   211
100
AcDbMText
 10
-4561.999495325857
 20
-3333.28021424165
 30
0.0
 40
91.44
 41
60.0
 46
0.0
 71
     7
 72
     1
  1
{\fＭＳ ゴシック|b0|i0|c128|p49;1}
 73
     1
 44
1.0
  0
MTEXT
  5
26C
330
1F
100
AcDbEntity
  8
0-B_寸法
  6
Continuous
 62
     7
370
   211
100
AcDbMText
 10
-4045.999495325858
 20
-3333.28021424165
 30
0.0
 40
91.44
 41
60.0
 46
0.0
 71
     7
 72
     1
  1
{\fＭＳ ゴシック|b0|i0|c128|p49;1}
 73
     1
 44
1.0
  0
MTEXT
  5
26D
330
1F
100
AcDbEntity
  8
0-A_文字
  6
Continuous
 62
     7
370
     9
100
AcDbMText
 10
-5112.301570896749
 20
2827.488583388549
 30
0.0
 40
101.2371428571429
 41
930.0
 46
0.0
 71
     7
 72
     1
  1
{\fＭＳ ゴシック|b0|i0|c128|p49;■ドア横断面図}
 73
     1
 44
1.0
  0
LWPOLYLINE
  5
26E
330
1F
100
AcDbEntity
  8
0-B_寸法
  6
Continuous
 62
     7
370
     9
100
AcDbPolyline
 90
        4
 70
     1
 43
3.0
 10
1271.495815781165
 20
789.4319116986574
 42
0.4142135623731
 10
1269.995815781166
 20
790.9319116986575
 42
0.4142135623731
 10
1268.495815781166
 20
789.4319116986574
 42
0.4142135623731
 10
1269.995815781166
 20
787.9319116986574
 42
0.4142135623731
  0
LINE
  5
26F
330
1F
100
AcDbEntity
  8
0-B_寸法
  6
Continuous
 62
   120
370
     5
100
AcDbLine
 10
1269.995815781166
 20
789.4319116986574
 30
0.0
 11
1269.995815781166
 21
1419.431911698658
 31
0.0
  0
LINE
  5
270
330
1F
100
AcDbEntity
  8
0-B_寸法
  6
Continuous
 62
   120
370
     5
100
AcDbLine
 10
1413.995815781166
 20
999.4319116986574
 30
0.0
 11
1413.995815781166
 21
1419.431911698658
 31
0.0
  0
MTEXT
  5
271
330
1F
100
AcDbEntity
  8
0-B_寸法
  6
Continuous
 62
     7
370
   211
100
AcDbMText
 10
1281.995815781167
 20
1000.151911698657
 30
0.0
 40
91.44
 41
120.0
 46
0.0
 71
     7
 72
     1
  1
{\fＭＳ ゴシック|b0|i0|c128|p49;24}
 73
     1
 44
1.0
  0
LWPOLYLINE
  5
272
330
1F
100
AcDbEntity
  8
0-B_寸法
  6
Continuous
 62
     7
370
     9
100
AcDbPolyline
 90
        4
 70
     1
 43
3.0
 10
1271.495815781165
 20
999.4319116986574
 42
0.4142135623731
 10
1269.995815781166
 20
1000.931911698657
 42
0.4142135623731
 10
1268.495815781166
 20
999.4319116986574
 42
0.4142135623731
 10
1269.995815781166
 20
997.9319116986575
 42
0.4142135623731
  0
LWPOLYLINE
  5
273
330
1F
100
AcDbEntity
  8
0-B_寸法
  6
Continuous
 62
     7
370
     9
100
AcDbPolyline
 90
        4
 70
     1
 43
3.0
 10
1415.495815781166
 20
999.4319116986574
 42
0.4142135623731
 10
1413.995815781166
 20
1000.931911698657
 42
0.4142135623731
 10
1412.495815781166
 20
999.4319116986574
 42
0.4142135623731
 10
1413.995815781166
 20
997.9319116986575
 42
0.4142135623731
  0
LWPOLYLINE
  5
274
330
1F
100
AcDbEntity
  8
0-B_寸法
  6
Continuous
 62
     7
370
     9
100
AcDbPolyline
 90
        4
 70
     1
 43
3.0
 10
1415.495815781166
 20
1209.431911698657
 42
0.4142135623731
 10
1413.995815781166
 20
1210.931911698657
 42
0.4142135623731
 10
1412.495815781166
 20
1209.431911698657
 42
0.4142135623731
 10
1413.995815781166
 20
1207.931911698658
 42
0.4142135623731
  0
MTEXT
  5
275
330
1F
100
AcDbEntity
  8
0-B_寸法
  6
Continuous
 62
     7
370
     0
100
AcDbMText
 10
1707.525805467242
 20
1960.151911698657
 30
0.0
 40
91.44
 41
180.0
 46
0.0
 71
     7
 72
     1
  1
{\fＭＳ ゴシック|b0|i0|c128|p49;155}
 11
6.123031769111886E-17
 21
1.0
 31
0.0
 73
     1
 44
1.0
  0
LINE
  5
276
330
1F
100
AcDbEntity
  8
0-C_ハッチ
  6
JWW_DASHED1
 62
   120
370
     5
100
AcDbLine
 10
518.1028918625398
 20
2379.43191169866
 30
0.0
 11
593.1028918625348
 21
2454.431911698658
 31
0.0
  0
LINE
  5
277
330
1F
100
AcDbEntity
  8
0-C_ハッチ
  6
JWW_DASHED1
 62
   120
370
     5
100
AcDbLine
 10
475.6764849913262
 20
2379.431911698646
 30
0.0
 11
550.6764849913397
 21
2454.43191169866
 31
0.0
  0
LINE
  5
278
330
1F
100
AcDbEntity
  8
0-C_ハッチ
  6
JWW_DASHED1
 62
   120
370
     5
100
AcDbLine
 10
433.2500781201296
 20
2379.431911698649
 30
0.0
 11
508.2500781201432
 21
2454.431911698663
 31
0.0
  0
LINE
  5
279
330
1F
100
AcDbEntity
  8
0-C_ハッチ
  6
JWW_DASHED1
 62
   120
370
     5
100
AcDbLine
 10
390.8236712489892
 20
2379.431911698656
 30
0.0
 11
465.8236712489756
 21
2454.431911698644
 31
0.0
  0
LINE
  5
27A
330
1F
100
AcDbEntity
  8
0-C_ハッチ
  6
JWW_DASHED1
 62
   120
370
     5
100
AcDbLine
 10
491.9254018016309
 20
1674.431911698658
 30
0.0
 11
566.9254018016259
 21
1749.431911698657
 31
0.0
  0
LINE
  5
27B
330
1F
100
AcDbEntity
  8
0-C_ハッチ
  6
JWW_DASHED1
 62
   120
370
     5
100
AcDbLine
 10
449.4989949304122
 20
1674.431911698644
 30
0.0
 11
524.4989949304309
 21
1749.43191169866
 31
0.0
  0
LINE
  5
27C
330
1F
100
AcDbEntity
  8
0-C_ハッチ
  6
JWW_DASHED1
 62
   120
370
     5
100
AcDbLine
 10
407.0725880592173
 20
1674.431911698648
 30
0.0
 11
482.0725880592343
 21
1749.431911698663
 31
0.0
  0
LINE
  5
27D
330
1F
100
AcDbEntity
  8
0-C_ハッチ
  6
JWW_DASHED1
 62
   120
370
     5
100
AcDbLine
 10
364.6461811880786
 20
1674.431911698656
 30
0.0
 11
439.6461811880667
 21
1749.431911698644
 31
0.0
  0
LWPOLYLINE
  5
27E
330
1F
100
AcDbEntity
  8
0-B_寸法
  6
Continuous
 62
     7
370
     9
100
AcDbPolyline
 90
        4
 70
     1
 43
3.0
 10
1724.025805467242
 20
1599.431911698658
 42
0.4142135623731
 10
1722.525805467242
 20
1600.931911698658
 42
0.4142135623731
 10
1721.025805467242
 20
1599.431911698658
 42
0.4142135623731
 10
1722.525805467242
 20
1597.931911698658
 42
0.4142135623731
  0
LWPOLYLINE
  5
27F
330
1F
100
AcDbEntity
  8
0-B_寸法
  6
Continuous
 62
     7
370
     9
100
AcDbPolyline
 90
        4
 70
     1
 43
3.0
 10
1724.025805467242
 20
2529.431911698658
 42
0.4142135623731
 10
1722.525805467242
 20
2530.931911698657
 42
0.4142135623731
 10
1721.025805467242
 20
2529.431911698658
 42
0.4142135623731
 10
1722.525805467242
 20
2527.931911698658
 42
0.4142135623731
  0
LINE
  5
280
330
1F
100
AcDbEntity
  8
0-B_寸法
  6
Continuous
 62
   120
370
     5
100
AcDbLine
 10
1722.525805467242
 20
2529.431911698658
 30
0.0
 11
1722.525805467242
 21
1599.431911698658
 31
0.0
  0
LINE
  5
281
330
1F
100
AcDbEntity
  8
0-B_寸法
  6
Continuous
 62
   120
370
     5
100
AcDbLine
 10
1722.525805467242
 20
1599.431911698658
 30
0.0
 11
1515.393666643643
 21
1599.431911698658
 31
0.0
  0
LINE
  5
282
330
1F
100
AcDbEntity
  8
0-B_寸法
  6
Continuous
 62
   120
370
     5
100
AcDbLine
 10
1722.525805467242
 20
2529.431911698658
 30
0.0
 11
1515.393666643643
 21
2529.431911698658
 31
0.0
  0
LINE
  5
283
330
1F
100
AcDbEntity
  8
0-3_仕上げ
  6
Continuous
 62
    92
370
    13
100
AcDbLine
 10
588.9958157811659
 20
2379.431911698669
 30
0.0
 11
588.9958157811659
 21
1749.431911698665
 31
0.0
  0
LINE
  5
284
330
1F
100
AcDbEntity
  8
0-3_仕上げ
  6
Continuous
 62
     7
370
     9
100
AcDbLine
 10
1218.995815781166
 20
1749.431911698665
 30
0.0
 11
588.9958157811659
 21
2379.431911698669
 31
0.0
  0
LINE
  5
285
330
1F
100
AcDbEntity
  8
0-3_仕上げ
  6
Continuous
 62
     7
370
     9
100
AcDbLine
 10
588.9958157811659
 20
1749.431911698665
 30
0.0
 11
1218.995815781166
 21
2379.431911698669
 31
0.0
  0
LINE
  5
286
330
1F
100
AcDbEntity
  8
0-C_ハッチ
  6
JWW_DASHED1
 62
   120
370
     5
100
AcDbLine
 10
687.8085193472887
 20
2379.431911698671
 30
0.0
 11
762.8085193472853
 21
2454.431911698671
 31
0.0
  0
LINE
  5
287
330
1F
100
AcDbEntity
  8
0-C_ハッチ
  6
JWW_DASHED1
 62
   120
370
     5
100
AcDbLine
 10
645.3821124760716
 20
2379.431911698654
 30
0.0
 11
720.3821124760852
 21
2454.431911698669
 31
0.0
  0
LINE
  5
288
330
1F
100
AcDbEntity
  8
0-C_ハッチ
  6
JWW_DASHED1
 62
   120
370
     5
100
AcDbLine
 10
602.9557056048716
 20
2379.431911698656
 30
0.0
 11
677.9557056048852
 21
2454.431911698671
 31
0.0
  0
LINE
  5
289
330
1F
100
AcDbEntity
  8
0-C_ハッチ
  6
JWW_DASHED1
 62
   120
370
     5
100
AcDbLine
 10
560.529298733733
 20
2379.431911698661
 30
0.0
 11
635.5292987337211
 21
2454.431911698654
 31
0.0
  0
LINE
  5
28A
330
1F
100
AcDbEntity
  8
0-C_ハッチ
  6
JWW_DASHED1
 62
   120
370
     5
100
AcDbLine
 10
704.0574361575764
 20
1674.431911698671
 30
0.0
 11
779.0574361575764
 21
1749.431911698669
 31
0.0
  0
LINE
  5
28B
330
1F
100
AcDbEntity
  8
0-C_ハッチ
  6
JWW_DASHED1
 62
   120
370
     5
100
AcDbLine
 10
661.6310292863661
 20
1674.431911698657
 30
0.0
 11
736.6310292863798
 21
1749.431911698674
 31
0.0
  0
LINE
  5
28C
330
1F
100
AcDbEntity
  8
0-C_ハッチ
  6
JWW_DASHED1
 62
   120
370
     5
100
AcDbLine
 10
619.2046224151695
 20
1674.431911698661
 30
0.0
 11
694.2046224151832
 21
1749.431911698674
 31
0.0
  0
LINE
  5
28D
330
1F
100
AcDbEntity
  8
0-C_ハッチ
  6
JWW_DASHED1
 62
   120
370
     5
100
AcDbLine
 10
576.7782155440207
 20
1674.431911698658
 30
0.0
 11
651.7782155440123
 21
1749.431911698651
 31
0.0
  0
LINE
  5
28E
330
1F
100
AcDbEntity
  8
0-C_ハッチ
  6
JWW_DASHED1
 62
   120
370
     5
100
AcDbLine
 10
534.3518086728207
 20
1674.43191169866
 30
0.0
 11
609.3518086728122
 21
1749.431911698654
 31
0.0
  0
LINE
  5
28F
330
1F
100
AcDbEntity
  8
0-C_ハッチ
  6
JWW_DASHED1
 62
   120
370
     5
100
AcDbLine
 10
821.48384302879
 20
1749.431911698665
 30
0.0
 11
746.4838430287798
 21
1674.431911698654
 31
0.0
  0
LINE
  5
290
330
1F
100
AcDbEntity
  8
0-C_ハッチ
  6
JWW_DASHED1
 62
   120
370
     5
100
AcDbLine
 10
863.91024989999
 20
1749.431911698665
 30
0.0
 11
788.9102498999935
 21
1674.431911698668
 31
0.0
  0
LINE
  5
291
330
1F
100
AcDbEntity
  8
0-C_ハッチ
  6
JWW_DASHED1
 62
   120
370
     5
100
AcDbLine
 10
906.3366567711851
 20
1749.431911698661
 30
0.0
 11
831.3366567711901
 21
1674.431911698664
 31
0.0
  0
LINE
  5
292
330
1F
100
AcDbEntity
  8
0-C_ハッチ
  6
JWW_DASHED1
 62
   120
370
     5
100
AcDbLine
 10
948.7630636423253
 20
1749.431911698654
 30
0.0
 11
873.7630636423287
 21
1674.431911698657
 31
0.0
  0
LINE
  5
293
330
1F
100
AcDbEntity
  8
0-C_ハッチ
  6
JWW_DASHED1
 62
   120
370
     5
100
AcDbLine
 10
991.1894705135219
 20
1749.431911698651
 30
0.0
 11
916.1894705135253
 21
1674.431911698654
 31
0.0
  0
LINE
  5
294
330
1F
100
AcDbEntity
  8
0-C_ハッチ
  6
JWW_DASHED1
 62
   120
370
     5
100
AcDbLine
 10
1033.615877384722
 20
1749.431911698649
 30
0.0
 11
958.6158773847253
 21
1674.431911698653
 31
0.0
  0
LINE
  5
295
330
1F
100
AcDbEntity
  8
0-C_ハッチ
  6
JWW_DASHED1
 62
   120
370
     5
100
AcDbLine
 10
1076.042284255936
 20
1749.431911698663
 30
0.0
 11
1001.042284255922
 21
1674.431911698649
 31
0.0
  0
LINE
  5
296
330
1F
100
AcDbEntity
  8
0-C_ハッチ
  6
JWW_DASHED1
 62
   120
370
     5
100
AcDbLine
 10
1118.468691127136
 20
1749.431911698665
 30
0.0
 11
1043.468691127125
 21
1674.431911698654
 31
0.0
  0
LINE
  5
297
330
1F
100
AcDbEntity
  8
0-C_ハッチ
  6
JWW_DASHED1
 62
   120
370
     5
100
AcDbLine
 10
1160.895097998344
 20
1749.431911698674
 30
0.0
 11
1085.895097998344
 21
1674.431911698674
 31
0.0
  0
LINE
  5
298
330
1F
100
AcDbEntity
  8
0-C_ハッチ
  6
JWW_DASHED1
 62
   120
370
     5
100
AcDbLine
 10
1203.321504869542
 20
1749.431911698669
 30
0.0
 11
1128.321504869544
 21
1674.431911698674
 31
0.0
  0
LINE
  5
299
330
1F
100
AcDbEntity
  8
0-C_ハッチ
  6
JWW_DASHED1
 62
   120
370
     5
100
AcDbLine
 10
1245.747911740739
 20
1749.431911698668
 30
0.0
 11
1170.747911740742
 21
1674.431911698671
 31
0.0
  0
LINE
  5
29A
330
1F
100
AcDbEntity
  8
0-C_ハッチ
  6
JWW_DASHED1
 62
   120
370
     5
100
AcDbLine
 10
1269.99581578116
 20
1731.253408867944
 30
0.0
 11
1213.174318611881
 21
1674.431911698664
 31
0.0
  0
LINE
  5
29B
330
1F
100
AcDbEntity
  8
0-C_ハッチ
  6
JWW_DASHED1
 62
   120
370
     5
100
AcDbLine
 10
1269.995815781164
 20
1688.827001996745
 30
0.0
 11
1255.600725483076
 21
1674.431911698661
 31
0.0
  0
LINE
  5
29C
330
1F
100
AcDbEntity
  8
0-C_ハッチ
  6
JWW_DASHED1
 62
   120
370
     5
100
AcDbLine
 10
805.2349262184803
 20
2454.431911698668
 30
0.0
 11
730.2349262184784
 21
2379.431911698642
 31
0.0
  0
LINE
  5
29D
330
1F
100
AcDbEntity
  8
0-C_ハッチ
  6
JWW_DASHED1
 62
   120
370
     5
100
AcDbLine
 10
847.6613330896989
 20
2454.431911698665
 30
0.0
 11
772.6613330897057
 21
2379.431911698669
 31
0.0
  0
LINE
  5
29E
330
1F
100
AcDbEntity
  8
0-C_ハッチ
  6
JWW_DASHED1
 62
   120
370
     5
100
AcDbLine
 10
890.0877399609024
 20
2454.431911698667
 30
0.0
 11
815.0877399609024
 21
2379.431911698668
 31
0.0
  0
LINE
  5
29F
330
1F
100
AcDbEntity
  8
0-C_ハッチ
  6
JWW_DASHED1
 62
   120
370
     5
100
AcDbLine
 10
932.514146832099
 20
2454.431911698663
 30
0.0
 11
857.514146832099
 21
2379.431911698665
 31
0.0
  0
LINE
  5
2A0
330
1F
100
AcDbEntity
  8
0-C_ハッチ
  6
JWW_DASHED1
 62
   120
370
     5
100
AcDbLine
 10
974.940553703294
 20
2454.431911698661
 30
0.0
 11
899.940553703299
 21
2379.431911698665
 31
0.0
  0
LINE
  5
2A1
330
1F
100
AcDbEntity
  8
0-C_ハッチ
  6
JWW_DASHED1
 62
   120
370
     5
100
AcDbLine
 10
1017.366960574434
 20
2454.431911698654
 30
0.0
 11
942.3669605744376
 21
2379.431911698658
 31
0.0
  0
LINE
  5
2A2
330
1F
100
AcDbEntity
  8
0-C_ハッチ
  6
JWW_DASHED1
 62
   120
370
     5
100
AcDbLine
 10
1059.793367445631
 20
2454.431911698652
 30
0.0
 11
984.7933674456342
 21
2379.431911698654
 31
0.0
  0
LINE
  5
2A3
330
1F
100
AcDbEntity
  8
0-C_ハッチ
  6
JWW_DASHED1
 62
   120
370
     5
100
AcDbLine
 10
1102.219774316844
 20
2454.431911698665
 30
0.0
 11
1027.219774316831
 21
2379.431911698652
 31
0.0
  0
LINE
  5
2A4
330
1F
100
AcDbEntity
  8
0-C_ハッチ
  6
JWW_DASHED1
 62
   120
370
     5
100
AcDbLine
 10
1144.646181188044
 20
2454.431911698665
 30
0.0
 11
1069.646181188034
 21
2379.431911698654
 31
0.0
  0
LINE
  5
2A5
330
1F
100
AcDbEntity
  8
0-C_ハッチ
  6
JWW_DASHED1
 62
   120
370
     5
100
AcDbLine
 10
1187.072588059239
 20
2454.431911698661
 30
0.0
 11
1112.072588059248
 21
2379.431911698667
 31
0.0
  0
LINE
  5
2A6
330
1F
100
AcDbEntity
  8
0-C_ハッチ
  6
JWW_DASHED1
 62
   120
370
     5
100
AcDbLine
 10
1229.498994930451
 20
2454.431911698671
 30
0.0
 11
1154.498994930453
 21
2379.431911698674
 31
0.0
  0
LINE
  5
2A7
330
1F
100
AcDbEntity
  8
0-C_ハッチ
  6
JWW_DASHED1
 62
   120
370
     5
100
AcDbLine
 10
1269.995815781152
 20
2452.502325678173
 30
0.0
 11
1196.925401801651
 21
2379.431911698671
 31
0.0
  0
LINE
  5
2A8
330
1F
100
AcDbEntity
  8
0-C_ハッチ
  6
JWW_DASHED1
 62
   120
370
     5
100
AcDbLine
 10
1269.995815781152
 20
2410.075918806973
 30
0.0
 11
1239.351808672848
 21
2379.431911698668
 31
0.0
  0
LINE
  5
2A9
330
1F
100
AcDbEntity
  8
0-3_仕上げ
  6
Continuous
 62
    92
370
    13
100
AcDbLine
 10
1218.995815781166
 20
2379.431911698669
 30
0.0
 11
1218.995815781166
 21
1749.431911698665
 31
0.0
  0
MTEXT
  5
2AA
330
1F
100
AcDbEntity
  8
0-A_文字
  6
Continuous
 62
     7
370
     9
100
AcDbMText
 10
909.9958157811673
 20
1435.151911698658
 30
0.0
 40
91.44000000000011
 41
720.0000000000009
 46
0.0
 71
     7
 72
     1
  1
{\fＭＳ ゴシック|b0|i0|c128|p49;（ラッチ側）}
 73
     1
 44
1.0
  0
LINE
  5
2AB
330
1F
100
AcDbEntity
  8
0-0_補助線
  6
JWW_HOJO
 62
   120
370
     5
100
AcDbLine
 10
3063.995815781166
 20
2709.431911698658
 30
0.0
 11
3063.995815781166
 21
1419.431911698657
 31
0.0
  0
LINE
  5
2AC
330
1F
100
AcDbEntity
  8
0-0_補助線
  6
JWW_HOJO
 62
   120
370
     5
100
AcDbLine
 10
2943.995815781166
 20
2709.431911698658
 30
0.0
 11
2943.995815781166
 21
1419.431911698657
 31
0.0
  0
LINE
  5
2AD
330
1F
100
AcDbEntity
  8
0-B_寸法
  6
Continuous
 62
   120
370
     5
100
AcDbLine
 10
4719.995815781165
 20
789.4319116986574
 30
0.0
 11
4719.995815781165
 21
1419.431911698658
 31
0.0
  0
LWPOLYLINE
  5
2AE
330
1F
100
AcDbEntity
  8
0-B_寸法
  6
Continuous
 62
     7
370
     9
100
AcDbPolyline
 90
        4
 70
     1
 43
3.0
 10
4721.495815781165
 20
789.4319116986574
 42
0.4142135623731
 10
4719.995815781165
 20
790.9319116986575
 42
0.4142135623731
 10
4718.495815781164
 20
789.4319116986574
 42
0.4142135623731
 10
4719.995815781165
 20
787.9319116986574
 42
0.4142135623731
  0
LINE
  5
2AF
330
1F
100
AcDbEntity
  8
0-B_寸法
  6
Continuous
 62
   120
370
     5
100
AcDbLine
 10
4575.995815781166
 20
1209.431911698657
 30
0.0
 11
1413.995815781166
 21
1209.431911698657
 31
0.0
  0
LINE
  5
2B0
330
1F
100
AcDbEntity
  8
0-B_寸法
  6
Continuous
 62
   120
370
     5
100
AcDbLine
 10
4575.995815781166
 20
999.4319116986574
 30
0.0
 11
4575.995815781166
 21
1419.431911698658
 31
0.0
  0
MTEXT
  5
2B1
330
1F
100
AcDbEntity
  8
0-B_寸法
  6
Continuous
 62
     7
370
   211
100
AcDbMText
 10
4587.995815781164
 20
1000.151911698657
 30
0.0
 40
91.44
 41
120.0
 46
0.0
 71
     7
 72
     1
  1
{\fＭＳ ゴシック|b0|i0|c128|p49;24}
 73
     1
 44
1.0
  0
LWPOLYLINE
  5
2B2
330
1F
100
AcDbEntity
  8
0-B_寸法
  6
Continuous
 62
     7
370
     9
100
AcDbPolyline
 90
        4
 70
     1
 43
3.0
 10
4577.495815781166
 20
999.4319116986574
 42
0.4142135623731
 10
4575.995815781166
 20
1000.931911698657
 42
0.4142135623731
 10
4574.495815781166
 20
999.4319116986574
 42
0.4142135623731
 10
4575.995815781166
 20
997.9319116986575
 42
0.4142135623731
  0
LWPOLYLINE
  5
2B3
330
1F
100
AcDbEntity
  8
0-B_寸法
  6
Continuous
 62
     7
370
     9
100
AcDbPolyline
 90
        4
 70
     1
 43
3.0
 10
4721.495815781165
 20
999.4319116986574
 42
0.4142135623731
 10
4719.995815781165
 20
1000.931911698657
 42
0.4142135623731
 10
4718.495815781164
 20
999.4319116986574
 42
0.4142135623731
 10
4719.995815781165
 20
997.9319116986575
 42
0.4142135623731
  0
LINE
  5
2B4
330
1F
100
AcDbEntity
  8
0-B_寸法
  6
Continuous
 62
   120
370
     5
100
AcDbLine
 10
4719.995815781165
 20
999.4319116986574
 30
0.0
 11
1269.995815781166
 21
999.4319116986574
 31
0.0
  0
LWPOLYLINE
  5
2B5
330
1F
100
AcDbEntity
  8
0-B_寸法
  6
Continuous
 62
     7
370
     9
100
AcDbPolyline
 90
        4
 70
     1
 43
3.0
 10
4577.495815781166
 20
1209.431911698657
 42
0.4142135623731
 10
4575.995815781166
 20
1210.931911698657
 42
0.4142135623731
 10
4574.495815781166
 20
1209.431911698657
 42
0.4142135623731
 10
4575.995815781166
 20
1207.931911698658
 42
0.4142135623731
  0
LINE
  5
2B6
330
1F
100
AcDbEntity
  8
0-C_ハッチ
  6
JWW_DASHED1
 62
   120
370
     5
100
AcDbLine
 10
4719.995815781165
 20
1715.787904590331
 30
0.0
 11
4753.639822889484
 21
1749.431911698647
 31
0.0
  0
LINE
  5
2B7
330
1F
100
AcDbEntity
  8
0-C_ハッチ
  6
JWW_DASHED1
 62
   120
370
     5
100
AcDbLine
 10
4720.531022770931
 20
1673.896704708892
 30
0.0
 11
4796.06622976068
 21
1749.431911698644
 31
0.0
  0
LINE
  5
2B8
330
1F
100
AcDbEntity
  8
0-C_ハッチ
  6
JWW_DASHED1
 62
   120
370
     5
100
AcDbLine
 10
4719.995815781165
 20
2437.036821400566
 30
0.0
 11
4737.390906079257
 21
2454.431911698654
 31
0.0
  0
LINE
  5
2B9
330
1F
100
AcDbEntity
  8
0-C_ハッチ
  6
JWW_DASHED1
 62
   120
370
     5
100
AcDbLine
 10
4719.995815781165
 20
2394.610414529367
 30
0.0
 11
4779.817312950452
 21
2454.431911698652
 31
0.0
  0
LINE
  5
2BA
330
1F
100
AcDbEntity
  8
0-3_仕上げ
  6
Continuous
 62
    92
370
    13
100
AcDbLine
 10
5040.995815781164
 20
1749.431911698657
 30
0.0
 11
5040.995815781164
 21
2379.431911698658
 31
0.0
  0
LINE
  5
2BB
330
1F
100
AcDbEntity
  8
0-3_仕上げ
  6
Continuous
 62
    92
370
    13
100
AcDbLine
 10
4770.995815781164
 20
2379.431911698658
 30
0.0
 11
4770.995815781164
 21
1749.431911698657
 31
0.0
  0
LINE
  5
2BC
330
1F
100
AcDbEntity
  8
0-3_仕上げ
  6
Continuous
 62
     7
370
     9
100
AcDbLine
 10
5040.995815781164
 20
1749.431911698657
 30
0.0
 11
4770.995815781164
 21
2379.431911698658
 31
0.0
  0
LINE
  5
2BD
330
1F
100
AcDbEntity
  8
0-C_ハッチ
  6
JWW_DASHED1
 62
   120
370
     5
100
AcDbLine
 10
5001.802161048809
 20
2379.431911698665
 30
0.0
 11
5076.802161048804
 21
2454.431911698661
 31
0.0
  0
LINE
  5
2BE
330
1F
100
AcDbEntity
  8
0-C_ハッチ
  6
JWW_DASHED1
 62
   120
370
     5
100
AcDbLine
 10
4959.37575417761
 20
2379.431911698667
 30
0.0
 11
5034.375754177609
 21
2454.431911698663
 31
0.0
  0
LINE
  5
2BF
330
1F
100
AcDbEntity
  8
0-C_ハッチ
  6
JWW_DASHED1
 62
   120
370
     5
100
AcDbLine
 10
4916.949347306398
 20
2379.431911698653
 30
0.0
 11
4991.94934730641
 21
2454.431911698667
 31
0.0
  0
LINE
  5
2C0
330
1F
100
AcDbEntity
  8
0-C_ハッチ
  6
JWW_DASHED1
 62
   120
370
     5
100
AcDbLine
 10
4874.522940435198
 20
2379.431911698652
 30
0.0
 11
4949.522940435209
 21
2454.431911698661
 31
0.0
  0
LINE
  5
2C1
330
1F
100
AcDbEntity
  8
0-C_ハッチ
  6
JWW_DASHED1
 62
   120
370
     5
100
AcDbLine
 10
4832.096533563988
 20
2379.431911698642
 30
0.0
 11
4907.096533563983
 21
2454.43191169864
 31
0.0
  0
LINE
  5
2C2
330
1F
100
AcDbEntity
  8
0-C_ハッチ
  6
JWW_DASHED1
 62
   120
370
     5
100
AcDbLine
 10
4789.67012669279
 20
2379.431911698646
 30
0.0
 11
4864.670126692788
 21
2454.431911698642
 31
0.0
  0
LINE
  5
2C3
330
1F
100
AcDbEntity
  8
0-C_ハッチ
  6
JWW_DASHED1
 62
   120
370
     5
100
AcDbLine
 10
4747.243719821596
 20
2379.431911698647
 30
0.0
 11
4822.24371982159
 21
2454.431911698644
 31
0.0
  0
LINE
  5
2C4
330
1F
100
AcDbEntity
  8
0-C_ハッチ
  6
JWW_DASHED1
 62
   120
370
     5
100
AcDbLine
 10
4975.6246709879
 20
1674.431911698661
 30
0.0
 11
5050.624670987895
 21
1749.431911698657
 31
0.0
  0
LINE
  5
2C5
330
1F
100
AcDbEntity
  8
0-C_ハッチ
  6
JWW_DASHED1
 62
   120
370
     5
100
AcDbLine
 10
4933.198264116701
 20
1674.431911698664
 30
0.0
 11
5008.1982641167
 21
1749.431911698661
 31
0.0
  0
LINE
  5
2C6
330
1F
100
AcDbEntity
  8
0-C_ハッチ
  6
JWW_DASHED1
 62
   120
370
     5
100
AcDbLine
 10
4890.771857245489
 20
1674.431911698651
 30
0.0
 11
4965.771857245501
 21
1749.431911698665
 31
0.0
  0
LINE
  5
2C7
330
1F
100
AcDbEntity
  8
0-C_ハッチ
  6
JWW_DASHED1
 62
   120
370
     5
100
AcDbLine
 10
4848.345450374287
 20
1674.431911698651
 30
0.0
 11
4923.345450374298
 21
1749.431911698661
 31
0.0
  0
LINE
  5
2C8
330
1F
100
AcDbEntity
  8
0-C_ハッチ
  6
JWW_DASHED1
 62
   120
370
     5
100
AcDbLine
 10
4805.919043503091
 20
1674.431911698654
 30
0.0
 11
4880.919043503087
 21
1749.431911698649
 31
0.0
  0
LINE
  5
2C9
330
1F
100
AcDbEntity
  8
0-C_ハッチ
  6
JWW_DASHED1
 62
   120
370
     5
100
AcDbLine
 10
4763.49263663188
 20
1674.431911698644
 30
0.0
 11
4838.492636631877
 21
1749.43191169864
 31
0.0
  0
MTEXT
  5
2CA
330
1F
100
AcDbEntity
  8
0-A_文字
  6
Continuous
 62
     7
370
     9
100
AcDbMText
 10
4422.995815781167
 20
1435.151911698658
 30
0.0
 40
91.44
 41
600.0
 46
0.0
 71
     7
 72
     1
  1
{\fＭＳ ゴシック|b0|i0|c128|p49;（丁番側）}
 73
     1
 44
1.0
  0
LINE
  5
2CB
330
1F
100
AcDbEntity
  8
0-B_寸法
  6
Continuous
 62
   120
370
     5
100
AcDbLine
 10
4719.995815781165
 20
789.4319116986574
 30
0.0
 11
1269.995815781166
 21
789.4319116986574
 31
0.0
  0
LINE
  5
2CC
330
1F
100
AcDbEntity
  8
0-3_仕上げ
  6
Continuous
 62
    40
370
    15
100
AcDbLine
 10
1269.995815781166
 20
2454.431911698658
 30
0.0
 11
348.3972643777943
 21
2454.431911698658
 31
0.0
  0
LINE
  5
2CD
330
1F
100
AcDbEntity
  8
0-C_ハッチ
  6
JWW_DASHED1
 62
   120
370
     5
100
AcDbLine
 10
348.3972643777943
 20
2421.85831856986
 30
0.0
 11
380.9708575065875
 21
2454.431911698653
 31
0.0
  0
LINE
  5
2CE
330
1F
100
AcDbEntity
  8
0-C_ハッチ
  6
JWW_DASHED1
 62
   120
370
     5
100
AcDbLine
 10
348.3972643777943
 20
2379.43191169866
 30
0.0
 11
423.3972643777841
 21
2454.431911698649
 31
0.0
  0
LINE
  5
2CF
330
1F
100
AcDbEntity
  8
0-3_仕上げ
  6
Continuous
 62
    40
370
    15
100
AcDbLine
 10
1269.995815781166
 20
2379.431911698658
 30
0.0
 11
348.3972643777926
 21
2379.431911698658
 31
0.0
  0
LINE
  5
2D0
330
1F
100
AcDbEntity
  8
0-3_仕上げ
  6
Continuous
 62
    40
370
    15
100
AcDbLine
 10
1269.995815781166
 20
1749.431911698657
 30
0.0
 11
348.3972643777943
 21
1749.431911698657
 31
0.0
  0
LINE
  5
2D1
330
1F
100
AcDbEntity
  8
0-C_ハッチ
  6
JWW_DASHED1
 62
   120
370
     5
100
AcDbLine
 10
348.3972643777943
 20
1743.03580863077
 30
0.0
 11
354.7933674456786
 21
1749.431911698653
 31
0.0
  0
LINE
  5
2D2
330
1F
100
AcDbEntity
  8
0-C_ハッチ
  6
JWW_DASHED1
 62
   120
370
     5
100
AcDbLine
 10
348.3972643777943
 20
1700.60940175957
 30
0.0
 11
397.2197743168718
 21
1749.431911698647
 31
0.0
  0
LINE
  5
2D3
330
1F
100
AcDbEntity
  8
0-3_仕上げ
  6
Continuous
 62
    40
370
    15
100
AcDbLine
 10
1269.995815781166
 20
1674.431911698657
 30
0.0
 11
348.3972643777943
 21
1674.431911698657
 31
0.0
  0
LINE
  5
2D4
330
1F
100
AcDbEntity
  8
0-B_寸法
  6
Continuous
 62
   120
370
     5
100
AcDbLine
 10
1434.995815781166
 20
1209.431911698657
 30
0.0
 11
1434.995815781166
 21
1419.431911698658
 31
0.0
  0
LWPOLYLINE
  5
2D5
330
1F
100
AcDbEntity
  8
0-B_寸法
  6
Continuous
 62
     7
370
     9
100
AcDbPolyline
 90
        4
 70
     1
 43
3.0
 10
1436.495815781166
 20
1209.431911698657
 42
0.4142135623731
 10
1434.995815781166
 20
1210.931911698657
 42
0.4142135623731
 10
1433.495815781166
 20
1209.431911698657
 42
0.4142135623731
 10
1434.995815781166
 20
1207.931911698658
 42
0.4142135623731
  0
MTEXT
  5
2D6
330
1F
100
AcDbEntity
  8
0-B_寸法
  6
Continuous
 62
     7
370
   211
100
AcDbMText
 10
1445.163104738325
 20
1210.151911698657
 30
0.0
 40
91.43999999999988
 41
179.9999999999998
 46
0.0
 71
     7
 72
     1
  1
{\fＭＳ ゴシック|b0|i0|c128|p49;3.5}
 73
     1
 44
1.0
  0
LINE
  5
2D7
330
1F
100
AcDbEntity
  8
0-B_寸法
  6
Continuous
 62
   120
370
     5
100
AcDbLine
 10
4554.995815781166
 20
1209.431911698657
 30
0.0
 11
4554.995815781166
 21
1419.431911698658
 31
0.0
  0
LWPOLYLINE
  5
2D8
330
1F
100
AcDbEntity
  8
0-B_寸法
  6
Continuous
 62
     7
370
     9
100
AcDbPolyline
 90
        4
 70
     1
 43
3.0
 10
4556.495815781167
 20
1209.431911698657
 42
0.4142135623731
 10
4554.995815781166
 20
1210.931911698657
 42
0.4142135623731
 10
4553.495815781166
 20
1209.431911698657
 42
0.4142135623731
 10
4554.995815781166
 20
1207.931911698658
 42
0.4142135623731
  0
MTEXT
  5
2D9
330
1F
100
AcDbEntity
  8
0-B_寸法
  6
Continuous
 62
     7
370
   211
100
AcDbMText
 10
4362.023892314586
 20
1210.151911698657
 30
0.0
 40
91.44
 41
180.0
 46
0.0
 71
     7
 72
     1
  1
{\fＭＳ ゴシック|b0|i0|c128|p49;3.5}
 73
     1
 44
1.0
  0
LINE
  5
2DA
330
1F
100
AcDbEntity
  8
0-7_金物
  6
Continuous
 62
     7
370
     9
100
AcDbLine
 10
1434.995815781166
 20
1722.431911698658
 30
0.0
 11
1482.995815781166
 21
1722.431911698658
 31
0.0
  0
LINE
  5
2DB
330
1F
100
AcDbEntity
  8
0-7_金物
  6
JWW_CENTER1
 62
     5
370
    25
100
AcDbLine
 10
1357.69541510351
 20
1782.431911698658
 30
0.0
 11
1576.210487575072
 21
1782.431911698658
 31
0.0
  0
LINE
  5
2DC
330
1F
100
AcDbEntity
  8
0-7_金物
  6
JWW_DASHED1
 62
     5
370
    25
100
AcDbLine
 10
1482.995815781166
 20
1806.431911698657
 30
0.0
 11
1512.995815781166
 21
1806.431911698657
 31
0.0
  0
LINE
  5
2DD
330
1F
100
AcDbEntity
  8
0-7_金物
  6
JWW_DASHED1
 62
     5
370
    25
100
AcDbLine
 10
1512.995815781166
 20
1758.431911698658
 30
0.0
 11
1512.995815781166
 21
1806.431911698657
 31
0.0
  0
LINE
  5
2DE
330
1F
100
AcDbEntity
  8
0-7_金物
  6
JWW_DASHED1
 62
     5
370
    25
100
AcDbLine
 10
1482.995815781166
 20
1758.431911698658
 30
0.0
 11
1512.995815781166
 21
1758.431911698658
 31
0.0
  0
LINE
  5
2DF
330
1F
100
AcDbEntity
  8
0-7_金物
  6
Continuous
 62
     7
370
     9
100
AcDbLine
 10
4506.995815781167
 20
1722.431911698658
 30
0.0
 11
4554.995815781166
 21
1722.431911698658
 31
0.0
  0
LINE
  5
2E0
330
1F
100
AcDbEntity
  8
0-7_金物
  6
JWW_CENTER1
 62
     5
370
    25
100
AcDbLine
 10
4632.296216458823
 20
1782.431911698658
 30
0.0
 11
4413.781143987261
 21
1782.431911698658
 31
0.0
  0
LINE
  5
2E1
330
1F
100
AcDbEntity
  8
0-7_金物
  6
JWW_DASHED1
 62
     5
370
    25
100
AcDbLine
 10
4506.995815781167
 20
1806.431911698657
 30
0.0
 11
4476.995815781167
 21
1806.431911698657
 31
0.0
  0
LINE
  5
2E2
330
1F
100
AcDbEntity
  8
0-7_金物
  6
JWW_DASHED1
 62
     5
370
    25
100
AcDbLine
 10
4476.995815781167
 20
1758.431911698658
 30
0.0
 11
4476.995815781167
 21
1806.431911698657
 31
0.0
  0
LINE
  5
2E3
330
1F
100
AcDbEntity
  8
0-7_金物
  6
JWW_DASHED1
 62
     5
370
    25
100
AcDbLine
 10
4506.995815781167
 20
1758.431911698658
 30
0.0
 11
4476.995815781167
 21
1758.431911698658
 31
0.0
  0
MTEXT
  5
2E4
330
1F
100
AcDbEntity
  8
0-A_文字
  6
Continuous
 62
     7
370
     9
100
AcDbMText
 10
4358.824175870896
 20
606.1546474997822
 30
0.0
 40
68.58000000000001
 41
720.0
 46
0.0
 71
     7
 72
     1
  1
{\fＭＳ ゴシック|b0|i0|c128|p49;※図示：右吊り元}
 73
     1
 44
1.0
  0
LINE
  5
2E5
330
1F
100
AcDbEntity
  8
0-0_補助線
  6
JWW_HOJO
 62
   120
370
     5
100
AcDbLine
 10
5112.301547699268
 20
1419.431911698657
 30
0.0
 11
5112.301547699268
 21
2709.431911698658
 31
0.0
  0
LINE
  5
2E6
330
1F
100
AcDbEntity
  8
0-3_仕上げ
  6
Continuous
 62
    40
370
    15
100
AcDbLine
 10
5112.301547699268
 20
2454.431911698658
 30
0.0
 11
4719.995815781165
 21
2454.431911698658
 31
0.0
  0
LINE
  5
2E7
330
1F
100
AcDbEntity
  8
0-3_仕上げ
  6
Continuous
 62
    40
370
    15
100
AcDbLine
 10
5112.301547699268
 20
1674.431911698657
 30
0.0
 11
4719.995815781165
 21
1674.431911698657
 31
0.0
  0
LINE
  5
2E8
330
1F
100
AcDbEntity
  8
0-3_仕上げ
  6
Continuous
 62
    40
370
    15
100
AcDbLine
 10
5112.301547699268
 20
1749.431911698657
 30
0.0
 11
4719.995815781165
 21
1749.431911698657
 31
0.0
  0
LINE
  5
2E9
330
1F
100
AcDbEntity
  8
0-3_仕上げ
  6
Continuous
 62
    40
370
    15
100
AcDbLine
 10
5112.301547699268
 20
2379.431911698658
 30
0.0
 11
4719.995815781165
 21
2379.431911698658
 31
0.0
  0
LINE
  5
2EA
330
1F
100
AcDbEntity
  8
0-C_ハッチ
  6
JWW_DASHED1
 62
   120
370
     5
100
AcDbLine
 10
5044.228567920004
 20
2379.431911698661
 30
0.0
 11
5112.301547699268
 21
2447.504891477923
 31
0.0
  0
LINE
  5
2EB
330
1F
100
AcDbEntity
  8
0-C_ハッチ
  6
JWW_DASHED1
 62
   120
370
     5
100
AcDbLine
 10
5060.477484730234
 20
1674.431911698653
 30
0.0
 11
5112.301547699268
 21
1726.255974667687
 31
0.0
  0
LINE
  5
2EC
330
1F
100
AcDbEntity
  8
0-1_通り芯
  6
JWW_CENTER1
 62
   120
370
     5
100
AcDbLine
 10
5112.301547699268
 20
2064.431911698658
 30
0.0
 11
348.3972643777943
 21
2064.431911698658
 31
0.0
  0
LINE
  5
2ED
330
1F
100
AcDbEntity
  8
0-C_ハッチ
  6
JWW_DASHED1
 62
   120
370
     5
100
AcDbLine
 10
5086.654974791143
 20
2379.431911698654
 30
0.0
 11
5112.301547699268
 21
2405.078484606778
 31
0.0
  0
LINE
  5
2EE
330
1F
100
AcDbEntity
  8
0-C_ハッチ
  6
JWW_DASHED1
 62
   120
370
     5
100
AcDbLine
 10
5102.903891601431
 20
1674.431911698649
 30
0.0
 11
5112.301547699268
 21
1683.829567796485
 31
0.0
  0
LINE
  5
2EF
330
1F
100
AcDbEntity
  8
0-C_ハッチ
  6
JWW_DASHED1
 62
   120
370
     5
100
AcDbLine
 10
5018.051077859038
 20
1674.431911698654
 30
0.0
 11
5093.05107785904
 21
1749.431911698657
 31
0.0
  0
LINE
  5
2F0
330
1F
100
AcDbEntity
  8
0-6_扉
  6
Continuous
 62
   200
370
    20
100
AcDbLine
 10
1434.995815781166
 20
1659.431911698658
 30
0.0
 11
1434.995815781166
 21
1875.431911698658
 31
0.0
  0
LINE
  5
2F1
330
1F
100
AcDbEntity
  8
0-6_扉
  6
Continuous
 62
   200
370
    20
100
AcDbLine
 10
1434.995815781166
 20
1875.431911698658
 30
0.0
 11
2943.995815781166
 21
1875.431911698658
 31
0.0
  0
LINE
  5
2F2
330
1F
100
AcDbEntity
  8
0-6_扉
  6
Continuous
 62
   200
370
    20
100
AcDbLine
 10
1434.995815781166
 20
1659.431911698658
 30
0.0
 11
2943.995815781166
 21
1659.431911698658
 31
0.0
  0
LINE
  5
2F3
330
1F
100
AcDbEntity
  8
0-6_扉
  6
Continuous
 62
   200
370
    20
100
AcDbLine
 10
3063.995815781166
 20
1875.431911698658
 30
0.0
 11
4554.995815781166
 21
1875.431911698658
 31
0.0
  0
LINE
  5
2F4
330
1F
100
AcDbEntity
  8
0-6_扉
  6
Continuous
 62
   200
370
    20
100
AcDbLine
 10
3063.995815781166
 20
1659.431911698658
 30
0.0
 11
4554.995815781166
 21
1659.431911698658
 31
0.0
  0
LINE
  5
2F5
330
1F
100
AcDbEntity
  8
0-6_扉
  6
Continuous
 62
   200
370
    20
100
AcDbLine
 10
4554.995815781166
 20
1875.431911698658
 30
0.0
 11
4554.995815781166
 21
1659.431911698658
 31
0.0
  0
LINE
  5
2F6
330
1F
100
AcDbEntity
  8
0-7_金物
  6
Continuous
 62
     7
370
     9
100
AcDbLine
 10
1482.995815781166
 20
1722.431911698658
 30
0.0
 11
1482.995815781166
 21
1875.431911698658
 31
0.0
  0
LINE
  5
2F7
330
1F
100
AcDbEntity
  8
0-7_金物
  6
Continuous
 62
     7
370
     9
100
AcDbLine
 10
4506.995815781167
 20
1722.431911698658
 30
0.0
 11
4506.995815781167
 21
1875.431911698658
 31
0.0
  0
LINE
  5
2F8
330
1F
100
AcDbEntity
  8
0-0_補助線
  6
JWW_HOJO
 62
   120
370
     5
100
AcDbLine
 10
5112.301547699268
 20
2709.431911698658
 30
0.0
 11
348.3972643777943
 21
2709.431911698658
 31
0.0
  0
LINE
  5
2F9
330
1F
100
AcDbEntity
  8
0-0_補助線
  6
JWW_HOJO
 62
   120
370
     5
100
AcDbLine
 10
348.3972643777943
 20
1419.431911698657
 30
0.0
 11
348.3972643777943
 21
2709.431911698658
 31
0.0
  0
LINE
  5
2FA
330
1F
100
AcDbEntity
  8
0-0_補助線
  6
JWW_HOJO
 62
   120
370
     5
100
AcDbLine
 10
5112.301547699268
 20
1419.431911698657
 30
0.0
 11
348.3972643777943
 21
1419.431911698657
 31
0.0
  0
LINE
  5
2FB
330
1F
100
AcDbEntity
  8
0-A_文字
  6
Continuous
 62
    92
370
    13
100
AcDbLine
 10
3859.999472128381
 20
-340.0000082479967
 30
0.0
 11
3859.999472128381
 21
-2059.041565127583
 31
0.0
  0
LINE
  5
2FC
330
1F
100
AcDbEntity
  8
0-A_文字
  6
Continuous
 62
    92
370
    13
100
AcDbLine
 10
5359.999472128382
 20
-2059.041565127583
 30
0.0
 11
3859.999472128381
 21
-2059.041565127583
 31
0.0
  0
LINE
  5
2FD
330
1F
100
AcDbEntity
  8
0-A_文字
  6
Continuous
 62
    92
370
    13
100
AcDbLine
 10
5359.999472128382
 20
-340.0000082479967
 30
0.0
 11
3859.999472128379
 21
-340.0000082479967
 31
0.0
  0
LINE
  5
2FE
330
1F
100
AcDbEntity
  8
0-A_文字
  6
Continuous
 62
    92
370
    13
100
AcDbLine
 10
5359.999472128382
 20
-520.0000082479967
 30
0.0
 11
3859.999472128379
 21
-520.0000082479967
 31
0.0
  0
LINE
  5
2FF
330
1F
100
AcDbEntity
  8
0-A_文字
  6
Continuous
 62
    92
370
    13
100
AcDbLine
 10
5359.999472128382
 20
-340.0000082479967
 30
0.0
 11
5359.999472128382
 21
-2059.041565127583
 31
0.0
  0
LINE
  5
300
330
1F
100
AcDbEntity
  8
0-A_文字
  6
Continuous
 62
    92
370
    13
100
AcDbLine
 10
-2929.999495325859
 20
-340.0000082479967
 30
0.0
 11
-2929.999495325857
 21
-2059.041565127583
 31
0.0
  0
LINE
  5
301
330
1F
100
AcDbEntity
  8
0-1_通り芯
  6
JWW_CENTER1
 62
   120
370
     5
100
AcDbLine
 10
-464.1466367757911
 20
-743.3526516824867
 30
0.0
 11
-464.1466367757911
 21
-1937.500008247996
 31
0.0
  0
LINE
  5
302
330
1F
100
AcDbEntity
  8
0-A_文字
  6
Continuous
 62
    92
370
    13
100
AcDbLine
 10
-1249.999495325859
 20
-2239.041565127582
 30
0.0
 11
550.0005046741446
 21
-2239.041565127582
 31
0.0
  0
LINE
  5
303
330
1F
100
AcDbEntity
  8
0-A_文字
  6
Continuous
 62
    92
370
    13
100
AcDbLine
 10
-1249.999495325859
 20
-3208.000214241649
 30
0.0
 11
550.0005046741412
 21
-3208.000214241649
 31
0.0
  0
LINE
  5
304
330
1F
100
AcDbEntity
  8
0-A_文字
  6
Continuous
 62
    92
370
    13
100
AcDbLine
 10
550.0005046741412
 20
-340.0000082479967
 30
0.0
 11
550.0005046741412
 21
-3208.000214241649
 31
0.0
  0
LINE
  5
305
330
1F
100
AcDbEntity
  8
0-B_寸法
  6
Continuous
 62
   120
370
     5
100
AcDbLine
 10
-470.1466367757908
 20
-1172.142061227007
 30
0.0
 11
-464.1466367757911
 21
-1172.142061227007
 31
0.0
  0
LWPOLYLINE
  5
306
330
1F
100
AcDbEntity
  8
0-B_寸法
  6
Continuous
 62
     7
370
     9
100
AcDbPolyline
 90
        4
 70
     1
 43
3.0
 10
-468.6466367757908
 20
-1172.142061227007
 42
0.4142135623731
 10
-470.1466367757908
 20
-1170.642061227007
 42
0.4142135623731
 10
-471.6466367757908
 20
-1172.142061227007
 42
0.4142135623731
 10
-470.1466367757908
 20
-1173.642061227007
 42
0.4142135623731
  0
LWPOLYLINE
  5
307
330
1F
100
AcDbEntity
  8
0-B_寸法
  6
Continuous
 62
     7
370
     9
100
AcDbPolyline
 90
        4
 70
     1
 43
3.0
 10
-462.6466367757911
 20
-1172.142061227007
 42
0.4142135623731
 10
-464.1466367757911
 20
-1170.642061227007
 42
0.4142135623731
 10
-465.6466367757911
 20
-1172.142061227007
 42
0.4142135623731
 10
-464.1466367757911
 20
-1173.642061227007
 42
0.4142135623731
  0
LINE
  5
308
330
1F
100
AcDbEntity
  8
0-B_寸法
  6
Continuous
 62
   120
370
     5
100
AcDbLine
 10
-470.1466367757908
 20
-1172.142061227007
 30
0.0
 11
-470.1466367757908
 21
-1352.142061227007
 31
0.0
  0
LINE
  5
309
330
1F
100
AcDbEntity
  8
0-B_寸法
  6
Continuous
 62
   120
370
     5
100
AcDbLine
 10
-464.1466367757911
 20
-1172.142061227007
 30
0.0
 11
-464.1466367757911
 21
-1352.142061227007
 31
0.0
  0
LINE
  5
30A
330
1F
100
AcDbEntity
  8
0-B_寸法
  6
Continuous
 62
   120
370
     5
100
AcDbLine
 10
-464.1466367757911
 20
-1172.142061227007
 30
0.0
 11
-56.14663677579045
 21
-1172.142061227007
 31
0.0
  0
LWPOLYLINE
  5
30B
330
1F
100
AcDbEntity
  8
0-B_寸法
  6
Continuous
 62
     7
370
     9
100
AcDbPolyline
 90
        4
 70
     1
 43
3.0
 10
-54.64663677579045
 20
-1172.142061227007
 42
0.4142135623731
 10
-56.14663677579045
 20
-1170.642061227007
 42
0.4142135623731
 10
-57.64663677579045
 20
-1172.142061227007
 42
0.4142135623731
 10
-56.14663677579045
 20
-1173.642061227007
 42
0.4142135623731
  0
LINE
  5
30C
330
1F
100
AcDbEntity
  8
0-B_寸法
  6
Continuous
 62
   120
370
     5
100
AcDbLine
 10
-56.14663677579045
 20
-1352.142061227007
 30
0.0
 11
-470.1466367757908
 21
-1352.142061227007
 31
0.0
  0
LWPOLYLINE
  5
30D
330
1F
100
AcDbEntity
  8
0-B_寸法
  6
Continuous
 62
     7
370
     9
100
AcDbPolyline
 90
        4
 70
     1
 43
3.0
 10
-54.64663677579045
 20
-1352.142061227007
 42
0.4142135623731
 10
-56.14663677579045
 20
-1350.642061227007
 42
0.4142135623731
 10
-57.64663677579045
 20
-1352.142061227007
 42
0.4142135623731
 10
-56.14663677579045
 20
-1353.642061227007
 42
0.4142135623731
  0
LWPOLYLINE
  5
30E
330
1F
100
AcDbEntity
  8
0-B_寸法
  6
Continuous
 62
     7
370
     9
100
AcDbPolyline
 90
        4
 70
     1
 43
3.0
 10
-468.6466367757908
 20
-1352.142061227007
 42
0.4142135623731
 10
-470.1466367757908
 20
-1350.642061227007
 42
0.4142135623731
 10
-471.6466367757908
 20
-1352.142061227007
 42
0.4142135623731
 10
-470.1466367757908
 20
-1353.642061227007
 42
0.4142135623731
  0
LINE
  5
30F
330
1F
100
AcDbEntity
  8
0-4_枠
  6
Continuous
 62
    92
370
    13
100
AcDbLine
 10
-470.1466367757908
 20
-820.0000082479971
 30
0.0
 11
-470.1466367757908
 21
-1879.041565127585
 31
0.0
  0
LINE
  5
310
330
1F
100
AcDbEntity
  8
0-4_枠
  6
Continuous
 62
    92
370
    13
100
AcDbLine
 10
-56.14663677579045
 20
-820.0000082479971
 30
0.0
 11
-56.14663677579045
 21
-1879.041565127585
 31
0.0
  0
MTEXT
  5
311
330
1F
100
AcDbEntity
  8
0-A_文字
  6
Continuous
 62
     7
370
     0
100
AcDbMText
 10
-2551.249495325859
 20
-504.2800082479966
 30
0.0
 40
91.44
 41
840.0
 46
0.0
 71
     7
 72
     1
  1
{\fＭＳ ゴシック|b0|i0|c128|p49;竪枠下端加工図}
 73
     1
 44
1.0
  0
MTEXT
  5
312
330
1F
100
AcDbEntity
  8
0-B_寸法
  6
Continuous
 62
     7
370
   211
100
AcDbMText
 10
-549.690046901288
 20
-1171.422061227007
 30
0.0
 40
91.44
 41
60.0
 46
0.0
 71
     7
 72
     1
  1
{\fＭＳ ゴシック|b0|i0|c128|p49;1}
 73
     1
 44
1.0
  0
MTEXT
  5
313
330
1F
100
AcDbEntity
  8
0-B_寸法
  6
Continuous
 62
     7
370
   211
100
AcDbMText
 10
-323.8966367757908
 20
-1168.564561227007
 30
0.0
 40
97.15499999999997
 41
127.5
 46
0.0
 71
     7
 72
     1
  1
{\fＭＳ ゴシック|b0|i0|c128|p49;68}
 73
     1
 44
1.0
  0
MTEXT
  5
314
330
1F
100
AcDbEntity
  8
0-B_寸法
  6
Continuous
 62
     7
370
   211
100
AcDbMText
 10
-326.8966367757915
 20
-1348.564561227007
 30
0.0
 40
97.15499999999997
 41
127.5
 46
0.0
 71
     7
 72
     1
  1
{\fＭＳ ゴシック|b0|i0|c128|p49;69}
 73
     1
 44
1.0
  0
MTEXT
  5
315
330
1F
100
AcDbEntity
  8
0-A_文字
  6
Continuous
 62
     7
370
     0
100
AcDbMText
 10
-944.054803557924
 20
-2223.321565127582
 30
0.0
 40
91.43999999999998
 41
1200.0
 46
0.0
 71
     7
 72
     1
  1
{\fＭＳ ゴシック|b0|i0|c128|p49;下枠詳細図（S＝1/2）}
 73
     1
 44
1.0
  0
LINE
  5
316
330
1F
100
AcDbEntity
  8
1-4_枠
  6
Continuous
 62
    92
370
    13
100
AcDbLine
 10
-815.4055918304813
 20
-2583.628015617179
 30
0.0
 11
219.5956670196129
 21
-2583.628015617179
 31
0.0
  0
ARC
  5
317
330
1F
100
AcDbEntity
  8
1-4_枠
  6
Continuous
 62
    92
370
    13
100
AcDbCircle
 10
219.5950375945641
 20
-2621.128730872918
 30
0.0
 40
45.0
100
AcDbArc
 50
0.0
 51
90.0
  0
LINE
  5
318
330
1F
100
AcDbEntity
  8
1-4_枠
  6
Continuous
 62
    92
370
    13
100
AcDbLine
 10
-815.4049624054359
 20
-2576.128730872918
 30
0.0
 11
219.5950375945641
 21
-2576.128730872918
 31
0.0
  0
ARC
  5
319
330
1F
100
AcDbEntity
  8
1-4_枠
  6
Continuous
 62
    92
370
    13
100
AcDbCircle
 10
-815.4049624054359
 20
-2621.128730872918
 30
0.0
 40
45.0
100
AcDbArc
 50
90.0
 51
180.0
  0
ARC
  5
31A
330
1F
100
AcDbEntity
  8
1-4_枠
  6
Continuous
 62
    92
370
    13
100
AcDbCircle
 10
-815.4049624054359
 20
-2621.128730872918
 30
0.0
 40
37.5
100
AcDbArc
 50
90.0
 51
180.0
  0
ARC
  5
31B
330
1F
100
AcDbEntity
  8
1-4_枠
  6
Continuous
 62
    92
370
    13
100
AcDbCircle
 10
219.5950375945641
 20
-2621.128730872918
 30
0.0
 40
37.5
100
AcDbArc
 50
0.0
 51
90.0
  0
LINE
  5
31C
330
1F
100
AcDbEntity
  8
1-4_枠
  6
Continuous
 62
    92
370
    13
100
AcDbLine
 10
-800.4049624054359
 20
-2621.128730872918
 30
0.0
 11
-860.4049624054359
 21
-2621.128730872918
 31
0.0
  0
LINE
  5
31D
330
1F
100
AcDbEntity
  8
1-4_枠
  6
Continuous
 62
    92
370
    13
100
AcDbLine
 10
-800.4049624054359
 20
-2801.128730872918
 30
0.0
 11
-800.4049624054359
 21
-2621.128730872918
 31
0.0
  0
LINE
  5
31E
330
1F
100
AcDbEntity
  8
1-4_枠
  6
Continuous
 62
    92
370
    13
100
AcDbLine
 10
204.5950375945641
 20
-2621.128730872918
 30
0.0
 11
264.5950375945641
 21
-2621.128730872918
 31
0.0
  0
LINE
  5
31F
330
1F
100
AcDbEntity
  8
1-4_枠
  6
Continuous
 62
    92
370
    13
100
AcDbLine
 10
204.5950375945641
 20
-2801.128730872918
 30
0.0
 11
204.5950375945641
 21
-2621.128730872918
 31
0.0
  0
LINE
  5
320
330
1F
100
AcDbEntity
  8
1-4_枠
  6
Continuous
 62
    92
370
    13
100
AcDbLine
 10
204.5948087127282
 20
-2801.128730872918
 30
0.0
 11
-800.4049624054359
 21
-2801.128730872918
 31
0.0
  0
LINE
  5
321
330
1F
100
AcDbEntity
  8
1-B_寸法
  6
Continuous
 62
   120
370
     5
100
AcDbLine
 10
264.5950375945641
 20
-2426.128959763836
 30
0.0
 11
264.5950375945641
 21
-2531.128959763836
 31
0.0
  0
LINE
  5
322
330
1F
100
AcDbEntity
  8
1-B_寸法
  6
Continuous
 62
   120
370
     5
100
AcDbLine
 10
-860.4049624054359
 20
-2426.128959763836
 30
0.0
 11
-860.4049624054359
 21
-2531.128959763836
 31
0.0
  0
LWPOLYLINE
  5
323
330
1F
100
AcDbEntity
  8
1-B_寸法
  6
Continuous
 62
     7
370
     9
100
AcDbPolyline
 90
        4
 70
     1
 43
3.0
 10
266.0950375945641
 20
-2426.128959763836
 42
0.4142135623731
 10
264.5950375945641
 20
-2424.628959763836
 42
0.4142135623731
 10
263.0950375945641
 20
-2426.128959763836
 42
0.4142135623731
 10
264.5950375945641
 20
-2427.628959763836
 42
0.4142135623731
  0
LWPOLYLINE
  5
324
330
1F
100
AcDbEntity
  8
1-B_寸法
  6
Continuous
 62
     7
370
     9
100
AcDbPolyline
 90
        4
 70
     1
 43
3.0
 10
-858.9049624054359
 20
-2426.128959763836
 42
0.4142135623731
 10
-860.4049624054359
 20
-2424.628959763836
 42
0.4142135623731
 10
-861.9049624054359
 20
-2426.128959763836
 42
0.4142135623731
 10
-860.4049624054359
 20
-2427.628959763836
 42
0.4142135623731
  0
LINE
  5
325
330
1F
100
AcDbEntity
  8
1-B_寸法
  6
Continuous
 62
   120
370
     5
100
AcDbLine
 10
-860.4049624054359
 20
-2426.128959763836
 30
0.0
 11
264.5950375945641
 21
-2426.128959763836
 31
0.0
  0
LINE
  5
326
330
1F
100
AcDbEntity
  8
1-B_寸法
  6
Continuous
 62
   120
370
     5
100
AcDbLine
 10
251.4148427479607
 20
-2589.308925719523
 30
0.0
 11
309.5955597267128
 21
-2531.128208740771
 31
0.0
  0
LINE
  5
327
330
1F
100
AcDbEntity
  8
1-B_寸法
  6
Continuous
 62
   120
370
     5
100
AcDbLine
 10
309.5948087036458
 20
-2531.128959763836
 30
0.0
 11
384.5948087036458
 21
-2531.128959763836
 31
0.0
  0
LINE
  5
328
330
1F
100
AcDbEntity
  8
1-B_寸法
  6
Continuous
 62
   120
370
     5
100
AcDbLine
 10
-847.224996440665
 20
-2589.308925719523
 30
0.0
 11
-905.4057134194205
 21
-2531.128208740771
 31
0.0
  0
LINE
  5
329
330
1F
100
AcDbEntity
  8
1-B_寸法
  6
Continuous
 62
   120
370
     5
100
AcDbLine
 10
-905.4049623963534
 20
-2531.128959763836
 30
0.0
 11
-980.4049623963551
 21
-2531.128959763836
 31
0.0
  0
LINE
  5
32A
330
1F
100
AcDbEntity
  8
1-B_寸法
  6
Continuous
 62
   120
370
     5
100
AcDbLine
 10
414.5948087036458
 20
-2576.127457717706
 30
0.0
 11
308.3155765615026
 21
-2576.127457717706
 31
0.0
  0
LWPOLYLINE
  5
32B
330
1F
100
AcDbEntity
  8
1-B_寸法
  6
Continuous
 62
     7
370
     9
100
AcDbPolyline
 90
        4
 70
     1
 43
3.0
 10
416.0948087036458
 20
-2576.127457717706
 42
0.4142135623731
 10
414.5948087036458
 20
-2574.627457717706
 42
0.4142135623731
 10
413.0948087036457
 20
-2576.127457717706
 42
0.4142135623731
 10
414.5948087036458
 20
-2577.627457717706
 42
0.4142135623731
  0
LINE
  5
32C
330
1F
100
AcDbEntity
  8
1-B_寸法
  6
Continuous
 62
   120
370
     5
100
AcDbLine
 10
414.5948087036458
 20
-2801.128730872918
 30
0.0
 11
308.3155765615026
 21
-2801.128730872918
 31
0.0
  0
LWPOLYLINE
  5
32D
330
1F
100
AcDbEntity
  8
1-B_寸法
  6
Continuous
 62
     7
370
     9
100
AcDbPolyline
 90
        4
 70
     1
 43
3.0
 10
416.0948087036458
 20
-2801.128730872918
 42
0.4142135623731
 10
414.5948087036458
 20
-2799.628730872918
 42
0.4142135623731
 10
413.0948087036457
 20
-2801.128730872918
 42
0.4142135623731
 10
414.5948087036458
 20
-2802.628730872918
 42
0.4142135623731
  0
LINE
  5
32E
330
1F
100
AcDbEntity
  8
1-B_寸法
  6
Continuous
 62
   120
370
     5
100
AcDbLine
 10
414.5948087036458
 20
-2576.127457717706
 30
0.0
 11
414.5948087036458
 21
-2801.128730872918
 31
0.0
  0
LINE
  5
32F
330
1F
100
AcDbEntity
  8
1-B_寸法
  6
Continuous
 62
   120
370
     5
100
AcDbLine
 10
264.5950375945641
 20
-2951.128730872918
 30
0.0
 11
264.5950375945641
 21
-2846.128730872918
 31
0.0
  0
LWPOLYLINE
  5
330
330
1F
100
AcDbEntity
  8
1-B_寸法
  6
Continuous
 62
     7
370
     9
100
AcDbPolyline
 90
        4
 70
     1
 43
3.0
 10
266.0950375945641
 20
-2951.128730872918
 42
0.4142135623731
 10
264.5950375945641
 20
-2949.628730872918
 42
0.4142135623731
 10
263.0950375945641
 20
-2951.128730872918
 42
0.4142135623731
 10
264.5950375945641
 20
-2952.628730872918
 42
0.4142135623731
  0
LINE
  5
331
330
1F
100
AcDbEntity
  8
1-B_寸法
  6
Continuous
 62
   120
370
     5
100
AcDbLine
 10
-860.4049624054359
 20
-2951.128730872918
 30
0.0
 11
264.5950375945641
 21
-2951.128730872918
 31
0.0
  0
LINE
  5
332
330
1F
100
AcDbEntity
  8
1-B_寸法
  6
Continuous
 62
   120
370
     5
100
AcDbLine
 10
-860.4049624054359
 20
-2951.128730872918
 30
0.0
 11
-860.4049624054359
 21
-2846.128730872918
 31
0.0
  0
LWPOLYLINE
  5
333
330
1F
100
AcDbEntity
  8
1-B_寸法
  6
Continuous
 62
     7
370
     9
100
AcDbPolyline
 90
        4
 70
     1
 43
3.0
 10
-858.9049624054359
 20
-2951.128730872918
 42
0.4142135623731
 10
-860.4049624054359
 20
-2949.628730872918
 42
0.4142135623731
 10
-861.9049624054359
 20
-2951.128730872918
 42
0.4142135623731
 10
-860.4049624054359
 20
-2952.628730872918
 42
0.4142135623731
  0
LINE
  5
334
330
1F
100
AcDbEntity
  8
1-B_寸法
  6
Continuous
 62
   120
370
     5
100
AcDbLine
 10
-1010.404962405436
 20
-2576.128730872918
 30
0.0
 11
-905.4049624054359
 21
-2576.128730872918
 31
0.0
  0
LWPOLYLINE
  5
335
330
1F
100
AcDbEntity
  8
1-B_寸法
  6
Continuous
 62
     7
370
     9
100
AcDbPolyline
 90
        4
 70
     1
 43
3.0
 10
-1008.904962405436
 20
-2576.128730872918
 42
0.4142135623731
 10
-1010.404962405436
 20
-2574.628730872918
 42
0.4142135623731
 10
-1011.904962405436
 20
-2576.128730872918
 42
0.4142135623731
 10
-1010.404962405436
 20
-2577.628730872918
 42
0.4142135623731
  0
LINE
  5
336
330
1F
100
AcDbEntity
  8
1-B_寸法
  6
Continuous
 62
   120
370
     5
100
AcDbLine
 10
-1010.404962405436
 20
-2621.128730872918
 30
0.0
 11
-905.4049624054359
 21
-2621.128730872918
 31
0.0
  0
LWPOLYLINE
  5
337
330
1F
100
AcDbEntity
  8
1-B_寸法
  6
Continuous
 62
     7
370
     9
100
AcDbPolyline
 90
        4
 70
     1
 43
3.0
 10
-1008.904962405436
 20
-2621.128730872918
 42
0.4142135623731
 10
-1010.404962405436
 20
-2619.628730872918
 42
0.4142135623731
 10
-1011.904962405436
 20
-2621.128730872918
 42
0.4142135623731
 10
-1010.404962405436
 20
-2622.628730872918
 42
0.4142135623731
  0
LINE
  5
338
330
1F
100
AcDbEntity
  8
1-B_寸法
  6
Continuous
 62
   120
370
     5
100
AcDbLine
 10
-1010.404962405436
 20
-2576.128730872918
 30
0.0
 11
-1010.404962405436
 21
-2801.128730872918
 31
0.0
  0
LINE
  5
339
330
1F
100
AcDbEntity
  8
1-B_寸法
  6
Continuous
 62
   120
370
     5
100
AcDbLine
 10
-1010.404962405436
 20
-2801.128730872918
 30
0.0
 11
-905.4049624054359
 21
-2801.128730872918
 31
0.0
  0
LWPOLYLINE
  5
33A
330
1F
100
AcDbEntity
  8
1-B_寸法
  6
Continuous
 62
     7
370
     9
100
AcDbPolyline
 90
        4
 70
     1
 43
3.0
 10
-1008.904962405436
 20
-2801.128730872918
 42
0.4142135623731
 10
-1010.404962405436
 20
-2799.628730872918
 42
0.4142135623731
 10
-1011.904962405436
 20
-2801.128730872918
 42
0.4142135623731
 10
-1010.404962405436
 20
-2802.628730872918
 42
0.4142135623731
  0
LINE
  5
33B
330
1F
100
AcDbEntity
  8
1-B_寸法
  6
Continuous
 62
   120
370
     5
100
AcDbLine
 10
-800.4049624054359
 20
-2951.128730872918
 30
0.0
 11
-800.4049624054359
 21
-2846.128730872918
 31
0.0
  0
LWPOLYLINE
  5
33C
330
1F
100
AcDbEntity
  8
1-B_寸法
  6
Continuous
 62
     7
370
     9
100
AcDbPolyline
 90
        4
 70
     1
 43
3.0
 10
-798.9049624054359
 20
-2951.128730872918
 42
0.4142135623731
 10
-800.4049624054359
 20
-2949.628730872918
 42
0.4142135623731
 10
-801.9049624054359
 20
-2951.128730872918
 42
0.4142135623731
 10
-800.4049624054359
 20
-2952.628730872918
 42
0.4142135623731
  0
LINE
  5
33D
330
1F
100
AcDbEntity
  8
1-B_寸法
  6
Continuous
 62
   120
370
     5
100
AcDbLine
 10
204.5950375945641
 20
-2951.128730872918
 30
0.0
 11
204.5950375945641
 21
-2846.128730872918
 31
0.0
  0
LWPOLYLINE
  5
33E
330
1F
100
AcDbEntity
  8
1-B_寸法
  6
Continuous
 62
     7
370
     9
100
AcDbPolyline
 90
        4
 70
     1
 43
3.0
 10
206.0950375945641
 20
-2951.128730872918
 42
0.4142135623731
 10
204.5950375945641
 20
-2949.628730872918
 42
0.4142135623731
 10
203.0950375945641
 20
-2951.128730872918
 42
0.4142135623731
 10
204.5950375945641
 20
-2952.628730872918
 42
0.4142135623731
  0
MTEXT
  5
33F
330
1F
100
AcDbEntity
  8
1-B_寸法
  6
Continuous
 62
     7
370
     0
100
AcDbMText
 10
-357.9049624054359
 20
-2425.408959763836
 30
0.0
 40
91.44
 41
120.0
 46
0.0
 71
     7
 72
     1
  1
{\fＭＳ ゴシック|b0|i0|c128|p49;75}
 73
     1
 44
1.0
  0
MTEXT
  5
340
330
1F
100
AcDbEntity
  8
1-B_寸法
  6
Continuous
 62
     7
370
     0
100
AcDbMText
 10
-1002.904962396353
 20
-2545.408959763836
 30
0.0
 40
91.44
 41
120.0
 46
0.0
 71
     7
 72
     1
  1
{\fＭＳ ゴシック|b0|i0|c128|p49;R3}
 73
     1
 44
1.0
  0
MTEXT
  5
341
330
1F
100
AcDbEntity
  8
1-B_寸法
  6
Continuous
 62
     7
370
     0
100
AcDbMText
 10
287.0948087036458
 20
-2545.408959763836
 30
0.0
 40
91.44
 41
120.0
 46
0.0
 71
     7
 72
     1
  1
{\fＭＳ ゴシック|b0|i0|c128|p49;R3}
 73
     1
 44
1.0
  0
MTEXT
  5
342
330
1F
100
AcDbEntity
  8
1-B_寸法
  6
Continuous
 62
     7
370
     0
100
AcDbMText
 10
-1025.404962405436
 20
-2642.908094295312
 30
0.0
 40
91.44
 41
60.0
 46
0.0
 71
     7
 72
     1
  1
{\fＭＳ ゴシック|b0|i0|c128|p49;3}
 11
6.123031769111886E-17
 21
1.0
 31
0.0
 73
     1
 44
1.0
  0
MTEXT
  5
343
330
1F
100
AcDbEntity
  8
1-B_寸法
  6
Continuous
 62
     7
370
     0
100
AcDbMText
 10
399.5948087036458
 20
-2762.907836803247
 30
0.0
 40
91.44
 41
120.0
 46
0.0
 71
     7
 72
     1
  1
{\fＭＳ ゴシック|b0|i0|c128|p49;15}
 11
6.123031769111886E-17
 21
1.0
 31
0.0
 73
     1
 44
1.0
  0
MTEXT
  5
344
330
1F
100
AcDbEntity
  8
1-B_寸法
  6
Continuous
 62
     7
370
     0
100
AcDbMText
 10
-1025.404962405436
 20
-2785.408988364984
 30
0.0
 40
91.44
 41
120.0
 46
0.0
 71
     7
 72
     1
  1
{\fＭＳ ゴシック|b0|i0|c128|p49;12}
 11
6.123031769111886E-17
 21
1.0
 31
0.0
 73
     1
 44
1.0
  0
MTEXT
  5
345
330
1F
100
AcDbEntity
  8
1-B_寸法
  6
Continuous
 62
     7
370
     0
100
AcDbMText
 10
-934.1306245158727
 20
-2950.408730872919
 30
0.0
 40
91.44
 41
60.0
 46
0.0
 71
     7
 72
     1
  1
{\fＭＳ ゴシック|b0|i0|c128|p49;4}
 73
     1
 44
1.0
  0
MTEXT
  5
346
330
1F
100
AcDbEntity
  8
1-B_寸法
  6
Continuous
 62
     7
370
     0
100
AcDbMText
 10
283.7217826887372
 20
-2950.408730872919
 30
0.0
 40
91.44
 41
60.0
 46
0.0
 71
     7
 72
     1
  1
{\fＭＳ ゴシック|b0|i0|c128|p49;4}
 73
     1
 44
1.0
  0
MTEXT
  5
347
330
1F
100
AcDbEntity
  8
0-A_文字
  6
Continuous
 62
     7
370
     9
100
AcDbMText
 10
4189.999472128382
 20
-504.2800082479966
 30
0.0
 40
91.44
 41
840.0
 46
0.0
 71
     7
 72
     1
  1
{\fＭＳ ゴシック|b0|i0|c128|p49;竪枠下端加工図}
 73
     1
 44
1.0
  0
MTEXT
  5
348
330
1F
100
AcDbEntity
  8
0-A_文字
  6
Continuous
 62
     7
370
     0
100
AcDbMText
 10
-949.99949532586
 20
-504.2800082479972
 30
0.0
 40
91.43999999999998
 41
1200.0
 46
0.0
 71
     7
 72
     1
  1
{\fＭＳ ゴシック|b0|i0|c128|p49;フロアー貼り込み位置}
 73
     1
 44
1.0
  0
MTEXT
  5
349
330
1F
100
AcDbEntity
  8
0-A_文字
  6
Continuous
 62
     7
370
     0
100
AcDbMText
 10
-769.9994953258554
 20
-747.8284803238694
 30
0.0
 40
91.44
 41
840.0
 46
0.0
 71
     7
 72
     1
  1
{\fＭＳ ゴシック|b0|i0|c128|p49;壁(枠)センター}
 73
     1
 44
1.0
  0
MTEXT
  5
34A
330
1F
100
AcDbEntity
  8
0-A_文字
  6
Continuous
 62
     7
370
     0
100
AcDbMText
 10
77.50050467414043
 20
-1593.609098063708
 30
0.0
 40
91.43999999999998
 41
120.0
 46
0.0
 71
     7
 72
     1
  1
{\fＭＳ ゴシック|b0|i0|c128|p49;床}
 73
     1
 44
1.0
  0
MTEXT
  5
34B
330
1F
100
AcDbEntity
  8
0-A_文字
  6
Continuous
 62
     7
370
     9
100
AcDbMText
 10
-78.61562158028761
 20
-986.6486154946573
 30
0.0
 40
91.44
 41
600.0
 46
0.0
 71
     7
 72
     1
  1
{\fＭＳ ゴシック|b0|i0|c128|p49;（ドア側）}
 73
     1
 44
1.0
  0
MTEXT
  5
34C
330
1F
100
AcDbEntity
  8
0-A_文字
  6
Continuous
 62
     7
370
     0
100
AcDbMText
 10
-897.49949532586
 20
-1593.609098063708
 30
0.0
 40
91.44
 41
120.0
 46
0.0
 71
     7
 72
     1
  1
{\fＭＳ ゴシック|b0|i0|c128|p49;床}
 73
     1
 44
1.0
  0
LINE
  5
34D
330
1F
100
AcDbEntity
  8
0-0_補助線
  6
JWW_HOJO
 62
   120
370
     5
100
AcDbLine
 10
-349.9994953258604
 20
-340.0000082479971
 30
0.0
 11
-349.9994953258604
 21
-520.0000082479971
 31
0.0
  0
LINE
  5
34E
330
1F
100
AcDbEntity
  8
0-3_仕上げ
  6
Continuous
 62
   120
370
     5
100
AcDbLine
 10
310.00050467414
 20
-1419.424942375751
 30
0.0
 11
-56.14663677579045
 21
-1419.424942375751
 31
0.0
  0
LINE
  5
34F
330
1F
100
AcDbEntity
  8
0-3_仕上げ
  6
Continuous
 62
   120
370
     5
100
AcDbLine
 10
-1009.999495325859
 20
-1019.808319623914
 30
0.0
 11
-470.1466367757908
 21
-1019.808319623914
 31
0.0
  0
LINE
  5
350
330
1F
100
AcDbEntity
  8
0-3_仕上げ
  6
Continuous
 62
   120
370
     5
100
AcDbLine
 10
-1009.999495325859
 20
-1219.616630999833
 30
0.0
 11
-470.1466367757908
 21
-1219.616630999833
 31
0.0
  0
LINE
  5
351
330
1F
100
AcDbEntity
  8
0-3_仕上げ
  6
Continuous
 62
   120
370
     5
100
AcDbLine
 10
-1009.999495325859
 20
-1419.424942375751
 30
0.0
 11
-470.1466367757908
 21
-1419.424942375751
 31
0.0
  0
LINE
  5
352
330
1F
100
AcDbEntity
  8
0-3_仕上げ
  6
Continuous
 62
   120
370
     5
100
AcDbLine
 10
-1009.999495325859
 20
-1619.233253751668
 30
0.0
 11
-470.1466367757908
 21
-1619.233253751668
 31
0.0
  0
LINE
  5
353
330
1F
100
AcDbEntity
  8
0-3_仕上げ
  6
Continuous
 62
   120
370
     5
100
AcDbLine
 10
-1009.999495325859
 20
-1819.041565127585
 30
0.0
 11
-470.1466367757908
 21
-1819.041565127585
 31
0.0
  0
LINE
  5
354
330
1F
100
AcDbEntity
  8
0-3_仕上げ
  6
Continuous
 62
   120
370
     5
100
AcDbLine
 10
310.00050467414
 20
-1819.041565127585
 30
0.0
 11
-56.14663677579045
 21
-1819.041565127585
 31
0.0
  0
LINE
  5
355
330
1F
100
AcDbEntity
  8
0-3_仕上げ
  6
Continuous
 62
   120
370
     5
100
AcDbLine
 10
310.00050467414
 20
-1619.233253751668
 30
0.0
 11
-56.14663677579045
 21
-1619.233253751668
 31
0.0
  0
LINE
  5
356
330
1F
100
AcDbEntity
  8
0-3_仕上げ
  6
Continuous
 62
   120
370
     5
100
AcDbLine
 10
310.00050467414
 20
-1019.808319623914
 30
0.0
 11
-56.14663677579045
 21
-1019.808319623914
 31
0.0
  0
LINE
  5
357
330
1F
100
AcDbEntity
  8
0-3_仕上げ
  6
Continuous
 62
   120
370
     5
100
AcDbLine
 10
310.00050467414
 20
-1219.616630999833
 30
0.0
 11
-56.14663677579045
 21
-1219.616630999833
 31
0.0
  0
LINE
  5
358
330
1F
100
AcDbEntity
  8
0-0_補助線
  6
Continuous
 62
    92
370
    13
100
AcDbLine
 10
-4046.703019493375
 20
2512.461348950172
 30
0.0
 11
-4046.703019493375
 21
2046.431911698656
 31
0.0
  0
LINE
  5
359
330
1F
100
AcDbEntity
  8
0-0_補助線
  6
Continuous
 62
    92
370
    13
100
AcDbLine
 10
-4049.702584617887
 20
2046.431911698656
 30
0.0
 11
-4049.702584617887
 21
2511.218273387563
 31
0.0
  0
LINE
  5
35A
330
1F
100
AcDbEntity
  8
0-0_補助線
  6
Continuous
 62
    92
370
    13
100
AcDbLine
 10
-4046.703019493375
 20
1616.402474447128
 30
0.0
 11
-4046.703019493375
 21
1890.431911698654
 31
0.0
  0
LINE
  5
35B
330
1F
100
AcDbEntity
  8
0-0_補助線
  6
Continuous
 62
    92
370
    13
100
AcDbLine
 10
-4049.702584617887
 20
1617.645550009737
 30
0.0
 11
-4049.702584617887
 21
1890.431911698654
 31
0.0
  0
LINE
  5
35C
330
1F
100
AcDbEntity
  8
0-0_補助線
  6
Continuous
 62
   120
370
     5
100
AcDbLine
 10
-4072.760992478813
 20
1890.431911698654
 30
0.0
 11
-4049.702584617887
 21
1867.373669829004
 31
0.0
  0
LINE
  5
35D
330
1F
100
AcDbEntity
  8
0-0_補助線
  6
Continuous
 62
   120
370
     5
100
AcDbLine
 10
-4190.703019493391
 20
2008.373089680304
 30
0.0
 11
-4094.961152291793
 21
1912.631911698655
 31
0.0
  0
LINE
  5
35E
330
1F
100
AcDbEntity
  8
0-0_補助線
  6
Continuous
 62
   120
370
     5
100
AcDbLine
 10
-4070.797374798258
 20
2024.231911698655
 30
0.0
 11
-4049.702584617887
 21
2003.137147802986
 31
0.0
  0
LINE
  5
35F
330
1F
100
AcDbEntity
  8
0-0_補助線
  6
Continuous
 62
   120
370
     5
100
AcDbLine
 10
-4190.703019493378
 20
2144.137406987968
 30
0.0
 11
-4092.997402460117
 21
2046.431911698656
 31
0.0
  0
LINE
  5
360
330
1F
100
AcDbEntity
  8
0-0_補助線
  6
Continuous
 62
   120
370
     5
100
AcDbLine
 10
-4190.703019493378
 20
2076.255106307886
 30
0.0
 11
-4049.702584617887
 21
1935.255049782356
 31
0.0
  0
LINE
  5
361
330
1F
100
AcDbEntity
  8
0-0_補助線
  6
Continuous
 62
    92
370
    13
100
AcDbLine
 10
-4046.703019493375
 20
1912.631911698655
 30
0.0
 11
-4046.703019493375
 21
2024.231911698655
 31
0.0
  0
LINE
  5
362
330
1F
100
AcDbEntity
  8
0-0_補助線
  6
Continuous
 62
    92
370
    13
100
AcDbLine
 10
-4049.702584617887
 20
1912.631911698655
 30
0.0
 11
-4049.702584617887
 21
2024.231911698655
 31
0.0
  0
LINE
  5
363
330
1F
100
AcDbEntity
  8
0-0_補助線
  6
Continuous
 62
    92
370
    13
100
AcDbLine
 10
-4097.703019493375
 20
1890.431911698654
 30
0.0
 11
-4097.703019493375
 21
1912.631911698655
 31
0.0
  0
LINE
  5
364
330
1F
100
AcDbEntity
  8
0-0_補助線
  6
Continuous
 62
    92
370
    13
100
AcDbLine
 10
-4097.703019493375
 20
2024.231911698655
 30
0.0
 11
-4097.703019493375
 21
2046.431911698656
 31
0.0
  0
LINE
  5
365
330
1F
100
AcDbEntity
  8
0-0_補助線
  6
Continuous
 62
    92
370
    13
100
AcDbLine
 10
-4097.703019493375
 20
2046.431911698656
 30
0.0
 11
-4046.703019493375
 21
2046.431911698656
 31
0.0
  0
LINE
  5
366
330
1F
100
AcDbEntity
  8
0-0_補助線
  6
Continuous
 62
    92
370
    13
100
AcDbLine
 10
-4046.703019493375
 20
2024.231911698655
 30
0.0
 11
-4097.703019493375
 21
2024.231911698655
 31
0.0
  0
LINE
  5
367
330
1F
100
AcDbEntity
  8
0-0_補助線
  6
Continuous
 62
    92
370
    13
100
AcDbLine
 10
-4046.703019493375
 20
1912.631911698655
 30
0.0
 11
-4097.703019493375
 21
1912.631911698655
 31
0.0
  0
LINE
  5
368
330
1F
100
AcDbEntity
  8
0-0_補助線
  6
Continuous
 62
    92
370
    13
100
AcDbLine
 10
-4046.703019493375
 20
1890.431911698654
 30
0.0
 11
-4097.703019493375
 21
1890.431911698654
 31
0.0
  0
LINE
  5
369
330
1F
100
AcDbEntity
  8
0-0_補助線
  6
Continuous
 62
   120
370
     5
100
AcDbLine
 10
-4190.703019493378
 20
1736.843923037929
 30
0.0
 11
-4060.603539803749
 21
1606.744594823874
 31
0.0
  0
LINE
  5
36A
330
1F
100
AcDbEntity
  8
0-0_補助線
  6
Continuous
 62
   120
370
     5
100
AcDbLine
 10
-4190.703019493378
 20
1940.487845578572
 30
0.0
 11
-4049.702584617887
 21
1799.490486375165
 31
0.0
  0
LINE
  5
36B
330
1F
100
AcDbEntity
  8
0-0_補助線
  6
Continuous
 62
   120
370
     5
100
AcDbLine
 10
-4190.703019493378
 20
2212.019895666691
 30
0.0
 11
-4049.702584617887
 21
2071.019073716474
 31
0.0
  0
LINE
  5
36C
330
1F
100
AcDbEntity
  8
0-0_補助線
  6
Continuous
 62
   120
370
     5
100
AcDbLine
 10
-4097.822485569278
 20
2526.432346574139
 30
0.0
 11
-4049.702584617887
 21
2478.311954728437
 31
0.0
  0
LINE
  5
36D
330
1F
100
AcDbEntity
  8
0-0_補助線
  6
Continuous
 62
   120
370
     5
100
AcDbLine
 10
-4165.703251963228
 20
2526.432346574139
 30
0.0
 11
-4049.702584617887
 21
2410.430099717451
 31
0.0
  0
LINE
  5
36E
330
1F
100
AcDbEntity
  8
0-0_補助線
  6
Continuous
 62
   120
370
     5
100
AcDbLine
 10
-4190.703019493378
 20
2415.668160840431
 30
0.0
 11
-4049.702584617887
 21
2274.665806046797
 31
0.0
  0
LINE
  5
36F
330
1F
100
AcDbEntity
  8
0-0_補助線
  6
Continuous
 62
   120
370
     5
100
AcDbLine
 10
-4190.703019493378
 20
2347.785240676035
 30
0.0
 11
-4049.702584617887
 21
2206.783367387128
 31
0.0
  0
LINE
  5
370
330
1F
100
AcDbEntity
  8
0-0_補助線
  6
Continuous
 62
   120
370
     5
100
AcDbLine
 10
-4190.703019493378
 20
2279.902402376295
 30
0.0
 11
-4049.702584617887
 21
2138.90151237614
 31
0.0
  0
LINE
  5
371
330
1F
100
AcDbEntity
  8
0-0_補助線
  6
Continuous
 62
   120
370
     5
100
AcDbLine
 10
-4190.703019493378
 20
1872.608024562471
 30
0.0
 11
-4049.702584617887
 21
1731.608036271406
 31
0.0
  0
LINE
  5
372
330
1F
100
AcDbEntity
  8
0-0_補助線
  6
Continuous
 62
   120
370
     5
100
AcDbLine
 10
-4190.703019493378
 20
1804.725811209785
 30
0.0
 11
-4049.702584617887
 21
1663.725597611735
 31
0.0
  0
LINE
  5
373
330
1F
100
AcDbEntity
  8
0-0_補助線
  6
Continuous
 62
    92
370
    13
100
AcDbLine
 10
-4190.703019493378
 20
2529.431911698649
 30
0.0
 11
-4190.703019493378
 21
1599.431911698651
 31
0.0
  0
LINE
  5
374
330
1F
100
AcDbEntity
  8
0-0_補助線
  6
Continuous
 62
    92
370
    13
100
AcDbLine
 10
-4064.916062711686
 20
1602.432071915938
 30
0.0
 11
-4049.702584617887
 21
1617.645550009737
 31
0.0
  0
LINE
  5
375
330
1F
100
AcDbEntity
  8
0-0_補助線
  6
Continuous
 62
    92
370
    13
100
AcDbLine
 10
-4064.916657804173
 20
2526.43234657385
 30
0.0
 11
-4049.702584617887
 21
2511.218273387563
 31
0.0
  0
LINE
  5
376
330
1F
100
AcDbEntity
  8
0-0_補助線
  6
Continuous
 62
    92
370
    13
100
AcDbLine
 10
-4063.673582241853
 20
1599.431911698651
 30
0.0
 11
-4046.703019493375
 21
1616.402474447128
 31
0.0
  0
LINE
  5
377
330
1F
100
AcDbEntity
  8
0-0_補助線
  6
Continuous
 62
    92
370
    13
100
AcDbLine
 10
-4063.673582241853
 20
1599.431911698651
 30
0.0
 11
-4190.703019493378
 21
1599.431911698651
 31
0.0
  0
LINE
  5
378
330
1F
100
AcDbEntity
  8
0-0_補助線
  6
Continuous
 62
    92
370
    13
100
AcDbLine
 10
-4063.673582241853
 20
2529.431911698649
 30
0.0
 11
-4046.703019493375
 21
2512.461348950172
 31
0.0
  0
LINE
  5
379
330
1F
100
AcDbEntity
  8
0-0_補助線
  6
Continuous
 62
    92
370
    13
100
AcDbLine
 10
-4063.673582241853
 20
2529.431911698649
 30
0.0
 11
-4190.703019493378
 21
2529.431911698649
 31
0.0
  0
LINE
  5
37A
330
1F
100
AcDbEntity
  8
0-0_補助線
  6
Continuous
 62
    92
370
    13
100
AcDbLine
 10
-4187.703019493377
 20
1689.431911698655
 30
0.0
 11
-4190.703019493378
 21
1689.431911698655
 31
0.0
  0
LINE
  5
37B
330
1F
100
AcDbEntity
  8
0-0_補助線
  6
Continuous
 62
    92
370
    13
100
AcDbLine
 10
-4187.703019493377
 20
1689.431911698655
 30
0.0
 11
-4187.703019493377
 21
1602.432071915941
 31
0.0
  0
LINE
  5
37C
330
1F
100
AcDbEntity
  8
0-0_補助線
  6
Continuous
 62
    92
370
    13
100
AcDbLine
 10
-4064.916062711686
 20
1602.432071915938
 30
0.0
 11
-4187.703019493377
 21
1602.432071915938
 31
0.0
  0
LINE
  5
37D
330
1F
100
AcDbEntity
  8
0-0_補助線
  6
Continuous
 62
    92
370
    13
100
AcDbLine
 10
-4187.703019493377
 20
2439.431911698649
 30
0.0
 11
-4190.703019493378
 21
2439.431911698649
 31
0.0
  0
LINE
  5
37E
330
1F
100
AcDbEntity
  8
0-0_補助線
  6
Continuous
 62
    92
370
    13
100
AcDbLine
 10
-4187.703019493377
 20
2439.431911698649
 30
0.0
 11
-4187.703019493377
 21
2526.432346574139
 31
0.0
  0
LINE
  5
37F
330
1F
100
AcDbEntity
  8
0-0_補助線
  6
Continuous
 62
    92
370
    13
100
AcDbLine
 10
-4187.703019493377
 20
2526.43234657385
 30
0.0
 11
-4064.916657804173
 21
2526.43234657385
 31
0.0
  0
LINE
  5
380
330
1F
100
AcDbEntity
  8
0-0_補助線
  6
Continuous
 62
   120
370
     5
100
AcDbLine
 10
-4187.703019493377
 20
2480.549503742242
 30
0.0
 11
-4049.702584617887
 21
2342.547661057783
 31
0.0
  0
LINE
  5
381
330
1F
100
AcDbEntity
  8
0-0_補助線
  6
Continuous
 62
   120
370
     5
100
AcDbLine
 10
-4187.703019493377
 20
1665.961770703175
 30
0.0
 11
-4124.173246738062
 21
1602.432071915938
 31
0.0
  0
INSERT
  5
382
330
1F
100
AcDbEntity
  8
0-0_補助線
  6
Continuous
 62
     7
370
     9
100
AcDbBlockReference
  2
2@@SfigorgFlag@@4
 10
-4045.776941418366
 20
1958.963227107085
 30
0.0
 41
-30.0
 42
30.0
  0
LINE
  5
383
330
1F
100
AcDbEntity
  8
0-0_補助線
  6
Continuous
 62
    92
370
    13
100
AcDbLine
 10
1413.995815781168
 20
2512.461348950172
 30
0.0
 11
1413.995815781168
 21
2046.431911698656
 31
0.0
  0
LINE
  5
384
330
1F
100
AcDbEntity
  8
0-0_補助線
  6
Continuous
 62
    92
370
    13
100
AcDbLine
 10
1410.996250656657
 20
2046.431911698656
 30
0.0
 11
1410.996250656657
 21
2511.218273387563
 31
0.0
  0
LINE
  5
385
330
1F
100
AcDbEntity
  8
0-0_補助線
  6
Continuous
 62
    92
370
    13
100
AcDbLine
 10
1413.995815781168
 20
1616.402474447128
 30
0.0
 11
1413.995815781168
 21
1890.431911698654
 31
0.0
  0
LINE
  5
386
330
1F
100
AcDbEntity
  8
0-0_補助線
  6
Continuous
 62
    92
370
    13
100
AcDbLine
 10
1410.996250656657
 20
1617.645550009737
 30
0.0
 11
1410.996250656657
 21
1890.431911698654
 31
0.0
  0
LINE
  5
387
330
1F
100
AcDbEntity
  8
0-0_補助線
  6
Continuous
 62
   120
370
     5
100
AcDbLine
 10
1387.93784279573
 20
1890.431911698654
 30
0.0
 11
1410.996250656657
 21
1867.373669829004
 31
0.0
  0
LINE
  5
388
330
1F
100
AcDbEntity
  8
0-0_補助線
  6
Continuous
 62
   120
370
     5
100
AcDbLine
 10
1269.995815781152
 20
2008.373089680304
 30
0.0
 11
1365.737682982751
 21
1912.631911698655
 31
0.0
  0
LINE
  5
389
330
1F
100
AcDbEntity
  8
0-0_補助線
  6
Continuous
 62
   120
370
     5
100
AcDbLine
 10
1389.901460476285
 20
2024.231911698655
 30
0.0
 11
1410.996250656657
 21
2003.137147802986
 31
0.0
  0
LINE
  5
38A
330
1F
100
AcDbEntity
  8
0-0_補助線
  6
Continuous
 62
   120
370
     5
100
AcDbLine
 10
1269.995815781166
 20
2144.137406987968
 30
0.0
 11
1367.701432814426
 21
2046.431911698656
 31
0.0
  0
LINE
  5
38B
330
1F
100
AcDbEntity
  8
0-0_補助線
  6
Continuous
 62
   120
370
     5
100
AcDbLine
 10
1269.995815781166
 20
2076.255106307886
 30
0.0
 11
1410.996250656657
 21
1935.255049782356
 31
0.0
  0
LINE
  5
38C
330
1F
100
AcDbEntity
  8
0-0_補助線
  6
Continuous
 62
    92
370
    13
100
AcDbLine
 10
1413.995815781168
 20
1912.631911698655
 30
0.0
 11
1413.995815781168
 21
2024.231911698655
 31
0.0
  0
LINE
  5
38D
330
1F
100
AcDbEntity
  8
0-0_補助線
  6
Continuous
 62
    92
370
    13
100
AcDbLine
 10
1410.996250656657
 20
1912.631911698655
 30
0.0
 11
1410.996250656657
 21
2024.231911698655
 31
0.0
  0
LINE
  5
38E
330
1F
100
AcDbEntity
  8
0-0_補助線
  6
Continuous
 62
    92
370
    13
100
AcDbLine
 10
1362.995815781168
 20
1890.431911698654
 30
0.0
 11
1362.995815781168
 21
1912.631911698655
 31
0.0
  0
LINE
  5
38F
330
1F
100
AcDbEntity
  8
0-0_補助線
  6
Continuous
 62
    92
370
    13
100
AcDbLine
 10
1362.995815781168
 20
2024.231911698655
 30
0.0
 11
1362.995815781168
 21
2046.431911698656
 31
0.0
  0
LINE
  5
390
330
1F
100
AcDbEntity
  8
0-0_補助線
  6
Continuous
 62
    92
370
    13
100
AcDbLine
 10
1362.995815781168
 20
2046.431911698656
 30
0.0
 11
1413.995815781168
 21
2046.431911698656
 31
0.0
  0
LINE
  5
391
330
1F
100
AcDbEntity
  8
0-0_補助線
  6
Continuous
 62
    92
370
    13
100
AcDbLine
 10
1413.995815781168
 20
2024.231911698655
 30
0.0
 11
1362.995815781168
 21
2024.231911698655
 31
0.0
  0
LINE
  5
392
330
1F
100
AcDbEntity
  8
0-0_補助線
  6
Continuous
 62
    92
370
    13
100
AcDbLine
 10
1413.995815781168
 20
1912.631911698655
 30
0.0
 11
1362.995815781168
 21
1912.631911698655
 31
0.0
  0
LINE
  5
393
330
1F
100
AcDbEntity
  8
0-0_補助線
  6
Continuous
 62
    92
370
    13
100
AcDbLine
 10
1413.995815781168
 20
1890.431911698654
 30
0.0
 11
1362.995815781168
 21
1890.431911698654
 31
0.0
  0
LINE
  5
394
330
1F
100
AcDbEntity
  8
0-0_補助線
  6
Continuous
 62
   120
370
     5
100
AcDbLine
 10
1269.995815781166
 20
1736.843923037929
 30
0.0
 11
1400.095295470795
 21
1606.744594823874
 31
0.0
  0
LINE
  5
395
330
1F
100
AcDbEntity
  8
0-0_補助線
  6
Continuous
 62
   120
370
     5
100
AcDbLine
 10
1269.995815781166
 20
1940.487845578572
 30
0.0
 11
1410.996250656657
 21
1799.490486375165
 31
0.0
  0
LINE
  5
396
330
1F
100
AcDbEntity
  8
0-0_補助線
  6
Continuous
 62
   120
370
     5
100
AcDbLine
 10
1269.995815781166
 20
2212.019895666691
 30
0.0
 11
1410.996250656657
 21
2071.019073716474
 31
0.0
  0
LINE
  5
397
330
1F
100
AcDbEntity
  8
0-0_補助線
  6
Continuous
 62
   120
370
     5
100
AcDbLine
 10
1362.876349705265
 20
2526.432346574139
 30
0.0
 11
1410.996250656657
 21
2478.311954728437
 31
0.0
  0
LINE
  5
398
330
1F
100
AcDbEntity
  8
0-0_補助線
  6
Continuous
 62
   120
370
     5
100
AcDbLine
 10
1294.995583311314
 20
2526.432346574139
 30
0.0
 11
1410.996250656657
 21
2410.430099717451
 31
0.0
  0
LINE
  5
399
330
1F
100
AcDbEntity
  8
0-0_補助線
  6
Continuous
 62
   120
370
     5
100
AcDbLine
 10
1269.995815781166
 20
2415.668160840431
 30
0.0
 11
1410.996250656657
 21
2274.665806046797
 31
0.0
  0
LINE
  5
39A
330
1F
100
AcDbEntity
  8
0-0_補助線
  6
Continuous
 62
   120
370
     5
100
AcDbLine
 10
1269.995815781166
 20
2347.785240676035
 30
0.0
 11
1410.996250656657
 21
2206.783367387128
 31
0.0
  0
LINE
  5
39B
330
1F
100
AcDbEntity
  8
0-0_補助線
  6
Continuous
 62
   120
370
     5
100
AcDbLine
 10
1269.995815781166
 20
2279.902402376295
 30
0.0
 11
1410.996250656657
 21
2138.90151237614
 31
0.0
  0
LINE
  5
39C
330
1F
100
AcDbEntity
  8
0-0_補助線
  6
Continuous
 62
   120
370
     5
100
AcDbLine
 10
1269.995815781166
 20
1872.608024562471
 30
0.0
 11
1410.996250656657
 21
1731.608036271406
 31
0.0
  0
LINE
  5
39D
330
1F
100
AcDbEntity
  8
0-0_補助線
  6
Continuous
 62
   120
370
     5
100
AcDbLine
 10
1269.995815781166
 20
1804.725811209785
 30
0.0
 11
1410.996250656657
 21
1663.725597611735
 31
0.0
  0
LINE
  5
39E
330
1F
100
AcDbEntity
  8
0-0_補助線
  6
Continuous
 62
    92
370
    13
100
AcDbLine
 10
1269.995815781166
 20
2529.431911698649
 30
0.0
 11
1269.995815781166
 21
1599.431911698651
 31
0.0
  0
LINE
  5
39F
330
1F
100
AcDbEntity
  8
0-0_補助線
  6
Continuous
 62
    92
370
    13
100
AcDbLine
 10
1395.782772562858
 20
1602.432071915938
 30
0.0
 11
1410.996250656657
 21
1617.645550009737
 31
0.0
  0
LINE
  5
3A0
330
1F
100
AcDbEntity
  8
0-0_補助線
  6
Continuous
 62
    92
370
    13
100
AcDbLine
 10
1395.78217747037
 20
2526.43234657385
 30
0.0
 11
1410.996250656657
 21
2511.218273387563
 31
0.0
  0
LINE
  5
3A1
330
1F
100
AcDbEntity
  8
0-0_補助線
  6
Continuous
 62
    92
370
    13
100
AcDbLine
 10
1397.02525303269
 20
1599.431911698651
 30
0.0
 11
1413.995815781168
 21
1616.402474447128
 31
0.0
  0
LINE
  5
3A2
330
1F
100
AcDbEntity
  8
0-0_補助線
  6
Continuous
 62
    92
370
    13
100
AcDbLine
 10
1397.02525303269
 20
1599.431911698651
 30
0.0
 11
1269.995815781166
 21
1599.431911698651
 31
0.0
  0
LINE
  5
3A3
330
1F
100
AcDbEntity
  8
0-0_補助線
  6
Continuous
 62
    92
370
    13
100
AcDbLine
 10
1397.02525303269
 20
2529.431911698649
 30
0.0
 11
1413.995815781168
 21
2512.461348950172
 31
0.0
  0
LINE
  5
3A4
330
1F
100
AcDbEntity
  8
0-0_補助線
  6
Continuous
 62
    92
370
    13
100
AcDbLine
 10
1397.02525303269
 20
2529.431911698649
 30
0.0
 11
1269.995815781166
 21
2529.431911698649
 31
0.0
  0
LINE
  5
3A5
330
1F
100
AcDbEntity
  8
0-0_補助線
  6
Continuous
 62
    92
370
    13
100
AcDbLine
 10
1272.995815781166
 20
1689.431911698655
 30
0.0
 11
1269.995815781166
 21
1689.431911698655
 31
0.0
  0
LINE
  5
3A6
330
1F
100
AcDbEntity
  8
0-0_補助線
  6
Continuous
 62
    92
370
    13
100
AcDbLine
 10
1272.995815781166
 20
1689.431911698655
 30
0.0
 11
1272.995815781166
 21
1602.432071915941
 31
0.0
  0
LINE
  5
3A7
330
1F
100
AcDbEntity
  8
0-0_補助線
  6
Continuous
 62
    92
370
    13
100
AcDbLine
 10
1395.782772562858
 20
1602.432071915938
 30
0.0
 11
1272.995815781166
 21
1602.432071915938
 31
0.0
  0
LINE
  5
3A8
330
1F
100
AcDbEntity
  8
0-0_補助線
  6
Continuous
 62
    92
370
    13
100
AcDbLine
 10
1272.995815781166
 20
2439.431911698649
 30
0.0
 11
1269.995815781166
 21
2439.431911698649
 31
0.0
  0
LINE
  5
3A9
330
1F
100
AcDbEntity
  8
0-0_補助線
  6
Continuous
 62
    92
370
    13
100
AcDbLine
 10
1272.995815781166
 20
2439.431911698649
 30
0.0
 11
1272.995815781166
 21
2526.432346574139
 31
0.0
  0
LINE
  5
3AA
330
1F
100
AcDbEntity
  8
0-0_補助線
  6
Continuous
 62
    92
370
    13
100
AcDbLine
 10
1272.995815781166
 20
2526.43234657385
 30
0.0
 11
1395.78217747037
 21
2526.43234657385
 31
0.0
  0
LINE
  5
3AB
330
1F
100
AcDbEntity
  8
0-0_補助線
  6
Continuous
 62
   120
370
     5
100
AcDbLine
 10
1272.995815781166
 20
2480.549503742242
 30
0.0
 11
1410.996250656657
 21
2342.547661057783
 31
0.0
  0
LINE
  5
3AC
330
1F
100
AcDbEntity
  8
0-0_補助線
  6
Continuous
 62
   120
370
     5
100
AcDbLine
 10
1272.995815781166
 20
1665.961770703175
 30
0.0
 11
1336.525588536482
 21
1602.432071915938
 31
0.0
  0
INSERT
  5
3AD
330
1F
100
AcDbEntity
  8
0-0_補助線
  6
Continuous
 62
     7
370
     9
100
AcDbBlockReference
  2
2@@SfigorgFlag@@4
 10
1414.921893856178
 20
1958.963227107085
 30
0.0
 41
-30.0
 42
30.0
  0
LINE
  5
3AE
330
1F
100
AcDbEntity
  8
0-0_補助線
  6
Continuous
 62
    92
370
    13
100
AcDbLine
 10
-884.7030194933816
 20
2512.461348950172
 30
0.0
 11
-884.7030194933816
 21
2046.431911698656
 31
0.0
  0
LINE
  5
3AF
330
1F
100
AcDbEntity
  8
0-0_補助線
  6
Continuous
 62
    92
370
    13
100
AcDbLine
 10
-881.7034543688706
 20
2046.431911698656
 30
0.0
 11
-881.7034543688706
 21
2511.218273387563
 31
0.0
  0
LINE
  5
3B0
330
1F
100
AcDbEntity
  8
0-0_補助線
  6
Continuous
 62
    92
370
    13
100
AcDbLine
 10
-884.7030194933816
 20
1616.402474447128
 30
0.0
 11
-884.7030194933816
 21
1890.431911698654
 31
0.0
  0
LINE
  5
3B1
330
1F
100
AcDbEntity
  8
0-0_補助線
  6
Continuous
 62
    92
370
    13
100
AcDbLine
 10
-881.7034543688706
 20
1617.645550009737
 30
0.0
 11
-881.7034543688706
 21
1890.431911698654
 31
0.0
  0
LINE
  5
3B2
330
1F
100
AcDbEntity
  8
0-0_補助線
  6
Continuous
 62
   120
370
     5
100
AcDbLine
 10
-858.6450465079439
 20
1890.431911698654
 30
0.0
 11
-881.7034543688706
 21
1867.373669829004
 31
0.0
  0
LINE
  5
3B3
330
1F
100
AcDbEntity
  8
0-0_補助線
  6
Continuous
 62
   120
370
     5
100
AcDbLine
 10
-740.7030194933659
 20
2008.373089680305
 30
0.0
 11
-836.4448866949646
 21
1912.631911698655
 31
0.0
  0
LINE
  5
3B4
330
1F
100
AcDbEntity
  8
0-0_補助線
  6
Continuous
 62
   120
370
     5
100
AcDbLine
 10
-860.6086641884984
 20
2024.231911698655
 30
0.0
 11
-881.7034543688706
 21
2003.137147802985
 31
0.0
  0
LINE
  5
3B5
330
1F
100
AcDbEntity
  8
0-0_補助線
  6
Continuous
 62
   120
370
     5
100
AcDbLine
 10
-740.7030194933795
 20
2144.137406987968
 30
0.0
 11
-838.4086365266401
 21
2046.431911698656
 31
0.0
  0
LINE
  5
3B6
330
1F
100
AcDbEntity
  8
0-0_補助線
  6
Continuous
 62
   120
370
     5
100
AcDbLine
 10
-740.7030194933795
 20
2076.255106307888
 30
0.0
 11
-881.7034543688706
 21
1935.255049782356
 31
0.0
  0
LINE
  5
3B7
330
1F
100
AcDbEntity
  8
0-0_補助線
  6
Continuous
 62
    92
370
    13
100
AcDbLine
 10
-884.7030194933816
 20
1912.631911698655
 30
0.0
 11
-884.7030194933816
 21
2024.231911698655
 31
0.0
  0
LINE
  5
3B8
330
1F
100
AcDbEntity
  8
0-0_補助線
  6
Continuous
 62
    92
370
    13
100
AcDbLine
 10
-881.7034543688706
 20
1912.631911698655
 30
0.0
 11
-881.7034543688706
 21
2024.231911698655
 31
0.0
  0
LINE
  5
3B9
330
1F
100
AcDbEntity
  8
0-0_補助線
  6
Continuous
 62
    92
370
    13
100
AcDbLine
 10
-833.7030194933822
 20
1890.431911698654
 30
0.0
 11
-833.7030194933822
 21
1912.631911698655
 31
0.0
  0
LINE
  5
3BA
330
1F
100
AcDbEntity
  8
0-0_補助線
  6
Continuous
 62
    92
370
    13
100
AcDbLine
 10
-833.7030194933822
 20
2024.231911698655
 30
0.0
 11
-833.7030194933822
 21
2046.431911698656
 31
0.0
  0
LINE
  5
3BB
330
1F
100
AcDbEntity
  8
0-0_補助線
  6
Continuous
 62
    92
370
    13
100
AcDbLine
 10
-833.7030194933822
 20
2046.431911698656
 30
0.0
 11
-884.7030194933816
 21
2046.431911698656
 31
0.0
  0
LINE
  5
3BC
330
1F
100
AcDbEntity
  8
0-0_補助線
  6
Continuous
 62
    92
370
    13
100
AcDbLine
 10
-884.7030194933816
 20
2024.231911698655
 30
0.0
 11
-833.7030194933822
 21
2024.231911698655
 31
0.0
  0
LINE
  5
3BD
330
1F
100
AcDbEntity
  8
0-0_補助線
  6
Continuous
 62
    92
370
    13
100
AcDbLine
 10
-884.7030194933816
 20
1912.631911698655
 30
0.0
 11
-833.7030194933822
 21
1912.631911698655
 31
0.0
  0
LINE
  5
3BE
330
1F
100
AcDbEntity
  8
0-0_補助線
  6
Continuous
 62
    92
370
    13
100
AcDbLine
 10
-884.7030194933816
 20
1890.431911698654
 30
0.0
 11
-833.7030194933822
 21
1890.431911698654
 31
0.0
  0
LINE
  5
3BF
330
1F
100
AcDbEntity
  8
0-0_補助線
  6
Continuous
 62
   120
370
     5
100
AcDbLine
 10
-740.7030194933795
 20
1736.843923037929
 30
0.0
 11
-870.8024991830085
 21
1606.744594823875
 31
0.0
  0
LINE
  5
3C0
330
1F
100
AcDbEntity
  8
0-0_補助線
  6
Continuous
 62
   120
370
     5
100
AcDbLine
 10
-740.7030194933795
 20
1940.487845578572
 30
0.0
 11
-881.7034543688706
 21
1799.490486375165
 31
0.0
  0
LINE
  5
3C1
330
1F
100
AcDbEntity
  8
0-0_補助線
  6
Continuous
 62
   120
370
     5
100
AcDbLine
 10
-740.7030194933795
 20
2212.019895666691
 30
0.0
 11
-881.7034543688706
 21
2071.019073716474
 31
0.0
  0
LINE
  5
3C2
330
1F
100
AcDbEntity
  8
0-0_補助線
  6
Continuous
 62
   120
370
     5
100
AcDbLine
 10
-833.5835534174793
 20
2526.432346574139
 30
0.0
 11
-881.7034543688706
 21
2478.311954728437
 31
0.0
  0
LINE
  5
3C3
330
1F
100
AcDbEntity
  8
0-0_補助線
  6
Continuous
 62
   120
370
     5
100
AcDbLine
 10
-765.7027870235287
 20
2526.432346574139
 30
0.0
 11
-881.7034543688706
 21
2410.430099717451
 31
0.0
  0
LINE
  5
3C4
330
1F
100
AcDbEntity
  8
0-0_補助線
  6
Continuous
 62
   120
370
     5
100
AcDbLine
 10
-740.7030194933795
 20
2415.668160840431
 30
0.0
 11
-881.7034543688706
 21
2274.665806046797
 31
0.0
  0
LINE
  5
3C5
330
1F
100
AcDbEntity
  8
0-0_補助線
  6
Continuous
 62
   120
370
     5
100
AcDbLine
 10
-740.7030194933795
 20
2347.785240676035
 30
0.0
 11
-881.7034543688706
 21
2206.783367387128
 31
0.0
  0
LINE
  5
3C6
330
1F
100
AcDbEntity
  8
0-0_補助線
  6
Continuous
 62
   120
370
     5
100
AcDbLine
 10
-740.7030194933795
 20
2279.902402376295
 30
0.0
 11
-881.7034543688706
 21
2138.90151237614
 31
0.0
  0
LINE
  5
3C7
330
1F
100
AcDbEntity
  8
0-0_補助線
  6
Continuous
 62
   120
370
     5
100
AcDbLine
 10
-740.7030194933795
 20
1872.608024562471
 30
0.0
 11
-881.7034543688706
 21
1731.608036271406
 31
0.0
  0
LINE
  5
3C8
330
1F
100
AcDbEntity
  8
0-0_補助線
  6
Continuous
 62
   120
370
     5
100
AcDbLine
 10
-740.7030194933795
 20
1804.725811209785
 30
0.0
 11
-881.7034543688706
 21
1663.725597611735
 31
0.0
  0
LINE
  5
3C9
330
1F
100
AcDbEntity
  8
0-0_補助線
  6
Continuous
 62
    92
370
    13
100
AcDbLine
 10
-740.7030194933795
 20
2529.431911698649
 30
0.0
 11
-740.7030194933795
 21
1599.431911698651
 31
0.0
  0
LINE
  5
3CA
330
1F
100
AcDbEntity
  8
0-0_補助線
  6
Continuous
 62
    92
370
    13
100
AcDbLine
 10
-866.4899762750715
 20
1602.432071915938
 30
0.0
 11
-881.7034543688706
 21
1617.645550009737
 31
0.0
  0
LINE
  5
3CB
330
1F
100
AcDbEntity
  8
0-0_補助線
  6
Continuous
 62
    92
370
    13
100
AcDbLine
 10
-866.4893811825845
 20
2526.43234657385
 30
0.0
 11
-881.7034543688706
 21
2511.218273387563
 31
0.0
  0
LINE
  5
3CC
330
1F
100
AcDbEntity
  8
0-0_補助線
  6
Continuous
 62
    92
370
    13
100
AcDbLine
 10
-867.7324567449036
 20
1599.431911698651
 30
0.0
 11
-884.7030194933816
 21
1616.402474447128
 31
0.0
  0
LINE
  5
3CD
330
1F
100
AcDbEntity
  8
0-0_補助線
  6
Continuous
 62
    92
370
    13
100
AcDbLine
 10
-867.7324567449036
 20
1599.431911698651
 30
0.0
 11
-740.7030194933795
 21
1599.431911698651
 31
0.0
  0
LINE
  5
3CE
330
1F
100
AcDbEntity
  8
0-0_補助線
  6
Continuous
 62
    92
370
    13
100
AcDbLine
 10
-867.7324567449036
 20
2529.431911698649
 30
0.0
 11
-884.7030194933816
 21
2512.461348950172
 31
0.0
  0
LINE
  5
3CF
330
1F
100
AcDbEntity
  8
0-0_補助線
  6
Continuous
 62
    92
370
    13
100
AcDbLine
 10
-867.7324567449036
 20
2529.431911698649
 30
0.0
 11
-740.7030194933795
 21
2529.431911698649
 31
0.0
  0
LINE
  5
3D0
330
1F
100
AcDbEntity
  8
0-0_補助線
  6
Continuous
 62
    92
370
    13
100
AcDbLine
 10
-743.7030194933787
 20
1689.431911698655
 30
0.0
 11
-743.7030194933787
 21
1602.432071915941
 31
0.0
  0
LINE
  5
3D1
330
1F
100
AcDbEntity
  8
0-0_補助線
  6
Continuous
 62
    92
370
    13
100
AcDbLine
 10
-743.7030194933787
 20
1689.431911698655
 30
0.0
 11
-740.7030194933781
 21
1689.431911698655
 31
0.0
  0
LINE
  5
3D2
330
1F
100
AcDbEntity
  8
0-0_補助線
  6
Continuous
 62
    92
370
    13
100
AcDbLine
 10
-866.4899762750715
 20
1602.432071915938
 30
0.0
 11
-743.7030194933787
 21
1602.432071915938
 31
0.0
  0
LINE
  5
3D3
330
1F
100
AcDbEntity
  8
0-0_補助線
  6
Continuous
 62
    92
370
    13
100
AcDbLine
 10
-743.7030194933787
 20
2439.431911698649
 30
0.0
 11
-743.7030194933787
 21
2526.432346574139
 31
0.0
  0
LINE
  5
3D4
330
1F
100
AcDbEntity
  8
0-0_補助線
  6
Continuous
 62
    92
370
    13
100
AcDbLine
 10
-743.7030194933787
 20
2439.431911698649
 30
0.0
 11
-740.7030194933781
 21
2439.431911698649
 31
0.0
  0
LINE
  5
3D5
330
1F
100
AcDbEntity
  8
0-0_補助線
  6
Continuous
 62
    92
370
    13
100
AcDbLine
 10
-743.7030194933787
 20
2526.43234657385
 30
0.0
 11
-866.4893811825845
 21
2526.43234657385
 31
0.0
  0
LINE
  5
3D6
330
1F
100
AcDbEntity
  8
0-0_補助線
  6
Continuous
 62
   120
370
     5
100
AcDbLine
 10
-743.7030194933787
 20
1665.961770703177
 30
0.0
 11
-807.2327922486957
 21
1602.432071915938
 31
0.0
  0
LINE
  5
3D7
330
1F
100
AcDbEntity
  8
0-0_補助線
  6
Continuous
 62
   120
370
     5
100
AcDbLine
 10
-743.7030194933787
 20
2480.549503742243
 30
0.0
 11
-881.7034543688706
 21
2342.547661057783
 31
0.0
  0
INSERT
  5
3D8
330
1F
100
AcDbEntity
  8
0-0_補助線
  6
Continuous
 62
     7
370
     9
100
AcDbBlockReference
  2
01@@SfigorgFlag@@4
 10
-885.5804687301472
 20
1968.431911698655
 30
0.0
 41
-30.0
 42
30.0
 50
270.0
  0
LINE
  5
3D9
330
1F
100
AcDbEntity
  8
0-0_補助線
  6
Continuous
 62
    92
370
    13
100
AcDbLine
 10
4575.995815781162
 20
2512.461348950172
 30
0.0
 11
4575.995815781162
 21
2046.431911698656
 31
0.0
  0
LINE
  5
3DA
330
1F
100
AcDbEntity
  8
0-0_補助線
  6
Continuous
 62
    92
370
    13
100
AcDbLine
 10
4578.995380905673
 20
2046.431911698656
 30
0.0
 11
4578.995380905673
 21
2511.218273387563
 31
0.0
  0
LINE
  5
3DB
330
1F
100
AcDbEntity
  8
0-0_補助線
  6
Continuous
 62
    92
370
    13
100
AcDbLine
 10
4575.995815781162
 20
1616.402474447128
 30
0.0
 11
4575.995815781162
 21
1890.431911698654
 31
0.0
  0
LINE
  5
3DC
330
1F
100
AcDbEntity
  8
0-0_補助線
  6
Continuous
 62
    92
370
    13
100
AcDbLine
 10
4578.995380905673
 20
1617.645550009737
 30
0.0
 11
4578.995380905673
 21
1890.431911698654
 31
0.0
  0
LINE
  5
3DD
330
1F
100
AcDbEntity
  8
0-0_補助線
  6
Continuous
 62
   120
370
     5
100
AcDbLine
 10
4602.053788766599
 20
1890.431911698654
 30
0.0
 11
4578.995380905673
 21
1867.373669829004
 31
0.0
  0
LINE
  5
3DE
330
1F
100
AcDbEntity
  8
0-0_補助線
  6
Continuous
 62
   120
370
     5
100
AcDbLine
 10
4719.995815781178
 20
2008.373089680305
 30
0.0
 11
4624.253948579579
 21
1912.631911698655
 31
0.0
  0
LINE
  5
3DF
330
1F
100
AcDbEntity
  8
0-0_補助線
  6
Continuous
 62
   120
370
     5
100
AcDbLine
 10
4600.090171086044
 20
2024.231911698655
 30
0.0
 11
4578.995380905673
 21
2003.137147802985
 31
0.0
  0
LINE
  5
3E0
330
1F
100
AcDbEntity
  8
0-0_補助線
  6
Continuous
 62
   120
370
     5
100
AcDbLine
 10
4719.995815781164
 20
2144.137406987968
 30
0.0
 11
4622.290198747904
 21
2046.431911698656
 31
0.0
  0
LINE
  5
3E1
330
1F
100
AcDbEntity
  8
0-0_補助線
  6
Continuous
 62
   120
370
     5
100
AcDbLine
 10
4719.995815781164
 20
2076.255106307888
 30
0.0
 11
4578.995380905673
 21
1935.255049782356
 31
0.0
  0
LINE
  5
3E2
330
1F
100
AcDbEntity
  8
0-0_補助線
  6
Continuous
 62
    92
370
    13
100
AcDbLine
 10
4575.995815781162
 20
1912.631911698655
 30
0.0
 11
4575.995815781162
 21
2024.231911698655
 31
0.0
  0
LINE
  5
3E3
330
1F
100
AcDbEntity
  8
0-0_補助線
  6
Continuous
 62
    92
370
    13
100
AcDbLine
 10
4578.995380905673
 20
1912.631911698655
 30
0.0
 11
4578.995380905673
 21
2024.231911698655
 31
0.0
  0
LINE
  5
3E4
330
1F
100
AcDbEntity
  8
0-0_補助線
  6
Continuous
 62
    92
370
    13
100
AcDbLine
 10
4626.995815781161
 20
1890.431911698654
 30
0.0
 11
4626.995815781161
 21
1912.631911698655
 31
0.0
  0
LINE
  5
3E5
330
1F
100
AcDbEntity
  8
0-0_補助線
  6
Continuous
 62
    92
370
    13
100
AcDbLine
 10
4626.995815781161
 20
2024.231911698655
 30
0.0
 11
4626.995815781161
 21
2046.431911698656
 31
0.0
  0
LINE
  5
3E6
330
1F
100
AcDbEntity
  8
0-0_補助線
  6
Continuous
 62
    92
370
    13
100
AcDbLine
 10
4626.995815781161
 20
2046.431911698656
 30
0.0
 11
4575.995815781162
 21
2046.431911698656
 31
0.0
  0
LINE
  5
3E7
330
1F
100
AcDbEntity
  8
0-0_補助線
  6
Continuous
 62
    92
370
    13
100
AcDbLine
 10
4575.995815781162
 20
2024.231911698655
 30
0.0
 11
4626.995815781161
 21
2024.231911698655
 31
0.0
  0
LINE
  5
3E8
330
1F
100
AcDbEntity
  8
0-0_補助線
  6
Continuous
 62
    92
370
    13
100
AcDbLine
 10
4575.995815781162
 20
1912.631911698655
 30
0.0
 11
4626.995815781161
 21
1912.631911698655
 31
0.0
  0
LINE
  5
3E9
330
1F
100
AcDbEntity
  8
0-0_補助線
  6
Continuous
 62
    92
370
    13
100
AcDbLine
 10
4575.995815781162
 20
1890.431911698654
 30
0.0
 11
4626.995815781161
 21
1890.431911698654
 31
0.0
  0
LINE
  5
3EA
330
1F
100
AcDbEntity
  8
0-0_補助線
  6
Continuous
 62
   120
370
     5
100
AcDbLine
 10
4719.995815781164
 20
1736.843923037929
 30
0.0
 11
4589.896336091534
 21
1606.744594823875
 31
0.0
  0
LINE
  5
3EB
330
1F
100
AcDbEntity
  8
0-0_補助線
  6
Continuous
 62
   120
370
     5
100
AcDbLine
 10
4719.995815781164
 20
1940.487845578572
 30
0.0
 11
4578.995380905673
 21
1799.490486375165
 31
0.0
  0
LINE
  5
3EC
330
1F
100
AcDbEntity
  8
0-0_補助線
  6
Continuous
 62
   120
370
     5
100
AcDbLine
 10
4719.995815781164
 20
2212.019895666691
 30
0.0
 11
4578.995380905673
 21
2071.019073716474
 31
0.0
  0
LINE
  5
3ED
330
1F
100
AcDbEntity
  8
0-0_補助線
  6
Continuous
 62
   120
370
     5
100
AcDbLine
 10
4627.115281857064
 20
2526.432346574139
 30
0.0
 11
4578.995380905673
 21
2478.311954728437
 31
0.0
  0
LINE
  5
3EE
330
1F
100
AcDbEntity
  8
0-0_補助線
  6
Continuous
 62
   120
370
     5
100
AcDbLine
 10
4694.996048251014
 20
2526.432346574139
 30
0.0
 11
4578.995380905673
 21
2410.430099717451
 31
0.0
  0
LINE
  5
3EF
330
1F
100
AcDbEntity
  8
0-0_補助線
  6
Continuous
 62
   120
370
     5
100
AcDbLine
 10
4719.995815781164
 20
2415.668160840431
 30
0.0
 11
4578.995380905673
 21
2274.665806046797
 31
0.0
  0
LINE
  5
3F0
330
1F
100
AcDbEntity
  8
0-0_補助線
  6
Continuous
 62
   120
370
     5
100
AcDbLine
 10
4719.995815781164
 20
2347.785240676035
 30
0.0
 11
4578.995380905673
 21
2206.783367387128
 31
0.0
  0
LINE
  5
3F1
330
1F
100
AcDbEntity
  8
0-0_補助線
  6
Continuous
 62
   120
370
     5
100
AcDbLine
 10
4719.995815781164
 20
2279.902402376295
 30
0.0
 11
4578.995380905673
 21
2138.90151237614
 31
0.0
  0
LINE
  5
3F2
330
1F
100
AcDbEntity
  8
0-0_補助線
  6
Continuous
 62
   120
370
     5
100
AcDbLine
 10
4719.995815781164
 20
1872.608024562471
 30
0.0
 11
4578.995380905673
 21
1731.608036271406
 31
0.0
  0
LINE
  5
3F3
330
1F
100
AcDbEntity
  8
0-0_補助線
  6
Continuous
 62
   120
370
     5
100
AcDbLine
 10
4719.995815781164
 20
1804.725811209785
 30
0.0
 11
4578.995380905673
 21
1663.725597611735
 31
0.0
  0
LINE
  5
3F4
330
1F
100
AcDbEntity
  8
0-0_補助線
  6
Continuous
 62
    92
370
    13
100
AcDbLine
 10
4719.995815781164
 20
2529.431911698649
 30
0.0
 11
4719.995815781164
 21
1599.431911698651
 31
0.0
  0
LINE
  5
3F5
330
1F
100
AcDbEntity
  8
0-0_補助線
  6
Continuous
 62
    92
370
    13
100
AcDbLine
 10
4594.208858999472
 20
1602.432071915938
 30
0.0
 11
4578.995380905673
 21
1617.645550009737
 31
0.0
  0
LINE
  5
3F6
330
1F
100
AcDbEntity
  8
0-0_補助線
  6
Continuous
 62
    92
370
    13
100
AcDbLine
 10
4594.209454091959
 20
2526.43234657385
 30
0.0
 11
4578.995380905673
 21
2511.218273387563
 31
0.0
  0
LINE
  5
3F7
330
1F
100
AcDbEntity
  8
0-0_補助線
  6
Continuous
 62
    92
370
    13
100
AcDbLine
 10
4592.96637852964
 20
1599.431911698651
 30
0.0
 11
4575.995815781162
 21
1616.402474447128
 31
0.0
  0
LINE
  5
3F8
330
1F
100
AcDbEntity
  8
0-0_補助線
  6
Continuous
 62
    92
370
    13
100
AcDbLine
 10
4592.96637852964
 20
1599.431911698651
 30
0.0
 11
4719.995815781164
 21
1599.431911698651
 31
0.0
  0
LINE
  5
3F9
330
1F
100
AcDbEntity
  8
0-0_補助線
  6
Continuous
 62
    92
370
    13
100
AcDbLine
 10
4592.96637852964
 20
2529.431911698649
 30
0.0
 11
4575.995815781162
 21
2512.461348950172
 31
0.0
  0
LINE
  5
3FA
330
1F
100
AcDbEntity
  8
0-0_補助線
  6
Continuous
 62
    92
370
    13
100
AcDbLine
 10
4592.96637852964
 20
2529.431911698649
 30
0.0
 11
4719.995815781164
 21
2529.431911698649
 31
0.0
  0
LINE
  5
3FB
330
1F
100
AcDbEntity
  8
0-0_補助線
  6
Continuous
 62
    92
370
    13
100
AcDbLine
 10
4716.995815781164
 20
1689.431911698655
 30
0.0
 11
4716.995815781164
 21
1602.432071915941
 31
0.0
  0
LINE
  5
3FC
330
1F
100
AcDbEntity
  8
0-0_補助線
  6
Continuous
 62
    92
370
    13
100
AcDbLine
 10
4716.995815781164
 20
1689.431911698655
 30
0.0
 11
4719.995815781165
 21
1689.431911698655
 31
0.0
  0
LINE
  5
3FD
330
1F
100
AcDbEntity
  8
0-0_補助線
  6
Continuous
 62
    92
370
    13
100
AcDbLine
 10
4594.208858999472
 20
1602.432071915938
 30
0.0
 11
4716.995815781164
 21
1602.432071915938
 31
0.0
  0
LINE
  5
3FE
330
1F
100
AcDbEntity
  8
0-0_補助線
  6
Continuous
 62
    92
370
    13
100
AcDbLine
 10
4716.995815781164
 20
2439.431911698649
 30
0.0
 11
4716.995815781164
 21
2526.432346574139
 31
0.0
  0
LINE
  5
3FF
330
1F
100
AcDbEntity
  8
0-0_補助線
  6
Continuous
 62
    92
370
    13
100
AcDbLine
 10
4716.995815781164
 20
2439.431911698649
 30
0.0
 11
4719.995815781165
 21
2439.431911698649
 31
0.0
  0
LINE
  5
400
330
1F
100
AcDbEntity
  8
0-0_補助線
  6
Continuous
 62
    92
370
    13
100
AcDbLine
 10
4716.995815781164
 20
2526.43234657385
 30
0.0
 11
4594.209454091959
 21
2526.43234657385
 31
0.0
  0
LINE
  5
401
330
1F
100
AcDbEntity
  8
0-0_補助線
  6
Continuous
 62
   120
370
     5
100
AcDbLine
 10
4716.995815781164
 20
1665.961770703177
 30
0.0
 11
4653.466043025848
 21
1602.432071915938
 31
0.0
  0
LINE
  5
402
330
1F
100
AcDbEntity
  8
0-0_補助線
  6
Continuous
 62
   120
370
     5
100
AcDbLine
 10
4716.995815781164
 20
2480.549503742243
 30
0.0
 11
4578.995380905673
 21
2342.547661057783
 31
0.0
  0
INSERT
  5
403
330
1F
100
AcDbEntity
  8
0-0_補助線
  6
Continuous
 62
     7
370
     9
100
AcDbBlockReference
  2
01@@SfigorgFlag@@4
 10
4575.118366544396
 20
1968.431911698655
 30
0.0
 41
-30.0
 42
30.0
 50
270.0
  0
LINE
  5
404
330
1F
100
AcDbEntity
  8
0-0_補助線
  6
Continuous
 62
    92
370
    13
100
AcDbLine
 10
-4911.756854638736
 20
-484.0000082479979
 30
0.0
 11
-4456.999495325856
 21
-484.0000082479979
 31
0.0
  0
LINE
  5
405
330
1F
100
AcDbEntity
  8
0-0_補助線
  6
Continuous
 62
    92
370
    13
100
AcDbLine
 10
-4910.513779076129
 20
-481.0004431234847
 30
0.0
 11
-4456.999495325856
 21
-481.0004431234847
 31
0.0
  0
LINE
  5
406
330
1F
100
AcDbEntity
  8
0-0_補助線
  6
Continuous
 62
    92
370
    13
100
AcDbLine
 10
-4038.242136012975
 20
-484.0000082479979
 30
0.0
 11
-4300.999495325854
 21
-484.0000082479979
 31
0.0
  0
LINE
  5
407
330
1F
100
AcDbEntity
  8
0-0_補助線
  6
Continuous
 62
    92
370
    13
100
AcDbLine
 10
-4039.485211575581
 20
-481.0004431234847
 30
0.0
 11
-4300.999495325854
 21
-481.0004431234847
 31
0.0
  0
LINE
  5
408
330
1F
100
AcDbEntity
  8
0-0_補助線
  6
Continuous
 62
    92
370
    13
100
AcDbLine
 10
-4434.799495325855
 20
-484.0000082479979
 30
0.0
 11
-4323.199495325855
 21
-484.0000082479979
 31
0.0
  0
LINE
  5
409
330
1F
100
AcDbEntity
  8
0-0_補助線
  6
Continuous
 62
    92
370
    13
100
AcDbLine
 10
-4434.799495325855
 20
-481.0004431234869
 30
0.0
 11
-4323.199495325855
 21
-481.0004431234869
 31
0.0
  0
LINE
  5
40A
330
1F
100
AcDbEntity
  8
0-0_補助線
  6
Continuous
 62
    92
370
    13
100
AcDbLine
 10
-4456.999495325856
 20
-433.0000082479978
 30
0.0
 11
-4434.799495325855
 21
-433.0000082479978
 31
0.0
  0
LINE
  5
40B
330
1F
100
AcDbEntity
  8
0-0_補助線
  6
Continuous
 62
    92
370
    13
100
AcDbLine
 10
-4323.199495325855
 20
-433.0000082479978
 30
0.0
 11
-4300.999495325854
 21
-433.0000082479978
 31
0.0
  0
LINE
  5
40C
330
1F
100
AcDbEntity
  8
0-0_補助線
  6
Continuous
 62
    92
370
    13
100
AcDbLine
 10
-4300.999495325854
 20
-433.0000082479978
 30
0.0
 11
-4300.999495325854
 21
-484.0000082479979
 31
0.0
  0
LINE
  5
40D
330
1F
100
AcDbEntity
  8
0-0_補助線
  6
Continuous
 62
    92
370
    13
100
AcDbLine
 10
-4323.199495325855
 20
-484.0000082479979
 30
0.0
 11
-4323.199495325855
 21
-433.0000082479978
 31
0.0
  0
LINE
  5
40E
330
1F
100
AcDbEntity
  8
0-0_補助線
  6
Continuous
 62
    92
370
    13
100
AcDbLine
 10
-4434.799495325855
 20
-484.0000082479979
 30
0.0
 11
-4434.799495325855
 21
-433.0000082479978
 31
0.0
  0
LINE
  5
40F
330
1F
100
AcDbEntity
  8
0-0_補助線
  6
Continuous
 62
    92
370
    13
100
AcDbLine
 10
-4456.999495325856
 20
-484.0000082479979
 30
0.0
 11
-4456.999495325856
 21
-433.0000082479978
 31
0.0
  0
LINE
  5
410
330
1F
100
AcDbEntity
  8
0-0_補助線
  6
Continuous
 62
    92
370
    13
100
AcDbLine
 10
-4915.999495325854
 20
-340.0000082479971
 30
0.0
 11
-4033.999495325857
 21
-340.0000082479971
 31
0.0
  0
LINE
  5
411
330
1F
100
AcDbEntity
  8
0-0_補助線
  6
Continuous
 62
    92
370
    13
100
AcDbLine
 10
-4912.999930201341
 20
-478.5142894269644
 30
0.0
 11
-4912.999930201341
 21
-343.0000082479966
 31
0.0
  0
LINE
  5
412
330
1F
100
AcDbEntity
  8
0-0_補助線
  6
Continuous
 62
    92
370
    13
100
AcDbLine
 10
-4910.513776535707
 20
-481.0004409614066
 30
0.0
 11
-4912.999930201341
 21
-478.5142894269644
 31
0.0
  0
LINE
  5
413
330
1F
100
AcDbEntity
  8
0-0_補助線
  6
Continuous
 62
    92
370
    13
100
AcDbLine
 10
-4911.756852820285
 20
-484.0000046110923
 30
0.0
 11
-4915.999495325854
 21
-479.7573657424256
 31
0.0
  0
LINE
  5
414
330
1F
100
AcDbEntity
  8
0-0_補助線
  6
Continuous
 62
    92
370
    13
100
AcDbLine
 10
-4915.999495325854
 20
-479.7573657424256
 30
0.0
 11
-4915.999495325854
 21
-340.0000082479971
 31
0.0
  0
LINE
  5
415
330
1F
100
AcDbEntity
  8
0-0_補助線
  6
Continuous
 62
    92
370
    13
100
AcDbLine
 10
-4855.999495325854
 20
-343.0000082479966
 30
0.0
 11
-4912.999930201341
 21
-343.0000082479966
 31
0.0
  0
LINE
  5
416
330
1F
100
AcDbEntity
  8
0-0_補助線
  6
Continuous
 62
    92
370
    13
100
AcDbLine
 10
-4855.999495325854
 20
-340.0000082479971
 30
0.0
 11
-4855.999495325854
 21
-343.0000082479966
 31
0.0
  0
LINE
  5
417
330
1F
100
AcDbEntity
  8
0-0_補助線
  6
Continuous
 62
    92
370
    13
100
AcDbLine
 10
-4036.99965554314
 20
-478.5148870910438
 30
0.0
 11
-4036.99965554314
 21
-343.0000082479966
 31
0.0
  0
LINE
  5
418
330
1F
100
AcDbEntity
  8
0-0_補助線
  6
Continuous
 62
    92
370
    13
100
AcDbLine
 10
-4039.485211575582
 20
-481.0004431234856
 30
0.0
 11
-4036.99965554314
 21
-478.5148870910438
 31
0.0
  0
LINE
  5
419
330
1F
100
AcDbEntity
  8
0-0_補助線
  6
Continuous
 62
    92
370
    13
100
AcDbLine
 10
-4038.242136012975
 20
-484.000008247997
 30
0.0
 11
-4033.999495325857
 21
-479.7573675608784
 31
0.0
  0
LINE
  5
41A
330
1F
100
AcDbEntity
  8
0-0_補助線
  6
Continuous
 62
    92
370
    13
100
AcDbLine
 10
-4033.999495325857
 20
-479.7573675608784
 30
0.0
 11
-4033.999495325857
 21
-340.0000082479971
 31
0.0
  0
LINE
  5
41B
330
1F
100
AcDbEntity
  8
0-0_補助線
  6
Continuous
 62
    92
370
    13
100
AcDbLine
 10
-4093.999495325857
 20
-343.0000082479966
 30
0.0
 11
-4093.999495325857
 21
-340.0000082479971
 31
0.0
  0
LINE
  5
41C
330
1F
100
AcDbEntity
  8
0-0_補助線
  6
Continuous
 62
    92
370
    13
100
AcDbLine
 10
-4093.999495325857
 20
-343.0000082479966
 30
0.0
 11
-4036.99965554314
 21
-343.0000082479966
 31
0.0
  0
LINE
  5
41D
330
1F
100
AcDbEntity
  8
0-0_補助線
  6
Continuous
 62
   120
370
     5
100
AcDbLine
 10
-4076.692758825284
 20
-481.0004431234835
 30
0.0
 11
-4036.99965554314
 21
-441.3073398413391
 31
0.0
  0
LINE
  5
41E
330
1F
100
AcDbEntity
  8
0-0_補助線
  6
Continuous
 62
   120
370
     5
100
AcDbLine
 10
-4144.575216817658
 20
-481.0004431234924
 30
0.0
 11
-4036.999655543157
 21
-373.4248818489901
 31
0.0
  0
LINE
  5
41F
330
1F
100
AcDbEntity
  8
0-0_補助線
  6
Continuous
 62
   120
370
     5
100
AcDbLine
 10
-4212.457674810009
 20
-481.0004431234801
 30
0.0
 11
-4074.457239934521
 21
-343.0000082479922
 31
0.0
  0
LINE
  5
420
330
1F
100
AcDbEntity
  8
0-0_補助線
  6
Continuous
 62
   120
370
     5
100
AcDbLine
 10
-4280.340132802311
 20
-481.0004431234736
 30
0.0
 11
-4139.339697926825
 21
-340.0000082479869
 31
0.0
  0
LINE
  5
421
330
1F
100
AcDbEntity
  8
0-0_補助線
  6
Continuous
 62
   120
370
     5
100
AcDbLine
 10
-4348.222590794677
 20
-481.0004431234757
 30
0.0
 11
-4323.199495325861
 21
-455.9773476546592
 31
0.0
  0
LINE
  5
422
330
1F
100
AcDbEntity
  8
0-0_補助線
  6
Continuous
 62
   120
370
     5
100
AcDbLine
 10
-4300.999495325849
 20
-433.7773476546465
 30
0.0
 11
-4207.222155919198
 21
-340.0000082479971
 31
0.0
  0
LINE
  5
423
330
1F
100
AcDbEntity
  8
0-0_補助線
  6
Continuous
 62
   120
370
     5
100
AcDbLine
 10
-4416.105048787051
 20
-481.000443123486
 30
0.0
 11
-4275.104613911569
 21
-340.0000082480031
 31
0.0
  0
LINE
  5
424
330
1F
100
AcDbEntity
  8
0-0_補助線
  6
Continuous
 62
   120
370
     5
100
AcDbLine
 10
-4483.987506779357
 20
-481.0004431234822
 30
0.0
 11
-4456.999495325854
 21
-454.0124316699789
 31
0.0
  0
LINE
  5
425
330
1F
100
AcDbEntity
  8
0-0_補助線
  6
Continuous
 62
   120
370
     5
100
AcDbLine
 10
-4435.987071903887
 20
-433.0000082480102
 30
0.0
 11
-4342.987071903883
 21
-340.0000082480074
 31
0.0
  0
LINE
  5
426
330
1F
100
AcDbEntity
  8
0-0_補助線
  6
Continuous
 62
   120
370
     5
100
AcDbLine
 10
-4551.869964771711
 20
-481.0004431234723
 30
0.0
 11
-4410.869529896228
 21
-340.0000082479903
 31
0.0
  0
LINE
  5
427
330
1F
100
AcDbEntity
  8
0-0_補助線
  6
Continuous
 62
   120
370
     5
100
AcDbLine
 10
-4619.752422764073
 20
-481.0004431234698
 30
0.0
 11
-4478.751987888604
 21
-340.0000082479993
 31
0.0
  0
LINE
  5
428
330
1F
100
AcDbEntity
  8
0-0_補助線
  6
Continuous
 62
   120
370
     5
100
AcDbLine
 10
-4687.634880756445
 20
-481.0004431234792
 30
0.0
 11
-4546.634445880968
 21
-340.0000082480005
 31
0.0
  0
LINE
  5
429
330
1F
100
AcDbEntity
  8
0-0_補助線
  6
Continuous
 62
   120
370
     5
100
AcDbLine
 10
-4755.517338748761
 20
-481.0004431234847
 30
0.0
 11
-4614.516903873281
 21
-340.000008248004
 31
0.0
  0
LINE
  5
42A
330
1F
100
AcDbEntity
  8
0-0_補助線
  6
Continuous
 62
   120
370
     5
100
AcDbLine
 10
-4823.399796741107
 20
-481.0004431234664
 30
0.0
 11
-4682.399361865636
 21
-340.0000082479971
 31
0.0
  0
LINE
  5
42B
330
1F
100
AcDbEntity
  8
0-0_補助線
  6
Continuous
 62
   120
370
     5
100
AcDbLine
 10
-4891.282254733476
 20
-481.0004431234723
 30
0.0
 11
-4750.281819858007
 21
-340.0000082480027
 31
0.0
  0
LINE
  5
42C
330
1F
100
AcDbEntity
  8
0-0_補助線
  6
Continuous
 62
   120
370
     5
100
AcDbLine
 10
-4912.999930201347
 20
-434.8356605990332
 30
0.0
 11
-4818.164277850321
 21
-340.0000082480086
 31
0.0
  0
LINE
  5
42D
330
1F
100
AcDbEntity
  8
0-0_補助線
  6
Continuous
 62
   120
370
     5
100
AcDbLine
 10
-4912.999930201338
 20
-366.9532026066599
 30
0.0
 11
-4889.046735842678
 21
-343.0000082480004
 31
0.0
  0
LINE
  5
42E
330
1F
100
AcDbEntity
  8
0-0_補助線
  6
Continuous
 62
    92
370
    13
100
AcDbLine
 10
1878.242112815501
 20
-484.0000082479979
 30
0.0
 11
2332.999472128382
 21
-484.0000082479979
 31
0.0
  0
LINE
  5
42F
330
1F
100
AcDbEntity
  8
0-0_補助線
  6
Continuous
 62
    92
370
    13
100
AcDbLine
 10
1879.485188378107
 20
-481.0004431234847
 30
0.0
 11
2332.999472128382
 21
-481.0004431234847
 31
0.0
  0
LINE
  5
430
330
1F
100
AcDbEntity
  8
0-0_補助線
  6
Continuous
 62
    92
370
    13
100
AcDbLine
 10
2751.756831441262
 20
-484.0000082479979
 30
0.0
 11
2488.999472128383
 21
-484.0000082479979
 31
0.0
  0
LINE
  5
431
330
1F
100
AcDbEntity
  8
0-0_補助線
  6
Continuous
 62
    92
370
    13
100
AcDbLine
 10
2750.513755878656
 20
-481.0004431234847
 30
0.0
 11
2488.999472128383
 21
-481.0004431234847
 31
0.0
  0
LINE
  5
432
330
1F
100
AcDbEntity
  8
0-0_補助線
  6
Continuous
 62
    92
370
    13
100
AcDbLine
 10
2355.199472128382
 20
-484.0000082479979
 30
0.0
 11
2466.799472128383
 21
-484.0000082479979
 31
0.0
  0
LINE
  5
433
330
1F
100
AcDbEntity
  8
0-0_補助線
  6
Continuous
 62
    92
370
    13
100
AcDbLine
 10
2355.199472128382
 20
-481.0004431234869
 30
0.0
 11
2466.799472128383
 21
-481.0004431234869
 31
0.0
  0
LINE
  5
434
330
1F
100
AcDbEntity
  8
0-0_補助線
  6
Continuous
 62
    92
370
    13
100
AcDbLine
 10
2332.999472128382
 20
-433.0000082479978
 30
0.0
 11
2355.199472128382
 21
-433.0000082479978
 31
0.0
  0
LINE
  5
435
330
1F
100
AcDbEntity
  8
0-0_補助線
  6
Continuous
 62
    92
370
    13
100
AcDbLine
 10
2466.799472128383
 20
-433.0000082479978
 30
0.0
 11
2488.999472128383
 21
-433.0000082479978
 31
0.0
  0
LINE
  5
436
330
1F
100
AcDbEntity
  8
0-0_補助線
  6
Continuous
 62
    92
370
    13
100
AcDbLine
 10
2488.999472128383
 20
-433.0000082479978
 30
0.0
 11
2488.999472128383
 21
-484.0000082479979
 31
0.0
  0
LINE
  5
437
330
1F
100
AcDbEntity
  8
0-0_補助線
  6
Continuous
 62
    92
370
    13
100
AcDbLine
 10
2466.799472128383
 20
-484.0000082479979
 30
0.0
 11
2466.799472128383
 21
-433.0000082479978
 31
0.0
  0
LINE
  5
438
330
1F
100
AcDbEntity
  8
0-0_補助線
  6
Continuous
 62
    92
370
    13
100
AcDbLine
 10
2355.199472128382
 20
-484.0000082479979
 30
0.0
 11
2355.199472128382
 21
-433.0000082479978
 31
0.0
  0
LINE
  5
439
330
1F
100
AcDbEntity
  8
0-0_補助線
  6
Continuous
 62
    92
370
    13
100
AcDbLine
 10
2332.999472128382
 20
-484.0000082479979
 30
0.0
 11
2332.999472128382
 21
-433.0000082479978
 31
0.0
  0
LINE
  5
43A
330
1F
100
AcDbEntity
  8
0-0_補助線
  6
Continuous
 62
    92
370
    13
100
AcDbLine
 10
1873.999472128383
 20
-340.0000082479971
 30
0.0
 11
2755.999472128381
 21
-340.0000082479971
 31
0.0
  0
LINE
  5
43B
330
1F
100
AcDbEntity
  8
0-0_補助線
  6
Continuous
 62
    92
370
    13
100
AcDbLine
 10
1876.999037252896
 20
-478.5142894269644
 30
0.0
 11
1876.999037252896
 21
-343.0000082479966
 31
0.0
  0
LINE
  5
43C
330
1F
100
AcDbEntity
  8
0-0_補助線
  6
Continuous
 62
    92
370
    13
100
AcDbLine
 10
1879.485190918531
 20
-481.0004409614066
 30
0.0
 11
1876.999037252896
 21
-478.5142894269644
 31
0.0
  0
LINE
  5
43D
330
1F
100
AcDbEntity
  8
0-0_補助線
  6
Continuous
 62
    92
370
    13
100
AcDbLine
 10
1878.242114633952
 20
-484.0000046110923
 30
0.0
 11
1873.999472128383
 21
-479.7573657424256
 31
0.0
  0
LINE
  5
43E
330
1F
100
AcDbEntity
  8
0-0_補助線
  6
Continuous
 62
    92
370
    13
100
AcDbLine
 10
1873.999472128383
 20
-479.7573657424256
 30
0.0
 11
1873.999472128383
 21
-340.0000082479971
 31
0.0
  0
LINE
  5
43F
330
1F
100
AcDbEntity
  8
0-0_補助線
  6
Continuous
 62
    92
370
    13
100
AcDbLine
 10
1933.999472128383
 20
-343.0000082479966
 30
0.0
 11
1876.999037252896
 21
-343.0000082479966
 31
0.0
  0
LINE
  5
440
330
1F
100
AcDbEntity
  8
0-0_補助線
  6
Continuous
 62
    92
370
    13
100
AcDbLine
 10
1933.999472128383
 20
-340.0000082479971
 30
0.0
 11
1933.999472128383
 21
-343.0000082479966
 31
0.0
  0
LINE
  5
441
330
1F
100
AcDbEntity
  8
0-0_補助線
  6
Continuous
 62
    92
370
    13
100
AcDbLine
 10
2752.999311911097
 20
-478.5148870910438
 30
0.0
 11
2752.999311911097
 21
-343.0000082479966
 31
0.0
  0
LINE
  5
442
330
1F
100
AcDbEntity
  8
0-0_補助線
  6
Continuous
 62
    92
370
    13
100
AcDbLine
 10
2750.513755878656
 20
-481.0004431234856
 30
0.0
 11
2752.999311911097
 21
-478.5148870910438
 31
0.0
  0
LINE
  5
443
330
1F
100
AcDbEntity
  8
0-0_補助線
  6
Continuous
 62
    92
370
    13
100
AcDbLine
 10
2751.756831441262
 20
-484.000008247997
 30
0.0
 11
2755.999472128381
 21
-479.7573675608784
 31
0.0
  0
LINE
  5
444
330
1F
100
AcDbEntity
  8
0-0_補助線
  6
Continuous
 62
    92
370
    13
100
AcDbLine
 10
2755.999472128381
 20
-479.7573675608784
 30
0.0
 11
2755.999472128381
 21
-340.0000082479971
 31
0.0
  0
LINE
  5
445
330
1F
100
AcDbEntity
  8
0-0_補助線
  6
Continuous
 62
    92
370
    13
100
AcDbLine
 10
2695.999472128381
 20
-343.0000082479966
 30
0.0
 11
2695.999472128381
 21
-340.0000082479971
 31
0.0
  0
LINE
  5
446
330
1F
100
AcDbEntity
  8
0-0_補助線
  6
Continuous
 62
    92
370
    13
100
AcDbLine
 10
2695.999472128381
 20
-343.0000082479966
 30
0.0
 11
2752.999311911097
 21
-343.0000082479966
 31
0.0
  0
LINE
  5
447
330
1F
100
AcDbEntity
  8
0-0_補助線
  6
Continuous
 62
   120
370
     5
100
AcDbLine
 10
2713.306208628953
 20
-481.0004431234835
 30
0.0
 11
2752.999311911098
 21
-441.3073398413391
 31
0.0
  0
LINE
  5
448
330
1F
100
AcDbEntity
  8
0-0_補助線
  6
Continuous
 62
   120
370
     5
100
AcDbLine
 10
2645.423750636579
 20
-481.0004431234924
 30
0.0
 11
2752.99931191108
 21
-373.4248818489901
 31
0.0
  0
LINE
  5
449
330
1F
100
AcDbEntity
  8
0-0_補助線
  6
Continuous
 62
   120
370
     5
100
AcDbLine
 10
2577.541292644228
 20
-481.0004431234801
 30
0.0
 11
2715.541727519716
 21
-343.0000082479922
 31
0.0
  0
LINE
  5
44A
330
1F
100
AcDbEntity
  8
0-0_補助線
  6
Continuous
 62
   120
370
     5
100
AcDbLine
 10
2509.658834651926
 20
-481.0004431234736
 30
0.0
 11
2650.659269527412
 21
-340.0000082479869
 31
0.0
  0
LINE
  5
44B
330
1F
100
AcDbEntity
  8
0-0_補助線
  6
Continuous
 62
   120
370
     5
100
AcDbLine
 10
2441.77637665956
 20
-481.0004431234757
 30
0.0
 11
2466.799472128376
 21
-455.9773476546592
 31
0.0
  0
LINE
  5
44C
330
1F
100
AcDbEntity
  8
0-0_補助線
  6
Continuous
 62
   120
370
     5
100
AcDbLine
 10
2488.999472128388
 20
-433.7773476546465
 30
0.0
 11
2582.776811535039
 21
-340.0000082479971
 31
0.0
  0
LINE
  5
44D
330
1F
100
AcDbEntity
  8
0-0_補助線
  6
Continuous
 62
   120
370
     5
100
AcDbLine
 10
2373.893918667186
 20
-481.000443123486
 30
0.0
 11
2514.894353542668
 21
-340.0000082480031
 31
0.0
  0
LINE
  5
44E
330
1F
100
AcDbEntity
  8
0-0_補助線
  6
Continuous
 62
   120
370
     5
100
AcDbLine
 10
2306.01146067488
 20
-481.0004431234822
 30
0.0
 11
2332.999472128383
 21
-454.0124316699789
 31
0.0
  0
LINE
  5
44F
330
1F
100
AcDbEntity
  8
0-0_補助線
  6
Continuous
 62
   120
370
     5
100
AcDbLine
 10
2354.011895550349
 20
-433.0000082480102
 30
0.0
 11
2447.011895550354
 21
-340.0000082480074
 31
0.0
  0
LINE
  5
450
330
1F
100
AcDbEntity
  8
0-0_補助線
  6
Continuous
 62
   120
370
     5
100
AcDbLine
 10
2238.129002682526
 20
-481.0004431234723
 30
0.0
 11
2379.129437558009
 21
-340.0000082479903
 31
0.0
  0
LINE
  5
451
330
1F
100
AcDbEntity
  8
0-0_補助線
  6
Continuous
 62
   120
370
     5
100
AcDbLine
 10
2170.246544690164
 20
-481.0004431234698
 30
0.0
 11
2311.246979565633
 21
-340.0000082479993
 31
0.0
  0
LINE
  5
452
330
1F
100
AcDbEntity
  8
0-0_補助線
  6
Continuous
 62
   120
370
     5
100
AcDbLine
 10
2102.364086697791
 20
-481.0004431234792
 30
0.0
 11
2243.364521573269
 21
-340.0000082480005
 31
0.0
  0
LINE
  5
453
330
1F
100
AcDbEntity
  8
0-0_補助線
  6
Continuous
 62
   120
370
     5
100
AcDbLine
 10
2034.481628705475
 20
-481.0004431234847
 30
0.0
 11
2175.482063580956
 21
-340.000008248004
 31
0.0
  0
LINE
  5
454
330
1F
100
AcDbEntity
  8
0-0_補助線
  6
Continuous
 62
   120
370
     5
100
AcDbLine
 10
1966.59917071313
 20
-481.0004431234664
 30
0.0
 11
2107.599605588601
 21
-340.0000082479971
 31
0.0
  0
LINE
  5
455
330
1F
100
AcDbEntity
  8
0-0_補助線
  6
Continuous
 62
   120
370
     5
100
AcDbLine
 10
1898.716712720761
 20
-481.0004431234723
 30
0.0
 11
2039.71714759623
 21
-340.0000082480027
 31
0.0
  0
LINE
  5
456
330
1F
100
AcDbEntity
  8
0-0_補助線
  6
Continuous
 62
   120
370
     5
100
AcDbLine
 10
1876.99903725289
 20
-434.8356605990332
 30
0.0
 11
1971.834689603915
 21
-340.0000082480086
 31
0.0
  0
LINE
  5
457
330
1F
100
AcDbEntity
  8
0-0_補助線
  6
Continuous
 62
   120
370
     5
100
AcDbLine
 10
1876.999037252899
 20
-366.9532026066599
 30
0.0
 11
1900.952231611559
 21
-343.0000082480004
 31
0.0
  0
LINE
  5
458
330
1F
100
AcDbEntity
  8
0-0_補助線
  6
Continuous
 62
   200
370
    20
100
AcDbLine
 10
2503.999472128382
 20
-514.0000082479979
 30
0.0
 11
2719.999472128379
 21
-514.0000082479979
 31
0.0
  0
LINE
  5
459
330
1F
100
AcDbEntity
  8
0-0_補助線
  6
Continuous
 62
   200
370
    20
100
AcDbLine
 10
-4285.999495325856
 20
-514.0000082479979
 30
0.0
 11
-4069.999495325858
 21
-514.0000082479979
 31
0.0
  0
INSERT
  5
45A
330
1F
100
AcDbEntity
  8
0-0_補助線
  6
Continuous
 62
     7
370
     9
100
AcDbBlockReference
  2
2@@SfigorgFlag@@4
 10
2420.468156719952
 20
-484.9260863230074
 30
0.0
 41
30.0
 42
30.0
 50
90.0
  0
INSERT
  5
45B
330
1F
100
AcDbEntity
  8
0-0_補助線
  6
Continuous
 62
     7
370
     9
100
AcDbBlockReference
  2
2@@SfigorgFlag@@4
 10
-4369.530810734284
 20
-484.9260863230074
 30
0.0
 41
30.0
 42
30.0
 50
90.0
  0
LINE
  5
45C
330
1F
100
AcDbEntity
  8
0-A_文字
  6
Continuous
 62
    92
370
    13
100
AcDbLine
 10
-1249.999495325861
 20
-520.0000082479967
 30
0.0
 11
-1360.714285714286
 21
-520.0000082479967
 31
0.0
  0
LINE
  5
45D
330
1F
100
AcDbEntity
  8
0-A_文字
  6
Continuous
 62
    92
370
    13
100
AcDbLine
 10
-1294.047619047619
 20
-340.0000082479967
 30
0.0
 11
-1249.999495325859
 21
-340.0000082479967
 31
0.0
  0
LINE
  5
45E
330
1F
100
AcDbEntity
  8
0-A_文字
  6
Continuous
 62
    92
370
    13
100
AcDbLine
 10
-1379.761904761905
 20
-2059.041565127583
 30
0.0
 11
-1249.999495325857
 21
-2059.041565127583
 31
0.0
  0
LINE
  5
45F
330
1F
100
AcDbEntity
  8
0-A_文字
  6
Continuous
 62
    92
370
    13
100
AcDbLine
 10
-2929.999495325857
 20
-2059.041565127583
 30
0.0
 11
-1249.999495325859
 21
-2059.041565127583
 31
0.0
  0
LINE
  5
460
330
1F
100
AcDbEntity
  8
0-A_文字
  6
Continuous
 62
    92
370
    13
100
AcDbLine
 10
-1249.999495325859
 20
-520.0000082479967
 30
0.0
 11
-2929.999495325857
 21
-520.0000082479967
 31
0.0
  0
LINE
  5
461
330
1F
100
AcDbEntity
  8
0-A_文字
  6
Continuous
 62
    92
370
    13
100
AcDbLine
 10
-2929.999495325859
 20
-340.0000082479967
 30
0.0
 11
-1249.999495325859
 21
-340.0000082479967
 31
0.0
  0
LINE
  5
462
330
1F
100
AcDbEntity
  8
0-A_文字
  6
Continuous
 62
    92
370
    13
100
AcDbLine
 10
-1249.999495325859
 20
-340.0000082479967
 30
0.0
 11
550.0005046741412
 21
-340.0000082479967
 31
0.0
  0
LINE
  5
463
330
1F
100
AcDbEntity
  8
0-A_文字
  6
Continuous
 62
    92
370
    13
100
AcDbLine
 10
550.0005046741412
 20
-520.0000082479967
 30
0.0
 11
-1249.999495325859
 21
-520.0000082479967
 31
0.0
  0
LINE
  5
464
330
1F
100
AcDbEntity
  8
0-A_文字
  6
Continuous
 62
    92
370
    13
100
AcDbLine
 10
-1249.999495325859
 20
-2059.041565127583
 30
0.0
 11
550.0005046741412
 21
-2059.041565127583
 31
0.0
  0
LINE
  5
465
330
1F
100
AcDbEntity
  8
0-A_文字
  6
Continuous
 62
    92
370
    13
100
AcDbLine
 10
-1249.999495325859
 20
-3208.000214241649
 30
0.0
 11
-1249.999495325859
 21
-2059.041565127583
 31
0.0
  0
LINE
  5
466
330
1F
100
AcDbEntity
  8
0-A_文字
  6
Continuous
 62
    92
370
    13
100
AcDbLine
 10
-1249.999495325859
 20
-2059.041565127583
 30
0.0
 11
-1249.999495325859
 21
-340.0000082479967
 31
0.0
  0
MTEXT
  5
467
330
1F
100
AcDbEntity
  8
0-B_寸法
  6
Continuous
 62
     7
370
   211
100
AcDbMText
 10
-2735.703019493378
 20
1195.151911698657
 30
0.0
 40
91.43999999999998
 41
540.0
 46
0.0
 71
     7
 72
     1
  1
{\fＭＳ ゴシック|b0|i0|c128|p49;ＤＷ＝723}
 73
     1
 44
1.0
  0
MTEXT
  5
468
330
1F
100
AcDbEntity
  8
0-B_寸法
  6
Continuous
 62
     7
370
   211
100
AcDbMText
 10
-2735.703019493378
 20
985.1519116986574
 30
0.0
 40
91.43999999999998
 41
540.0
 46
0.0
 71
     7
 72
     1
  1
{\fＭＳ ゴシック|b0|i0|c128|p49;枠内＝730}
 73
     1
 44
1.0
  0
MTEXT
  5
469
330
1F
100
AcDbEntity
  8
0-B_寸法
  6
Continuous
 62
     7
370
   211
100
AcDbMText
 10
-2735.703019493378
 20
775.1519116986574
 30
0.0
 40
91.43999999999998
 41
540.0
 46
0.0
 71
     7
 72
     1
  1
{\fＭＳ ゴシック|b0|i0|c128|p49;枠外＝778}
 73
     1
 44
1.0
  0
MTEXT
  5
46A
330
1F
100
AcDbEntity
  8
0-B_寸法
  6
Continuous
 62
     7
370
   211
100
AcDbMText
 10
2724.995815781165
 20
1195.151911698657
 30
0.0
 40
91.43999999999998
 41
540.0
 46
0.0
 71
     7
 72
     1
  1
{\fＭＳ ゴシック|b0|i0|c128|p49;ＤＷ＝723}
 73
     1
 44
1.0
  0
MTEXT
  5
46B
330
1F
100
AcDbEntity
  8
0-B_寸法
  6
Continuous
 62
     7
370
   211
100
AcDbMText
 10
2724.995815781165
 20
985.1519116986574
 30
0.0
 40
91.43999999999998
 41
540.0
 46
0.0
 71
     7
 72
     1
  1
{\fＭＳ ゴシック|b0|i0|c128|p49;枠内＝730}
 73
     1
 44
1.0
  0
MTEXT
  5
46C
330
1F
100
AcDbEntity
  8
0-B_寸法
  6
Continuous
 62
     7
370
   211
100
AcDbMText
 10
2724.995815781165
 20
775.1519116986574
 30
0.0
 40
91.43999999999998
 41
540.0
 46
0.0
 71
     7
 72
     1
  1
{\fＭＳ ゴシック|b0|i0|c128|p49;枠外＝778}
 73
     1
 44
1.0
  0
MTEXT
  5
46D
330
1F
100
AcDbEntity
  8
F-A_文字
  6
Continuous
 62
     7
370
     9
100
AcDbMText
 10
5086.249528460476
 20
-4132.856814748127
 30
0.0
 40
74.295
 41
97.5
 46
0.0
 71
     7
 72
     1
  1
{\fＭＳ ゴシック|b0|i0|c128|p49;03}
 73
     1
 44
1.0
  0
MTEXT
  5
46E
330
1F
100
AcDbEntity
  8
0-A_文字
  6
Continuous
 62
    92
370
    13
100
AcDbMText
 10
-5599.999727300696
 20
3758.838143838255
 30
0.0
 40
147.6756
 41
2422.5
 46
0.0
 71
     7
 72
     1
  1
{\fＭＳ ゴシック|b0|i0|c128|p49;欄間付きドア　固定枠155巾}
 73
     1
 44
1.0
  0
MTEXT
  5
46F
330
1F
100
AcDbEntity
  8
1-B_寸法
  6
Continuous
 62
     7
370
   211
100
AcDbMText
 10
-361.6548479645179
 20
-2947.551230872918
 30
0.0
 40
97.15499999999999
 41
127.5
 46
0.0
 71
     7
 72
     1
  1
{\fＭＳ ゴシック|b0|i0|c128|p49;67}
 73
     1
 44
1.0
  0
LINE
  5
470
330
1F
100
AcDbEntity
  8
0-B_寸法
  6
Continuous
 62
   120
370
     5
100
AcDbLine
 10
-3379.999495325858
 20
-340.0000082479971
 30
0.0
 11
-3379.999495325858
 21
-3022.000420235304
 31
0.0
  0
LINE
  5
471
330
1F
100
AcDbEntity
  8
0-B_寸法
  6
Continuous
 62
   120
370
     5
100
AcDbLine
 10
-3169.999495325858
 20
-3022.000420235304
 30
0.0
 11
-3799.999495325858
 21
-3022.000420235304
 31
0.0
  0
LWPOLYLINE
  5
472
330
1F
100
AcDbEntity
  8
0-B_寸法
  6
Continuous
 62
     7
370
     9
100
AcDbPolyline
 90
        4
 70
     1
 43
3.0
 10
-3168.499495325858
 20
-3022.000420235304
 42
0.4142135623731
 10
-3169.999495325858
 20
-3020.500420235304
 42
0.4142135623731
 10
-3171.499495325858
 20
-3022.000420235304
 42
0.4142135623731
 10
-3169.999495325858
 20
-3023.500420235304
 42
0.4142135623731
  0
LINE
  5
473
330
1F
100
AcDbEntity
  8
0-0_補助線
  6
JWW_HOJO
 62
   120
370
     5
100
AcDbLine
 10
-3379.999495325858
 20
-3094.00021424165
 30
0.0
 11
-3379.999495325858
 21
259.9999917520024
 31
0.0
  0
MTEXT
  5
474
330
1F
100
AcDbEntity
  8
0-B_寸法
  6
Continuous
 62
     7
370
     0
100
AcDbMText
 10
-3178.914145752562
 20
-2058.280062607433
 30
0.0
 40
91.43999999999997
 41
660.0
 46
0.0
 71
     7
 72
     1
  1
{\fＭＳ ゴシック|b0|i0|c128|p49;枠外＝2,400}
 11
6.123031769111886E-17
 21
1.0
 31
0.0
 73
     1
 44
1.0
  0
LINE
  5
475
330
1F
100
AcDbEntity
  8
0-0_補助線
  6
Continuous
 62
   120
370
     5
100
AcDbLine
 10
4088.570396025667
 20
-798.2151405783246
 30
0.0
 11
4088.570396025667
 21
-948.2151405783246
 31
0.0
  0
LINE
  5
476
330
1F
100
AcDbEntity
  8
0-0_補助線
  6
Continuous
 62
   120
370
     5
100
AcDbLine
 10
4088.570396025667
 20
-798.2151405783246
 30
0.0
 11
5018.57039602567
 21
-798.2151405783246
 31
0.0
  0
LINE
  5
477
330
1F
100
AcDbEntity
  8
0-0_補助線
  6
Continuous
 62
   120
370
     5
100
AcDbLine
 10
5018.57039602567
 20
-798.2151405783246
 30
0.0
 11
5018.57039602567
 21
-948.2151405783246
 31
0.0
  0
LWPOLYLINE
  5
478
330
1F
100
AcDbEntity
  8
0-0_補助線
  6
Continuous
 62
     7
370
     9
100
AcDbPolyline
 90
        4
 70
     1
 43
3.0
 10
4090.070396025668
 20
-798.2151405783246
 42
0.4142135623731
 10
4088.570396025667
 20
-796.7151405783246
 42
0.4142135623731
 10
4087.070396025667
 20
-798.2151405783246
 42
0.4142135623731
 10
4088.570396025667
 20
-799.7151405783246
 42
0.4142135623731
  0
LWPOLYLINE
  5
479
330
1F
100
AcDbEntity
  8
0-0_補助線
  6
Continuous
 62
     7
370
     9
100
AcDbPolyline
 90
        4
 70
     1
 43
3.0
 10
5020.070396025671
 20
-798.2151405783246
 42
0.4142135623731
 10
5018.57039602567
 20
-796.7151405783246
 42
0.4142135623731
 10
5017.07039602567
 20
-798.2151405783246
 42
0.4142135623731
 10
5018.57039602567
 20
-799.7151405783246
 42
0.4142135623731
  0
MTEXT
  5
47A
330
1F
100
AcDbEntity
  8
0-0_補助線
  6
Continuous
 62
     7
370
     0
100
AcDbMText
 10
4434.709056890399
 20
-799.2031763164617
 30
0.0
 40
91.44
 41
180.0
 46
0.0
 71
     7
 72
     1
  1
{\fＭＳ ゴシック|b0|i0|c128|p49;155}
 73
     1
 44
1.0
  0
LINE
  5
47B
330
1F
100
AcDbEntity
  8
0-0_補助線
  6
Continuous
 62
    92
370
    13
100
AcDbLine
 10
4088.570396025667
 20
-1019.808319623914
 30
0.0
 11
4088.570396025667
 21
-1619.233253751668
 31
0.0
  0
LINE
  5
47C
330
1F
100
AcDbEntity
  8
0-0_補助線
  6
Continuous
 62
    92
370
    13
100
AcDbLine
 10
5018.57039602567
 20
-1019.808319623914
 30
0.0
 11
5018.57039602567
 21
-1619.233253751668
 31
0.0
  0
LINE
  5
47D
330
1F
100
AcDbEntity
  8
0-0_補助線
  6
Continuous
 62
    92
370
    13
100
AcDbLine
 10
5018.57039602567
 20
-1619.233253751668
 30
0.0
 11
4088.570396025667
 21
-1619.233253751668
 31
0.0
  0
MTEXT
  5
47E
330
1F
100
AcDbEntity
  8
F-A_文字
  6
Continuous
 62
     7
370
     0
100
AcDbMText
 10
-5067.499495325862
 20
-4030.05823812653
 30
0.0
 40
79.88299999999994
 41
4717.5
 46
0.0
 71
     7
 72
     1
  1
{\fＭＳ ゴシック|b0|i0|c128|p49;ドレタス　欄間付きドア　固定枠155巾　通気　４方枠（下枠Q型）／３方枠　枠外H2,400　枠外W778}
 73
     1
 44
1.0
  0
LINE
  5
47F
330
1F
100
AcDbEntity
  8
F-0_補助線
  6
JWW_HOJO
 62
     7
370
     9
100
AcDbLine
 10
1100.000412399705
 20
-3779.999805141138
 30
0.0
 11
1100.000412399705
 21
-4179.999810296134
 31
0.0
  0
LINE
  5
480
330
1F
100
AcDbEntity
  8
F-0_補助線
  6
JWW_HOJO
 62
     7
370
     9
100
AcDbLine
 10
4879.999719568202
 20
-3779.999805141139
 30
0.0
 11
4879.999719568202
 21
-4179.999810296136
 31
0.0
  0
MTEXT
  5
481
330
1F
100
AcDbEntity
  8
F-1_枠
  6
Continuous
 62
     7
370
     0
100
AcDbMText
 10
1100.000412399705
 20
-3930.948061703383
 30
0.0
 40
78.105
 41
615.0
 46
0.0
 71
     7
 72
     1
  1
{\fＭＳ ゴシック|b0|i0|c128|p49;建具納まり図}
 73
     1
 44
1.0
  0
MTEXT
  5
482
330
1F
100
AcDbEntity
  8
F-1_枠
  6
Continuous
 62
     7
370
     0
100
AcDbMText
 10
500.0004123997047
 20
-3930.709379010375
 30
0.0
 40
78.58125
 41
412.5
 46
0.0
 71
     7
 72
     1
  1
{\fＭＳ ゴシック|b0|i0|c128|p49;DOORETUS}
 73
     1
 44
1.0
  0
MTEXT
  5
483
330
1F
100
AcDbEntity
  8
0-B_寸法
  6
Continuous
 62
     7
370
     0
100
AcDbMText
 10
-3174.945374603739
 20
-3257.400055839926
 30
0.0
 40
91.44
 41
120.0
 46
0.0
 71
     7
 72
     1
  1
{\fＭＳ ゴシック|b0|i0|c128|p49;12}
 11
6.123031769111886E-17
 21
1.0
 31
0.0
 73
     1
 44
1.0
  0
MTEXT
  5
484
330
1F
100
AcDbEntity
  8
0-B_寸法
  6
Continuous
 62
     7
370
     0
100
AcDbMText
 10
3619.99947212838
 20
-3265.505276117756
 30
0.0
 40
91.44
 41
120.0
 46
0.0
 71
     7
 72
     1
  1
{\fＭＳ ゴシック|b0|i0|c128|p49;12}
 11
6.123031769111886E-17
 21
1.0
 31
0.0
 73
     1
 44
1.0
  0
LINE
  5
485
330
1F
100
AcDbEntity
  8
0-0_補助線
  6
Continuous
 62
     7
370
     9
100
AcDbLine
 10
-1933.270731229634
 20
-1410.397591037397
 30
0.0
 11
-2088.070059406412
 21
-1526.49708716998
 31
0.0
  0
LINE
  5
486
330
1F
100
AcDbEntity
  8
0-0_補助線
  6
Continuous
 62
     7
370
     9
100
AcDbLine
 10
-2147.138592965251
 20
-1526.49708716998
 30
0.0
 11
-2088.070059406412
 21
-1526.49708716998
 31
0.0
  0
LINE
  5
487
330
1F
100
AcDbEntity
  8
0-0_補助線
  6
Continuous
 62
     7
370
     9
100
AcDbLine
 10
-2021.19912711553
 20
-1355.168253180943
 30
0.0
 11
-2021.19912711553
 21
-1427.168253180943
 31
0.0
  0
LINE
  5
488
330
1F
100
AcDbEntity
  8
0-0_補助線
  6
Continuous
 62
     7
370
     9
100
AcDbLine
 10
-1619.19912711553
 20
-1427.168253180943
 30
0.0
 11
-2021.19912711553
 21
-1427.168253180943
 31
0.0
  0
LINE
  5
489
330
1F
100
AcDbEntity
  8
0-0_補助線
  6
Continuous
 62
     7
370
     9
100
AcDbLine
 10
-1619.19912711553
 20
-1355.168253180943
 30
0.0
 11
-1619.19912711553
 21
-1427.168253180943
 31
0.0
  0
LINE
  5
48A
330
1F
100
AcDbEntity
  8
0-0_補助線
  6
Continuous
 62
     7
370
     9
100
AcDbLine
 10
-1619.19912711553
 20
-1355.168253180943
 30
0.0
 11
-2021.19912711553
 21
-1355.168253180943
 31
0.0
  0
LINE
  5
48B
330
1F
100
AcDbEntity
  8
0-0_補助線
  6
Continuous
 62
   120
370
     5
100
AcDbLine
 10
-1415.858589159604
 20
-1355.168253180943
 30
0.0
 11
-1415.858589159604
 21
-1427.168253180943
 31
0.0
  0
LWPOLYLINE
  5
48C
330
1F
100
AcDbEntity
  8
0-0_補助線
  6
Continuous
 62
     7
370
     9
100
AcDbPolyline
 90
        4
 70
     1
 43
3.0
 10
-1414.358589159604
 20
-1355.168253180943
 42
0.4142135623731
 10
-1415.858589159604
 20
-1353.668253180943
 42
0.4142135623731
 10
-1417.358589159604
 20
-1355.168253180943
 42
0.4142135623731
 10
-1415.858589159604
 20
-1356.668253180942
 42
0.4142135623731
  0
LWPOLYLINE
  5
48D
330
1F
100
AcDbEntity
  8
0-0_補助線
  6
Continuous
 62
     7
370
     9
100
AcDbPolyline
 90
        4
 70
     1
 43
3.0
 10
-1414.358589159604
 20
-1427.168253180943
 42
0.4142135623731
 10
-1415.858589159604
 20
-1425.668253180943
 42
0.4142135623731
 10
-1417.358589159604
 20
-1427.168253180943
 42
0.4142135623731
 10
-1415.858589159604
 20
-1428.668253180943
 42
0.4142135623731
  0
MTEXT
  5
48E
330
1F
100
AcDbEntity
  8
0-0_補助線
  6
Continuous
 62
     7
370
     0
100
AcDbMText
 10
-2100.30395963724
 20
-767.6426486629883
 30
0.0
 40
91.44000000000001
 41
180.0
 46
0.0
 71
     7
 72
     1
  1
{\fＭＳ ゴシック|b0|i0|c128|p49;155}
 73
     1
 44
1.0
  0
LINE
  5
48F
330
1F
100
AcDbEntity
  8
0-0_補助線
  6
Continuous
 62
   120
370
     5
100
AcDbLine
 10
-1415.858589159604
 20
-1355.168253180943
 30
0.0
 11
-1578.348174026514
 21
-1355.168253180943
 31
0.0
  0
LINE
  5
490
330
1F
100
AcDbEntity
  8
0-0_補助線
  6
Continuous
 62
   120
370
     5
100
AcDbLine
 10
-1415.858589159604
 20
-1427.168253180943
 30
0.0
 11
-1578.348174026514
 21
-1427.168253180943
 31
0.0
  0
MTEXT
  5
491
330
1F
100
AcDbEntity
  8
0-0_補助線
  6
Continuous
 62
     7
370
   211
100
AcDbMText
 10
-1430.858589159604
 20
-1339.151722486413
 30
0.0
 40
97.15499999999935
 41
127.4999999999991
 46
0.0
 71
     7
 72
     1
  1
{\fＭＳ ゴシック|b0|i0|c128|p49;12}
 11
6.123031769111886E-17
 21
1.0
 31
0.0
 73
     1
 44
1.0
  0
MTEXT
  5
492
330
1F
100
AcDbEntity
  8
0-0_補助線
  6
Continuous
 62
     7
370
     0
100
AcDbMText
 10
-2717.686948380546
 20
-1445.067874802829
 30
0.0
 40
91.44000000000014
 41
600.0000000000009
 46
0.0
 71
     7
 72
     1
  1
{\fＭＳ ゴシック|b0|i0|c128|p49;下端ｽﾍﾟｰｻｰ}
 73
     1
 44
1.0
  0
LWPOLYLINE
  5
493
330
1F
100
AcDbEntity
  8
0-0_補助線
  6
Continuous
 62
     7
370
     9
100
AcDbPolyline
 90
        4
 70
     1
 43
3.0
 10
-2019.69912711553
 20
-1833.056872974754
 42
0.4142135623731
 10
-2021.19912711553
 20
-1831.556872974754
 42
0.4142135623731
 10
-2022.69912711553
 20
-1833.056872974754
 42
0.4142135623731
 10
-2021.19912711553
 20
-1834.556872974754
 42
0.4142135623731
  0
LINE
  5
494
330
1F
100
AcDbEntity
  8
0-0_補助線
  6
Continuous
 62
   120
370
     5
100
AcDbLine
 10
-2021.19912711553
 20
-1833.056872974754
 30
0.0
 11
-2021.19912711553
 21
-1653.009438728463
 31
0.0
  0
LINE
  5
495
330
1F
100
AcDbEntity
  8
0-0_補助線
  6
Continuous
 62
   120
370
     5
100
AcDbLine
 10
-2021.19912711553
 20
-1833.056872974754
 30
0.0
 11
-1619.19912711553
 21
-1833.056872974754
 31
0.0
  0
LWPOLYLINE
  5
496
330
1F
100
AcDbEntity
  8
0-0_補助線
  6
Continuous
 62
     7
370
     9
100
AcDbPolyline
 90
        4
 70
     1
 43
3.0
 10
-1617.69912711553
 20
-1833.056872974754
 42
0.4142135623731
 10
-1619.19912711553
 20
-1831.556872974754
 42
0.4142135623731
 10
-1620.69912711553
 20
-1833.056872974754
 42
0.4142135623731
 10
-1619.19912711553
 20
-1834.556872974754
 42
0.4142135623731
  0
LINE
  5
497
330
1F
100
AcDbEntity
  8
0-0_補助線
  6
Continuous
 62
   120
370
     5
100
AcDbLine
 10
-1619.19912711553
 20
-1833.056872974754
 30
0.0
 11
-1619.19912711553
 21
-1653.009438728463
 31
0.0
  0
MTEXT
  5
498
330
1F
100
AcDbEntity
  8
0-0_補助線
  6
Continuous
 62
     7
370
     0
100
AcDbMText
 10
-2717.686948380546
 20
-1598.637745189371
 30
0.0
 40
91.44000000000001
 41
480.0
 46
0.0
 71
     7
 72
     1
  1
{\fＭＳ ゴシック|b0|i0|c128|p49;現場調達}
 73
     1
 44
1.0
  0
LWPOLYLINE
  5
499
330
1F
100
AcDbEntity
  8
0-0_補助線
  6
Continuous
 62
     7
370
     9
100
AcDbPolyline
 90
        4
 70
     1
 43
3.0
 10
-1554.699127115529
 20
-768.3626486629898
 42
0.4142135623731
 10
-1556.199127115529
 20
-766.8626486629898
 42
0.4142135623731
 10
-1557.699127115529
 20
-768.3626486629898
 42
0.4142135623731
 10
-1556.199127115529
 20
-769.86264866299
 42
0.4142135623731
  0
LINE
  5
49A
330
1F
100
AcDbEntity
  8
0-0_補助線
  6
Continuous
 62
   120
370
     5
100
AcDbLine
 10
-1556.199127115529
 20
-768.3626486629898
 30
0.0
 11
-1556.199127115529
 21
-918.3626486629898
 31
0.0
  0
LINE
  5
49B
330
1F
100
AcDbEntity
  8
0-0_補助線
  6
Continuous
 62
    92
370
    13
100
AcDbLine
 10
-1556.199127115529
 20
-989.9558277085788
 30
0.0
 11
-1556.199127115529
 21
-1211.718473432179
 31
0.0
  0
LINE
  5
49C
330
1F
100
AcDbEntity
  8
0-0_補助線
  6
Continuous
 62
   120
370
     5
100
AcDbLine
 10
-1619.19912711553
 20
-1833.056872974754
 30
0.0
 11
-1556.199127115529
 21
-1833.056872974754
 31
0.0
  0
LWPOLYLINE
  5
49D
330
1F
100
AcDbEntity
  8
0-0_補助線
  6
Continuous
 62
     7
370
     9
100
AcDbPolyline
 90
        4
 70
     1
 43
3.0
 10
-1554.699127115529
 20
-1833.056872974754
 42
0.4142135623731
 10
-1556.199127115529
 20
-1831.556872974754
 42
0.4142135623731
 10
-1557.699127115529
 20
-1833.056872974754
 42
0.4142135623731
 10
-1556.199127115529
 20
-1834.556872974754
 42
0.4142135623731
  0
LINE
  5
49E
330
1F
100
AcDbEntity
  8
0-0_補助線
  6
Continuous
 62
   120
370
     5
100
AcDbLine
 10
-1556.199127115529
 20
-1833.056872974754
 30
0.0
 11
-1556.199127115529
 21
-1653.009438728463
 31
0.0
  0
MTEXT
  5
49F
330
1F
100
AcDbEntity
  8
0-0_補助線
  6
Continuous
 62
     7
370
   211
100
AcDbMText
 10
-1883.94912711553
 20
-1829.479372974753
 30
0.0
 40
97.155
 41
127.5
 46
0.0
 71
     7
 72
     1
  1
{\fＭＳ ゴシック|b0|i0|c128|p49;67}
 73
     1
 44
1.0
  0
LWPOLYLINE
  5
4A0
330
1F
100
AcDbEntity
  8
0-0_補助線
  6
Continuous
 62
     7
370
     9
100
AcDbPolyline
 90
        4
 70
     1
 43
3.0
 10
-2484.699127115529
 20
-768.3626486629898
 42
0.4142135623731
 10
-2486.199127115529
 20
-766.8626486629898
 42
0.4142135623731
 10
-2487.699127115529
 20
-768.3626486629898
 42
0.4142135623731
 10
-2486.199127115529
 20
-769.86264866299
 42
0.4142135623731
  0
LINE
  5
4A1
330
1F
100
AcDbEntity
  8
0-0_補助線
  6
Continuous
 62
   120
370
     5
100
AcDbLine
 10
-2486.199127115529
 20
-768.3626486629898
 30
0.0
 11
-2486.199127115529
 21
-918.3626486629898
 31
0.0
  0
LINE
  5
4A2
330
1F
100
AcDbEntity
  8
0-0_補助線
  6
Continuous
 62
    92
370
    13
100
AcDbLine
 10
-2486.199127115529
 20
-989.9558277085788
 30
0.0
 11
-2486.199127115529
 21
-1211.718473432179
 31
0.0
  0
LINE
  5
4A3
330
1F
100
AcDbEntity
  8
0-0_補助線
  6
Continuous
 62
   120
370
     5
100
AcDbLine
 10
-2486.199127115529
 20
-1833.056872974754
 30
0.0
 11
-2021.19912711553
 21
-1833.056872974754
 31
0.0
  0
LWPOLYLINE
  5
4A4
330
1F
100
AcDbEntity
  8
0-0_補助線
  6
Continuous
 62
     7
370
     9
100
AcDbPolyline
 90
        4
 70
     1
 43
3.0
 10
-2484.699127115529
 20
-1833.056872974754
 42
0.4142135623731
 10
-2486.199127115529
 20
-1831.556872974754
 42
0.4142135623731
 10
-2487.699127115529
 20
-1833.056872974754
 42
0.4142135623731
 10
-2486.199127115529
 20
-1834.556872974754
 42
0.4142135623731
  0
LINE
  5
4A5
330
1F
100
AcDbEntity
  8
0-0_補助線
  6
Continuous
 62
   120
370
     5
100
AcDbLine
 10
-2486.199127115529
 20
-1833.056872974754
 30
0.0
 11
-2486.199127115529
 21
-1653.009438728463
 31
0.0
  0
LINE
  5
4A6
330
1F
100
AcDbEntity
  8
0-0_補助線
  6
Continuous
 62
   120
370
     5
100
AcDbLine
 10
-1556.199127115529
 20
-768.3626486629898
 30
0.0
 11
-2486.199127115529
 21
-768.3626486629898
 31
0.0
  0
LINE
  5
4A7
330
1F
100
AcDbEntity
  8
0-0_補助線
  6
Continuous
 62
    92
370
    13
100
AcDbLine
 10
-2486.199127115529
 20
-1211.718473432179
 30
0.0
 11
-1556.199127115529
 21
-1211.718473432179
 31
0.0
  0
MTEXT
  5
4A8
330
1F
100
AcDbEntity
  8
0-0_補助線
  6
Continuous
 62
     7
370
   211
100
AcDbMText
 10
-2358.383132674533
 20
-1996.810465857549
 30
0.0
 40
100.0125
 41
262.5
 46
0.0
 71
     7
 72
     1
  1
{\fＭＳ ゴシック|b0|i0|c128|p49;77.5}
 73
     1
 44
1.0
  0
MTEXT
  5
4A9
330
1F
100
AcDbEntity
  8
0-0_補助線
  6
Continuous
 62
     7
370
   211
100
AcDbMText
 10
-1719.552048449312
 20
-1996.810465857549
 30
0.0
 40
100.0124999999998
 41
262.4999999999995
 46
0.0
 71
     7
 72
     1
  1
{\fＭＳ ゴシック|b0|i0|c128|p49;10.5}
 73
     1
 44
1.0
  0
MTEXT
  5
4AA
330
1F
100
AcDbEntity
  8
F-A_文字
  6
Continuous
 62
     7
370
     0
100
AcDbMText
 10
4879.999719568202
 20
-3930.57057516869
 30
0.0
 40
78.86699999999999
 41
517.5
 46
0.0
 71
     7
 72
     1
  1
{\fＭＳ ゴシック|b0|i0|c128|p49;2022.04.01}
 73
     1
 44
1.0
  0
MTEXT
  5
4AB
330
1F
100
AcDbEntity
  8
0-B_寸法
  6
Continuous
 62
     7
370
   211
100
AcDbMText
 10
-3453.173029807302
 20
1693.151911698658
 30
0.0
 40
91.44
 41
120.0
 46
0.0
 71
     7
 72
     1
  1
{\fＭＳ ゴシック|b0|i0|c128|p49;36}
 11
6.123031769111886E-17
 21
1.0
 31
0.0
 73
     1
 44
1.0
  0
LWPOLYLINE
  5
4AC
330
1F
100
AcDbEntity
  8
0-B_寸法
  6
Continuous
 62
     7
370
     9
100
AcDbPolyline
 90
        4
 70
     1
 43
3.0
 10
-3436.673029807302
 20
1659.431911698658
 42
0.4142135623731
 10
-3438.173029807302
 20
1660.931911698658
 42
0.4142135623731
 10
-3439.673029807302
 20
1659.431911698658
 42
0.4142135623731
 10
-3438.173029807302
 20
1657.931911698658
 42
0.4142135623731
  0
LWPOLYLINE
  5
4AD
330
1F
100
AcDbEntity
  8
0-B_寸法
  6
Continuous
 62
     7
370
     9
100
AcDbPolyline
 90
        4
 70
     1
 43
3.0
 10
-3436.673029807302
 20
1875.431911698658
 42
0.4142135623731
 10
-3438.173029807302
 20
1876.931911698658
 42
0.4142135623731
 10
-3439.673029807302
 20
1875.431911698658
 42
0.4142135623731
 10
-3438.173029807302
 20
1873.931911698658
 42
0.4142135623731
  0
LINE
  5
4AE
330
1F
100
AcDbEntity
  8
0-B_寸法
  6
Continuous
 62
   120
370
     5
100
AcDbLine
 10
-3438.173029807302
 20
1875.431911698658
 30
0.0
 11
-3438.173029807302
 21
1659.431911698658
 31
0.0
  0
LINE
  5
4AF
330
1F
100
AcDbEntity
  8
0-B_寸法
  6
Continuous
 62
   120
370
     5
100
AcDbLine
 10
-3138.173029807302
 20
1767.431945800781
 30
0.0
 11
-3138.173029807302
 21
2064.431911698658
 31
0.0
  0
LWPOLYLINE
  5
4B0
330
1F
100
AcDbEntity
  8
0-B_寸法
  6
Continuous
 62
     7
370
     9
100
AcDbPolyline
 90
        4
 70
     1
 43
3.0
 10
-3136.673029807302
 20
1767.431945800781
 42
0.4142135623731
 10
-3138.173029807302
 20
1768.931945800781
 42
0.4142135623731
 10
-3139.673029807302
 20
1767.431945800781
 42
0.4142135623731
 10
-3138.173029807302
 20
1765.931945800781
 42
0.4142135623731
  0
LWPOLYLINE
  5
4B1
330
1F
100
AcDbEntity
  8
0-B_寸法
  6
Continuous
 62
     7
370
     9
100
AcDbPolyline
 90
        4
 70
     1
 43
3.0
 10
-3136.673029807302
 20
2064.431911698658
 42
0.4142135623731
 10
-3138.173029807302
 20
2065.931911698657
 42
0.4142135623731
 10
-3139.673029807302
 20
2064.431911698658
 42
0.4142135623731
 10
-3138.173029807302
 20
2062.931911698658
 42
0.4142135623731
  0
MTEXT
  5
4B2
330
1F
100
AcDbEntity
  8
0-B_寸法
  6
Continuous
 62
     7
370
   211
100
AcDbMText
 10
-3153.173029807302
 20
1774.688178749719
 30
0.0
 40
100.0125
 41
262.5
 46
0.0
 71
     7
 72
     1
  1
{\fＭＳ ゴシック|b0|i0|c128|p49;49.5}
 11
6.123031769111886E-17
 21
1.0
 31
0.0
 73
     1
 44
1.0
  0
MTEXT
  5
4B3
330
1F
100
AcDbEntity
  8
0-B_寸法
  6
Continuous
 62
     7
370
   211
100
AcDbMText
 10
2007.525805467242
 20
1693.151911698658
 30
0.0
 40
91.44
 41
120.0
 46
0.0
 71
     7
 72
     1
  1
{\fＭＳ ゴシック|b0|i0|c128|p49;36}
 11
6.123031769111886E-17
 21
1.0
 31
0.0
 73
     1
 44
1.0
  0
LWPOLYLINE
  5
4B4
330
1F
100
AcDbEntity
  8
0-B_寸法
  6
Continuous
 62
     7
370
     9
100
AcDbPolyline
 90
        4
 70
     1
 43
3.0
 10
2024.025805467242
 20
1659.431911698658
 42
0.4142135623731
 10
2022.525805467242
 20
1660.931911698658
 42
0.4142135623731
 10
2021.025805467242
 20
1659.431911698658
 42
0.4142135623731
 10
2022.525805467242
 20
1657.931911698658
 42
0.4142135623731
  0
LWPOLYLINE
  5
4B5
330
1F
100
AcDbEntity
  8
0-B_寸法
  6
Continuous
 62
     7
370
     9
100
AcDbPolyline
 90
        4
 70
     1
 43
3.0
 10
2024.025805467242
 20
1875.431911698658
 42
0.4142135623731
 10
2022.525805467242
 20
1876.931911698658
 42
0.4142135623731
 10
2021.025805467242
 20
1875.431911698658
 42
0.4142135623731
 10
2022.525805467242
 20
1873.931911698658
 42
0.4142135623731
  0
LINE
  5
4B6
330
1F
100
AcDbEntity
  8
0-B_寸法
  6
Continuous
 62
   120
370
     5
100
AcDbLine
 10
2022.525805467242
 20
1875.431911698658
 30
0.0
 11
2022.525805467242
 21
1659.431911698658
 31
0.0
  0
LINE
  5
4B7
330
1F
100
AcDbEntity
  8
0-B_寸法
  6
Continuous
 62
   120
370
     5
100
AcDbLine
 10
2322.525805467242
 20
1767.431945800781
 30
0.0
 11
2322.525805467242
 21
2064.431911698658
 31
0.0
  0
LWPOLYLINE
  5
4B8
330
1F
100
AcDbEntity
  8
0-B_寸法
  6
Continuous
 62
     7
370
     9
100
AcDbPolyline
 90
        4
 70
     1
 43
3.0
 10
2324.025805467242
 20
1767.431945800781
 42
0.4142135623731
 10
2322.525805467242
 20
1768.931945800781
 42
0.4142135623731
 10
2321.025805467242
 20
1767.431945800781
 42
0.4142135623731
 10
2322.525805467242
 20
1765.931945800781
 42
0.4142135623731
  0
LWPOLYLINE
  5
4B9
330
1F
100
AcDbEntity
  8
0-B_寸法
  6
Continuous
 62
     7
370
     9
100
AcDbPolyline
 90
        4
 70
     1
 43
3.0
 10
2324.025805467242
 20
2064.431911698658
 42
0.4142135623731
 10
2322.525805467242
 20
2065.931911698657
 42
0.4142135623731
 10
2321.025805467242
 20
2064.431911698658
 42
0.4142135623731
 10
2322.525805467242
 20
2062.931911698658
 42
0.4142135623731
  0
MTEXT
  5
4BA
330
1F
100
AcDbEntity
  8
0-B_寸法
  6
Continuous
 62
     7
370
   211
100
AcDbMText
 10
2307.525805467242
 20
1774.688178749719
 30
0.0
 40
100.0125
 41
262.5
 46
0.0
 71
     7
 72
     1
  1
{\fＭＳ ゴシック|b0|i0|c128|p49;49.5}
 11
6.123031769111886E-17
 21
1.0
 31
0.0
 73
     1
 44
1.0
  0
LINE
  5
4BB
330
1F
100
AcDbEntity
  8
0-1_通り芯
  6
JWW_CENTER1
 62
   120
370
     5
100
AcDbLine
 10
-884.7030194933816
 20
1767.431911698658
 30
0.0
 11
-4046.703019493375
 21
1767.431911698658
 31
0.0
  0
LINE
  5
4BC
330
1F
100
AcDbEntity
  8
0-1_通り芯
  6
JWW_CENTER1
 62
   120
370
     5
100
AcDbLine
 10
4575.995815781162
 20
1767.431911698658
 30
0.0
 11
1413.995815781168
 21
1767.431911698658
 31
0.0
  0
LINE
  5
4BD
330
1F
100
AcDbEntity
  8
0-1_通り芯
  6
JWW_CENTER1
 62
   120
370
     5
100
AcDbLine
 10
-4177.999495325852
 20
-3094.00021424165
 30
0.0
 11
-4177.999495325852
 21
-484.0000082479979
 31
0.0
  0
LINE
  5
4BE
330
1F
100
AcDbEntity
  8
0-1_通り芯
  6
JWW_CENTER1
 62
   120
370
     5
100
AcDbLine
 10
2611.999472128386
 20
-3040.000929497392
 30
0.0
 11
2611.999472128386
 21
-484.0000082479979
 31
0.0
  0
LINE
  5
4BF
330
1F
100
AcDbEntity
  8
0-B_寸法
  6
Continuous
 62
   120
370
     5
100
AcDbLine
 10
-4474.999495325857
 20
-1571.514754162878
 30
0.0
 11
-4177.999495325852
 21
-1571.514754162878
 31
0.0
  0
LWPOLYLINE
  5
4C0
330
1F
100
AcDbEntity
  8
0-B_寸法
  6
Continuous
 62
     7
370
     9
100
AcDbPolyline
 90
        4
 70
     1
 43
3.0
 10
-4473.499495325856
 20
-1571.514754162878
 42
0.4142135623731
 10
-4474.999495325857
 20
-1570.014754162878
 42
0.4142135623731
 10
-4476.499495325857
 20
-1571.514754162878
 42
0.4142135623731
 10
-4474.999495325857
 20
-1573.014754162878
 42
0.4142135623731
  0
LWPOLYLINE
  5
4C1
330
1F
100
AcDbEntity
  8
0-B_寸法
  6
Continuous
 62
     7
370
     9
100
AcDbPolyline
 90
        4
 70
     1
 43
3.0
 10
-4176.499495325851
 20
-1571.514754162878
 42
0.4142135623731
 10
-4177.999495325852
 20
-1570.014754162878
 42
0.4142135623731
 10
-4179.499495325852
 20
-1571.514754162878
 42
0.4142135623731
 10
-4177.999495325852
 20
-1573.014754162878
 42
0.4142135623731
  0
MTEXT
  5
4C2
330
1F
100
AcDbEntity
  8
0-B_寸法
  6
Continuous
 62
     7
370
   211
100
AcDbMText
 10
-4457.749495325854
 20
-1566.508504162878
 30
0.0
 40
100.0125
 41
262.5
 46
0.0
 71
     7
 72
     1
  1
{\fＭＳ ゴシック|b0|i0|c128|p49;49.5}
 73
     1
 44
1.0
  0
LINE
  5
4C3
330
1F
100
AcDbEntity
  8
0-B_寸法
  6
Continuous
 62
   120
370
     5
100
AcDbLine
 10
2314.999472128382
 20
-1571.514754162878
 30
0.0
 11
2611.999472128386
 21
-1571.514754162878
 31
0.0
  0
LWPOLYLINE
  5
4C4
330
1F
100
AcDbEntity
  8
0-B_寸法
  6
Continuous
 62
     7
370
     9
100
AcDbPolyline
 90
        4
 70
     1
 43
3.0
 10
2316.499472128382
 20
-1571.514754162878
 42
0.4142135623731
 10
2314.999472128382
 20
-1570.014754162878
 42
0.4142135623731
 10
2313.499472128382
 20
-1571.514754162878
 42
0.4142135623731
 10
2314.999472128382
 20
-1573.014754162878
 42
0.4142135623731
  0
LWPOLYLINE
  5
4C5
330
1F
100
AcDbEntity
  8
0-B_寸法
  6
Continuous
 62
     7
370
     9
100
AcDbPolyline
 90
        4
 70
     1
 43
3.0
 10
2613.499472128386
 20
-1571.514754162878
 42
0.4142135623731
 10
2611.999472128386
 20
-1570.014754162878
 42
0.4142135623731
 10
2610.499472128386
 20
-1571.514754162878
 42
0.4142135623731
 10
2611.999472128386
 20
-1573.014754162878
 42
0.4142135623731
  0
MTEXT
  5
4C6
330
1F
100
AcDbEntity
  8
0-B_寸法
  6
Continuous
 62
     7
370
   211
100
AcDbMText
 10
2332.249472128384
 20
-1566.508504162878
 30
0.0
 40
100.0125
 41
262.5
 46
0.0
 71
     7
 72
     1
  1
{\fＭＳ ゴシック|b0|i0|c128|p49;49.5}
 73
     1
 44
1.0
  0
ENDSEC
  0
SECTION
  2
OBJECTS
  0
DICTIONARY
  5
C
330
0
100
AcDbDictionary
281
     1
  3
ACAD_GROUP
350
D
  3
ACAD_LAYOUT
350
1A
  3
ACAD_MATERIAL
350
3B
  3
ACAD_MLEADERSTYLE
350
54E
  3
ACAD_MLINESTYLE
350
17
  3
ACAD_PLOTSETTINGS
350
19
  3
ACAD_PLOTSTYLENAME
350
E
  3
ACAD_TABLESTYLE
350
54D
  3
ACAD_VISUALSTYLE
350
2A
  0
DICTIONARY
  5
D
102
{ACAD_REACTORS
330
C
102
}
330
C
100
AcDbDictionary
281
     1
  0
DICTIONARY
  5
1A
102
{ACAD_REACTORS
330
C
102
}
330
C
100
AcDbDictionary
281
     1
  3
Layout1
350
1E
  3
Layout2
350
26
  3
Model
350
22
  0
DICTIONARY
  5
3B
102
{ACAD_REACTORS
330
C
102
}
330
C
100
AcDbDictionary
281
     1
  3
ByBlock
350
3D
  3
ByLayer
350
3C
  3
Global
350
3E
  0
DICTIONARY
  5
54E
102
{ACAD_REACTORS
330
C
102
}
330
C
100
AcDbDictionary
281
     1
  0
DICTIONARY
  5
17
102
{ACAD_REACTORS
330
C
102
}
330
C
100
AcDbDictionary
281
     1
  3
Standard
350
18
  0
DICTIONARY
  5
19
102
{ACAD_REACTORS
330
C
102
}
330
C
100
AcDbDictionary
281
     1
  0
ACDBDICTIONARYWDFLT
  5
E
102
{ACAD_REACTORS
330
C
102
}
330
C
100
AcDbDictionary
281
     1
  3
Normal
350
F
100
AcDbDictionaryWithDefault
340
F
  0
DICTIONARY
  5
54D
102
{ACAD_REACTORS
330
C
102
}
330
C
100
AcDbDictionary
281
     1
  0
DICTIONARY
  5
2A
102
{ACAD_REACTORS
330
C
102
}
330
C
100
AcDbDictionary
281
     1
  3
2dWireframe
350
2F
  3
3D Hidden
350
31
  3
3dWireframe
350
30
  3
Basic
350
32
  3
Brighten
350
36
  3
ColorChange
350
3A
  3
Conceptual
350
34
  3
Dim
350
35
  3
Facepattern
350
39
  3
Flat
350
2B
  3
FlatWithEdges
350
2C
  3
Gouraud
350
2D
  3
GouraudWithEdges
350
2E
  3
Linepattern
350
38
  3
Realistic
350
33
  3
Thicken
350
37
  0
LAYOUT
  5
1E
102
{ACAD_REACTORS
330
1A
102
}
330
1A
100
AcDbPlotSettings
  1

  2
none_device
  4

  6

 40
0.0
 41
0.0
 42
0.0
 43
0.0
 44
0.0
 45
0.0
 46
0.0
 47
0.0
 48
0.0
 49
0.0
140
0.0
141
0.0
142
1.0
143
1.0
 70
   688
 72
     0
 73
     0
 74
     5
  7

 75
    16
 76
     0
 77
     5
 78
   300
147
1.0
148
0.0
149
0.0
100
AcDbLayout
  1
Layout1
 70
     1
 71
     1
 10
0.0
 20
0.0
 11
420.0
 21
297.0
 12
0.0
 22
0.0
 32
0.0
 14
1.000000000000000E+20
 24
1.000000000000000E+20
 34
1.000000000000000E+20
 15
-1.000000000000000E+20
 25
-1.000000000000000E+20
 35
-1.000000000000000E+20
146
0.0
 13
0.0
 23
0.0
 33
0.0
 16
1.0
 26
0.0
 36
0.0
 17
0.0
 27
1.0
 37
0.0
 76
     0
330
1B
  0
LAYOUT
  5
26
102
{ACAD_REACTORS
330
1A
102
}
330
1A
100
AcDbPlotSettings
  1

  2
none_device
  4

  6

 40
0.0
 41
0.0
 42
0.0
 43
0.0
 44
0.0
 45
0.0
 46
0.0
 47
0.0
 48
0.0
 49
0.0
140
0.0
141
0.0
142
1.0
143
1.0
 70
   688
 72
     0
 73
     0
 74
     5
  7

 75
    16
 76
     0
 77
     5
 78
   300
147
1.0
148
0.0
149
0.0
100
AcDbLayout
  1
Layout2
 70
     1
 71
     2
 10
0.0
 20
0.0
 11
0.0
 21
0.0
 12
0.0
 22
0.0
 32
0.0
 14
0.0
 24
0.0
 34
0.0
 15
0.0
 25
0.0
 35
0.0
146
0.0
 13
0.0
 23
0.0
 33
0.0
 16
1.0
 26
0.0
 36
0.0
 17
0.0
 27
1.0
 37
0.0
 76
     0
330
23
  0
LAYOUT
  5
22
102
{ACAD_REACTORS
330
1A
102
}
330
1A
100
AcDbPlotSettings
  1

  2
none_device
  4

  6

 40
0.0
 41
0.0
 42
0.0
 43
0.0
 44
0.0
 45
0.0
 46
0.0
 47
0.0
 48
0.0
 49
0.0
140
0.0
141
0.0
142
1.0
143
1.0
 70
  1712
 72
     0
 73
     0
 74
     0
  7

 75
     0
 76
     0
 77
     5
 78
   300
147
1.0
148
0.0
149
0.0
100
AcDbLayout
  1
Model
 70
     1
 71
     0
 10
-8910.0
 20
-6300.0
 11
8910.0
 21
6300.0
 12
0.0
 22
0.0
 32
0.0
 14
-8910.0
 24
-6300.0
 34
0.0
 15
8910.0
 25
6300.0
 35
0.0
146
0.0
 13
0.0
 23
0.0
 33
0.0
 16
1.0
 26
0.0
 36
0.0
 17
0.0
 27
1.0
 37
0.0
 76
     0
330
1F
331
29
  0
MATERIAL
  5
3D
102
{ACAD_REACTORS
330
3B
102
}
330
3B
100
AcDbMaterial
  1
ByBlock
 72
     1
 94
      127
  0
MATERIAL
  5
3C
102
{ACAD_REACTORS
330
3B
102
}
330
3B
100
AcDbMaterial
  1
ByLayer
 72
     1
 94
      127
  0
MATERIAL
  5
3E
102
{ACAD_REACTORS
330
3B
102
}
330
3B
100
AcDbMaterial
  1
Global
 72
     1
 94
      127
  0
MLINESTYLE
  5
18
102
{ACAD_REACTORS
330
17
102
}
330
17
100
AcDbMlineStyle
  2
Standard
 70
     0
  3

 62
   256
 51
90.0
 52
90.0
 71
     2
 49
0.5
 62
   256
  6
BYLAYER
 49
-0.5
 62
   256
  6
BYLAYER
  0
ACDBPLACEHOLDER
  5
F
102
{ACAD_REACTORS
330
E
102
}
330
E
  0
VISUALSTYLE
  5
2F
102
{ACAD_REACTORS
330
2A
102
}
330
2A
100
AcDbVisualStyle
  2
2dWireframe
 70
     4
177
     2
291
     0
 71
     0
176
     1
 72
     2
176
     1
 73
     0
176
     1
 90
        0
176
     1
 40
-0.6
176
     1
 41
-30.0
176
     1
 62
     5
 63
     7
421
 16777215
176
     1
 74
     1
176
     1
 91
        4
176
     1
 64
     7
176
     1
 65
   257
176
     1
 75
     1
176
     1
175
     1
176
     1
 42
1.0
176
     1
 92
        0
176
     1
 66
   257
176
     1
 43
1.0
176
     1
 76
     1
176
     1
 77
     6
176
     1
 78
     2
176
     1
 67
     7
176
     1
 79
     5
176
     1
170
     0
176
     1
171
     0
176
     1
290
     0
176
     1
 93
        1
176
     1
 44
0.0
176
     1
173
     0
176
     1
  0
VISUALSTYLE
  5
31
102
{ACAD_REACTORS
330
2A
102
}
330
2A
100
AcDbVisualStyle
  2
3D Hidden
 70
     6
177
     2
291
     0
 71
     1
176
     1
 72
     2
176
     1
 73
     2
176
     1
 90
        0
176
     1
 40
-0.6
176
     1
 41
-30.0
176
     1
 62
     5
 63
     7
421
 16777215
176
     1
 74
     2
176
     1
 91
        2
176
     1
 64
     7
176
     1
 65
   257
176
     1
 75
     2
176
     1
175
     1
176
     1
 42
40.0
176
     1
 92
        0
176
     1
 66
   257
176
     1
 43
1.0
176
     1
 76
     1
176
     1
 77
     6
176
     1
 78
     2
176
     1
 67
     7
176
     1
 79
     3
176
     1
170
     0
176
     1
171
     0
176
     1
290
     0
176
     1
 93
        1
176
     1
 44
0.0
176
     1
173
     0
176
     1
  0
VISUALSTYLE
  5
30
102
{ACAD_REACTORS
330
2A
102
}
330
2A
100
AcDbVisualStyle
  2
3dWireframe
 70
     5
177
     2
291
     0
 71
     0
176
     1
 72
     2
176
     1
 73
     0
176
     1
 90
        0
176
     1
 40
-0.6
176
     1
 41
-30.0
176
     1
 62
     5
 63
     7
421
 16777215
176
     1
 74
     1
176
     1
 91
        4
176
     1
 64
     7
176
     1
 65
   257
176
     1
 75
     1
176
     1
175
     1
176
     1
 42
1.0
176
     1
 92
        0
176
     1
 66
   257
176
     1
 43
1.0
176
     1
 76
     1
176
     1
 77
     6
176
     1
 78
     2
176
     1
 67
     7
176
     1
 79
     5
176
     1
170
     0
176
     1
171
     0
176
     1
290
     0
176
     1
 93
        1
176
     1
 44
0.0
176
     1
173
     0
176
     1
  0
VISUALSTYLE
  5
32
102
{ACAD_REACTORS
330
2A
102
}
330
2A
100
AcDbVisualStyle
  2
Basic
 70
     7
177
     2
291
     1
 71
     1
176
     1
 72
     0
176
     1
 73
     1
176
     1
 90
        0
176
     1
 40
-0.6
176
     1
 41
-30.0
176
     1
 62
     5
 63
     7
421
 16777215
176
     1
 74
     0
176
     1
 91
        4
176
     1
 64
     7
176
     1
 65
   257
176
     1
 75
     1
176
     1
175
     1
176
     1
 42
1.0
176
     1
 92
        8
176
     1
 66
     7
176
     1
 43
1.0
176
     1
 76
     1
176
     1
 77
     6
176
     1
 78
     2
176
     1
 67
     7
176
     1
 79
     5
176
     1
170
     0
176
     1
171
     0
176
     1
290
     0
176
     1
 93
        1
176
     1
 44
0.0
176
     1
173
     0
176
     1
  0
VISUALSTYLE
  5
36
102
{ACAD_REACTORS
330
2A
102
}
330
2A
100
AcDbVisualStyle
  2
Brighten
 70
    12
177
     2
291
     1
 71
     2
176
     1
 72
     2
176
     1
 73
     0
176
     1
 90
        0
176
     1
 40
-0.6
176
     1
 41
-30.0
176
     1
 62
     5
 63
     7
421
 16777215
176
     1
 74
     1
176
     1
 91
        4
176
     1
 64
     7
176
     1
 65
   257
176
     1
 75
     1
176
     1
175
     1
176
     1
 42
1.0
176
     1
 92
        8
176
     1
 66
     7
176
     1
 43
1.0
176
     1
 76
     1
176
     1
 77
     6
176
     1
 78
     2
176
     1
 67
     7
176
     1
 79
     5
176
     1
170
     0
176
     1
171
     0
176
     1
290
     0
176
     1
 93
        1
176
     1
 44
50.0
176
     1
173
     0
176
     1
  0
VISUALSTYLE
  5
3A
102
{ACAD_REACTORS
330
2A
102
}
330
2A
100
AcDbVisualStyle
  2
ColorChange
 70
    16
177
     2
291
     1
 71
     2
176
     1
 72
     2
176
     1
 73
     3
176
     1
 90
        0
176
     1
 40
-0.6
176
     1
 41
-30.0
176
     1
 62
     5
 63
     8
421
  8421504
176
     1
 74
     1
176
     1
 91
        4
176
     1
 64
     7
176
     1
 65
   257
176
     1
 75
     1
176
     1
175
     1
176
     1
 42
1.0
176
     1
 92
        8
176
     1
 66
     8
424
  8421504
176
     1
 43
1.0
176
     1
 76
     1
176
     1
 77
     6
176
     1
 78
     2
176
     1
 67
     7
176
     1
 79
     5
176
     1
170
     0
176
     1
171
     0
176
     1
290
     0
176
     1
 93
        1
176
     1
 44
0.0
176
     1
173
     0
176
     1
  0
VISUALSTYLE
  5
34
102
{ACAD_REACTORS
330
2A
102
}
330
2A
100
AcDbVisualStyle
  2
Conceptual
 70
     9
177
     2
291
     0
 71
     3
176
     1
 72
     2
176
     1
 73
     0
176
     1
 90
        0
176
     1
 40
-0.6
176
     1
 41
-30.0
176
     1
 62
     5
 63
     7
421
 16777215
176
     1
 74
     2
176
     1
 91
        2
176
     1
 64
     7
176
     1
 65
   257
176
     1
 75
     1
176
     1
175
     1
176
     1
 42
40.0
176
     1
 92
        8
176
     1
 66
     7
176
     1
 43
1.0
176
     1
 76
     1
176
     1
 77
     6
176
     1
 78
     2
176
     1
 67
     7
176
     1
 79
     3
176
     1
170
     0
176
     1
171
     0
176
     1
290
     0
176
     1
 93
        1
176
     1
 44
0.0
176
     1
173
     0
176
     1
  0
VISUALSTYLE
  5
35
102
{ACAD_REACTORS
330
2A
102
}
330
2A
100
AcDbVisualStyle
  2
Dim
 70
    11
177
     2
291
     1
 71
     2
176
     1
 72
     2
176
     1
 73
     0
176
     1
 90
        0
176
     1
 40
-0.6
176
     1
 41
-30.0
176
     1
 62
     5
 63
     7
421
 16777215
176
     1
 74
     1
176
     1
 91
        4
176
     1
 64
     7
176
     1
 65
   257
176
     1
 75
     1
176
     1
175
     1
176
     1
 42
1.0
176
     1
 92
        8
176
     1
 66
     7
176
     1
 43
1.0
176
     1
 76
     1
176
     1
 77
     6
176
     1
 78
     2
176
     1
 67
     7
176
     1
 79
     5
176
     1
170
     0
176
     1
171
     0
176
     1
290
     0
176
     1
 93
        1
176
     1
 44
-50.0
176
     1
173
     0
176
     1
  0
VISUALSTYLE
  5
39
102
{ACAD_REACTORS
330
2A
102
}
330
2A
100
AcDbVisualStyle
  2
Facepattern
 70
    15
177
     2
291
     1
 71
     2
176
     1
 72
     2
176
     1
 73
     0
176
     1
 90
        0
176
     1
 40
-0.6
176
     1
 41
-30.0
176
     1
 62
     5
 63
     7
421
 16777215
176
     1
 74
     1
176
     1
 91
        4
176
     1
 64
     7
176
     1
 65
   257
176
     1
 75
     1
176
     1
175
     1
176
     1
 42
1.0
176
     1
 92
        8
176
     1
 66
     7
176
     1
 43
1.0
176
     1
 76
     1
176
     1
 77
     6
176
     1
 78
     2
176
     1
 67
     7
176
     1
 79
     5
176
     1
170
     0
176
     1
171
     0
176
     1
290
     0
176
     1
 93
        1
176
     1
 44
0.0
176
     1
173
     0
176
     1
  0
VISUALSTYLE
  5
2B
102
{ACAD_REACTORS
330
2A
102
}
330
2A
100
AcDbVisualStyle
  2
Flat
 70
     0
177
     2
291
     1
 71
     2
176
     1
 72
     1
176
     1
 73
     1
176
     1
 90
        2
176
     1
 40
-0.6
176
     1
 41
30.0
176
     1
 62
     5
 63
     7
421
 16777215
176
     1
 74
     0
176
     1
 91
        4
176
     1
 64
     7
176
     1
 65
   257
176
     1
 75
     1
176
     1
175
     1
176
     1
 42
1.0
176
     1
 92
        8
176
     1
 66
     7
176
     1
 43
1.0
176
     1
 76
     1
176
     1
 77
     6
176
     1
 78
     2
176
     1
 67
     7
176
     1
 79
     5
176
     1
170
     0
176
     1
171
     0
176
     1
290
     0
176
     1
 93
       13
176
     1
 44
0.0
176
     1
173
     0
176
     1
  0
VISUALSTYLE
  5
2C
102
{ACAD_REACTORS
330
2A
102
}
330
2A
100
AcDbVisualStyle
  2
FlatWithEdges
 70
     1
177
     2
291
     1
 71
     2
176
     1
 72
     1
176
     1
 73
     1
176
     1
 90
        2
176
     1
 40
-0.6
176
     1
 41
30.0
176
     1
 62
     5
 63
     7
421
 16777215
176
     1
 74
     1
176
     1
 91
        4
176
     1
 64
     7
176
     1
 65
   257
176
     1
 75
     1
176
     1
175
     1
176
     1
 42
1.0
176
     1
 92
        0
176
     1
 66
   257
176
     1
 43
1.0
176
     1
 76
     1
176
     1
 77
     6
176
     1
 78
     2
176
     1
 67
     7
176
     1
 79
     5
176
     1
170
     0
176
     1
171
     0
176
     1
290
     0
176
     1
 93
       13
176
     1
 44
0.0
176
     1
173
     0
176
     1
  0
VISUALSTYLE
  5
2D
102
{ACAD_REACTORS
330
2A
102
}
330
2A
100
AcDbVisualStyle
  2
Gouraud
 70
     2
177
     2
291
     1
 71
     2
176
     1
 72
     2
176
     1
 73
     1
176
     1
 90
        2
176
     1
 40
-0.6
176
     1
 41
30.0
176
     1
 62
     5
 63
     7
421
 16777215
176
     1
 74
     0
176
     1
 91
        4
176
     1
 64
     7
176
     1
 65
   257
176
     1
 75
     1
176
     1
175
     1
176
     1
 42
1.0
176
     1
 92
        0
176
     1
 66
     7
176
     1
 43
1.0
176
     1
 76
     1
176
     1
 77
     6
176
     1
 78
     2
176
     1
 67
     7
176
     1
 79
     5
176
     1
170
     0
176
     1
171
     0
176
     1
290
     0
176
     1
 93
       13
176
     1
 44
0.0
176
     1
173
     0
176
     1
  0
VISUALSTYLE
  5
2E
102
{ACAD_REACTORS
330
2A
102
}
330
2A
100
AcDbVisualStyle
  2
GouraudWithEdges
 70
     3
177
     2
291
     1
 71
     2
176
     1
 72
     2
176
     1
 73
     1
176
     1
 90
        2
176
     1
 40
-0.6
176
     1
 41
30.0
176
     1
 62
     5
 63
     7
421
 16777215
176
     1
 74
     1
176
     1
 91
        4
176
     1
 64
     7
176
     1
 65
   257
176
     1
 75
     1
176
     1
175
     1
176
     1
 42
1.0
176
     1
 92
        0
176
     1
 66
   257
176
     1
 43
1.0
176
     1
 76
     1
176
     1
 77
     6
176
     1
 78
     2
176
     1
 67
     7
176
     1
 79
     5
176
     1
170
     0
176
     1
171
     0
176
     1
290
     0
176
     1
 93
       13
176
     1
 44
0.0
176
     1
173
     0
176
     1
  0
VISUALSTYLE
  5
38
102
{ACAD_REACTORS
330
2A
102
}
330
2A
100
AcDbVisualStyle
  2
Linepattern
 70
    14
177
     2
291
     1
 71
     2
176
     1
 72
     2
176
     1
 73
     0
176
     1
 90
        0
176
     1
 40
-0.6
176
     1
 41
-30.0
176
     1
 62
     5
 63
     7
421
 16777215
176
     1
 74
     1
176
     1
 91
        4
176
     1
 64
     7
176
     1
 65
   257
176
     1
 75
     7
176
     1
175
     7
176
     1
 42
1.0
176
     1
 92
        8
176
     1
 66
     7
176
     1
 43
1.0
176
     1
 76
     1
176
     1
 77
     6
176
     1
 78
     2
176
     1
 67
     7
176
     1
 79
     5
176
     1
170
     0
176
     1
171
     0
176
     1
290
     0
176
     1
 93
        1
176
     1
 44
0.0
176
     1
173
     0
176
     1
  0
VISUALSTYLE
  5
33
102
{ACAD_REACTORS
330
2A
102
}
330
2A
100
AcDbVisualStyle
  2
Realistic
 70
     8
177
     2
291
     0
 71
     2
176
     1
 72
     2
176
     1
 73
     0
176
     1
 90
        0
176
     1
 40
-0.6
176
     1
 41
-30.0
176
     1
 62
     5
 63
     7
421
 16777215
176
     1
 74
     1
176
     1
 91
        0
176
     1
 64
     7
176
     1
 65
   257
176
     1
 75
     1
176
     1
175
     1
176
     1
 42
1.0
176
     1
 92
        8
176
     1
 66
     8
424
  7895160
176
     1
 43
1.0
176
     1
 76
     1
176
     1
 77
     6
176
     1
 78
     2
176
     1
 67
     7
176
     1
 79
     5
176
     1
170
     0
176
     1
171
     0
176
     1
290
     0
176
     1
 93
       13
176
     1
 44
0.0
176
     1
173
     0
176
     1
  0
VISUALSTYLE
  5
37
102
{ACAD_REACTORS
330
2A
102
}
330
2A
100
AcDbVisualStyle
  2
Thicken
 70
    13
177
     2
291
     1
 71
     2
176
     1
 72
     2
176
     1
 73
     0
176
     1
 90
        0
176
     1
 40
-0.6
176
     1
 41
-30.0
176
     1
 62
     5
 63
     7
421
 16777215
176
     1
 74
     1
176
     1
 91
        4
176
     1
 64
     7
176
     1
 65
   257
176
     1
 75
     1
176
     1
175
     1
176
     1
 42
1.0
176
     1
 92
       12
176
     1
 66
     7
176
     1
 43
1.0
176
     1
 76
     1
176
     1
 77
     6
176
     1
 78
     2
176
     1
 67
     7
176
     1
 79
     5
176
     1
170
     0
176
     1
171
     0
176
     1
290
     0
176
     1
 93
        1
176
     1
 44
0.0
176
     1
173
     0
176
     1
  0
ENDSEC
  0
EOF
