  0
SECTION
  2
HEADER
  9
$ACADVER
  1
AC1024
  9
$ACADMAINTVER
 70
     6
  9
$DWGCODEPAGE
  3
ANSI_932
  9
$INSBASE
 10
0.0
 20
0.0
 30
0.0
  9
$EXTMIN
 10
-6300.0
 20
-4455.0
 30
0.0
  9
$EXTMAX
 10
6300.0
 20
4455.0
 30
0.0
  9
$LIMMIN
 10
-6300.0
 20
-4455.0
  9
$LIMMAX
 10
6300.0
 20
4455.0
  9
$ORTHOMODE
 70
     0
  9
$REGENMODE
 70
     1
  9
$FILLMODE
 70
     1
  9
$QTEXTMODE
 70
     0
  9
$MIRRTEXT
 70
     1
  9
$LTSCALE
 40
30.0
  9
$ATTMODE
 70
     1
  9
$TEXTSIZE
 40
2.5
  9
$TRACEWID
 40
1.0
  9
$TEXTSTYLE
  7
Standard
  9
$CLAYER
  8
0
  9
$CELTYPE
  6
ByLayer
  9
$CECOLOR
 62
   256
  9
$CELTSCALE
 40
1.0
  9
$DISPSILH
 70
     0
  9
$DIMSCALE
 40
1.0
  9
$DIMASZ
 40
2.5
  9
$DIMEXO
 40
0.625
  9
$DIMDLI
 40
3.75
  9
$DIMRND
 40
0.0
  9
$DIMDLE
 40
0.0
  9
$DIMEXE
 40
1.25
  9
$DIMTP
 40
0.0
  9
$DIMTM
 40
0.0
  9
$DIMTXT
 40
2.5
  9
$DIMCEN
 40
2.5
  9
$DIMTSZ
 40
0.0
  9
$DIMTOL
 70
     0
  9
$DIMLIM
 70
     0
  9
$DIMTIH
 70
     0
  9
$DIMTOH
 70
     0
  9
$DIMSE1
 70
     0
  9
$DIMSE2
 70
     0
  9
$DIMTAD
 70
     1
  9
$DIMZIN
 70
     8
  9
$DIMBLK
  1

  9
$DIMASO
 70
     1
  9
$DIMSHO
 70
     1
  9
$DIMPOST
  1

  9
$DIMAPOST
  1

  9
$DIMALT
 70
     0
  9
$DIMALTD
 70
     3
  9
$DIMALTF
 40
0.03937007874016
  9
$DIMLFAC
 40
1.0
  9
$DIMTOFL
 70
     1
  9
$DIMTVP
 40
0.0
  9
$DIMTIX
 70
     0
  9
$DIMSOXD
 70
     0
  9
$DIMSAH
 70
     0
  9
$DIMBLK1
  1

  9
$DIMBLK2
  1

  9
$DIMSTYLE
  2
ISO-25
  9
$DIMCLRD
 70
     0
  9
$DIMCLRE
 70
     0
  9
$DIMCLRT
 70
     0
  9
$DIMTFAC
 40
1.0
  9
$DIMGAP
 40
0.625
  9
$DIMJUST
 70
     0
  9
$DIMSD1
 70
     0
  9
$DIMSD2
 70
     0
  9
$DIMTOLJ
 70
     0
  9
$DIMTZIN
 70
     8
  9
$DIMALTZ
 70
     0
  9
$DIMALTTZ
 70
     0
  9
$DIMUPT
 70
     0
  9
$DIMDEC
 70
     2
  9
$DIMTDEC
 70
     2
  9
$DIMALTU
 70
     2
  9
$DIMALTTD
 70
     3
  9
$DIMTXSTY
  7
Standard
  9
$DIMAUNIT
 70
     0
  9
$DIMADEC
 70
     0
  9
$DIMALTRND
 40
0.0
  9
$DIMAZIN
 70
     0
  9
$DIMDSEP
 70
    44
  9
$DIMATFIT
 70
     3
  9
$DIMFRAC
 70
     0
  9
$DIMLDRBLK
  1

  9
$DIMLUNIT
 70
     2
  9
$DIMLWD
 70
    -2
  9
$DIMLWE
 70
    -2
  9
$DIMTMOVE
 70
     0
  9
$DIMFXL
 40
1.0
  9
$DIMFXLON
 70
     0
  9
$DIMJOGANG
 40
0.7853981633974483
  9
$DIMTFILL
 70
     0
  9
$DIMTFILLCLR
 70
     0
  9
$DIMARCSYM
 70
     0
  9
$DIMLTYPE
  6

  9
$DIMLTEX1
  6

  9
$DIMLTEX2
  6

  9
$DIMTXTDIRECTION
 70
     0
  9
$LUNITS
 70
     2
  9
$LUPREC
 70
     4
  9
$SKETCHINC
 40
1.0
  9
$FILLETRAD
 40
10.0
  9
$AUNITS
 70
     0
  9
$AUPREC
 70
     0
  9
$MENU
  1
.
  9
$ELEVATION
 40
0.0
  9
$PELEVATION
 40
0.0
  9
$THICKNESS
 40
0.0
  9
$LIMCHECK
 70
     0
  9
$CHAMFERA
 40
10.0
  9
$CHAMFERB
 40
10.0
  9
$CHAMFERC
 40
20.0
  9
$CHAMFERD
 40
0.0
  9
$SKPOLY
 70
     0
  9
$TDCREATE
 40
2459373.741216169
  9
$TDUCREATE
 40
2459373.366216169
  9
$TDUPDATE
 40
2459373.74121618
  9
$TDUUPDATE
 40
2459373.36621618
  9
$TDINDWG
 40
0.0000000116
  9
$TDUSRTIMER
 40
0.0000000116
  9
$USRTIMER
 70
     1
  9
$ANGBASE
 50
0.0
  9
$ANGDIR
 70
     0
  9
$PDMODE
 70
     0
  9
$PDSIZE
 40
0.0
  9
$PLINEWID
 40
0.0
  9
$SPLFRAME
 70
     0
  9
$SPLINETYPE
 70
     6
  9
$SPLINESEGS
 70
     8
  9
$HANDSEED
  5
1CB
  9
$SURFTAB1
 70
     6
  9
$SURFTAB2
 70
     6
  9
$SURFTYPE
 70
     6
  9
$SURFU
 70
     6
  9
$SURFV
 70
     6
  9
$UCSBASE
  2

  9
$UCSNAME
  2

  9
$UCSORG
 10
0.0
 20
0.0
 30
0.0
  9
$UCSXDIR
 10
1.0
 20
0.0
 30
0.0
  9
$UCSYDIR
 10
0.0
 20
1.0
 30
0.0
  9
$UCSORTHOREF
  2

  9
$UCSORTHOVIEW
 70
     0
  9
$UCSORGTOP
 10
0.0
 20
0.0
 30
0.0
  9
$UCSORGBOTTOM
 10
0.0
 20
0.0
 30
0.0
  9
$UCSORGLEFT
 10
0.0
 20
0.0
 30
0.0
  9
$UCSORGRIGHT
 10
0.0
 20
0.0
 30
0.0
  9
$UCSORGFRONT
 10
0.0
 20
0.0
 30
0.0
  9
$UCSORGBACK
 10
0.0
 20
0.0
 30
0.0
  9
$PUCSBASE
  2

  9
$PUCSNAME
  2

  9
$PUCSORG
 10
0.0
 20
0.0
 30
0.0
  9
$PUCSXDIR
 10
1.0
 20
0.0
 30
0.0
  9
$PUCSYDIR
 10
0.0
 20
1.0
 30
0.0
  9
$PUCSORTHOREF
  2

  9
$PUCSORTHOVIEW
 70
     0
  9
$PUCSORGTOP
 10
0.0
 20
0.0
 30
0.0
  9
$PUCSORGBOTTOM
 10
0.0
 20
0.0
 30
0.0
  9
$PUCSORGLEFT
 10
0.0
 20
0.0
 30
0.0
  9
$PUCSORGRIGHT
 10
0.0
 20
0.0
 30
0.0
  9
$PUCSORGFRONT
 10
0.0
 20
0.0
 30
0.0
  9
$PUCSORGBACK
 10
0.0
 20
0.0
 30
0.0
  9
$USERI1
 70
     0
  9
$USERI2
 70
     0
  9
$USERI3
 70
     0
  9
$USERI4
 70
     0
  9
$USERI5
 70
     0
  9
$USERR1
 40
0.0
  9
$USERR2
 40
0.0
  9
$USERR3
 40
0.0
  9
$USERR4
 40
0.0
  9
$USERR5
 40
0.0
  9
$WORLDVIEW
 70
     1
  9
$SHADEDGE
 70
     3
  9
$SHADEDIF
 70
    70
  9
$TILEMODE
 70
     1
  9
$MAXACTVP
 70
    64
  9
$PINSBASE
 10
0.0
 20
0.0
 30
0.0
  9
$PLIMCHECK
 70
     0
  9
$PEXTMIN
 10
1.000000000000000E+20
 20
1.000000000000000E+20
 30
1.000000000000000E+20
  9
$PEXTMAX
 10
-1.000000000000000E+20
 20
-1.000000000000000E+20
 30
-1.000000000000000E+20
  9
$PLIMMIN
 10
0.0
 20
0.0
  9
$PLIMMAX
 10
420.0
 20
297.0
  9
$UNITMODE
 70
     0
  9
$VISRETAIN
 70
     1
  9
$PLINEGEN
 70
     0
  9
$PSLTSCALE
 70
     1
  9
$TREEDEPTH
 70
  3020
  9
$CMLSTYLE
  2
Standard
  9
$CMLJUST
 70
     0
  9
$CMLSCALE
 40
20.0
  9
$PROXYGRAPHICS
 70
     1
  9
$MEASUREMENT
 70
     1
  9
$CELWEIGHT
370
    -1
  9
$ENDCAPS
280
     0
  9
$JOINSTYLE
280
     0
  9
$LWDISPLAY
290
     0
  9
$INSUNITS
 70
     4
  9
$HYPERLINKBASE
  1

  9
$STYLESHEET
  1

  9
$XEDIT
290
     1
  9
$CEPSNTYPE
380
     0
  9
$PSTYLEMODE
290
     1
  9
$FINGERPRINTGUID
  2
{EBF73F5B-78E0-4CAE-B552-40A00A442EC7}
  9
$VERSIONGUID
  2
{FAEB1C32-E019-11D5-929B-00C0DF256EC4}
  9
$EXTNAMES
290
     1
  9
$PSVPSCALE
 40
0.0
  9
$OLESTARTUP
290
     0
  9
$SORTENTS
280
   127
  9
$INDEXCTL
280
     0
  9
$HIDETEXT
280
     1
  9
$XCLIPFRAME
280
     2
  9
$HALOGAP
280
     0
  9
$OBSCOLOR
 70
   257
  9
$OBSLTYPE
280
     0
  9
$INTERSECTIONDISPLAY
280
     0
  9
$INTERSECTIONCOLOR
 70
   257
  9
$DIMASSOC
280
     2
  9
$PROJECTNAME
  1

  9
$CAMERADISPLAY
290
     0
  9
$LENSLENGTH
 40
50.0
  9
$CAMERAHEIGHT
 40
0.0
  9
$STEPSPERSEC
 40
2.0
  9
$STEPSIZE
 40
6.0
  9
$3DDWFPREC
 40
2.0
  9
$PSOLWIDTH
 40
5.0
  9
$PSOLHEIGHT
 40
80.0
  9
$LOFTANG1
 40
1.570796326794897
  9
$LOFTANG2
 40
1.570796326794897
  9
$LOFTMAG1
 40
0.0
  9
$LOFTMAG2
 40
0.0
  9
$LOFTPARAM
 70
     7
  9
$LOFTNORMALS
280
     1
  9
$LATITUDE
 40
37.795
  9
$LONGITUDE
 40
-122.394
  9
$NORTHDIRECTION
 40
0.0
  9
$TIMEZONE
 70
 -8000
  9
$LIGHTGLYPHDISPLAY
280
     1
  9
$TILEMODELIGHTSYNCH
280
     1
  9
$SOLIDHIST
280
     1
  9
$SHOWHIST
280
     1
  9
$DWFFRAME
280
     2
  9
$DGNFRAME
280
     2
  9
$REALWORLDSCALE
290
     1
  9
$INTERFERECOLOR
 62
   256
  9
$CSHADOW
280
     0
  9
$SHADOWPLANELOCATION
 40
0.0
  0
ENDSEC
  0
SECTION
  2
CLASSES
  0
CLASS
  1
ACDBDICTIONARYWDFLT
  2
AcDbDictionaryWithDefault
  3
ObjectDBX Classes
 90
        0
 91
        4
280
     0
281
     0
  0
CLASS
  1
VISUALSTYLE
  2
AcDbVisualStyle
  3
ObjectDBX Classes
 90
     4095
 91
        4
280
     0
281
     0
  0
CLASS
  1
MATERIAL
  2
AcDbMaterial
  3
ObjectDBX Classes
 90
     1153
 91
        4
280
     0
281
     0
  0
ENDSEC
  0
SECTION
  2
TABLES
  0
TABLE
  2
VPORT
  5
8
330
0
100
AcDbSymbolTable
 70
     1
  0
VPORT
  5
29
330
8
100
AcDbSymbolTableRecord
100
AcDbViewportTableRecord
  2
*Active
 70
     0
 10
0.0
 20
0.0
 11
1.0
 21
1.0
 12
0.0
 22
0.0
 13
0.0
 23
0.0
 14
10.0
 24
10.0
 15
10.0
 25
10.0
 16
0.0
 26
0.0
 36
1.0
 17
0.0
 27
0.0
 37
0.0
 40
9801.0
 41
1.414141414141414
 42
50.0
 43
0.0
 44
0.0
 50
0.0
 51
0.0
 71
     0
 72
 10000
 73
     1
 74
     3
 75
     0
 76
     0
 77
     0
 78
     0
281
     0
 65
     1
110
0.0
120
0.0
130
0.0
111
1.0
121
0.0
131
0.0
112
0.0
122
1.0
132
0.0
 79
     0
146
0.0
 60
     3
 61
     5
292
     1
282
     1
141
0.0
142
0.0
 63
   250
  0
ENDTAB
  0
TABLE
  2
LTYPE
  5
5
330
0
100
AcDbSymbolTable
 70
     4
  0
LTYPE
  5
14
330
5
100
AcDbSymbolTableRecord
100
AcDbLinetypeTableRecord
  2
ByBlock
 70
     0
  3

 72
    65
 73
     0
 40
0.0
  0
LTYPE
  5
15
330
5
100
AcDbSymbolTableRecord
100
AcDbLinetypeTableRecord
  2
ByLayer
 70
     0
  3

 72
    65
 73
     0
 40
0.0
  0
LTYPE
  5
16
330
5
100
AcDbSymbolTableRecord
100
AcDbLinetypeTableRecord
  2
Continuous
 70
     0
  3
Solid line
 72
    65
 73
     0
 40
0.0
  0
LTYPE
  5
3F
330
5
100
AcDbSymbolTableRecord
100
AcDbLinetypeTableRecord
  2
JWW_DASHED1
 70
     0
  3
-  --  --  --  --  --  --  --  -
 72
    65
 73
     2
 40
1.693333333333333
 49
0.8466666666666667
 74
     0
 49
-0.8466666666666667
 74
     0
  0
LTYPE
  5
40
330
5
100
AcDbSymbolTableRecord
100
AcDbLinetypeTableRecord
  2
JWW_CENTER1
 70
     0
  3
-----  --  ----------  --  -----
 72
    65
 73
     4
 40
6.773333333333333
 49
4.233333333333333
 74
     0
 49
-0.8466666666666667
 74
     0
 49
0.8466666666666667
 74
     0
 49
-0.8466666666666667
 74
     0
  0
LTYPE
  5
41
330
5
100
AcDbSymbolTableRecord
100
AcDbLinetypeTableRecord
  2
JWW_HOJO
 70
     0
  3
  -   -   -   -   -   -   -   - 
 72
    65
 73
     2
 40
1.693333333333333
 49
-1.27
 74
     0
 49
0.4233333333333333
 74
     0
  0
ENDTAB
  0
TABLE
  2
LAYER
  5
2
330
0
100
AcDbSymbolTable
 70
    13
  0
LAYER
  5
10
330
2
100
AcDbSymbolTableRecord
100
AcDbLayerTableRecord
  2
0
 70
     0
 62
     7
  6
Continuous
370
    -3
390
F
347
3E
  0
LAYER
  5
42
330
2
100
AcDbSymbolTableRecord
100
AcDbLayerTableRecord
  2
0-A_文字
 70
     0
 62
     7
  6
Continuous
370
    -3
390
F
347
3E
  0
LAYER
  5
43
330
2
100
AcDbSymbolTableRecord
100
AcDbLayerTableRecord
  2
0-C_ハッチ
 70
     0
 62
     7
  6
Continuous
370
    -3
390
F
347
3E
  0
LAYER
  5
44
330
2
100
AcDbSymbolTableRecord
100
AcDbLayerTableRecord
  2
0-B_寸法
 70
     0
 62
     7
  6
Continuous
370
    -3
390
F
347
3E
  0
LAYER
  5
45
330
2
100
AcDbSymbolTableRecord
100
AcDbLayerTableRecord
  2
0-4_枠
 70
     0
 62
     7
  6
Continuous
370
    -3
390
F
347
3E
  0
LAYER
  5
46
330
2
100
AcDbSymbolTableRecord
100
AcDbLayerTableRecord
  2
0-3_仕上げ
 70
     0
 62
     7
  6
Continuous
370
    -3
390
F
347
3E
  0
LAYER
  5
47
330
2
100
AcDbSymbolTableRecord
100
AcDbLayerTableRecord
  2
0-1_通り芯
 70
     0
 62
     7
  6
Continuous
370
    -3
390
F
347
3E
  0
LAYER
  5
48
330
2
100
AcDbSymbolTableRecord
100
AcDbLayerTableRecord
  2
0-0_補助線
 70
     0
 62
     7
  6
Continuous
370
    -3
390
F
347
3E
  0
LAYER
  5
49
330
2
100
AcDbSymbolTableRecord
100
AcDbLayerTableRecord
  2
0-7_金物
 70
     0
 62
     7
  6
Continuous
370
    -3
390
F
347
3E
  0
LAYER
  5
4A
330
2
100
AcDbSymbolTableRecord
100
AcDbLayerTableRecord
  2
0-6_扉
 70
     0
 62
     7
  6
Continuous
370
    -3
390
F
347
3E
  0
LAYER
  5
4B
330
2
100
AcDbSymbolTableRecord
100
AcDbLayerTableRecord
  2
F-0_補助線
 70
     0
 62
     7
  6
Continuous
370
    -3
390
F
347
3E
  0
LAYER
  5
4C
330
2
100
AcDbSymbolTableRecord
100
AcDbLayerTableRecord
  2
F-1_枠
 70
     0
 62
     7
  6
Continuous
370
    -3
390
F
347
3E
  0
LAYER
  5
4D
330
2
100
AcDbSymbolTableRecord
100
AcDbLayerTableRecord
  2
F-A_文字
 70
     0
 62
     7
  6
Continuous
370
    -3
390
F
347
3E
  0
ENDTAB
  0
TABLE
  2
STYLE
  5
3
330
0
100
AcDbSymbolTable
 70
     1
  0
STYLE
  5
11
330
3
100
AcDbSymbolTableRecord
100
AcDbTextStyleTableRecord
  2
Standard
 70
     0
 40
0.0
 41
1.0
 50
0.0
 71
     0
 42
2.5
  3
txt
  4

  0
ENDTAB
  0
TABLE
  2
VIEW
  5
6
330
0
100
AcDbSymbolTable
 70
     0
  0
ENDTAB
  0
TABLE
  2
UCS
  5
7
330
0
100
AcDbSymbolTable
 70
     0
  0
ENDTAB
  0
TABLE
  2
APPID
  5
9
330
0
100
AcDbSymbolTable
 70
     1
  0
APPID
  5
12
330
9
100
AcDbSymbolTableRecord
100
AcDbRegAppTableRecord
  2
ACAD
 70
     0
  0
ENDTAB
  0
TABLE
  2
DIMSTYLE
  5
A
330
0
100
AcDbSymbolTable
 70
     1
100
AcDbDimStyleTable
  0
DIMSTYLE
105
27
330
A
100
AcDbSymbolTableRecord
100
AcDbDimStyleTableRecord
  2
ISO-25
 70
     0
 41
2.5
 42
0.625
 43
3.75
 44
1.25
 73
     0
 74
     0
 77
     1
 78
     8
140
2.5
141
2.5
143
0.03937007874016
147
0.625
171
     3
172
     1
178
     0
271
     2
272
     2
274
     3
278
    44
283
     0
284
     8
340
11
  0
ENDTAB
  0
TABLE
  2
BLOCK_RECORD
  5
1
330
0
100
AcDbSymbolTable
 70
     1
  0
BLOCK_RECORD
  5
1F
330
1
100
AcDbSymbolTableRecord
100
AcDbBlockTableRecord
  2
*Model_Space
340
22
 70
     0
280
     1
281
     0
  0
BLOCK_RECORD
  5
1B
330
1
100
AcDbSymbolTableRecord
100
AcDbBlockTableRecord
  2
*Paper_Space
340
1E
 70
     0
280
     1
281
     0
  0
BLOCK_RECORD
  5
23
330
1
100
AcDbSymbolTableRecord
100
AcDbBlockTableRecord
  2
*Paper_Space0
340
26
 70
     0
280
     1
281
     0
  0
ENDTAB
  0
ENDSEC
  0
SECTION
  2
BLOCKS
  0
BLOCK
  5
20
330
1F
100
AcDbEntity
  8
0
100
AcDbBlockBegin
  2
*Model_Space
 70
     0
 10
0.0
 20
0.0
 30
0.0
  3
*Model_Space
  1

  0
ENDBLK
  5
21
330
1F
100
AcDbEntity
  8
0
100
AcDbBlockEnd
  0
BLOCK
  5
1C
330
1B
100
AcDbEntity
 67
     1
  8
0
100
AcDbBlockBegin
  2
*Paper_Space
 70
     0
 10
0.0
 20
0.0
 30
0.0
  3
*Paper_Space
  1

  0
ENDBLK
  5
1D
330
1B
100
AcDbEntity
 67
     1
  8
0
100
AcDbBlockEnd
  0
BLOCK
  5
24
330
23
100
AcDbEntity
  8
0
100
AcDbBlockBegin
  2
*Paper_Space0
 70
     0
 10
0.0
 20
0.0
 30
0.0
  3
*Paper_Space0
  1

  0
ENDBLK
  5
25
330
23
100
AcDbEntity
  8
0
100
AcDbBlockEnd
  0
ENDSEC
  0
SECTION
  2
ENTITIES
  0
LINE
  5
4E
330
1F
100
AcDbEntity
  8
0-A_文字
  6
Continuous
 62
    92
370
    13
100
AcDbLine
 10
-5679.83630264269
 20
4030.000577359586
 30
0.0
 11
-5679.83630264269
 21
3760.000577359586
 31
0.0
  0
LINE
  5
4F
330
1F
100
AcDbEntity
  8
0-C_ハッチ
  6
JWW_DASHED1
 62
   120
370
     5
100
AcDbLine
 10
2581.313634956893
 20
2042.962168973788
 30
0.0
 11
2656.313882396716
 21
2117.962416413612
 31
0.0
  0
LWPOLYLINE
  5
50
330
1F
100
AcDbEntity
  8
0-B_寸法
  6
Continuous
 62
     7
370
     9
100
AcDbPolyline
 90
        4
 70
     1
 43
3.0
 10
5.418542843312309
 20
1430.962168973788
 42
0.4142135623731
 10
3.918542843312309
 20
1432.462168973788
 42
0.4142135623731
 10
2.418542843312309
 20
1430.962168973788
 42
0.4142135623731
 10
3.918542843312309
 20
1429.462168973788
 42
0.4142135623731
  0
LINE
  5
51
330
1F
100
AcDbEntity
  8
0-B_寸法
  6
Continuous
 62
   120
370
     5
100
AcDbLine
 10
3.918542843312309
 20
1430.962168973788
 30
0.0
 11
3.918542843312309
 21
1790.962168973788
 31
0.0
  0
LWPOLYLINE
  5
52
330
1F
100
AcDbEntity
  8
0-B_寸法
  6
Continuous
 62
     7
370
     9
100
AcDbPolyline
 90
        4
 70
     1
 43
3.0
 10
17.41854284331248
 20
1430.962168973788
 42
0.4142135623731
 10
15.91854284331248
 20
1432.462168973788
 42
0.4142135623731
 10
14.41854284331248
 20
1430.962168973788
 42
0.4142135623731
 10
15.91854284331248
 20
1429.462168973788
 42
0.4142135623731
  0
LINE
  5
53
330
1F
100
AcDbEntity
  8
0-B_寸法
  6
Continuous
 62
   120
370
     5
100
AcDbLine
 10
15.91854284331248
 20
1430.962168973788
 30
0.0
 11
15.91854284331248
 21
1790.962168973788
 31
0.0
  0
LINE
  5
54
330
1F
100
AcDbEntity
  8
0-B_寸法
  6
Continuous
 62
   120
370
     5
100
AcDbLine
 10
-1799.475222992832
 20
1970.962168973788
 30
0.0
 11
-1619.475222992832
 21
1970.962168973788
 31
0.0
  0
LWPOLYLINE
  5
55
330
1F
100
AcDbEntity
  8
0-B_寸法
  6
Continuous
 62
     7
370
     9
100
AcDbPolyline
 90
        4
 70
     1
 43
3.0
 10
-1617.975222992832
 20
1970.962168973788
 42
0.4142135623731
 10
-1619.475222992832
 20
1972.462168973788
 42
0.4142135623731
 10
-1620.975222992832
 20
1970.962168973788
 42
0.4142135623731
 10
-1619.475222992832
 20
1969.462168973788
 42
0.4142135623731
  0
LINE
  5
56
330
1F
100
AcDbEntity
  8
0-B_寸法
  6
Continuous
 62
   120
370
     5
100
AcDbLine
 10
-1799.475222992832
 20
2600.962168973788
 30
0.0
 11
-1619.475222992832
 21
2600.962168973788
 31
0.0
  0
LINE
  5
57
330
1F
100
AcDbEntity
  8
0-B_寸法
  6
Continuous
 62
   120
370
     5
100
AcDbLine
 10
-1619.475222992832
 20
2600.962168973788
 30
0.0
 11
-1619.475222992832
 21
1970.962168973788
 31
0.0
  0
LWPOLYLINE
  5
58
330
1F
100
AcDbEntity
  8
0-B_寸法
  6
Continuous
 62
     7
370
     9
100
AcDbPolyline
 90
        4
 70
     1
 43
3.0
 10
-1617.975222992832
 20
2600.962168973788
 42
0.4142135623731
 10
-1619.475222992832
 20
2602.462168973788
 42
0.4142135623731
 10
-1620.975222992832
 20
2600.962168973788
 42
0.4142135623731
 10
-1619.475222992832
 20
2599.462168973788
 42
0.4142135623731
  0
LINE
  5
59
330
1F
100
AcDbEntity
  8
0-4_枠
  6
Continuous
 62
    92
370
    13
100
AcDbLine
 10
-2036.081457156683
 20
2600.962168973788
 30
0.0
 11
-2192.081679852526
 21
2600.962168973788
 31
0.0
  0
LINE
  5
5A
330
1F
100
AcDbEntity
  8
0-4_枠
  6
Continuous
 62
    92
370
    13
100
AcDbLine
 10
-2036.081457156683
 20
2600.962168973788
 30
0.0
 11
-2012.081457156683
 21
2576.962168973787
 31
0.0
  0
LINE
  5
5B
330
1F
100
AcDbEntity
  8
0-4_枠
  6
Continuous
 62
    92
370
    13
100
AcDbLine
 10
-2012.081457156683
 20
1994.962168973789
 30
0.0
 11
-2012.081457156683
 21
2576.962168973787
 31
0.0
  0
LINE
  5
5C
330
1F
100
AcDbEntity
  8
0-4_枠
  6
Continuous
 62
    92
370
    13
100
AcDbLine
 10
-2036.081457156683
 20
1970.962168973788
 30
0.0
 11
-2192.081679852526
 21
1970.962168973788
 31
0.0
  0
LINE
  5
5D
330
1F
100
AcDbEntity
  8
0-4_枠
  6
Continuous
 62
    92
370
    13
100
AcDbLine
 10
-2012.081457156683
 20
1994.962168973789
 30
0.0
 11
-2036.081457156683
 21
1970.962168973788
 31
0.0
  0
LINE
  5
5E
330
1F
100
AcDbEntity
  8
0-C_ハッチ
  6
Continuous
 62
   120
370
     5
100
AcDbLine
 10
-2056.815443280152
 20
1970.962168973795
 30
0.0
 11
-2012.081457156687
 21
2015.696155097257
 31
0.0
  0
LINE
  5
5F
330
1F
100
AcDbEntity
  8
0-C_ハッチ
  6
Continuous
 62
   120
370
     5
100
AcDbLine
 10
-2116.212412899794
 20
1970.962168973799
 30
0.0
 11
-2012.08145715669
 21
2075.093124716902
 31
0.0
  0
LINE
  5
60
330
1F
100
AcDbEntity
  8
0-C_ハッチ
  6
Continuous
 62
   120
370
     5
100
AcDbLine
 10
-2175.609382519496
 20
1970.962168973799
 30
0.0
 11
-2012.081457156675
 21
2134.49009433662
 31
0.0
  0
LINE
  5
61
330
1F
100
AcDbEntity
  8
0-C_ハッチ
  6
Continuous
 62
   120
370
     5
100
AcDbLine
 10
-2192.081679852536
 20
2013.886841260405
 30
0.0
 11
-2012.081457156688
 21
2193.887063956253
 31
0.0
  0
LINE
  5
62
330
1F
100
AcDbEntity
  8
0-C_ハッチ
  6
Continuous
 62
   120
370
     5
100
AcDbLine
 10
-2192.081679852526
 20
2073.283810880063
 30
0.0
 11
-2012.081457156683
 21
2253.284033575906
 31
0.0
  0
LINE
  5
63
330
1F
100
AcDbEntity
  8
0-C_ハッチ
  6
Continuous
 62
   120
370
     5
100
AcDbLine
 10
-2192.081679852526
 20
2132.680780499765
 30
0.0
 11
-2012.081457156683
 21
2312.681003195608
 31
0.0
  0
LINE
  5
64
330
1F
100
AcDbEntity
  8
0-C_ハッチ
  6
Continuous
 62
   120
370
     5
100
AcDbLine
 10
-2192.081679852529
 20
2192.077750119408
 30
0.0
 11
-2012.081457156687
 21
2372.077972815251
 31
0.0
  0
LINE
  5
65
330
1F
100
AcDbEntity
  8
0-C_ハッチ
  6
Continuous
 62
   120
370
     5
100
AcDbLine
 10
-2192.081679852529
 20
2251.47471973911
 30
0.0
 11
-2012.081457156687
 21
2431.474942434954
 31
0.0
  0
LINE
  5
66
330
1F
100
AcDbEntity
  8
0-C_ハッチ
  6
Continuous
 62
   120
370
     5
100
AcDbLine
 10
-2192.081679852532
 20
2310.871689358755
 30
0.0
 11
-2012.08145715669
 21
2490.871912054597
 31
0.0
  0
LINE
  5
67
330
1F
100
AcDbEntity
  8
0-C_ハッチ
  6
Continuous
 62
   120
370
     5
100
AcDbLine
 10
-2192.081679852517
 20
2370.268658978471
 30
0.0
 11
-2012.081457156683
 21
2550.268881674306
 31
0.0
  0
LINE
  5
68
330
1F
100
AcDbEntity
  8
0-C_ハッチ
  6
Continuous
 62
   120
370
     5
100
AcDbLine
 10
-2192.08167985252
 20
2429.665628598115
 30
0.0
 11
-2028.433298316766
 21
2593.31401013387
 31
0.0
  0
LINE
  5
69
330
1F
100
AcDbEntity
  8
0-C_ハッチ
  6
Continuous
 62
   120
370
     5
100
AcDbLine
 10
-2192.081679852526
 20
2489.062598217759
 30
0.0
 11
-2080.182109096495
 21
2600.962168973788
 31
0.0
  0
LINE
  5
6A
330
1F
100
AcDbEntity
  8
0-C_ハッチ
  6
Continuous
 62
   120
370
     5
100
AcDbLine
 10
-2192.081679852534
 20
2541.488296898624
 30
0.0
 11
-2132.60780777737
 21
2600.962168973788
 31
0.0
  0
LINE
  5
6B
330
1F
100
AcDbEntity
  8
0-C_ハッチ
  6
JWW_DASHED1
 62
   120
370
     5
100
AcDbLine
 10
-2210.571001999377
 20
2042.962168973788
 30
0.0
 11
-2192.081679852526
 21
2061.451119960909
 31
0.0
  0
LINE
  5
6C
330
1F
100
AcDbEntity
  8
0-C_ハッチ
  6
JWW_DASHED1
 62
   120
370
     5
100
AcDbLine
 10
-2252.997528868044
 20
2042.962168973788
 30
0.0
 11
-2192.081679852526
 21
2103.878389149042
 31
0.0
  0
LINE
  5
6D
330
1F
100
AcDbEntity
  8
0-C_ハッチ
  6
JWW_DASHED1
 62
   120
370
     5
100
AcDbLine
 10
-2295.424055736708
 20
2042.962168973788
 30
0.0
 11
-2220.423808296886
 21
2117.962416413612
 31
0.0
  0
LINE
  5
6E
330
1F
100
AcDbEntity
  8
0-C_ハッチ
  6
JWW_DASHED1
 62
   120
370
     5
100
AcDbLine
 10
-2337.850211445641
 20
2042.962168973788
 30
0.0
 11
-2262.849964005818
 21
2117.962416413612
 31
0.0
  0
LINE
  5
6F
330
1F
100
AcDbEntity
  8
0-C_ハッチ
  6
JWW_DASHED1
 62
   120
370
     5
100
AcDbLine
 10
-2380.276738314305
 20
2042.962168973788
 30
0.0
 11
-2305.276490874483
 21
2117.962416413612
 31
0.0
  0
LINE
  5
70
330
1F
100
AcDbEntity
  8
0-C_ハッチ
  6
JWW_DASHED1
 62
   120
370
     5
100
AcDbLine
 10
-2422.70326518297
 20
2042.962168973788
 30
0.0
 11
-2347.703017743151
 21
2117.962416413612
 31
0.0
  0
LINE
  5
71
330
1F
100
AcDbEntity
  8
0-C_ハッチ
  6
JWW_DASHED1
 62
   120
370
     5
100
AcDbLine
 10
-2465.129049732169
 20
2042.962168973788
 30
0.0
 11
-2390.128802292345
 21
2117.962416413612
 31
0.0
  0
LINE
  5
72
330
1F
100
AcDbEntity
  8
0-C_ハッチ
  6
JWW_DASHED1
 62
   120
370
     5
100
AcDbLine
 10
-2507.555576600835
 20
2042.962168973788
 30
0.0
 11
-2432.555329161013
 21
2117.962416413612
 31
0.0
  0
LINE
  5
73
330
1F
100
AcDbEntity
  8
0-C_ハッチ
  6
JWW_DASHED1
 62
   120
370
     5
100
AcDbLine
 10
-2549.982103469502
 20
2042.962168973788
 30
0.0
 11
-2474.981856029677
 21
2117.962416413612
 31
0.0
  0
LINE
  5
74
330
1F
100
AcDbEntity
  8
0-C_ハッチ
  6
JWW_DASHED1
 62
   120
370
     5
100
AcDbLine
 10
-2592.408630338166
 20
2042.962168973788
 30
0.0
 11
-2517.408382898343
 21
2117.962416413612
 31
0.0
  0
LINE
  5
75
330
1F
100
AcDbEntity
  8
0-C_ハッチ
  6
JWW_DASHED1
 62
   120
370
     5
100
AcDbLine
 10
-2634.834786047097
 20
2042.962168973788
 30
0.0
 11
-2559.834538607274
 21
2117.962416413612
 31
0.0
  0
LINE
  5
76
330
1F
100
AcDbEntity
  8
0-C_ハッチ
  6
JWW_DASHED1
 62
   120
370
     5
100
AcDbLine
 10
-2677.261312915765
 20
2042.962168973788
 30
0.0
 11
-2602.26106547594
 21
2117.962416413612
 31
0.0
  0
LINE
  5
77
330
1F
100
AcDbEntity
  8
0-C_ハッチ
  6
JWW_DASHED1
 62
   120
370
     5
100
AcDbLine
 10
-2719.687839784428
 20
2042.962168973788
 30
0.0
 11
-2644.687592344607
 21
2117.962416413612
 31
0.0
  0
LINE
  5
78
330
1F
100
AcDbEntity
  8
0-C_ハッチ
  6
JWW_DASHED1
 62
   120
370
     5
100
AcDbLine
 10
-2762.114366653096
 20
2042.962168973788
 30
0.0
 11
-2687.114119213271
 21
2117.962416413612
 31
0.0
  0
LINE
  5
79
330
1F
100
AcDbEntity
  8
0-3_仕上げ
  6
Continuous
 62
    40
370
    15
100
AcDbLine
 10
-2192.081679852526
 20
2042.962168973788
 30
0.0
 11
-2792.081679852526
 21
2042.962168973788
 31
0.0
  0
LINE
  5
7A
330
1F
100
AcDbEntity
  8
0-3_仕上げ
  6
Continuous
 62
    40
370
    15
100
AcDbLine
 10
-2192.081679852526
 20
2117.962416413612
 30
0.0
 11
-2792.081679852526
 21
2117.962416413612
 31
0.0
  0
LINE
  5
7B
330
1F
100
AcDbEntity
  8
0-C_ハッチ
  6
JWW_DASHED1
 62
   120
370
     5
100
AcDbLine
 10
-2792.081679852526
 20
2097.847538351955
 30
0.0
 11
-2771.966801790868
 21
2117.962416413612
 31
0.0
  0
LINE
  5
7C
330
1F
100
AcDbEntity
  8
0-C_ハッチ
  6
JWW_DASHED1
 62
   120
370
     5
100
AcDbLine
 10
-2792.081679852526
 20
2055.421382643025
 30
0.0
 11
-2729.540646081936
 21
2117.962416413612
 31
0.0
  0
LINE
  5
7D
330
1F
100
AcDbEntity
  8
0-B_寸法
  6
Continuous
 62
   120
370
     5
100
AcDbLine
 10
-2192.081679852526
 20
1790.962168973788
 30
0.0
 11
-2192.081679852526
 21
1070.961723582107
 31
0.0
  0
LWPOLYLINE
  5
7E
330
1F
100
AcDbEntity
  8
0-B_寸法
  6
Continuous
 62
     7
370
     9
100
AcDbPolyline
 90
        4
 70
     1
 43
3.0
 10
-2190.581679852526
 20
1070.961723582107
 42
0.4142135623731
 10
-2192.081679852526
 20
1072.461723582107
 42
0.4142135623731
 10
-2193.581679852525
 20
1070.961723582107
 42
0.4142135623731
 10
-2192.081679852526
 20
1069.461723582107
 42
0.4142135623731
  0
LWPOLYLINE
  5
7F
330
1F
100
AcDbEntity
  8
0-B_寸法
  6
Continuous
 62
     7
370
     9
100
AcDbPolyline
 90
        4
 70
     1
 43
3.0
 10
-2010.581828316418
 20
1250.961946277948
 42
0.4142135623731
 10
-2012.081828316418
 20
1252.461946277948
 42
0.4142135623731
 10
-2013.581828316417
 20
1250.961946277948
 42
0.4142135623731
 10
-2012.081828316418
 20
1249.461946277948
 42
0.4142135623731
  0
LWPOLYLINE
  5
80
330
1F
100
AcDbEntity
  8
0-B_寸法
  6
Continuous
 62
     7
370
     9
100
AcDbPolyline
 90
        4
 70
     1
 43
3.0
 10
-2190.581679852526
 20
1250.961946277948
 42
0.4142135623731
 10
-2192.081679852526
 20
1252.461946277948
 42
0.4142135623731
 10
-2193.581679852525
 20
1250.961946277948
 42
0.4142135623731
 10
-2192.081679852526
 20
1249.461946277948
 42
0.4142135623731
  0
LINE
  5
81
330
1F
100
AcDbEntity
  8
0-B_寸法
  6
Continuous
 62
   120
370
     5
100
AcDbLine
 10
-2012.081828316418
 20
1790.962168973788
 30
0.0
 11
-2012.081828316418
 21
1250.961946277948
 31
0.0
  0
LWPOLYLINE
  5
82
330
1F
100
AcDbEntity
  8
0-B_寸法
  6
Continuous
 62
     7
370
     9
100
AcDbPolyline
 90
        4
 70
     1
 43
3.0
 10
-2010.581828316418
 20
1430.962168973788
 42
0.4142135623731
 10
-2012.081828316418
 20
1432.462168973788
 42
0.4142135623731
 10
-2013.581828316417
 20
1430.962168973788
 42
0.4142135623731
 10
-2012.081828316418
 20
1429.462168973788
 42
0.4142135623731
  0
LWPOLYLINE
  5
83
330
1F
100
AcDbEntity
  8
0-B_寸法
  6
Continuous
 62
     7
370
     9
100
AcDbPolyline
 90
        4
 70
     1
 43
3.0
 10
-1998.581457156687
 20
1430.962168973788
 42
0.4142135623731
 10
-2000.081457156687
 20
1432.462168973788
 42
0.4142135623731
 10
-2001.581457156687
 20
1430.962168973788
 42
0.4142135623731
 10
-2000.081457156687
 20
1429.462168973788
 42
0.4142135623731
  0
LINE
  5
84
330
1F
100
AcDbEntity
  8
0-B_寸法
  6
Continuous
 62
   120
370
     5
100
AcDbLine
 10
-2000.081457156687
 20
1430.962168973788
 30
0.0
 11
-2000.081457156687
 21
1790.962168973788
 31
0.0
  0
LINE
  5
85
330
1F
100
AcDbEntity
  8
0-B_寸法
  6
Continuous
 62
   120
370
     5
100
AcDbLine
 10
2031.919285162763
 20
1430.962168973788
 30
0.0
 11
-2012.081828316418
 21
1430.962168973788
 31
0.0
  0
LINE
  5
86
330
1F
100
AcDbEntity
  8
0-B_寸法
  6
Continuous
 62
   120
370
     5
100
AcDbLine
 10
-2192.081679852526
 20
1250.961946277948
 30
0.0
 11
2211.919136698869
 21
1250.961946277948
 31
0.0
  0
LINE
  5
87
330
1F
100
AcDbEntity
  8
0-B_寸法
  6
Continuous
 62
   120
370
     5
100
AcDbLine
 10
2031.918542843298
 20
1430.962168973788
 30
0.0
 11
2031.918542843298
 21
1790.962168973788
 31
0.0
  0
LWPOLYLINE
  5
88
330
1F
100
AcDbEntity
  8
0-B_寸法
  6
Continuous
 62
     7
370
     9
100
AcDbPolyline
 90
        4
 70
     1
 43
3.0
 10
2033.418542843298
 20
1430.962168973788
 42
0.4142135623731
 10
2031.918542843298
 20
1432.462168973788
 42
0.4142135623731
 10
2030.418542843299
 20
1430.962168973788
 42
0.4142135623731
 10
2031.918542843298
 20
1429.462168973788
 42
0.4142135623731
  0
LINE
  5
89
330
1F
100
AcDbEntity
  8
0-B_寸法
  6
Continuous
 62
   120
370
     5
100
AcDbLine
 10
2019.918542843312
 20
1430.962168973788
 30
0.0
 11
2019.918542843312
 21
1790.962168973788
 31
0.0
  0
LWPOLYLINE
  5
8A
330
1F
100
AcDbEntity
  8
0-B_寸法
  6
Continuous
 62
     7
370
     9
100
AcDbPolyline
 90
        4
 70
     1
 43
3.0
 10
2021.418542843312
 20
1430.962168973788
 42
0.4142135623731
 10
2019.918542843312
 20
1432.462168973788
 42
0.4142135623731
 10
2018.418542843312
 20
1430.962168973788
 42
0.4142135623731
 10
2019.918542843312
 20
1429.462168973788
 42
0.4142135623731
  0
LINE
  5
8B
330
1F
100
AcDbEntity
  8
0-B_寸法
  6
Continuous
 62
   120
370
     5
100
AcDbLine
 10
2031.919285162763
 20
1790.962168973788
 30
0.0
 11
2031.919285162763
 21
1250.961946277948
 31
0.0
  0
LWPOLYLINE
  5
8C
330
1F
100
AcDbEntity
  8
0-B_寸法
  6
Continuous
 62
     7
370
     9
100
AcDbPolyline
 90
        4
 70
     1
 43
3.0
 10
2213.419136698869
 20
1250.961946277948
 42
0.4142135623731
 10
2211.919136698869
 20
1252.461946277948
 42
0.4142135623731
 10
2210.419136698869
 20
1250.961946277948
 42
0.4142135623731
 10
2211.919136698869
 20
1249.461946277948
 42
0.4142135623731
  0
LWPOLYLINE
  5
8D
330
1F
100
AcDbEntity
  8
0-B_寸法
  6
Continuous
 62
     7
370
     9
100
AcDbPolyline
 90
        4
 70
     1
 43
3.0
 10
2213.419136698869
 20
1070.961723582107
 42
0.4142135623731
 10
2211.919136698869
 20
1072.461723582107
 42
0.4142135623731
 10
2210.419136698869
 20
1070.961723582107
 42
0.4142135623731
 10
2211.919136698869
 20
1069.461723582107
 42
0.4142135623731
  0
LWPOLYLINE
  5
8E
330
1F
100
AcDbEntity
  8
0-B_寸法
  6
Continuous
 62
     7
370
     9
100
AcDbPolyline
 90
        4
 70
     1
 43
3.0
 10
2033.419285162763
 20
1250.961946277948
 42
0.4142135623731
 10
2031.919285162763
 20
1252.461946277948
 42
0.4142135623731
 10
2030.419285162763
 20
1250.961946277948
 42
0.4142135623731
 10
2031.919285162763
 20
1249.461946277948
 42
0.4142135623731
  0
LINE
  5
8F
330
1F
100
AcDbEntity
  8
0-B_寸法
  6
Continuous
 62
   120
370
     5
100
AcDbLine
 10
2211.919136698869
 20
1790.962168973788
 30
0.0
 11
2211.919136698869
 21
1070.961723582107
 31
0.0
  0
LINE
  5
90
330
1F
100
AcDbEntity
  8
0-C_ハッチ
  6
JWW_DASHED1
 62
   120
370
     5
100
AcDbLine
 10
2211.919136698869
 20
2055.40418557535
 30
0.0
 11
2274.47736753713
 21
2117.962416413612
 31
0.0
  0
LINE
  5
91
330
1F
100
AcDbEntity
  8
0-C_ハッチ
  6
JWW_DASHED1
 62
   120
370
     5
100
AcDbLine
 10
2241.902904646505
 20
2042.962168973788
 30
0.0
 11
2316.903152086327
 21
2117.962416413612
 31
0.0
  0
LINE
  5
92
330
1F
100
AcDbEntity
  8
0-C_ハッチ
  6
JWW_DASHED1
 62
   120
370
     5
100
AcDbLine
 10
2284.329431515171
 20
2042.962168973788
 30
0.0
 11
2359.329678954993
 21
2117.962416413612
 31
0.0
  0
LINE
  5
93
330
1F
100
AcDbEntity
  8
0-C_ハッチ
  6
JWW_DASHED1
 62
   120
370
     5
100
AcDbLine
 10
2326.755958383837
 20
2042.962168973788
 30
0.0
 11
2401.756205823659
 21
2117.962416413612
 31
0.0
  0
LINE
  5
94
330
1F
100
AcDbEntity
  8
0-C_ハッチ
  6
JWW_DASHED1
 62
   120
370
     5
100
AcDbLine
 10
2369.182485252502
 20
2042.962168973788
 30
0.0
 11
2444.182732692324
 21
2117.962416413612
 31
0.0
  0
LINE
  5
95
330
1F
100
AcDbEntity
  8
0-C_ハッチ
  6
JWW_DASHED1
 62
   120
370
     5
100
AcDbLine
 10
2411.608269801699
 20
2042.962168973788
 30
0.0
 11
2486.608517241522
 21
2117.962416413612
 31
0.0
  0
LINE
  5
96
330
1F
100
AcDbEntity
  8
0-C_ハッチ
  6
JWW_DASHED1
 62
   120
370
     5
100
AcDbLine
 10
2454.034796670365
 20
2042.962168973788
 30
0.0
 11
2529.035044110188
 21
2117.962416413612
 31
0.0
  0
LINE
  5
97
330
1F
100
AcDbEntity
  8
0-C_ハッチ
  6
JWW_DASHED1
 62
   120
370
     5
100
AcDbLine
 10
2496.460581219563
 20
2042.962168973788
 30
0.0
 11
2571.460828659385
 21
2117.962416413612
 31
0.0
  0
LINE
  5
98
330
1F
100
AcDbEntity
  8
0-C_ハッチ
  6
JWW_DASHED1
 62
   120
370
     5
100
AcDbLine
 10
2538.887108088228
 20
2042.962168973788
 30
0.0
 11
2613.887355528051
 21
2117.962416413612
 31
0.0
  0
LINE
  5
99
330
1F
100
AcDbEntity
  8
0-C_ハッチ
  6
JWW_DASHED1
 62
   120
370
     5
100
AcDbLine
 10
2623.740161825559
 20
2042.962168973788
 30
0.0
 11
2698.740409265382
 21
2117.962416413612
 31
0.0
  0
LINE
  5
9A
330
1F
100
AcDbEntity
  8
0-C_ハッチ
  6
JWW_DASHED1
 62
   120
370
     5
100
AcDbLine
 10
2666.165946374757
 20
2042.962168973788
 30
0.0
 11
2741.166193814578
 21
2117.962416413612
 31
0.0
  0
LINE
  5
9B
330
1F
100
AcDbEntity
  8
0-C_ハッチ
  6
JWW_DASHED1
 62
   120
370
     5
100
AcDbLine
 10
2708.592473243422
 20
2042.962168973788
 30
0.0
 11
2783.592720683244
 21
2117.962416413612
 31
0.0
  0
LINE
  5
9C
330
1F
100
AcDbEntity
  8
0-C_ハッチ
  6
Continuous
 62
   120
370
     5
100
AcDbLine
 10
2031.918542843325
 20
2518.60399870734
 30
0.0
 11
2114.276713109773
 21
2600.962168973788
 31
0.0
  0
LINE
  5
9D
330
1F
100
AcDbEntity
  8
0-C_ハッチ
  6
Continuous
 62
   120
370
     5
100
AcDbLine
 10
2031.918542843305
 20
2340.413089848323
 30
0.0
 11
2211.919136698869
 21
2520.413683703887
 31
0.0
  0
LINE
  5
9E
330
1F
100
AcDbEntity
  8
0-C_ハッチ
  6
Continuous
 62
   120
370
     5
100
AcDbLine
 10
2031.918542843305
 20
2399.810059468025
 30
0.0
 11
2211.919136698869
 21
2579.810653323589
 31
0.0
  0
LINE
  5
9F
330
1F
100
AcDbEntity
  8
0-C_ハッチ
  6
Continuous
 62
   120
370
     5
100
AcDbLine
 10
2031.918542843315
 20
2459.207029087682
 30
0.0
 11
2173.673682729421
 21
2600.962168973788
 31
0.0
  0
LINE
  5
A0
330
1F
100
AcDbEntity
  8
0-C_ハッチ
  6
Continuous
 62
   120
370
     5
100
AcDbLine
 10
2031.918542843308
 20
2281.016120228679
 30
0.0
 11
2211.919136698888
 21
2461.01671408426
 31
0.0
  0
LINE
  5
A1
330
1F
100
AcDbEntity
  8
0-C_ハッチ
  6
Continuous
 62
   120
370
     5
100
AcDbLine
 10
2031.918542843292
 20
2221.619150608962
 30
0.0
 11
2211.919136698871
 21
2401.619744464542
 31
0.0
  0
LINE
  5
A2
330
1F
100
AcDbEntity
  8
0-C_ハッチ
  6
Continuous
 62
   120
370
     5
100
AcDbLine
 10
2031.918542843312
 20
2162.222180989334
 30
0.0
 11
2211.919136698892
 21
2342.222774844913
 31
0.0
  0
LINE
  5
A3
330
1F
100
AcDbEntity
  8
0-C_ハッチ
  6
Continuous
 62
   120
370
     5
100
AcDbLine
 10
2031.9185428433
 20
2102.825211369674
 30
0.0
 11
2211.919136698879
 21
2282.825805225254
 31
0.0
  0
LINE
  5
A4
330
1F
100
AcDbEntity
  8
0-C_ハッチ
  6
Continuous
 62
   120
370
     5
100
AcDbLine
 10
2031.918542843298
 20
2043.428241749973
 30
0.0
 11
2211.919136698863
 21
2223.428835605537
 31
0.0
  0
LINE
  5
A5
330
1F
100
AcDbEntity
  8
0-C_ハッチ
  6
Continuous
 62
   120
370
     5
100
AcDbLine
 10
2078.24640930646
 20
1970.962168973785
 30
0.0
 11
2211.919136698867
 21
2104.63489636619
 31
0.0
  0
LINE
  5
A6
330
1F
100
AcDbEntity
  8
0-C_ハッチ
  6
Continuous
 62
   120
370
     5
100
AcDbLine
 10
2137.643378926098
 20
1970.962168973774
 30
0.0
 11
2211.919136698886
 21
2045.237926746563
 31
0.0
  0
LINE
  5
A7
330
1F
100
AcDbEntity
  8
0-C_ハッチ
  6
Continuous
 62
   120
370
     5
100
AcDbLine
 10
2197.040348545755
 20
1970.962168973783
 30
0.0
 11
2211.919136698875
 21
1985.840957126904
 31
0.0
  0
LINE
  5
A8
330
1F
100
AcDbEntity
  8
0-4_枠
  6
Continuous
 62
    92
370
    13
100
AcDbLine
 10
2055.918542843296
 20
2600.962168973788
 30
0.0
 11
2211.919136698869
 21
2600.962168973788
 31
0.0
  0
LINE
  5
A9
330
1F
100
AcDbEntity
  8
0-4_枠
  6
Continuous
 62
    92
370
    13
100
AcDbLine
 10
2031.918542843295
 20
1994.962168973789
 30
0.0
 11
2055.918542843296
 21
1970.962168973788
 31
0.0
  0
LINE
  5
AA
330
1F
100
AcDbEntity
  8
0-4_枠
  6
Continuous
 62
    92
370
    13
100
AcDbLine
 10
2055.918542843296
 20
1970.962168973788
 30
0.0
 11
2211.919136698869
 21
1970.962168973788
 31
0.0
  0
LINE
  5
AB
330
1F
100
AcDbEntity
  8
0-4_枠
  6
Continuous
 62
    92
370
    13
100
AcDbLine
 10
2031.918542843295
 20
1994.962168973789
 30
0.0
 11
2031.918542843295
 21
2576.962168973787
 31
0.0
  0
LINE
  5
AC
330
1F
100
AcDbEntity
  8
0-4_枠
  6
Continuous
 62
    92
370
    13
100
AcDbLine
 10
2055.918542843296
 20
2600.962168973788
 30
0.0
 11
2031.918542843295
 21
2576.962168973787
 31
0.0
  0
LINE
  5
AD
330
1F
100
AcDbEntity
  8
0-4_枠
  6
Continuous
 62
    92
370
    13
100
AcDbLine
 10
2211.919136698869
 20
1970.962168973788
 30
0.0
 11
2211.919136698869
 21
2600.962168973788
 31
0.0
  0
LINE
  5
AE
330
1F
100
AcDbEntity
  8
0-1_通り芯
  6
JWW_CENTER1
 62
   120
370
     5
100
AcDbLine
 10
-2792.081679852526
 20
2285.962168973788
 30
0.0
 11
2811.919136698869
 21
2285.962168973788
 31
0.0
  0
LINE
  5
AF
330
1F
100
AcDbEntity
  8
0-3_仕上げ
  6
Continuous
 62
    40
370
    15
100
AcDbLine
 10
2211.919136698869
 20
2117.962416413612
 30
0.0
 11
2811.919136698869
 21
2117.962416413612
 31
0.0
  0
LINE
  5
B0
330
1F
100
AcDbEntity
  8
0-3_仕上げ
  6
Continuous
 62
    40
370
    15
100
AcDbLine
 10
2211.919136698869
 20
2042.962168973788
 30
0.0
 11
2811.919136698869
 21
2042.962168973788
 31
0.0
  0
LINE
  5
B1
330
1F
100
AcDbEntity
  8
0-C_ハッチ
  6
JWW_DASHED1
 62
   120
370
     5
100
AcDbLine
 10
2793.444784661285
 20
2042.962168973788
 30
0.0
 11
2811.919136698869
 21
2061.436521011373
 31
0.0
  0
LINE
  5
B2
330
1F
100
AcDbEntity
  8
0-C_ハッチ
  6
JWW_DASHED1
 62
   120
370
     5
100
AcDbLine
 10
2751.018257792619
 20
2042.962168973788
 30
0.0
 11
2811.919136698869
 21
2103.862445115886
 31
0.0
  0
LINE
  5
B3
330
1F
100
AcDbEntity
  8
0-0_補助線
  6
JWW_HOJO
 62
   120
370
     5
100
AcDbLine
 10
2811.919136698869
 20
2780.962168973788
 30
0.0
 11
2811.919136698869
 21
1790.962168973788
 31
0.0
  0
LINE
  5
B4
330
1F
100
AcDbEntity
  8
0-0_補助線
  6
JWW_HOJO
 62
   120
370
     5
100
AcDbLine
 10
2811.919136698868
 20
1790.962168973788
 30
0.0
 11
-2792.081679852526
 21
1790.962168973788
 31
0.0
  0
LINE
  5
B5
330
1F
100
AcDbEntity
  8
0-0_補助線
  6
JWW_HOJO
 62
   120
370
     5
100
AcDbLine
 10
-2792.081679852526
 20
2780.962168973788
 30
0.0
 11
-2792.081679852526
 21
1790.962168973788
 31
0.0
  0
LINE
  5
B6
330
1F
100
AcDbEntity
  8
0-0_補助線
  6
JWW_HOJO
 62
   120
370
     5
100
AcDbLine
 10
9.918542843311116
 20
2153.923132867369
 30
0.0
 11
9.918542843311116
 21
2780.962168973788
 31
0.0
  0
LINE
  5
B7
330
1F
100
AcDbEntity
  8
0-0_補助線
  6
JWW_HOJO
 62
   120
370
     5
100
AcDbLine
 10
2811.919136698869
 20
2780.962168973788
 30
0.0
 11
-2792.081679852526
 21
2780.962168973788
 31
0.0
  0
LINE
  5
B8
330
1F
100
AcDbEntity
  8
0-3_仕上げ
  6
Continuous
 62
    92
370
    13
100
AcDbLine
 10
-2222.081778828455
 20
2117.962416413612
 30
0.0
 11
-2222.081778828455
 21
2602.453681241955
 31
0.0
  0
LINE
  5
B9
330
1F
100
AcDbEntity
  8
0-3_仕上げ
  6
Continuous
 62
    92
370
    13
100
AcDbLine
 10
2241.919235674796
 20
2117.962416413612
 30
0.0
 11
2241.919235674796
 21
2569.842462867123
 31
0.0
  0
LINE
  5
BA
330
1F
100
AcDbEntity
  8
0-4_枠
  6
Continuous
 62
    92
370
    13
100
AcDbLine
 10
-2192.081679852526
 20
1970.962168973788
 30
0.0
 11
-2192.081679852526
 21
2600.962168973788
 31
0.0
  0
LWPOLYLINE
  5
BB
330
1F
100
AcDbEntity
  8
0-B_寸法
  6
Continuous
 62
     7
370
     9
100
AcDbPolyline
 90
        4
 70
     1
 43
3.0
 10
2243.419235674795
 20
1070.961723582107
 42
0.4142135623731
 10
2241.919235674796
 20
1072.461723582107
 42
0.4142135623731
 10
2240.419235674796
 20
1070.961723582107
 42
0.4142135623731
 10
2241.919235674796
 20
1069.461723582107
 42
0.4142135623731
  0
LWPOLYLINE
  5
BC
330
1F
100
AcDbEntity
  8
0-B_寸法
  6
Continuous
 62
     7
370
     9
100
AcDbPolyline
 90
        4
 70
     1
 43
3.0
 10
-2220.581778828455
 20
1070.961723582107
 42
0.4142135623731
 10
-2222.081778828455
 20
1072.461723582107
 42
0.4142135623731
 10
-2223.581778828455
 20
1070.961723582107
 42
0.4142135623731
 10
-2222.081778828455
 20
1069.461723582107
 42
0.4142135623731
  0
LINE
  5
BD
330
1F
100
AcDbEntity
  8
0-B_寸法
  6
Continuous
 62
   120
370
     5
100
AcDbLine
 10
-2222.081778828455
 20
1070.961723582107
 30
0.0
 11
2241.919235674796
 21
1070.961723582107
 31
0.0
  0
LINE
  5
BE
330
1F
100
AcDbEntity
  8
0-7_金物
  6
Continuous
 62
     7
370
     9
100
AcDbLine
 10
-1948.477601287127
 20
2473.415396450222
 30
0.0
 11
-1918.958048024806
 21
2257.466241410777
 31
0.0
  0
LINE
  5
BF
330
1F
100
AcDbEntity
  8
0-7_金物
  6
Continuous
 62
     7
370
     9
100
AcDbLine
 10
-1948.477601287127
 20
2473.415396450222
 30
0.0
 11
-1990.47658994247
 21
2473.706861590851
 31
0.0
  0
LINE
  5
C0
330
1F
100
AcDbEntity
  8
0-7_金物
  6
Continuous
 62
     7
370
     9
100
AcDbLine
 10
-2000.190506787657
 20
2463.578450212042
 30
0.0
 11
-2001.479667289469
 21
2446.819363688516
 31
0.0
  0
LINE
  5
C1
330
1F
100
AcDbEntity
  8
0-7_金物
  6
Continuous
 62
     7
370
     9
100
AcDbLine
 10
-2000.190506787657
 20
2463.578450212042
 30
0.0
 11
-1990.424624067943
 21
2470.902862251828
 31
0.0
  0
LINE
  5
C2
330
1F
100
AcDbEntity
  8
0-7_金物
  6
Continuous
 62
     7
370
     9
100
AcDbLine
 10
-1990.47658994247
 20
2473.706861590851
 30
0.0
 11
-1989.581457156683
 21
2425.40686159085
 31
0.0
  0
LINE
  5
C3
330
1F
100
AcDbEntity
  8
0-7_金物
  6
Continuous
 62
     7
370
     9
100
AcDbLine
 10
-2012.081457156683
 20
2425.40686159085
 30
0.0
 11
-2012.081457156683
 21
2270.006861590852
 31
0.0
  0
LINE
  5
C4
330
1F
100
AcDbEntity
  8
0-7_金物
  6
Continuous
 62
     7
370
     9
100
AcDbLine
 10
-1918.958048024806
 20
2257.466241410777
 30
0.0
 11
-1864.398933930351
 21
2205.331976831635
 31
0.0
  0
LINE
  5
C5
330
1F
100
AcDbEntity
  8
0-7_金物
  6
Continuous
 62
     7
370
     9
100
AcDbLine
 10
-1992.91595824173
 20
2445.392078847226
 30
0.0
 11
-2001.479667289469
 21
2446.819363688516
 31
0.0
  0
LINE
  5
C6
330
1F
100
AcDbEntity
  8
0-7_金物
  6
Continuous
 62
     7
370
     9
100
AcDbLine
 10
-1992.91595824173
 20
2445.392078847226
 30
0.0
 11
-1992.91595824173
 21
2452.666627393155
 31
0.0
  0
LINE
  5
C7
330
1F
100
AcDbEntity
  8
0-7_金物
  6
Continuous
 62
     7
370
     9
100
AcDbLine
 10
-1992.91595824173
 20
2452.666627393155
 30
0.0
 11
-1990.112632816131
 21
2454.068290105951
 31
0.0
  0
LINE
  5
C8
330
1F
100
AcDbEntity
  8
0-7_金物
  6
Continuous
 62
     7
370
     9
100
AcDbLine
 10
-1864.398933930351
 20
2205.331976831635
 30
0.0
 11
-1862.952752603788
 21
2174.962168973789
 31
0.0
  0
LINE
  5
C9
330
1F
100
AcDbEntity
  8
0-7_金物
  6
Continuous
 62
     7
370
     9
100
AcDbLine
 10
-1943.726292182215
 20
2174.962168973789
 30
0.0
 11
-1802.426292182216
 21
2174.962168973789
 31
0.0
  0
LINE
  5
CA
330
1F
100
AcDbEntity
  8
0-7_金物
  6
Continuous
 62
     7
370
     9
100
AcDbLine
 10
-1886.205454150029
 20
2174.962168973789
 30
0.0
 11
-1989.27467827234
 21
2222.867583002466
 31
0.0
  0
LINE
  5
CB
330
1F
100
AcDbEntity
  8
0-7_金物
  6
Continuous
 62
     7
370
     9
100
AcDbLine
 10
-2012.081457156683
 20
2270.006861590852
 30
0.0
 11
-1989.564837674796
 21
2270.006861590852
 31
0.0
  0
LINE
  5
CC
330
1F
100
AcDbEntity
  8
0-7_金物
  6
Continuous
 62
     7
370
     9
100
AcDbLine
 10
-1989.27467827234
 20
2222.867583002466
 30
0.0
 11
-1989.581457156683
 21
2272.706861590851
 31
0.0
  0
LINE
  5
CD
330
1F
100
AcDbEntity
  8
0-7_金物
  6
Continuous
 62
     7
370
     9
100
AcDbLine
 10
-2012.081457156683
 20
2425.40686159085
 30
0.0
 11
-1989.581457156683
 21
2425.40686159085
 31
0.0
  0
LINE
  5
CE
330
1F
100
AcDbEntity
  8
0-7_金物
  6
Continuous
 62
     7
370
     9
100
AcDbLine
 10
-1989.581457156683
 20
2270.006861590852
 30
0.0
 11
-1989.581457156683
 21
2425.40686159085
 31
0.0
  0
LINE
  5
CF
330
1F
100
AcDbEntity
  8
0-7_金物
  6
JWW_DASHED1
 62
     7
370
     9
100
AcDbLine
 10
-1943.726292182215
 20
2174.962168973789
 30
0.0
 11
-1943.726292182215
 21
2133.019608156326
 31
0.0
  0
LINE
  5
D0
330
1F
100
AcDbEntity
  8
0-7_金物
  6
JWW_DASHED1
 62
     7
370
     9
100
AcDbLine
 10
-1802.426292182216
 20
2174.962168973789
 30
0.0
 11
-1802.426292182216
 21
2133.019608156326
 31
0.0
  0
LINE
  5
D1
330
1F
100
AcDbEntity
  8
0-7_金物
  6
JWW_DASHED1
 62
     7
370
     9
100
AcDbLine
 10
-1943.726292182215
 20
2133.019608156326
 30
0.0
 11
-1802.426292182216
 21
2133.019608156326
 31
0.0
  0
LINE
  5
D2
330
1F
100
AcDbEntity
  8
0-7_金物
  6
Continuous
 62
     7
370
     9
100
AcDbLine
 10
1968.314686973742
 20
2473.415396450222
 30
0.0
 11
1938.795133711421
 21
2257.466241410777
 31
0.0
  0
LINE
  5
D3
330
1F
100
AcDbEntity
  8
0-7_金物
  6
Continuous
 62
     7
370
     9
100
AcDbLine
 10
1968.314686973742
 20
2473.415396450222
 30
0.0
 11
2010.313675629086
 21
2473.706861590851
 31
0.0
  0
LINE
  5
D4
330
1F
100
AcDbEntity
  8
0-7_金物
  6
Continuous
 62
     7
370
     9
100
AcDbLine
 10
2020.027592474273
 20
2463.578450212042
 30
0.0
 11
2021.316752976084
 21
2446.819363688516
 31
0.0
  0
LINE
  5
D5
330
1F
100
AcDbEntity
  8
0-7_金物
  6
Continuous
 62
     7
370
     9
100
AcDbLine
 10
2020.027592474273
 20
2463.578450212042
 30
0.0
 11
2010.261709754559
 21
2470.902862251828
 31
0.0
  0
LINE
  5
D6
330
1F
100
AcDbEntity
  8
0-7_金物
  6
Continuous
 62
     7
370
     9
100
AcDbLine
 10
2010.313675629086
 20
2473.706861590851
 30
0.0
 11
2009.418542843298
 21
2425.40686159085
 31
0.0
  0
LINE
  5
D7
330
1F
100
AcDbEntity
  8
0-7_金物
  6
Continuous
 62
     7
370
     9
100
AcDbLine
 10
2031.918542843298
 20
2425.40686159085
 30
0.0
 11
2031.918542843298
 21
2270.006861590852
 31
0.0
  0
LINE
  5
D8
330
1F
100
AcDbEntity
  8
0-7_金物
  6
Continuous
 62
     7
370
     9
100
AcDbLine
 10
1938.795133711421
 20
2257.466241410777
 30
0.0
 11
1884.236019616967
 21
2205.331976831635
 31
0.0
  0
LINE
  5
D9
330
1F
100
AcDbEntity
  8
0-7_金物
  6
Continuous
 62
     7
370
     9
100
AcDbLine
 10
2012.753043928347
 20
2445.392078847226
 30
0.0
 11
2021.316752976084
 21
2446.819363688516
 31
0.0
  0
LINE
  5
DA
330
1F
100
AcDbEntity
  8
0-7_金物
  6
Continuous
 62
     7
370
     9
100
AcDbLine
 10
2012.753043928347
 20
2445.392078847226
 30
0.0
 11
2012.753043928347
 21
2452.666627393155
 31
0.0
  0
LINE
  5
DB
330
1F
100
AcDbEntity
  8
0-7_金物
  6
Continuous
 62
     7
370
     9
100
AcDbLine
 10
2012.753043928347
 20
2452.666627393155
 30
0.0
 11
2009.949718502747
 21
2454.068290105951
 31
0.0
  0
LINE
  5
DC
330
1F
100
AcDbEntity
  8
0-7_金物
  6
Continuous
 62
     7
370
     9
100
AcDbLine
 10
1884.236019616967
 20
2205.331976831635
 30
0.0
 11
1882.789838290404
 21
2174.962168973789
 31
0.0
  0
LINE
  5
DD
330
1F
100
AcDbEntity
  8
0-7_金物
  6
Continuous
 62
     7
370
     9
100
AcDbLine
 10
1963.563377868832
 20
2174.962168973789
 30
0.0
 11
1822.263377868831
 21
2174.962168973789
 31
0.0
  0
LINE
  5
DE
330
1F
100
AcDbEntity
  8
0-7_金物
  6
Continuous
 62
     7
370
     9
100
AcDbLine
 10
1906.042539836646
 20
2174.962168973789
 30
0.0
 11
2009.111763958956
 21
2222.867583002466
 31
0.0
  0
LINE
  5
DF
330
1F
100
AcDbEntity
  8
0-7_金物
  6
Continuous
 62
     7
370
     9
100
AcDbLine
 10
2031.918542843298
 20
2270.006861590852
 30
0.0
 11
2009.401923361411
 21
2270.006861590852
 31
0.0
  0
LINE
  5
E0
330
1F
100
AcDbEntity
  8
0-7_金物
  6
Continuous
 62
     7
370
     9
100
AcDbLine
 10
2009.111763958956
 20
2222.867583002466
 30
0.0
 11
2009.418542843298
 21
2272.706861590851
 31
0.0
  0
LINE
  5
E1
330
1F
100
AcDbEntity
  8
0-7_金物
  6
Continuous
 62
     7
370
     9
100
AcDbLine
 10
2031.918542843298
 20
2425.40686159085
 30
0.0
 11
2009.418542843298
 21
2425.40686159085
 31
0.0
  0
LINE
  5
E2
330
1F
100
AcDbEntity
  8
0-7_金物
  6
Continuous
 62
     7
370
     9
100
AcDbLine
 10
2009.418542843298
 20
2270.006861590852
 30
0.0
 11
2009.418542843298
 21
2425.40686159085
 31
0.0
  0
LINE
  5
E3
330
1F
100
AcDbEntity
  8
0-7_金物
  6
JWW_DASHED1
 62
     7
370
     9
100
AcDbLine
 10
1963.563377868832
 20
2174.962168973789
 30
0.0
 11
1963.563377868832
 21
2133.019608156326
 31
0.0
  0
LINE
  5
E4
330
1F
100
AcDbEntity
  8
0-7_金物
  6
JWW_DASHED1
 62
     7
370
     9
100
AcDbLine
 10
1822.263377868831
 20
2174.962168973789
 30
0.0
 11
1822.263377868831
 21
2133.019608156326
 31
0.0
  0
LINE
  5
E5
330
1F
100
AcDbEntity
  8
0-7_金物
  6
JWW_DASHED1
 62
     7
370
     9
100
AcDbLine
 10
1963.563377868832
 20
2133.019608156326
 30
0.0
 11
1822.263377868831
 21
2133.019608156326
 31
0.0
  0
LWPOLYLINE
  5
E6
330
1F
100
AcDbEntity
  8
0-B_寸法
  6
Continuous
 62
     7
370
     9
100
AcDbPolyline
 90
        4
 70
     1
 43
3.0
 10
-2220.581778828455
 20
890.9617235821065
 42
0.4142135623731
 10
-2222.081778828455
 20
892.4617235821065
 42
0.4142135623731
 10
-2223.581778828455
 20
890.9617235821065
 42
0.4142135623731
 10
-2222.081778828455
 20
889.4617235821065
 42
0.4142135623731
  0
LWPOLYLINE
  5
E7
330
1F
100
AcDbEntity
  8
0-B_寸法
  6
Continuous
 62
     7
370
     9
100
AcDbPolyline
 90
        4
 70
     1
 43
3.0
 10
2243.419235674795
 20
890.9617235821065
 42
0.4142135623731
 10
2241.919235674796
 20
892.4617235821065
 42
0.4142135623731
 10
2240.419235674796
 20
890.9617235821065
 42
0.4142135623731
 10
2241.919235674796
 20
889.4617235821065
 42
0.4142135623731
  0
LINE
  5
E8
330
1F
100
AcDbEntity
  8
0-B_寸法
  6
Continuous
 62
   120
370
     5
100
AcDbLine
 10
-2222.081778828455
 20
890.9617235821065
 30
0.0
 11
2241.919235674796
 21
890.9617235821065
 31
0.0
  0
LINE
  5
E9
330
1F
100
AcDbEntity
  8
0-B_寸法
  6
Continuous
 62
   120
370
     5
100
AcDbLine
 10
2241.919235674796
 20
890.9617235821065
 30
0.0
 11
2241.919235674796
 21
1790.962168973788
 31
0.0
  0
LINE
  5
EA
330
1F
100
AcDbEntity
  8
0-B_寸法
  6
Continuous
 62
   120
370
     5
100
AcDbLine
 10
-2222.081778828455
 20
890.9617235821065
 30
0.0
 11
-2222.081778828455
 21
1790.962168973788
 31
0.0
  0
LINE
  5
EB
330
1F
100
AcDbEntity
  8
0-C_ハッチ
  6
Continuous
 62
   120
370
     5
100
AcDbLine
 10
2037.383991265029
 20
1989.496720552055
 30
0.0
 11
2211.919136698884
 21
2164.031865985908
 31
0.0
  0
LINE
  5
EC
330
1F
100
AcDbEntity
  8
0-7_金物
  6
Continuous
 62
     7
370
     9
100
AcDbLine
 10
2229.918800180712
 20
2195.961872046001
 30
0.0
 11
2229.918800180712
 21
2375.961723582107
 31
0.0
  0
LINE
  5
ED
330
1F
100
AcDbEntity
  8
0-7_金物
  6
Continuous
 62
     7
370
     9
100
AcDbLine
 10
2241.919136698869
 20
2375.961723582107
 30
0.0
 11
2229.918800180712
 21
2375.961723582107
 31
0.0
  0
LINE
  5
EE
330
1F
100
AcDbEntity
  8
0-7_金物
  6
Continuous
 62
     7
370
     9
100
AcDbLine
 10
2241.919136698869
 20
2195.961872046001
 30
0.0
 11
2229.918800180712
 21
2195.961872046001
 31
0.0
  0
LINE
  5
EF
330
1F
100
AcDbEntity
  8
0-7_金物
  6
Continuous
 62
     7
370
     9
100
AcDbLine
 10
2229.918800180712
 20
2225.961971021929
 30
0.0
 11
2217.919205982019
 21
2225.961971021929
 31
0.0
  0
LINE
  5
F0
330
1F
100
AcDbEntity
  8
0-7_金物
  6
Continuous
 62
     7
370
     9
100
AcDbLine
 10
2229.918800180712
 20
2345.961624606178
 30
0.0
 11
2217.919205982019
 21
2345.961624606178
 31
0.0
  0
LINE
  5
F1
330
1F
100
AcDbEntity
  8
0-7_金物
  6
Continuous
 62
     7
370
     9
100
AcDbLine
 10
2217.919205982019
 20
2225.961971021929
 30
0.0
 11
2217.919205982019
 21
2345.961624606178
 31
0.0
  0
LINE
  5
F2
330
1F
100
AcDbEntity
  8
0-7_金物
  6
Continuous
 62
     7
370
     9
100
AcDbLine
 10
2217.919205982019
 20
2339.962198666567
 30
0.0
 11
2211.919136698869
 21
2339.962198666567
 31
0.0
  0
LINE
  5
F3
330
1F
100
AcDbEntity
  8
0-7_金物
  6
Continuous
 62
     7
370
     9
100
AcDbLine
 10
2217.919205982019
 20
2231.962139281009
 30
0.0
 11
2211.919136698869
 21
2231.962139281009
 31
0.0
  0
LINE
  5
F4
330
1F
100
AcDbEntity
  8
0-7_金物
  6
Continuous
 62
     7
370
     9
100
AcDbLine
 10
2241.919136698869
 20
2195.961872046001
 30
0.0
 11
2241.919136698869
 21
2375.961723582107
 31
0.0
  0
LINE
  5
F5
330
1F
100
AcDbEntity
  8
0-7_金物
  6
Continuous
 62
     7
370
     9
100
AcDbLine
 10
-2210.081343334368
 20
2375.962465901574
 30
0.0
 11
-2210.081343334368
 21
2195.962614365468
 31
0.0
  0
LINE
  5
F6
330
1F
100
AcDbEntity
  8
0-7_金物
  6
Continuous
 62
     7
370
     9
100
AcDbLine
 10
-2222.081679852526
 20
2195.962614365468
 30
0.0
 11
-2210.081343334368
 21
2195.962614365468
 31
0.0
  0
LINE
  5
F7
330
1F
100
AcDbEntity
  8
0-7_金物
  6
Continuous
 62
     7
370
     9
100
AcDbLine
 10
-2222.081679852526
 20
2375.962465901574
 30
0.0
 11
-2210.081343334368
 21
2375.962465901574
 31
0.0
  0
LINE
  5
F8
330
1F
100
AcDbEntity
  8
0-7_金物
  6
Continuous
 62
     7
370
     9
100
AcDbLine
 10
-2210.081343334368
 20
2345.962366925647
 30
0.0
 11
-2198.081749135676
 21
2345.962366925647
 31
0.0
  0
LINE
  5
F9
330
1F
100
AcDbEntity
  8
0-7_金物
  6
Continuous
 62
     7
370
     9
100
AcDbLine
 10
-2210.081343334368
 20
2225.962713341398
 30
0.0
 11
-2198.081749135676
 21
2225.962713341398
 31
0.0
  0
LINE
  5
FA
330
1F
100
AcDbEntity
  8
0-7_金物
  6
Continuous
 62
     7
370
     9
100
AcDbLine
 10
-2198.081749135676
 20
2345.962366925647
 30
0.0
 11
-2198.081749135676
 21
2225.962713341398
 31
0.0
  0
LINE
  5
FB
330
1F
100
AcDbEntity
  8
0-7_金物
  6
Continuous
 62
     7
370
     9
100
AcDbLine
 10
-2198.081749135676
 20
2231.962139281009
 30
0.0
 11
-2192.081679852526
 21
2231.962139281009
 31
0.0
  0
LINE
  5
FC
330
1F
100
AcDbEntity
  8
0-7_金物
  6
Continuous
 62
     7
370
     9
100
AcDbLine
 10
-2198.081749135676
 20
2339.962198666567
 30
0.0
 11
-2192.081679852526
 21
2339.962198666567
 31
0.0
  0
LINE
  5
FD
330
1F
100
AcDbEntity
  8
0-7_金物
  6
Continuous
 62
     7
370
     9
100
AcDbLine
 10
-2222.081679852526
 20
2375.962465901574
 30
0.0
 11
-2222.081679852526
 21
2195.962614365468
 31
0.0
  0
LINE
  5
FE
330
1F
100
AcDbEntity
  8
0-6_扉
  6
Continuous
 62
   200
370
    20
100
AcDbLine
 10
15.91854284331248
 20
2156.962168973789
 30
0.0
 11
2019.918542843312
 21
2156.962168973789
 31
0.0
  0
LINE
  5
FF
330
1F
100
AcDbEntity
  8
0-6_扉
  6
Continuous
 62
   200
370
    20
100
AcDbLine
 10
-2000.081457156687
 20
2156.962168973789
 30
0.0
 11
3.918542843312309
 21
2156.962168973789
 31
0.0
  0
LINE
  5
100
330
1F
100
AcDbEntity
  8
0-B_寸法
  6
Continuous
 62
   120
370
     5
100
AcDbLine
 10
-1408.869134053685
 20
2156.962168973789
 30
0.0
 11
-1337.507736645535
 21
2156.962168973789
 31
0.0
  0
LWPOLYLINE
  5
101
330
1F
100
AcDbEntity
  8
0-B_寸法
  6
Continuous
 62
     7
370
     9
100
AcDbPolyline
 90
        4
 70
     1
 43
3.0
 10
-1336.007736645535
 20
2156.962168973789
 42
0.4142135623731
 10
-1337.507736645535
 20
2158.462168973789
 42
0.4142135623731
 10
-1339.007736645535
 20
2156.962168973789
 42
0.4142135623731
 10
-1337.507736645535
 20
2155.462168973789
 42
0.4142135623731
  0
LINE
  5
102
330
1F
100
AcDbEntity
  8
0-6_扉
  6
Continuous
 62
   200
370
    20
100
AcDbLine
 10
15.91854284331248
 20
2030.962079895453
 30
0.0
 11
2019.918542843312
 21
2030.962079895453
 31
0.0
  0
LINE
  5
103
330
1F
100
AcDbEntity
  8
0-6_扉
  6
Continuous
 62
   200
370
    20
100
AcDbLine
 10
-2000.081457156687
 20
2030.962079895453
 30
0.0
 11
3.918542843312309
 21
2030.962079895453
 31
0.0
  0
LINE
  5
104
330
1F
100
AcDbEntity
  8
0-B_寸法
  6
Continuous
 62
   120
370
     5
100
AcDbLine
 10
-1408.869134053685
 20
2030.959852937047
 30
0.0
 11
-1337.507736645535
 21
2030.959852937047
 31
0.0
  0
LWPOLYLINE
  5
105
330
1F
100
AcDbEntity
  8
0-B_寸法
  6
Continuous
 62
     7
370
     9
100
AcDbPolyline
 90
        4
 70
     1
 43
3.0
 10
-1336.007736645535
 20
2030.959852937047
 42
0.4142135623731
 10
-1337.507736645535
 20
2032.459852937047
 42
0.4142135623731
 10
-1339.007736645535
 20
2030.959852937047
 42
0.4142135623731
 10
-1337.507736645535
 20
2029.459852937047
 42
0.4142135623731
  0
LINE
  5
106
330
1F
100
AcDbEntity
  8
0-6_扉
  6
Continuous
 62
   200
370
    20
100
AcDbLine
 10
3.918542843312309
 20
2156.962168973789
 30
0.0
 11
3.918542843312309
 21
2030.962079895453
 31
0.0
  0
LINE
  5
107
330
1F
100
AcDbEntity
  8
0-6_扉
  6
Continuous
 62
   200
370
    20
100
AcDbLine
 10
15.91854284331248
 20
2156.962168973789
 30
0.0
 11
15.91854284331248
 21
2030.962079895453
 31
0.0
  0
LINE
  5
108
330
1F
100
AcDbEntity
  8
0-6_扉
  6
Continuous
 62
   200
370
    20
100
AcDbLine
 10
-2000.081457156687
 20
2156.962168973789
 30
0.0
 11
-2000.081457156687
 21
2030.962079895453
 31
0.0
  0
LINE
  5
109
330
1F
100
AcDbEntity
  8
0-6_扉
  6
Continuous
 62
   200
370
    20
100
AcDbLine
 10
2019.918542843312
 20
2156.962168973789
 30
0.0
 11
2019.918542843312
 21
2030.962079895453
 31
0.0
  0
LINE
  5
10A
330
1F
100
AcDbEntity
  8
0-B_寸法
  6
Continuous
 62
   120
370
     5
100
AcDbLine
 10
-1337.507736645535
 20
2156.962168973789
 30
0.0
 11
-1337.507736645535
 21
2030.959852937047
 31
0.0
  0
LINE
  5
10B
330
1F
100
AcDbEntity
  8
F-0_補助線
  6
JWW_HOJO
 62
   120
370
     5
100
AcDbLine
 10
-6140.081333436773
 20
-4455.0
 30
0.0
 11
-6140.081333436773
 21
4424.999604096284
 31
0.0
  0
LINE
  5
10C
330
1F
100
AcDbEntity
  8
F-0_補助線
  6
JWW_HOJO
 62
   120
370
     5
100
AcDbLine
 10
-6140.081333436773
 20
4424.999604096284
 30
0.0
 11
6159.917676803936
 21
4424.999604096284
 31
0.0
  0
LINE
  5
10D
330
1F
100
AcDbEntity
  8
F-0_補助線
  6
JWW_HOJO
 62
   120
370
     5
100
AcDbLine
 10
6159.917676803936
 20
4424.999604096284
 30
0.0
 11
6159.917676803936
 21
-4455.0
 31
0.0
  0
LINE
  5
10E
330
1F
100
AcDbEntity
  8
F-0_補助線
  6
JWW_HOJO
 62
   120
370
     5
100
AcDbLine
 10
6159.917676803936
 20
-4455.0
 30
0.0
 11
-6140.081333436773
 21
-4455.0
 31
0.0
  0
LINE
  5
10F
330
1F
100
AcDbEntity
  8
F-0_補助線
  6
JWW_HOJO
 62
     7
370
     9
100
AcDbLine
 10
1009.918254163523
 20
-3795.000003092998
 30
0.0
 11
1009.918254163523
 21
-4195.000008247994
 31
0.0
  0
LINE
  5
110
330
1F
100
AcDbEntity
  8
F-0_補助線
  6
JWW_HOJO
 62
     7
370
     9
100
AcDbLine
 10
509.9185840832865
 20
-3795.000003092998
 30
0.0
 11
509.9185840832865
 21
-4195.000008247994
 31
0.0
  0
LINE
  5
111
330
1F
100
AcDbEntity
  8
F-1_枠
  6
Continuous
 62
   200
370
    20
100
AcDbLine
 10
5859.917429364114
 20
4174.999769056166
 30
0.0
 11
5859.917429364114
 21
-4205.000164959882
 31
0.0
  0
LINE
  5
112
330
1F
100
AcDbEntity
  8
F-1_枠
  6
Continuous
 62
   200
370
    20
100
AcDbLine
 10
-5840.081317971782
 20
4174.999769056166
 30
0.0
 11
-5840.081317971782
 21
-4205.000164959882
 31
0.0
  0
LINE
  5
113
330
1F
100
AcDbEntity
  8
F-1_枠
  6
Continuous
 62
   200
370
    20
100
AcDbLine
 10
5859.917429364114
 20
-4205.000002577498
 30
0.0
 11
-5840.081085996952
 21
-4205.000002577498
 31
0.0
  0
LINE
  5
114
330
1F
100
AcDbEntity
  8
F-1_枠
  6
Continuous
 62
   200
370
    20
100
AcDbLine
 10
-5830.081323642279
 20
4174.999769056166
 30
0.0
 11
-5830.081323642279
 21
-4205.000164959882
 31
0.0
  0
LINE
  5
115
330
1F
100
AcDbEntity
  8
F-1_枠
  6
Continuous
 62
   200
370
    20
100
AcDbLine
 10
-5835.081309208291
 20
4174.999769056166
 30
0.0
 11
-5835.081309208291
 21
-4205.000164959882
 31
0.0
  0
LINE
  5
116
330
1F
100
AcDbEntity
  8
F-1_枠
  6
Continuous
 62
   200
370
    20
100
AcDbLine
 10
5854.917165428304
 20
4174.999769056166
 30
0.0
 11
5854.917165428304
 21
-4205.000164959882
 31
0.0
  0
LINE
  5
117
330
1F
100
AcDbEntity
  8
F-1_枠
  6
Continuous
 62
   200
370
    20
100
AcDbLine
 10
5849.917643811961
 20
4174.999769056166
 30
0.0
 11
5849.917643811961
 21
-4205.000164959882
 31
0.0
  0
LINE
  5
118
330
1F
100
AcDbEntity
  8
F-1_枠
  6
Continuous
 62
   200
370
    20
100
AcDbLine
 10
5859.917429364114
 20
-4199.999993814004
 30
0.0
 11
-5840.081085996952
 21
-4199.999993814004
 31
0.0
  0
LINE
  5
119
330
1F
100
AcDbEntity
  8
F-1_枠
  6
Continuous
 62
   200
370
    20
100
AcDbLine
 10
5859.917429364114
 20
-4195.000008247994
 30
0.0
 11
-5840.081085996952
 21
-4195.000008247994
 31
0.0
  0
LINE
  5
11A
330
1F
100
AcDbEntity
  8
F-1_枠
  6
Continuous
 62
   200
370
    20
100
AcDbLine
 10
4349.917891251784
 20
-3795.000003092998
 30
0.0
 11
4349.917891251784
 21
-4195.000008247994
 31
0.0
  0
LINE
  5
11B
330
1F
100
AcDbEntity
  8
F-1_枠
  6
Continuous
 62
   200
370
    20
100
AcDbLine
 10
2849.917396372139
 20
-3795.000003092998
 30
0.0
 11
2849.917396372139
 21
-4195.000008247994
 31
0.0
  0
LINE
  5
11C
330
1F
100
AcDbEntity
  8
F-1_枠
  6
Continuous
 62
   200
370
    20
100
AcDbLine
 10
9.918542843316231
 20
-3795.000003092998
 30
0.0
 11
9.918542843316231
 21
-4195.000008247994
 31
0.0
  0
LINE
  5
11D
330
1F
100
AcDbEntity
  8
F-1_枠
  6
Continuous
 62
   200
370
    20
100
AcDbLine
 10
9.918542843316231
 20
-3994.999936078046
 30
0.0
 11
5849.917643811961
 21
-3995.005364289155
 31
0.0
  0
LINE
  5
11E
330
1F
100
AcDbEntity
  8
F-1_枠
  6
Continuous
 62
   200
370
    20
100
AcDbLine
 10
-5840.081085996952
 20
4174.999769056166
 30
0.0
 11
5859.917429364114
 21
4174.999769056166
 31
0.0
  0
LINE
  5
11F
330
1F
100
AcDbEntity
  8
F-1_枠
  6
Continuous
 62
   200
370
    20
100
AcDbLine
 10
-5840.081085996952
 20
4164.999983504013
 30
0.0
 11
5859.917429364114
 21
4164.999983504013
 31
0.0
  0
LINE
  5
120
330
1F
100
AcDbEntity
  8
F-1_枠
  6
Continuous
 62
   200
370
    20
100
AcDbLine
 10
-5840.081085996952
 20
4169.999505120355
 30
0.0
 11
5859.917429364114
 21
4169.999505120355
 31
0.0
  0
LINE
  5
121
330
1F
100
AcDbEntity
  8
F-0_補助線
  6
JWW_HOJO
 62
     7
370
     9
100
AcDbLine
 10
-5830.081323642279
 20
-3994.99993607839
 30
0.0
 11
9.918542843316231
 21
-3994.99993607839
 31
0.0
  0
LINE
  5
122
330
1F
100
AcDbEntity
  8
F-0_補助線
  6
JWW_HOJO
 62
     7
370
     9
100
AcDbLine
 10
-5830.081323642279
 20
-3904.99993607839
 30
0.0
 11
9.918542843316231
 21
-3904.99993607839
 31
0.0
  0
LINE
  5
123
330
1F
100
AcDbEntity
  8
F-0_補助線
  6
JWW_HOJO
 62
     7
370
     9
100
AcDbLine
 10
-5830.081323642279
 20
-4084.99993607839
 30
0.0
 11
9.918542843316231
 21
-4084.99993607839
 31
0.0
  0
LINE
  5
124
330
1F
100
AcDbEntity
  8
F-0_補助線
  6
JWW_HOJO
 62
     7
370
     9
100
AcDbLine
 10
9.918408067688347
 20
-4139.999739777983
 30
0.0
 11
5849.917509036332
 21
-4140.005167989091
 31
0.0
  0
LINE
  5
125
330
1F
100
AcDbEntity
  8
F-0_補助線
  6
JWW_HOJO
 62
     7
370
     9
100
AcDbLine
 10
9.918491721639953
 20
-4049.999739778022
 30
0.0
 11
5849.917592690284
 21
-4050.005167989131
 31
0.0
  0
LINE
  5
126
330
1F
100
AcDbEntity
  8
F-0_補助線
  6
JWW_HOJO
 62
     7
370
     9
100
AcDbLine
 10
9.918593965360003
 20
-3939.99973721807
 30
0.0
 11
5849.917694934004
 21
-3940.005165429179
 31
0.0
  0
LINE
  5
127
330
1F
100
AcDbEntity
  8
F-0_補助線
  6
JWW_HOJO
 62
     7
370
     9
100
AcDbLine
 10
9.918677619311609
 20
-3849.999737218109
 30
0.0
 11
5849.917778587956
 21
-3850.005165429218
 31
0.0
  0
LINE
  5
128
330
1F
100
AcDbEntity
  8
F-0_補助線
  6
JWW_HOJO
 62
     7
370
     9
100
AcDbLine
 10
2939.917396372139
 20
-3795.000003092998
 30
0.0
 11
2939.917396372139
 21
-4195.000008247994
 31
0.0
  0
LINE
  5
129
330
1F
100
AcDbEntity
  8
F-0_補助線
  6
JWW_HOJO
 62
     7
370
     9
100
AcDbLine
 10
99.91854284331623
 20
-3795.000003092998
 30
0.0
 11
99.91854284331623
 21
-4195.000008247994
 31
0.0
  0
LINE
  5
12A
330
1F
100
AcDbEntity
  8
F-0_補助線
  6
JWW_HOJO
 62
     7
370
     9
100
AcDbLine
 10
4439.917891251784
 20
-3795.000003092998
 30
0.0
 11
4439.917891251784
 21
-4195.000008247994
 31
0.0
  0
LINE
  5
12B
330
1F
100
AcDbEntity
  8
F-1_枠
  6
Continuous
 62
   200
370
    20
100
AcDbLine
 10
5859.917429364114
 20
-3795.000003092998
 30
0.0
 11
-5840.081085996952
 21
-3795.000003092998
 31
0.0
  0
LINE
  5
12C
330
1F
100
AcDbEntity
  8
F-1_枠
  6
Continuous
 62
   200
370
    20
100
AcDbLine
 10
5859.917429364114
 20
-3790.000017526987
 30
0.0
 11
-5840.081085996952
 21
-3790.000017526987
 31
0.0
  0
LINE
  5
12D
330
1F
100
AcDbEntity
  8
F-0_補助線
  6
JWW_HOJO
 62
     7
370
     9
100
AcDbLine
 10
-5087.628710189611
 20
-3795.000003092999
 30
0.0
 11
-5087.628710189611
 21
-4205.000164959882
 31
0.0
  0
LINE
  5
12E
330
1F
100
AcDbEntity
  8
F-0_補助線
  6
JWW_HOJO
 62
     7
370
     9
100
AcDbLine
 10
-50.08145715668377
 20
-3795.000003092998
 30
0.0
 11
-50.08145715668377
 21
-4195.000008247994
 31
0.0
  0
MTEXT
  5
12F
330
1F
100
AcDbEntity
  8
0-A_文字
  6
Continuous
 62
     7
370
     9
100
AcDbMText
 10
-2797.12861215168
 20
2882.622733582387
 30
0.0
 40
91.44
 41
600.0
 46
0.0
 71
     7
 72
     1
  1
{\fＭＳ ゴシック|b0|i0|c128|p49;■横断面図}
 73
     1
 44
1.0
  0
MTEXT
  5
130
330
1F
100
AcDbEntity
  8
0-B_寸法
  6
Continuous
 62
     7
370
     0
100
AcDbMText
 10
-1634.475272480797
 20
2161.492485696761
 30
0.0
 40
99.06
 41
195.0
 46
0.0
 71
     7
 72
     1
  1
{\fＭＳ ゴシック|b0|i0|c128|p49;105}
 11
6.123031769111886E-17
 21
1.0
 31
0.0
 73
     1
 44
1.0
  0
MTEXT
  5
131
330
1F
100
AcDbEntity
  8
0-B_寸法
  6
Continuous
 62
     7
370
     0
100
AcDbMText
 10
-1352.507786133499
 20
2018.788510955418
 30
0.0
 40
97.15499999999999
 41
127.5
 46
0.0
 71
     7
 72
     1
  1
{\fＭＳ ゴシック|b0|i0|c128|p49;21}
 11
6.123031769111886E-17
 21
1.0
 31
0.0
 73
     1
 44
1.0
  0
MTEXT
  5
132
330
1F
100
AcDbEntity
  8
0-B_寸法
  6
Continuous
 62
     7
370
   211
100
AcDbMText
 10
-1998.360298186247
 20
1431.682168973788
 30
0.0
 40
91.44
 41
60.0
 46
0.0
 71
     7
 72
     1
  1
{\fＭＳ ゴシック|b0|i0|c128|p49;2}
 73
     1
 44
1.0
  0
MTEXT
  5
133
330
1F
100
AcDbEntity
  8
0-B_寸法
  6
Continuous
 62
     7
370
   211
100
AcDbMText
 10
-1298.081457156688
 20
1436.762168973788
 30
0.0
 40
101.6
 41
600.0
 46
0.0
 71
     7
 72
     1
  1
{\fＭＳ ゴシック|b0|i0|c128|p49;ＤＷ＝334}
 73
     1
 44
1.0
  0
MTEXT
  5
134
330
1F
100
AcDbEntity
  8
0-B_寸法
  6
Continuous
 62
     7
370
   211
100
AcDbMText
 10
21.08816930801424
 20
1431.682168973788
 30
0.0
 40
91.44
 41
60.0
 46
0.0
 71
     7
 72
     1
  1
{\fＭＳ ゴシック|b0|i0|c128|p49;2}
 73
     1
 44
1.0
  0
MTEXT
  5
135
330
1F
100
AcDbEntity
  8
0-B_寸法
  6
Continuous
 62
     7
370
   211
100
AcDbMText
 10
717.9185428433118
 20
1436.762168973788
 30
0.0
 40
101.6
 41
600.0
 46
0.0
 71
     7
 72
     1
  1
{\fＭＳ ゴシック|b0|i0|c128|p49;ＤＷ＝334}
 73
     1
 44
1.0
  0
MTEXT
  5
136
330
1F
100
AcDbEntity
  8
0-B_寸法
  6
Continuous
 62
     7
370
   211
100
AcDbMText
 10
1957.271942389923
 20
1431.682168973788
 30
0.0
 40
91.44
 41
60.0
 46
0.0
 71
     7
 72
     1
  1
{\fＭＳ ゴシック|b0|i0|c128|p49;2}
 73
     1
 44
1.0
  0
MTEXT
  5
137
330
1F
100
AcDbEntity
  8
0-B_寸法
  6
Continuous
 62
     7
370
     0
100
AcDbMText
 10
-2169.581766456461
 20
1254.539495765912
 30
0.0
 40
97.15499999999999
 41
127.5
 46
0.0
 71
     7
 72
     1
  1
{\fＭＳ ゴシック|b0|i0|c128|p49;30}
 73
     1
 44
1.0
  0
MTEXT
  5
138
330
1F
100
AcDbEntity
  8
0-B_寸法
  6
Continuous
 62
     7
370
     0
100
AcDbMText
 10
2054.419384138692
 20
1254.539495765912
 30
0.0
 40
97.15499999999999
 41
127.5
 46
0.0
 71
     7
 72
     1
  1
{\fＭＳ ゴシック|b0|i0|c128|p49;30}
 73
     1
 44
1.0
  0
MTEXT
  5
139
330
1F
100
AcDbEntity
  8
0-B_寸法
  6
Continuous
 62
     7
370
     0
100
AcDbMText
 10
-290.0812715768268
 20
1253.761946277946
 30
0.0
 40
101.6
 41
600.0
 46
0.0
 71
     7
 72
     1
  1
{\fＭＳ ゴシック|b0|i0|c128|p49;枠内＝674}
 73
     1
 44
1.0
  0
MTEXT
  5
13A
330
1F
100
AcDbEntity
  8
0-B_寸法
  6
Continuous
 62
     7
370
   211
100
AcDbMText
 10
-2180.388386575575
 20
1071.681723582107
 30
0.0
 40
91.44
 41
60.0
 46
0.0
 71
     7
 72
     1
  1
{\fＭＳ ゴシック|b0|i0|c128|p49;5}
 73
     1
 44
1.0
  0
MTEXT
  5
13B
330
1F
100
AcDbEntity
  8
0-B_寸法
  6
Continuous
 62
     7
370
   211
100
AcDbMText
 10
2144.317495777366
 20
1071.681723582107
 30
0.0
 40
91.44
 41
60.0
 46
0.0
 71
     7
 72
     1
  1
{\fＭＳ ゴシック|b0|i0|c128|p49;5}
 73
     1
 44
1.0
  0
MTEXT
  5
13C
330
1F
100
AcDbEntity
  8
0-B_寸法
  6
Continuous
 62
     7
370
     0
100
AcDbMText
 10
-290.0812715768268
 20
1073.761723582107
 30
0.0
 40
101.6
 41
600.0
 46
0.0
 71
     7
 72
     1
  1
{\fＭＳ ゴシック|b0|i0|c128|p49;枠外＝734}
 73
     1
 44
1.0
  0
MTEXT
  5
13D
330
1F
100
AcDbEntity
  8
0-B_寸法
  6
Continuous
 62
     7
370
   211
100
AcDbMText
 10
-357.58127157683
 20
887.0987274682012
 30
0.0
 40
101.8309090909091
 41
735.0
 46
0.0
 71
     7
 72
     1
  1
{\fＭＳ ゴシック|b0|i0|c128|p49;ＲＯＷ＝744}
 73
     1
 44
1.0
  0
MTEXT
  5
13E
330
1F
100
AcDbEntity
  8
F-0_補助線
  6
Continuous
 62
     7
370
     0
100
AcDbMText
 10
509.9185840832865
 20
-3946.496666872503
 30
0.0
 40
78.58125
 41
412.5
 46
0.0
 71
     7
 72
     1
  1
{\fＭＳ ゴシック|b0|i0|c128|p49;DOORETUS}
 73
     1
 44
1.0
  0
MTEXT
  5
13F
330
1F
100
AcDbEntity
  8
F-0_補助線
  6
Continuous
 62
     7
370
     0
100
AcDbMText
 10
1110.209427605311
 20
-3946.734791872504
 30
0.0
 40
78.105
 41
615.0
 46
0.0
 71
     7
 72
     1
  1
{\fＭＳ ゴシック|b0|i0|c128|p49;建具納まり図}
 73
     1
 44
1.0
  0
MTEXT
  5
140
330
1F
100
AcDbEntity
  8
F-A_文字
  6
Continuous
 62
     7
370
     0
100
AcDbMText
 10
99.91854284331623
 20
-3887.139820871936
 30
0.0
 40
45.72
 41
180.0
 46
0.0
 71
     7
 72
     1
  1
{\fＭＳ ゴシック|b0|i0|c128|p49;図面名}
 73
     1
 44
1.0
  0
MTEXT
  5
141
330
1F
100
AcDbEntity
  8
F-A_文字
  6
Continuous
 62
     7
370
     0
100
AcDbMText
 10
2939.917396372139
 20
-3887.142460617774
 30
0.0
 40
45.72
 41
300.0
 46
0.0
 71
     7
 72
     1
  1
{\fＭＳ ゴシック|b0|i0|c128|p49;ＳＣＡＬＥ}
 73
     1
 44
1.0
  0
MTEXT
  5
142
330
1F
100
AcDbEntity
  8
F-A_文字
  6
Continuous
 62
     7
370
     0
100
AcDbMText
 10
4439.917891251784
 20
-3887.143854850754
 30
0.0
 40
45.72
 41
240.0
 46
0.0
 71
     7
 72
     1
  1
{\fＭＳ ゴシック|b0|i0|c128|p49;ＤＡＴＥ}
 73
     1
 44
1.0
  0
MTEXT
  5
143
330
1F
100
AcDbEntity
  8
F-A_文字
  6
Continuous
 62
     7
370
     0
100
AcDbMText
 10
3569.917643811961
 20
-3946.903115907308
 30
0.0
 40
76.19999999999999
 41
150.0
 46
0.0
 71
     7
 72
     1
  1
{\fＭＳ ゴシック|b0|i0|c128|p49;1/5}
 73
     1
 44
1.0
  0
MTEXT
  5
144
330
1F
100
AcDbEntity
  8
F-A_文字
  6
Continuous
 62
     7
370
     0
100
AcDbMText
 10
2939.917396372139
 20
-4087.14246317786
 30
0.0
 40
45.72
 41
240.0
 46
0.0
 71
     7
 72
     1
  1
{\fＭＳ ゴシック|b0|i0|c128|p49;ＦＩＬＥ}
 73
     1
 44
1.0
  0
MTEXT
  5
145
330
1F
100
AcDbEntity
  8
F-A_文字
  6
Continuous
 62
     7
370
     0
100
AcDbMText
 10
4439.917891251784
 20
-4087.143857410839
 30
0.0
 40
45.72
 41
180.0
 46
0.0
 71
     7
 72
     1
  1
{\fＭＳ ゴシック|b0|i0|c128|p49;ＮＯ．}
 73
     1
 44
1.0
  0
MTEXT
  5
146
330
1F
100
AcDbEntity
  8
F-A_文字
  6
Continuous
 62
     7
370
     0
100
AcDbMText
 10
1394.917396372138
 20
-4096.140669266149
 30
0.0
 40
45.72
 41
120.0
 46
0.0
 71
     7
 72
     1
  1
{\fＭＳ ゴシック|b0|i0|c128|p49;株式}
 73
     1
 44
1.0
  0
MTEXT
  5
147
330
1F
100
AcDbEntity
  8
F-A_文字
  6
Continuous
 62
     7
370
     0
100
AcDbMText
 10
1604.917396372138
 20
-4164.281754523929
 30
0.0
 40
101.44125
 41
1065.0
 46
0.0
 71
     7
 72
     1
  1
{\fＭＳ ゴシック|b0|i0|c128|p49;ウッドワン・・・}
 73
     1
 44
1.0
  0
MTEXT
  5
148
330
1F
100
AcDbEntity
  8
F-A_文字
  6
Continuous
 62
     7
370
     0
100
AcDbMText
 10
1394.917396372138
 20
-4168.140669266187
 30
0.0
 40
45.72
 41
120.0
 46
0.0
 71
     7
 72
     1
  1
{\fＭＳ ゴシック|b0|i0|c128|p49;会社}
 73
     1
 44
1.0
  0
MTEXT
  5
149
330
1F
100
AcDbEntity
  8
F-A_文字
  6
Continuous
 62
     7
370
     0
100
AcDbMText
 10
5768.321977672939
 20
-4314.841419020919
 30
0.0
 40
68.58
 41
90.0
 46
0.0
 71
     7
 72
     1
  1
{\fＭＳ ゴシック|b0|i0|c128|p49;）}
 73
     1
 44
1.0
  0
MTEXT
  5
14A
330
1F
100
AcDbEntity
  8
F-A_文字
  6
Continuous
 62
     7
370
     0
100
AcDbMText
 10
5350.114617405298
 20
-4316.235443869856
 30
0.0
 40
68.58
 41
45.0
 46
0.0
 71
     7
 72
     1
  1
{\fＭＳ ゴシック|b0|i0|c128|p49;,}
 73
     1
 44
1.0
  0
MTEXT
  5
14B
330
1F
100
AcDbEntity
  8
F-A_文字
  6
Continuous
 62
     7
370
     0
100
AcDbMText
 10
5083.855928478601
 20
-4314.771967288282
 30
0.0
 40
74.295
 41
97.5
 46
0.0
 71
     7
 72
     1
  1
{\fＭＳ ゴシック|b0|i0|c128|p49;$y}
 73
     1
 44
1.0
  0
MTEXT
  5
14C
330
1F
100
AcDbEntity
  8
F-A_文字
  6
Continuous
 62
     7
370
     0
100
AcDbMText
 10
5238.592649517422
 20
-4314.771967288282
 30
0.0
 40
74.295
 41
97.5
 46
0.0
 71
     7
 72
     1
  1
{\fＭＳ ゴシック|b0|i0|c128|p49;$m}
 73
     1
 44
1.0
  0
MTEXT
  5
14D
330
1F
100
AcDbEntity
  8
F-A_文字
  6
Continuous
 62
     7
370
     0
100
AcDbMText
 10
5393.32938200033
 20
-4314.771967288282
 30
0.0
 40
74.295
 41
97.5
 46
0.0
 71
     7
 72
     1
  1
{\fＭＳ ゴシック|b0|i0|c128|p49;$d}
 73
     1
 44
1.0
  0
MTEXT
  5
14E
330
1F
100
AcDbEntity
  8
F-A_文字
  6
Continuous
 62
     7
370
     0
100
AcDbMText
 10
5548.066114483239
 20
-4314.771967288282
 30
0.0
 40
74.295
 41
195.0
 46
0.0
 71
     7
 72
     1
  1
{\fＭＳ ゴシック|b0|i0|c128|p49;印刷}
 73
     1
 44
1.0
  0
MTEXT
  5
14F
330
1F
100
AcDbEntity
  8
F-A_文字
  6
Continuous
 62
     7
370
     0
100
AcDbMText
 10
4943.952040816226
 20
-4319.023493567732
 30
0.0
 40
68.58
 41
90.0
 46
0.0
 71
     7
 72
     1
  1
{\fＭＳ ゴシック|b0|i0|c128|p49;（}
 73
     1
 44
1.0
  0
MTEXT
  5
150
330
1F
100
AcDbEntity
  8
F-A_文字
  6
Continuous
 62
     7
370
     0
100
AcDbMText
 10
5191.195810375571
 20
-4319.023493567732
 30
0.0
 40
68.58
 41
45.0
 46
0.0
 71
     7
 72
     1
  1
{\fＭＳ ゴシック|b0|i0|c128|p49;,}
 73
     1
 44
1.0
  0
LWPOLYLINE
  5
151
330
1F
100
AcDbEntity
  8
0-B_寸法
  6
Continuous
 62
     7
370
     9
100
AcDbPolyline
 90
        4
 70
     1
 43
3.0
 10
1022.418542843312
 20
-3186.848921497442
 42
0.4142135623731
 10
1020.918542843312
 20
-3185.348921497442
 42
0.4142135623731
 10
1019.418542843313
 20
-3186.848921497442
 42
0.4142135623731
 10
1020.918542843312
 20
-3188.348921497442
 42
0.4142135623731
  0
LWPOLYLINE
  5
152
330
1F
100
AcDbEntity
  8
0-B_寸法
  6
Continuous
 62
     7
370
     9
100
AcDbPolyline
 90
        4
 70
     1
 43
3.0
 10
1022.418542843312
 20
-3162.848921497442
 42
0.4142135623731
 10
1020.918542843312
 20
-3161.348921497442
 42
0.4142135623731
 10
1019.418542843313
 20
-3162.848921497442
 42
0.4142135623731
 10
1020.918542843312
 20
-3164.348921497442
 42
0.4142135623731
  0
LINE
  5
153
330
1F
100
AcDbEntity
  8
0-B_寸法
  6
Continuous
 62
   120
370
     5
100
AcDbLine
 10
660.9185428433125
 20
-3162.848921497442
 30
0.0
 11
1020.918542843312
 21
-3162.848921497442
 31
0.0
  0
LINE
  5
154
330
1F
100
AcDbEntity
  8
0-0_補助線
  6
JWW_HOJO
 62
   120
370
     5
100
AcDbLine
 10
-1001.082199476154
 20
-3258.848713767458
 30
0.0
 11
1020.918542843312
 21
-3258.848713767458
 31
0.0
  0
LINE
  5
155
330
1F
100
AcDbEntity
  8
0-6_扉
  6
Continuous
 62
   200
370
    20
100
AcDbLine
 10
141.9184537649772
 20
-3162.848921497442
 30
0.0
 11
267.9184537649769
 21
-3162.848921497442
 31
0.0
  0
MTEXT
  5
156
330
1F
100
AcDbEntity
  8
0-B_寸法
  6
Continuous
 62
     7
370
     0
100
AcDbMText
 10
1016.009965680614
 20
-3177.50984346382
 30
0.0
 40
91.44
 41
60.0
 46
0.0
 71
     7
 72
     1
  1
{\fＭＳ ゴシック|b0|i0|c128|p49;4}
 11
6.123031769111886E-17
 21
1.0
 31
0.0
 73
     1
 44
1.0
  0
LINE
  5
157
330
1F
100
AcDbEntity
  8
0-3_仕上げ
  6
Continuous
 62
    40
370
    15
100
AcDbLine
 10
-641.0814571566868
 20
-3186.848921497442
 30
0.0
 11
660.9192851627796
 21
-3186.848921497442
 31
0.0
  0
LINE
  5
158
330
1F
100
AcDbEntity
  8
0-3_仕上げ
  6
Continuous
 62
    40
370
    15
100
AcDbLine
 10
-641.0814571566868
 20
-3258.84871364799
 30
0.0
 11
660.9192851627796
 21
-3258.84871364799
 31
0.0
  0
LINE
  5
159
330
1F
100
AcDbEntity
  8
0-3_仕上げ
  6
Continuous
 62
     7
370
     9
100
AcDbLine
 10
660.9192851627796
 20
-3234.849525250608
 30
0.0
 11
-641.0814571566868
 21
-3234.849525250608
 31
0.0
  0
LINE
  5
15A
330
1F
100
AcDbEntity
  8
0-3_仕上げ
  6
Continuous
 62
     7
370
     9
100
AcDbLine
 10
-641.0814571566868
 20
-3198.8492580156
 30
0.0
 11
660.9192851627796
 21
-3198.8492580156
 31
0.0
  0
LINE
  5
15B
330
1F
100
AcDbEntity
  8
0-3_仕上げ
  6
Continuous
 62
     7
370
     9
100
AcDbLine
 10
-641.0814571566868
 20
-3210.84885221429
 30
0.0
 11
660.9192851627796
 21
-3210.84885221429
 31
0.0
  0
LINE
  5
15C
330
1F
100
AcDbEntity
  8
0-3_仕上げ
  6
Continuous
 62
     7
370
     9
100
AcDbLine
 10
660.9192851627796
 20
-3222.84918873245
 30
0.0
 11
-641.0814571566868
 21
-3222.84918873245
 31
0.0
  0
LINE
  5
15D
330
1F
100
AcDbEntity
  8
0-3_仕上げ
  6
Continuous
 62
     7
370
     9
100
AcDbLine
 10
660.9192851627796
 20
-3246.849119449298
 30
0.0
 11
-641.0814571566868
 21
-3246.849119449298
 31
0.0
  0
LINE
  5
15E
330
1F
100
AcDbEntity
  8
0-B_寸法
  6
Continuous
 62
   120
370
     5
100
AcDbLine
 10
660.9185428433125
 20
-3186.84915903967
 30
0.0
 11
1020.918542843312
 21
-3186.84915903967
 31
0.0
  0
LWPOLYLINE
  5
15F
330
1F
100
AcDbEntity
  8
0-B_寸法
  6
Continuous
 62
     7
370
     9
100
AcDbPolyline
 90
        4
 70
     1
 43
3.0
 10
1202.418542843312
 20
-3258.84871364799
 42
0.4142135623731
 10
1200.918542843312
 20
-3257.34871364799
 42
0.4142135623731
 10
1199.418542843312
 20
-3258.84871364799
 42
0.4142135623731
 10
1200.918542843312
 20
-3260.34871364799
 42
0.4142135623731
  0
LINE
  5
160
330
1F
100
AcDbEntity
  8
0-B_寸法
  6
Continuous
 62
   120
370
     5
100
AcDbLine
 10
660.9185428433125
 20
-3258.84871364799
 30
0.0
 11
1200.918542843312
 21
-3258.84871364799
 31
0.0
  0
LINE
  5
161
330
1F
100
AcDbEntity
  8
0-B_寸法
  6
Continuous
 62
   120
370
     5
100
AcDbLine
 10
1020.918542843312
 20
-3186.848921497442
 30
0.0
 11
1200.918542843312
 21
-3186.848921497442
 31
0.0
  0
LWPOLYLINE
  5
162
330
1F
100
AcDbEntity
  8
0-B_寸法
  6
Continuous
 62
     7
370
     9
100
AcDbPolyline
 90
        4
 70
     1
 43
3.0
 10
1202.418542843312
 20
-3186.848921497442
 42
0.4142135623731
 10
1200.918542843312
 20
-3185.348921497442
 42
0.4142135623731
 10
1199.418542843312
 20
-3186.848921497442
 42
0.4142135623731
 10
1200.918542843312
 20
-3188.348921497442
 42
0.4142135623731
  0
MTEXT
  5
163
330
1F
100
AcDbEntity
  8
0-B_寸法
  6
Continuous
 62
     7
370
     0
100
AcDbMText
 10
1196.758512341529
 20
-3386.202922745264
 30
0.0
 40
97.15499999999999
 41
127.5
 46
0.0
 71
     7
 72
     1
  1
{\fＭＳ ゴシック|b0|i0|c128|p49;12}
 11
6.123031769111886E-17
 21
1.0
 31
0.0
 73
     1
 44
1.0
  0
LINE
  5
164
330
1F
100
AcDbEntity
  8
0-B_寸法
  6
Continuous
 62
   120
370
     5
100
AcDbLine
 10
1020.918542843312
 20
-3186.848921497442
 30
0.0
 11
1020.918542843312
 21
-465.849307126955
 31
0.0
  0
LINE
  5
165
330
1F
100
AcDbEntity
  8
0-C_ハッチ
  6
Continuous
 62
   120
370
     5
100
AcDbLine
 10
-248.2437390477554
 20
-465.84967828668
 30
0.0
 11
-281.0814571566868
 21
-433.0119601777482
 31
0.0
  0
LINE
  5
166
330
1F
100
AcDbEntity
  8
0-C_ハッチ
  6
Continuous
 62
   120
370
     5
100
AcDbLine
 10
-70.05283018874877
 20
-465.8496782866791
 30
0.0
 11
-250.0530528845809
 21
-285.8494555908487
 31
0.0
  0
LINE
  5
167
330
1F
100
AcDbEntity
  8
0-C_ハッチ
  6
Continuous
 62
   120
370
     5
100
AcDbLine
 10
-129.4497998084387
 20
-465.8496782866902
 30
0.0
 11
-281.0814571566868
 21
-314.2180209384429
 31
0.0
  0
LINE
  5
168
330
1F
100
AcDbEntity
  8
0-C_ハッチ
  6
Continuous
 62
   120
370
     5
100
AcDbLine
 10
-188.8467694280979
 20
-465.84967828668
 30
0.0
 11
-281.0814571566868
 21
-373.6149905580919
 31
0.0
  0
LINE
  5
169
330
1F
100
AcDbEntity
  8
0-C_ハッチ
  6
Continuous
 62
   120
370
     5
100
AcDbLine
 10
300.9192851627864
 20
-302.2490670611727
 30
0.0
 11
284.5196736924544
 21
-285.8494555908402
 31
0.0
  0
LINE
  5
16A
330
1F
100
AcDbEntity
  8
0-C_ハッチ
  6
Continuous
 62
   120
370
     5
100
AcDbLine
 10
300.9192851627728
 20
-361.6460366808587
 30
0.0
 11
225.1227040727662
 21
-285.8494555908538
 31
0.0
  0
LINE
  5
16B
330
1F
100
AcDbEntity
  8
0-C_ハッチ
  6
Continuous
 62
   120
370
     5
100
AcDbLine
 10
300.919285162783
 20
-421.0430063005171
 30
0.0
 11
165.725734453107
 21
-285.8494555908419
 31
0.0
  0
LINE
  5
16C
330
1F
100
AcDbEntity
  8
0-C_ハッチ
  6
Continuous
 62
   120
370
     5
100
AcDbLine
 10
286.3289875292509
 20
-465.849678286686
 30
0.0
 11
106.3287648334119
 21
-285.8494555908449
 31
0.0
  0
LINE
  5
16D
330
1F
100
AcDbEntity
  8
0-C_ハッチ
  6
Continuous
 62
   120
370
     5
100
AcDbLine
 10
226.9320179096053
 20
-465.8496782866881
 30
0.0
 11
46.93179521375953
 21
-285.8494555908419
 31
0.0
  0
LINE
  5
16E
330
1F
100
AcDbEntity
  8
0-C_ハッチ
  6
Continuous
 62
   120
370
     5
100
AcDbLine
 10
167.5350482899665
 20
-465.8496782866957
 30
0.0
 11
-12.46517440587411
 21
-285.8494555908555
 31
0.0
  0
LINE
  5
16F
330
1F
100
AcDbEntity
  8
0-C_ハッチ
  6
Continuous
 62
   120
370
     5
100
AcDbLine
 10
108.1380786702596
 20
-465.8496782866889
 30
0.0
 11
-71.8621440255879
 21
-285.8494555908441
 31
0.0
  0
LINE
  5
170
330
1F
100
AcDbEntity
  8
0-C_ハッチ
  6
Continuous
 62
   120
370
     5
100
AcDbLine
 10
48.74110905059865
 20
-465.8496782866774
 30
0.0
 11
-131.2591136452454
 21
-285.8494555908312
 31
0.0
  0
LINE
  5
171
330
1F
100
AcDbEntity
  8
0-C_ハッチ
  6
Continuous
 62
   120
370
     5
100
AcDbLine
 10
-10.65586056908955
 20
-465.8496782866911
 30
0.0
 11
-190.6560832649336
 21
-285.8494555908449
 31
0.0
  0
LWPOLYLINE
  5
172
330
1F
100
AcDbEntity
  8
0-B_寸法
  6
Continuous
 62
     7
370
     9
100
AcDbPolyline
 90
        4
 70
     1
 43
3.0
 10
302.4185428433159
 20
-800.8350710891589
 42
0.4142135623731
 10
300.9185428433159
 20
-799.3350710891588
 42
0.4142135623731
 10
299.4185428433159
 20
-800.8350710891589
 42
0.4142135623731
 10
300.9185428433159
 20
-802.3350710891589
 42
0.4142135623731
  0
LINE
  5
173
330
1F
100
AcDbEntity
  8
0-B_寸法
  6
Continuous
 62
   120
370
     5
100
AcDbLine
 10
300.9185428433159
 20
-648.6098447642019
 30
0.0
 11
300.9185428433159
 21
-800.8350710891589
 31
0.0
  0
LINE
  5
174
330
1F
100
AcDbEntity
  8
0-4_枠
  6
Continuous
 62
    92
370
    13
100
AcDbLine
 10
-281.0814571566868
 20
-465.8496782866889
 30
0.0
 11
300.9192851627796
 21
-465.8496782866889
 31
0.0
  0
LINE
  5
175
330
1F
100
AcDbEntity
  8
0-4_枠
  6
Continuous
 62
    92
370
    13
100
AcDbLine
 10
-281.0814571566868
 20
-285.8494555908487
 30
0.0
 11
-281.0814571566868
 21
-465.8496782866889
 31
0.0
  0
LINE
  5
176
330
1F
100
AcDbEntity
  8
0-4_枠
  6
Continuous
 62
    92
370
    13
100
AcDbLine
 10
300.9192851627796
 20
-285.8494555908487
 30
0.0
 11
300.9192851627796
 21
-465.8496782866889
 31
0.0
  0
LINE
  5
177
330
1F
100
AcDbEntity
  8
0-4_枠
  6
Continuous
 62
    92
370
    13
100
AcDbLine
 10
300.9192851627796
 20
-285.8494555908487
 30
0.0
 11
-281.0814571566868
 21
-285.8494555908487
 31
0.0
  0
LWPOLYLINE
  5
178
330
1F
100
AcDbEntity
  8
0-B_寸法
  6
Continuous
 62
     7
370
     9
100
AcDbPolyline
 90
        4
 70
     1
 43
3.0
 10
-279.5814571566868
 20
-800.8350710891589
 42
0.4142135623731
 10
-281.0814571566868
 20
-799.3350710891588
 42
0.4142135623731
 10
-282.5814571566868
 20
-800.8350710891589
 42
0.4142135623731
 10
-281.0814571566868
 20
-802.3350710891589
 42
0.4142135623731
  0
LINE
  5
179
330
1F
100
AcDbEntity
  8
0-B_寸法
  6
Continuous
 62
   120
370
     5
100
AcDbLine
 10
300.9185428433159
 20
-800.8350710891589
 30
0.0
 11
-281.0814571566868
 21
-800.8350710891589
 31
0.0
  0
LINE
  5
17A
330
1F
100
AcDbEntity
  8
0-B_寸法
  6
Continuous
 62
   120
370
     5
100
AcDbLine
 10
-281.0814571566868
 20
-648.6098447642019
 30
0.0
 11
-281.0814571566868
 21
-800.8350710891589
 31
0.0
  0
LWPOLYLINE
  5
17B
330
1F
100
AcDbEntity
  8
0-B_寸法
  6
Continuous
 62
     7
370
     9
100
AcDbPolyline
 90
        4
 70
     1
 43
3.0
 10
1022.418542843312
 20
-465.849307126955
 42
0.4142135623731
 10
1020.918542843312
 20
-464.349307126955
 42
0.4142135623731
 10
1019.418542843313
 20
-465.849307126955
 42
0.4142135623731
 10
1020.918542843312
 20
-467.349307126955
 42
0.4142135623731
  0
LWPOLYLINE
  5
17C
330
1F
100
AcDbEntity
  8
0-B_寸法
  6
Continuous
 62
     7
370
     9
100
AcDbPolyline
 90
        4
 70
     1
 43
3.0
 10
1022.418542843312
 20
-483.8494407444588
 42
0.4142135623731
 10
1020.918542843312
 20
-482.3494407444588
 42
0.4142135623731
 10
1019.418542843313
 20
-483.8494407444588
 42
0.4142135623731
 10
1020.918542843312
 20
-485.3494407444588
 42
0.4142135623731
  0
LINE
  5
17D
330
1F
100
AcDbEntity
  8
0-B_寸法
  6
Continuous
 62
   120
370
     5
100
AcDbLine
 10
1020.918542843312
 20
-465.849307126955
 30
0.0
 11
660.9185428433125
 21
-465.849307126955
 31
0.0
  0
LINE
  5
17E
330
1F
100
AcDbEntity
  8
0-B_寸法
  6
Continuous
 62
   120
370
     5
100
AcDbLine
 10
660.9185428433125
 20
-483.8494407444588
 30
0.0
 11
1020.918542843312
 21
-483.8494407444588
 31
0.0
  0
LINE
  5
17F
330
1F
100
AcDbEntity
  8
0-6_扉
  6
Continuous
 62
   200
370
    20
100
AcDbLine
 10
267.9184537649769
 20
-483.8494407444588
 30
0.0
 11
141.9184537649772
 21
-483.8494407444588
 31
0.0
  0
LWPOLYLINE
  5
180
330
1F
100
AcDbEntity
  8
0-B_寸法
  6
Continuous
 62
     7
370
     9
100
AcDbPolyline
 90
        4
 70
     1
 43
3.0
 10
269.4184537649769
 20
-1185.849567877614
 42
0.4142135623731
 10
267.9184537649769
 20
-1184.349567877614
 42
0.4142135623731
 10
266.4184537649769
 20
-1185.849567877614
 42
0.4142135623731
 10
267.9184537649769
 20
-1187.349567877614
 42
0.4142135623731
  0
LINE
  5
181
330
1F
100
AcDbEntity
  8
0-B_寸法
  6
Continuous
 62
   120
370
     5
100
AcDbLine
 10
267.9184537649769
 20
-1120.35843282166
 30
0.0
 11
267.9184537649769
 21
-1185.849567877614
 31
0.0
  0
LWPOLYLINE
  5
182
330
1F
100
AcDbEntity
  8
0-B_寸法
  6
Continuous
 62
     7
370
     9
100
AcDbPolyline
 90
        4
 70
     1
 43
3.0
 10
143.4184537649772
 20
-1185.849567877614
 42
0.4142135623731
 10
141.9184537649772
 20
-1184.349567877614
 42
0.4142135623731
 10
140.4184537649772
 20
-1185.849567877614
 42
0.4142135623731
 10
141.9184537649772
 20
-1187.349567877614
 42
0.4142135623731
  0
LINE
  5
183
330
1F
100
AcDbEntity
  8
0-B_寸法
  6
Continuous
 62
   120
370
     5
100
AcDbLine
 10
141.9184537649772
 20
-1120.35843282166
 30
0.0
 11
141.9184537649772
 21
-1185.849567877614
 31
0.0
  0
LINE
  5
184
330
1F
100
AcDbEntity
  8
0-B_寸法
  6
Continuous
 62
   120
370
     5
100
AcDbLine
 10
267.9184537649769
 20
-1185.849567877614
 30
0.0
 11
141.9184537649772
 21
-1185.849567877614
 31
0.0
  0
MTEXT
  5
185
330
1F
100
AcDbEntity
  8
0-B_寸法
  6
Continuous
 62
     7
370
     0
100
AcDbMText
 10
1005.521352440019
 20
-559.4104119622571
 30
0.0
 40
91.44
 41
60.0
 46
0.0
 71
     7
 72
     1
  1
{\fＭＳ ゴシック|b0|i0|c128|p49;3}
 11
6.123031769111886E-17
 21
1.0
 31
0.0
 73
     1
 44
1.0
  0
MTEXT
  5
186
330
1F
100
AcDbEntity
  8
0-B_寸法
  6
Continuous
 62
     7
370
     0
100
AcDbMText
 10
-38.83084598032667
 20
-797.257521601194
 30
0.0
 40
97.15499999999999
 41
127.5
 46
0.0
 71
     7
 72
     1
  1
{\fＭＳ ゴシック|b0|i0|c128|p49;97}
 73
     1
 44
1.0
  0
MTEXT
  5
187
330
1F
100
AcDbEntity
  8
0-B_寸法
  6
Continuous
 62
     7
370
     0
100
AcDbMText
 10
144.9185106761377
 20
-1182.27201838965
 30
0.0
 40
97.15499999999999
 41
127.5
 46
0.0
 71
     7
 72
     1
  1
{\fＭＳ ゴシック|b0|i0|c128|p49;21}
 73
     1
 44
1.0
  0
LINE
  5
188
330
1F
100
AcDbEntity
  8
0-C_ハッチ
  6
JWW_DASHED1
 62
   120
370
     5
100
AcDbLine
 10
-146.355446178294
 20
-210.8494555908487
 30
0.0
 11
-221.3554461783161
 21
-285.8494555908487
 31
0.0
  0
LINE
  5
189
330
1F
100
AcDbEntity
  8
0-C_ハッチ
  6
JWW_DASHED1
 62
   120
370
     5
100
AcDbLine
 10
-103.9290393070974
 20
-210.8494555908487
 30
0.0
 11
-178.9290393070974
 21
-285.8494555908487
 31
0.0
  0
LINE
  5
18A
330
1F
100
AcDbEntity
  8
0-C_ハッチ
  6
JWW_DASHED1
 62
   120
370
     5
100
AcDbLine
 10
150.7979417976441
 20
-210.6809157133125
 30
0.0
 11
75.62940192011638
 21
-285.8494555908419
 31
0.0
  0
LINE
  5
18B
330
1F
100
AcDbEntity
  8
0-C_ハッチ
  6
JWW_DASHED1
 62
   120
370
     5
100
AcDbLine
 10
193.055808791313
 20
-210.8494555908487
 30
0.0
 11
118.0558087913283
 21
-285.8494555908419
 31
0.0
  0
LINE
  5
18C
330
1F
100
AcDbEntity
  8
0-C_ハッチ
  6
JWW_DASHED1
 62
   120
370
     5
100
AcDbLine
 10
235.4822156625181
 20
-210.8494555908487
 30
0.0
 11
160.4822156625403
 21
-285.8494555908419
 31
0.0
  0
LINE
  5
18D
330
1F
100
AcDbEntity
  8
0-C_ハッチ
  6
JWW_DASHED1
 62
   120
370
     5
100
AcDbLine
 10
108.2029950489078
 20
-210.8494555908487
 30
0.0
 11
33.20299504891807
 21
-285.8494555908351
 31
0.0
  0
LINE
  5
18E
330
1F
100
AcDbEntity
  8
0-C_ハッチ
  6
JWW_DASHED1
 62
   120
370
     5
100
AcDbLine
 10
65.77658817770441
 20
-210.8494555908487
 30
0.0
 11
-9.22341182227683
 21
-285.8494555908351
 31
0.0
  0
LINE
  5
18F
330
1F
100
AcDbEntity
  8
0-C_ハッチ
  6
JWW_DASHED1
 62
   120
370
     5
100
AcDbLine
 10
23.35018130650951
 20
-210.8494555908487
 30
0.0
 11
-51.64981869348708
 21
-285.8494555908419
 31
0.0
  0
LINE
  5
190
330
1F
100
AcDbEntity
  8
0-C_ハッチ
  6
JWW_DASHED1
 62
   120
370
     5
100
AcDbLine
 10
-19.07622556469562
 20
-210.8494555908487
 30
0.0
 11
-94.07622556469903
 21
-285.8494555908555
 31
0.0
  0
LINE
  5
191
330
1F
100
AcDbEntity
  8
0-C_ハッチ
  6
JWW_DASHED1
 62
   120
370
     5
100
AcDbLine
 10
-61.50263243589734
 20
-210.8494555908487
 30
0.0
 11
-136.5026324358956
 21
-285.8494555908487
 31
0.0
  0
LINE
  5
192
330
1F
100
AcDbEntity
  8
0-C_ハッチ
  6
JWW_DASHED1
 62
   120
370
     5
100
AcDbLine
 10
-188.781853049494
 20
-210.8494555908487
 30
0.0
 11
-263.781853049494
 21
-285.8494555908487
 31
0.0
  0
LINE
  5
193
330
1F
100
AcDbEntity
  8
0-C_ハッチ
  6
JWW_DASHED1
 62
   120
370
     5
100
AcDbLine
 10
-231.2082599206906
 20
-210.8494555908487
 30
0.0
 11
-306.2082599207127
 21
-285.8494555908487
 31
0.0
  0
LINE
  5
194
330
1F
100
AcDbEntity
  8
0-C_ハッチ
  6
JWW_DASHED1
 62
   120
370
     5
100
AcDbLine
 10
-273.6346667918906
 20
-210.8494555908487
 30
0.0
 11
-348.6346667918906
 21
-285.8494555908487
 31
0.0
  0
LINE
  5
195
330
1F
100
AcDbEntity
  8
0-C_ハッチ
  6
JWW_DASHED1
 62
   120
370
     5
100
AcDbLine
 10
-316.0610736630872
 20
-210.8494555908487
 30
0.0
 11
-391.0610736631094
 21
-285.8494555908487
 31
0.0
  0
LINE
  5
196
330
1F
100
AcDbEntity
  8
0-C_ハッチ
  6
JWW_DASHED1
 62
   120
370
     5
100
AcDbLine
 10
-358.4874805342872
 20
-210.8494555908487
 30
0.0
 11
-433.4874805342872
 21
-285.8494555908487
 31
0.0
  0
LINE
  5
197
330
1F
100
AcDbEntity
  8
0-C_ハッチ
  6
JWW_DASHED1
 62
   120
370
     5
100
AcDbLine
 10
-400.9138874054838
 20
-210.8494555908487
 30
0.0
 11
-475.913887405506
 21
-285.8494555908487
 31
0.0
  0
LINE
  5
198
330
1F
100
AcDbEntity
  8
0-C_ハッチ
  6
JWW_DASHED1
 62
   120
370
     5
100
AcDbLine
 10
-443.3402942766838
 20
-210.8494555908487
 30
0.0
 11
-518.3402942766838
 21
-285.8494555908487
 31
0.0
  0
LINE
  5
199
330
1F
100
AcDbEntity
  8
0-C_ハッチ
  6
JWW_DASHED1
 62
   120
370
     5
100
AcDbLine
 10
-485.7667011478804
 20
-210.8494555908487
 30
0.0
 11
-560.7667011479026
 21
-285.8494555908487
 31
0.0
  0
LINE
  5
19A
330
1F
100
AcDbEntity
  8
0-C_ハッチ
  6
JWW_DASHED1
 62
   120
370
     5
100
AcDbLine
 10
-528.1931080190805
 20
-210.8494555908487
 30
0.0
 11
-603.1931080190805
 21
-285.8494555908487
 31
0.0
  0
LINE
  5
19B
330
1F
100
AcDbEntity
  8
0-C_ハッチ
  6
JWW_DASHED1
 62
   120
370
     5
100
AcDbLine
 10
277.7400826561887
 20
-210.8494555908487
 30
0.0
 11
202.7400826562024
 21
-285.8494555908419
 31
0.0
  0
LINE
  5
19C
330
1F
100
AcDbEntity
  8
0-C_ハッチ
  6
JWW_DASHED1
 62
   120
370
     5
100
AcDbLine
 10
320.1664895273939
 20
-210.8494555908487
 30
0.0
 11
245.166489527416
 21
-285.8494555908419
 31
0.0
  0
LINE
  5
19D
330
1F
100
AcDbEntity
  8
0-C_ハッチ
  6
JWW_DASHED1
 62
   120
370
     5
100
AcDbLine
 10
362.4243565210645
 20
-210.8494555908487
 30
0.0
 11
287.4243565210782
 21
-285.8494555908419
 31
0.0
  0
LINE
  5
19E
330
1F
100
AcDbEntity
  8
0-C_ハッチ
  6
JWW_DASHED1
 62
   120
370
     5
100
AcDbLine
 10
404.8507633922696
 20
-210.8494555908487
 30
0.0
 11
329.8507633922901
 21
-285.8494555908419
 31
0.0
  0
LINE
  5
19F
330
1F
100
AcDbEntity
  8
0-C_ハッチ
  6
JWW_DASHED1
 62
   120
370
     5
100
AcDbLine
 10
447.1086303859403
 20
-210.8494555908487
 30
0.0
 11
372.1086303859539
 21
-285.8494555908419
 31
0.0
  0
LINE
  5
1A0
330
1F
100
AcDbEntity
  8
0-C_ハッチ
  6
JWW_DASHED1
 62
   120
370
     5
100
AcDbLine
 10
489.5350372571437
 20
-210.8494555908487
 30
0.0
 11
414.5350372571659
 21
-285.8494555908419
 31
0.0
  0
LINE
  5
1A1
330
1F
100
AcDbEntity
  8
0-C_ハッチ
  6
JWW_DASHED1
 62
   120
370
     5
100
AcDbLine
 10
531.7929042508143
 20
-210.8494555908487
 30
0.0
 11
456.792904250828
 21
-285.8494555908419
 31
0.0
  0
LINE
  5
1A2
330
1F
100
AcDbEntity
  8
0-C_ハッチ
  6
JWW_DASHED1
 62
   120
370
     5
100
AcDbLine
 10
574.2193111220195
 20
-210.8494555908487
 30
0.0
 11
499.2193111220416
 21
-285.8494555908419
 31
0.0
  0
LINE
  5
1A3
330
1F
100
AcDbEntity
  8
0-C_ハッチ
  6
JWW_DASHED1
 62
   120
370
     5
100
AcDbLine
 10
616.4771781156901
 20
-210.8494555908487
 30
0.0
 11
541.4771781157037
 21
-285.8494555908419
 31
0.0
  0
LWPOLYLINE
  5
1A4
330
1F
100
AcDbEntity
  8
0-B_寸法
  6
Continuous
 62
     7
370
     9
100
AcDbPolyline
 90
        4
 70
     1
 43
3.0
 10
1022.418542843312
 20
-465.849307126955
 42
0.4142135623731
 10
1020.918542843312
 20
-464.349307126955
 42
0.4142135623731
 10
1019.418542843313
 20
-465.849307126955
 42
0.4142135623731
 10
1020.918542843312
 20
-467.349307126955
 42
0.4142135623731
  0
LWPOLYLINE
  5
1A5
330
1F
100
AcDbEntity
  8
0-B_寸法
  6
Continuous
 62
     7
370
     9
100
AcDbPolyline
 90
        4
 70
     1
 43
3.0
 10
1202.418542843312
 20
-285.8487132713799
 42
0.4142135623731
 10
1200.918542843312
 20
-284.3487132713799
 42
0.4142135623731
 10
1199.418542843312
 20
-285.8487132713799
 42
0.4142135623731
 10
1200.918542843312
 20
-287.3487132713799
 42
0.4142135623731
  0
LWPOLYLINE
  5
1A6
330
1F
100
AcDbEntity
  8
0-B_寸法
  6
Continuous
 62
     7
370
     9
100
AcDbPolyline
 90
        4
 70
     1
 43
3.0
 10
1202.418542843312
 20
-285.8494555908487
 42
0.4142135623731
 10
1200.918542843312
 20
-284.3494555908487
 42
0.4142135623731
 10
1199.418542843312
 20
-285.8494555908487
 42
0.4142135623731
 10
1200.918542843312
 20
-287.3494555908487
 42
0.4142135623731
  0
LINE
  5
1A7
330
1F
100
AcDbEntity
  8
0-B_寸法
  6
Continuous
 62
   120
370
     5
100
AcDbLine
 10
1200.918542843312
 20
-3258.84871364799
 30
0.0
 11
1200.918542843312
 21
-285.8494555908487
 31
0.0
  0
LINE
  5
1A8
330
1F
100
AcDbEntity
  8
0-B_寸法
  6
Continuous
 62
   120
370
     5
100
AcDbLine
 10
1200.918542843312
 20
-285.8487132713799
 30
0.0
 11
924.9188199759124
 21
-285.8487132713799
 31
0.0
  0
LINE
  5
1A9
330
1F
100
AcDbEntity
  8
0-B_寸法
  6
Continuous
 62
   120
370
     5
100
AcDbLine
 10
660.9185428433125
 20
-285.8494555908487
 30
0.0
 11
1200.918542843312
 21
-285.8494555908487
 31
0.0
  0
LWPOLYLINE
  5
1AA
330
1F
100
AcDbEntity
  8
0-B_寸法
  6
Continuous
 62
     7
370
     9
100
AcDbPolyline
 90
        4
 70
     1
 43
3.0
 10
1022.418542843312
 20
-285.8494555908487
 42
0.4142135623731
 10
1020.918542843312
 20
-284.3494555908487
 42
0.4142135623731
 10
1019.418542843313
 20
-285.8494555908487
 42
0.4142135623731
 10
1020.918542843312
 20
-287.3494555908487
 42
0.4142135623731
  0
MTEXT
  5
1AB
330
1F
100
AcDbEntity
  8
0-B_寸法
  6
Continuous
 62
     7
370
     0
100
AcDbMText
 10
1005.91849335535
 20
-453.7927743527252
 30
0.0
 40
97.15499999999999
 41
127.5
 46
0.0
 71
     7
 72
     1
  1
{\fＭＳ ゴシック|b0|i0|c128|p49;30}
 11
6.123031769111886E-17
 21
1.0
 31
0.0
 73
     1
 44
1.0
  0
LINE
  5
1AC
330
1F
100
AcDbEntity
  8
0-B_寸法
  6
Continuous
 62
   120
370
     5
100
AcDbLine
 10
1020.918542843312
 20
-465.849307126955
 30
0.0
 11
1020.918542843312
 21
-285.8494555908487
 31
0.0
  0
LINE
  5
1AD
330
1F
100
AcDbEntity
  8
0-0_補助線
  6
JWW_HOJO
 62
   120
370
     5
100
AcDbLine
 10
1020.918542843312
 20
-210.8487132713799
 30
0.0
 11
1020.918542843312
 21
-3258.848713767458
 31
0.0
  0
LINE
  5
1AE
330
1F
100
AcDbEntity
  8
0-0_補助線
  6
JWW_HOJO
 62
   120
370
     5
100
AcDbLine
 10
660.9192851627796
 20
-210.8487132713799
 30
0.0
 11
660.9192851627796
 21
-3258.848713767458
 31
0.0
  0
LINE
  5
1AF
330
1F
100
AcDbEntity
  8
0-0_補助線
  6
JWW_HOJO
 62
   120
370
     5
100
AcDbLine
 10
-641.0814571566868
 20
-210.8487132713799
 30
0.0
 11
-641.0814571566868
 21
-3258.848713767458
 31
0.0
  0
LINE
  5
1B0
330
1F
100
AcDbEntity
  8
0-0_補助線
  6
JWW_HOJO
 62
   120
370
     5
100
AcDbLine
 10
-1001.082199476154
 20
-210.8487132713799
 30
0.0
 11
-1001.082199476154
 21
-3258.848713767458
 31
0.0
  0
LINE
  5
1B1
330
1F
100
AcDbEntity
  8
0-1_通り芯
  6
JWW_CENTER1
 62
   120
370
     5
100
AcDbLine
 10
9.91854284331282
 20
-3340.342785000396
 30
0.0
 11
9.91854284331282
 21
-210.8487132713799
 31
0.0
  0
LINE
  5
1B2
330
1F
100
AcDbEntity
  8
0-0_補助線
  6
JWW_HOJO
 62
   120
370
     5
100
AcDbLine
 10
-1001.082199476154
 20
-210.8487132713799
 30
0.0
 11
1020.918542843312
 21
-210.8487132713799
 31
0.0
  0
LINE
  5
1B3
330
1F
100
AcDbEntity
  8
0-C_ハッチ
  6
JWW_DASHED1
 62
   120
370
     5
100
AcDbLine
 10
-613.0459217614771
 20
-210.8494555908487
 30
0.0
 11
-641.0814571566868
 21
-238.8849909860574
 31
0.0
  0
LINE
  5
1B4
330
1F
100
AcDbEntity
  8
0-C_ハッチ
  6
JWW_DASHED1
 62
   120
370
     5
100
AcDbLine
 10
-570.6195148902771
 20
-210.8494555908487
 30
0.0
 11
-641.0814571566868
 21
-281.3113978572366
 31
0.0
  0
LINE
  5
1B5
330
1F
100
AcDbEntity
  8
0-3_仕上げ
  6
Continuous
 62
    40
370
    15
100
AcDbLine
 10
660.9192851627796
 20
-210.8494555908487
 30
0.0
 11
-641.0814571566868
 21
-210.8494555908487
 31
0.0
  0
LINE
  5
1B6
330
1F
100
AcDbEntity
  8
0-3_仕上げ
  6
Continuous
 62
    40
370
    15
100
AcDbLine
 10
660.9192851627796
 20
-285.8494555908487
 30
0.0
 11
-641.0814571566868
 21
-285.8494555908487
 31
0.0
  0
LINE
  5
1B7
330
1F
100
AcDbEntity
  8
0-C_ハッチ
  6
JWW_DASHED1
 62
   120
370
     5
100
AcDbLine
 10
660.9192851627796
 20
-251.0916224086382
 30
0.0
 11
626.1614519805795
 21
-285.8494555908419
 31
0.0
  0
LINE
  5
1B8
330
1F
100
AcDbEntity
  8
0-C_ハッチ
  6
JWW_DASHED1
 62
   120
370
     5
100
AcDbLine
 10
658.9035849868952
 20
-210.8494555908485
 30
0.0
 11
583.9035849869174
 21
-285.8494555908419
 31
0.0
  0
LINE
  5
1B9
330
1F
100
AcDbEntity
  8
0-0_補助線
  6
JWW_HOJO
 62
   120
370
     5
100
AcDbLine
 10
393.9184983041457
 20
-1763.34918112095
 30
0.0
 11
15.91840922581014
 21
-1763.34918112095
 31
0.0
  0
LINE
  5
1BA
330
1F
100
AcDbEntity
  8
0-0_補助線
  6
JWW_HOJO
 62
   120
370
     5
100
AcDbLine
 10
393.9184983041457
 20
-1883.34918112095
 30
0.0
 11
15.91840922581014
 21
-1883.34918112095
 31
0.0
  0
LINE
  5
1BB
330
1F
100
AcDbEntity
  8
0-6_扉
  6
Continuous
 62
   200
370
    20
100
AcDbLine
 10
267.9184537649769
 20
-3162.848921497442
 30
0.0
 11
267.9184537649769
 21
-1883.34918112095
 31
0.0
  0
LINE
  5
1BC
330
1F
100
AcDbEntity
  8
0-6_扉
  6
Continuous
 62
   200
370
    20
100
AcDbLine
 10
141.9184537649772
 20
-3162.848921497442
 30
0.0
 11
141.9184537649772
 21
-1883.34918112095
 31
0.0
  0
LINE
  5
1BD
330
1F
100
AcDbEntity
  8
0-6_扉
  6
Continuous
 62
   200
370
    20
100
AcDbLine
 10
267.9184537649769
 20
-1763.34918112095
 30
0.0
 11
267.9184537649769
 21
-483.8494407444588
 31
0.0
  0
LINE
  5
1BE
330
1F
100
AcDbEntity
  8
0-6_扉
  6
Continuous
 62
   200
370
    20
100
AcDbLine
 10
141.9184537649772
 20
-1763.34918112095
 30
0.0
 11
141.9184537649772
 21
-483.8494407444588
 31
0.0
  0
MTEXT
  5
1BF
330
1F
100
AcDbEntity
  8
0-B_寸法
  6
Continuous
 62
     7
370
     0
100
AcDbMText
 10
1005.91849335535
 20
-2199.933726575496
 30
0.0
 40
101.8309090909091
 41
735.0000000000002
 46
0.0
 71
     7
 72
     1
  1
{\fＭＳ ゴシック|b0|i0|c128|p49;ＤＨ＝2,363}
 11
6.123031769111886E-17
 21
1.0
 31
0.0
 73
     1
 44
1.0
  0
MTEXT
  5
1C0
330
1F
100
AcDbEntity
  8
0-B_寸法
  6
Continuous
 62
     7
370
     0
100
AcDbMText
 10
1185.918493355347
 20
-2199.933726575496
 30
0.0
 40
101.8309090909091
 41
735.0000000000002
 46
0.0
 71
     7
 72
     1
  1
{\fＭＳ ゴシック|b0|i0|c128|p49;枠外＝2,400}
 11
6.123031769111886E-17
 21
1.0
 31
0.0
 73
     1
 44
1.0
  0
MTEXT
  5
1C1
330
1F
100
AcDbEntity
  8
0-A_文字
  6
Continuous
 62
    92
370
    13
100
AcDbMText
 10
-5593.58630264269
 20
3788.85596197497
 30
0.0
 40
147.7107692307692
 41
2520.0
 46
0.0
 71
     7
 72
     1
  1
{\fＭＳ ゴシック|b0|i0|c128|p49;天井ジャスト　収納両開き戸}
 73
     1
 44
1.0
  0
LINE
  5
1C2
330
1F
100
AcDbEntity
  8
0-A_文字
  6
Continuous
 62
    92
370
    13
100
AcDbLine
 10
-2992.58630264269
 20
4030.000577359586
 30
0.0
 11
-2992.58630264269
 21
3760.000577359586
 31
0.0
  0
LINE
  5
1C3
330
1F
100
AcDbEntity
  8
0-A_文字
  6
Continuous
 62
    92
370
    13
100
AcDbLine
 10
-5679.83630264269
 20
3760.000577359586
 30
0.0
 11
-2992.58630264269
 21
3760.000577359586
 31
0.0
  0
LINE
  5
1C4
330
1F
100
AcDbEntity
  8
0-A_文字
  6
Continuous
 62
    92
370
    13
100
AcDbLine
 10
-5679.83630264269
 20
4030.000577359586
 30
0.0
 11
-2992.58630264269
 21
4030.000577359586
 31
0.0
  0
MTEXT
  5
1C5
330
1F
100
AcDbEntity
  8
F-A_文字
  6
Continuous
 62
     7
370
     9
100
AcDbMText
 10
5096.167700144058
 20
-4147.857012699985
 30
0.0
 40
74.295
 41
97.5
 46
0.0
 71
     7
 72
     1
  1
{\fＭＳ ゴシック|b0|i0|c128|p49;01}
 73
     1
 44
1.0
  0
MTEXT
  5
1C6
330
1F
100
AcDbEntity
  8
0-A_文字
  6
Continuous
 62
     7
370
     9
100
AcDbMText
 10
-1002.802991357255
 20
-87.27518897399395
 30
0.0
 40
91.44
 41
600.0
 46
0.0
 71
     7
 72
     1
  1
{\fＭＳ ゴシック|b0|i0|c128|p49;■縦断面図}
 73
     1
 44
1.0
  0
MTEXT
  5
1C7
330
1F
100
AcDbEntity
  8
F-A_文字
  6
Continuous
 62
     7
370
     0
100
AcDbMText
 10
4938.667793092893
 20
-3938.071010139966
 30
0.0
 40
78.86699999999999
 41
517.5
 46
0.0
 71
     7
 72
     1
  1
{\fＭＳ ゴシック|b0|i0|c128|p49;2021.04.01}
 73
     1
 44
1.0
  0
MTEXT
  5
1C8
330
1F
100
AcDbEntity
  8
F-A_文字
  6
Continuous
 62
     7
370
     0
100
AcDbMText
 10
-5087.628710189611
 20
-4045.064631200342
 30
0.0
 40
79.87060975609751
 41
4297.5
 46
0.0
 71
     7
 72
     1
  1
{\fＭＳ ゴシック|b0|i0|c128|p49;ドレタス　天井ジャストシリーズ　収納両開き戸　固定枠　３方枠　枠外H2,400　枠外W734}
 73
     1
 44
1.0
  0
ENDSEC
  0
SECTION
  2
OBJECTS
  0
DICTIONARY
  5
C
330
0
100
AcDbDictionary
281
     1
  3
ACAD_GROUP
350
D
  3
ACAD_LAYOUT
350
1A
  3
ACAD_MATERIAL
350
3B
  3
ACAD_MLEADERSTYLE
350
1CA
  3
ACAD_MLINESTYLE
350
17
  3
ACAD_PLOTSETTINGS
350
19
  3
ACAD_PLOTSTYLENAME
350
E
  3
ACAD_TABLESTYLE
350
1C9
  3
ACAD_VISUALSTYLE
350
2A
  0
DICTIONARY
  5
D
102
{ACAD_REACTORS
330
C
102
}
330
C
100
AcDbDictionary
281
     1
  0
DICTIONARY
  5
1A
102
{ACAD_REACTORS
330
C
102
}
330
C
100
AcDbDictionary
281
     1
  3
Layout1
350
1E
  3
Layout2
350
26
  3
Model
350
22
  0
DICTIONARY
  5
3B
102
{ACAD_REACTORS
330
C
102
}
330
C
100
AcDbDictionary
281
     1
  3
ByBlock
350
3D
  3
ByLayer
350
3C
  3
Global
350
3E
  0
DICTIONARY
  5
1CA
102
{ACAD_REACTORS
330
C
102
}
330
C
100
AcDbDictionary
281
     1
  0
DICTIONARY
  5
17
102
{ACAD_REACTORS
330
C
102
}
330
C
100
AcDbDictionary
281
     1
  3
Standard
350
18
  0
DICTIONARY
  5
19
102
{ACAD_REACTORS
330
C
102
}
330
C
100
AcDbDictionary
281
     1
  0
ACDBDICTIONARYWDFLT
  5
E
102
{ACAD_REACTORS
330
C
102
}
330
C
100
AcDbDictionary
281
     1
  3
Normal
350
F
100
AcDbDictionaryWithDefault
340
F
  0
DICTIONARY
  5
1C9
102
{ACAD_REACTORS
330
C
102
}
330
C
100
AcDbDictionary
281
     1
  0
DICTIONARY
  5
2A
102
{ACAD_REACTORS
330
C
102
}
330
C
100
AcDbDictionary
281
     1
  3
2dWireframe
350
2F
  3
3D Hidden
350
31
  3
3dWireframe
350
30
  3
Basic
350
32
  3
Brighten
350
36
  3
ColorChange
350
3A
  3
Conceptual
350
34
  3
Dim
350
35
  3
Facepattern
350
39
  3
Flat
350
2B
  3
FlatWithEdges
350
2C
  3
Gouraud
350
2D
  3
GouraudWithEdges
350
2E
  3
Linepattern
350
38
  3
Realistic
350
33
  3
Thicken
350
37
  0
LAYOUT
  5
1E
102
{ACAD_REACTORS
330
1A
102
}
330
1A
100
AcDbPlotSettings
  1

  2
none_device
  4

  6

 40
0.0
 41
0.0
 42
0.0
 43
0.0
 44
0.0
 45
0.0
 46
0.0
 47
0.0
 48
0.0
 49
0.0
140
0.0
141
0.0
142
1.0
143
1.0
 70
   688
 72
     0
 73
     0
 74
     5
  7

 75
    16
 76
     0
 77
     5
 78
   300
147
1.0
148
0.0
149
0.0
100
AcDbLayout
  1
Layout1
 70
     1
 71
     1
 10
0.0
 20
0.0
 11
420.0
 21
297.0
 12
0.0
 22
0.0
 32
0.0
 14
1.000000000000000E+20
 24
1.000000000000000E+20
 34
1.000000000000000E+20
 15
-1.000000000000000E+20
 25
-1.000000000000000E+20
 35
-1.000000000000000E+20
146
0.0
 13
0.0
 23
0.0
 33
0.0
 16
1.0
 26
0.0
 36
0.0
 17
0.0
 27
1.0
 37
0.0
 76
     0
330
1B
  0
LAYOUT
  5
26
102
{ACAD_REACTORS
330
1A
102
}
330
1A
100
AcDbPlotSettings
  1

  2
none_device
  4

  6

 40
0.0
 41
0.0
 42
0.0
 43
0.0
 44
0.0
 45
0.0
 46
0.0
 47
0.0
 48
0.0
 49
0.0
140
0.0
141
0.0
142
1.0
143
1.0
 70
   688
 72
     0
 73
     0
 74
     5
  7

 75
    16
 76
     0
 77
     5
 78
   300
147
1.0
148
0.0
149
0.0
100
AcDbLayout
  1
Layout2
 70
     1
 71
     2
 10
0.0
 20
0.0
 11
0.0
 21
0.0
 12
0.0
 22
0.0
 32
0.0
 14
0.0
 24
0.0
 34
0.0
 15
0.0
 25
0.0
 35
0.0
146
0.0
 13
0.0
 23
0.0
 33
0.0
 16
1.0
 26
0.0
 36
0.0
 17
0.0
 27
1.0
 37
0.0
 76
     0
330
23
  0
LAYOUT
  5
22
102
{ACAD_REACTORS
330
1A
102
}
330
1A
100
AcDbPlotSettings
  1

  2
none_device
  4

  6

 40
0.0
 41
0.0
 42
0.0
 43
0.0
 44
0.0
 45
0.0
 46
0.0
 47
0.0
 48
0.0
 49
0.0
140
0.0
141
0.0
142
1.0
143
1.0
 70
  1712
 72
     0
 73
     0
 74
     0
  7

 75
     0
 76
     0
 77
     5
 78
   300
147
1.0
148
0.0
149
0.0
100
AcDbLayout
  1
Model
 70
     1
 71
     0
 10
-6300.0
 20
-4455.0
 11
6300.0
 21
4455.0
 12
0.0
 22
0.0
 32
0.0
 14
-6300.0
 24
-4455.0
 34
0.0
 15
6300.0
 25
4455.0
 35
0.0
146
0.0
 13
0.0
 23
0.0
 33
0.0
 16
1.0
 26
0.0
 36
0.0
 17
0.0
 27
1.0
 37
0.0
 76
     0
330
1F
331
29
  0
MATERIAL
  5
3D
102
{ACAD_REACTORS
330
3B
102
}
330
3B
100
AcDbMaterial
  1
ByBlock
 72
     1
 94
      127
  0
MATERIAL
  5
3C
102
{ACAD_REACTORS
330
3B
102
}
330
3B
100
AcDbMaterial
  1
ByLayer
 72
     1
 94
      127
  0
MATERIAL
  5
3E
102
{ACAD_REACTORS
330
3B
102
}
330
3B
100
AcDbMaterial
  1
Global
 72
     1
 94
      127
  0
MLINESTYLE
  5
18
102
{ACAD_REACTORS
330
17
102
}
330
17
100
AcDbMlineStyle
  2
Standard
 70
     0
  3

 62
   256
 51
90.0
 52
90.0
 71
     2
 49
0.5
 62
   256
  6
BYLAYER
 49
-0.5
 62
   256
  6
BYLAYER
  0
ACDBPLACEHOLDER
  5
F
102
{ACAD_REACTORS
330
E
102
}
330
E
  0
VISUALSTYLE
  5
2F
102
{ACAD_REACTORS
330
2A
102
}
330
2A
100
AcDbVisualStyle
  2
2dWireframe
 70
     4
177
     2
291
     0
 71
     0
176
     1
 72
     2
176
     1
 73
     0
176
     1
 90
        0
176
     1
 40
-0.6
176
     1
 41
-30.0
176
     1
 62
     5
 63
     7
421
 16777215
176
     1
 74
     1
176
     1
 91
        4
176
     1
 64
     7
176
     1
 65
   257
176
     1
 75
     1
176
     1
175
     1
176
     1
 42
1.0
176
     1
 92
        0
176
     1
 66
   257
176
     1
 43
1.0
176
     1
 76
     1
176
     1
 77
     6
176
     1
 78
     2
176
     1
 67
     7
176
     1
 79
     5
176
     1
170
     0
176
     1
171
     0
176
     1
290
     0
176
     1
 93
        1
176
     1
 44
0.0
176
     1
173
     0
176
     1
  0
VISUALSTYLE
  5
31
102
{ACAD_REACTORS
330
2A
102
}
330
2A
100
AcDbVisualStyle
  2
3D Hidden
 70
     6
177
     2
291
     0
 71
     1
176
     1
 72
     2
176
     1
 73
     2
176
     1
 90
        0
176
     1
 40
-0.6
176
     1
 41
-30.0
176
     1
 62
     5
 63
     7
421
 16777215
176
     1
 74
     2
176
     1
 91
        2
176
     1
 64
     7
176
     1
 65
   257
176
     1
 75
     2
176
     1
175
     1
176
     1
 42
40.0
176
     1
 92
        0
176
     1
 66
   257
176
     1
 43
1.0
176
     1
 76
     1
176
     1
 77
     6
176
     1
 78
     2
176
     1
 67
     7
176
     1
 79
     3
176
     1
170
     0
176
     1
171
     0
176
     1
290
     0
176
     1
 93
        1
176
     1
 44
0.0
176
     1
173
     0
176
     1
  0
VISUALSTYLE
  5
30
102
{ACAD_REACTORS
330
2A
102
}
330
2A
100
AcDbVisualStyle
  2
3dWireframe
 70
     5
177
     2
291
     0
 71
     0
176
     1
 72
     2
176
     1
 73
     0
176
     1
 90
        0
176
     1
 40
-0.6
176
     1
 41
-30.0
176
     1
 62
     5
 63
     7
421
 16777215
176
     1
 74
     1
176
     1
 91
        4
176
     1
 64
     7
176
     1
 65
   257
176
     1
 75
     1
176
     1
175
     1
176
     1
 42
1.0
176
     1
 92
        0
176
     1
 66
   257
176
     1
 43
1.0
176
     1
 76
     1
176
     1
 77
     6
176
     1
 78
     2
176
     1
 67
     7
176
     1
 79
     5
176
     1
170
     0
176
     1
171
     0
176
     1
290
     0
176
     1
 93
        1
176
     1
 44
0.0
176
     1
173
     0
176
     1
  0
VISUALSTYLE
  5
32
102
{ACAD_REACTORS
330
2A
102
}
330
2A
100
AcDbVisualStyle
  2
Basic
 70
     7
177
     2
291
     1
 71
     1
176
     1
 72
     0
176
     1
 73
     1
176
     1
 90
        0
176
     1
 40
-0.6
176
     1
 41
-30.0
176
     1
 62
     5
 63
     7
421
 16777215
176
     1
 74
     0
176
     1
 91
        4
176
     1
 64
     7
176
     1
 65
   257
176
     1
 75
     1
176
     1
175
     1
176
     1
 42
1.0
176
     1
 92
        8
176
     1
 66
     7
176
     1
 43
1.0
176
     1
 76
     1
176
     1
 77
     6
176
     1
 78
     2
176
     1
 67
     7
176
     1
 79
     5
176
     1
170
     0
176
     1
171
     0
176
     1
290
     0
176
     1
 93
        1
176
     1
 44
0.0
176
     1
173
     0
176
     1
  0
VISUALSTYLE
  5
36
102
{ACAD_REACTORS
330
2A
102
}
330
2A
100
AcDbVisualStyle
  2
Brighten
 70
    12
177
     2
291
     1
 71
     2
176
     1
 72
     2
176
     1
 73
     0
176
     1
 90
        0
176
     1
 40
-0.6
176
     1
 41
-30.0
176
     1
 62
     5
 63
     7
421
 16777215
176
     1
 74
     1
176
     1
 91
        4
176
     1
 64
     7
176
     1
 65
   257
176
     1
 75
     1
176
     1
175
     1
176
     1
 42
1.0
176
     1
 92
        8
176
     1
 66
     7
176
     1
 43
1.0
176
     1
 76
     1
176
     1
 77
     6
176
     1
 78
     2
176
     1
 67
     7
176
     1
 79
     5
176
     1
170
     0
176
     1
171
     0
176
     1
290
     0
176
     1
 93
        1
176
     1
 44
50.0
176
     1
173
     0
176
     1
  0
VISUALSTYLE
  5
3A
102
{ACAD_REACTORS
330
2A
102
}
330
2A
100
AcDbVisualStyle
  2
ColorChange
 70
    16
177
     2
291
     1
 71
     2
176
     1
 72
     2
176
     1
 73
     3
176
     1
 90
        0
176
     1
 40
-0.6
176
     1
 41
-30.0
176
     1
 62
     5
 63
     8
421
  8421504
176
     1
 74
     1
176
     1
 91
        4
176
     1
 64
     7
176
     1
 65
   257
176
     1
 75
     1
176
     1
175
     1
176
     1
 42
1.0
176
     1
 92
        8
176
     1
 66
     8
424
  8421504
176
     1
 43
1.0
176
     1
 76
     1
176
     1
 77
     6
176
     1
 78
     2
176
     1
 67
     7
176
     1
 79
     5
176
     1
170
     0
176
     1
171
     0
176
     1
290
     0
176
     1
 93
        1
176
     1
 44
0.0
176
     1
173
     0
176
     1
  0
VISUALSTYLE
  5
34
102
{ACAD_REACTORS
330
2A
102
}
330
2A
100
AcDbVisualStyle
  2
Conceptual
 70
     9
177
     2
291
     0
 71
     3
176
     1
 72
     2
176
     1
 73
     0
176
     1
 90
        0
176
     1
 40
-0.6
176
     1
 41
-30.0
176
     1
 62
     5
 63
     7
421
 16777215
176
     1
 74
     2
176
     1
 91
        2
176
     1
 64
     7
176
     1
 65
   257
176
     1
 75
     1
176
     1
175
     1
176
     1
 42
40.0
176
     1
 92
        8
176
     1
 66
     7
176
     1
 43
1.0
176
     1
 76
     1
176
     1
 77
     6
176
     1
 78
     2
176
     1
 67
     7
176
     1
 79
     3
176
     1
170
     0
176
     1
171
     0
176
     1
290
     0
176
     1
 93
        1
176
     1
 44
0.0
176
     1
173
     0
176
     1
  0
VISUALSTYLE
  5
35
102
{ACAD_REACTORS
330
2A
102
}
330
2A
100
AcDbVisualStyle
  2
Dim
 70
    11
177
     2
291
     1
 71
     2
176
     1
 72
     2
176
     1
 73
     0
176
     1
 90
        0
176
     1
 40
-0.6
176
     1
 41
-30.0
176
     1
 62
     5
 63
     7
421
 16777215
176
     1
 74
     1
176
     1
 91
        4
176
     1
 64
     7
176
     1
 65
   257
176
     1
 75
     1
176
     1
175
     1
176
     1
 42
1.0
176
     1
 92
        8
176
     1
 66
     7
176
     1
 43
1.0
176
     1
 76
     1
176
     1
 77
     6
176
     1
 78
     2
176
     1
 67
     7
176
     1
 79
     5
176
     1
170
     0
176
     1
171
     0
176
     1
290
     0
176
     1
 93
        1
176
     1
 44
-50.0
176
     1
173
     0
176
     1
  0
VISUALSTYLE
  5
39
102
{ACAD_REACTORS
330
2A
102
}
330
2A
100
AcDbVisualStyle
  2
Facepattern
 70
    15
177
     2
291
     1
 71
     2
176
     1
 72
     2
176
     1
 73
     0
176
     1
 90
        0
176
     1
 40
-0.6
176
     1
 41
-30.0
176
     1
 62
     5
 63
     7
421
 16777215
176
     1
 74
     1
176
     1
 91
        4
176
     1
 64
     7
176
     1
 65
   257
176
     1
 75
     1
176
     1
175
     1
176
     1
 42
1.0
176
     1
 92
        8
176
     1
 66
     7
176
     1
 43
1.0
176
     1
 76
     1
176
     1
 77
     6
176
     1
 78
     2
176
     1
 67
     7
176
     1
 79
     5
176
     1
170
     0
176
     1
171
     0
176
     1
290
     0
176
     1
 93
        1
176
     1
 44
0.0
176
     1
173
     0
176
     1
  0
VISUALSTYLE
  5
2B
102
{ACAD_REACTORS
330
2A
102
}
330
2A
100
AcDbVisualStyle
  2
Flat
 70
     0
177
     2
291
     1
 71
     2
176
     1
 72
     1
176
     1
 73
     1
176
     1
 90
        2
176
     1
 40
-0.6
176
     1
 41
30.0
176
     1
 62
     5
 63
     7
421
 16777215
176
     1
 74
     0
176
     1
 91
        4
176
     1
 64
     7
176
     1
 65
   257
176
     1
 75
     1
176
     1
175
     1
176
     1
 42
1.0
176
     1
 92
        8
176
     1
 66
     7
176
     1
 43
1.0
176
     1
 76
     1
176
     1
 77
     6
176
     1
 78
     2
176
     1
 67
     7
176
     1
 79
     5
176
     1
170
     0
176
     1
171
     0
176
     1
290
     0
176
     1
 93
       13
176
     1
 44
0.0
176
     1
173
     0
176
     1
  0
VISUALSTYLE
  5
2C
102
{ACAD_REACTORS
330
2A
102
}
330
2A
100
AcDbVisualStyle
  2
FlatWithEdges
 70
     1
177
     2
291
     1
 71
     2
176
     1
 72
     1
176
     1
 73
     1
176
     1
 90
        2
176
     1
 40
-0.6
176
     1
 41
30.0
176
     1
 62
     5
 63
     7
421
 16777215
176
     1
 74
     1
176
     1
 91
        4
176
     1
 64
     7
176
     1
 65
   257
176
     1
 75
     1
176
     1
175
     1
176
     1
 42
1.0
176
     1
 92
        0
176
     1
 66
   257
176
     1
 43
1.0
176
     1
 76
     1
176
     1
 77
     6
176
     1
 78
     2
176
     1
 67
     7
176
     1
 79
     5
176
     1
170
     0
176
     1
171
     0
176
     1
290
     0
176
     1
 93
       13
176
     1
 44
0.0
176
     1
173
     0
176
     1
  0
VISUALSTYLE
  5
2D
102
{ACAD_REACTORS
330
2A
102
}
330
2A
100
AcDbVisualStyle
  2
Gouraud
 70
     2
177
     2
291
     1
 71
     2
176
     1
 72
     2
176
     1
 73
     1
176
     1
 90
        2
176
     1
 40
-0.6
176
     1
 41
30.0
176
     1
 62
     5
 63
     7
421
 16777215
176
     1
 74
     0
176
     1
 91
        4
176
     1
 64
     7
176
     1
 65
   257
176
     1
 75
     1
176
     1
175
     1
176
     1
 42
1.0
176
     1
 92
        0
176
     1
 66
     7
176
     1
 43
1.0
176
     1
 76
     1
176
     1
 77
     6
176
     1
 78
     2
176
     1
 67
     7
176
     1
 79
     5
176
     1
170
     0
176
     1
171
     0
176
     1
290
     0
176
     1
 93
       13
176
     1
 44
0.0
176
     1
173
     0
176
     1
  0
VISUALSTYLE
  5
2E
102
{ACAD_REACTORS
330
2A
102
}
330
2A
100
AcDbVisualStyle
  2
GouraudWithEdges
 70
     3
177
     2
291
     1
 71
     2
176
     1
 72
     2
176
     1
 73
     1
176
     1
 90
        2
176
     1
 40
-0.6
176
     1
 41
30.0
176
     1
 62
     5
 63
     7
421
 16777215
176
     1
 74
     1
176
     1
 91
        4
176
     1
 64
     7
176
     1
 65
   257
176
     1
 75
     1
176
     1
175
     1
176
     1
 42
1.0
176
     1
 92
        0
176
     1
 66
   257
176
     1
 43
1.0
176
     1
 76
     1
176
     1
 77
     6
176
     1
 78
     2
176
     1
 67
     7
176
     1
 79
     5
176
     1
170
     0
176
     1
171
     0
176
     1
290
     0
176
     1
 93
       13
176
     1
 44
0.0
176
     1
173
     0
176
     1
  0
VISUALSTYLE
  5
38
102
{ACAD_REACTORS
330
2A
102
}
330
2A
100
AcDbVisualStyle
  2
Linepattern
 70
    14
177
     2
291
     1
 71
     2
176
     1
 72
     2
176
     1
 73
     0
176
     1
 90
        0
176
     1
 40
-0.6
176
     1
 41
-30.0
176
     1
 62
     5
 63
     7
421
 16777215
176
     1
 74
     1
176
     1
 91
        4
176
     1
 64
     7
176
     1
 65
   257
176
     1
 75
     7
176
     1
175
     7
176
     1
 42
1.0
176
     1
 92
        8
176
     1
 66
     7
176
     1
 43
1.0
176
     1
 76
     1
176
     1
 77
     6
176
     1
 78
     2
176
     1
 67
     7
176
     1
 79
     5
176
     1
170
     0
176
     1
171
     0
176
     1
290
     0
176
     1
 93
        1
176
     1
 44
0.0
176
     1
173
     0
176
     1
  0
VISUALSTYLE
  5
33
102
{ACAD_REACTORS
330
2A
102
}
330
2A
100
AcDbVisualStyle
  2
Realistic
 70
     8
177
     2
291
     0
 71
     2
176
     1
 72
     2
176
     1
 73
     0
176
     1
 90
        0
176
     1
 40
-0.6
176
     1
 41
-30.0
176
     1
 62
     5
 63
     7
421
 16777215
176
     1
 74
     1
176
     1
 91
        0
176
     1
 64
     7
176
     1
 65
   257
176
     1
 75
     1
176
     1
175
     1
176
     1
 42
1.0
176
     1
 92
        8
176
     1
 66
     8
424
  7895160
176
     1
 43
1.0
176
     1
 76
     1
176
     1
 77
     6
176
     1
 78
     2
176
     1
 67
     7
176
     1
 79
     5
176
     1
170
     0
176
     1
171
     0
176
     1
290
     0
176
     1
 93
       13
176
     1
 44
0.0
176
     1
173
     0
176
     1
  0
VISUALSTYLE
  5
37
102
{ACAD_REACTORS
330
2A
102
}
330
2A
100
AcDbVisualStyle
  2
Thicken
 70
    13
177
     2
291
     1
 71
     2
176
     1
 72
     2
176
     1
 73
     0
176
     1
 90
        0
176
     1
 40
-0.6
176
     1
 41
-30.0
176
     1
 62
     5
 63
     7
421
 16777215
176
     1
 74
     1
176
     1
 91
        4
176
     1
 64
     7
176
     1
 65
   257
176
     1
 75
     1
176
     1
175
     1
176
     1
 42
1.0
176
     1
 92
       12
176
     1
 66
     7
176
     1
 43
1.0
176
     1
 76
     1
176
     1
 77
     6
176
     1
 78
     2
176
     1
 67
     7
176
     1
 79
     5
176
     1
170
     0
176
     1
171
     0
176
     1
290
     0
176
     1
 93
        1
176
     1
 44
0.0
176
     1
173
     0
176
     1
  0
ENDSEC
  0
EOF
