  0
SECTION
  2
HEADER
  9
$ACADVER
  1
AC1024
  9
$ACADMAINTVER
 70
     6
  9
$DWGCODEPAGE
  3
ANSI_932
  9
$INSBASE
 10
0.0
 20
0.0
 30
0.0
  9
$EXTMIN
 10
-8910.0
 20
-6300.0
 30
0.0
  9
$EXTMAX
 10
8910.0
 20
6300.0
 30
0.0
  9
$LIMMIN
 10
-8910.0
 20
-6300.0
  9
$LIMMAX
 10
8910.0
 20
6300.0
  9
$ORTHOMODE
 70
     0
  9
$REGENMODE
 70
     1
  9
$FILLMODE
 70
     1
  9
$QTEXTMODE
 70
     0
  9
$MIRRTEXT
 70
     1
  9
$LTSCALE
 40
30.0
  9
$ATTMODE
 70
     1
  9
$TEXTSIZE
 40
2.5
  9
$TRACEWID
 40
1.0
  9
$TEXTSTYLE
  7
Standard
  9
$CLAYER
  8
0
  9
$CELTYPE
  6
ByLayer
  9
$CECOLOR
 62
   256
  9
$CELTSCALE
 40
1.0
  9
$DISPSILH
 70
     0
  9
$DIMSCALE
 40
1.0
  9
$DIMASZ
 40
2.5
  9
$DIMEXO
 40
0.625
  9
$DIMDLI
 40
3.75
  9
$DIMRND
 40
0.0
  9
$DIMDLE
 40
0.0
  9
$DIMEXE
 40
1.25
  9
$DIMTP
 40
0.0
  9
$DIMTM
 40
0.0
  9
$DIMTXT
 40
2.5
  9
$DIMCEN
 40
2.5
  9
$DIMTSZ
 40
0.0
  9
$DIMTOL
 70
     0
  9
$DIMLIM
 70
     0
  9
$DIMTIH
 70
     0
  9
$DIMTOH
 70
     0
  9
$DIMSE1
 70
     0
  9
$DIMSE2
 70
     0
  9
$DIMTAD
 70
     1
  9
$DIMZIN
 70
     8
  9
$DIMBLK
  1

  9
$DIMASO
 70
     1
  9
$DIMSHO
 70
     1
  9
$DIMPOST
  1

  9
$DIMAPOST
  1

  9
$DIMALT
 70
     0
  9
$DIMALTD
 70
     3
  9
$DIMALTF
 40
0.03937007874016
  9
$DIMLFAC
 40
1.0
  9
$DIMTOFL
 70
     1
  9
$DIMTVP
 40
0.0
  9
$DIMTIX
 70
     0
  9
$DIMSOXD
 70
     0
  9
$DIMSAH
 70
     0
  9
$DIMBLK1
  1

  9
$DIMBLK2
  1

  9
$DIMSTYLE
  2
ISO-25
  9
$DIMCLRD
 70
     0
  9
$DIMCLRE
 70
     0
  9
$DIMCLRT
 70
     0
  9
$DIMTFAC
 40
1.0
  9
$DIMGAP
 40
0.625
  9
$DIMJUST
 70
     0
  9
$DIMSD1
 70
     0
  9
$DIMSD2
 70
     0
  9
$DIMTOLJ
 70
     0
  9
$DIMTZIN
 70
     8
  9
$DIMALTZ
 70
     0
  9
$DIMALTTZ
 70
     0
  9
$DIMUPT
 70
     0
  9
$DIMDEC
 70
     2
  9
$DIMTDEC
 70
     2
  9
$DIMALTU
 70
     2
  9
$DIMALTTD
 70
     3
  9
$DIMTXSTY
  7
Standard
  9
$DIMAUNIT
 70
     0
  9
$DIMADEC
 70
     0
  9
$DIMALTRND
 40
0.0
  9
$DIMAZIN
 70
     0
  9
$DIMDSEP
 70
    44
  9
$DIMATFIT
 70
     3
  9
$DIMFRAC
 70
     0
  9
$DIMLDRBLK
  1

  9
$DIMLUNIT
 70
     2
  9
$DIMLWD
 70
    -2
  9
$DIMLWE
 70
    -2
  9
$DIMTMOVE
 70
     0
  9
$DIMFXL
 40
1.0
  9
$DIMFXLON
 70
     0
  9
$DIMJOGANG
 40
0.7853981633974483
  9
$DIMTFILL
 70
     0
  9
$DIMTFILLCLR
 70
     0
  9
$DIMARCSYM
 70
     0
  9
$DIMLTYPE
  6

  9
$DIMLTEX1
  6

  9
$DIMLTEX2
  6

  9
$DIMTXTDIRECTION
 70
     0
  9
$LUNITS
 70
     2
  9
$LUPREC
 70
     4
  9
$SKETCHINC
 40
1.0
  9
$FILLETRAD
 40
10.0
  9
$AUNITS
 70
     0
  9
$AUPREC
 70
     0
  9
$MENU
  1
.
  9
$ELEVATION
 40
0.0
  9
$PELEVATION
 40
0.0
  9
$THICKNESS
 40
0.0
  9
$LIMCHECK
 70
     0
  9
$CHAMFERA
 40
10.0
  9
$CHAMFERB
 40
10.0
  9
$CHAMFERC
 40
20.0
  9
$CHAMFERD
 40
0.0
  9
$SKPOLY
 70
     0
  9
$TDCREATE
 40
2459682.407975625
  9
$TDUCREATE
 40
2459682.032975625
  9
$TDUPDATE
 40
2459682.407975636
  9
$TDUUPDATE
 40
2459682.032975636
  9
$TDINDWG
 40
0.0000000116
  9
$TDUSRTIMER
 40
0.0000000116
  9
$USRTIMER
 70
     1
  9
$ANGBASE
 50
0.0
  9
$ANGDIR
 70
     0
  9
$PDMODE
 70
     0
  9
$PDSIZE
 40
0.0
  9
$PLINEWID
 40
0.0
  9
$SPLFRAME
 70
     0
  9
$SPLINETYPE
 70
     6
  9
$SPLINESEGS
 70
     8
  9
$HANDSEED
  5
301
  9
$SURFTAB1
 70
     6
  9
$SURFTAB2
 70
     6
  9
$SURFTYPE
 70
     6
  9
$SURFU
 70
     6
  9
$SURFV
 70
     6
  9
$UCSBASE
  2

  9
$UCSNAME
  2

  9
$UCSORG
 10
0.0
 20
0.0
 30
0.0
  9
$UCSXDIR
 10
1.0
 20
0.0
 30
0.0
  9
$UCSYDIR
 10
0.0
 20
1.0
 30
0.0
  9
$UCSORTHOREF
  2

  9
$UCSORTHOVIEW
 70
     0
  9
$UCSORGTOP
 10
0.0
 20
0.0
 30
0.0
  9
$UCSORGBOTTOM
 10
0.0
 20
0.0
 30
0.0
  9
$UCSORGLEFT
 10
0.0
 20
0.0
 30
0.0
  9
$UCSORGRIGHT
 10
0.0
 20
0.0
 30
0.0
  9
$UCSORGFRONT
 10
0.0
 20
0.0
 30
0.0
  9
$UCSORGBACK
 10
0.0
 20
0.0
 30
0.0
  9
$PUCSBASE
  2

  9
$PUCSNAME
  2

  9
$PUCSORG
 10
0.0
 20
0.0
 30
0.0
  9
$PUCSXDIR
 10
1.0
 20
0.0
 30
0.0
  9
$PUCSYDIR
 10
0.0
 20
1.0
 30
0.0
  9
$PUCSORTHOREF
  2

  9
$PUCSORTHOVIEW
 70
     0
  9
$PUCSORGTOP
 10
0.0
 20
0.0
 30
0.0
  9
$PUCSORGBOTTOM
 10
0.0
 20
0.0
 30
0.0
  9
$PUCSORGLEFT
 10
0.0
 20
0.0
 30
0.0
  9
$PUCSORGRIGHT
 10
0.0
 20
0.0
 30
0.0
  9
$PUCSORGFRONT
 10
0.0
 20
0.0
 30
0.0
  9
$PUCSORGBACK
 10
0.0
 20
0.0
 30
0.0
  9
$USERI1
 70
     0
  9
$USERI2
 70
     0
  9
$USERI3
 70
     0
  9
$USERI4
 70
     0
  9
$USERI5
 70
     0
  9
$USERR1
 40
0.0
  9
$USERR2
 40
0.0
  9
$USERR3
 40
0.0
  9
$USERR4
 40
0.0
  9
$USERR5
 40
0.0
  9
$WORLDVIEW
 70
     1
  9
$SHADEDGE
 70
     3
  9
$SHADEDIF
 70
    70
  9
$TILEMODE
 70
     1
  9
$MAXACTVP
 70
    64
  9
$PINSBASE
 10
0.0
 20
0.0
 30
0.0
  9
$PLIMCHECK
 70
     0
  9
$PEXTMIN
 10
1.000000000000000E+20
 20
1.000000000000000E+20
 30
1.000000000000000E+20
  9
$PEXTMAX
 10
-1.000000000000000E+20
 20
-1.000000000000000E+20
 30
-1.000000000000000E+20
  9
$PLIMMIN
 10
0.0
 20
0.0
  9
$PLIMMAX
 10
420.0
 20
297.0
  9
$UNITMODE
 70
     0
  9
$VISRETAIN
 70
     1
  9
$PLINEGEN
 70
     0
  9
$PSLTSCALE
 70
     1
  9
$TREEDEPTH
 70
  3020
  9
$CMLSTYLE
  2
Standard
  9
$CMLJUST
 70
     0
  9
$CMLSCALE
 40
20.0
  9
$PROXYGRAPHICS
 70
     1
  9
$MEASUREMENT
 70
     1
  9
$CELWEIGHT
370
    -1
  9
$ENDCAPS
280
     0
  9
$JOINSTYLE
280
     0
  9
$LWDISPLAY
290
     0
  9
$INSUNITS
 70
     4
  9
$HYPERLINKBASE
  1

  9
$STYLESHEET
  1

  9
$XEDIT
290
     1
  9
$CEPSNTYPE
380
     0
  9
$PSTYLEMODE
290
     1
  9
$FINGERPRINTGUID
  2
{7D2134E2-018C-4ABC-9CBF-32D04F7030D6}
  9
$VERSIONGUID
  2
{FAEB1C32-E019-11D5-929B-00C0DF256EC4}
  9
$EXTNAMES
290
     1
  9
$PSVPSCALE
 40
0.0
  9
$OLESTARTUP
290
     0
  9
$SORTENTS
280
   127
  9
$INDEXCTL
280
     0
  9
$HIDETEXT
280
     1
  9
$XCLIPFRAME
280
     2
  9
$HALOGAP
280
     0
  9
$OBSCOLOR
 70
   257
  9
$OBSLTYPE
280
     0
  9
$INTERSECTIONDISPLAY
280
     0
  9
$INTERSECTIONCOLOR
 70
   257
  9
$DIMASSOC
280
     2
  9
$PROJECTNAME
  1

  9
$CAMERADISPLAY
290
     0
  9
$LENSLENGTH
 40
50.0
  9
$CAMERAHEIGHT
 40
0.0
  9
$STEPSPERSEC
 40
2.0
  9
$STEPSIZE
 40
6.0
  9
$3DDWFPREC
 40
2.0
  9
$PSOLWIDTH
 40
5.0
  9
$PSOLHEIGHT
 40
80.0
  9
$LOFTANG1
 40
1.570796326794897
  9
$LOFTANG2
 40
1.570796326794897
  9
$LOFTMAG1
 40
0.0
  9
$LOFTMAG2
 40
0.0
  9
$LOFTPARAM
 70
     7
  9
$LOFTNORMALS
280
     1
  9
$LATITUDE
 40
37.795
  9
$LONGITUDE
 40
-122.394
  9
$NORTHDIRECTION
 40
0.0
  9
$TIMEZONE
 70
 -8000
  9
$LIGHTGLYPHDISPLAY
280
     1
  9
$TILEMODELIGHTSYNCH
280
     1
  9
$SOLIDHIST
280
     1
  9
$SHOWHIST
280
     1
  9
$DWFFRAME
280
     2
  9
$DGNFRAME
280
     2
  9
$REALWORLDSCALE
290
     1
  9
$INTERFERECOLOR
 62
   256
  9
$CSHADOW
280
     0
  9
$SHADOWPLANELOCATION
 40
0.0
  0
ENDSEC
  0
SECTION
  2
CLASSES
  0
CLASS
  1
ACDBDICTIONARYWDFLT
  2
AcDbDictionaryWithDefault
  3
ObjectDBX Classes
 90
        0
 91
        4
280
     0
281
     0
  0
CLASS
  1
VISUALSTYLE
  2
AcDbVisualStyle
  3
ObjectDBX Classes
 90
     4095
 91
        4
280
     0
281
     0
  0
CLASS
  1
MATERIAL
  2
AcDbMaterial
  3
ObjectDBX Classes
 90
     1153
 91
        4
280
     0
281
     0
  0
ENDSEC
  0
SECTION
  2
TABLES
  0
TABLE
  2
VPORT
  5
8
330
0
100
AcDbSymbolTable
 70
     1
  0
VPORT
  5
29
330
8
100
AcDbSymbolTableRecord
100
AcDbViewportTableRecord
  2
*Active
 70
     0
 10
0.0
 20
0.0
 11
1.0
 21
1.0
 12
0.0
 22
0.0
 13
0.0
 23
0.0
 14
10.0
 24
10.0
 15
10.0
 25
10.0
 16
0.0
 26
0.0
 36
1.0
 17
0.0
 27
0.0
 37
0.0
 40
13860.0
 41
1.414285714285714
 42
50.0
 43
0.0
 44
0.0
 50
0.0
 51
0.0
 71
     0
 72
 10000
 73
     1
 74
     3
 75
     0
 76
     0
 77
     0
 78
     0
281
     0
 65
     1
110
0.0
120
0.0
130
0.0
111
1.0
121
0.0
131
0.0
112
0.0
122
1.0
132
0.0
 79
     0
146
0.0
 60
     3
 61
     5
292
     1
282
     1
141
0.0
142
0.0
 63
   250
  0
ENDTAB
  0
TABLE
  2
LTYPE
  5
5
330
0
100
AcDbSymbolTable
 70
     5
  0
LTYPE
  5
14
330
5
100
AcDbSymbolTableRecord
100
AcDbLinetypeTableRecord
  2
ByBlock
 70
     0
  3

 72
    65
 73
     0
 40
0.0
  0
LTYPE
  5
15
330
5
100
AcDbSymbolTableRecord
100
AcDbLinetypeTableRecord
  2
ByLayer
 70
     0
  3

 72
    65
 73
     0
 40
0.0
  0
LTYPE
  5
16
330
5
100
AcDbSymbolTableRecord
100
AcDbLinetypeTableRecord
  2
Continuous
 70
     0
  3
Solid line
 72
    65
 73
     0
 40
0.0
  0
LTYPE
  5
3F
330
5
100
AcDbSymbolTableRecord
100
AcDbLinetypeTableRecord
  2
JWW_HOJO
 70
     0
  3
  -   -   -   -   -   -   -   - 
 72
    65
 73
     2
 40
1.693333333333333
 49
-1.27
 74
     0
 49
0.4233333333333333
 74
     0
  0
LTYPE
  5
40
330
5
100
AcDbSymbolTableRecord
100
AcDbLinetypeTableRecord
  2
JWW_DASHED1
 70
     0
  3
-  --  --  --  --  --  --  --  -
 72
    65
 73
     2
 40
1.693333333333333
 49
0.8466666666666667
 74
     0
 49
-0.8466666666666667
 74
     0
  0
LTYPE
  5
41
330
5
100
AcDbSymbolTableRecord
100
AcDbLinetypeTableRecord
  2
JWW_CENTER1
 70
     0
  3
-----  --  ----------  --  -----
 72
    65
 73
     4
 40
6.773333333333333
 49
4.233333333333333
 74
     0
 49
-0.8466666666666667
 74
     0
 49
0.8466666666666667
 74
     0
 49
-0.8466666666666667
 74
     0
  0
LTYPE
  5
42
330
5
100
AcDbSymbolTableRecord
100
AcDbLinetypeTableRecord
  2
JWW_DASHED2
 70
     0
  3
--    ----    ----    ----    --
 72
    65
 73
     2
 40
3.386666666666667
 49
1.693333333333333
 74
     0
 49
-1.693333333333333
 74
     0
  0
ENDTAB
  0
TABLE
  2
LAYER
  5
2
330
0
100
AcDbSymbolTable
 70
    14
  0
LAYER
  5
10
330
2
100
AcDbSymbolTableRecord
100
AcDbLayerTableRecord
  2
0
 70
     0
 62
     7
  6
Continuous
370
    -3
390
F
347
3E
  0
LAYER
  5
43
330
2
100
AcDbSymbolTableRecord
100
AcDbLayerTableRecord
  2
F-0_補助線
 70
     0
 62
     7
  6
Continuous
370
    -3
390
F
347
3E
  0
LAYER
  5
44
330
2
100
AcDbSymbolTableRecord
100
AcDbLayerTableRecord
  2
F-1_枠
 70
     0
 62
     7
  6
Continuous
370
    -3
390
F
347
3E
  0
LAYER
  5
45
330
2
100
AcDbSymbolTableRecord
100
AcDbLayerTableRecord
  2
F-A_文字
 70
     0
 62
     7
  6
Continuous
370
    -3
390
F
347
3E
  0
LAYER
  5
46
330
2
100
AcDbSymbolTableRecord
100
AcDbLayerTableRecord
  2
0-A_文字
 70
     0
 62
     7
  6
Continuous
370
    -3
390
F
347
3E
  0
LAYER
  5
47
330
2
100
AcDbSymbolTableRecord
100
AcDbLayerTableRecord
  2
0-B_寸法
 70
     0
 62
     7
  6
Continuous
370
    -3
390
F
347
3E
  0
LAYER
  5
48
330
2
100
AcDbSymbolTableRecord
100
AcDbLayerTableRecord
  2
0-0_補助線
 70
     0
 62
     7
  6
Continuous
370
    -3
390
F
347
3E
  0
LAYER
  5
49
330
2
100
AcDbSymbolTableRecord
100
AcDbLayerTableRecord
  2
0-4_枠
 70
     0
 62
     7
  6
Continuous
370
    -3
390
F
347
3E
  0
LAYER
  5
4A
330
2
100
AcDbSymbolTableRecord
100
AcDbLayerTableRecord
  2
0-C_ハッチ
 70
     0
 62
     7
  6
Continuous
370
    -3
390
F
347
3E
  0
LAYER
  5
4B
330
2
100
AcDbSymbolTableRecord
100
AcDbLayerTableRecord
  2
0-6_扉
 70
     0
 62
     7
  6
Continuous
370
    -3
390
F
347
3E
  0
LAYER
  5
4C
330
2
100
AcDbSymbolTableRecord
100
AcDbLayerTableRecord
  2
0-3_仕上げ
 70
     0
 62
     7
  6
Continuous
370
    -3
390
F
347
3E
  0
LAYER
  5
4D
330
2
100
AcDbSymbolTableRecord
100
AcDbLayerTableRecord
  2
0-1_通り芯
 70
     0
 62
     7
  6
Continuous
370
    -3
390
F
347
3E
  0
LAYER
  5
4E
330
2
100
AcDbSymbolTableRecord
100
AcDbLayerTableRecord
  2
戸当り
 70
     0
 62
     7
  6
Continuous
370
    -3
390
F
347
3E
  0
LAYER
  5
4F
330
2
100
AcDbSymbolTableRecord
100
AcDbLayerTableRecord
  2
0-7_金物
 70
     0
 62
     7
  6
Continuous
370
    -3
390
F
347
3E
  0
ENDTAB
  0
TABLE
  2
STYLE
  5
3
330
0
100
AcDbSymbolTable
 70
     1
  0
STYLE
  5
11
330
3
100
AcDbSymbolTableRecord
100
AcDbTextStyleTableRecord
  2
Standard
 70
     0
 40
0.0
 41
1.0
 50
0.0
 71
     0
 42
2.5
  3
txt
  4

  0
ENDTAB
  0
TABLE
  2
VIEW
  5
6
330
0
100
AcDbSymbolTable
 70
     0
  0
ENDTAB
  0
TABLE
  2
UCS
  5
7
330
0
100
AcDbSymbolTable
 70
     0
  0
ENDTAB
  0
TABLE
  2
APPID
  5
9
330
0
100
AcDbSymbolTable
 70
     1
  0
APPID
  5
12
330
9
100
AcDbSymbolTableRecord
100
AcDbRegAppTableRecord
  2
ACAD
 70
     0
  0
ENDTAB
  0
TABLE
  2
DIMSTYLE
  5
A
330
0
100
AcDbSymbolTable
 70
     1
100
AcDbDimStyleTable
  0
DIMSTYLE
105
27
330
A
100
AcDbSymbolTableRecord
100
AcDbDimStyleTableRecord
  2
ISO-25
 70
     0
 41
2.5
 42
0.625
 43
3.75
 44
1.25
 73
     0
 74
     0
 77
     1
 78
     8
140
2.5
141
2.5
143
0.03937007874016
147
0.625
171
     3
172
     1
178
     0
271
     2
272
     2
274
     3
278
    44
283
     0
284
     8
340
11
  0
ENDTAB
  0
TABLE
  2
BLOCK_RECORD
  5
1
330
0
100
AcDbSymbolTable
 70
     1
  0
BLOCK_RECORD
  5
1F
330
1
100
AcDbSymbolTableRecord
100
AcDbBlockTableRecord
  2
*Model_Space
340
22
 70
     0
280
     1
281
     0
  0
BLOCK_RECORD
  5
1B
330
1
100
AcDbSymbolTableRecord
100
AcDbBlockTableRecord
  2
*Paper_Space
340
1E
 70
     0
280
     1
281
     0
  0
BLOCK_RECORD
  5
23
330
1
100
AcDbSymbolTableRecord
100
AcDbBlockTableRecord
  2
*Paper_Space0
340
26
 70
     0
280
     1
281
     0
  0
ENDTAB
  0
ENDSEC
  0
SECTION
  2
BLOCKS
  0
BLOCK
  5
20
330
1F
100
AcDbEntity
  8
0
100
AcDbBlockBegin
  2
*Model_Space
 70
     0
 10
0.0
 20
0.0
 30
0.0
  3
*Model_Space
  1

  0
ENDBLK
  5
21
330
1F
100
AcDbEntity
  8
0
100
AcDbBlockEnd
  0
BLOCK
  5
1C
330
1B
100
AcDbEntity
 67
     1
  8
0
100
AcDbBlockBegin
  2
*Paper_Space
 70
     0
 10
0.0
 20
0.0
 30
0.0
  3
*Paper_Space
  1

  0
ENDBLK
  5
1D
330
1B
100
AcDbEntity
 67
     1
  8
0
100
AcDbBlockEnd
  0
BLOCK
  5
24
330
23
100
AcDbEntity
  8
0
100
AcDbBlockBegin
  2
*Paper_Space0
 70
     0
 10
0.0
 20
0.0
 30
0.0
  3
*Paper_Space0
  1

  0
ENDBLK
  5
25
330
23
100
AcDbEntity
  8
0
100
AcDbBlockEnd
  0
ENDSEC
  0
SECTION
  2
ENTITIES
  0
LINE
  5
50
330
1F
100
AcDbEntity
  8
F-0_補助線
  6
JWW_HOJO
 62
     7
370
     9
100
AcDbLine
 10
9.918491721639953
 20
-4049.999739778022
 30
0.0
 11
5849.917592690284
 21
-4050.005167989131
 31
0.0
  0
LINE
  5
51
330
1F
100
AcDbEntity
  8
F-0_補助線
  6
JWW_HOJO
 62
   120
370
     5
100
AcDbLine
 10
-6140.081333436773
 20
-4455.0
 30
0.0
 11
-6140.081333436773
 21
4424.999604096284
 31
0.0
  0
LINE
  5
52
330
1F
100
AcDbEntity
  8
F-0_補助線
  6
JWW_HOJO
 62
   120
370
     5
100
AcDbLine
 10
-6140.081333436773
 20
4424.999604096284
 30
0.0
 11
6159.917676803936
 21
4424.999604096284
 31
0.0
  0
LINE
  5
53
330
1F
100
AcDbEntity
  8
F-0_補助線
  6
JWW_HOJO
 62
   120
370
     5
100
AcDbLine
 10
6159.917676803936
 20
4424.999604096284
 30
0.0
 11
6159.917676803936
 21
-4455.0
 31
0.0
  0
LINE
  5
54
330
1F
100
AcDbEntity
  8
F-0_補助線
  6
JWW_HOJO
 62
   120
370
     5
100
AcDbLine
 10
6159.917676803936
 20
-4455.0
 30
0.0
 11
-6140.081333436773
 21
-4455.0
 31
0.0
  0
LINE
  5
55
330
1F
100
AcDbEntity
  8
F-0_補助線
  6
JWW_HOJO
 62
     7
370
     9
100
AcDbLine
 10
1009.918254163523
 20
-3795.000003092998
 30
0.0
 11
1009.918254163523
 21
-4195.000008247994
 31
0.0
  0
LINE
  5
56
330
1F
100
AcDbEntity
  8
F-0_補助線
  6
JWW_HOJO
 62
     7
370
     9
100
AcDbLine
 10
509.9185840832865
 20
-3795.000003092998
 30
0.0
 11
509.9185840832865
 21
-4195.000008247994
 31
0.0
  0
LINE
  5
57
330
1F
100
AcDbEntity
  8
F-1_枠
  6
Continuous
 62
   200
370
    20
100
AcDbLine
 10
5859.917429364114
 20
4174.999769056166
 30
0.0
 11
5859.917429364114
 21
-4205.000164959882
 31
0.0
  0
LINE
  5
58
330
1F
100
AcDbEntity
  8
F-1_枠
  6
Continuous
 62
   200
370
    20
100
AcDbLine
 10
-5840.081317971782
 20
4174.999769056166
 30
0.0
 11
-5840.081317971782
 21
-4205.000164959882
 31
0.0
  0
LINE
  5
59
330
1F
100
AcDbEntity
  8
F-1_枠
  6
Continuous
 62
   200
370
    20
100
AcDbLine
 10
5859.917429364114
 20
-4205.000002577498
 30
0.0
 11
-5840.081085996952
 21
-4205.000002577498
 31
0.0
  0
LINE
  5
5A
330
1F
100
AcDbEntity
  8
F-1_枠
  6
Continuous
 62
   200
370
    20
100
AcDbLine
 10
-5830.081323642279
 20
4174.999769056166
 30
0.0
 11
-5830.081323642279
 21
-4205.000164959882
 31
0.0
  0
LINE
  5
5B
330
1F
100
AcDbEntity
  8
F-1_枠
  6
Continuous
 62
   200
370
    20
100
AcDbLine
 10
-5835.081309208291
 20
4174.999769056166
 30
0.0
 11
-5835.081309208291
 21
-4205.000164959882
 31
0.0
  0
LINE
  5
5C
330
1F
100
AcDbEntity
  8
F-1_枠
  6
Continuous
 62
   200
370
    20
100
AcDbLine
 10
5854.917165428304
 20
4174.999769056166
 30
0.0
 11
5854.917165428304
 21
-4205.000164959882
 31
0.0
  0
LINE
  5
5D
330
1F
100
AcDbEntity
  8
F-1_枠
  6
Continuous
 62
   200
370
    20
100
AcDbLine
 10
5849.917643811961
 20
4174.999769056166
 30
0.0
 11
5849.917643811961
 21
-4205.000164959882
 31
0.0
  0
LINE
  5
5E
330
1F
100
AcDbEntity
  8
F-1_枠
  6
Continuous
 62
   200
370
    20
100
AcDbLine
 10
5859.917429364114
 20
-4199.999993814004
 30
0.0
 11
-5840.081085996952
 21
-4199.999993814004
 31
0.0
  0
LINE
  5
5F
330
1F
100
AcDbEntity
  8
F-1_枠
  6
Continuous
 62
   200
370
    20
100
AcDbLine
 10
5859.917429364114
 20
-4195.000008247994
 30
0.0
 11
-5840.081085996952
 21
-4195.000008247994
 31
0.0
  0
LINE
  5
60
330
1F
100
AcDbEntity
  8
F-1_枠
  6
Continuous
 62
   200
370
    20
100
AcDbLine
 10
4349.917891251784
 20
-3795.000003092998
 30
0.0
 11
4349.917891251784
 21
-4195.000008247994
 31
0.0
  0
LINE
  5
61
330
1F
100
AcDbEntity
  8
F-1_枠
  6
Continuous
 62
   200
370
    20
100
AcDbLine
 10
2849.917396372139
 20
-3795.000003092998
 30
0.0
 11
2849.917396372139
 21
-4195.000008247994
 31
0.0
  0
LINE
  5
62
330
1F
100
AcDbEntity
  8
F-1_枠
  6
Continuous
 62
   200
370
    20
100
AcDbLine
 10
9.918542843316231
 20
-3795.000003092998
 30
0.0
 11
9.918542843316231
 21
-4195.000008247994
 31
0.0
  0
LINE
  5
63
330
1F
100
AcDbEntity
  8
F-1_枠
  6
Continuous
 62
   200
370
    20
100
AcDbLine
 10
9.918542843316231
 20
-3994.999936078046
 30
0.0
 11
5849.917643811961
 21
-3995.005364289155
 31
0.0
  0
LINE
  5
64
330
1F
100
AcDbEntity
  8
F-1_枠
  6
Continuous
 62
   200
370
    20
100
AcDbLine
 10
-5840.081085996952
 20
4174.999769056166
 30
0.0
 11
5859.917429364114
 21
4174.999769056166
 31
0.0
  0
LINE
  5
65
330
1F
100
AcDbEntity
  8
F-1_枠
  6
Continuous
 62
   200
370
    20
100
AcDbLine
 10
-5840.081085996952
 20
4164.999983504013
 30
0.0
 11
5859.917429364114
 21
4164.999983504013
 31
0.0
  0
LINE
  5
66
330
1F
100
AcDbEntity
  8
F-1_枠
  6
Continuous
 62
   200
370
    20
100
AcDbLine
 10
-5840.081085996952
 20
4169.999505120355
 30
0.0
 11
5859.917429364114
 21
4169.999505120355
 31
0.0
  0
LINE
  5
67
330
1F
100
AcDbEntity
  8
F-0_補助線
  6
JWW_HOJO
 62
     7
370
     9
100
AcDbLine
 10
-5830.081323642279
 20
-3994.99993607839
 30
0.0
 11
9.918542843316231
 21
-3994.99993607839
 31
0.0
  0
LINE
  5
68
330
1F
100
AcDbEntity
  8
F-0_補助線
  6
JWW_HOJO
 62
     7
370
     9
100
AcDbLine
 10
-5830.081323642279
 20
-3904.99993607839
 30
0.0
 11
9.918542843316231
 21
-3904.99993607839
 31
0.0
  0
LINE
  5
69
330
1F
100
AcDbEntity
  8
F-0_補助線
  6
JWW_HOJO
 62
     7
370
     9
100
AcDbLine
 10
-5830.081323642279
 20
-4084.99993607839
 30
0.0
 11
9.918542843316231
 21
-4084.99993607839
 31
0.0
  0
LINE
  5
6A
330
1F
100
AcDbEntity
  8
F-0_補助線
  6
JWW_HOJO
 62
     7
370
     9
100
AcDbLine
 10
9.918408067688347
 20
-4139.999739777983
 30
0.0
 11
5849.917509036332
 21
-4140.005167989091
 31
0.0
  0
LINE
  5
6B
330
1F
100
AcDbEntity
  8
F-0_補助線
  6
JWW_HOJO
 62
     7
370
     9
100
AcDbLine
 10
9.918593965360003
 20
-3939.99973721807
 30
0.0
 11
5849.917694934004
 21
-3940.005165429179
 31
0.0
  0
LINE
  5
6C
330
1F
100
AcDbEntity
  8
F-0_補助線
  6
JWW_HOJO
 62
     7
370
     9
100
AcDbLine
 10
9.918677619311609
 20
-3849.999737218109
 30
0.0
 11
5849.917778587956
 21
-3850.005165429218
 31
0.0
  0
LINE
  5
6D
330
1F
100
AcDbEntity
  8
F-0_補助線
  6
JWW_HOJO
 62
     7
370
     9
100
AcDbLine
 10
2939.917396372139
 20
-3795.000003092998
 30
0.0
 11
2939.917396372139
 21
-4195.000008247994
 31
0.0
  0
LINE
  5
6E
330
1F
100
AcDbEntity
  8
F-0_補助線
  6
JWW_HOJO
 62
     7
370
     9
100
AcDbLine
 10
99.91854284331623
 20
-3795.000003092998
 30
0.0
 11
99.91854284331623
 21
-4195.000008247994
 31
0.0
  0
LINE
  5
6F
330
1F
100
AcDbEntity
  8
F-0_補助線
  6
JWW_HOJO
 62
     7
370
     9
100
AcDbLine
 10
4439.917891251784
 20
-3795.000003092998
 30
0.0
 11
4439.917891251784
 21
-4195.000008247994
 31
0.0
  0
MTEXT
  5
70
330
1F
100
AcDbEntity
  8
F-0_補助線
  6
Continuous
 62
     7
370
     0
100
AcDbMText
 10
509.9185840832865
 20
-3946.496666872503
 30
0.0
 40
78.58125
 41
412.5
 46
0.0
 71
     7
 72
     1
  1
{\fＭＳ ゴシック|b0|i0|c128|p49;DOORETUS}
 73
     1
 44
1.0
  0
MTEXT
  5
71
330
1F
100
AcDbEntity
  8
F-0_補助線
  6
Continuous
 62
     7
370
     0
100
AcDbMText
 10
1110.209427605311
 20
-3946.734791872504
 30
0.0
 40
78.105
 41
615.0
 46
0.0
 71
     7
 72
     1
  1
{\fＭＳ ゴシック|b0|i0|c128|p49;建具納まり図}
 73
     1
 44
1.0
  0
MTEXT
  5
72
330
1F
100
AcDbEntity
  8
F-A_文字
  6
Continuous
 62
     7
370
     0
100
AcDbMText
 10
99.91854284331623
 20
-3887.139820871936
 30
0.0
 40
45.72
 41
180.0
 46
0.0
 71
     7
 72
     1
  1
{\fＭＳ ゴシック|b0|i0|c128|p49;図面名}
 73
     1
 44
1.0
  0
MTEXT
  5
73
330
1F
100
AcDbEntity
  8
F-A_文字
  6
Continuous
 62
     7
370
     0
100
AcDbMText
 10
2939.917396372139
 20
-3887.142460617774
 30
0.0
 40
45.72
 41
300.0
 46
0.0
 71
     7
 72
     1
  1
{\fＭＳ ゴシック|b0|i0|c128|p49;ＳＣＡＬＥ}
 73
     1
 44
1.0
  0
MTEXT
  5
74
330
1F
100
AcDbEntity
  8
F-A_文字
  6
Continuous
 62
     7
370
     0
100
AcDbMText
 10
4439.917891251784
 20
-3887.143854850754
 30
0.0
 40
45.72
 41
240.0
 46
0.0
 71
     7
 72
     1
  1
{\fＭＳ ゴシック|b0|i0|c128|p49;ＤＡＴＥ}
 73
     1
 44
1.0
  0
MTEXT
  5
75
330
1F
100
AcDbEntity
  8
F-A_文字
  6
Continuous
 62
     7
370
     0
100
AcDbMText
 10
3569.917643811961
 20
-3946.903115907308
 30
0.0
 40
76.19999999999999
 41
150.0
 46
0.0
 71
     7
 72
     1
  1
{\fＭＳ ゴシック|b0|i0|c128|p49;1/5}
 73
     1
 44
1.0
  0
LINE
  5
76
330
1F
100
AcDbEntity
  8
F-1_枠
  6
Continuous
 62
   200
370
    20
100
AcDbLine
 10
5859.917429364114
 20
-3795.000003092998
 30
0.0
 11
-5840.081085996952
 21
-3795.000003092998
 31
0.0
  0
LINE
  5
77
330
1F
100
AcDbEntity
  8
F-1_枠
  6
Continuous
 62
   200
370
    20
100
AcDbLine
 10
5859.917429364114
 20
-3790.000017526987
 30
0.0
 11
-5840.081085996952
 21
-3790.000017526987
 31
0.0
  0
LINE
  5
78
330
1F
100
AcDbEntity
  8
F-0_補助線
  6
JWW_HOJO
 62
     7
370
     9
100
AcDbLine
 10
-5087.628710189611
 20
-3795.000003092999
 30
0.0
 11
-5087.628710189611
 21
-4205.000164959882
 31
0.0
  0
MTEXT
  5
79
330
1F
100
AcDbEntity
  8
F-A_文字
  6
Continuous
 62
     7
370
     0
100
AcDbMText
 10
2939.917396372139
 20
-4087.14246317786
 30
0.0
 40
45.72
 41
240.0
 46
0.0
 71
     7
 72
     1
  1
{\fＭＳ ゴシック|b0|i0|c128|p49;ＦＩＬＥ}
 73
     1
 44
1.0
  0
LINE
  5
7A
330
1F
100
AcDbEntity
  8
F-0_補助線
  6
JWW_HOJO
 62
     7
370
     9
100
AcDbLine
 10
-50.08145715668377
 20
-3795.000003092998
 30
0.0
 11
-50.08145715668377
 21
-4195.000008247994
 31
0.0
  0
MTEXT
  5
7B
330
1F
100
AcDbEntity
  8
F-A_文字
  6
Continuous
 62
     7
370
     0
100
AcDbMText
 10
4439.917891251784
 20
-4087.143857410839
 30
0.0
 40
45.72
 41
180.0
 46
0.0
 71
     7
 72
     1
  1
{\fＭＳ ゴシック|b0|i0|c128|p49;ＮＯ．}
 73
     1
 44
1.0
  0
MTEXT
  5
7C
330
1F
100
AcDbEntity
  8
F-A_文字
  6
Continuous
 62
     7
370
     0
100
AcDbMText
 10
1394.917396372138
 20
-4096.140669266149
 30
0.0
 40
45.72
 41
120.0
 46
0.0
 71
     7
 72
     1
  1
{\fＭＳ ゴシック|b0|i0|c128|p49;株式}
 73
     1
 44
1.0
  0
MTEXT
  5
7D
330
1F
100
AcDbEntity
  8
F-A_文字
  6
Continuous
 62
     7
370
     0
100
AcDbMText
 10
1604.917396372138
 20
-4164.281754523929
 30
0.0
 40
101.44125
 41
1065.0
 46
0.0
 71
     7
 72
     1
  1
{\fＭＳ ゴシック|b0|i0|c128|p49;ウッドワン・・・}
 73
     1
 44
1.0
  0
MTEXT
  5
7E
330
1F
100
AcDbEntity
  8
F-A_文字
  6
Continuous
 62
     7
370
     0
100
AcDbMText
 10
1394.917396372138
 20
-4168.140669266187
 30
0.0
 40
45.72
 41
120.0
 46
0.0
 71
     7
 72
     1
  1
{\fＭＳ ゴシック|b0|i0|c128|p49;会社}
 73
     1
 44
1.0
  0
MTEXT
  5
7F
330
1F
100
AcDbEntity
  8
F-A_文字
  6
Continuous
 62
     7
370
     0
100
AcDbMText
 10
5768.321977672939
 20
-4314.841419020919
 30
0.0
 40
68.58
 41
90.0
 46
0.0
 71
     7
 72
     1
  1
{\fＭＳ ゴシック|b0|i0|c128|p49;）}
 73
     1
 44
1.0
  0
MTEXT
  5
80
330
1F
100
AcDbEntity
  8
F-A_文字
  6
Continuous
 62
     7
370
     0
100
AcDbMText
 10
5350.114617405298
 20
-4316.235443869856
 30
0.0
 40
68.58
 41
45.0
 46
0.0
 71
     7
 72
     1
  1
{\fＭＳ ゴシック|b0|i0|c128|p49;,}
 73
     1
 44
1.0
  0
MTEXT
  5
81
330
1F
100
AcDbEntity
  8
F-A_文字
  6
Continuous
 62
     7
370
     0
100
AcDbMText
 10
5083.855928478601
 20
-4314.771967288282
 30
0.0
 40
74.295
 41
97.5
 46
0.0
 71
     7
 72
     1
  1
{\fＭＳ ゴシック|b0|i0|c128|p49;$y}
 73
     1
 44
1.0
  0
MTEXT
  5
82
330
1F
100
AcDbEntity
  8
F-A_文字
  6
Continuous
 62
     7
370
     0
100
AcDbMText
 10
5238.592649517422
 20
-4314.771967288282
 30
0.0
 40
74.295
 41
97.5
 46
0.0
 71
     7
 72
     1
  1
{\fＭＳ ゴシック|b0|i0|c128|p49;$m}
 73
     1
 44
1.0
  0
MTEXT
  5
83
330
1F
100
AcDbEntity
  8
F-A_文字
  6
Continuous
 62
     7
370
     0
100
AcDbMText
 10
5393.32938200033
 20
-4314.771967288282
 30
0.0
 40
74.295
 41
97.5
 46
0.0
 71
     7
 72
     1
  1
{\fＭＳ ゴシック|b0|i0|c128|p49;$d}
 73
     1
 44
1.0
  0
MTEXT
  5
84
330
1F
100
AcDbEntity
  8
F-A_文字
  6
Continuous
 62
     7
370
     0
100
AcDbMText
 10
5548.066114483239
 20
-4314.771967288282
 30
0.0
 40
74.295
 41
195.0
 46
0.0
 71
     7
 72
     1
  1
{\fＭＳ ゴシック|b0|i0|c128|p49;印刷}
 73
     1
 44
1.0
  0
MTEXT
  5
85
330
1F
100
AcDbEntity
  8
F-A_文字
  6
Continuous
 62
     7
370
     0
100
AcDbMText
 10
4943.952040816226
 20
-4319.023493567732
 30
0.0
 40
68.58
 41
90.0
 46
0.0
 71
     7
 72
     1
  1
{\fＭＳ ゴシック|b0|i0|c128|p49;（}
 73
     1
 44
1.0
  0
MTEXT
  5
86
330
1F
100
AcDbEntity
  8
F-A_文字
  6
Continuous
 62
     7
370
     0
100
AcDbMText
 10
5191.195810375571
 20
-4319.023493567732
 30
0.0
 40
68.58
 41
45.0
 46
0.0
 71
     7
 72
     1
  1
{\fＭＳ ゴシック|b0|i0|c128|p49;,}
 73
     1
 44
1.0
  0
LINE
  5
87
330
1F
100
AcDbEntity
  8
0-A_文字
  6
Continuous
 62
    92
370
    13
100
AcDbLine
 10
-5659.999495325861
 20
4000.000181455871
 30
0.0
 11
-5659.999495325861
 21
3730.000181455871
 31
0.0
  0
MTEXT
  5
88
330
1F
100
AcDbEntity
  8
0-B_寸法
  6
Continuous
 62
     7
370
     0
100
AcDbMText
 10
-70.53858865923658
 20
-1858.084213261242
 30
0.0
 40
101.8309090909091
 41
735.0
 46
0.0
 71
     7
 72
     1
  1
{\fＭＳ ゴシック|b0|i0|c128|p49;枠外＝2,400}
 11
6.123031769111886E-17
 21
1.0
 31
0.0
 73
     1
 44
1.0
  0
MTEXT
  5
89
330
1F
100
AcDbEntity
  8
0-B_寸法
  6
Continuous
 62
     7
370
   211
100
AcDbMText
 10
-286.6239382325323
 20
-1858.084213261242
 30
0.0
 40
101.8309090909091
 41
735.0
 46
0.0
 71
     7
 72
     1
  1
{\fＭＳ ゴシック|b0|i0|c128|p49;枠内＝2,400}
 11
6.123031769111886E-17
 21
1.0
 31
0.0
 73
     1
 44
1.0
  0
MTEXT
  5
8A
330
1F
100
AcDbEntity
  8
0-B_寸法
  6
Continuous
 62
     7
370
     0
100
AcDbMText
 10
-494.7047588772115
 20
-1858.084213261242
 30
0.0
 40
101.8309090909091
 41
735.0
 46
0.0
 71
     7
 72
     1
  1
{\fＭＳ ゴシック|b0|i0|c128|p49;ＤＨ＝2,377}
 11
6.123031769111886E-17
 21
1.0
 31
0.0
 73
     1
 44
1.0
  0
LINE
  5
8B
330
1F
100
AcDbEntity
  8
0-0_補助線
  6
JWW_HOJO
 62
   120
370
     5
100
AcDbLine
 10
-901.623938232532
 20
-1421.499922571958
 30
0.0
 11
-2083.623938232534
 21
-1421.499922571958
 31
0.0
  0
LINE
  5
8C
330
1F
100
AcDbEntity
  8
0-0_補助線
  6
JWW_HOJO
 62
   120
370
     5
100
AcDbLine
 10
-901.623938232532
 20
-1541.499922571958
 30
0.0
 11
-2083.623938232534
 21
-1541.499922571958
 31
0.0
  0
LINE
  5
8D
330
1F
100
AcDbEntity
  8
0-0_補助線
  6
JWW_HOJO
 62
   120
370
     5
100
AcDbLine
 10
-2473.623938232533
 20
282.5367943122129
 30
0.0
 11
-61.62393823253225
 21
282.5367943122129
 31
0.0
  0
LINE
  5
8E
330
1F
100
AcDbEntity
  8
0-0_補助線
  6
JWW_HOJO
 62
   120
370
     5
100
AcDbLine
 10
-2473.623938232533
 20
462.5367943122129
 30
0.0
 11
-61.62393823253225
 21
462.5367943122129
 31
0.0
  0
LINE
  5
8F
330
1F
100
AcDbEntity
  8
0-4_枠
  6
Continuous
 62
   120
370
     5
100
AcDbLine
 10
-1027.623938232528
 20
119.0005843703727
 30
0.0
 11
-1027.623938232528
 21
-1421.499922571958
 31
0.0
  0
LINE
  5
90
330
1F
100
AcDbEntity
  8
0-4_枠
  6
Continuous
 62
   120
370
     5
100
AcDbLine
 10
-1957.623938232528
 20
119.0005843703727
 30
0.0
 11
-1957.623938232528
 21
-1421.499922571958
 31
0.0
  0
LINE
  5
91
330
1F
100
AcDbEntity
  8
0-B_寸法
  6
Continuous
 62
   120
370
     5
100
AcDbLine
 10
-61.6239382325314
 20
108.2002914016212
 30
0.0
 11
-691.6239382325323
 21
108.2002914016212
 31
0.0
  0
LWPOLYLINE
  5
92
330
1F
100
AcDbEntity
  8
0-B_寸法
  6
Continuous
 62
     7
370
     9
100
AcDbPolyline
 90
        4
 70
     1
 43
3.0
 10
-60.12393823253141
 20
108.2002914016212
 42
0.4142135623731
 10
-61.6239382325314
 20
109.7002914016212
 42
0.4142135623731
 10
-63.12393823253139
 20
108.2002914016212
 42
0.4142135623731
 10
-61.6239382325314
 20
106.7002914016212
 42
0.4142135623731
  0
LWPOLYLINE
  5
93
330
1F
100
AcDbEntity
  8
0-B_寸法
  6
Continuous
 62
     7
370
     9
100
AcDbPolyline
 90
        4
 70
     1
 43
3.0
 10
-270.1239382325322
 20
108.2002914016212
 42
0.4142135623731
 10
-271.6239382325323
 20
109.7002914016212
 42
0.4142135623731
 10
-273.1239382325323
 20
108.2002914016212
 42
0.4142135623731
 10
-271.6239382325323
 20
106.7002914016212
 42
0.4142135623731
  0
LWPOLYLINE
  5
94
330
1F
100
AcDbEntity
  8
0-B_寸法
  6
Continuous
 62
     7
370
     9
100
AcDbPolyline
 90
        4
 70
     1
 43
3.0
 10
-480.1239382325322
 20
59.00058437037274
 42
0.4142135623731
 10
-481.6239382325323
 20
60.50058437037273
 42
0.4142135623731
 10
-483.1239382325323
 20
59.00058437037274
 42
0.4142135623731
 10
-481.6239382325323
 20
57.50058437037274
 42
0.4142135623731
  0
LINE
  5
95
330
1F
100
AcDbEntity
  8
0-B_寸法
  6
Continuous
 62
   120
370
     5
100
AcDbLine
 10
-481.6239382325323
 20
59.00058437037274
 30
0.0
 11
-691.6239382325323
 21
59.00058437037274
 31
0.0
  0
LWPOLYLINE
  5
96
330
1F
100
AcDbEntity
  8
0-B_寸法
  6
Continuous
 62
     7
370
     9
100
AcDbPolyline
 90
        4
 70
     1
 43
3.0
 10
-480.1239382325322
 20
108.2002914016212
 42
0.4142135623731
 10
-481.6239382325323
 20
109.7002914016212
 42
0.4142135623731
 10
-483.1239382325323
 20
108.2002914016212
 42
0.4142135623731
 10
-481.6239382325323
 20
106.7002914016212
 42
0.4142135623731
  0
MTEXT
  5
97
330
1F
100
AcDbEntity
  8
0-B_寸法
  6
Continuous
 62
     7
370
     0
100
AcDbMText
 10
-494.6019327920238
 20
-88.58629723792899
 30
0.0
 40
97.15499999999999
 41
127.5
 46
0.0
 71
     7
 72
     1
  1
{\fＭＳ ゴシック|b0|i0|c128|p49;10}
 11
6.123031769111886E-17
 21
1.0
 31
0.0
 73
     1
 44
1.0
  0
LINE
  5
98
330
1F
100
AcDbEntity
  8
0-C_ハッチ
  6
JWW_DASHED1
 62
   120
370
     5
100
AcDbLine
 10
-704.2490393651407
 20
119.0005843703727
 30
0.0
 11
-691.6239382325323
 21
131.6256855029803
 31
0.0
  0
LINE
  5
99
330
1F
100
AcDbEntity
  8
0-C_ハッチ
  6
JWW_DASHED1
 62
   120
370
     5
100
AcDbLine
 10
-746.6754462363092
 20
119.0005843703727
 30
0.0
 11
-691.6239382325323
 21
174.0520923741514
 31
0.0
  0
LINE
  5
9A
330
1F
100
AcDbEntity
  8
0-0_補助線
  6
JWW_HOJO
 62
   120
370
     5
100
AcDbLine
 10
-2293.623938232533
 20
194.0005843703727
 30
0.0
 11
-691.6239382325323
 21
194.0005843703727
 31
0.0
  0
LINE
  5
9B
330
1F
100
AcDbEntity
  8
0-6_扉
  6
Continuous
 62
   200
370
    20
100
AcDbLine
 10
-1303.623938232528
 20
59.00058437037274
 30
0.0
 11
-1087.623938232528
 21
59.00058437037274
 31
0.0
  0
LINE
  5
9C
330
1F
100
AcDbEntity
  8
0-C_ハッチ
  6
JWW_DASHED1
 62
   120
370
     5
100
AcDbLine
 10
-2293.623938232533
 20
141.8291466084835
 30
0.0
 11
-2241.452500470642
 21
194.0005843703727
 31
0.0
  0
LINE
  5
9D
330
1F
100
AcDbEntity
  8
0-C_ハッチ
  6
JWW_DASHED1
 62
   120
370
     5
100
AcDbLine
 10
-2293.623938232533
 20
184.2555534796989
 30
0.0
 11
-2283.878907341858
 21
194.0005843703727
 31
0.0
  0
LINE
  5
9E
330
1F
100
AcDbEntity
  8
0-C_ハッチ
  6
JWW_DASHED1
 62
   120
370
     5
100
AcDbLine
 10
-789.1018531074777
 20
119.0005843703727
 30
0.0
 11
-714.1018531074759
 21
194.0005843703727
 31
0.0
  0
LINE
  5
9F
330
1F
100
AcDbEntity
  8
0-C_ハッチ
  6
JWW_DASHED1
 62
   120
370
     5
100
AcDbLine
 10
-1128.513108077133
 20
119.0005843703727
 30
0.0
 11
-1053.513108077128
 21
194.0005843703727
 31
0.0
  0
LINE
  5
A0
330
1F
100
AcDbEntity
  8
0-C_ハッチ
  6
JWW_DASHED1
 62
   120
370
     5
100
AcDbLine
 10
-1170.939514948293
 20
119.0005843703727
 30
0.0
 11
-1095.939514948295
 21
194.0005843703727
 31
0.0
  0
LINE
  5
A1
330
1F
100
AcDbEntity
  8
0-C_ハッチ
  6
JWW_DASHED1
 62
   120
370
     5
100
AcDbLine
 10
-1213.365921819462
 20
119.0005843703727
 30
0.0
 11
-1138.36592181946
 21
194.0005843703727
 31
0.0
  0
LINE
  5
A2
330
1F
100
AcDbEntity
  8
0-C_ハッチ
  6
JWW_DASHED1
 62
   120
370
     5
100
AcDbLine
 10
-831.5282599786956
 20
119.0005843703727
 30
0.0
 11
-756.5282599786913
 21
194.0005843703727
 31
0.0
  0
LINE
  5
A3
330
1F
100
AcDbEntity
  8
0-C_ハッチ
  6
JWW_DASHED1
 62
   120
370
     5
100
AcDbLine
 10
-873.9546668498564
 20
119.0005843703727
 30
0.0
 11
-798.9546668498581
 21
194.0005843703727
 31
0.0
  0
LINE
  5
A4
330
1F
100
AcDbEntity
  8
0-C_ハッチ
  6
JWW_DASHED1
 62
   120
370
     5
100
AcDbLine
 10
-916.3810737210249
 20
119.0005843703727
 30
0.0
 11
-841.3810737210232
 21
194.0005843703727
 31
0.0
  0
LINE
  5
A5
330
1F
100
AcDbEntity
  8
0-C_ハッチ
  6
JWW_DASHED1
 62
   120
370
     5
100
AcDbLine
 10
-958.8074805922421
 20
119.0005843703727
 30
0.0
 11
-883.8074805922386
 21
194.0005843703727
 31
0.0
  0
LINE
  5
A6
330
1F
100
AcDbEntity
  8
0-C_ハッチ
  6
JWW_DASHED1
 62
   120
370
     5
100
AcDbLine
 10
-1001.233887463444
 20
119.0005843703727
 30
0.0
 11
-926.2338874634411
 21
194.0005843703727
 31
0.0
  0
LINE
  5
A7
330
1F
100
AcDbEntity
  8
0-C_ハッチ
  6
JWW_DASHED1
 62
   120
370
     5
100
AcDbLine
 10
-1043.660294334614
 20
119.0005843703727
 30
0.0
 11
-968.6602943346138
 21
194.0005843703727
 31
0.0
  0
LINE
  5
A8
330
1F
100
AcDbEntity
  8
0-C_ハッチ
  6
JWW_DASHED1
 62
   120
370
     5
100
AcDbLine
 10
-1086.086701205914
 20
119.0005843703727
 30
0.0
 11
-1011.086701205904
 21
194.0005843703727
 31
0.0
  0
LINE
  5
A9
330
1F
100
AcDbEntity
  8
0-C_ハッチ
  6
JWW_DASHED1
 62
   120
370
     5
100
AcDbLine
 10
-2231.599686728315
 20
119.0005843703727
 30
0.0
 11
-2156.599686728311
 21
194.0005843703727
 31
0.0
  0
LINE
  5
AA
330
1F
100
AcDbEntity
  8
0-C_ハッチ
  6
JWW_DASHED1
 62
   120
370
     5
100
AcDbLine
 10
-2274.026093599476
 20
119.0005843703727
 30
0.0
 11
-2199.026093599477
 21
194.0005843703727
 31
0.0
  0
LINE
  5
AB
330
1F
100
AcDbEntity
  8
0-C_ハッチ
  6
JWW_DASHED1
 62
   120
370
     5
100
AcDbLine
 10
-1934.614838629878
 20
119.0005843703727
 30
0.0
 11
-1859.614838629874
 21
194.0005843703727
 31
0.0
  0
LINE
  5
AC
330
1F
100
AcDbEntity
  8
0-C_ハッチ
  6
JWW_DASHED1
 62
   120
370
     5
100
AcDbLine
 10
-1977.041245501039
 20
119.0005843703727
 30
0.0
 11
-1902.041245501041
 21
194.0005843703727
 31
0.0
  0
LINE
  5
AD
330
1F
100
AcDbEntity
  8
0-C_ハッチ
  6
JWW_DASHED1
 62
   120
370
     5
100
AcDbLine
 10
-2019.467652372207
 20
119.0005843703727
 30
0.0
 11
-1944.467652372206
 21
194.0005843703727
 31
0.0
  0
LINE
  5
AE
330
1F
100
AcDbEntity
  8
0-C_ハッチ
  6
JWW_DASHED1
 62
   120
370
     5
100
AcDbLine
 10
-2061.894059243424
 20
119.0005843703727
 30
0.0
 11
-1986.894059243421
 21
194.0005843703727
 31
0.0
  0
LINE
  5
AF
330
1F
100
AcDbEntity
  8
0-C_ハッチ
  6
JWW_DASHED1
 62
   120
370
     5
100
AcDbLine
 10
-2104.320466114627
 20
119.0005843703727
 30
0.0
 11
-2029.320466114624
 21
194.0005843703727
 31
0.0
  0
LINE
  5
B0
330
1F
100
AcDbEntity
  8
0-C_ハッチ
  6
JWW_DASHED1
 62
   120
370
     5
100
AcDbLine
 10
-2146.746872985796
 20
119.0005843703727
 30
0.0
 11
-2071.746872985796
 21
194.0005843703727
 31
0.0
  0
LINE
  5
B1
330
1F
100
AcDbEntity
  8
0-C_ハッチ
  6
JWW_DASHED1
 62
   120
370
     5
100
AcDbLine
 10
-2189.173279857097
 20
119.0005843703727
 30
0.0
 11
-2114.173279857087
 21
194.0005843703727
 31
0.0
  0
LINE
  5
B2
330
1F
100
AcDbEntity
  8
0-C_ハッチ
  6
JWW_DASHED1
 62
   120
370
     5
100
AcDbLine
 10
-1255.792328690672
 20
119.0005843703727
 30
0.0
 11
-1180.792328690675
 21
194.0005843703727
 31
0.0
  0
LINE
  5
B3
330
1F
100
AcDbEntity
  8
0-C_ハッチ
  6
JWW_DASHED1
 62
   120
370
     5
100
AcDbLine
 10
-1298.218735561889
 20
119.0005843703727
 30
0.0
 11
-1223.21873556188
 21
194.0005843703727
 31
0.0
  0
LINE
  5
B4
330
1F
100
AcDbEntity
  8
0-C_ハッチ
  6
JWW_DASHED1
 62
   120
370
     5
100
AcDbLine
 10
-1340.645142433066
 20
119.0005843703727
 30
0.0
 11
-1265.645142433066
 21
194.0005843703727
 31
0.0
  0
LINE
  5
B5
330
1F
100
AcDbEntity
  8
0-C_ハッチ
  6
JWW_DASHED1
 62
   120
370
     5
100
AcDbLine
 10
-1383.071549304212
 20
119.0005843703727
 30
0.0
 11
-1308.071549304213
 21
194.0005843703727
 31
0.0
  0
LINE
  5
B6
330
1F
100
AcDbEntity
  8
0-C_ハッチ
  6
JWW_DASHED1
 62
   120
370
     5
100
AcDbLine
 10
-1425.497956175422
 20
119.0005843703727
 30
0.0
 11
-1350.49795617542
 21
194.0005843703727
 31
0.0
  0
LINE
  5
B7
330
1F
100
AcDbEntity
  8
0-C_ハッチ
  6
JWW_DASHED1
 62
   120
370
     5
100
AcDbLine
 10
-1467.924363046626
 20
119.0005843703727
 30
0.0
 11
-1392.924363046622
 21
194.0005843703727
 31
0.0
  0
LINE
  5
B8
330
1F
100
AcDbEntity
  8
0-C_ハッチ
  6
JWW_DASHED1
 62
   120
370
     5
100
AcDbLine
 10
-1510.35076991783
 20
119.0005843703727
 30
0.0
 11
-1435.350769917827
 21
194.0005843703727
 31
0.0
  0
LINE
  5
B9
330
1F
100
AcDbEntity
  8
0-C_ハッチ
  6
JWW_DASHED1
 62
   120
370
     5
100
AcDbLine
 10
-1552.777176789019
 20
119.0005843703727
 30
0.0
 11
-1477.777176789017
 21
194.0005843703727
 31
0.0
  0
LINE
  5
BA
330
1F
100
AcDbEntity
  8
0-C_ハッチ
  6
JWW_DASHED1
 62
   120
370
     5
100
AcDbLine
 10
-1595.203583660213
 20
119.0005843703727
 30
0.0
 11
-1520.203583660213
 21
194.0005843703727
 31
0.0
  0
LINE
  5
BB
330
1F
100
AcDbEntity
  8
0-C_ハッチ
  6
JWW_DASHED1
 62
   120
370
     5
100
AcDbLine
 10
-1637.629990531441
 20
119.0005843703727
 30
0.0
 11
-1562.629990531437
 21
194.0005843703727
 31
0.0
  0
LINE
  5
BC
330
1F
100
AcDbEntity
  8
0-C_ハッチ
  6
JWW_DASHED1
 62
   120
370
     5
100
AcDbLine
 10
-1680.056397402602
 20
119.0005843703727
 30
0.0
 11
-1605.056397402604
 21
194.0005843703727
 31
0.0
  0
LINE
  5
BD
330
1F
100
AcDbEntity
  8
0-C_ハッチ
  6
JWW_DASHED1
 62
   120
370
     5
100
AcDbLine
 10
-1722.482804273771
 20
119.0005843703727
 30
0.0
 11
-1647.482804273769
 21
194.0005843703727
 31
0.0
  0
LINE
  5
BE
330
1F
100
AcDbEntity
  8
0-C_ハッチ
  6
JWW_DASHED1
 62
   120
370
     5
100
AcDbLine
 10
-1764.909211144988
 20
119.0005843703727
 30
0.0
 11
-1689.909211144985
 21
194.0005843703727
 31
0.0
  0
LINE
  5
BF
330
1F
100
AcDbEntity
  8
0-C_ハッチ
  6
JWW_DASHED1
 62
   120
370
     5
100
AcDbLine
 10
-1807.33561801619
 20
119.0005843703727
 30
0.0
 11
-1732.335618016187
 21
194.0005843703727
 31
0.0
  0
LINE
  5
C0
330
1F
100
AcDbEntity
  8
0-C_ハッチ
  6
JWW_DASHED1
 62
   120
370
     5
100
AcDbLine
 10
-1849.76202488736
 20
119.0005843703727
 30
0.0
 11
-1774.76202488736
 21
194.0005843703727
 31
0.0
  0
LINE
  5
C1
330
1F
100
AcDbEntity
  8
0-C_ハッチ
  6
JWW_DASHED1
 62
   120
370
     5
100
AcDbLine
 10
-1892.18843175866
 20
119.0005843703727
 30
0.0
 11
-1817.18843175865
 21
194.0005843703727
 31
0.0
  0
LINE
  5
C2
330
1F
100
AcDbEntity
  8
0-6_扉
  6
Continuous
 62
   200
370
    20
100
AcDbLine
 10
-1087.623938232528
 20
59.00058437037274
 30
0.0
 11
-1087.623938232528
 21
-1421.49966780748
 31
0.0
  0
LINE
  5
C3
330
1F
100
AcDbEntity
  8
0-6_扉
  6
Continuous
 62
   200
370
    20
100
AcDbLine
 10
-1303.623938232528
 20
59.00058437037274
 30
0.0
 11
-1303.623938232528
 21
-1421.49966780748
 31
0.0
  0
LINE
  5
C4
330
1F
100
AcDbEntity
  8
0-3_仕上げ
  6
Continuous
 62
    40
370
    15
100
AcDbLine
 10
-2293.623938232533
 20
194.0005843703727
 30
0.0
 11
-691.6239382325323
 21
194.0005843703727
 31
0.0
  0
LINE
  5
C5
330
1F
100
AcDbEntity
  8
0-3_仕上げ
  6
Continuous
 62
     7
370
     9
100
AcDbLine
 10
-2293.623938232533
 20
119.0005843703727
 30
0.0
 11
-691.6239382325323
 21
119.0005843703727
 31
0.0
  0
LINE
  5
C6
330
1F
100
AcDbEntity
  8
0-B_寸法
  6
Continuous
 62
   120
370
     5
100
AcDbLine
 10
-1957.623938232528
 20
-200.329698284454
 30
0.0
 11
-1027.623938232528
 21
-200.329698284454
 31
0.0
  0
LWPOLYLINE
  5
C7
330
1F
100
AcDbEntity
  8
0-B_寸法
  6
Continuous
 62
     7
370
     9
100
AcDbPolyline
 90
        4
 70
     1
 43
3.0
 10
-1956.123938232529
 20
-200.329698284454
 42
0.4142135623731
 10
-1957.623938232528
 20
-198.829698284454
 42
0.4142135623731
 10
-1959.123938232528
 20
-200.329698284454
 42
0.4142135623731
 10
-1957.623938232528
 20
-201.829698284454
 42
0.4142135623731
  0
LWPOLYLINE
  5
C8
330
1F
100
AcDbEntity
  8
0-B_寸法
  6
Continuous
 62
     7
370
     9
100
AcDbPolyline
 90
        4
 70
     1
 43
3.0
 10
-1026.123938232529
 20
-200.329698284454
 42
0.4142135623731
 10
-1027.623938232528
 20
-198.829698284454
 42
0.4142135623731
 10
-1029.123938232528
 20
-200.329698284454
 42
0.4142135623731
 10
-1027.623938232528
 20
-201.829698284454
 42
0.4142135623731
  0
LINE
  5
C9
330
1F
100
AcDbEntity
  8
0-B_寸法
  6
Continuous
 62
   120
370
     5
100
AcDbLine
 10
-1957.623938232528
 20
-200.329698284454
 30
0.0
 11
-1957.623938232528
 21
6.802440539145493
 31
0.0
  0
LINE
  5
CA
330
1F
100
AcDbEntity
  8
0-B_寸法
  6
Continuous
 62
   120
370
     5
100
AcDbLine
 10
-1027.623938232528
 20
-200.329698284454
 30
0.0
 11
-1027.623938232528
 21
6.802440539145493
 31
0.0
  0
LINE
  5
CB
330
1F
100
AcDbEntity
  8
0-4_枠
  6
Continuous
 62
   120
370
     5
100
AcDbLine
 10
-1957.623938232528
 20
-1541.499922571958
 30
0.0
 11
-1957.623938232528
 21
-3087.999827616932
 31
0.0
  0
LINE
  5
CC
330
1F
100
AcDbEntity
  8
0-4_枠
  6
Continuous
 62
   120
370
     5
100
AcDbLine
 10
-1027.623938232528
 20
-1541.499922571958
 30
0.0
 11
-1027.623938232528
 21
-3087.999827616932
 31
0.0
  0
LWPOLYLINE
  5
CD
330
1F
100
AcDbEntity
  8
0-B_寸法
  6
Continuous
 62
     7
370
     9
100
AcDbPolyline
 90
        4
 70
     1
 43
3.0
 10
-60.12393823253226
 20
-3087.999827616932
 42
0.4142135623731
 10
-61.62393823253225
 20
-3086.499827616932
 42
0.4142135623731
 10
-63.12393823253225
 20
-3087.999827616932
 42
0.4142135623731
 10
-61.62393823253225
 20
-3089.499827616932
 42
0.4142135623731
  0
LINE
  5
CE
330
1F
100
AcDbEntity
  8
0-B_寸法
  6
Continuous
 62
   120
370
     5
100
AcDbLine
 10
-61.62393823253225
 20
-3087.999827616932
 30
0.0
 11
-691.6239382325314
 21
-3087.999827616932
 31
0.0
  0
LWPOLYLINE
  5
CF
330
1F
100
AcDbEntity
  8
0-B_寸法
  6
Continuous
 62
     7
370
     9
100
AcDbPolyline
 90
        4
 70
     1
 43
3.0
 10
-270.1239382325322
 20
-3087.999827616932
 42
0.4142135623731
 10
-271.6239382325323
 20
-3086.499827616932
 42
0.4142135623731
 10
-273.1239382325323
 20
-3087.999827616932
 42
0.4142135623731
 10
-271.6239382325323
 20
-3089.499827616932
 42
0.4142135623731
  0
LWPOLYLINE
  5
D0
330
1F
100
AcDbEntity
  8
0-B_寸法
  6
Continuous
 62
     7
370
     9
100
AcDbPolyline
 90
        4
 70
     1
 43
3.0
 10
-480.1239382325322
 20
-3009.999827616933
 42
0.4142135623731
 10
-481.6239382325323
 20
-3008.499827616933
 42
0.4142135623731
 10
-483.1239382325323
 20
-3009.999827616933
 42
0.4142135623731
 10
-481.6239382325323
 20
-3011.499827616932
 42
0.4142135623731
  0
LINE
  5
D1
330
1F
100
AcDbEntity
  8
0-B_寸法
  6
Continuous
 62
   120
370
     5
100
AcDbLine
 10
-481.6239382325323
 20
-3009.999827616933
 30
0.0
 11
-691.6239382325314
 21
-3009.999827616933
 31
0.0
  0
LWPOLYLINE
  5
D2
330
1F
100
AcDbEntity
  8
0-B_寸法
  6
Continuous
 62
     7
370
     9
100
AcDbPolyline
 90
        4
 70
     1
 43
3.0
 10
-480.1239382325322
 20
-3159.999621623279
 42
0.4142135623731
 10
-481.6239382325323
 20
-3158.49962162328
 42
0.4142135623731
 10
-483.1239382325323
 20
-3159.999621623279
 42
0.4142135623731
 10
-481.6239382325323
 20
-3161.499621623279
 42
0.4142135623731
  0
LWPOLYLINE
  5
D3
330
1F
100
AcDbEntity
  8
0-B_寸法
  6
Continuous
 62
     7
370
     9
100
AcDbPolyline
 90
        4
 70
     1
 43
3.0
 10
-480.1239382325322
 20
-3087.999827616932
 42
0.4142135623731
 10
-481.6239382325323
 20
-3086.499827616932
 42
0.4142135623731
 10
-483.1239382325323
 20
-3087.999827616932
 42
0.4142135623731
 10
-481.6239382325323
 20
-3089.499827616932
 42
0.4142135623731
  0
LINE
  5
D4
330
1F
100
AcDbEntity
  8
0-B_寸法
  6
Continuous
 62
   120
370
     5
100
AcDbLine
 10
-481.6239382325323
 20
-3159.999621623279
 30
0.0
 11
-691.6239382325314
 21
-3159.999621623279
 31
0.0
  0
MTEXT
  5
D5
330
1F
100
AcDbEntity
  8
0-B_寸法
  6
Continuous
 62
     7
370
     0
100
AcDbMText
 10
-497.8760062402247
 20
-3036.965654672204
 30
0.0
 40
97.15499999999999
 41
127.5
 46
0.0
 71
     7
 72
     1
  1
{\fＭＳ ゴシック|b0|i0|c128|p49;13}
 11
6.123031769111886E-17
 21
1.0
 31
0.0
 73
     1
 44
1.0
  0
MTEXT
  5
D6
330
1F
100
AcDbEntity
  8
0-B_寸法
  6
Continuous
 62
     7
370
     0
100
AcDbMText
 10
-494.7991770836045
 20
-3293.880379987816
 30
0.0
 40
97.15499999999999
 41
127.5
 46
0.0
 71
     7
 72
     1
  1
{\fＭＳ ゴシック|b0|i0|c128|p49;12}
 11
6.123031769111886E-17
 21
1.0
 31
0.0
 73
     1
 44
1.0
  0
LINE
  5
D7
330
1F
100
AcDbEntity
  8
0-6_扉
  6
Continuous
 62
   200
370
    20
100
AcDbLine
 10
-1087.623938232528
 20
-3009.999827616933
 30
0.0
 11
-1303.623938232528
 21
-3009.999827616933
 31
0.0
  0
MTEXT
  5
D8
330
1F
100
AcDbEntity
  8
0-A_文字
  6
Continuous
 62
    92
370
     0
100
AcDbMText
 10
-2227.623938232528
 20
-3502.769621623279
 30
0.0
 40
124.46
 41
1470.0
 46
0.0
 71
     7
 72
     1
  1
{\fＭＳ ゴシック|b0|i0|c128|p49;【ドア通気タイプ】}
 73
     1
 44
1.0
  0
LINE
  5
D9
330
1F
100
AcDbEntity
  8
0-6_扉
  6
Continuous
 62
   200
370
    20
100
AcDbLine
 10
-1087.623938232528
 20
-1541.49966780748
 30
0.0
 11
-1087.623938232528
 21
-3009.999827616933
 31
0.0
  0
LINE
  5
DA
330
1F
100
AcDbEntity
  8
0-6_扉
  6
Continuous
 62
   200
370
    20
100
AcDbLine
 10
-1303.623938232528
 20
-1541.49966780748
 30
0.0
 11
-1303.623938232528
 21
-3009.999827616933
 31
0.0
  0
LINE
  5
DB
330
1F
100
AcDbEntity
  8
0-0_補助線
  6
JWW_HOJO
 62
   120
370
     5
100
AcDbLine
 10
-2473.623938232533
 20
-3159.999621354846
 30
0.0
 11
-61.62393823253225
 21
-3159.999621354846
 31
0.0
  0
LINE
  5
DC
330
1F
100
AcDbEntity
  8
0-A_文字
  6
Continuous
 62
     7
370
     9
100
AcDbLine
 10
-2260.236834232123
 20
-3035.118329684346
 30
0.0
 11
-2230.236834232123
 21
-3087.079853911411
 31
0.0
  0
LINE
  5
DD
330
1F
100
AcDbEntity
  8
0-A_文字
  6
Continuous
 62
     7
370
     9
100
AcDbLine
 10
-2260.236834232123
 20
-3035.118329684346
 30
0.0
 11
-2200.236834232123
 21
-3035.118329684346
 31
0.0
  0
LINE
  5
DE
330
1F
100
AcDbEntity
  8
0-A_文字
  6
Continuous
 62
     7
370
     9
100
AcDbLine
 10
-2200.236834232123
 20
-3035.118329684346
 30
0.0
 11
-2230.236834232122
 21
-3087.079853911411
 31
0.0
  0
LINE
  5
DF
330
1F
100
AcDbEntity
  8
0-1_通り芯
  6
JWW_CENTER1
 62
   120
370
     5
100
AcDbLine
 10
-2293.623938232533
 20
-3159.999621623279
 30
0.0
 11
-691.6239382325323
 21
-3159.999621623279
 31
0.0
  0
LINE
  5
E0
330
1F
100
AcDbEntity
  8
0-3_仕上げ
  6
Continuous
 62
     7
370
     9
100
AcDbLine
 10
-691.6239382325323
 20
-3096.999827616931
 30
0.0
 11
-2293.623938232533
 21
-3096.999827616931
 31
0.0
  0
LINE
  5
E1
330
1F
100
AcDbEntity
  8
0-3_仕上げ
  6
Continuous
 62
     7
370
     9
100
AcDbLine
 10
-691.6239382325323
 20
-3105.999827616931
 30
0.0
 11
-2293.623938232533
 21
-3105.999827616931
 31
0.0
  0
LINE
  5
E2
330
1F
100
AcDbEntity
  8
0-3_仕上げ
  6
Continuous
 62
     7
370
     9
100
AcDbLine
 10
-691.6239382325323
 20
-3114.999827616934
 30
0.0
 11
-2293.623938232533
 21
-3114.999827616934
 31
0.0
  0
LINE
  5
E3
330
1F
100
AcDbEntity
  8
0-3_仕上げ
  6
Continuous
 62
     7
370
     9
100
AcDbLine
 10
-691.6239382325323
 20
-3123.999827616932
 30
0.0
 11
-2293.623938232533
 21
-3123.999827616932
 31
0.0
  0
LINE
  5
E4
330
1F
100
AcDbEntity
  8
0-3_仕上げ
  6
Continuous
 62
     7
370
     9
100
AcDbLine
 10
-691.6239382325323
 20
-3132.999827616931
 30
0.0
 11
-2293.623938232533
 21
-3132.999827616931
 31
0.0
  0
LINE
  5
E5
330
1F
100
AcDbEntity
  8
0-3_仕上げ
  6
Continuous
 62
     7
370
     9
100
AcDbLine
 10
-691.6239382325323
 20
-3141.999827616931
 30
0.0
 11
-2293.623938232533
 21
-3141.999827616931
 31
0.0
  0
LINE
  5
E6
330
1F
100
AcDbEntity
  8
0-3_仕上げ
  6
Continuous
 62
     7
370
     9
100
AcDbLine
 10
-691.6239382325323
 20
-3150.999827616931
 30
0.0
 11
-2293.623938232533
 21
-3150.999827616931
 31
0.0
  0
LINE
  5
E7
330
1F
100
AcDbEntity
  8
0-3_仕上げ
  6
Continuous
 62
    40
370
    15
100
AcDbLine
 10
-691.6239382325323
 20
-3087.999827616932
 30
0.0
 11
-2293.623938232533
 21
-3087.999827616932
 31
0.0
  0
LINE
  5
E8
330
1F
100
AcDbEntity
  8
0-3_仕上げ
  6
Continuous
 62
    40
370
    15
100
AcDbLine
 10
-691.6239382325323
 20
-3159.999827616934
 30
0.0
 11
-2293.623938232533
 21
-3159.999827616934
 31
0.0
  0
LINE
  5
E9
330
1F
100
AcDbEntity
  8
0-0_補助線
  6
JWW_HOJO
 62
   120
370
     5
100
AcDbLine
 10
-61.62393823253225
 20
462.5367943122129
 30
0.0
 11
-61.62393823253225
 21
-3159.999621354846
 31
0.0
  0
LINE
  5
EA
330
1F
100
AcDbEntity
  8
0-0_補助線
  6
JWW_HOJO
 62
   120
370
     5
100
AcDbLine
 10
-271.6239382325323
 20
462.5367943122129
 30
0.0
 11
-271.6239382325323
 21
-3159.999621354846
 31
0.0
  0
LINE
  5
EB
330
1F
100
AcDbEntity
  8
0-0_補助線
  6
JWW_HOJO
 62
   120
370
     5
100
AcDbLine
 10
-481.6239382325323
 20
462.5367943122129
 30
0.0
 11
-481.6239382325323
 21
-3159.999621354846
 31
0.0
  0
LINE
  5
EC
330
1F
100
AcDbEntity
  8
0-0_補助線
  6
JWW_HOJO
 62
   120
370
     5
100
AcDbLine
 10
-691.6239382325323
 20
462.5367943122129
 30
0.0
 11
-691.6239382325323
 21
-3159.999621354846
 31
0.0
  0
LINE
  5
ED
330
1F
100
AcDbEntity
  8
0-0_補助線
  6
JWW_HOJO
 62
   120
370
     5
100
AcDbLine
 10
-2293.623938232533
 20
462.5367943122129
 30
0.0
 11
-2293.623938232533
 21
-3159.999621354846
 31
0.0
  0
LINE
  5
EE
330
1F
100
AcDbEntity
  8
0-0_補助線
  6
JWW_HOJO
 62
   120
370
     5
100
AcDbLine
 10
-2473.623938232533
 20
-3159.999621354846
 30
0.0
 11
-2473.623938232533
 21
462.5367943122129
 31
0.0
  0
LINE
  5
EF
330
1F
100
AcDbEntity
  8
0-B_寸法
  6
Continuous
 62
   120
370
     5
100
AcDbLine
 10
-61.62393823253225
 20
108.2002914016212
 30
0.0
 11
-61.62393823253225
 21
-3087.999827616932
 31
0.0
  0
LINE
  5
F0
330
1F
100
AcDbEntity
  8
0-B_寸法
  6
Continuous
 62
   120
370
     5
100
AcDbLine
 10
-271.6239382325323
 20
108.2002914016212
 30
0.0
 11
-271.6239382325323
 21
-3087.999827616932
 31
0.0
  0
LINE
  5
F1
330
1F
100
AcDbEntity
  8
0-B_寸法
  6
Continuous
 62
   120
370
     5
100
AcDbLine
 10
-481.6239382325323
 20
108.2002914016212
 30
0.0
 11
-481.6239382325323
 21
-3159.999621623279
 31
0.0
  0
LINE
  5
F2
330
1F
100
AcDbEntity
  8
0-1_通り芯
  6
JWW_CENTER1
 62
   120
370
     5
100
AcDbLine
 10
-1492.623938232528
 20
176.0005843703703
 30
0.0
 11
-1492.623938232528
 21
-3279.999827616934
 31
0.0
  0
LINE
  5
F3
330
1F
100
AcDbEntity
  8
0-0_補助線
  6
JWW_HOJO
 62
   120
370
     5
100
AcDbLine
 10
-3104.999628840267
 20
1878.229351964742
 30
0.0
 11
-3104.999628840267
 21
3168.229351964742
 31
0.0
  0
LINE
  5
F4
330
1F
100
AcDbEntity
  8
0-0_補助線
  6
JWW_HOJO
 62
   120
370
     5
100
AcDbLine
 10
3105.000371159736
 20
3168.229351964742
 30
0.0
 11
-3104.999628840267
 21
3168.229351964742
 31
0.0
  0
LINE
  5
F5
330
1F
100
AcDbEntity
  8
0-0_補助線
  6
JWW_HOJO
 62
   120
370
     5
100
AcDbLine
 10
3105.000371159736
 20
1878.229351964742
 30
0.0
 11
-3104.999628840267
 21
1878.229351964742
 31
0.0
  0
LINE
  5
F6
330
1F
100
AcDbEntity
  8
0-1_通り芯
  6
JWW_CENTER1
 62
   120
370
     5
100
AcDbLine
 10
3105.000371159736
 20
2523.229351964742
 30
0.0
 11
-3104.999628840267
 21
2523.229351964742
 31
0.0
  0
LINE
  5
F7
330
1F
100
AcDbEntity
  8
0-C_ハッチ
  6
JWW_DASHED1
 62
   120
370
     5
100
AcDbLine
 10
-3104.999628840267
 20
2899.239158337664
 30
0.0
 11
-3091.009435213189
 21
2913.229351964741
 31
0.0
  0
LINE
  5
F8
330
1F
100
AcDbEntity
  8
0-C_ハッチ
  6
JWW_DASHED1
 62
   120
370
     5
100
AcDbLine
 10
-3104.99962884026
 20
2177.990241527377
 30
0.0
 11
-3074.760518402903
 21
2208.229351964735
 31
0.0
  0
LINE
  5
F9
330
1F
100
AcDbEntity
  8
0-C_ハッチ
  6
JWW_DASHED1
 62
   120
370
     5
100
AcDbLine
 10
-3006.156621470837
 20
2913.229351964746
 30
0.0
 11
-3081.156621470848
 21
2838.229351964734
 31
0.0
  0
LINE
  5
FA
330
1F
100
AcDbEntity
  8
0-C_ハッチ
  6
JWW_DASHED1
 62
   120
370
     5
100
AcDbLine
 10
-3048.583028341989
 20
2913.229351964737
 30
0.0
 11
-3104.99962884026
 21
2856.812751466466
 31
0.0
  0
LINE
  5
FB
330
1F
100
AcDbEntity
  8
0-C_ハッチ
  6
JWW_DASHED1
 62
   120
370
     5
100
AcDbLine
 10
-2989.907704660552
 20
2208.229351964742
 30
0.0
 11
-3064.907704660559
 21
2133.22935196473
 31
0.0
  0
LINE
  5
FC
330
1F
100
AcDbEntity
  8
0-C_ハッチ
  6
JWW_DASHED1
 62
   120
370
     5
100
AcDbLine
 10
-3032.334111531746
 20
2208.229351964746
 30
0.0
 11
-3104.999628840254
 21
2135.563834656237
 31
0.0
  0
LINE
  5
FD
330
1F
100
AcDbEntity
  8
0-3_仕上げ
  6
Continuous
 62
    40
370
    15
100
AcDbLine
 10
-1904.999628840266
 20
2838.229351964742
 30
0.0
 11
-3104.999628840267
 21
2838.229351964742
 31
0.0
  0
LINE
  5
FE
330
1F
100
AcDbEntity
  8
0-3_仕上げ
  6
Continuous
 62
    40
370
    15
100
AcDbLine
 10
-1904.999628840266
 20
2208.229351964742
 30
0.0
 11
-3104.999628840267
 21
2208.229351964742
 31
0.0
  0
LINE
  5
FF
330
1F
100
AcDbEntity
  8
0-3_仕上げ
  6
Continuous
 62
    40
370
    15
100
AcDbLine
 10
-1904.999628840266
 20
2133.229351964742
 30
0.0
 11
-3104.999628840267
 21
2133.229351964742
 31
0.0
  0
LINE
  5
100
330
1F
100
AcDbEntity
  8
0-3_仕上げ
  6
Continuous
 62
    40
370
    15
100
AcDbLine
 10
-1904.999628840266
 20
2913.229351964742
 30
0.0
 11
-3104.999628840267
 21
2913.229351964742
 31
0.0
  0
LINE
  5
101
330
1F
100
AcDbEntity
  8
0-0_補助線
  6
JWW_HOJO
 62
   120
370
     5
100
AcDbLine
 10
69.00037115973414
 20
3168.229351964742
 30
0.0
 11
69.00037115973414
 21
1878.229351964742
 31
0.0
  0
LINE
  5
102
330
1F
100
AcDbEntity
  8
0-0_補助線
  6
JWW_HOJO
 62
   120
370
     5
100
AcDbLine
 10
-50.99962884026587
 20
3168.229351964742
 30
0.0
 11
-50.99962884026587
 21
1878.229351964742
 31
0.0
  0
LINE
  5
103
330
1F
100
AcDbEntity
  8
0-C_ハッチ
  6
JWW_DASHED1
 62
   120
370
     5
100
AcDbLine
 10
3051.583770661487
 20
2133.229351964732
 30
0.0
 11
3105.000371159736
 21
2186.645952462982
 31
0.0
  0
LINE
  5
104
330
1F
100
AcDbEntity
  8
0-C_ハッチ
  6
JWW_DASHED1
 62
   120
370
     5
100
AcDbLine
 10
3094.010177532687
 20
2133.229351964732
 30
0.0
 11
3105.000371159736
 21
2144.219545591782
 31
0.0
  0
LINE
  5
105
330
1F
100
AcDbEntity
  8
0-C_ハッチ
  6
JWW_DASHED1
 62
   120
370
     5
100
AcDbLine
 10
3077.761260722403
 20
2838.229351964737
 30
0.0
 11
3105.000371159736
 21
2865.46846240207
 31
0.0
  0
LINE
  5
106
330
1F
100
AcDbEntity
  8
0-C_ハッチ
  6
JWW_DASHED1
 62
   120
370
     5
100
AcDbLine
 10
3035.334853851203
 20
2838.229351964737
 30
0.0
 11
3105.000371159736
 21
2907.89486927327
 31
0.0
  0
LINE
  5
107
330
1F
100
AcDbEntity
  8
0-C_ハッチ
  6
JWW_DASHED1
 62
   120
370
     5
100
AcDbLine
 10
2992.908446980003
 20
2838.229351964737
 30
0.0
 11
3067.908446980014
 21
2913.229351964749
 31
0.0
  0
LINE
  5
108
330
1F
100
AcDbEntity
  8
0-C_ハッチ
  6
JWW_DASHED1
 62
   120
370
     5
100
AcDbLine
 10
3009.157363790287
 20
2133.229351964732
 30
0.0
 11
3084.1573637903
 21
2208.229351964744
 31
0.0
  0
LINE
  5
109
330
1F
100
AcDbEntity
  8
0-3_仕上げ
  6
Continuous
 62
    40
370
    15
100
AcDbLine
 10
3105.000371159736
 20
2208.229351964742
 30
0.0
 11
1905.000371159735
 21
2208.229351964742
 31
0.0
  0
LINE
  5
10A
330
1F
100
AcDbEntity
  8
0-3_仕上げ
  6
Continuous
 62
    40
370
    15
100
AcDbLine
 10
3105.000371159736
 20
2838.229351964742
 30
0.0
 11
1905.000371159735
 21
2838.229351964742
 31
0.0
  0
LINE
  5
10B
330
1F
100
AcDbEntity
  8
0-3_仕上げ
  6
Continuous
 62
    40
370
    15
100
AcDbLine
 10
3105.000371159736
 20
2913.229351964742
 30
0.0
 11
1905.000371159735
 21
2913.229351964742
 31
0.0
  0
LINE
  5
10C
330
1F
100
AcDbEntity
  8
0-3_仕上げ
  6
Continuous
 62
    40
370
    15
100
AcDbLine
 10
3105.000371159736
 20
2133.229351964742
 30
0.0
 11
1905.000371159735
 21
2133.229351964742
 31
0.0
  0
LINE
  5
10D
330
1F
100
AcDbEntity
  8
0-C_ハッチ
  6
JWW_DASHED1
 62
   120
370
     5
100
AcDbLine
 10
2950.482040108799
 20
2838.229351964734
 30
0.0
 11
3025.482040108814
 21
2913.229351964749
 31
0.0
  0
LINE
  5
10E
330
1F
100
AcDbEntity
  8
0-C_ハッチ
  6
JWW_DASHED1
 62
   120
370
     5
100
AcDbLine
 10
2908.055633237603
 20
2838.229351964737
 30
0.0
 11
2983.055633237614
 21
2913.229351964749
 31
0.0
  0
LINE
  5
10F
330
1F
100
AcDbEntity
  8
0-C_ハッチ
  6
JWW_DASHED1
 62
   120
370
     5
100
AcDbLine
 10
2865.629226366464
 20
2838.229351964744
 30
0.0
 11
2940.629226366457
 21
2913.229351964737
 31
0.0
  0
LINE
  5
110
330
1F
100
AcDbEntity
  8
0-C_ハッチ
  6
JWW_DASHED1
 62
   120
370
     5
100
AcDbLine
 10
2823.202819495268
 20
2838.229351964749
 30
0.0
 11
2898.202819495261
 21
2913.229351964741
 31
0.0
  0
LINE
  5
111
330
1F
100
AcDbEntity
  8
0-C_ハッチ
  6
JWW_DASHED1
 62
   120
370
     5
100
AcDbLine
 10
2780.776412624073
 20
2838.229351964753
 30
0.0
 11
2855.776412624064
 21
2913.229351964744
 31
0.0
  0
LINE
  5
112
330
1F
100
AcDbEntity
  8
0-C_ハッチ
  6
JWW_DASHED1
 62
   120
370
     5
100
AcDbLine
 10
2738.350005752868
 20
2838.229351964748
 30
0.0
 11
2813.350005752867
 21
2913.229351964748
 31
0.0
  0
LINE
  5
113
330
1F
100
AcDbEntity
  8
0-C_ハッチ
  6
JWW_DASHED1
 62
   120
370
     5
100
AcDbLine
 10
2695.923598881671
 20
2838.229351964751
 30
0.0
 11
2770.923598881671
 21
2913.229351964749
 31
0.0
  0
LINE
  5
114
330
1F
100
AcDbEntity
  8
0-C_ハッチ
  6
JWW_DASHED1
 62
   120
370
     5
100
AcDbLine
 10
2653.497192010453
 20
2838.229351964732
 30
0.0
 11
2728.497192010466
 21
2913.229351964746
 31
0.0
  0
LINE
  5
115
330
1F
100
AcDbEntity
  8
0-C_ハッチ
  6
JWW_DASHED1
 62
   120
370
     5
100
AcDbLine
 10
2611.070785139256
 20
2838.229351964735
 30
0.0
 11
2686.07078513927
 21
2913.229351964751
 31
0.0
  0
LINE
  5
116
330
1F
100
AcDbEntity
  8
0-C_ハッチ
  6
JWW_DASHED1
 62
   120
370
     5
100
AcDbLine
 10
2568.644378268059
 20
2838.229351964739
 30
0.0
 11
2643.644378268075
 21
2913.229351964755
 31
0.0
  0
LINE
  5
117
330
1F
100
AcDbEntity
  8
0-C_ハッチ
  6
JWW_DASHED1
 62
   120
370
     5
100
AcDbLine
 10
2526.217971396923
 20
2838.229351964748
 30
0.0
 11
2601.217971396909
 21
2913.229351964734
 31
0.0
  0
LINE
  5
118
330
1F
100
AcDbEntity
  8
0-C_ハッチ
  6
JWW_DASHED1
 62
   120
370
     5
100
AcDbLine
 10
2483.791564525725
 20
2838.229351964751
 30
0.0
 11
2558.791564525712
 21
2913.229351964737
 31
0.0
  0
LINE
  5
119
330
1F
100
AcDbEntity
  8
0-C_ハッチ
  6
JWW_DASHED1
 62
   120
370
     5
100
AcDbLine
 10
2966.730956919089
 20
2133.229351964732
 30
0.0
 11
3041.730956919112
 21
2208.229351964755
 31
0.0
  0
LINE
  5
11A
330
1F
100
AcDbEntity
  8
0-C_ハッチ
  6
JWW_DASHED1
 62
   120
370
     5
100
AcDbLine
 10
2924.30455004789
 20
2133.229351964732
 30
0.0
 11
2999.304550047901
 21
2208.229351964744
 31
0.0
  0
LINE
  5
11B
330
1F
100
AcDbEntity
  8
0-C_ハッチ
  6
JWW_DASHED1
 62
   120
370
     5
100
AcDbLine
 10
2881.878143176694
 20
2133.229351964735
 30
0.0
 11
2956.878143176705
 21
2208.229351964748
 31
0.0
  0
LINE
  5
11C
330
1F
100
AcDbEntity
  8
0-C_ハッチ
  6
JWW_DASHED1
 62
   120
370
     5
100
AcDbLine
 10
2839.451736305555
 20
2133.229351964745
 30
0.0
 11
2914.451736305548
 21
2208.229351964737
 31
0.0
  0
LINE
  5
11D
330
1F
100
AcDbEntity
  8
0-C_ハッチ
  6
JWW_DASHED1
 62
   120
370
     5
100
AcDbLine
 10
2797.025329434359
 20
2133.229351964748
 30
0.0
 11
2872.025329434352
 21
2208.229351964739
 31
0.0
  0
LINE
  5
11E
330
1F
100
AcDbEntity
  8
0-C_ハッチ
  6
JWW_DASHED1
 62
   120
370
     5
100
AcDbLine
 10
2754.598922563164
 20
2133.229351964752
 30
0.0
 11
2829.598922563154
 21
2208.229351964742
 31
0.0
  0
LINE
  5
11F
330
1F
100
AcDbEntity
  8
0-C_ハッチ
  6
JWW_DASHED1
 62
   120
370
     5
100
AcDbLine
 10
2712.172515691959
 20
2133.229351964748
 30
0.0
 11
2787.172515691957
 21
2208.229351964746
 31
0.0
  0
LINE
  5
120
330
1F
100
AcDbEntity
  8
0-C_ハッチ
  6
JWW_DASHED1
 62
   120
370
     5
100
AcDbLine
 10
2669.746108820762
 20
2133.229351964751
 30
0.0
 11
2744.746108820761
 21
2208.229351964749
 31
0.0
  0
LINE
  5
121
330
1F
100
AcDbEntity
  8
0-C_ハッチ
  6
JWW_DASHED1
 62
   120
370
     5
100
AcDbLine
 10
2627.319701949548
 20
2133.229351964738
 30
0.0
 11
2702.319701949564
 21
2208.229351964753
 31
0.0
  0
LINE
  5
122
330
1F
100
AcDbEntity
  8
0-C_ハッチ
  6
JWW_DASHED1
 62
   120
370
     5
100
AcDbLine
 10
2584.893295078347
 20
2133.229351964735
 30
0.0
 11
2659.893295078361
 21
2208.229351964749
 31
0.0
  0
LINE
  5
123
330
1F
100
AcDbEntity
  8
0-C_ハッチ
  6
JWW_DASHED1
 62
   120
370
     5
100
AcDbLine
 10
2542.466888207151
 20
2133.229351964738
 30
0.0
 11
2617.466888207164
 21
2208.229351964753
 31
0.0
  0
LINE
  5
124
330
1F
100
AcDbEntity
  8
0-C_ハッチ
  6
JWW_DASHED1
 62
   120
370
     5
100
AcDbLine
 10
2500.040481336014
 20
2133.229351964748
 30
0.0
 11
2575.040481336
 21
2208.229351964734
 31
0.0
  0
LINE
  5
125
330
1F
100
AcDbEntity
  8
0-C_ハッチ
  6
JWW_DASHED1
 62
   120
370
     5
100
AcDbLine
 10
1905.000371159735
 20
2174.585344856416
 30
0.0
 11
1938.644378268054
 21
2208.229351964732
 31
0.0
  0
LINE
  5
126
330
1F
100
AcDbEntity
  8
0-C_ハッチ
  6
JWW_DASHED1
 62
   120
370
     5
100
AcDbLine
 10
1905.535578149502
 20
2132.694144974977
 30
0.0
 11
1981.07078513925
 21
2208.229351964728
 31
0.0
  0
LINE
  5
127
330
1F
100
AcDbEntity
  8
0-C_ハッチ
  6
JWW_DASHED1
 62
   120
370
     5
100
AcDbLine
 10
1905.000371159735
 20
2895.83426166665
 30
0.0
 11
1922.395461457827
 21
2913.229351964739
 31
0.0
  0
LINE
  5
128
330
1F
100
AcDbEntity
  8
0-C_ハッチ
  6
JWW_DASHED1
 62
   120
370
     5
100
AcDbLine
 10
1905.000371159735
 20
2853.407854795452
 30
0.0
 11
1964.821868329023
 21
2913.229351964735
 31
0.0
  0
LINE
  5
129
330
1F
100
AcDbEntity
  8
0-C_ハッチ
  6
JWW_DASHED1
 62
   120
370
     5
100
AcDbLine
 10
2441.365157654516
 20
2838.229351964741
 30
0.0
 11
2516.365157654516
 21
2913.229351964741
 31
0.0
  0
LINE
  5
12A
330
1F
100
AcDbEntity
  8
0-C_ハッチ
  6
JWW_DASHED1
 62
   120
370
     5
100
AcDbLine
 10
2398.938750783307
 20
2838.229351964732
 30
0.0
 11
2463.988033739738
 21
2903.278634921161
 31
0.0
  0
LINE
  5
12B
330
1F
100
AcDbEntity
  8
0-C_ハッチ
  6
JWW_DASHED1
 62
   120
370
     5
100
AcDbLine
 10
2356.512343912112
 20
2838.229351964735
 30
0.0
 11
2431.512343912124
 21
2913.229351964746
 31
0.0
  0
LINE
  5
12C
330
1F
100
AcDbEntity
  8
0-C_ハッチ
  6
JWW_DASHED1
 62
   120
370
     5
100
AcDbLine
 10
2314.085937040911
 20
2838.229351964735
 30
0.0
 11
2389.085937040909
 21
2913.229351964732
 31
0.0
  0
LINE
  5
12D
330
1F
100
AcDbEntity
  8
0-C_ハッチ
  6
JWW_DASHED1
 62
   120
370
     5
100
AcDbLine
 10
2271.659530169713
 20
2838.229351964739
 30
0.0
 11
2346.659530169711
 21
2913.229351964735
 31
0.0
  0
LINE
  5
12E
330
1F
100
AcDbEntity
  8
0-C_ハッチ
  6
JWW_DASHED1
 62
   120
370
     5
100
AcDbLine
 10
2229.233123298575
 20
2838.229351964746
 30
0.0
 11
2304.233123298572
 21
2913.229351964742
 31
0.0
  0
LINE
  5
12F
330
1F
100
AcDbEntity
  8
0-C_ハッチ
  6
JWW_DASHED1
 62
   120
370
     5
100
AcDbLine
 10
2186.80671642738
 20
2838.229351964749
 30
0.0
 11
2261.806716427375
 21
2913.229351964746
 31
0.0
  0
LINE
  5
130
330
1F
100
AcDbEntity
  8
0-C_ハッチ
  6
JWW_DASHED1
 62
   120
370
     5
100
AcDbLine
 10
2144.380309556182
 20
2838.229351964751
 30
0.0
 11
2219.380309556179
 21
2913.229351964748
 31
0.0
  0
LINE
  5
131
330
1F
100
AcDbEntity
  8
0-C_ハッチ
  6
JWW_DASHED1
 62
   120
370
     5
100
AcDbLine
 10
2101.953902684968
 20
2838.229351964737
 30
0.0
 11
2176.953902684982
 21
2913.229351964751
 31
0.0
  0
LINE
  5
132
330
1F
100
AcDbEntity
  8
0-C_ハッチ
  6
JWW_DASHED1
 62
   120
370
     5
100
AcDbLine
 10
2059.527495813768
 20
2838.229351964735
 30
0.0
 11
2134.527495813778
 21
2913.229351964746
 31
0.0
  0
LINE
  5
133
330
1F
100
AcDbEntity
  8
0-C_ハッチ
  6
JWW_DASHED1
 62
   120
370
     5
100
AcDbLine
 10
2017.101088942558
 20
2838.229351964727
 30
0.0
 11
2092.101088942554
 21
2913.229351964726
 31
0.0
  0
LINE
  5
134
330
1F
100
AcDbEntity
  8
0-C_ハッチ
  6
JWW_DASHED1
 62
   120
370
     5
100
AcDbLine
 10
1974.674682071361
 20
2838.22935196473
 30
0.0
 11
2049.674682071358
 21
2913.229351964727
 31
0.0
  0
LINE
  5
135
330
1F
100
AcDbEntity
  8
0-C_ハッチ
  6
JWW_DASHED1
 62
   120
370
     5
100
AcDbLine
 10
1932.248275200165
 20
2838.229351964732
 30
0.0
 11
2007.248275200161
 21
2913.229351964728
 31
0.0
  0
LINE
  5
136
330
1F
100
AcDbEntity
  8
0-C_ハッチ
  6
JWW_DASHED1
 62
   120
370
     5
100
AcDbLine
 10
2457.614074464816
 20
2133.229351964751
 30
0.0
 11
2532.614074464803
 21
2208.229351964737
 31
0.0
  0
LINE
  5
137
330
1F
100
AcDbEntity
  8
0-C_ハッチ
  6
JWW_DASHED1
 62
   120
370
     5
100
AcDbLine
 10
2415.187667593607
 20
2133.229351964741
 30
0.0
 11
2490.187667593605
 21
2208.229351964739
 31
0.0
  0
LINE
  5
138
330
1F
100
AcDbEntity
  8
0-C_ハッチ
  6
JWW_DASHED1
 62
   120
370
     5
100
AcDbLine
 10
2372.761260722412
 20
2133.229351964746
 30
0.0
 11
2447.761260722426
 21
2208.229351964757
 31
0.0
  0
LINE
  5
139
330
1F
100
AcDbEntity
  8
0-C_ハッチ
  6
JWW_DASHED1
 62
   120
370
     5
100
AcDbLine
 10
2330.334853851202
 20
2133.229351964735
 30
0.0
 11
2405.334853851196
 21
2208.22935196473
 31
0.0
  0
LINE
  5
13A
330
1F
100
AcDbEntity
  8
0-C_ハッチ
  6
JWW_DASHED1
 62
   120
370
     5
100
AcDbLine
 10
2287.908446980001
 20
2133.229351964734
 30
0.0
 11
2362.908446979998
 21
2208.229351964732
 31
0.0
  0
LINE
  5
13B
330
1F
100
AcDbEntity
  8
0-C_ハッチ
  6
JWW_DASHED1
 62
   120
370
     5
100
AcDbLine
 10
2245.482040108805
 20
2133.229351964738
 30
0.0
 11
2320.482040108802
 21
2208.229351964735
 31
0.0
  0
LINE
  5
13C
330
1F
100
AcDbEntity
  8
0-C_ハッチ
  6
JWW_DASHED1
 62
   120
370
     5
100
AcDbLine
 10
2203.055633237608
 20
2133.229351964738
 30
0.0
 11
2278.055633237605
 21
2208.229351964735
 31
0.0
  0
LINE
  5
13D
330
1F
100
AcDbEntity
  8
0-C_ハッチ
  6
JWW_DASHED1
 62
   120
370
     5
100
AcDbLine
 10
2160.62922636647
 20
2133.229351964746
 30
0.0
 11
2235.629226366466
 21
2208.229351964742
 31
0.0
  0
LINE
  5
13E
330
1F
100
AcDbEntity
  8
0-C_ハッチ
  6
JWW_DASHED1
 62
   120
370
     5
100
AcDbLine
 10
2118.202819495273
 20
2133.229351964749
 30
0.0
 11
2193.20281949527
 21
2208.229351964746
 31
0.0
  0
LINE
  5
13F
330
1F
100
AcDbEntity
  8
0-C_ハッチ
  6
JWW_DASHED1
 62
   120
370
     5
100
AcDbLine
 10
2075.776412624059
 20
2133.229351964735
 30
0.0
 11
2150.776412624071
 21
2208.229351964749
 31
0.0
  0
LINE
  5
140
330
1F
100
AcDbEntity
  8
0-C_ハッチ
  6
JWW_DASHED1
 62
   120
370
     5
100
AcDbLine
 10
2033.350005752857
 20
2133.229351964735
 30
0.0
 11
2108.350005752868
 21
2208.229351964746
 31
0.0
  0
LINE
  5
141
330
1F
100
AcDbEntity
  8
0-C_ハッチ
  6
JWW_DASHED1
 62
   120
370
     5
100
AcDbLine
 10
1990.923598881661
 20
2133.229351964738
 30
0.0
 11
2065.923598881656
 21
2208.229351964734
 31
0.0
  0
LINE
  5
142
330
1F
100
AcDbEntity
  8
0-C_ハッチ
  6
JWW_DASHED1
 62
   120
370
     5
100
AcDbLine
 10
1948.49719201045
 20
2133.229351964728
 30
0.0
 11
2023.497192010448
 21
2208.229351964726
 31
0.0
  0
LINE
  5
143
330
1F
100
AcDbEntity
  8
0-0_補助線
  6
JWW_HOJO
 62
   120
370
     5
100
AcDbLine
 10
3105.000371159736
 20
1878.229351964742
 30
0.0
 11
3105.000371159736
 21
3168.229351964742
 31
0.0
  0
LINE
  5
144
330
1F
100
AcDbEntity
  8
0-C_ハッチ
  6
JWW_DASHED1
 62
   120
370
     5
100
AcDbLine
 10
-2656.892552758891
 20
2838.229351964744
 30
0.0
 11
-2581.892552758898
 21
2913.229351964742
 31
0.0
  0
LINE
  5
145
330
1F
100
AcDbEntity
  8
0-C_ハッチ
  6
JWW_DASHED1
 62
   120
370
     5
100
AcDbLine
 10
-2699.318959630105
 20
2838.22935196473
 30
0.0
 11
-2624.318959630091
 21
2913.229351964744
 31
0.0
  0
LINE
  5
146
330
1F
100
AcDbEntity
  8
0-C_ハッチ
  6
JWW_DASHED1
 62
   120
370
     5
100
AcDbLine
 10
-2741.745366501302
 20
2838.229351964734
 30
0.0
 11
-2666.745366501288
 21
2913.229351964748
 31
0.0
  0
LINE
  5
147
330
1F
100
AcDbEntity
  8
0-C_ハッチ
  6
JWW_DASHED1
 62
   120
370
     5
100
AcDbLine
 10
-2784.171773372443
 20
2838.229351964741
 30
0.0
 11
-2709.171773372457
 21
2913.229351964728
 31
0.0
  0
LINE
  5
148
330
1F
100
AcDbEntity
  8
0-C_ハッチ
  6
JWW_DASHED1
 62
   120
370
     5
100
AcDbLine
 10
-2826.598180243637
 20
2838.229351964744
 30
0.0
 11
-2751.598180243647
 21
2913.229351964734
 31
0.0
  0
LINE
  5
149
330
1F
100
AcDbEntity
  8
0-C_ハッチ
  6
JWW_DASHED1
 62
   120
370
     5
100
AcDbLine
 10
-2869.024587114834
 20
2838.229351964748
 30
0.0
 11
-2794.024587114844
 21
2913.229351964737
 31
0.0
  0
LINE
  5
14A
330
1F
100
AcDbEntity
  8
0-C_ハッチ
  6
JWW_DASHED1
 62
   120
370
     5
100
AcDbLine
 10
-2911.450993986037
 20
2838.229351964746
 30
0.0
 11
-2836.450993986043
 21
2913.229351964742
 31
0.0
  0
LINE
  5
14B
330
1F
100
AcDbEntity
  8
0-C_ハッチ
  6
JWW_DASHED1
 62
   120
370
     5
100
AcDbLine
 10
-2953.87740085723
 20
2838.229351964751
 30
0.0
 11
-2878.877400857237
 21
2913.229351964746
 31
0.0
  0
LINE
  5
14C
330
1F
100
AcDbEntity
  8
0-C_ハッチ
  6
JWW_DASHED1
 62
   120
370
     5
100
AcDbLine
 10
-2996.303807728457
 20
2838.229351964727
 30
0.0
 11
-2921.303807728444
 21
2913.229351964741
 31
0.0
  0
LINE
  5
14D
330
1F
100
AcDbEntity
  8
0-C_ハッチ
  6
JWW_DASHED1
 62
   120
370
     5
100
AcDbLine
 10
-3038.73021459965
 20
2838.22935196473
 30
0.0
 11
-2963.730214599637
 21
2913.229351964744
 31
0.0
  0
LINE
  5
14E
330
1F
100
AcDbEntity
  8
0-C_ハッチ
  6
JWW_DASHED1
 62
   120
370
     5
100
AcDbLine
 10
-2683.0700428198
 20
2133.229351964744
 30
0.0
 11
-2608.070042819807
 21
2208.229351964742
 31
0.0
  0
LINE
  5
14F
330
1F
100
AcDbEntity
  8
0-C_ハッチ
  6
JWW_DASHED1
 62
   120
370
     5
100
AcDbLine
 10
-2725.49644969102
 20
2133.229351964728
 30
0.0
 11
-2650.496449691
 21
2208.229351964744
 31
0.0
  0
LINE
  5
150
330
1F
100
AcDbEntity
  8
0-C_ハッチ
  6
JWW_DASHED1
 62
   120
370
     5
100
AcDbLine
 10
-2767.922856562214
 20
2133.229351964732
 30
0.0
 11
-2692.922856562197
 21
2208.229351964748
 31
0.0
  0
LINE
  5
151
330
1F
100
AcDbEntity
  8
0-C_ハッチ
  6
JWW_DASHED1
 62
   120
370
     5
100
AcDbLine
 10
-2810.349263433352
 20
2133.229351964741
 30
0.0
 11
-2735.349263433366
 21
2208.229351964728
 31
0.0
  0
LINE
  5
152
330
1F
100
AcDbEntity
  8
0-C_ハッチ
  6
JWW_DASHED1
 62
   120
370
     5
100
AcDbLine
 10
-2852.775670304546
 20
2133.229351964745
 30
0.0
 11
-2777.775670304559
 21
2208.229351964732
 31
0.0
  0
LINE
  5
153
330
1F
100
AcDbEntity
  8
0-C_ハッチ
  6
JWW_DASHED1
 62
   120
370
     5
100
AcDbLine
 10
-2895.202077175746
 20
2133.229351964748
 30
0.0
 11
-2820.202077175752
 21
2208.229351964737
 31
0.0
  0
LINE
  5
154
330
1F
100
AcDbEntity
  8
0-C_ハッチ
  6
JWW_DASHED1
 62
   120
370
     5
100
AcDbLine
 10
-2937.628484046946
 20
2133.229351964746
 30
0.0
 11
-2862.628484046952
 21
2208.229351964742
 31
0.0
  0
LINE
  5
155
330
1F
100
AcDbEntity
  8
0-C_ハッチ
  6
JWW_DASHED1
 62
   120
370
     5
100
AcDbLine
 10
-2980.054890918139
 20
2133.229351964751
 30
0.0
 11
-2905.054890918146
 21
2208.229351964746
 31
0.0
  0
LINE
  5
156
330
1F
100
AcDbEntity
  8
0-C_ハッチ
  6
JWW_DASHED1
 62
   120
370
     5
100
AcDbLine
 10
-3022.481297789353
 20
2133.229351964738
 30
0.0
 11
-2947.481297789339
 21
2208.229351964751
 31
0.0
  0
LWPOLYLINE
  5
157
330
1F
100
AcDbEntity
  8
0-B_寸法
  6
Continuous
 62
     7
370
     9
100
AcDbPolyline
 90
        4
 70
     1
 43
3.0
 10
-1450.96963915419
 20
2058.229351964744
 42
0.4142135623731
 10
-1452.46963915419
 20
2059.729351964744
 42
0.4142135623731
 10
-1453.96963915419
 20
2058.229351964744
 42
0.4142135623731
 10
-1452.46963915419
 20
2056.729351964744
 42
0.4142135623731
  0
LWPOLYLINE
  5
158
330
1F
100
AcDbEntity
  8
0-B_寸法
  6
Continuous
 62
     7
370
     9
100
AcDbPolyline
 90
        4
 70
     1
 43
3.0
 10
-1450.96963915419
 20
2988.229351964742
 42
0.4142135623731
 10
-1452.46963915419
 20
2989.729351964742
 42
0.4142135623731
 10
-1453.96963915419
 20
2988.229351964742
 42
0.4142135623731
 10
-1452.46963915419
 20
2986.729351964742
 42
0.4142135623731
  0
LINE
  5
159
330
1F
100
AcDbEntity
  8
0-B_寸法
  6
Continuous
 62
   120
370
     5
100
AcDbLine
 10
-1452.46963915419
 20
2988.229351964742
 30
0.0
 11
-1452.46963915419
 21
2058.229351964744
 31
0.0
  0
LINE
  5
15A
330
1F
100
AcDbEntity
  8
0-B_寸法
  6
Continuous
 62
   120
370
     5
100
AcDbLine
 10
-1452.46963915419
 20
2058.229351964744
 30
0.0
 11
-1659.601777977789
 21
2058.229351964744
 31
0.0
  0
LINE
  5
15B
330
1F
100
AcDbEntity
  8
0-B_寸法
  6
Continuous
 62
   120
370
     5
100
AcDbLine
 10
-1452.46963915419
 20
2988.229351964742
 30
0.0
 11
-1659.601777977789
 21
2988.229351964742
 31
0.0
  0
LINE
  5
15C
330
1F
100
AcDbEntity
  8
0-C_ハッチ
  6
JWW_DASHED1
 62
   120
370
     5
100
AcDbLine
 10
-2487.186925274143
 20
2838.229351964756
 30
0.0
 11
-2412.186925274146
 21
2913.229351964756
 31
0.0
  0
LINE
  5
15D
330
1F
100
AcDbEntity
  8
0-C_ハッチ
  6
JWW_DASHED1
 62
   120
370
     5
100
AcDbLine
 10
-2529.613332145359
 20
2838.229351964739
 30
0.0
 11
-2454.613332145346
 21
2913.229351964755
 31
0.0
  0
LINE
  5
15E
330
1F
100
AcDbEntity
  8
0-C_ハッチ
  6
JWW_DASHED1
 62
   120
370
     5
100
AcDbLine
 10
-2572.039739016559
 20
2838.229351964741
 30
0.0
 11
-2497.039739016546
 21
2913.229351964756
 31
0.0
  0
LINE
  5
15F
330
1F
100
AcDbEntity
  8
0-C_ハッチ
  6
JWW_DASHED1
 62
   120
370
     5
100
AcDbLine
 10
-2614.466145887698
 20
2838.229351964746
 30
0.0
 11
-2539.466145887711
 21
2913.229351964739
 31
0.0
  0
LINE
  5
160
330
1F
100
AcDbEntity
  8
0-C_ハッチ
  6
JWW_DASHED1
 62
   120
370
     5
100
AcDbLine
 10
-2470.938008463855
 20
2133.229351964756
 30
0.0
 11
-2395.938008463855
 21
2208.229351964755
 31
0.0
  0
LINE
  5
161
330
1F
100
AcDbEntity
  8
0-C_ハッチ
  6
JWW_DASHED1
 62
   120
370
     5
100
AcDbLine
 10
-2513.364415335065
 20
2133.229351964742
 30
0.0
 11
-2438.364415335051
 21
2208.229351964757
 31
0.0
  0
LINE
  5
162
330
1F
100
AcDbEntity
  8
0-C_ハッチ
  6
JWW_DASHED1
 62
   120
370
     5
100
AcDbLine
 10
-2555.790822206262
 20
2133.229351964746
 30
0.0
 11
-2480.790822206248
 21
2208.22935196476
 31
0.0
  0
LINE
  5
163
330
1F
100
AcDbEntity
  8
0-C_ハッチ
  6
JWW_DASHED1
 62
   120
370
     5
100
AcDbLine
 10
-2598.217229077411
 20
2133.229351964744
 30
0.0
 11
-2523.21722907742
 21
2208.229351964735
 31
0.0
  0
LINE
  5
164
330
1F
100
AcDbEntity
  8
0-C_ハッチ
  6
JWW_DASHED1
 62
   120
370
     5
100
AcDbLine
 10
-2640.643635948611
 20
2133.229351964745
 30
0.0
 11
-2565.64363594862
 21
2208.229351964739
 31
0.0
  0
LINE
  5
165
330
1F
100
AcDbEntity
  8
0-C_ハッチ
  6
JWW_DASHED1
 62
   120
370
     5
100
AcDbLine
 10
-2353.511601592641
 20
2208.229351964749
 30
0.0
 11
-2428.511601592651
 21
2133.229351964738
 31
0.0
  0
LINE
  5
166
330
1F
100
AcDbEntity
  8
0-C_ハッチ
  6
JWW_DASHED1
 62
   120
370
     5
100
AcDbLine
 10
-2311.085194721441
 20
2208.229351964749
 30
0.0
 11
-2386.085194721438
 21
2133.229351964752
 31
0.0
  0
LINE
  5
167
330
1F
100
AcDbEntity
  8
0-C_ハッチ
  6
JWW_DASHED1
 62
   120
370
     5
100
AcDbLine
 10
-2268.658787850247
 20
2208.229351964746
 30
0.0
 11
-2343.658787850241
 21
2133.229351964749
 31
0.0
  0
LINE
  5
168
330
1F
100
AcDbEntity
  8
0-C_ハッチ
  6
JWW_DASHED1
 62
   120
370
     5
100
AcDbLine
 10
-2226.232380979106
 20
2208.229351964739
 30
0.0
 11
-2301.232380979102
 21
2133.229351964742
 31
0.0
  0
LINE
  5
169
330
1F
100
AcDbEntity
  8
0-C_ハッチ
  6
JWW_DASHED1
 62
   120
370
     5
100
AcDbLine
 10
-2183.805974107909
 20
2208.229351964735
 30
0.0
 11
-2258.805974107906
 21
2133.229351964738
 31
0.0
  0
LINE
  5
16A
330
1F
100
AcDbEntity
  8
0-C_ハッチ
  6
JWW_DASHED1
 62
   120
370
     5
100
AcDbLine
 10
-2141.379567236709
 20
2208.229351964734
 30
0.0
 11
-2216.379567236706
 21
2133.229351964738
 31
0.0
  0
LINE
  5
16B
330
1F
100
AcDbEntity
  8
0-C_ハッチ
  6
JWW_DASHED1
 62
   120
370
     5
100
AcDbLine
 10
-2098.953160365495
 20
2208.229351964748
 30
0.0
 11
-2173.953160365509
 21
2133.229351964734
 31
0.0
  0
LINE
  5
16C
330
1F
100
AcDbEntity
  8
0-C_ハッチ
  6
JWW_DASHED1
 62
   120
370
     5
100
AcDbLine
 10
-2056.526753494295
 20
2208.229351964749
 30
0.0
 11
-2131.526753494306
 21
2133.229351964738
 31
0.0
  0
LINE
  5
16D
330
1F
100
AcDbEntity
  8
0-C_ハッチ
  6
JWW_DASHED1
 62
   120
370
     5
100
AcDbLine
 10
-2014.100346623088
 20
2208.229351964757
 30
0.0
 11
-2089.100346623088
 21
2133.229351964759
 31
0.0
  0
LINE
  5
16E
330
1F
100
AcDbEntity
  8
0-C_ハッチ
  6
JWW_DASHED1
 62
   120
370
     5
100
AcDbLine
 10
-1971.673939751889
 20
2208.229351964755
 30
0.0
 11
-2046.673939751888
 21
2133.229351964758
 31
0.0
  0
LINE
  5
16F
330
1F
100
AcDbEntity
  8
0-C_ハッチ
  6
JWW_DASHED1
 62
   120
370
     5
100
AcDbLine
 10
-1929.247532880693
 20
2208.229351964753
 30
0.0
 11
-2004.247532880689
 21
2133.229351964756
 31
0.0
  0
LINE
  5
170
330
1F
100
AcDbEntity
  8
0-C_ハッチ
  6
JWW_DASHED1
 62
   120
370
     5
100
AcDbLine
 10
-1904.999628840271
 20
2190.050849134029
 30
0.0
 11
-1961.821126009551
 21
2133.229351964749
 31
0.0
  0
LINE
  5
171
330
1F
100
AcDbEntity
  8
0-C_ハッチ
  6
JWW_DASHED1
 62
   120
370
     5
100
AcDbLine
 10
-1904.999628840268
 20
2147.624442262831
 30
0.0
 11
-1919.394719138357
 21
2133.229351964746
 31
0.0
  0
LINE
  5
172
330
1F
100
AcDbEntity
  8
0-C_ハッチ
  6
JWW_DASHED1
 62
   120
370
     5
100
AcDbLine
 10
-2369.760518402952
 20
2913.229351964753
 30
0.0
 11
-2444.760518402953
 21
2838.229351964727
 31
0.0
  0
LINE
  5
173
330
1F
100
AcDbEntity
  8
0-C_ハッチ
  6
JWW_DASHED1
 62
   120
370
     5
100
AcDbLine
 10
-2327.334111531732
 20
2913.229351964749
 30
0.0
 11
-2402.334111531725
 21
2838.229351964755
 31
0.0
  0
LINE
  5
174
330
1F
100
AcDbEntity
  8
0-C_ハッチ
  6
JWW_DASHED1
 62
   120
370
     5
100
AcDbLine
 10
-2284.907704660529
 20
2913.229351964751
 30
0.0
 11
-2359.907704660529
 21
2838.229351964753
 31
0.0
  0
LINE
  5
175
330
1F
100
AcDbEntity
  8
0-C_ハッチ
  6
JWW_DASHED1
 62
   120
370
     5
100
AcDbLine
 10
-2242.481297789332
 20
2913.229351964748
 30
0.0
 11
-2317.481297789332
 21
2838.229351964749
 31
0.0
  0
LINE
  5
176
330
1F
100
AcDbEntity
  8
0-C_ハッチ
  6
JWW_DASHED1
 62
   120
370
     5
100
AcDbLine
 10
-2200.054890918138
 20
2913.229351964746
 30
0.0
 11
-2275.054890918132
 21
2838.229351964749
 31
0.0
  0
LINE
  5
177
330
1F
100
AcDbEntity
  8
0-C_ハッチ
  6
JWW_DASHED1
 62
   120
370
     5
100
AcDbLine
 10
-2157.628484046997
 20
2913.229351964739
 30
0.0
 11
-2232.628484046993
 21
2838.229351964742
 31
0.0
  0
LINE
  5
178
330
1F
100
AcDbEntity
  8
0-C_ハッチ
  6
JWW_DASHED1
 62
   120
370
     5
100
AcDbLine
 10
-2115.2020771758
 20
2913.229351964735
 30
0.0
 11
-2190.202077175797
 21
2838.229351964739
 31
0.0
  0
LINE
  5
179
330
1F
100
AcDbEntity
  8
0-C_ハッチ
  6
JWW_DASHED1
 62
   120
370
     5
100
AcDbLine
 10
-2072.775670304587
 20
2913.229351964749
 30
0.0
 11
-2147.7756703046
 21
2838.229351964735
 31
0.0
  0
LINE
  5
17A
330
1F
100
AcDbEntity
  8
0-C_ハッチ
  6
JWW_DASHED1
 62
   120
370
     5
100
AcDbLine
 10
-2030.349263433387
 20
2913.229351964749
 30
0.0
 11
-2105.349263433397
 21
2838.229351964739
 31
0.0
  0
LINE
  5
17B
330
1F
100
AcDbEntity
  8
0-C_ハッチ
  6
JWW_DASHED1
 62
   120
370
     5
100
AcDbLine
 10
-1987.922856562193
 20
2913.229351964746
 30
0.0
 11
-2062.922856562183
 21
2838.229351964751
 31
0.0
  0
LINE
  5
17C
330
1F
100
AcDbEntity
  8
0-C_ハッチ
  6
JWW_DASHED1
 62
   120
370
     5
100
AcDbLine
 10
-1945.496449690981
 20
2913.229351964756
 30
0.0
 11
-2020.496449690979
 21
2838.22935196476
 31
0.0
  0
LINE
  5
17D
330
1F
100
AcDbEntity
  8
0-C_ハッチ
  6
JWW_DASHED1
 62
   120
370
     5
100
AcDbLine
 10
-1904.99962884028
 20
2911.299765944259
 30
0.0
 11
-1978.07004281978
 21
2838.229351964756
 31
0.0
  0
LINE
  5
17E
330
1F
100
AcDbEntity
  8
0-C_ハッチ
  6
JWW_DASHED1
 62
   120
370
     5
100
AcDbLine
 10
-1904.99962884028
 20
2868.873359073059
 30
0.0
 11
-1935.643635948584
 21
2838.229351964753
 31
0.0
  0
MTEXT
  5
17F
330
1F
100
AcDbEntity
  8
0-A_文字
  6
Continuous
 62
     7
370
     9
100
AcDbMText
 10
-2264.999628840264
 20
1893.949351964744
 30
0.0
 40
91.44
 41
720.0
 46
0.0
 71
     7
 72
     1
  1
{\fＭＳ ゴシック|b0|i0|c128|p49;（ラッチ側）}
 73
     1
 44
1.0
  0
ARC
  5
180
330
1F
100
AcDbEntity
  8
戸当り
  6
Continuous
 62
     7
370
     9
100
AcDbCircle
 10
-1744.199731837091
 20
2501.329351964741
 30
0.0
 40
1.8
100
AcDbArc
 50
73.20997440166418
 51
180.0
  0
LINE
  5
181
330
1F
100
AcDbEntity
  8
戸当り
  6
Continuous
 62
     7
370
     9
100
AcDbLine
 10
-1743.679774591392
 20
2503.052617603768
 30
0.0
 11
-1733.372123808015
 21
2500.213576916919
 31
0.0
  0
LINE
  5
182
330
1F
100
AcDbEntity
  8
戸当り
  6
Continuous
 62
     7
370
     9
100
AcDbLine
 10
-1745.999731837091
 20
2501.329351964741
 30
0.0
 11
-1745.999731837091
 21
2499.829351964742
 31
0.0
  0
LINE
  5
183
330
1F
100
AcDbEntity
  8
戸当り
  6
Continuous
 62
     7
370
     9
100
AcDbLine
 10
-1760.388862047896
 20
2508.978067634281
 30
0.0
 11
-1748.988862047896
 21
2500.278067634282
 31
0.0
  0
ARC
  5
184
330
1F
100
AcDbEntity
  8
戸当り
  6
Continuous
 62
     7
370
     9
100
AcDbCircle
 10
-1747.799731837091
 20
2501.629351964741
 30
0.0
 40
1.8
100
AcDbArc
 50
228.6522227803065
 51
0.0
  0
LINE
  5
185
330
1F
100
AcDbEntity
  8
戸当り
  6
Continuous
 62
     7
370
     9
100
AcDbLine
 10
-1745.999731837091
 20
2501.629351964741
 30
0.0
 11
-1745.999731837091
 21
2503.129351964742
 31
0.0
  0
LINE
  5
186
330
1F
100
AcDbEntity
  8
戸当り
  6
Continuous
 62
     7
370
     9
100
AcDbLine
 10
-1733.999731837092
 20
2365.426827718247
 30
0.0
 11
-1733.999731837092
 21
2365.129351964742
 31
0.0
  0
LINE
  5
187
330
1F
100
AcDbEntity
  8
戸当り
  6
Continuous
 62
     7
370
     9
100
AcDbLine
 10
-1745.999731837091
 20
2360.329351964742
 30
0.0
 11
-1738.779347290876
 21
2367.841981716785
 31
0.0
  0
ARC
  5
188
330
1F
100
AcDbEntity
  8
戸当り
  6
Continuous
 62
     7
370
     9
100
AcDbCircle
 10
-1736.999731837091
 20
2365.426827718247
 30
0.0
 40
3.0
100
AcDbArc
 50
0.0
 51
126.3847868939777
  0
LINE
  5
189
330
1F
100
AcDbEntity
  8
戸当り
  6
Continuous
 62
     7
370
     9
100
AcDbLine
 10
-1752.599731837092
 20
2347.129351964742
 30
0.0
 11
-1752.599731837092
 21
2362.129351964742
 31
0.0
  0
LINE
  5
18A
330
1F
100
AcDbEntity
  8
戸当り
  6
Continuous
 62
     7
370
     9
100
AcDbLine
 10
-1787.999731837092
 20
2356.129351964743
 30
0.0
 11
-1787.999731837092
 21
2349.229351964742
 31
0.0
  0
LINE
  5
18B
330
1F
100
AcDbEntity
  8
戸当り
  6
Continuous
 62
     7
370
     9
100
AcDbLine
 10
-1787.999731837092
 20
2369.629351964742
 30
0.0
 11
-1787.999731837092
 21
2365.129351964742
 31
0.0
  0
LINE
  5
18C
330
1F
100
AcDbEntity
  8
戸当り
  6
Continuous
 62
     7
370
     9
100
AcDbLine
 10
-1787.999731837092
 20
2365.129351964742
 30
0.0
 11
-1760.999731837091
 21
2365.129351964742
 31
0.0
  0
LINE
  5
18D
330
1F
100
AcDbEntity
  8
戸当り
  6
Continuous
 62
     7
370
     9
100
AcDbLine
 10
-1787.999731837092
 20
2369.629351964742
 30
0.0
 11
-1805.999731837091
 21
2360.629351964742
 31
0.0
  0
LINE
  5
18E
330
1F
100
AcDbEntity
  8
戸当り
  6
Continuous
 62
     7
370
     9
100
AcDbLine
 10
-1805.999731837091
 20
2360.629351964742
 30
0.0
 11
-1787.999731837092
 21
2349.229351964742
 31
0.0
  0
LINE
  5
18F
330
1F
100
AcDbEntity
  8
戸当り
  6
Continuous
 62
     7
370
     9
100
AcDbLine
 10
-1760.999731837091
 20
2365.129351964742
 30
0.0
 11
-1760.999731837091
 21
2489.32935196474
 31
0.0
  0
LINE
  5
190
330
1F
100
AcDbEntity
  8
戸当り
  6
Continuous
 62
     7
370
     9
100
AcDbLine
 10
-1756.799731837092
 20
2356.129351964743
 30
0.0
 11
-1787.999731837092
 21
2356.129351964743
 31
0.0
  0
LINE
  5
191
330
1F
100
AcDbEntity
  8
戸当り
  6
Continuous
 62
     7
370
     9
100
AcDbLine
 10
-1756.799731837092
 20
2356.129351964743
 30
0.0
 11
-1756.799731837092
 21
2362.129351964742
 31
0.0
  0
LINE
  5
192
330
1F
100
AcDbEntity
  8
戸当り
  6
Continuous
 62
     7
370
     9
100
AcDbLine
 10
-1756.799731837092
 20
2362.129351964742
 30
0.0
 11
-1751.999731837091
 21
2362.129351964742
 31
0.0
  0
LINE
  5
193
330
1F
100
AcDbEntity
  8
戸当り
  6
Continuous
 62
     7
370
     9
100
AcDbLine
 10
-1751.999731837091
 20
2362.129351964742
 30
0.0
 11
-1751.999731837091
 21
2368.729351964741
 31
0.0
  0
LINE
  5
194
330
1F
100
AcDbEntity
  8
戸当り
  6
Continuous
 62
     7
370
     9
100
AcDbLine
 10
-1751.999731837091
 20
2368.729351964741
 30
0.0
 11
-1737.976985770286
 21
2368.729351964741
 31
0.0
  0
ARC
  5
195
330
1F
100
AcDbEntity
  8
戸当り
  6
Continuous
 62
     7
370
     9
100
AcDbCircle
 10
-1737.976985770286
 20
2363.929351964743
 30
0.0
 40
4.800000000000001
100
AcDbArc
 50
48.59037789072997
 51
90.0
  0
LINE
  5
196
330
1F
100
AcDbEntity
  8
戸当り
  6
Continuous
 62
     7
370
     9
100
AcDbLine
 10
-1727.895054535133
 20
2366.056189717969
 30
0.0
 11
-1712.948670077615
 21
2370.720007320792
 31
0.0
  0
ARC
  5
197
330
1F
100
AcDbEntity
  8
戸当り
  6
Continuous
 62
     7
370
     9
100
AcDbCircle
 10
-1714.199731837091
 20
2374.729351964742
 30
0.0
 40
4.2
100
AcDbArc
 50
287.3298279181163
 51
107.3298297382545
  0
LINE
  5
198
330
1F
100
AcDbEntity
  8
戸当り
  6
Continuous
 62
     7
370
     9
100
AcDbLine
 10
-1731.186885746182
 20
2373.828461375845
 30
0.0
 11
-1715.4507938513
 21
2378.738696529208
 31
0.0
  0
ARC
  5
199
330
1F
100
AcDbEntity
  8
戸当り
  6
Continuous
 62
     7
370
     9
100
AcDbCircle
 10
-1737.239731837092
 20
2369.929351964742
 30
0.0
 40
7.199999999999999
100
AcDbArc
 50
32.78873764965429
 51
90.0
  0
LINE
  5
19A
330
1F
100
AcDbEntity
  8
戸当り
  6
Continuous
 62
     7
370
     9
100
AcDbLine
 10
-1751.999731837091
 20
2380.129351964742
 30
0.0
 11
-1751.999731837091
 21
2489.629351964742
 31
0.0
  0
LINE
  5
19B
330
1F
100
AcDbEntity
  8
戸当り
  6
Continuous
 62
     7
370
     9
100
AcDbLine
 10
-1748.999731837092
 20
2377.129351964742
 30
0.0
 11
-1737.239731837092
 21
2377.129351964742
 31
0.0
  0
ARC
  5
19C
330
1F
100
AcDbEntity
  8
戸当り
  6
Continuous
 62
     7
370
     9
100
AcDbCircle
 10
-1748.999731837092
 20
2380.129351964742
 30
0.0
 40
3.0
100
AcDbArc
 50
180.0
 51
270.0
  0
ARC
  5
19D
330
1F
100
AcDbEntity
  8
戸当り
  6
Continuous
 62
     7
370
     9
100
AcDbCircle
 10
-1748.999731837092
 20
2489.629351964742
 30
0.0
 40
3.0
100
AcDbArc
 50
90.0
 51
180.0
  0
LINE
  5
19E
330
1F
100
AcDbEntity
  8
戸当り
  6
Continuous
 62
     7
370
     9
100
AcDbLine
 10
-1748.999731837092
 20
2492.629351964742
 30
0.0
 11
-1745.999731837091
 21
2492.629351964742
 31
0.0
  0
LINE
  5
19F
330
1F
100
AcDbEntity
  8
戸当り
  6
Continuous
 62
     7
370
     9
100
AcDbLine
 10
-1805.999731837091
 20
2493.829351964741
 30
0.0
 11
-1787.999731837091
 21
2505.229351964742
 31
0.0
  0
LINE
  5
1A0
330
1F
100
AcDbEntity
  8
戸当り
  6
Continuous
 62
     7
370
     9
100
AcDbLine
 10
-1787.999731837091
 20
2484.829351964742
 30
0.0
 11
-1805.999731837091
 21
2493.829351964741
 31
0.0
  0
LINE
  5
1A1
330
1F
100
AcDbEntity
  8
戸当り
  6
Continuous
 62
     7
370
     9
100
AcDbLine
 10
-1787.999731837091
 20
2489.32935196474
 30
0.0
 11
-1760.999731837091
 21
2489.32935196474
 31
0.0
  0
LINE
  5
1A2
330
1F
100
AcDbEntity
  8
戸当り
  6
Continuous
 62
     7
370
     9
100
AcDbLine
 10
-1787.999731837091
 20
2484.829351964742
 30
0.0
 11
-1787.999731837091
 21
2489.32935196474
 31
0.0
  0
LINE
  5
1A3
330
1F
100
AcDbEntity
  8
戸当り
  6
Continuous
 62
     7
370
     9
100
AcDbLine
 10
-1787.999731837091
 20
2498.329351964741
 30
0.0
 11
-1787.999731837091
 21
2505.229351964742
 31
0.0
  0
ARC
  5
1A4
330
1F
100
AcDbEntity
  8
戸当り
  6
Continuous
 62
     7
370
     9
100
AcDbCircle
 10
-1745.999731837091
 20
2498.629351964741
 30
0.0
 40
5.999999999999659
100
AcDbArc
 50
270.0
 51
326.5226209498273
  0
LINE
  5
1A5
330
1F
100
AcDbEntity
  8
戸当り
  6
Continuous
 62
     7
370
     9
100
AcDbLine
 10
-1740.995109833041
 20
2495.319705669958
 30
0.0
 11
-1735.827339853658
 21
2493.445127008026
 31
0.0
  0
ARC
  5
1A6
330
1F
100
AcDbEntity
  8
戸当り
  6
Continuous
 62
     7
370
     9
100
AcDbCircle
 10
-1734.599731837091
 20
2496.82935196474
 30
0.0
 40
3.600000000000001
100
AcDbArc
 50
246.662347311029
 51
0.0000000000000127
  0
ARC
  5
1A7
330
1F
100
AcDbEntity
  8
戸当り
  6
Continuous
 62
     7
370
     9
100
AcDbCircle
 10
-1734.599731837091
 20
2496.82935196474
 30
0.0
 40
3.600000000000001
100
AcDbArc
 50
0.0
 51
73.20997440166256
  0
LINE
  5
1A8
330
1F
100
AcDbEntity
  8
戸当り
  6
Continuous
 62
     7
370
     9
100
AcDbLine
 10
-1760.999731837091
 20
2498.329351964741
 30
0.0
 11
-1787.999731837091
 21
2498.329351964741
 31
0.0
  0
LINE
  5
1A9
330
1F
100
AcDbEntity
  8
戸当り
  6
Continuous
 62
     7
370
     9
100
AcDbLine
 10
-1760.999731837091
 20
2499.829351964742
 30
0.0
 11
-1745.999731837091
 21
2499.829351964742
 31
0.0
  0
LINE
  5
1AA
330
1F
100
AcDbEntity
  8
戸当り
  6
Continuous
 62
     7
370
     9
100
AcDbLine
 10
-1760.999731837091
 20
2498.329351964741
 30
0.0
 11
-1760.999731837091
 21
2499.829351964742
 31
0.0
  0
LINE
  5
1AB
330
1F
100
AcDbEntity
  8
戸当り
  6
Continuous
 62
     7
370
     9
100
AcDbLine
 10
-1743.052457005735
 20
2341.223959171843
 30
0.0
 11
-1713.361123925474
 21
2356.129351964743
 31
0.0
  0
ARC
  5
1AC
330
1F
100
AcDbEntity
  8
戸当り
  6
Continuous
 62
     7
370
     9
100
AcDbCircle
 10
-1745.999731837091
 20
2347.129351964742
 30
0.0
 40
6.6
100
AcDbArc
 50
180.0
 51
296.5751535040603
  0
ARC
  5
1AD
330
1F
100
AcDbEntity
  8
戸当り
  6
Continuous
 62
     7
370
     9
100
AcDbCircle
 10
-1745.999731837091
 20
2347.129351964742
 30
0.0
 40
10.8
100
AcDbArc
 50
180.0
 51
296.5751535040603
  0
LINE
  5
1AE
330
1F
100
AcDbEntity
  8
戸当り
  6
Continuous
 62
     7
370
     9
100
AcDbLine
 10
-1700.999731837091
 20
2506.129351964743
 30
0.0
 11
-1700.999731837091
 21
2359.129351964741
 31
0.0
  0
LINE
  5
1AF
330
1F
100
AcDbEntity
  8
戸当り
  6
Continuous
 62
     7
370
     9
100
AcDbLine
 10
-1703.999731837092
 20
2356.129351964743
 30
0.0
 11
-1745.999731837091
 21
2356.129351964743
 31
0.0
  0
LINE
  5
1B0
330
1F
100
AcDbEntity
  8
戸当り
  6
Continuous
 62
     7
370
     9
100
AcDbLine
 10
-1709.999731837092
 20
2365.129351964742
 30
0.0
 11
-1709.999731837092
 21
2503.129351964742
 31
0.0
  0
LINE
  5
1B1
330
1F
100
AcDbEntity
  8
戸当り
  6
Continuous
 62
     7
370
     9
100
AcDbLine
 10
-1745.999731837091
 20
2356.129351964743
 30
0.0
 11
-1745.999731837091
 21
2360.329351964742
 31
0.0
  0
ARC
  5
1B2
330
1F
100
AcDbEntity
  8
戸当り
  6
Continuous
 62
     7
370
     9
100
AcDbCircle
 10
-1703.999731837092
 20
2359.129351964741
 30
0.0
 40
3.0
100
AcDbArc
 50
270.0
 51
0.0
  0
LINE
  5
1B3
330
1F
100
AcDbEntity
  8
戸当り
  6
Continuous
 62
     7
370
     9
100
AcDbLine
 10
-1756.799731837092
 20
2347.129351964742
 30
0.0
 11
-1756.799731837092
 21
2356.129351964743
 31
0.0
  0
LINE
  5
1B4
330
1F
100
AcDbEntity
  8
戸当り
  6
Continuous
 62
     7
370
     9
100
AcDbLine
 10
-1741.168121873369
 20
2337.470390055796
 30
0.0
 11
-1703.999731837092
 21
2356.129351964743
 31
0.0
  0
ARC
  5
1B5
330
1F
100
AcDbEntity
  8
戸当り
  6
Continuous
 62
     7
370
     9
100
AcDbCircle
 10
-1706.999731837091
 20
2506.129351964743
 30
0.0
 40
6.0
100
AcDbArc
 50
0.0
 51
90.0
  0
LINE
  5
1B6
330
1F
100
AcDbEntity
  8
戸当り
  6
Continuous
 62
     7
370
     9
100
AcDbLine
 10
-1706.999731837091
 20
2512.129351964742
 30
0.0
 11
-1759.199731837091
 21
2512.129351964742
 31
0.0
  0
ARC
  5
1B7
330
1F
100
AcDbEntity
  8
戸当り
  6
Continuous
 62
     7
370
     9
100
AcDbCircle
 10
-1759.199731837091
 20
2510.329351964742
 30
0.0
 40
1.8
100
AcDbArc
 50
90.0
 51
228.6522227803073
  0
LINE
  5
1B8
330
1F
100
AcDbEntity
  8
戸当り
  6
Continuous
 62
     7
370
     9
100
AcDbLine
 10
-1729.799731837091
 20
2503.129351964742
 30
0.0
 11
-1745.999731837091
 21
2503.129351964742
 31
0.0
  0
LINE
  5
1B9
330
1F
100
AcDbEntity
  8
戸当り
  6
Continuous
 62
     7
370
     9
100
AcDbLine
 10
-1729.799731837091
 20
2491.129351964741
 30
0.0
 11
-1729.799731837091
 21
2503.129351964742
 31
0.0
  0
LINE
  5
1BA
330
1F
100
AcDbEntity
  8
戸当り
  6
Continuous
 62
     7
370
     9
100
AcDbLine
 10
-1722.59973183709
 20
2491.129351964741
 30
0.0
 11
-1729.799731837091
 21
2491.129351964741
 31
0.0
  0
LINE
  5
1BB
330
1F
100
AcDbEntity
  8
戸当り
  6
Continuous
 62
     7
370
     9
100
AcDbLine
 10
-1722.59973183709
 20
2503.129351964742
 30
0.0
 11
-1722.59973183709
 21
2491.129351964741
 31
0.0
  0
LINE
  5
1BC
330
1F
100
AcDbEntity
  8
戸当り
  6
Continuous
 62
     7
370
     9
100
AcDbLine
 10
-1709.999731837092
 20
2503.129351964742
 30
0.0
 11
-1722.59973183709
 21
2503.129351964742
 31
0.0
  0
LINE
  5
1BD
330
1F
100
AcDbEntity
  8
戸当り
  6
Continuous
 62
     7
370
     9
100
AcDbLine
 10
-1709.999731837092
 20
2365.129351964742
 30
0.0
 11
-1733.999731837092
 21
2365.129351964742
 31
0.0
  0
ARC
  5
1BE
330
1F
100
AcDbEntity
  8
戸当り
  6
Continuous
 62
     7
370
     9
100
AcDbCircle
 10
-1730.039731837092
 20
2372.929351964742
 30
0.0
 40
7.199999999999999
100
AcDbArc
 50
228.5903778907278
 51
287.3298260979834
  0
LINE
  5
1BF
330
1F
100
AcDbEntity
  8
0-4_枠
  6
Continuous
 62
    92
370
    13
100
AcDbLine
 10
-1760.999628840264
 20
2971.258789216258
 30
0.0
 11
-1760.999628840264
 21
2505.229351964742
 31
0.0
  0
LINE
  5
1C0
330
1F
100
AcDbEntity
  8
0-4_枠
  6
Continuous
 62
    92
370
    13
100
AcDbLine
 10
-1763.999193964775
 20
2505.229351964742
 30
0.0
 11
-1763.999193964775
 21
2970.01571365365
 31
0.0
  0
LINE
  5
1C1
330
1F
100
AcDbEntity
  8
0-4_枠
  6
Continuous
 62
    92
370
    13
100
AcDbLine
 10
-1760.999628840264
 20
2075.199914713214
 30
0.0
 11
-1760.999628840264
 21
2349.229351964742
 31
0.0
  0
LINE
  5
1C2
330
1F
100
AcDbEntity
  8
0-4_枠
  6
Continuous
 62
    92
370
    13
100
AcDbLine
 10
-1763.999193964775
 20
2076.442990275823
 30
0.0
 11
-1763.999193964775
 21
2349.229351964742
 31
0.0
  0
LINE
  5
1C3
330
1F
100
AcDbEntity
  8
0-C_ハッチ
  6
Continuous
 62
   120
370
     5
100
AcDbLine
 10
-1787.057601825702
 20
2349.229351964742
 30
0.0
 11
-1763.999193964775
 21
2326.171110095091
 31
0.0
  0
LINE
  5
1C4
330
1F
100
AcDbEntity
  8
0-C_ハッチ
  6
Continuous
 62
   120
370
     5
100
AcDbLine
 10
-1904.99962884028
 20
2467.17052994639
 30
0.0
 11
-1809.257761638681
 21
2371.429351964741
 31
0.0
  0
LINE
  5
1C5
330
1F
100
AcDbEntity
  8
0-C_ハッチ
  6
Continuous
 62
   120
370
     5
100
AcDbLine
 10
-1785.093984145147
 20
2483.029351964742
 30
0.0
 11
-1763.999193964775
 21
2461.934588069073
 31
0.0
  0
LINE
  5
1C6
330
1F
100
AcDbEntity
  8
0-C_ハッチ
  6
Continuous
 62
   120
370
     5
100
AcDbLine
 10
-1904.999628840266
 20
2602.934847254055
 30
0.0
 11
-1807.294011807006
 21
2505.229351964742
 31
0.0
  0
LINE
  5
1C7
330
1F
100
AcDbEntity
  8
0-C_ハッチ
  6
Continuous
 62
   120
370
     5
100
AcDbLine
 10
-1904.999628840266
 20
2535.052546573972
 30
0.0
 11
-1763.999193964775
 21
2394.052490048443
 31
0.0
  0
LINE
  5
1C8
330
1F
100
AcDbEntity
  8
0-4_枠
  6
Continuous
 62
    92
370
    13
100
AcDbLine
 10
-1760.999628840264
 20
2371.429351964741
 30
0.0
 11
-1760.999628840264
 21
2483.029351964742
 31
0.0
  0
LINE
  5
1C9
330
1F
100
AcDbEntity
  8
0-4_枠
  6
Continuous
 62
    92
370
    13
100
AcDbLine
 10
-1763.999193964775
 20
2371.429351964741
 30
0.0
 11
-1763.999193964775
 21
2483.029351964742
 31
0.0
  0
LINE
  5
1CA
330
1F
100
AcDbEntity
  8
0-4_枠
  6
Continuous
 62
    92
370
    13
100
AcDbLine
 10
-1811.999628840264
 20
2349.229351964742
 30
0.0
 11
-1811.999628840264
 21
2371.429351964741
 31
0.0
  0
LINE
  5
1CB
330
1F
100
AcDbEntity
  8
0-4_枠
  6
Continuous
 62
    92
370
    13
100
AcDbLine
 10
-1811.999628840264
 20
2483.029351964742
 30
0.0
 11
-1811.999628840264
 21
2505.229351964742
 31
0.0
  0
LINE
  5
1CC
330
1F
100
AcDbEntity
  8
0-4_枠
  6
Continuous
 62
    92
370
    13
100
AcDbLine
 10
-1811.999628840264
 20
2505.229351964742
 30
0.0
 11
-1760.999628840264
 21
2505.229351964742
 31
0.0
  0
LINE
  5
1CD
330
1F
100
AcDbEntity
  8
0-4_枠
  6
Continuous
 62
    92
370
    13
100
AcDbLine
 10
-1760.999628840264
 20
2483.029351964742
 30
0.0
 11
-1811.999628840264
 21
2483.029351964742
 31
0.0
  0
LINE
  5
1CE
330
1F
100
AcDbEntity
  8
0-4_枠
  6
Continuous
 62
    92
370
    13
100
AcDbLine
 10
-1760.999628840264
 20
2371.429351964741
 30
0.0
 11
-1811.999628840264
 21
2371.429351964741
 31
0.0
  0
LINE
  5
1CF
330
1F
100
AcDbEntity
  8
0-4_枠
  6
Continuous
 62
    92
370
    13
100
AcDbLine
 10
-1760.999628840264
 20
2349.229351964742
 30
0.0
 11
-1811.999628840264
 21
2349.229351964742
 31
0.0
  0
LINE
  5
1D0
330
1F
100
AcDbEntity
  8
0-C_ハッチ
  6
Continuous
 62
   120
370
     5
100
AcDbLine
 10
-1904.999628840266
 20
2195.641363304017
 30
0.0
 11
-1774.900149150637
 21
2065.54203508996
 31
0.0
  0
LINE
  5
1D1
330
1F
100
AcDbEntity
  8
0-C_ハッチ
  6
Continuous
 62
   120
370
     5
100
AcDbLine
 10
-1904.999628840266
 20
2399.285285844658
 30
0.0
 11
-1763.999193964775
 21
2258.287926641251
 31
0.0
  0
LINE
  5
1D2
330
1F
100
AcDbEntity
  8
0-C_ハッチ
  6
Continuous
 62
   120
370
     5
100
AcDbLine
 10
-1904.999628840266
 20
2670.817335932777
 30
0.0
 11
-1763.999193964775
 21
2529.81651398256
 31
0.0
  0
LINE
  5
1D3
330
1F
100
AcDbEntity
  8
0-C_ハッチ
  6
Continuous
 62
   120
370
     5
100
AcDbLine
 10
-1812.119094916167
 20
2985.229786840225
 30
0.0
 11
-1763.999193964775
 21
2937.109394994523
 31
0.0
  0
LINE
  5
1D4
330
1F
100
AcDbEntity
  8
0-C_ハッチ
  6
Continuous
 62
   120
370
     5
100
AcDbLine
 10
-1879.999861310117
 20
2985.229786840225
 30
0.0
 11
-1763.999193964775
 21
2869.227539983538
 31
0.0
  0
LINE
  5
1D5
330
1F
100
AcDbEntity
  8
0-C_ハッチ
  6
Continuous
 62
   120
370
     5
100
AcDbLine
 10
-1904.999628840266
 20
2874.465601106517
 30
0.0
 11
-1763.999193964775
 21
2733.463246312883
 31
0.0
  0
LINE
  5
1D6
330
1F
100
AcDbEntity
  8
0-C_ハッチ
  6
Continuous
 62
   120
370
     5
100
AcDbLine
 10
-1904.999628840266
 20
2806.582680942121
 30
0.0
 11
-1763.999193964775
 21
2665.580807653214
 31
0.0
  0
LINE
  5
1D7
330
1F
100
AcDbEntity
  8
0-C_ハッチ
  6
Continuous
 62
   120
370
     5
100
AcDbLine
 10
-1904.999628840266
 20
2738.699842642381
 30
0.0
 11
-1763.999193964775
 21
2597.698952642227
 31
0.0
  0
LINE
  5
1D8
330
1F
100
AcDbEntity
  8
0-C_ハッチ
  6
Continuous
 62
   120
370
     5
100
AcDbLine
 10
-1904.999628840266
 20
2331.405464828557
 30
0.0
 11
-1763.999193964775
 21
2190.405476537491
 31
0.0
  0
LINE
  5
1D9
330
1F
100
AcDbEntity
  8
0-C_ハッチ
  6
Continuous
 62
   120
370
     5
100
AcDbLine
 10
-1904.999628840266
 20
2263.523251475872
 30
0.0
 11
-1763.999193964775
 21
2122.523037877821
 31
0.0
  0
LINE
  5
1DA
330
1F
100
AcDbEntity
  8
0-4_枠
  6
Continuous
 62
    92
370
    13
100
AcDbLine
 10
-1904.999628840266
 20
2988.229351964735
 30
0.0
 11
-1904.999628840266
 21
2058.229351964738
 31
0.0
  0
LINE
  5
1DB
330
1F
100
AcDbEntity
  8
0-4_枠
  6
Continuous
 62
    92
370
    13
100
AcDbLine
 10
-1779.212672058575
 20
2061.229512182024
 30
0.0
 11
-1763.999193964775
 21
2076.442990275823
 31
0.0
  0
LINE
  5
1DC
330
1F
100
AcDbEntity
  8
0-4_枠
  6
Continuous
 62
    92
370
    13
100
AcDbLine
 10
-1779.213267151062
 20
2985.229786839936
 30
0.0
 11
-1763.999193964775
 21
2970.01571365365
 31
0.0
  0
LINE
  5
1DD
330
1F
100
AcDbEntity
  8
0-4_枠
  6
Continuous
 62
    92
370
    13
100
AcDbLine
 10
-1777.970191588741
 20
2058.229351964738
 30
0.0
 11
-1760.999628840264
 21
2075.199914713214
 31
0.0
  0
LINE
  5
1DE
330
1F
100
AcDbEntity
  8
0-4_枠
  6
Continuous
 62
    92
370
    13
100
AcDbLine
 10
-1777.970191588741
 20
2058.229351964738
 30
0.0
 11
-1904.999628840266
 21
2058.229351964738
 31
0.0
  0
LINE
  5
1DF
330
1F
100
AcDbEntity
  8
0-4_枠
  6
Continuous
 62
    92
370
    13
100
AcDbLine
 10
-1777.970191588741
 20
2988.229351964735
 30
0.0
 11
-1760.999628840264
 21
2971.258789216258
 31
0.0
  0
LINE
  5
1E0
330
1F
100
AcDbEntity
  8
0-4_枠
  6
Continuous
 62
    92
370
    13
100
AcDbLine
 10
-1777.970191588741
 20
2988.229351964735
 30
0.0
 11
-1904.999628840266
 21
2988.229351964735
 31
0.0
  0
LINE
  5
1E1
330
1F
100
AcDbEntity
  8
0-4_枠
  6
Continuous
 62
    92
370
    13
100
AcDbLine
 10
-1901.999628840266
 20
2148.229351964741
 30
0.0
 11
-1904.999628840266
 21
2148.229351964741
 31
0.0
  0
LINE
  5
1E2
330
1F
100
AcDbEntity
  8
0-4_枠
  6
Continuous
 62
    92
370
    13
100
AcDbLine
 10
-1901.999628840266
 20
2148.229351964741
 30
0.0
 11
-1901.999628840266
 21
2061.229512182028
 31
0.0
  0
LINE
  5
1E3
330
1F
100
AcDbEntity
  8
0-4_枠
  6
Continuous
 62
    92
370
    13
100
AcDbLine
 10
-1779.212672058575
 20
2061.229512182024
 30
0.0
 11
-1901.999628840266
 21
2061.229512182024
 31
0.0
  0
LINE
  5
1E4
330
1F
100
AcDbEntity
  8
0-4_枠
  6
Continuous
 62
    92
370
    13
100
AcDbLine
 10
-1901.999628840266
 20
2898.229351964735
 30
0.0
 11
-1904.999628840266
 21
2898.229351964735
 31
0.0
  0
LINE
  5
1E5
330
1F
100
AcDbEntity
  8
0-4_枠
  6
Continuous
 62
    92
370
    13
100
AcDbLine
 10
-1901.999628840266
 20
2898.229351964735
 30
0.0
 11
-1901.999628840266
 21
2985.229786840225
 31
0.0
  0
LINE
  5
1E6
330
1F
100
AcDbEntity
  8
0-4_枠
  6
Continuous
 62
    92
370
    13
100
AcDbLine
 10
-1901.999628840266
 20
2985.229786839936
 30
0.0
 11
-1779.213267151062
 21
2985.229786839936
 31
0.0
  0
LINE
  5
1E7
330
1F
100
AcDbEntity
  8
0-C_ハッチ
  6
Continuous
 62
   120
370
     5
100
AcDbLine
 10
-1901.999628840266
 20
2939.346944008328
 30
0.0
 11
-1763.999193964775
 21
2801.345101323869
 31
0.0
  0
LINE
  5
1E8
330
1F
100
AcDbEntity
  8
0-C_ハッチ
  6
Continuous
 62
   120
370
     5
100
AcDbLine
 10
-1901.999628840266
 20
2124.759210969261
 30
0.0
 11
-1838.46985608495
 21
2061.229512182024
 31
0.0
  0
LINE
  5
1E9
330
1F
100
AcDbEntity
  8
0-4_枠
  6
Continuous
 62
    92
370
    13
100
AcDbLine
 10
1761.000371159732
 20
2971.258789216258
 30
0.0
 11
1761.000371159732
 21
2505.229351964742
 31
0.0
  0
LINE
  5
1EA
330
1F
100
AcDbEntity
  8
0-4_枠
  6
Continuous
 62
    92
370
    13
100
AcDbLine
 10
1763.999936284243
 20
2505.229351964742
 30
0.0
 11
1763.999936284243
 21
2970.01571365365
 31
0.0
  0
LINE
  5
1EB
330
1F
100
AcDbEntity
  8
0-4_枠
  6
Continuous
 62
    92
370
    13
100
AcDbLine
 10
1761.000371159732
 20
2075.199914713213
 30
0.0
 11
1761.000371159732
 21
2349.229351964742
 31
0.0
  0
LINE
  5
1EC
330
1F
100
AcDbEntity
  8
0-4_枠
  6
Continuous
 62
    92
370
    13
100
AcDbLine
 10
1763.999936284243
 20
2076.442990275823
 30
0.0
 11
1763.999936284243
 21
2349.229351964742
 31
0.0
  0
LINE
  5
1ED
330
1F
100
AcDbEntity
  8
0-C_ハッチ
  6
Continuous
 62
   120
370
     5
100
AcDbLine
 10
1787.05834414517
 20
2349.229351964742
 30
0.0
 11
1763.999936284243
 21
2326.17111009509
 31
0.0
  0
LINE
  5
1EE
330
1F
100
AcDbEntity
  8
0-C_ハッチ
  6
Continuous
 62
   120
370
     5
100
AcDbLine
 10
1905.000371159747
 20
2467.17052994639
 30
0.0
 11
1809.258503958149
 21
2371.429351964741
 31
0.0
  0
LINE
  5
1EF
330
1F
100
AcDbEntity
  8
0-C_ハッチ
  6
Continuous
 62
   120
370
     5
100
AcDbLine
 10
1905.000371159734
 20
2602.934847254055
 30
0.0
 11
1807.294754126473
 21
2505.229351964742
 31
0.0
  0
LINE
  5
1F0
330
1F
100
AcDbEntity
  8
0-C_ハッチ
  6
Continuous
 62
   120
370
     5
100
AcDbLine
 10
1905.000371159734
 20
2535.052546573972
 30
0.0
 11
1763.999936284243
 21
2394.052490048442
 31
0.0
  0
LINE
  5
1F1
330
1F
100
AcDbEntity
  8
0-C_ハッチ
  6
Continuous
 62
   120
370
     5
100
AcDbLine
 10
1905.000371159734
 20
2195.641363304016
 30
0.0
 11
1774.900891470105
 21
2065.54203508996
 31
0.0
  0
LINE
  5
1F2
330
1F
100
AcDbEntity
  8
0-C_ハッチ
  6
Continuous
 62
   120
370
     5
100
AcDbLine
 10
1905.000371159734
 20
2399.285285844657
 30
0.0
 11
1763.999936284243
 21
2258.287926641251
 31
0.0
  0
LINE
  5
1F3
330
1F
100
AcDbEntity
  8
0-C_ハッチ
  6
Continuous
 62
   120
370
     5
100
AcDbLine
 10
1905.000371159734
 20
2670.817335932777
 30
0.0
 11
1763.999936284243
 21
2529.816513982559
 31
0.0
  0
LINE
  5
1F4
330
1F
100
AcDbEntity
  8
0-C_ハッチ
  6
Continuous
 62
   120
370
     5
100
AcDbLine
 10
1812.119837235634
 20
2985.229786840225
 30
0.0
 11
1763.999936284243
 21
2937.109394994523
 31
0.0
  0
LINE
  5
1F5
330
1F
100
AcDbEntity
  8
0-C_ハッチ
  6
Continuous
 62
   120
370
     5
100
AcDbLine
 10
1880.000603629585
 20
2985.229786840225
 30
0.0
 11
1763.999936284243
 21
2869.227539983537
 31
0.0
  0
LINE
  5
1F6
330
1F
100
AcDbEntity
  8
0-C_ハッチ
  6
Continuous
 62
   120
370
     5
100
AcDbLine
 10
1905.000371159734
 20
2874.465601106517
 30
0.0
 11
1763.999936284243
 21
2733.463246312881
 31
0.0
  0
LINE
  5
1F7
330
1F
100
AcDbEntity
  8
0-C_ハッチ
  6
Continuous
 62
   120
370
     5
100
AcDbLine
 10
1905.000371159734
 20
2806.58268094212
 30
0.0
 11
1763.999936284243
 21
2665.580807653213
 31
0.0
  0
LINE
  5
1F8
330
1F
100
AcDbEntity
  8
0-C_ハッチ
  6
Continuous
 62
   120
370
     5
100
AcDbLine
 10
1905.000371159734
 20
2738.699842642379
 30
0.0
 11
1763.999936284243
 21
2597.698952642226
 31
0.0
  0
LINE
  5
1F9
330
1F
100
AcDbEntity
  8
0-C_ハッチ
  6
Continuous
 62
   120
370
     5
100
AcDbLine
 10
1905.000371159734
 20
2331.405464828557
 30
0.0
 11
1763.999936284243
 21
2190.405476537491
 31
0.0
  0
LINE
  5
1FA
330
1F
100
AcDbEntity
  8
0-C_ハッチ
  6
Continuous
 62
   120
370
     5
100
AcDbLine
 10
1905.000371159734
 20
2263.523251475871
 30
0.0
 11
1763.999936284243
 21
2122.523037877821
 31
0.0
  0
LINE
  5
1FB
330
1F
100
AcDbEntity
  8
0-4_枠
  6
Continuous
 62
    92
370
    13
100
AcDbLine
 10
1905.000371159734
 20
2988.229351964735
 30
0.0
 11
1905.000371159734
 21
2058.229351964738
 31
0.0
  0
LINE
  5
1FC
330
1F
100
AcDbEntity
  8
0-4_枠
  6
Continuous
 62
    92
370
    13
100
AcDbLine
 10
1779.213414378042
 20
2061.229512182024
 30
0.0
 11
1763.999936284243
 21
2076.442990275823
 31
0.0
  0
LINE
  5
1FD
330
1F
100
AcDbEntity
  8
0-4_枠
  6
Continuous
 62
    92
370
    13
100
AcDbLine
 10
1779.214009470529
 20
2985.229786839936
 30
0.0
 11
1763.999936284243
 21
2970.01571365365
 31
0.0
  0
LINE
  5
1FE
330
1F
100
AcDbEntity
  8
0-4_枠
  6
Continuous
 62
    92
370
    13
100
AcDbLine
 10
1777.97093390821
 20
2058.229351964738
 30
0.0
 11
1761.000371159732
 21
2075.199914713214
 31
0.0
  0
LINE
  5
1FF
330
1F
100
AcDbEntity
  8
0-4_枠
  6
Continuous
 62
    92
370
    13
100
AcDbLine
 10
1777.97093390821
 20
2058.229351964738
 30
0.0
 11
1905.000371159734
 21
2058.229351964738
 31
0.0
  0
LINE
  5
200
330
1F
100
AcDbEntity
  8
0-4_枠
  6
Continuous
 62
    92
370
    13
100
AcDbLine
 10
1777.97093390821
 20
2988.229351964735
 30
0.0
 11
1761.000371159732
 21
2971.258789216258
 31
0.0
  0
LINE
  5
201
330
1F
100
AcDbEntity
  8
0-4_枠
  6
Continuous
 62
    92
370
    13
100
AcDbLine
 10
1777.97093390821
 20
2988.229351964735
 30
0.0
 11
1905.000371159734
 21
2988.229351964735
 31
0.0
  0
LINE
  5
202
330
1F
100
AcDbEntity
  8
0-4_枠
  6
Continuous
 62
    92
370
    13
100
AcDbLine
 10
1902.000371159735
 20
2148.229351964741
 30
0.0
 11
1902.000371159735
 21
2061.229512182028
 31
0.0
  0
LINE
  5
203
330
1F
100
AcDbEntity
  8
0-4_枠
  6
Continuous
 62
    92
370
    13
100
AcDbLine
 10
1902.000371159735
 20
2148.229351964741
 30
0.0
 11
1905.000371159736
 21
2148.229351964741
 31
0.0
  0
LINE
  5
204
330
1F
100
AcDbEntity
  8
0-4_枠
  6
Continuous
 62
    92
370
    13
100
AcDbLine
 10
1779.213414378042
 20
2061.229512182024
 30
0.0
 11
1902.000371159735
 21
2061.229512182024
 31
0.0
  0
LINE
  5
205
330
1F
100
AcDbEntity
  8
0-4_枠
  6
Continuous
 62
    92
370
    13
100
AcDbLine
 10
1902.000371159735
 20
2898.229351964735
 30
0.0
 11
1902.000371159735
 21
2985.229786840225
 31
0.0
  0
LINE
  5
206
330
1F
100
AcDbEntity
  8
0-4_枠
  6
Continuous
 62
    92
370
    13
100
AcDbLine
 10
1902.000371159735
 20
2898.229351964735
 30
0.0
 11
1905.000371159736
 21
2898.229351964735
 31
0.0
  0
LINE
  5
207
330
1F
100
AcDbEntity
  8
0-4_枠
  6
Continuous
 62
    92
370
    13
100
AcDbLine
 10
1902.000371159735
 20
2985.229786839936
 30
0.0
 11
1779.214009470529
 21
2985.229786839936
 31
0.0
  0
LINE
  5
208
330
1F
100
AcDbEntity
  8
0-C_ハッチ
  6
Continuous
 62
   120
370
     5
100
AcDbLine
 10
1902.000371159735
 20
2124.759210969264
 30
0.0
 11
1838.470598404418
 21
2061.229512182024
 31
0.0
  0
LINE
  5
209
330
1F
100
AcDbEntity
  8
0-C_ハッチ
  6
Continuous
 62
   120
370
     5
100
AcDbLine
 10
1902.000371159735
 20
2939.34694400833
 30
0.0
 11
1763.999936284243
 21
2801.345101323868
 31
0.0
  0
LINE
  5
20A
330
1F
100
AcDbEntity
  8
0-3_仕上げ
  6
Continuous
 62
    92
370
    13
100
AcDbLine
 10
2876.306103077837
 20
2208.229351964742
 30
0.0
 11
2876.306103077837
 21
2838.229351964742
 31
0.0
  0
LINE
  5
20B
330
1F
100
AcDbEntity
  8
0-3_仕上げ
  6
Continuous
 62
     7
370
     9
100
AcDbLine
 10
2246.306103077837
 20
2208.229351964742
 30
0.0
 11
2876.306103077837
 21
2838.229351964742
 31
0.0
  0
LINE
  5
20C
330
1F
100
AcDbEntity
  8
0-3_仕上げ
  6
Continuous
 62
     7
370
     9
100
AcDbLine
 10
2246.306103077837
 20
2838.229351964742
 30
0.0
 11
2876.306103077837
 21
2208.229351964742
 31
0.0
  0
LINE
  5
20D
330
1F
100
AcDbEntity
  8
0-3_仕上げ
  6
Continuous
 62
    92
370
    13
100
AcDbLine
 10
2246.306103077837
 20
2208.229351964742
 30
0.0
 11
2246.306103077837
 21
2838.229351964742
 31
0.0
  0
LINE
  5
20E
330
1F
100
AcDbEntity
  8
0-3_仕上げ
  6
Continuous
 62
    92
370
    13
100
AcDbLine
 10
2175.000371159734
 20
2208.229351964742
 30
0.0
 11
2175.000371159734
 21
2838.229351964742
 31
0.0
  0
LINE
  5
20F
330
1F
100
AcDbEntity
  8
0-3_仕上げ
  6
Continuous
 62
    92
370
    13
100
AcDbLine
 10
1905.000371159734
 20
2838.229351964742
 30
0.0
 11
1905.000371159734
 21
2208.229351964742
 31
0.0
  0
LINE
  5
210
330
1F
100
AcDbEntity
  8
0-3_仕上げ
  6
Continuous
 62
    92
370
    13
100
AcDbLine
 10
-2534.999628840265
 20
2838.229351964755
 30
0.0
 11
-2534.999628840265
 21
2208.229351964749
 31
0.0
  0
LINE
  5
211
330
1F
100
AcDbEntity
  8
0-3_仕上げ
  6
Continuous
 62
     7
370
     9
100
AcDbLine
 10
-1904.999628840266
 20
2208.229351964749
 30
0.0
 11
-2534.999628840265
 21
2838.229351964755
 31
0.0
  0
LINE
  5
212
330
1F
100
AcDbEntity
  8
0-3_仕上げ
  6
Continuous
 62
     7
370
     9
100
AcDbLine
 10
-2534.999628840265
 20
2208.229351964749
 30
0.0
 11
-1904.999628840266
 21
2838.229351964755
 31
0.0
  0
LINE
  5
213
330
1F
100
AcDbEntity
  8
0-3_仕上げ
  6
Continuous
 62
    92
370
    13
100
AcDbLine
 10
-1904.999628840266
 20
2838.229351964755
 30
0.0
 11
-1904.999628840266
 21
2208.229351964749
 31
0.0
  0
LINE
  5
214
330
1F
100
AcDbEntity
  8
0-3_仕上げ
  6
Continuous
 62
     7
370
     9
100
AcDbLine
 10
1905.000371159734
 20
2208.229351964742
 30
0.0
 11
2175.000371159734
 21
2838.229351964742
 31
0.0
  0
LWPOLYLINE
  5
215
330
1F
100
AcDbEntity
  8
0-B_寸法
  6
Continuous
 62
     7
370
     9
100
AcDbPolyline
 90
        4
 70
     1
 43
3.0
 10
-1903.499628840266
 20
918.2293519647419
 42
0.4142135623731
 10
-1904.999628840266
 20
919.7293519647419
 42
0.4142135623731
 10
-1906.499628840266
 20
918.2293519647419
 42
0.4142135623731
 10
-1904.999628840266
 20
916.7293519647419
 42
0.4142135623731
  0
LINE
  5
216
330
1F
100
AcDbEntity
  8
0-B_寸法
  6
Continuous
 62
   120
370
     5
100
AcDbLine
 10
1905.000371159735
 20
918.2293519647419
 30
0.0
 11
1905.000371159735
 21
1878.229351964744
 31
0.0
  0
LWPOLYLINE
  5
217
330
1F
100
AcDbEntity
  8
0-B_寸法
  6
Continuous
 62
     7
370
     9
100
AcDbPolyline
 90
        4
 70
     1
 43
3.0
 10
1906.500371159735
 20
918.2293519647419
 42
0.4142135623731
 10
1905.000371159735
 20
919.7293519647419
 42
0.4142135623731
 10
1903.500371159735
 20
918.2293519647419
 42
0.4142135623731
 10
1905.000371159735
 20
916.7293519647419
 42
0.4142135623731
  0
LINE
  5
218
330
1F
100
AcDbEntity
  8
0-B_寸法
  6
Continuous
 62
   120
370
     5
100
AcDbLine
 10
-1904.999628840266
 20
918.2293519647419
 30
0.0
 11
-1904.999628840266
 21
1878.229351964744
 31
0.0
  0
LINE
  5
219
330
1F
100
AcDbEntity
  8
0-B_寸法
  6
Continuous
 62
   120
370
     5
100
AcDbLine
 10
1761.000371159737
 20
1338.229351964742
 30
0.0
 11
-1760.999628840266
 21
1338.229351964742
 31
0.0
  0
LINE
  5
21A
330
1F
100
AcDbEntity
  8
0-B_寸法
  6
Continuous
 62
   120
370
     5
100
AcDbLine
 10
1761.000371159737
 20
1128.229351964742
 30
0.0
 11
1761.000371159737
 21
1878.229351964744
 31
0.0
  0
MTEXT
  5
21B
330
1F
100
AcDbEntity
  8
0-B_寸法
  6
Continuous
 62
     7
370
   211
100
AcDbMText
 10
1773.000371159735
 20
1128.949351964742
 30
0.0
 40
91.44
 41
120.0
 46
0.0
 71
     7
 72
     1
  1
{\fＭＳ ゴシック|b0|i0|c128|p49;24}
 73
     1
 44
1.0
  0
LWPOLYLINE
  5
21C
330
1F
100
AcDbEntity
  8
0-B_寸法
  6
Continuous
 62
     7
370
     9
100
AcDbPolyline
 90
        4
 70
     1
 43
3.0
 10
1762.500371159736
 20
1128.229351964742
 42
0.4142135623731
 10
1761.000371159737
 20
1129.729351964742
 42
0.4142135623731
 10
1759.500371159737
 20
1128.229351964742
 42
0.4142135623731
 10
1761.000371159737
 20
1126.729351964742
 42
0.4142135623731
  0
LWPOLYLINE
  5
21D
330
1F
100
AcDbEntity
  8
0-B_寸法
  6
Continuous
 62
     7
370
     9
100
AcDbPolyline
 90
        4
 70
     1
 43
3.0
 10
1906.500371159735
 20
1128.229351964742
 42
0.4142135623731
 10
1905.000371159735
 20
1129.729351964742
 42
0.4142135623731
 10
1903.500371159735
 20
1128.229351964742
 42
0.4142135623731
 10
1905.000371159735
 20
1126.729351964742
 42
0.4142135623731
  0
LINE
  5
21E
330
1F
100
AcDbEntity
  8
0-B_寸法
  6
Continuous
 62
   120
370
     5
100
AcDbLine
 10
1905.000371159735
 20
1128.229351964742
 30
0.0
 11
-1904.999628840266
 21
1128.229351964742
 31
0.0
  0
LINE
  5
21F
330
1F
100
AcDbEntity
  8
0-B_寸法
  6
Continuous
 62
   120
370
     5
100
AcDbLine
 10
-1760.999628840266
 20
1128.229351964742
 30
0.0
 11
-1760.999628840266
 21
1878.229351964744
 31
0.0
  0
MTEXT
  5
220
330
1F
100
AcDbEntity
  8
0-B_寸法
  6
Continuous
 62
     7
370
   211
100
AcDbMText
 10
-1892.999628840265
 20
1128.949351964742
 30
0.0
 40
91.44
 41
120.0
 46
0.0
 71
     7
 72
     1
  1
{\fＭＳ ゴシック|b0|i0|c128|p49;24}
 73
     1
 44
1.0
  0
LWPOLYLINE
  5
221
330
1F
100
AcDbEntity
  8
0-B_寸法
  6
Continuous
 62
     7
370
     9
100
AcDbPolyline
 90
        4
 70
     1
 43
3.0
 10
-1903.499628840266
 20
1128.229351964742
 42
0.4142135623731
 10
-1904.999628840266
 20
1129.729351964742
 42
0.4142135623731
 10
-1906.499628840266
 20
1128.229351964742
 42
0.4142135623731
 10
-1904.999628840266
 20
1126.729351964742
 42
0.4142135623731
  0
LWPOLYLINE
  5
222
330
1F
100
AcDbEntity
  8
0-B_寸法
  6
Continuous
 62
     7
370
     9
100
AcDbPolyline
 90
        4
 70
     1
 43
3.0
 10
-1759.499628840266
 20
1128.229351964742
 42
0.4142135623731
 10
-1760.999628840266
 20
1129.729351964742
 42
0.4142135623731
 10
-1762.499628840266
 20
1128.229351964742
 42
0.4142135623731
 10
-1760.999628840266
 20
1126.729351964742
 42
0.4142135623731
  0
LINE
  5
223
330
1F
100
AcDbEntity
  8
0-B_寸法
  6
Continuous
 62
   120
370
     5
100
AcDbLine
 10
1749.000371159736
 20
1338.229351964742
 30
0.0
 11
1749.000371159736
 21
1878.229351964744
 31
0.0
  0
MTEXT
  5
224
330
1F
100
AcDbEntity
  8
0-B_寸法
  6
Continuous
 62
     7
370
   211
100
AcDbMText
 10
1677.625742799755
 20
1338.949351964742
 30
0.0
 40
91.44
 41
60.0
 46
0.0
 71
     7
 72
     1
  1
{\fＭＳ ゴシック|b0|i0|c128|p49;2}
 73
     1
 44
1.0
  0
LWPOLYLINE
  5
225
330
1F
100
AcDbEntity
  8
0-B_寸法
  6
Continuous
 62
     7
370
     9
100
AcDbPolyline
 90
        4
 70
     1
 43
3.0
 10
1750.500371159736
 20
1338.229351964742
 42
0.4142135623731
 10
1749.000371159736
 20
1339.729351964742
 42
0.4142135623731
 10
1747.500371159736
 20
1338.229351964742
 42
0.4142135623731
 10
1749.000371159736
 20
1336.729351964742
 42
0.4142135623731
  0
LWPOLYLINE
  5
226
330
1F
100
AcDbEntity
  8
0-B_寸法
  6
Continuous
 62
     7
370
     9
100
AcDbPolyline
 90
        4
 70
     1
 43
3.0
 10
1762.500371159736
 20
1338.229351964742
 42
0.4142135623731
 10
1761.000371159737
 20
1339.729351964742
 42
0.4142135623731
 10
1759.500371159737
 20
1338.229351964742
 42
0.4142135623731
 10
1761.000371159737
 20
1336.729351964742
 42
0.4142135623731
  0
LINE
  5
227
330
1F
100
AcDbEntity
  8
0-B_寸法
  6
Continuous
 62
   120
370
     5
100
AcDbLine
 10
-1730.999628840266
 20
1338.229351964742
 30
0.0
 11
-1730.999628840266
 21
1878.229351964744
 31
0.0
  0
MTEXT
  5
228
330
1F
100
AcDbEntity
  8
0-B_寸法
  6
Continuous
 62
     7
370
   211
100
AcDbMText
 10
-1722.085147804188
 20
1338.949351964742
 30
0.0
 40
91.44
 41
60.0
 46
0.0
 71
     7
 72
     1
  1
{\fＭＳ ゴシック|b0|i0|c128|p49;5}
 73
     1
 44
1.0
  0
LWPOLYLINE
  5
229
330
1F
100
AcDbEntity
  8
0-B_寸法
  6
Continuous
 62
     7
370
     9
100
AcDbPolyline
 90
        4
 70
     1
 43
3.0
 10
-1759.499628840266
 20
1338.229351964742
 42
0.4142135623731
 10
-1760.999628840266
 20
1339.729351964742
 42
0.4142135623731
 10
-1762.499628840266
 20
1338.229351964742
 42
0.4142135623731
 10
-1760.999628840266
 20
1336.729351964742
 42
0.4142135623731
  0
LWPOLYLINE
  5
22A
330
1F
100
AcDbEntity
  8
0-B_寸法
  6
Continuous
 62
     7
370
     9
100
AcDbPolyline
 90
        4
 70
     1
 43
3.0
 10
-1729.499628840266
 20
1338.229351964742
 42
0.4142135623731
 10
-1730.999628840266
 20
1339.729351964742
 42
0.4142135623731
 10
-1732.499628840266
 20
1338.229351964742
 42
0.4142135623731
 10
-1730.999628840266
 20
1336.729351964742
 42
0.4142135623731
  0
LINE
  5
22B
330
1F
100
AcDbEntity
  8
0-B_寸法
  6
Continuous
 62
   120
370
     5
100
AcDbLine
 10
1905.000371159735
 20
918.2293519647419
 30
0.0
 11
-1904.999628840266
 21
918.2293519647419
 31
0.0
  0
MTEXT
  5
22C
330
1F
100
AcDbEntity
  8
0-A_文字
  6
Continuous
 62
     7
370
     9
100
AcDbMText
 10
1543.828731249467
 20
734.9520877658658
 30
0.0
 40
68.58000000000001
 41
720.0
 46
0.0
 71
     7
 72
     1
  1
{\fＭＳ ゴシック|b0|i0|c128|p49;※図示：右吊り元}
 73
     1
 44
1.0
  0
LINE
  5
22D
330
1F
100
AcDbEntity
  8
0-6_扉
  6
JWW_DASHED2
 62
   200
370
    20
100
AcDbLine
 10
1617.031447129635
 20
1967.677825635298
 30
0.0
 11
1617.031447129635
 21
1878.229866644737
 31
0.0
  0
LINE
  5
22E
330
1F
100
AcDbEntity
  8
0-6_扉
  6
JWW_DASHED2
 62
   200
370
    20
100
AcDbLine
 10
1401.031447129635
 20
1967.677825635298
 30
0.0
 11
1401.031447129635
 21
1878.229866644737
 31
0.0
  0
LINE
  5
22F
330
1F
100
AcDbEntity
  8
0-6_扉
  6
JWW_DASHED2
 62
   200
370
    20
100
AcDbLine
 10
1401.031447129635
 20
1967.677825635298
 30
0.0
 11
1617.031447129635
 21
1967.677825635298
 31
0.0
  0
CIRCLE
  5
230
330
1F
100
AcDbEntity
  8
0-7_金物
  6
Continuous
 62
     7
370
     9
100
AcDbCircle
 10
1743.291672309403
 20
1961.96912678497
 30
0.0
 40
30.0
  0
CIRCLE
  5
231
330
1F
100
AcDbEntity
  8
0-7_金物
  6
Continuous
 62
     7
370
     9
100
AcDbCircle
 10
1743.291672309403
 20
1961.96912678497
 30
0.0
 40
21.00000000000001
  0
MTEXT
  5
232
330
1F
100
AcDbEntity
  8
0-A_文字
  6
Continuous
 62
     7
370
     9
100
AcDbMText
 10
1741.09096720652
 20
1887.15318453689
 30
0.0
 40
100.584
 41
660.0
 46
0.0
 71
     7
 72
     1
  1
{\fＭＳ ゴシック|b0|i0|c128|p49;（丁番側）}
 73
     1
 44
1.0
  0
LINE
  5
233
330
1F
100
AcDbEntity
  8
0-B_寸法
  6
Continuous
 62
   120
370
     5
100
AcDbLine
 10
-1700.999731837091
 20
1518.229351964742
 30
0.0
 11
1401.031447129635
 21
1518.229351964742
 31
0.0
  0
LWPOLYLINE
  5
234
330
1F
100
AcDbEntity
  8
0-B_寸法
  6
Continuous
 62
     7
370
     9
100
AcDbPolyline
 90
        4
 70
     1
 43
3.0
 10
-1699.499731837091
 20
1518.229351964742
 42
0.4142135623731
 10
-1700.999731837091
 20
1519.729351964742
 42
0.4142135623731
 10
-1702.499731837091
 20
1518.229351964742
 42
0.4142135623731
 10
-1700.999731837091
 20
1516.729351964742
 42
0.4142135623731
  0
LWPOLYLINE
  5
235
330
1F
100
AcDbEntity
  8
0-B_寸法
  6
Continuous
 62
     7
370
     9
100
AcDbPolyline
 90
        4
 70
     1
 43
3.0
 10
1402.531447129635
 20
1518.229351964742
 42
0.4142135623731
 10
1401.031447129635
 20
1519.729351964742
 42
0.4142135623731
 10
1399.531447129635
 20
1518.229351964742
 42
0.4142135623731
 10
1401.031447129635
 20
1516.729351964742
 42
0.4142135623731
  0
LINE
  5
236
330
1F
100
AcDbEntity
  8
0-B_寸法
  6
Continuous
 62
   120
370
     5
100
AcDbLine
 10
-1700.999731837091
 20
1518.229351964742
 30
0.0
 11
-1700.999731837091
 21
1878.229351964742
 31
0.0
  0
LINE
  5
237
330
1F
100
AcDbEntity
  8
0-B_寸法
  6
Continuous
 62
   120
370
     5
100
AcDbLine
 10
1401.031447129635
 20
1518.229351964742
 30
0.0
 11
1401.031447129635
 21
1878.229351964742
 31
0.0
  0
LINE
  5
238
330
1F
100
AcDbEntity
  8
0-4_枠
  6
Continuous
 62
    92
370
    13
100
AcDbLine
 10
1169.876534741422
 20
-851.8040760858823
 30
0.0
 11
2099.876534741423
 21
-851.8040760858823
 31
0.0
  0
LWPOLYLINE
  5
239
330
1F
100
AcDbEntity
  8
0-B_寸法
  6
Continuous
 62
     7
370
     9
100
AcDbPolyline
 90
        4
 70
     1
 43
3.0
 10
2101.376534741423
 20
-709.7740769835697
 42
0.4142135623731
 10
2099.876534741423
 20
-708.2740769835697
 42
0.4142135623731
 10
2098.376534741423
 20
-709.7740769835697
 42
0.4142135623731
 10
2099.876534741423
 20
-711.2740769835697
 42
0.4142135623731
  0
LWPOLYLINE
  5
23A
330
1F
100
AcDbEntity
  8
0-B_寸法
  6
Continuous
 62
     7
370
     9
100
AcDbPolyline
 90
        4
 70
     1
 43
3.0
 10
1171.376534741421
 20
-709.7740769835697
 42
0.4142135623731
 10
1169.876534741422
 20
-708.2740769835697
 42
0.4142135623731
 10
1168.376534741422
 20
-709.7740769835697
 42
0.4142135623731
 10
1169.876534741422
 20
-711.2740769835697
 42
0.4142135623731
  0
LINE
  5
23B
330
1F
100
AcDbEntity
  8
0-B_寸法
  6
Continuous
 62
   120
370
     5
100
AcDbLine
 10
2099.876534741423
 20
-709.7740769835697
 30
0.0
 11
2099.876534741423
 21
-799.7740769835697
 31
0.0
  0
LINE
  5
23C
330
1F
100
AcDbEntity
  8
0-B_寸法
  6
Continuous
 62
   120
370
     5
100
AcDbLine
 10
1169.876534741422
 20
-709.7740769835697
 30
0.0
 11
2099.876534741423
 21
-709.7740769835697
 31
0.0
  0
LINE
  5
23D
330
1F
100
AcDbEntity
  8
0-B_寸法
  6
Continuous
 62
   120
370
     5
100
AcDbLine
 10
1169.876534741422
 20
-709.7740769835697
 30
0.0
 11
1169.876534741422
 21
-799.7740769835697
 31
0.0
  0
LWPOLYLINE
  5
23E
330
1F
100
AcDbEntity
  8
0-B_寸法
  6
Continuous
 62
     7
370
     9
100
AcDbPolyline
 90
        4
 70
     1
 43
3.0
 10
913.6242075780474
 20
-851.8040760858823
 42
0.4142135623731
 10
912.1242075780474
 20
-850.3040760858823
 42
0.4142135623731
 10
910.6242075780474
 20
-851.8040760858823
 42
0.4142135623731
 10
912.1242075780474
 20
-853.3040760858825
 42
0.4142135623731
  0
LINE
  5
23F
330
1F
100
AcDbEntity
  8
0-B_寸法
  6
Continuous
 62
   120
370
     5
100
AcDbLine
 10
912.1242075780474
 20
-851.8040760858823
 30
0.0
 11
1054.796542575789
 21
-851.8040760858823
 31
0.0
  0
LINE
  5
240
330
1F
100
AcDbEntity
  8
0-A_文字
  6
Continuous
 62
    92
370
    13
100
AcDbLine
 10
538.3760617674686
 20
-279.9996216232809
 30
0.0
 11
2473.624680552002
 21
-279.9996216232809
 31
0.0
  0
LINE
  5
241
330
1F
100
AcDbEntity
  8
0-4_枠
  6
JWW_HOJO
 62
   120
370
     5
100
AcDbLine
 10
2171.876534741424
 20
-851.8040760858823
 30
0.0
 11
2171.876534741424
 21
-2869.600352083166
 31
0.0
  0
LINE
  5
242
330
1F
100
AcDbEntity
  8
0-4_枠
  6
JWW_HOJO
 62
   120
370
     5
100
AcDbLine
 10
1097.876534741422
 20
-851.8040760858823
 30
0.0
 11
1097.876534741422
 21
-2869.600352083166
 31
0.0
  0
LINE
  5
243
330
1F
100
AcDbEntity
  8
0-4_枠
  6
Continuous
 62
    92
370
    13
100
AcDbLine
 10
1169.876534741422
 20
-2869.600352083166
 30
0.0
 11
2099.876534741423
 21
-2869.600352083166
 31
0.0
  0
LINE
  5
244
330
1F
100
AcDbEntity
  8
0-B_寸法
  6
Continuous
 62
   120
370
     5
100
AcDbLine
 10
912.1242075780474
 20
-851.8040760858823
 30
0.0
 11
912.1242075780474
 21
-2889.379380902989
 31
0.0
  0
LWPOLYLINE
  5
245
330
1F
100
AcDbEntity
  8
0-B_寸法
  6
Continuous
 62
     7
370
     9
100
AcDbPolyline
 90
        4
 70
     1
 43
3.0
 10
913.6242075780474
 20
-2889.379380902989
 42
0.4142135623731
 10
912.1242075780474
 20
-2887.879380902989
 42
0.4142135623731
 10
910.6242075780474
 20
-2889.379380902989
 42
0.4142135623731
 10
912.1242075780474
 20
-2890.879380902989
 42
0.4142135623731
  0
LINE
  5
246
330
1F
100
AcDbEntity
  8
0-B_寸法
  6
Continuous
 62
   120
370
     5
100
AcDbLine
 10
912.1242075780474
 20
-2889.379380902989
 30
0.0
 11
1054.796542575789
 21
-2889.379380902989
 31
0.0
  0
LINE
  5
247
330
1F
100
AcDbEntity
  8
0-A_文字
  6
Continuous
 62
    92
370
    13
100
AcDbLine
 10
2473.624680552002
 20
-279.9996216232809
 30
0.0
 11
2473.624680552002
 21
-3159.999621623279
 31
0.0
  0
LINE
  5
248
330
1F
100
AcDbEntity
  8
0-A_文字
  6
Continuous
 62
    92
370
    13
100
AcDbLine
 10
538.3760617674686
 20
-3159.999621623279
 30
0.0
 11
2473.624680552002
 21
-3159.999621623279
 31
0.0
  0
LINE
  5
249
330
1F
100
AcDbEntity
  8
0-A_文字
  6
Continuous
 62
    92
370
    13
100
AcDbLine
 10
538.3760617674686
 20
-3159.999621623279
 30
0.0
 11
538.3760617674686
 21
-279.9996216232809
 31
0.0
  0
LINE
  5
24A
330
1F
100
AcDbEntity
  8
0-4_枠
  6
Continuous
 62
    92
370
    13
100
AcDbLine
 10
1169.876534741422
 20
-851.8040760858823
 30
0.0
 11
1169.876534741422
 21
-1833.319879229888
 31
0.0
  0
LINE
  5
24B
330
1F
100
AcDbEntity
  8
0-4_枠
  6
Continuous
 62
    92
370
    13
100
AcDbLine
 10
2099.876534741423
 20
-851.8040760858823
 30
0.0
 11
2099.876534741423
 21
-1833.319879229888
 31
0.0
  0
LINE
  5
24C
330
1F
100
AcDbEntity
  8
0-4_枠
  6
Continuous
 62
    92
370
    13
100
AcDbLine
 10
1169.876534741422
 20
-1894.809878168981
 30
0.0
 11
1169.876534741422
 21
-2869.600352083166
 31
0.0
  0
LINE
  5
24D
330
1F
100
AcDbEntity
  8
0-4_枠
  6
Continuous
 62
    92
370
    13
100
AcDbLine
 10
2099.876534741423
 20
-1894.809878168981
 30
0.0
 11
2099.876534741423
 21
-2869.600352083166
 31
0.0
  0
LINE
  5
24E
330
1F
100
AcDbEntity
  8
0-A_文字
  6
Continuous
 62
    92
370
    13
100
AcDbLine
 10
1650.970324261172
 20
-1924.809878168981
 30
0.0
 11
1680.970324261172
 21
-1894.809878168981
 31
0.0
  0
LINE
  5
24F
330
1F
100
AcDbEntity
  8
0-A_文字
  6
Continuous
 62
    92
370
    13
100
AcDbLine
 10
1620.970324261172
 20
-1864.809878168981
 30
0.0
 11
1650.970324261172
 21
-1924.809878168981
 31
0.0
  0
LINE
  5
250
330
1F
100
AcDbEntity
  8
0-A_文字
  6
Continuous
 62
    92
370
    13
100
AcDbLine
 10
1590.970324261172
 20
-1894.809878168981
 30
0.0
 11
1620.970324261172
 21
-1864.809878168981
 31
0.0
  0
LINE
  5
251
330
1F
100
AcDbEntity
  8
0-A_文字
  6
Continuous
 62
    92
370
    13
100
AcDbLine
 10
1669.89032393474
 20
-1863.319879229888
 30
0.0
 11
1699.89032393474
 21
-1833.319879229888
 31
0.0
  0
LINE
  5
252
330
1F
100
AcDbEntity
  8
0-A_文字
  6
Continuous
 62
    92
370
    13
100
AcDbLine
 10
1639.89032393474
 20
-1803.319879229888
 30
0.0
 11
1669.89032393474
 21
-1863.319879229888
 31
0.0
  0
LINE
  5
253
330
1F
100
AcDbEntity
  8
0-A_文字
  6
Continuous
 62
    92
370
    13
100
AcDbLine
 10
1609.89032393474
 20
-1833.319879229888
 30
0.0
 11
1639.89032393474
 21
-1803.319879229888
 31
0.0
  0
LINE
  5
254
330
1F
100
AcDbEntity
  8
0-A_文字
  6
Continuous
 62
    92
370
    13
100
AcDbLine
 10
1097.876534741422
 20
-1833.319879229888
 30
0.0
 11
1609.89032393474
 21
-1833.319879229888
 31
0.0
  0
LINE
  5
255
330
1F
100
AcDbEntity
  8
0-A_文字
  6
Continuous
 62
    92
370
    13
100
AcDbLine
 10
1097.876534741422
 20
-1894.809878168981
 30
0.0
 11
1590.970324261172
 21
-1894.809878168981
 31
0.0
  0
LINE
  5
256
330
1F
100
AcDbEntity
  8
0-A_文字
  6
Continuous
 62
    92
370
    13
100
AcDbLine
 10
1699.89032393474
 20
-1833.319879229888
 30
0.0
 11
2170.34666283646
 21
-1833.319879229888
 31
0.0
  0
LINE
  5
257
330
1F
100
AcDbEntity
  8
0-A_文字
  6
Continuous
 62
    92
370
    13
100
AcDbLine
 10
1680.970324261172
 20
-1894.809878168981
 30
0.0
 11
2171.876534741423
 21
-1894.809878168981
 31
0.0
  0
MTEXT
  5
258
330
1F
100
AcDbEntity
  8
0-B_寸法
  6
Continuous
 62
     7
370
     0
100
AcDbMText
 10
1516.015195606153
 20
-710.762112721708
 30
0.0
 40
91.44
 41
180.0
 46
0.0
 71
     7
 72
     1
  1
{\fＭＳ ゴシック|b0|i0|c128|p49;155}
 73
     1
 44
1.0
  0
MTEXT
  5
259
330
1F
100
AcDbEntity
  8
0-B_寸法
  6
Continuous
 62
     7
370
     0
100
AcDbMText
 10
886.1128059068385
 20
-2034.871728494436
 30
0.0
 40
91.44
 41
300.0
 46
0.0
 71
     7
 72
     1
  1
{\fＭＳ ゴシック|b0|i0|c128|p49;2,400}
 11
6.123031769111886E-17
 21
1.0
 31
0.0
 73
     1
 44
1.0
  0
LINE
  5
25A
330
1F
100
AcDbEntity
  8
0-A_文字
  6
Continuous
 62
    92
370
    13
100
AcDbLine
 10
538.3760617674682
 20
-459.9996216232809
 30
0.0
 11
2473.624680552002
 21
-459.9996216232809
 31
0.0
  0
MTEXT
  5
25B
330
1F
100
AcDbEntity
  8
0-A_文字
  6
Continuous
 62
     7
370
     0
100
AcDbMText
 10
1086.000371159735
 20
-444.2796216232809
 30
0.0
 40
91.43999999999991
 41
839.9999999999991
 46
0.0
 71
     7
 72
     1
  1
{\fＭＳ ゴシック|b0|i0|c128|p49;竪枠下端加工図}
 73
     1
 44
1.0
  0
MTEXT
  5
25C
330
1F
100
AcDbEntity
  8
0-A_文字
  6
Continuous
 62
     7
370
     9
100
AcDbMText
 10
-3104.999628840267
 20
3105.959452226059
 30
0.0
 40
100.584
 41
660.0
 46
0.0
 71
     7
 72
     1
  1
{\fＭＳ ゴシック|b0|i0|c128|p49;■横断面図}
 73
     1
 44
1.0
  0
MTEXT
  5
25D
330
1F
100
AcDbEntity
  8
0-A_文字
  6
Continuous
 62
     7
370
     9
100
AcDbMText
 10
4820.917643811961
 20
3570.099983504012
 30
0.0
 40
76.19999999999999
 41
300.0
 46
0.0
 71
     7
 72
     1
  1
{\fＭＳ ゴシック|b0|i0|c128|p49;左吊元}
 73
     1
 44
1.0
  0
MTEXT
  5
25E
330
1F
100
AcDbEntity
  8
0-A_文字
  6
Continuous
 62
     7
370
     9
100
AcDbMText
 10
4022.917643811963
 20
3570.099983504012
 30
0.0
 40
76.19999999999999
 41
300.0
 46
0.0
 71
     7
 72
     1
  1
{\fＭＳ ゴシック|b0|i0|c128|p49;右吊元}
 73
     1
 44
1.0
  0
LINE
  5
25F
330
1F
100
AcDbEntity
  8
0-A_文字
  6
Continuous
 62
    92
370
    13
100
AcDbLine
 10
3773.917643811962
 20
3684.999983504013
 30
0.0
 11
3773.917643811962
 21
2718.999983504013
 31
0.0
  0
LINE
  5
260
330
1F
100
AcDbEntity
  8
0-A_文字
  6
Continuous
 62
    92
370
    13
100
AcDbLine
 10
3773.917643811962
 20
3558.999983504013
 30
0.0
 11
5369.917643811961
 21
3558.999983504013
 31
0.0
  0
LINE
  5
261
330
1F
100
AcDbEntity
  8
0-A_文字
  6
Continuous
 62
    92
370
    13
100
AcDbLine
 10
5369.917643811961
 20
3684.999983504013
 30
0.0
 11
3773.917643811962
 21
3684.999983504013
 31
0.0
  0
LINE
  5
262
330
1F
100
AcDbEntity
  8
0-A_文字
  6
Continuous
 62
    92
370
    13
100
AcDbLine
 10
5369.917643811961
 20
3684.999983504013
 30
0.0
 11
5369.917643811961
 21
2718.999983504013
 31
0.0
  0
LINE
  5
263
330
1F
100
AcDbEntity
  8
0-A_文字
  6
Continuous
 62
    92
370
    13
100
AcDbLine
 10
5369.917643811961
 20
2718.999983504013
 30
0.0
 11
3773.917643811962
 21
2718.999983504013
 31
0.0
  0
LINE
  5
264
330
1F
100
AcDbEntity
  8
0-A_文字
  6
Continuous
 62
    92
370
    13
100
AcDbLine
 10
4571.917643811962
 20
3684.999983504013
 30
0.0
 11
4571.917643811962
 21
2718.999983504013
 31
0.0
  0
LINE
  5
265
330
1F
100
AcDbEntity
  8
0-0_補助線
  6
JWW_HOJO
 62
   120
370
     5
100
AcDbLine
 10
5348.917643811962
 20
3684.999983504013
 30
0.0
 11
5348.917643811962
 21
2718.999983504013
 31
0.0
  0
LINE
  5
266
330
1F
100
AcDbEntity
  8
0-0_補助線
  6
JWW_HOJO
 62
   120
370
     5
100
AcDbLine
 10
4592.917643811961
 20
3684.999983504013
 30
0.0
 11
4592.917643811961
 21
2718.999983504013
 31
0.0
  0
LINE
  5
267
330
1F
100
AcDbEntity
  8
戸当り
  6
Continuous
 62
    40
370
    15
100
AcDbLine
 10
5126.317643811963
 20
3436.846075428471
 30
0.0
 11
5348.917643811962
 21
3436.846075428471
 31
0.0
  0
LINE
  5
268
330
1F
100
AcDbEntity
  8
戸当り
  6
Continuous
 62
    40
370
    15
100
AcDbLine
 10
5126.317643811963
 20
3436.846075428471
 30
0.0
 11
5126.317643811963
 21
3399.04607542847
 31
0.0
  0
LINE
  5
269
330
1F
100
AcDbEntity
  8
戸当り
  6
Continuous
 62
    40
370
    15
100
AcDbLine
 10
4815.517643811962
 20
3436.846075428471
 30
0.0
 11
4592.917643811961
 21
3436.846075428471
 31
0.0
  0
LINE
  5
26A
330
1F
100
AcDbEntity
  8
戸当り
  6
Continuous
 62
    40
370
    15
100
AcDbLine
 10
4328.317643811963
 20
3436.846075428471
 30
0.0
 11
4550.917643811961
 21
3436.846075428471
 31
0.0
  0
LINE
  5
26B
330
1F
100
AcDbEntity
  8
戸当り
  6
Continuous
 62
    40
370
    15
100
AcDbLine
 10
4017.517643811962
 20
3436.846075428471
 30
0.0
 11
4017.517643811962
 21
3399.04607542847
 31
0.0
  0
LINE
  5
26C
330
1F
100
AcDbEntity
  8
戸当り
  6
Continuous
 62
    40
370
    15
100
AcDbLine
 10
4017.517643811962
 20
3436.846075428471
 30
0.0
 11
3794.917643811962
 21
3436.846075428471
 31
0.0
  0
LINE
  5
26D
330
1F
100
AcDbEntity
  8
0-0_補助線
  6
JWW_HOJO
 62
   120
370
     5
100
AcDbLine
 10
4550.917643811961
 20
3684.999983504013
 30
0.0
 11
4550.917643811961
 21
2718.999983504013
 31
0.0
  0
LINE
  5
26E
330
1F
100
AcDbEntity
  8
0-0_補助線
  6
JWW_HOJO
 62
   120
370
     5
100
AcDbLine
 10
3794.917643811962
 20
3684.999983504013
 30
0.0
 11
3794.917643811962
 21
2718.999983504013
 31
0.0
  0
LINE
  5
26F
330
1F
100
AcDbEntity
  8
戸当り
  6
Continuous
 62
    40
370
    15
100
AcDbLine
 10
3794.917643811962
 20
3399.04607542847
 30
0.0
 11
4550.917643811961
 21
3399.04607542847
 31
0.0
  0
LINE
  5
270
330
1F
100
AcDbEntity
  8
戸当り
  6
Continuous
 62
    40
370
    15
100
AcDbLine
 10
4328.317643811963
 20
3436.846075428471
 30
0.0
 11
4328.317643811963
 21
3088.24607542847
 31
0.0
  0
ARC
  5
271
330
1F
100
AcDbEntity
  8
戸当り
  6
Continuous
 62
    40
370
    15
100
AcDbCircle
 10
4328.317643811963
 20
3399.04607542847
 30
0.0
 40
310.8
100
AcDbArc
 50
180.0
 51
270.0
  0
LINE
  5
272
330
1F
100
AcDbEntity
  8
戸当り
  6
Continuous
 62
    40
370
    15
100
AcDbLine
 10
5348.917643811962
 20
3399.04607542847
 30
0.0
 11
4592.917643811961
 21
3399.04607542847
 31
0.0
  0
LINE
  5
273
330
1F
100
AcDbEntity
  8
戸当り
  6
Continuous
 62
    40
370
    15
100
AcDbLine
 10
4815.517643811962
 20
3436.846075428471
 30
0.0
 11
4815.517643811962
 21
3088.24607542847
 31
0.0
  0
ARC
  5
274
330
1F
100
AcDbEntity
  8
戸当り
  6
Continuous
 62
    40
370
    15
100
AcDbCircle
 10
4815.517643811962
 20
3399.04607542847
 30
0.0
 40
310.8
100
AcDbArc
 50
270.0
 51
0.0
  0
ELLIPSE
  5
275
330
1F
100
AcDbEntity
  8
戸当り
  6
Continuous
 62
    92
370
    13
100
AcDbEllipse
 10
4897.273841260455
 20
2927.884230441197
 30
0.0
 11
-17.7763823922528
 21
100.8148742797557
 31
0.0
210
0.0
220
0.0
230
1.0
 40
0.4000000000000001
 41
1.850633272656679
 42
2.442876790075129
  0
ELLIPSE
  5
276
330
1F
100
AcDbEntity
  8
戸当り
  6
Continuous
 62
    92
370
    13
100
AcDbEllipse
 10
4897.273841260455
 20
2927.884230441197
 30
0.0
 11
-17.7763823922528
 21
100.8148742797557
 31
0.0
210
0.0
220
0.0
230
1.0
 40
0.4000000000000001
 41
3.840308517104466
 42
4.432552034522944
  0
ELLIPSE
  5
277
330
1F
100
AcDbEntity
  8
戸当り
  6
Continuous
 62
    92
370
    13
100
AcDbEllipse
 10
4896.854095210554
 20
2930.264728582853
 30
0.0
 11
-14.67024424252691
 21
83.19908946199426
 31
0.0
210
0.0
220
0.0
230
1.0
 40
0.5
 41
4.340591432030095
 42
8.225779182329084
  0
LINE
  5
278
330
1F
100
AcDbEntity
  8
戸当り
  6
Continuous
 62
    92
370
    13
100
AcDbLine
 10
4936.823725033217
 20
2855.267181117928
 30
0.0
 11
4884.945600943681
 21
2846.1196681324
 31
0.0
  0
LINE
  5
279
330
1F
100
AcDbEntity
  8
戸当り
  6
Continuous
 62
    92
370
    13
100
AcDbLine
 10
4939.01169207182
 20
2842.858603429974
 30
0.0
 11
4887.133567982284
 21
2833.711090444447
 31
0.0
  0
ELLIPSE
  5
27A
330
1F
100
AcDbEntity
  8
戸当り
  6
Continuous
 62
    92
370
    13
100
AcDbEllipse
 10
4913.072630027052
 20
2838.28484693721
 30
0.0
 11
-7.622927487939132
 21
43.23177007461331
 31
0.0
210
0.0
220
0.0
230
1.0
 40
0.6000000000000001
 41
1.570796326794897
 42
4.71238898038469
  0
ELLIPSE
  5
27B
330
1F
100
AcDbEntity
  8
戸当り
  6
Continuous
 62
    92
370
    13
100
AcDbEllipse
 10
5051.734610198333
 20
2963.935065931004
 30
0.0
 11
26.49533313827761
 21
98.88192943551533
 31
0.0
210
0.0
220
0.0
230
0.9999999999999999
 40
0.4
 41
1.850633272656679
 42
2.442876790075129
  0
ELLIPSE
  5
27C
330
1F
100
AcDbEntity
  8
戸当り
  6
Continuous
 62
    92
370
    13
100
AcDbEllipse
 10
5051.734610198333
 20
2963.935065931004
 30
0.0
 11
26.49533313827761
 21
98.88192943551533
 31
0.0
210
0.0
220
0.0
230
0.9999999999999999
 40
0.4
 41
3.840308517104466
 42
4.432552034522944
  0
ELLIPSE
  5
27D
330
1F
100
AcDbEntity
  8
戸当り
  6
Continuous
 62
    92
370
    13
100
AcDbEllipse
 10
5052.360233071434
 20
2966.269922279796
 30
0.0
 11
21.86569797210526
 21
81.6038957748525
 31
0.0
210
0.0
220
0.0
230
1.0
 40
0.5
 41
4.340591432030095
 42
8.225779182329084
  0
LINE
  5
27E
330
1F
100
AcDbEntity
  8
戸当り
  6
Continuous
 62
    92
370
    13
100
AcDbLine
 10
5056.889686680242
 20
2881.40716552561
 30
0.0
 11
5006.006232803848
 21
2895.041345899896
 31
0.0
  0
LINE
  5
27F
330
1F
100
AcDbEntity
  8
戸当り
  6
Continuous
 62
    92
370
    13
100
AcDbLine
 10
5053.628566711951
 20
2869.236500114368
 30
0.0
 11
5002.745112835557
 21
2882.870680488654
 31
0.0
  0
ELLIPSE
  5
280
330
1F
100
AcDbEntity
  8
戸当り
  6
Continuous
 62
    92
370
    13
100
AcDbEllipse
 10
5028.186839773754
 20
2876.053590301512
 30
0.0
 11
11.36181697857171
 21
42.40287823032828
 31
0.0
210
0.0
220
0.0
230
0.9999999999999999
 40
0.6
 41
1.570796326794897
 42
4.71238898038469
  0
LINE
  5
281
330
1F
100
AcDbEntity
  8
0-0_補助線
  6
JWW_HOJO
 62
   120
370
     5
100
AcDbLine
 10
4970.917643811961
 20
3684.999983504013
 30
0.0
 11
4970.917643811961
 21
2718.999983504013
 31
0.0
  0
LINE
  5
282
330
1F
100
AcDbEntity
  8
0-0_補助線
  6
JWW_HOJO
 62
   120
370
     5
100
AcDbLine
 10
4172.91764381196
 20
3684.999983504013
 30
0.0
 11
4172.91764381196
 21
2718.999983504013
 31
0.0
  0
ELLIPSE
  5
283
330
1F
100
AcDbEntity
  8
戸当り
  6
Continuous
 62
    92
370
    13
100
AcDbEllipse
 10
4099.273841260456
 20
2927.884230441197
 30
0.0
 11
-17.7763823922528
 21
100.8148742797557
 31
0.0
210
0.0
220
0.0
230
1.0
 40
0.4000000000000001
 41
1.850633272656679
 42
2.442876790075129
  0
ELLIPSE
  5
284
330
1F
100
AcDbEntity
  8
戸当り
  6
Continuous
 62
    92
370
    13
100
AcDbEllipse
 10
4099.273841260456
 20
2927.884230441197
 30
0.0
 11
-17.7763823922528
 21
100.8148742797557
 31
0.0
210
0.0
220
0.0
230
1.0
 40
0.4000000000000001
 41
3.840308517104466
 42
4.432552034522944
  0
ELLIPSE
  5
285
330
1F
100
AcDbEntity
  8
戸当り
  6
Continuous
 62
    92
370
    13
100
AcDbEllipse
 10
4098.854095210553
 20
2930.264728582853
 30
0.0
 11
-14.67024424252691
 21
83.19908946199426
 31
0.0
210
0.0
220
0.0
230
1.0
 40
0.5
 41
4.340591432030095
 42
8.225779182329084
  0
LINE
  5
286
330
1F
100
AcDbEntity
  8
戸当り
  6
Continuous
 62
    92
370
    13
100
AcDbLine
 10
4138.823725033215
 20
2855.267181117928
 30
0.0
 11
4086.94560094368
 21
2846.1196681324
 31
0.0
  0
LINE
  5
287
330
1F
100
AcDbEntity
  8
戸当り
  6
Continuous
 62
    92
370
    13
100
AcDbLine
 10
4141.01169207182
 20
2842.858603429974
 30
0.0
 11
4089.133567982283
 21
2833.711090444447
 31
0.0
  0
ELLIPSE
  5
288
330
1F
100
AcDbEntity
  8
戸当り
  6
Continuous
 62
    92
370
    13
100
AcDbEllipse
 10
4115.072630027051
 20
2838.28484693721
 30
0.0
 11
-7.622927487939132
 21
43.23177007461331
 31
0.0
210
0.0
220
0.0
230
1.0
 40
0.6000000000000001
 41
1.570796326794897
 42
4.71238898038469
  0
ELLIPSE
  5
289
330
1F
100
AcDbEntity
  8
戸当り
  6
Continuous
 62
    92
370
    13
100
AcDbEllipse
 10
4253.734610198332
 20
2963.935065931004
 30
0.0
 11
26.49533313827761
 21
98.88192943551533
 31
0.0
210
0.0
220
0.0
230
0.9999999999999999
 40
0.4
 41
1.850633272656679
 42
2.442876790075129
  0
ELLIPSE
  5
28A
330
1F
100
AcDbEntity
  8
戸当り
  6
Continuous
 62
    92
370
    13
100
AcDbEllipse
 10
4253.734610198332
 20
2963.935065931004
 30
0.0
 11
26.49533313827761
 21
98.88192943551533
 31
0.0
210
0.0
220
0.0
230
0.9999999999999999
 40
0.4
 41
3.840308517104466
 42
4.432552034522944
  0
ELLIPSE
  5
28B
330
1F
100
AcDbEntity
  8
戸当り
  6
Continuous
 62
    92
370
    13
100
AcDbEllipse
 10
4254.360233071432
 20
2966.269922279796
 30
0.0
 11
21.86569797210526
 21
81.6038957748525
 31
0.0
210
0.0
220
0.0
230
1.0
 40
0.5
 41
4.340591432030095
 42
8.225779182329084
  0
LINE
  5
28C
330
1F
100
AcDbEntity
  8
戸当り
  6
Continuous
 62
    92
370
    13
100
AcDbLine
 10
4258.889686680242
 20
2881.40716552561
 30
0.0
 11
4208.006232803848
 21
2895.041345899896
 31
0.0
  0
LINE
  5
28D
330
1F
100
AcDbEntity
  8
戸当り
  6
Continuous
 62
    92
370
    13
100
AcDbLine
 10
4255.62856671195
 20
2869.236500114368
 30
0.0
 11
4204.745112835556
 21
2882.870680488654
 31
0.0
  0
ELLIPSE
  5
28E
330
1F
100
AcDbEntity
  8
戸当り
  6
Continuous
 62
    92
370
    13
100
AcDbEllipse
 10
4230.186839773753
 20
2876.053590301512
 30
0.0
 11
11.36181697857171
 21
42.40287823032828
 31
0.0
210
0.0
220
0.0
230
0.9999999999999999
 40
0.6
 41
1.570796326794897
 42
4.71238898038469
  0
MTEXT
  5
28F
330
1F
100
AcDbEntity
  8
0-A_文字
  6
Continuous
 62
     7
370
     9
100
AcDbMText
 10
3773.917643811964
 20
3705.482483504014
 30
0.0
 40
100.9649999999999
 41
794.9999999999995
 46
0.0
 71
     7
 72
     1
  1
{\fＭＳ ゴシック|b0|i0|c128|p49;■吊り手方向}
 73
     1
 44
1.0
  0
MTEXT
  5
290
330
1F
100
AcDbEntity
  8
0-A_文字
  6
Continuous
 62
     7
370
     9
100
AcDbMText
 10
-2473.623938232533
 20
273.6356178416246
 30
0.0
 40
102.1976470588235
 41
1140.0
 46
0.0
 71
     7
 72
     1
  1
{\fＭＳ ゴシック|b0|i0|c128|p49;■縦断面図[2方枠]}
 73
     1
 44
1.0
  0
MTEXT
  5
291
330
1F
100
AcDbEntity
  8
0-B_寸法
  6
Continuous
 62
     7
370
     0
100
AcDbMText
 10
-1467.46963915419
 20
2418.949351964744
 30
0.0
 40
91.44
 41
180.0
 46
0.0
 71
     7
 72
     1
  1
{\fＭＳ ゴシック|b0|i0|c128|p49;155}
 11
6.123031769111886E-17
 21
1.0
 31
0.0
 73
     1
 44
1.0
  0
MTEXT
  5
292
330
1F
100
AcDbEntity
  8
0-B_寸法
  6
Continuous
 62
     7
370
   211
100
AcDbMText
 10
-629.9996288402637
 20
1338.949351964742
 30
0.0
 40
91.43999999999996
 41
1260.0
 46
0.0
 71
     7
 72
     1
  1
{\fＭＳ ゴシック|b0|i0|c128|p49;ＤＷ＝723（703）<680>}
 73
     1
 44
1.0
  0
MTEXT
  5
293
330
1F
100
AcDbEntity
  8
0-B_寸法
  6
Continuous
 62
     7
370
   211
100
AcDbMText
 10
-869.9996288402656
 20
1518.949351964742
 30
0.0
 40
91.44000000000001
 41
1740.0
 46
0.0
 71
     7
 72
     1
  1
{\fＭＳ ゴシック|b0|i0|c128|p49;有効開口寸法＝660（640）<617>}
 73
     1
 44
1.0
  0
MTEXT
  5
294
330
1F
100
AcDbEntity
  8
0-B_寸法
  6
Continuous
 62
     7
370
   211
100
AcDbMText
 10
-629.9996288402647
 20
1128.949351964742
 30
0.0
 40
91.43999999999998
 41
1260.0
 46
0.0
 71
     7
 72
     1
  1
{\fＭＳ ゴシック|b0|i0|c128|p49;枠内＝730（710）<687>}
 73
     1
 44
1.0
  0
MTEXT
  5
295
330
1F
100
AcDbEntity
  8
0-B_寸法
  6
Continuous
 62
     7
370
   211
100
AcDbMText
 10
-629.9996288402647
 20
918.9493519647419
 30
0.0
 40
91.43999999999998
 41
1260.0
 46
0.0
 71
     7
 72
     1
  1
{\fＭＳ ゴシック|b0|i0|c128|p49;枠外＝778（758）<735>}
 73
     1
 44
1.0
  0
MTEXT
  5
296
330
1F
100
AcDbEntity
  8
0-B_寸法
  6
Continuous
 62
     7
370
   211
100
AcDbMText
 10
-1590.123938232528
 20
-195.7996982844549
 30
0.0
 40
99.06
 41
195.0
 46
0.0
 71
     7
 72
     1
  1
{\fＭＳ ゴシック|b0|i0|c128|p49;155}
 73
     1
 44
1.0
  0
ARC
  5
297
330
1F
100
AcDbEntity
  8
戸当り
  6
Continuous
 62
     7
370
     9
100
AcDbCircle
 10
1744.200474156558
 20
2501.329351964741
 30
0.0
 40
1.8
100
AcDbArc
 50
0.0
 51
106.7900255983358
  0
LINE
  5
298
330
1F
100
AcDbEntity
  8
戸当り
  6
Continuous
 62
     7
370
     9
100
AcDbLine
 10
1743.680516910859
 20
2503.052617603768
 30
0.0
 11
1733.372866127482
 21
2500.213576916919
 31
0.0
  0
LINE
  5
299
330
1F
100
AcDbEntity
  8
戸当り
  6
Continuous
 62
     7
370
     9
100
AcDbLine
 10
1746.000474156558
 20
2501.329351964741
 30
0.0
 11
1746.000474156558
 21
2499.829351964742
 31
0.0
  0
LINE
  5
29A
330
1F
100
AcDbEntity
  8
戸当り
  6
Continuous
 62
     7
370
     9
100
AcDbLine
 10
1760.389604367364
 20
2508.978067634281
 30
0.0
 11
1748.989604367364
 21
2500.278067634282
 31
0.0
  0
ARC
  5
29B
330
1F
100
AcDbEntity
  8
戸当り
  6
Continuous
 62
     7
370
     9
100
AcDbCircle
 10
1747.800474156558
 20
2501.629351964741
 30
0.0
 40
1.8
100
AcDbArc
 50
180.0
 51
311.3477772196935
  0
LINE
  5
29C
330
1F
100
AcDbEntity
  8
戸当り
  6
Continuous
 62
     7
370
     9
100
AcDbLine
 10
1746.000474156558
 20
2501.629351964741
 30
0.0
 11
1746.000474156558
 21
2503.129351964742
 31
0.0
  0
LINE
  5
29D
330
1F
100
AcDbEntity
  8
戸当り
  6
Continuous
 62
     7
370
     9
100
AcDbLine
 10
1734.000474156559
 20
2365.426827718247
 30
0.0
 11
1734.000474156559
 21
2365.129351964742
 31
0.0
  0
LINE
  5
29E
330
1F
100
AcDbEntity
  8
戸当り
  6
Continuous
 62
     7
370
     9
100
AcDbLine
 10
1746.000474156558
 20
2360.329351964742
 30
0.0
 11
1738.780089610343
 21
2367.841981716785
 31
0.0
  0
ARC
  5
29F
330
1F
100
AcDbEntity
  8
戸当り
  6
Continuous
 62
     7
370
     9
100
AcDbCircle
 10
1737.000474156558
 20
2365.426827718247
 30
0.0
 40
3.0
100
AcDbArc
 50
53.61521310602235
 51
180.0
  0
LINE
  5
2A0
330
1F
100
AcDbEntity
  8
戸当り
  6
Continuous
 62
     7
370
     9
100
AcDbLine
 10
1752.600474156559
 20
2347.129351964742
 30
0.0
 11
1752.600474156559
 21
2362.129351964742
 31
0.0
  0
LINE
  5
2A1
330
1F
100
AcDbEntity
  8
戸当り
  6
Continuous
 62
     7
370
     9
100
AcDbLine
 10
1788.000474156559
 20
2356.129351964743
 30
0.0
 11
1788.000474156559
 21
2349.229351964742
 31
0.0
  0
LINE
  5
2A2
330
1F
100
AcDbEntity
  8
戸当り
  6
Continuous
 62
     7
370
     9
100
AcDbLine
 10
1788.000474156559
 20
2369.629351964742
 30
0.0
 11
1788.000474156559
 21
2365.129351964742
 31
0.0
  0
LINE
  5
2A3
330
1F
100
AcDbEntity
  8
戸当り
  6
Continuous
 62
     7
370
     9
100
AcDbLine
 10
1788.000474156559
 20
2365.129351964742
 30
0.0
 11
1761.000474156558
 21
2365.129351964742
 31
0.0
  0
LINE
  5
2A4
330
1F
100
AcDbEntity
  8
戸当り
  6
Continuous
 62
     7
370
     9
100
AcDbLine
 10
1788.000474156559
 20
2369.629351964742
 30
0.0
 11
1806.000474156558
 21
2360.629351964742
 31
0.0
  0
LINE
  5
2A5
330
1F
100
AcDbEntity
  8
戸当り
  6
Continuous
 62
     7
370
     9
100
AcDbLine
 10
1806.000474156558
 20
2360.629351964742
 30
0.0
 11
1788.000474156559
 21
2349.229351964742
 31
0.0
  0
LINE
  5
2A6
330
1F
100
AcDbEntity
  8
戸当り
  6
Continuous
 62
     7
370
     9
100
AcDbLine
 10
1761.000474156558
 20
2365.129351964742
 30
0.0
 11
1761.000474156558
 21
2489.32935196474
 31
0.0
  0
LINE
  5
2A7
330
1F
100
AcDbEntity
  8
戸当り
  6
Continuous
 62
     7
370
     9
100
AcDbLine
 10
1756.800474156559
 20
2356.129351964743
 30
0.0
 11
1788.000474156559
 21
2356.129351964743
 31
0.0
  0
LINE
  5
2A8
330
1F
100
AcDbEntity
  8
戸当り
  6
Continuous
 62
     7
370
     9
100
AcDbLine
 10
1756.800474156559
 20
2356.129351964743
 30
0.0
 11
1756.800474156559
 21
2362.129351964742
 31
0.0
  0
LINE
  5
2A9
330
1F
100
AcDbEntity
  8
戸当り
  6
Continuous
 62
     7
370
     9
100
AcDbLine
 10
1756.800474156559
 20
2362.129351964742
 30
0.0
 11
1752.000474156558
 21
2362.129351964742
 31
0.0
  0
LINE
  5
2AA
330
1F
100
AcDbEntity
  8
戸当り
  6
Continuous
 62
     7
370
     9
100
AcDbLine
 10
1752.000474156558
 20
2362.129351964742
 30
0.0
 11
1752.000474156558
 21
2368.729351964741
 31
0.0
  0
LINE
  5
2AB
330
1F
100
AcDbEntity
  8
戸当り
  6
Continuous
 62
     7
370
     9
100
AcDbLine
 10
1752.000474156558
 20
2368.729351964741
 30
0.0
 11
1737.977728089753
 21
2368.729351964741
 31
0.0
  0
ARC
  5
2AC
330
1F
100
AcDbEntity
  8
戸当り
  6
Continuous
 62
     7
370
     9
100
AcDbCircle
 10
1737.977728089753
 20
2363.929351964743
 30
0.0
 40
4.800000000000001
100
AcDbArc
 50
90.0
 51
131.40962210927
  0
LINE
  5
2AD
330
1F
100
AcDbEntity
  8
戸当り
  6
Continuous
 62
     7
370
     9
100
AcDbLine
 10
1727.8957968546
 20
2366.056189717969
 30
0.0
 11
1712.949412397082
 21
2370.720007320792
 31
0.0
  0
ARC
  5
2AE
330
1F
100
AcDbEntity
  8
戸当り
  6
Continuous
 62
     7
370
     9
100
AcDbCircle
 10
1714.200474156558
 20
2374.729351964742
 30
0.0
 40
4.2
100
AcDbArc
 50
72.6701702617455
 51
252.6701720818837
  0
LINE
  5
2AF
330
1F
100
AcDbEntity
  8
戸当り
  6
Continuous
 62
     7
370
     9
100
AcDbLine
 10
1731.187628065649
 20
2373.828461375845
 30
0.0
 11
1715.451536170767
 21
2378.738696529208
 31
0.0
  0
ARC
  5
2B0
330
1F
100
AcDbEntity
  8
戸当り
  6
Continuous
 62
     7
370
     9
100
AcDbCircle
 10
1737.240474156559
 20
2369.929351964742
 30
0.0
 40
7.199999999999999
100
AcDbArc
 50
90.0
 51
147.2112623503457
  0
LINE
  5
2B1
330
1F
100
AcDbEntity
  8
戸当り
  6
Continuous
 62
     7
370
     9
100
AcDbLine
 10
1752.000474156558
 20
2380.129351964742
 30
0.0
 11
1752.000474156558
 21
2489.629351964742
 31
0.0
  0
LINE
  5
2B2
330
1F
100
AcDbEntity
  8
戸当り
  6
Continuous
 62
     7
370
     9
100
AcDbLine
 10
1749.000474156559
 20
2377.129351964742
 30
0.0
 11
1737.240474156559
 21
2377.129351964742
 31
0.0
  0
ARC
  5
2B3
330
1F
100
AcDbEntity
  8
戸当り
  6
Continuous
 62
     7
370
     9
100
AcDbCircle
 10
1749.000474156559
 20
2380.129351964742
 30
0.0
 40
3.0
100
AcDbArc
 50
270.0
 51
0.0
  0
ARC
  5
2B4
330
1F
100
AcDbEntity
  8
戸当り
  6
Continuous
 62
     7
370
     9
100
AcDbCircle
 10
1749.000474156559
 20
2489.629351964742
 30
0.0
 40
3.0
100
AcDbArc
 50
0.0
 51
90.0
  0
LINE
  5
2B5
330
1F
100
AcDbEntity
  8
戸当り
  6
Continuous
 62
     7
370
     9
100
AcDbLine
 10
1749.000474156559
 20
2492.629351964742
 30
0.0
 11
1746.000474156558
 21
2492.629351964742
 31
0.0
  0
LINE
  5
2B6
330
1F
100
AcDbEntity
  8
戸当り
  6
Continuous
 62
     7
370
     9
100
AcDbLine
 10
1806.000474156558
 20
2493.829351964741
 30
0.0
 11
1788.000474156558
 21
2505.229351964742
 31
0.0
  0
LINE
  5
2B7
330
1F
100
AcDbEntity
  8
戸当り
  6
Continuous
 62
     7
370
     9
100
AcDbLine
 10
1788.000474156558
 20
2484.829351964742
 30
0.0
 11
1806.000474156558
 21
2493.829351964741
 31
0.0
  0
LINE
  5
2B8
330
1F
100
AcDbEntity
  8
戸当り
  6
Continuous
 62
     7
370
     9
100
AcDbLine
 10
1788.000474156558
 20
2489.32935196474
 30
0.0
 11
1761.000474156558
 21
2489.32935196474
 31
0.0
  0
LINE
  5
2B9
330
1F
100
AcDbEntity
  8
戸当り
  6
Continuous
 62
     7
370
     9
100
AcDbLine
 10
1788.000474156558
 20
2484.829351964742
 30
0.0
 11
1788.000474156558
 21
2489.32935196474
 31
0.0
  0
LINE
  5
2BA
330
1F
100
AcDbEntity
  8
戸当り
  6
Continuous
 62
     7
370
     9
100
AcDbLine
 10
1788.000474156558
 20
2498.329351964741
 30
0.0
 11
1788.000474156558
 21
2505.229351964742
 31
0.0
  0
ARC
  5
2BB
330
1F
100
AcDbEntity
  8
戸当り
  6
Continuous
 62
     7
370
     9
100
AcDbCircle
 10
1746.000474156558
 20
2498.629351964741
 30
0.0
 40
5.999999999999659
100
AcDbArc
 50
213.4773790501727
 51
270.0
  0
LINE
  5
2BC
330
1F
100
AcDbEntity
  8
戸当り
  6
Continuous
 62
     7
370
     9
100
AcDbLine
 10
1740.995852152508
 20
2495.319705669958
 30
0.0
 11
1735.828082173125
 21
2493.445127008026
 31
0.0
  0
ARC
  5
2BD
330
1F
100
AcDbEntity
  8
戸当り
  6
Continuous
 62
     7
370
     9
100
AcDbCircle
 10
1734.600474156558
 20
2496.82935196474
 30
0.0
 40
3.600000000000001
100
AcDbArc
 50
180.0
 51
293.3376526889709
  0
ARC
  5
2BE
330
1F
100
AcDbEntity
  8
戸当り
  6
Continuous
 62
     7
370
     9
100
AcDbCircle
 10
1734.600474156558
 20
2496.82935196474
 30
0.0
 40
3.600000000000001
100
AcDbArc
 50
106.7900255983375
 51
180.0
  0
LINE
  5
2BF
330
1F
100
AcDbEntity
  8
戸当り
  6
Continuous
 62
     7
370
     9
100
AcDbLine
 10
1761.000474156558
 20
2498.329351964741
 30
0.0
 11
1788.000474156558
 21
2498.329351964741
 31
0.0
  0
LINE
  5
2C0
330
1F
100
AcDbEntity
  8
戸当り
  6
Continuous
 62
     7
370
     9
100
AcDbLine
 10
1761.000474156558
 20
2499.829351964742
 30
0.0
 11
1746.000474156558
 21
2499.829351964742
 31
0.0
  0
LINE
  5
2C1
330
1F
100
AcDbEntity
  8
戸当り
  6
Continuous
 62
     7
370
     9
100
AcDbLine
 10
1761.000474156558
 20
2498.329351964741
 30
0.0
 11
1761.000474156558
 21
2499.829351964742
 31
0.0
  0
LINE
  5
2C2
330
1F
100
AcDbEntity
  8
戸当り
  6
Continuous
 62
     7
370
     9
100
AcDbLine
 10
1743.053199325202
 20
2341.223959171843
 30
0.0
 11
1713.361866244941
 21
2356.129351964743
 31
0.0
  0
ARC
  5
2C3
330
1F
100
AcDbEntity
  8
戸当り
  6
Continuous
 62
     7
370
     9
100
AcDbCircle
 10
1746.000474156558
 20
2347.129351964742
 30
0.0
 40
6.6
100
AcDbArc
 50
243.4248464959396
 51
359.9999999999999
  0
ARC
  5
2C4
330
1F
100
AcDbEntity
  8
戸当り
  6
Continuous
 62
     7
370
     9
100
AcDbCircle
 10
1746.000474156558
 20
2347.129351964742
 30
0.0
 40
10.8
100
AcDbArc
 50
243.4248464959396
 51
359.9999999999999
  0
LINE
  5
2C5
330
1F
100
AcDbEntity
  8
戸当り
  6
Continuous
 62
     7
370
     9
100
AcDbLine
 10
1701.000474156558
 20
2506.129351964743
 30
0.0
 11
1701.000474156558
 21
2359.129351964741
 31
0.0
  0
LINE
  5
2C6
330
1F
100
AcDbEntity
  8
戸当り
  6
Continuous
 62
     7
370
     9
100
AcDbLine
 10
1704.000474156559
 20
2356.129351964743
 30
0.0
 11
1746.000474156558
 21
2356.129351964743
 31
0.0
  0
LINE
  5
2C7
330
1F
100
AcDbEntity
  8
戸当り
  6
Continuous
 62
     7
370
     9
100
AcDbLine
 10
1710.000474156559
 20
2365.129351964742
 30
0.0
 11
1710.000474156559
 21
2503.129351964742
 31
0.0
  0
LINE
  5
2C8
330
1F
100
AcDbEntity
  8
戸当り
  6
Continuous
 62
     7
370
     9
100
AcDbLine
 10
1746.000474156558
 20
2356.129351964743
 30
0.0
 11
1746.000474156558
 21
2360.329351964742
 31
0.0
  0
ARC
  5
2C9
330
1F
100
AcDbEntity
  8
戸当り
  6
Continuous
 62
     7
370
     9
100
AcDbCircle
 10
1704.000474156559
 20
2359.129351964741
 30
0.0
 40
3.0
100
AcDbArc
 50
180.0
 51
270.0
  0
LINE
  5
2CA
330
1F
100
AcDbEntity
  8
戸当り
  6
Continuous
 62
     7
370
     9
100
AcDbLine
 10
1756.800474156559
 20
2347.129351964742
 30
0.0
 11
1756.800474156559
 21
2356.129351964743
 31
0.0
  0
LINE
  5
2CB
330
1F
100
AcDbEntity
  8
戸当り
  6
Continuous
 62
     7
370
     9
100
AcDbLine
 10
1741.168864192836
 20
2337.470390055796
 30
0.0
 11
1704.000474156559
 21
2356.129351964743
 31
0.0
  0
ARC
  5
2CC
330
1F
100
AcDbEntity
  8
戸当り
  6
Continuous
 62
     7
370
     9
100
AcDbCircle
 10
1707.000474156558
 20
2506.129351964743
 30
0.0
 40
6.0
100
AcDbArc
 50
90.0
 51
180.0
  0
LINE
  5
2CD
330
1F
100
AcDbEntity
  8
戸当り
  6
Continuous
 62
     7
370
     9
100
AcDbLine
 10
1707.000474156558
 20
2512.129351964742
 30
0.0
 11
1759.200474156558
 21
2512.129351964742
 31
0.0
  0
ARC
  5
2CE
330
1F
100
AcDbEntity
  8
戸当り
  6
Continuous
 62
     7
370
     9
100
AcDbCircle
 10
1759.200474156558
 20
2510.329351964742
 30
0.0
 40
1.8
100
AcDbArc
 50
311.3477772196927
 51
90.0
  0
LINE
  5
2CF
330
1F
100
AcDbEntity
  8
戸当り
  6
Continuous
 62
     7
370
     9
100
AcDbLine
 10
1729.800474156558
 20
2503.129351964742
 30
0.0
 11
1746.000474156558
 21
2503.129351964742
 31
0.0
  0
LINE
  5
2D0
330
1F
100
AcDbEntity
  8
戸当り
  6
Continuous
 62
     7
370
     9
100
AcDbLine
 10
1729.800474156558
 20
2491.129351964741
 30
0.0
 11
1729.800474156558
 21
2503.129351964742
 31
0.0
  0
LINE
  5
2D1
330
1F
100
AcDbEntity
  8
戸当り
  6
Continuous
 62
     7
370
     9
100
AcDbLine
 10
1722.600474156558
 20
2491.129351964741
 30
0.0
 11
1729.800474156558
 21
2491.129351964741
 31
0.0
  0
LINE
  5
2D2
330
1F
100
AcDbEntity
  8
戸当り
  6
Continuous
 62
     7
370
     9
100
AcDbLine
 10
1722.600474156558
 20
2503.129351964742
 30
0.0
 11
1722.600474156558
 21
2491.129351964741
 31
0.0
  0
LINE
  5
2D3
330
1F
100
AcDbEntity
  8
戸当り
  6
Continuous
 62
     7
370
     9
100
AcDbLine
 10
1710.000474156559
 20
2503.129351964742
 30
0.0
 11
1722.600474156558
 21
2503.129351964742
 31
0.0
  0
LINE
  5
2D4
330
1F
100
AcDbEntity
  8
戸当り
  6
Continuous
 62
     7
370
     9
100
AcDbLine
 10
1710.000474156559
 20
2365.129351964742
 30
0.0
 11
1734.000474156559
 21
2365.129351964742
 31
0.0
  0
ARC
  5
2D5
330
1F
100
AcDbEntity
  8
戸当り
  6
Continuous
 62
     7
370
     9
100
AcDbCircle
 10
1730.040474156559
 20
2372.929351964742
 30
0.0
 40
7.199999999999999
100
AcDbArc
 50
252.6701739020166
 51
311.4096221092722
  0
LINE
  5
2D6
330
1F
100
AcDbEntity
  8
0-C_ハッチ
  6
Continuous
 62
   120
370
     5
100
AcDbLine
 10
1787.058344145169
 20
2349.229351964742
 30
0.0
 11
1763.999936284242
 21
2326.171110095091
 31
0.0
  0
LINE
  5
2D7
330
1F
100
AcDbEntity
  8
0-C_ハッチ
  6
Continuous
 62
   120
370
     5
100
AcDbLine
 10
1785.094726464614
 20
2483.029351964742
 30
0.0
 11
1763.999936284242
 21
2461.934588069073
 31
0.0
  0
LINE
  5
2D8
330
1F
100
AcDbEntity
  8
0-4_枠
  6
Continuous
 62
    92
370
    13
100
AcDbLine
 10
1761.000371159731
 20
2371.429351964741
 30
0.0
 11
1761.000371159731
 21
2483.029351964742
 31
0.0
  0
LINE
  5
2D9
330
1F
100
AcDbEntity
  8
0-4_枠
  6
Continuous
 62
    92
370
    13
100
AcDbLine
 10
1763.999936284242
 20
2371.429351964741
 30
0.0
 11
1763.999936284242
 21
2483.029351964742
 31
0.0
  0
LINE
  5
2DA
330
1F
100
AcDbEntity
  8
0-4_枠
  6
Continuous
 62
    92
370
    13
100
AcDbLine
 10
1812.000371159731
 20
2349.229351964742
 30
0.0
 11
1812.000371159731
 21
2371.429351964741
 31
0.0
  0
LINE
  5
2DB
330
1F
100
AcDbEntity
  8
0-4_枠
  6
Continuous
 62
    92
370
    13
100
AcDbLine
 10
1812.000371159731
 20
2483.029351964742
 30
0.0
 11
1812.000371159731
 21
2505.229351964742
 31
0.0
  0
LINE
  5
2DC
330
1F
100
AcDbEntity
  8
0-4_枠
  6
Continuous
 62
    92
370
    13
100
AcDbLine
 10
1812.000371159731
 20
2505.229351964742
 30
0.0
 11
1761.000371159731
 21
2505.229351964742
 31
0.0
  0
LINE
  5
2DD
330
1F
100
AcDbEntity
  8
0-4_枠
  6
Continuous
 62
    92
370
    13
100
AcDbLine
 10
1761.000371159731
 20
2483.029351964742
 30
0.0
 11
1812.000371159731
 21
2483.029351964742
 31
0.0
  0
LINE
  5
2DE
330
1F
100
AcDbEntity
  8
0-4_枠
  6
Continuous
 62
    92
370
    13
100
AcDbLine
 10
1761.000371159731
 20
2371.429351964741
 30
0.0
 11
1812.000371159731
 21
2371.429351964741
 31
0.0
  0
LINE
  5
2DF
330
1F
100
AcDbEntity
  8
0-4_枠
  6
Continuous
 62
    92
370
    13
100
AcDbLine
 10
1761.000371159731
 20
2349.229351964742
 30
0.0
 11
1812.000371159731
 21
2349.229351964742
 31
0.0
  0
MTEXT
  5
2E0
330
1F
100
AcDbEntity
  8
F-A_文字
  6
Continuous
 62
     7
370
     9
100
AcDbMText
 10
5096.167700144058
 20
-4147.857012699985
 30
0.0
 40
74.295
 41
97.5
 46
0.0
 71
     7
 72
     1
  1
{\fＭＳ ゴシック|b0|i0|c128|p49;01}
 73
     1
 44
1.0
  0
MTEXT
  5
2E1
330
1F
100
AcDbEntity
  8
0-A_文字
  6
Continuous
 62
    92
370
    13
100
AcDbMText
 10
-5626.249495325861
 20
3758.986262536952
 30
0.0
 40
147.9721621621622
 41
3592.5
 46
0.0
 71
     7
 72
     1
  1
{\fＭＳ ゴシック|b0|i0|c128|p49;天井ジャストドア　固定枠155巾　２方枠}
 73
     1
 44
1.0
  0
LINE
  5
2E2
330
1F
100
AcDbEntity
  8
0-A_文字
  6
Continuous
 62
    92
370
    13
100
AcDbLine
 10
-5659.999495325861
 20
4000.000181455871
 30
0.0
 11
-1992.857142857143
 21
4000.000181455871
 31
0.0
  0
LINE
  5
2E3
330
1F
100
AcDbEntity
  8
0-A_文字
  6
Continuous
 62
    92
370
    13
100
AcDbLine
 10
-5659.999495325861
 20
3730.000181455871
 30
0.0
 11
-1992.857142857143
 21
3730.000181455871
 31
0.0
  0
LINE
  5
2E4
330
1F
100
AcDbEntity
  8
0-A_文字
  6
Continuous
 62
    92
370
    13
100
AcDbLine
 10
-1992.857142857143
 20
4000.000181455871
 30
0.0
 11
-1992.857142857143
 21
3730.000181455871
 31
0.0
  0
MTEXT
  5
2E5
330
1F
100
AcDbEntity
  8
F-A_文字
  6
Continuous
 62
     7
370
     0
100
AcDbMText
 10
-5080.081323642281
 20
-4045.063791500076
 30
0.0
 40
79.87228915662645
 41
4350.0
 46
0.0
 71
     7
 72
     1
  1
{\fＭＳ ゴシック|b0|i0|c128|p49;ドレタス　天井ジャストシリーズ　シングルドア　固定枠155巾　通気　２方枠　枠外H2,400}
 73
     1
 44
1.0
  0
LINE
  5
2E6
330
1F
100
AcDbEntity
  8
0-B_寸法
  6
Continuous
 62
   120
370
     5
100
AcDbLine
 10
-1087.623938232532
 20
-500.329698284454
 30
0.0
 11
-1303.623938232528
 21
-500.329698284454
 31
0.0
  0
LWPOLYLINE
  5
2E7
330
1F
100
AcDbEntity
  8
0-B_寸法
  6
Continuous
 62
     7
370
     9
100
AcDbPolyline
 90
        4
 70
     1
 43
3.0
 10
-1086.123938232532
 20
-500.329698284454
 42
0.4142135623731
 10
-1087.623938232532
 20
-498.829698284454
 42
0.4142135623731
 10
-1089.123938232531
 20
-500.329698284454
 42
0.4142135623731
 10
-1087.623938232532
 20
-501.829698284454
 42
0.4142135623731
  0
LWPOLYLINE
  5
2E8
330
1F
100
AcDbEntity
  8
0-B_寸法
  6
Continuous
 62
     7
370
     9
100
AcDbPolyline
 90
        4
 70
     1
 43
3.0
 10
-1302.123938232528
 20
-500.329698284454
 42
0.4142135623731
 10
-1303.623938232528
 20
-498.829698284454
 42
0.4142135623731
 10
-1305.123938232528
 20
-500.329698284454
 42
0.4142135623731
 10
-1303.623938232528
 20
-501.829698284454
 42
0.4142135623731
  0
MTEXT
  5
2E9
330
1F
100
AcDbEntity
  8
0-B_寸法
  6
Continuous
 62
     7
370
   211
100
AcDbMText
 10
-1255.623938232529
 20
-499.609698284454
 30
0.0
 40
91.44
 41
120.0
 46
0.0
 71
     7
 72
     1
  1
{\fＭＳ ゴシック|b0|i0|c128|p49;36}
 73
     1
 44
1.0
  0
LINE
  5
2EA
330
1F
100
AcDbEntity
  8
0-B_寸法
  6
Continuous
 62
   120
370
     5
100
AcDbLine
 10
-1492.623938232528
 20
-800.329698284454
 30
0.0
 11
-1195.623938232529
 21
-800.329698284454
 31
0.0
  0
LWPOLYLINE
  5
2EB
330
1F
100
AcDbEntity
  8
0-B_寸法
  6
Continuous
 62
     7
370
     9
100
AcDbPolyline
 90
        4
 70
     1
 43
3.0
 10
-1491.123938232529
 20
-800.329698284454
 42
0.4142135623731
 10
-1492.623938232528
 20
-798.829698284454
 42
0.4142135623731
 10
-1494.123938232528
 20
-800.329698284454
 42
0.4142135623731
 10
-1492.623938232528
 20
-801.829698284454
 42
0.4142135623731
  0
LWPOLYLINE
  5
2EC
330
1F
100
AcDbEntity
  8
0-B_寸法
  6
Continuous
 62
     7
370
     9
100
AcDbPolyline
 90
        4
 70
     1
 43
3.0
 10
-1194.123938232529
 20
-800.329698284454
 42
0.4142135623731
 10
-1195.623938232529
 20
-798.829698284454
 42
0.4142135623731
 10
-1197.123938232528
 20
-800.329698284454
 42
0.4142135623731
 10
-1195.623938232529
 20
-801.829698284454
 42
0.4142135623731
  0
MTEXT
  5
2ED
330
1F
100
AcDbEntity
  8
0-B_寸法
  6
Continuous
 62
     7
370
   211
100
AcDbMText
 10
-1475.373938232528
 20
-795.323448284454
 30
0.0
 40
100.0125
 41
262.5
 46
0.0
 71
     7
 72
     1
  1
{\fＭＳ ゴシック|b0|i0|c128|p49;49.5}
 73
     1
 44
1.0
  0
LINE
  5
2EE
330
1F
100
AcDbEntity
  8
0-1_通り芯
  6
JWW_CENTER1
 62
   120
370
     5
100
AcDbLine
 10
-1195.623938232529
 20
119.0005843703727
 30
0.0
 11
-1195.623938232529
 21
-3087.999827616932
 31
0.0
  0
LINE
  5
2EF
330
1F
100
AcDbEntity
  8
0-6_扉
  6
Continuous
 62
   200
370
    20
100
AcDbLine
 10
-1730.999628840266
 20
2334.229351964742
 30
0.0
 11
-50.99962884026587
 21
2334.229351964742
 31
0.0
  0
LINE
  5
2F0
330
1F
100
AcDbEntity
  8
0-6_扉
  6
Continuous
 62
   200
370
    20
100
AcDbLine
 10
-1730.999628840266
 20
2118.229351964742
 30
0.0
 11
-1730.999628840266
 21
2334.229351964742
 31
0.0
  0
LINE
  5
2F1
330
1F
100
AcDbEntity
  8
0-6_扉
  6
Continuous
 62
   200
370
    20
100
AcDbLine
 10
-1730.999628840266
 20
2118.229351964742
 30
0.0
 11
-50.99962884026587
 21
2118.229351964742
 31
0.0
  0
LINE
  5
2F2
330
1F
100
AcDbEntity
  8
0-6_扉
  6
Continuous
 62
   200
370
    20
100
AcDbLine
 10
69.00037115973414
 20
2118.229351964742
 30
0.0
 11
1749.000371159736
 21
2118.229351964742
 31
0.0
  0
LINE
  5
2F3
330
1F
100
AcDbEntity
  8
0-6_扉
  6
Continuous
 62
   200
370
    20
100
AcDbLine
 10
69.00037115973414
 20
2334.229351964742
 30
0.0
 11
1749.000371159736
 21
2334.229351964742
 31
0.0
  0
LINE
  5
2F4
330
1F
100
AcDbEntity
  8
0-6_扉
  6
Continuous
 62
   200
370
    20
100
AcDbLine
 10
1749.000371159736
 20
2334.229351964742
 30
0.0
 11
1749.000371159736
 21
2118.229351964742
 31
0.0
  0
MTEXT
  5
2F5
330
1F
100
AcDbEntity
  8
0-B_寸法
  6
Continuous
 62
     7
370
   211
100
AcDbMText
 10
-1167.46963915419
 20
2151.949351964742
 30
0.0
 40
91.44
 41
120.0
 46
0.0
 71
     7
 72
     1
  1
{\fＭＳ ゴシック|b0|i0|c128|p49;36}
 11
6.123031769111886E-17
 21
1.0
 31
0.0
 73
     1
 44
1.0
  0
LWPOLYLINE
  5
2F6
330
1F
100
AcDbEntity
  8
0-B_寸法
  6
Continuous
 62
     7
370
     9
100
AcDbPolyline
 90
        4
 70
     1
 43
3.0
 10
-1150.96963915419
 20
2118.229351964742
 42
0.4142135623731
 10
-1152.46963915419
 20
2119.729351964742
 42
0.4142135623731
 10
-1153.96963915419
 20
2118.229351964742
 42
0.4142135623731
 10
-1152.46963915419
 20
2116.729351964742
 42
0.4142135623731
  0
LWPOLYLINE
  5
2F7
330
1F
100
AcDbEntity
  8
0-B_寸法
  6
Continuous
 62
     7
370
     9
100
AcDbPolyline
 90
        4
 70
     1
 43
3.0
 10
-1150.96963915419
 20
2334.229351964742
 42
0.4142135623731
 10
-1152.46963915419
 20
2335.729351964742
 42
0.4142135623731
 10
-1153.96963915419
 20
2334.229351964742
 42
0.4142135623731
 10
-1152.46963915419
 20
2332.729351964742
 42
0.4142135623731
  0
LINE
  5
2F8
330
1F
100
AcDbEntity
  8
0-B_寸法
  6
Continuous
 62
   120
370
     5
100
AcDbLine
 10
-1152.46963915419
 20
2334.229351964742
 30
0.0
 11
-1152.46963915419
 21
2118.229351964742
 31
0.0
  0
LINE
  5
2F9
330
1F
100
AcDbEntity
  8
0-B_寸法
  6
Continuous
 62
   120
370
     5
100
AcDbLine
 10
-852.46963915419
 20
2226.229351964743
 30
0.0
 11
-852.46963915419
 21
2523.22940826416
 31
0.0
  0
LWPOLYLINE
  5
2FA
330
1F
100
AcDbEntity
  8
0-B_寸法
  6
Continuous
 62
     7
370
     9
100
AcDbPolyline
 90
        4
 70
     1
 43
3.0
 10
-850.96963915419
 20
2226.229351964743
 42
0.4142135623731
 10
-852.46963915419
 20
2227.729351964743
 42
0.4142135623731
 10
-853.9696391541901
 20
2226.229351964743
 42
0.4142135623731
 10
-852.46963915419
 20
2224.729351964743
 42
0.4142135623731
  0
LWPOLYLINE
  5
2FB
330
1F
100
AcDbEntity
  8
0-B_寸法
  6
Continuous
 62
     7
370
     9
100
AcDbPolyline
 90
        4
 70
     1
 43
3.0
 10
-850.96963915419
 20
2523.22940826416
 42
0.4142135623731
 10
-852.46963915419
 20
2524.72940826416
 42
0.4142135623731
 10
-853.9696391541901
 20
2523.22940826416
 42
0.4142135623731
 10
-852.46963915419
 20
2521.72940826416
 42
0.4142135623731
  0
MTEXT
  5
2FC
330
1F
100
AcDbEntity
  8
0-B_寸法
  6
Continuous
 62
     7
370
   211
100
AcDbMText
 10
-867.46963915419
 20
2233.485630114451
 30
0.0
 40
100.0125
 41
262.5
 46
0.0
 71
     7
 72
     1
  1
{\fＭＳ ゴシック|b0|i0|c128|p49;49.5}
 11
6.123031769111886E-17
 21
1.0
 31
0.0
 73
     1
 44
1.0
  0
LINE
  5
2FD
330
1F
100
AcDbEntity
  8
0-1_通り芯
  6
JWW_CENTER1
 62
   120
370
     5
100
AcDbLine
 10
1761.000371159732
 20
2226.229351964743
 30
0.0
 11
-1760.999628840264
 21
2226.229351964743
 31
0.0
  0
MTEXT
  5
2FE
330
1F
100
AcDbEntity
  8
F-A_文字
  6
Continuous
 62
     7
370
     0
100
AcDbMText
 10
4938.667793092893
 20
-3938.071010139967
 30
0.0
 40
78.86699999999999
 41
517.5
 46
0.0
 71
     7
 72
     1
  1
{\fＭＳ ゴシック|b0|i0|c128|p49;2022.04.01}
 73
     1
 44
1.0
  0
ENDSEC
  0
SECTION
  2
OBJECTS
  0
DICTIONARY
  5
C
330
0
100
AcDbDictionary
281
     1
  3
ACAD_GROUP
350
D
  3
ACAD_LAYOUT
350
1A
  3
ACAD_MATERIAL
350
3B
  3
ACAD_MLEADERSTYLE
350
300
  3
ACAD_MLINESTYLE
350
17
  3
ACAD_PLOTSETTINGS
350
19
  3
ACAD_PLOTSTYLENAME
350
E
  3
ACAD_TABLESTYLE
350
2FF
  3
ACAD_VISUALSTYLE
350
2A
  0
DICTIONARY
  5
D
102
{ACAD_REACTORS
330
C
102
}
330
C
100
AcDbDictionary
281
     1
  0
DICTIONARY
  5
1A
102
{ACAD_REACTORS
330
C
102
}
330
C
100
AcDbDictionary
281
     1
  3
Layout1
350
1E
  3
Layout2
350
26
  3
Model
350
22
  0
DICTIONARY
  5
3B
102
{ACAD_REACTORS
330
C
102
}
330
C
100
AcDbDictionary
281
     1
  3
ByBlock
350
3D
  3
ByLayer
350
3C
  3
Global
350
3E
  0
DICTIONARY
  5
300
102
{ACAD_REACTORS
330
C
102
}
330
C
100
AcDbDictionary
281
     1
  0
DICTIONARY
  5
17
102
{ACAD_REACTORS
330
C
102
}
330
C
100
AcDbDictionary
281
     1
  3
Standard
350
18
  0
DICTIONARY
  5
19
102
{ACAD_REACTORS
330
C
102
}
330
C
100
AcDbDictionary
281
     1
  0
ACDBDICTIONARYWDFLT
  5
E
102
{ACAD_REACTORS
330
C
102
}
330
C
100
AcDbDictionary
281
     1
  3
Normal
350
F
100
AcDbDictionaryWithDefault
340
F
  0
DICTIONARY
  5
2FF
102
{ACAD_REACTORS
330
C
102
}
330
C
100
AcDbDictionary
281
     1
  0
DICTIONARY
  5
2A
102
{ACAD_REACTORS
330
C
102
}
330
C
100
AcDbDictionary
281
     1
  3
2dWireframe
350
2F
  3
3D Hidden
350
31
  3
3dWireframe
350
30
  3
Basic
350
32
  3
Brighten
350
36
  3
ColorChange
350
3A
  3
Conceptual
350
34
  3
Dim
350
35
  3
Facepattern
350
39
  3
Flat
350
2B
  3
FlatWithEdges
350
2C
  3
Gouraud
350
2D
  3
GouraudWithEdges
350
2E
  3
Linepattern
350
38
  3
Realistic
350
33
  3
Thicken
350
37
  0
LAYOUT
  5
1E
102
{ACAD_REACTORS
330
1A
102
}
330
1A
100
AcDbPlotSettings
  1

  2
none_device
  4

  6

 40
0.0
 41
0.0
 42
0.0
 43
0.0
 44
0.0
 45
0.0
 46
0.0
 47
0.0
 48
0.0
 49
0.0
140
0.0
141
0.0
142
1.0
143
1.0
 70
   688
 72
     0
 73
     0
 74
     5
  7

 75
    16
 76
     0
 77
     5
 78
   300
147
1.0
148
0.0
149
0.0
100
AcDbLayout
  1
Layout1
 70
     1
 71
     1
 10
0.0
 20
0.0
 11
420.0
 21
297.0
 12
0.0
 22
0.0
 32
0.0
 14
1.000000000000000E+20
 24
1.000000000000000E+20
 34
1.000000000000000E+20
 15
-1.000000000000000E+20
 25
-1.000000000000000E+20
 35
-1.000000000000000E+20
146
0.0
 13
0.0
 23
0.0
 33
0.0
 16
1.0
 26
0.0
 36
0.0
 17
0.0
 27
1.0
 37
0.0
 76
     0
330
1B
  0
LAYOUT
  5
26
102
{ACAD_REACTORS
330
1A
102
}
330
1A
100
AcDbPlotSettings
  1

  2
none_device
  4

  6

 40
0.0
 41
0.0
 42
0.0
 43
0.0
 44
0.0
 45
0.0
 46
0.0
 47
0.0
 48
0.0
 49
0.0
140
0.0
141
0.0
142
1.0
143
1.0
 70
   688
 72
     0
 73
     0
 74
     5
  7

 75
    16
 76
     0
 77
     5
 78
   300
147
1.0
148
0.0
149
0.0
100
AcDbLayout
  1
Layout2
 70
     1
 71
     2
 10
0.0
 20
0.0
 11
0.0
 21
0.0
 12
0.0
 22
0.0
 32
0.0
 14
0.0
 24
0.0
 34
0.0
 15
0.0
 25
0.0
 35
0.0
146
0.0
 13
0.0
 23
0.0
 33
0.0
 16
1.0
 26
0.0
 36
0.0
 17
0.0
 27
1.0
 37
0.0
 76
     0
330
23
  0
LAYOUT
  5
22
102
{ACAD_REACTORS
330
1A
102
}
330
1A
100
AcDbPlotSettings
  1

  2
none_device
  4

  6

 40
0.0
 41
0.0
 42
0.0
 43
0.0
 44
0.0
 45
0.0
 46
0.0
 47
0.0
 48
0.0
 49
0.0
140
0.0
141
0.0
142
1.0
143
1.0
 70
  1712
 72
     0
 73
     0
 74
     0
  7

 75
     0
 76
     0
 77
     5
 78
   300
147
1.0
148
0.0
149
0.0
100
AcDbLayout
  1
Model
 70
     1
 71
     0
 10
-8910.0
 20
-6300.0
 11
8910.0
 21
6300.0
 12
0.0
 22
0.0
 32
0.0
 14
-8910.0
 24
-6300.0
 34
0.0
 15
8910.0
 25
6300.0
 35
0.0
146
0.0
 13
0.0
 23
0.0
 33
0.0
 16
1.0
 26
0.0
 36
0.0
 17
0.0
 27
1.0
 37
0.0
 76
     0
330
1F
331
29
  0
MATERIAL
  5
3D
102
{ACAD_REACTORS
330
3B
102
}
330
3B
100
AcDbMaterial
  1
ByBlock
 72
     1
 94
      127
  0
MATERIAL
  5
3C
102
{ACAD_REACTORS
330
3B
102
}
330
3B
100
AcDbMaterial
  1
ByLayer
 72
     1
 94
      127
  0
MATERIAL
  5
3E
102
{ACAD_REACTORS
330
3B
102
}
330
3B
100
AcDbMaterial
  1
Global
 72
     1
 94
      127
  0
MLINESTYLE
  5
18
102
{ACAD_REACTORS
330
17
102
}
330
17
100
AcDbMlineStyle
  2
Standard
 70
     0
  3

 62
   256
 51
90.0
 52
90.0
 71
     2
 49
0.5
 62
   256
  6
BYLAYER
 49
-0.5
 62
   256
  6
BYLAYER
  0
ACDBPLACEHOLDER
  5
F
102
{ACAD_REACTORS
330
E
102
}
330
E
  0
VISUALSTYLE
  5
2F
102
{ACAD_REACTORS
330
2A
102
}
330
2A
100
AcDbVisualStyle
  2
2dWireframe
 70
     4
177
     2
291
     0
 71
     0
176
     1
 72
     2
176
     1
 73
     0
176
     1
 90
        0
176
     1
 40
-0.6
176
     1
 41
-30.0
176
     1
 62
     5
 63
     7
421
 16777215
176
     1
 74
     1
176
     1
 91
        4
176
     1
 64
     7
176
     1
 65
   257
176
     1
 75
     1
176
     1
175
     1
176
     1
 42
1.0
176
     1
 92
        0
176
     1
 66
   257
176
     1
 43
1.0
176
     1
 76
     1
176
     1
 77
     6
176
     1
 78
     2
176
     1
 67
     7
176
     1
 79
     5
176
     1
170
     0
176
     1
171
     0
176
     1
290
     0
176
     1
 93
        1
176
     1
 44
0.0
176
     1
173
     0
176
     1
  0
VISUALSTYLE
  5
31
102
{ACAD_REACTORS
330
2A
102
}
330
2A
100
AcDbVisualStyle
  2
3D Hidden
 70
     6
177
     2
291
     0
 71
     1
176
     1
 72
     2
176
     1
 73
     2
176
     1
 90
        0
176
     1
 40
-0.6
176
     1
 41
-30.0
176
     1
 62
     5
 63
     7
421
 16777215
176
     1
 74
     2
176
     1
 91
        2
176
     1
 64
     7
176
     1
 65
   257
176
     1
 75
     2
176
     1
175
     1
176
     1
 42
40.0
176
     1
 92
        0
176
     1
 66
   257
176
     1
 43
1.0
176
     1
 76
     1
176
     1
 77
     6
176
     1
 78
     2
176
     1
 67
     7
176
     1
 79
     3
176
     1
170
     0
176
     1
171
     0
176
     1
290
     0
176
     1
 93
        1
176
     1
 44
0.0
176
     1
173
     0
176
     1
  0
VISUALSTYLE
  5
30
102
{ACAD_REACTORS
330
2A
102
}
330
2A
100
AcDbVisualStyle
  2
3dWireframe
 70
     5
177
     2
291
     0
 71
     0
176
     1
 72
     2
176
     1
 73
     0
176
     1
 90
        0
176
     1
 40
-0.6
176
     1
 41
-30.0
176
     1
 62
     5
 63
     7
421
 16777215
176
     1
 74
     1
176
     1
 91
        4
176
     1
 64
     7
176
     1
 65
   257
176
     1
 75
     1
176
     1
175
     1
176
     1
 42
1.0
176
     1
 92
        0
176
     1
 66
   257
176
     1
 43
1.0
176
     1
 76
     1
176
     1
 77
     6
176
     1
 78
     2
176
     1
 67
     7
176
     1
 79
     5
176
     1
170
     0
176
     1
171
     0
176
     1
290
     0
176
     1
 93
        1
176
     1
 44
0.0
176
     1
173
     0
176
     1
  0
VISUALSTYLE
  5
32
102
{ACAD_REACTORS
330
2A
102
}
330
2A
100
AcDbVisualStyle
  2
Basic
 70
     7
177
     2
291
     1
 71
     1
176
     1
 72
     0
176
     1
 73
     1
176
     1
 90
        0
176
     1
 40
-0.6
176
     1
 41
-30.0
176
     1
 62
     5
 63
     7
421
 16777215
176
     1
 74
     0
176
     1
 91
        4
176
     1
 64
     7
176
     1
 65
   257
176
     1
 75
     1
176
     1
175
     1
176
     1
 42
1.0
176
     1
 92
        8
176
     1
 66
     7
176
     1
 43
1.0
176
     1
 76
     1
176
     1
 77
     6
176
     1
 78
     2
176
     1
 67
     7
176
     1
 79
     5
176
     1
170
     0
176
     1
171
     0
176
     1
290
     0
176
     1
 93
        1
176
     1
 44
0.0
176
     1
173
     0
176
     1
  0
VISUALSTYLE
  5
36
102
{ACAD_REACTORS
330
2A
102
}
330
2A
100
AcDbVisualStyle
  2
Brighten
 70
    12
177
     2
291
     1
 71
     2
176
     1
 72
     2
176
     1
 73
     0
176
     1
 90
        0
176
     1
 40
-0.6
176
     1
 41
-30.0
176
     1
 62
     5
 63
     7
421
 16777215
176
     1
 74
     1
176
     1
 91
        4
176
     1
 64
     7
176
     1
 65
   257
176
     1
 75
     1
176
     1
175
     1
176
     1
 42
1.0
176
     1
 92
        8
176
     1
 66
     7
176
     1
 43
1.0
176
     1
 76
     1
176
     1
 77
     6
176
     1
 78
     2
176
     1
 67
     7
176
     1
 79
     5
176
     1
170
     0
176
     1
171
     0
176
     1
290
     0
176
     1
 93
        1
176
     1
 44
50.0
176
     1
173
     0
176
     1
  0
VISUALSTYLE
  5
3A
102
{ACAD_REACTORS
330
2A
102
}
330
2A
100
AcDbVisualStyle
  2
ColorChange
 70
    16
177
     2
291
     1
 71
     2
176
     1
 72
     2
176
     1
 73
     3
176
     1
 90
        0
176
     1
 40
-0.6
176
     1
 41
-30.0
176
     1
 62
     5
 63
     8
421
  8421504
176
     1
 74
     1
176
     1
 91
        4
176
     1
 64
     7
176
     1
 65
   257
176
     1
 75
     1
176
     1
175
     1
176
     1
 42
1.0
176
     1
 92
        8
176
     1
 66
     8
424
  8421504
176
     1
 43
1.0
176
     1
 76
     1
176
     1
 77
     6
176
     1
 78
     2
176
     1
 67
     7
176
     1
 79
     5
176
     1
170
     0
176
     1
171
     0
176
     1
290
     0
176
     1
 93
        1
176
     1
 44
0.0
176
     1
173
     0
176
     1
  0
VISUALSTYLE
  5
34
102
{ACAD_REACTORS
330
2A
102
}
330
2A
100
AcDbVisualStyle
  2
Conceptual
 70
     9
177
     2
291
     0
 71
     3
176
     1
 72
     2
176
     1
 73
     0
176
     1
 90
        0
176
     1
 40
-0.6
176
     1
 41
-30.0
176
     1
 62
     5
 63
     7
421
 16777215
176
     1
 74
     2
176
     1
 91
        2
176
     1
 64
     7
176
     1
 65
   257
176
     1
 75
     1
176
     1
175
     1
176
     1
 42
40.0
176
     1
 92
        8
176
     1
 66
     7
176
     1
 43
1.0
176
     1
 76
     1
176
     1
 77
     6
176
     1
 78
     2
176
     1
 67
     7
176
     1
 79
     3
176
     1
170
     0
176
     1
171
     0
176
     1
290
     0
176
     1
 93
        1
176
     1
 44
0.0
176
     1
173
     0
176
     1
  0
VISUALSTYLE
  5
35
102
{ACAD_REACTORS
330
2A
102
}
330
2A
100
AcDbVisualStyle
  2
Dim
 70
    11
177
     2
291
     1
 71
     2
176
     1
 72
     2
176
     1
 73
     0
176
     1
 90
        0
176
     1
 40
-0.6
176
     1
 41
-30.0
176
     1
 62
     5
 63
     7
421
 16777215
176
     1
 74
     1
176
     1
 91
        4
176
     1
 64
     7
176
     1
 65
   257
176
     1
 75
     1
176
     1
175
     1
176
     1
 42
1.0
176
     1
 92
        8
176
     1
 66
     7
176
     1
 43
1.0
176
     1
 76
     1
176
     1
 77
     6
176
     1
 78
     2
176
     1
 67
     7
176
     1
 79
     5
176
     1
170
     0
176
     1
171
     0
176
     1
290
     0
176
     1
 93
        1
176
     1
 44
-50.0
176
     1
173
     0
176
     1
  0
VISUALSTYLE
  5
39
102
{ACAD_REACTORS
330
2A
102
}
330
2A
100
AcDbVisualStyle
  2
Facepattern
 70
    15
177
     2
291
     1
 71
     2
176
     1
 72
     2
176
     1
 73
     0
176
     1
 90
        0
176
     1
 40
-0.6
176
     1
 41
-30.0
176
     1
 62
     5
 63
     7
421
 16777215
176
     1
 74
     1
176
     1
 91
        4
176
     1
 64
     7
176
     1
 65
   257
176
     1
 75
     1
176
     1
175
     1
176
     1
 42
1.0
176
     1
 92
        8
176
     1
 66
     7
176
     1
 43
1.0
176
     1
 76
     1
176
     1
 77
     6
176
     1
 78
     2
176
     1
 67
     7
176
     1
 79
     5
176
     1
170
     0
176
     1
171
     0
176
     1
290
     0
176
     1
 93
        1
176
     1
 44
0.0
176
     1
173
     0
176
     1
  0
VISUALSTYLE
  5
2B
102
{ACAD_REACTORS
330
2A
102
}
330
2A
100
AcDbVisualStyle
  2
Flat
 70
     0
177
     2
291
     1
 71
     2
176
     1
 72
     1
176
     1
 73
     1
176
     1
 90
        2
176
     1
 40
-0.6
176
     1
 41
30.0
176
     1
 62
     5
 63
     7
421
 16777215
176
     1
 74
     0
176
     1
 91
        4
176
     1
 64
     7
176
     1
 65
   257
176
     1
 75
     1
176
     1
175
     1
176
     1
 42
1.0
176
     1
 92
        8
176
     1
 66
     7
176
     1
 43
1.0
176
     1
 76
     1
176
     1
 77
     6
176
     1
 78
     2
176
     1
 67
     7
176
     1
 79
     5
176
     1
170
     0
176
     1
171
     0
176
     1
290
     0
176
     1
 93
       13
176
     1
 44
0.0
176
     1
173
     0
176
     1
  0
VISUALSTYLE
  5
2C
102
{ACAD_REACTORS
330
2A
102
}
330
2A
100
AcDbVisualStyle
  2
FlatWithEdges
 70
     1
177
     2
291
     1
 71
     2
176
     1
 72
     1
176
     1
 73
     1
176
     1
 90
        2
176
     1
 40
-0.6
176
     1
 41
30.0
176
     1
 62
     5
 63
     7
421
 16777215
176
     1
 74
     1
176
     1
 91
        4
176
     1
 64
     7
176
     1
 65
   257
176
     1
 75
     1
176
     1
175
     1
176
     1
 42
1.0
176
     1
 92
        0
176
     1
 66
   257
176
     1
 43
1.0
176
     1
 76
     1
176
     1
 77
     6
176
     1
 78
     2
176
     1
 67
     7
176
     1
 79
     5
176
     1
170
     0
176
     1
171
     0
176
     1
290
     0
176
     1
 93
       13
176
     1
 44
0.0
176
     1
173
     0
176
     1
  0
VISUALSTYLE
  5
2D
102
{ACAD_REACTORS
330
2A
102
}
330
2A
100
AcDbVisualStyle
  2
Gouraud
 70
     2
177
     2
291
     1
 71
     2
176
     1
 72
     2
176
     1
 73
     1
176
     1
 90
        2
176
     1
 40
-0.6
176
     1
 41
30.0
176
     1
 62
     5
 63
     7
421
 16777215
176
     1
 74
     0
176
     1
 91
        4
176
     1
 64
     7
176
     1
 65
   257
176
     1
 75
     1
176
     1
175
     1
176
     1
 42
1.0
176
     1
 92
        0
176
     1
 66
     7
176
     1
 43
1.0
176
     1
 76
     1
176
     1
 77
     6
176
     1
 78
     2
176
     1
 67
     7
176
     1
 79
     5
176
     1
170
     0
176
     1
171
     0
176
     1
290
     0
176
     1
 93
       13
176
     1
 44
0.0
176
     1
173
     0
176
     1
  0
VISUALSTYLE
  5
2E
102
{ACAD_REACTORS
330
2A
102
}
330
2A
100
AcDbVisualStyle
  2
GouraudWithEdges
 70
     3
177
     2
291
     1
 71
     2
176
     1
 72
     2
176
     1
 73
     1
176
     1
 90
        2
176
     1
 40
-0.6
176
     1
 41
30.0
176
     1
 62
     5
 63
     7
421
 16777215
176
     1
 74
     1
176
     1
 91
        4
176
     1
 64
     7
176
     1
 65
   257
176
     1
 75
     1
176
     1
175
     1
176
     1
 42
1.0
176
     1
 92
        0
176
     1
 66
   257
176
     1
 43
1.0
176
     1
 76
     1
176
     1
 77
     6
176
     1
 78
     2
176
     1
 67
     7
176
     1
 79
     5
176
     1
170
     0
176
     1
171
     0
176
     1
290
     0
176
     1
 93
       13
176
     1
 44
0.0
176
     1
173
     0
176
     1
  0
VISUALSTYLE
  5
38
102
{ACAD_REACTORS
330
2A
102
}
330
2A
100
AcDbVisualStyle
  2
Linepattern
 70
    14
177
     2
291
     1
 71
     2
176
     1
 72
     2
176
     1
 73
     0
176
     1
 90
        0
176
     1
 40
-0.6
176
     1
 41
-30.0
176
     1
 62
     5
 63
     7
421
 16777215
176
     1
 74
     1
176
     1
 91
        4
176
     1
 64
     7
176
     1
 65
   257
176
     1
 75
     7
176
     1
175
     7
176
     1
 42
1.0
176
     1
 92
        8
176
     1
 66
     7
176
     1
 43
1.0
176
     1
 76
     1
176
     1
 77
     6
176
     1
 78
     2
176
     1
 67
     7
176
     1
 79
     5
176
     1
170
     0
176
     1
171
     0
176
     1
290
     0
176
     1
 93
        1
176
     1
 44
0.0
176
     1
173
     0
176
     1
  0
VISUALSTYLE
  5
33
102
{ACAD_REACTORS
330
2A
102
}
330
2A
100
AcDbVisualStyle
  2
Realistic
 70
     8
177
     2
291
     0
 71
     2
176
     1
 72
     2
176
     1
 73
     0
176
     1
 90
        0
176
     1
 40
-0.6
176
     1
 41
-30.0
176
     1
 62
     5
 63
     7
421
 16777215
176
     1
 74
     1
176
     1
 91
        0
176
     1
 64
     7
176
     1
 65
   257
176
     1
 75
     1
176
     1
175
     1
176
     1
 42
1.0
176
     1
 92
        8
176
     1
 66
     8
424
  7895160
176
     1
 43
1.0
176
     1
 76
     1
176
     1
 77
     6
176
     1
 78
     2
176
     1
 67
     7
176
     1
 79
     5
176
     1
170
     0
176
     1
171
     0
176
     1
290
     0
176
     1
 93
       13
176
     1
 44
0.0
176
     1
173
     0
176
     1
  0
VISUALSTYLE
  5
37
102
{ACAD_REACTORS
330
2A
102
}
330
2A
100
AcDbVisualStyle
  2
Thicken
 70
    13
177
     2
291
     1
 71
     2
176
     1
 72
     2
176
     1
 73
     0
176
     1
 90
        0
176
     1
 40
-0.6
176
     1
 41
-30.0
176
     1
 62
     5
 63
     7
421
 16777215
176
     1
 74
     1
176
     1
 91
        4
176
     1
 64
     7
176
     1
 65
   257
176
     1
 75
     1
176
     1
175
     1
176
     1
 42
1.0
176
     1
 92
       12
176
     1
 66
     7
176
     1
 43
1.0
176
     1
 76
     1
176
     1
 77
     6
176
     1
 78
     2
176
     1
 67
     7
176
     1
 79
     5
176
     1
170
     0
176
     1
171
     0
176
     1
290
     0
176
     1
 93
        1
176
     1
 44
0.0
176
     1
173
     0
176
     1
  0
ENDSEC
  0
EOF
