  0
SECTION
  2
HEADER
  9
$ACADVER
  1
AC1024
  9
$ACADMAINTVER
 70
     6
  9
$DWGCODEPAGE
  3
ANSI_932
  9
$INSBASE
 10
0.0
 20
0.0
 30
0.0
  9
$EXTMIN
 10
-4200.0
 20
-2970.0
 30
0.0
  9
$EXTMAX
 10
4200.0
 20
2970.0
 30
0.0
  9
$LIMMIN
 10
-4200.0
 20
-2970.0
  9
$LIMMAX
 10
4200.0
 20
2970.0
  9
$ORTHOMODE
 70
     0
  9
$REGENMODE
 70
     1
  9
$FILLMODE
 70
     1
  9
$QTEXTMODE
 70
     0
  9
$MIRRTEXT
 70
     1
  9
$LTSCALE
 40
20.0
  9
$ATTMODE
 70
     1
  9
$TEXTSIZE
 40
2.5
  9
$TRACEWID
 40
1.0
  9
$TEXTSTYLE
  7
Standard
  9
$CLAYER
  8
0
  9
$CELTYPE
  6
ByLayer
  9
$CECOLOR
 62
   256
  9
$CELTSCALE
 40
1.0
  9
$DISPSILH
 70
     0
  9
$DIMSCALE
 40
1.0
  9
$DIMASZ
 40
2.5
  9
$DIMEXO
 40
0.625
  9
$DIMDLI
 40
3.75
  9
$DIMRND
 40
0.0
  9
$DIMDLE
 40
0.0
  9
$DIMEXE
 40
1.25
  9
$DIMTP
 40
0.0
  9
$DIMTM
 40
0.0
  9
$DIMTXT
 40
2.5
  9
$DIMCEN
 40
2.5
  9
$DIMTSZ
 40
0.0
  9
$DIMTOL
 70
     0
  9
$DIMLIM
 70
     0
  9
$DIMTIH
 70
     0
  9
$DIMTOH
 70
     0
  9
$DIMSE1
 70
     0
  9
$DIMSE2
 70
     0
  9
$DIMTAD
 70
     1
  9
$DIMZIN
 70
     8
  9
$DIMBLK
  1

  9
$DIMASO
 70
     1
  9
$DIMSHO
 70
     1
  9
$DIMPOST
  1

  9
$DIMAPOST
  1

  9
$DIMALT
 70
     0
  9
$DIMALTD
 70
     3
  9
$DIMALTF
 40
0.03937007874016
  9
$DIMLFAC
 40
1.0
  9
$DIMTOFL
 70
     1
  9
$DIMTVP
 40
0.0
  9
$DIMTIX
 70
     0
  9
$DIMSOXD
 70
     0
  9
$DIMSAH
 70
     0
  9
$DIMBLK1
  1

  9
$DIMBLK2
  1

  9
$DIMSTYLE
  2
ISO-25
  9
$DIMCLRD
 70
     0
  9
$DIMCLRE
 70
     0
  9
$DIMCLRT
 70
     0
  9
$DIMTFAC
 40
1.0
  9
$DIMGAP
 40
0.625
  9
$DIMJUST
 70
     0
  9
$DIMSD1
 70
     0
  9
$DIMSD2
 70
     0
  9
$DIMTOLJ
 70
     0
  9
$DIMTZIN
 70
     8
  9
$DIMALTZ
 70
     0
  9
$DIMALTTZ
 70
     0
  9
$DIMUPT
 70
     0
  9
$DIMDEC
 70
     2
  9
$DIMTDEC
 70
     2
  9
$DIMALTU
 70
     2
  9
$DIMALTTD
 70
     3
  9
$DIMTXSTY
  7
Standard
  9
$DIMAUNIT
 70
     0
  9
$DIMADEC
 70
     0
  9
$DIMALTRND
 40
0.0
  9
$DIMAZIN
 70
     0
  9
$DIMDSEP
 70
    44
  9
$DIMATFIT
 70
     3
  9
$DIMFRAC
 70
     0
  9
$DIMLDRBLK
  1

  9
$DIMLUNIT
 70
     2
  9
$DIMLWD
 70
    -2
  9
$DIMLWE
 70
    -2
  9
$DIMTMOVE
 70
     0
  9
$DIMFXL
 40
1.0
  9
$DIMFXLON
 70
     0
  9
$DIMJOGANG
 40
0.7853981633974483
  9
$DIMTFILL
 70
     0
  9
$DIMTFILLCLR
 70
     0
  9
$DIMARCSYM
 70
     0
  9
$DIMLTYPE
  6

  9
$DIMLTEX1
  6

  9
$DIMLTEX2
  6

  9
$DIMTXTDIRECTION
 70
     0
  9
$LUNITS
 70
     2
  9
$LUPREC
 70
     4
  9
$SKETCHINC
 40
1.0
  9
$FILLETRAD
 40
10.0
  9
$AUNITS
 70
     0
  9
$AUPREC
 70
     0
  9
$MENU
  1
.
  9
$ELEVATION
 40
0.0
  9
$PELEVATION
 40
0.0
  9
$THICKNESS
 40
0.0
  9
$LIMCHECK
 70
     0
  9
$CHAMFERA
 40
10.0
  9
$CHAMFERB
 40
10.0
  9
$CHAMFERC
 40
20.0
  9
$CHAMFERD
 40
0.0
  9
$SKPOLY
 70
     0
  9
$TDCREATE
 40
2460327.706919838
  9
$TDUCREATE
 40
2460327.331919838
  9
$TDUPDATE
 40
2460327.706919849
  9
$TDUUPDATE
 40
2460327.331919849
  9
$TDINDWG
 40
0.0000000116
  9
$TDUSRTIMER
 40
0.0000000116
  9
$USRTIMER
 70
     1
  9
$ANGBASE
 50
0.0
  9
$ANGDIR
 70
     0
  9
$PDMODE
 70
     0
  9
$PDSIZE
 40
0.0
  9
$PLINEWID
 40
0.0
  9
$SPLFRAME
 70
     0
  9
$SPLINETYPE
 70
     6
  9
$SPLINESEGS
 70
     8
  9
$HANDSEED
  5
55C
  9
$SURFTAB1
 70
     6
  9
$SURFTAB2
 70
     6
  9
$SURFTYPE
 70
     6
  9
$SURFU
 70
     6
  9
$SURFV
 70
     6
  9
$UCSBASE
  2

  9
$UCSNAME
  2

  9
$UCSORG
 10
0.0
 20
0.0
 30
0.0
  9
$UCSXDIR
 10
1.0
 20
0.0
 30
0.0
  9
$UCSYDIR
 10
0.0
 20
1.0
 30
0.0
  9
$UCSORTHOREF
  2

  9
$UCSORTHOVIEW
 70
     0
  9
$UCSORGTOP
 10
0.0
 20
0.0
 30
0.0
  9
$UCSORGBOTTOM
 10
0.0
 20
0.0
 30
0.0
  9
$UCSORGLEFT
 10
0.0
 20
0.0
 30
0.0
  9
$UCSORGRIGHT
 10
0.0
 20
0.0
 30
0.0
  9
$UCSORGFRONT
 10
0.0
 20
0.0
 30
0.0
  9
$UCSORGBACK
 10
0.0
 20
0.0
 30
0.0
  9
$PUCSBASE
  2

  9
$PUCSNAME
  2

  9
$PUCSORG
 10
0.0
 20
0.0
 30
0.0
  9
$PUCSXDIR
 10
1.0
 20
0.0
 30
0.0
  9
$PUCSYDIR
 10
0.0
 20
1.0
 30
0.0
  9
$PUCSORTHOREF
  2

  9
$PUCSORTHOVIEW
 70
     0
  9
$PUCSORGTOP
 10
0.0
 20
0.0
 30
0.0
  9
$PUCSORGBOTTOM
 10
0.0
 20
0.0
 30
0.0
  9
$PUCSORGLEFT
 10
0.0
 20
0.0
 30
0.0
  9
$PUCSORGRIGHT
 10
0.0
 20
0.0
 30
0.0
  9
$PUCSORGFRONT
 10
0.0
 20
0.0
 30
0.0
  9
$PUCSORGBACK
 10
0.0
 20
0.0
 30
0.0
  9
$USERI1
 70
     0
  9
$USERI2
 70
     0
  9
$USERI3
 70
     0
  9
$USERI4
 70
     0
  9
$USERI5
 70
     0
  9
$USERR1
 40
0.0
  9
$USERR2
 40
0.0
  9
$USERR3
 40
0.0
  9
$USERR4
 40
0.0
  9
$USERR5
 40
0.0
  9
$WORLDVIEW
 70
     1
  9
$SHADEDGE
 70
     3
  9
$SHADEDIF
 70
    70
  9
$TILEMODE
 70
     1
  9
$MAXACTVP
 70
    64
  9
$PINSBASE
 10
0.0
 20
0.0
 30
0.0
  9
$PLIMCHECK
 70
     0
  9
$PEXTMIN
 10
1.000000000000000E+20
 20
1.000000000000000E+20
 30
1.000000000000000E+20
  9
$PEXTMAX
 10
-1.000000000000000E+20
 20
-1.000000000000000E+20
 30
-1.000000000000000E+20
  9
$PLIMMIN
 10
0.0
 20
0.0
  9
$PLIMMAX
 10
420.0
 20
297.0
  9
$UNITMODE
 70
     0
  9
$VISRETAIN
 70
     1
  9
$PLINEGEN
 70
     0
  9
$PSLTSCALE
 70
     1
  9
$TREEDEPTH
 70
  3020
  9
$CMLSTYLE
  2
Standard
  9
$CMLJUST
 70
     0
  9
$CMLSCALE
 40
20.0
  9
$PROXYGRAPHICS
 70
     1
  9
$MEASUREMENT
 70
     1
  9
$CELWEIGHT
370
    -1
  9
$ENDCAPS
280
     0
  9
$JOINSTYLE
280
     0
  9
$LWDISPLAY
290
     0
  9
$INSUNITS
 70
     4
  9
$HYPERLINKBASE
  1

  9
$STYLESHEET
  1

  9
$XEDIT
290
     1
  9
$CEPSNTYPE
380
     0
  9
$PSTYLEMODE
290
     1
  9
$FINGERPRINTGUID
  2
{0F950054-4C8B-426D-ACAE-AA049C7E2226}
  9
$VERSIONGUID
  2
{FAEB1C32-E019-11D5-929B-00C0DF256EC4}
  9
$EXTNAMES
290
     1
  9
$PSVPSCALE
 40
0.0
  9
$OLESTARTUP
290
     0
  9
$SORTENTS
280
   127
  9
$INDEXCTL
280
     0
  9
$HIDETEXT
280
     1
  9
$XCLIPFRAME
280
     2
  9
$HALOGAP
280
     0
  9
$OBSCOLOR
 70
   257
  9
$OBSLTYPE
280
     0
  9
$INTERSECTIONDISPLAY
280
     0
  9
$INTERSECTIONCOLOR
 70
   257
  9
$DIMASSOC
280
     2
  9
$PROJECTNAME
  1

  9
$CAMERADISPLAY
290
     0
  9
$LENSLENGTH
 40
50.0
  9
$CAMERAHEIGHT
 40
0.0
  9
$STEPSPERSEC
 40
2.0
  9
$STEPSIZE
 40
6.0
  9
$3DDWFPREC
 40
2.0
  9
$PSOLWIDTH
 40
5.0
  9
$PSOLHEIGHT
 40
80.0
  9
$LOFTANG1
 40
1.570796326794897
  9
$LOFTANG2
 40
1.570796326794897
  9
$LOFTMAG1
 40
0.0
  9
$LOFTMAG2
 40
0.0
  9
$LOFTPARAM
 70
     7
  9
$LOFTNORMALS
280
     1
  9
$LATITUDE
 40
37.795
  9
$LONGITUDE
 40
-122.394
  9
$NORTHDIRECTION
 40
0.0
  9
$TIMEZONE
 70
 -8000
  9
$LIGHTGLYPHDISPLAY
280
     1
  9
$TILEMODELIGHTSYNCH
280
     1
  9
$SOLIDHIST
280
     1
  9
$SHOWHIST
280
     1
  9
$DWFFRAME
280
     2
  9
$DGNFRAME
280
     2
  9
$REALWORLDSCALE
290
     1
  9
$INTERFERECOLOR
 62
   256
  9
$CSHADOW
280
     0
  9
$SHADOWPLANELOCATION
 40
0.0
  0
ENDSEC
  0
SECTION
  2
CLASSES
  0
CLASS
  1
ACDBDICTIONARYWDFLT
  2
AcDbDictionaryWithDefault
  3
ObjectDBX Classes
 90
        0
 91
        4
280
     0
281
     0
  0
CLASS
  1
VISUALSTYLE
  2
AcDbVisualStyle
  3
ObjectDBX Classes
 90
     4095
 91
        4
280
     0
281
     0
  0
CLASS
  1
MATERIAL
  2
AcDbMaterial
  3
ObjectDBX Classes
 90
     1153
 91
        4
280
     0
281
     0
  0
ENDSEC
  0
SECTION
  2
TABLES
  0
TABLE
  2
VPORT
  5
8
330
0
100
AcDbSymbolTable
 70
     1
  0
VPORT
  5
29
330
8
100
AcDbSymbolTableRecord
100
AcDbViewportTableRecord
  2
*Active
 70
     0
 10
0.0
 20
0.0
 11
1.0
 21
1.0
 12
0.0
 22
0.0
 13
0.0
 23
0.0
 14
10.0
 24
10.0
 15
10.0
 25
10.0
 16
0.0
 26
0.0
 36
1.0
 17
0.0
 27
0.0
 37
0.0
 40
6534.000000000001
 41
1.414141414141414
 42
50.0
 43
0.0
 44
0.0
 50
0.0
 51
0.0
 71
     0
 72
 10000
 73
     1
 74
     3
 75
     0
 76
     0
 77
     0
 78
     0
281
     0
 65
     1
110
0.0
120
0.0
130
0.0
111
1.0
121
0.0
131
0.0
112
0.0
122
1.0
132
0.0
 79
     0
146
0.0
 60
     3
 61
     5
292
     1
282
     1
141
0.0
142
0.0
 63
   250
  0
ENDTAB
  0
TABLE
  2
LTYPE
  5
5
330
0
100
AcDbSymbolTable
 70
     4
  0
LTYPE
  5
14
330
5
100
AcDbSymbolTableRecord
100
AcDbLinetypeTableRecord
  2
ByBlock
 70
     0
  3

 72
    65
 73
     0
 40
0.0
  0
LTYPE
  5
15
330
5
100
AcDbSymbolTableRecord
100
AcDbLinetypeTableRecord
  2
ByLayer
 70
     0
  3

 72
    65
 73
     0
 40
0.0
  0
LTYPE
  5
16
330
5
100
AcDbSymbolTableRecord
100
AcDbLinetypeTableRecord
  2
Continuous
 70
     0
  3
Solid line
 72
    65
 73
     0
 40
0.0
  0
LTYPE
  5
3F
330
5
100
AcDbSymbolTableRecord
100
AcDbLinetypeTableRecord
  2
JWW_HOJO
 70
     0
  3
  -   -   -   -   -   -   -   - 
 72
    65
 73
     2
 40
1.693333333333333
 49
-1.27
 74
     0
 49
0.4233333333333333
 74
     0
  0
LTYPE
  5
40
330
5
100
AcDbSymbolTableRecord
100
AcDbLinetypeTableRecord
  2
JWW_CENTER1
 70
     0
  3
-----  --  ----------  --  -----
 72
    65
 73
     4
 40
6.773333333333333
 49
4.233333333333333
 74
     0
 49
-0.8466666666666667
 74
     0
 49
0.8466666666666667
 74
     0
 49
-0.8466666666666667
 74
     0
  0
LTYPE
  5
41
330
5
100
AcDbSymbolTableRecord
100
AcDbLinetypeTableRecord
  2
JWW_DASHED1
 70
     0
  3
-  --  --  --  --  --  --  --  -
 72
    65
 73
     2
 40
1.693333333333333
 49
0.8466666666666667
 74
     0
 49
-0.8466666666666667
 74
     0
  0
ENDTAB
  0
TABLE
  2
LAYER
  5
2
330
0
100
AcDbSymbolTable
 70
    13
  0
LAYER
  5
10
330
2
100
AcDbSymbolTableRecord
100
AcDbLayerTableRecord
  2
0
 70
     0
 62
     7
  6
Continuous
370
    -3
390
F
347
3E
  0
LAYER
  5
42
330
2
100
AcDbSymbolTableRecord
100
AcDbLayerTableRecord
  2
0-B_寸法
 70
     0
 62
     7
  6
Continuous
370
    -3
390
F
347
3E
  0
LAYER
  5
43
330
2
100
AcDbSymbolTableRecord
100
AcDbLayerTableRecord
  2
0-3_仕上げ
 70
     0
 62
     7
  6
Continuous
370
    -3
390
F
347
3E
  0
LAYER
  5
44
330
2
100
AcDbSymbolTableRecord
100
AcDbLayerTableRecord
  2
0-0_補助線
 70
     0
 62
     7
  6
Continuous
370
    -3
390
F
347
3E
  0
LAYER
  5
45
330
2
100
AcDbSymbolTableRecord
100
AcDbLayerTableRecord
  2
0-C_ハッチ
 70
     0
 62
     7
  6
Continuous
370
    -3
390
F
347
3E
  0
LAYER
  5
46
330
2
100
AcDbSymbolTableRecord
100
AcDbLayerTableRecord
  2
0-4_枠
 70
     0
 62
     7
  6
Continuous
370
    -3
390
F
347
3E
  0
LAYER
  5
47
330
2
100
AcDbSymbolTableRecord
100
AcDbLayerTableRecord
  2
0-1_通り芯
 70
     0
 62
     7
  6
Continuous
370
    -3
390
F
347
3E
  0
LAYER
  5
48
330
2
100
AcDbSymbolTableRecord
100
AcDbLayerTableRecord
  2
0-A_文字
 70
     0
 62
     7
  6
Continuous
370
    -3
390
F
347
3E
  0
LAYER
  5
49
330
2
100
AcDbSymbolTableRecord
100
AcDbLayerTableRecord
  2
巾木
 70
     0
 62
     7
  6
Continuous
370
    -3
390
F
347
3E
  0
LAYER
  5
4A
330
2
100
AcDbSymbolTableRecord
100
AcDbLayerTableRecord
  2
F-0_補助線
 70
     0
 62
     7
  6
Continuous
370
    -3
390
F
347
3E
  0
LAYER
  5
4B
330
2
100
AcDbSymbolTableRecord
100
AcDbLayerTableRecord
  2
F-1_枠
 70
     0
 62
     7
  6
Continuous
370
    -3
390
F
347
3E
  0
LAYER
  5
4C
330
2
100
AcDbSymbolTableRecord
100
AcDbLayerTableRecord
  2
F-A_文字
 70
     0
 62
     7
  6
Continuous
370
    -3
390
F
347
3E
  0
LAYER
  5
4D
330
2
100
AcDbSymbolTableRecord
100
AcDbLayerTableRecord
  2
0-6_扉
 70
     0
 62
     7
  6
Continuous
370
    -3
390
F
347
3E
  0
ENDTAB
  0
TABLE
  2
STYLE
  5
3
330
0
100
AcDbSymbolTable
 70
     1
  0
STYLE
  5
11
330
3
100
AcDbSymbolTableRecord
100
AcDbTextStyleTableRecord
  2
Standard
 70
     0
 40
0.0
 41
1.0
 50
0.0
 71
     0
 42
2.5
  3
txt
  4

  0
ENDTAB
  0
TABLE
  2
VIEW
  5
6
330
0
100
AcDbSymbolTable
 70
     0
  0
ENDTAB
  0
TABLE
  2
UCS
  5
7
330
0
100
AcDbSymbolTable
 70
     0
  0
ENDTAB
  0
TABLE
  2
APPID
  5
9
330
0
100
AcDbSymbolTable
 70
     1
  0
APPID
  5
12
330
9
100
AcDbSymbolTableRecord
100
AcDbRegAppTableRecord
  2
ACAD
 70
     0
  0
ENDTAB
  0
TABLE
  2
DIMSTYLE
  5
A
330
0
100
AcDbSymbolTable
 70
     1
100
AcDbDimStyleTable
  0
DIMSTYLE
105
27
330
A
100
AcDbSymbolTableRecord
100
AcDbDimStyleTableRecord
  2
ISO-25
 70
     0
 41
2.5
 42
0.625
 43
3.75
 44
1.25
 73
     0
 74
     0
 77
     1
 78
     8
140
2.5
141
2.5
143
0.03937007874016
147
0.625
171
     3
172
     1
178
     0
271
     2
272
     2
274
     3
278
    44
283
     0
284
     8
340
11
  0
ENDTAB
  0
TABLE
  2
BLOCK_RECORD
  5
1
330
0
100
AcDbSymbolTable
 70
     1
  0
BLOCK_RECORD
  5
1F
330
1
100
AcDbSymbolTableRecord
100
AcDbBlockTableRecord
  2
*Model_Space
340
22
 70
     0
280
     1
281
     0
  0
BLOCK_RECORD
  5
1B
330
1
100
AcDbSymbolTableRecord
100
AcDbBlockTableRecord
  2
*Paper_Space
340
1E
 70
     0
280
     1
281
     0
  0
BLOCK_RECORD
  5
23
330
1
100
AcDbSymbolTableRecord
100
AcDbBlockTableRecord
  2
*Paper_Space0
340
26
 70
     0
280
     1
281
     0
  0
ENDTAB
  0
ENDSEC
  0
SECTION
  2
BLOCKS
  0
BLOCK
  5
20
330
1F
100
AcDbEntity
  8
0
100
AcDbBlockBegin
  2
*Model_Space
 70
     0
 10
0.0
 20
0.0
 30
0.0
  3
*Model_Space
  1

  0
ENDBLK
  5
21
330
1F
100
AcDbEntity
  8
0
100
AcDbBlockEnd
  0
BLOCK
  5
1C
330
1B
100
AcDbEntity
 67
     1
  8
0
100
AcDbBlockBegin
  2
*Paper_Space
 70
     0
 10
0.0
 20
0.0
 30
0.0
  3
*Paper_Space
  1

  0
ENDBLK
  5
1D
330
1B
100
AcDbEntity
 67
     1
  8
0
100
AcDbBlockEnd
  0
BLOCK
  5
24
330
23
100
AcDbEntity
  8
0
100
AcDbBlockBegin
  2
*Paper_Space0
 70
     0
 10
0.0
 20
0.0
 30
0.0
  3
*Paper_Space0
  1

  0
ENDBLK
  5
25
330
23
100
AcDbEntity
  8
0
100
AcDbBlockEnd
  0
ENDSEC
  0
SECTION
  2
ENTITIES
  0
LINE
  5
4E
330
1F
100
AcDbEntity
  8
0-B_寸法
  6
Continuous
 62
   120
370
     5
100
AcDbLine
 10
289.1954419529964
 20
-560.9972005861135
 30
0.0
 11
289.1954419529964
 21
-455.5962490975151
 31
0.0
  0
LINE
  5
4F
330
1F
100
AcDbEntity
  8
0-3_仕上げ
  6
Continuous
 62
    40
370
    15
100
AcDbLine
 10
-66.80414894649743
 20
-195.4147602356068
 30
0.0
 11
-66.80414894649743
 21
204.629712310557
 31
0.0
  0
LINE
  5
50
330
1F
100
AcDbEntity
  8
0-3_仕上げ
  6
Continuous
 62
    40
370
    15
100
AcDbLine
 10
-16.80423142643917
 20
-195.4147602356068
 30
0.0
 11
-16.80423142643917
 21
204.629712310557
 31
0.0
  0
LINE
  5
51
330
1F
100
AcDbEntity
  8
0-3_仕上げ
  6
Continuous
 62
    40
370
    15
100
AcDbLine
 10
-16.80423142643917
 20
-55.41479322758278
 30
0.0
 11
403.1959170374557
 21
-55.41479322758278
 31
0.0
  0
LINE
  5
52
330
1F
100
AcDbEntity
  8
0-3_仕上げ
  6
Continuous
 62
     7
370
     9
100
AcDbLine
 10
403.1959170374557
 20
-55.41479322758278
 30
0.0
 11
-16.80423142643917
 21
-195.4147602356068
 31
0.0
  0
LINE
  5
53
330
1F
100
AcDbEntity
  8
0-3_仕上げ
  6
Continuous
 62
     7
370
     9
100
AcDbLine
 10
289.1954419529964
 20
-215.4148262195594
 30
0.0
 11
423.1959830214078
 21
-215.4148262195594
 31
0.0
  0
LINE
  5
54
330
1F
100
AcDbEntity
  8
0-3_仕上げ
  6
Continuous
 62
     7
370
     9
100
AcDbLine
 10
403.1959170374557
 20
-195.4147602356068
 30
0.0
 11
403.1959170374557
 21
204.629712310557
 31
0.0
  0
LINE
  5
55
330
1F
100
AcDbEntity
  8
0-0_補助線
  6
JWW_HOJO
 62
   120
370
     5
100
AcDbLine
 10
305.1958906438745
 20
-195.4147602356068
 30
0.0
 11
305.1958906438745
 21
204.5852397643932
 31
0.0
  0
LINE
  5
56
330
1F
100
AcDbEntity
  8
0-C_ハッチ
  6
Continuous
 62
   120
370
     5
100
AcDbLine
 10
-98.80430400878708
 20
-221.276428177963
 30
0.0
 11
-72.94263606643085
 21
-195.4147602356068
 31
0.0
  0
LINE
  5
57
330
1F
100
AcDbEntity
  8
0-C_ハッチ
  6
Continuous
 62
   120
370
     5
100
AcDbLine
 10
-98.80430400878708
 20
-249.5605319839171
 30
0.0
 11
-44.65853226047443
 21
-195.4147602356068
 31
0.0
  0
LINE
  5
58
330
1F
100
AcDbEntity
  8
0-C_ハッチ
  6
Continuous
 62
   120
370
     5
100
AcDbLine
 10
-98.80430400878708
 20
-277.8446357898719
 30
0.0
 11
-16.37442845452028
 21
-195.4147602356068
 31
0.0
  0
LINE
  5
59
330
1F
100
AcDbEntity
  8
0-C_ハッチ
  6
Continuous
 62
   120
370
     5
100
AcDbLine
 10
-98.80430400878708
 20
-306.1289870356489
 30
0.0
 11
11.9099227912568
 21
-195.4147602356068
 31
0.0
  0
LINE
  5
5A
330
1F
100
AcDbEntity
  8
0-C_ハッチ
  6
Continuous
 62
   120
370
     5
100
AcDbLine
 10
-79.80562698703693
 20
-315.4146612596776
 30
0.0
 11
40.19427403703389
 21
-195.4147602356068
 31
0.0
  0
LINE
  5
5B
330
1F
100
AcDbEntity
  8
0-C_ハッチ
  6
Continuous
 62
   120
370
     5
100
AcDbLine
 10
-51.52127574125984
 20
-315.4146612596776
 30
0.0
 11
68.47862528281098
 21
-195.4147602356068
 31
0.0
  0
LINE
  5
5C
330
1F
100
AcDbEntity
  8
0-C_ハッチ
  6
Continuous
 62
   120
370
     5
100
AcDbLine
 10
-23.23692449548275
 20
-315.4146612596776
 30
0.0
 11
96.76297652858807
 21
-195.4147602356068
 31
0.0
  0
LINE
  5
5D
330
1F
100
AcDbEntity
  8
0-C_ハッチ
  6
Continuous
 62
   120
370
     5
100
AcDbLine
 10
5.047426750292061
 20
-315.4146612596776
 30
0.0
 11
125.0473277743652
 21
-195.4147602356068
 31
0.0
  0
LINE
  5
5E
330
1F
100
AcDbEntity
  8
0-C_ハッチ
  6
Continuous
 62
   120
370
     5
100
AcDbLine
 10
33.33153055624848
 20
-315.4146612596776
 30
0.0
 11
153.3314315803193
 21
-195.4147602356068
 31
0.0
  0
LINE
  5
5F
330
1F
100
AcDbEntity
  8
0-C_ハッチ
  6
Continuous
 62
   120
370
     5
100
AcDbLine
 10
61.61563436220263
 20
-315.4146612596776
 30
0.0
 11
181.6157828260964
 21
-195.4147602356068
 31
0.0
  0
LINE
  5
60
330
1F
100
AcDbEntity
  8
0-C_ハッチ
  6
Continuous
 62
   120
370
     5
100
AcDbLine
 10
89.89998560797972
 20
-315.4146612596776
 30
0.0
 11
209.9001340718735
 21
-195.4147602356068
 31
0.0
  0
LINE
  5
61
330
1F
100
AcDbEntity
  8
0-C_ハッチ
  6
Continuous
 62
   120
370
     5
100
AcDbLine
 10
118.1843368537568
 20
-315.4146612596776
 30
0.0
 11
238.1842378778265
 21
-195.4147602356068
 31
0.0
  0
LINE
  5
62
330
1F
100
AcDbEntity
  8
0-C_ハッチ
  6
Continuous
 62
   120
370
     5
100
AcDbLine
 10
146.468440659711
 20
-315.4146612596776
 30
0.0
 11
266.4685891236036
 21
-195.4147602356068
 31
0.0
  0
LINE
  5
63
330
1F
100
AcDbEntity
  8
0-C_ハッチ
  6
Continuous
 62
   120
370
     5
100
AcDbLine
 10
174.753039345311
 20
-315.4146612596776
 30
0.0
 11
289.1954419529964
 21
-200.9720112121693
 31
0.0
  0
LINE
  5
64
330
1F
100
AcDbEntity
  8
0-C_ハッチ
  6
Continuous
 62
   120
370
     5
100
AcDbLine
 10
203.0368957114422
 20
-315.4146612596776
 30
0.0
 11
289.1954419529964
 21
-229.2561150181234
 31
0.0
  0
LINE
  5
65
330
1F
100
AcDbEntity
  8
0-C_ハッチ
  6
Continuous
 62
   120
370
     5
100
AcDbLine
 10
231.3212469572193
 20
-315.4146612596776
 30
0.0
 11
289.1954419529964
 21
-257.5404662639005
 31
0.0
  0
LINE
  5
66
330
1F
100
AcDbEntity
  8
0-C_ハッチ
  6
Continuous
 62
   120
370
     5
100
AcDbLine
 10
287.8899494487735
 20
-315.4146612596776
 30
0.0
 11
289.1954419529964
 21
-314.1091687554547
 31
0.0
  0
LWPOLYLINE
  5
67
330
1F
100
AcDbEntity
  8
0-B_寸法
  6
Continuous
 62
     7
370
     9
100
AcDbPolyline
 90
        4
 70
     1
 43
2.0
 10
290.1954419529964
 20
-560.9972005861135
 42
0.4142135623731
 10
289.1954419529964
 20
-559.9972005861135
 42
0.4142135623731
 10
288.1954419529964
 20
-560.9972005861135
 42
0.4142135623731
 10
289.1954419529964
 20
-561.9972005861135
 42
0.4142135623731
  0
LINE
  5
68
330
1F
100
AcDbEntity
  8
0-B_寸法
  6
Continuous
 62
   120
370
     5
100
AcDbLine
 10
-578.8043040087871
 20
-327.4147503380135
 30
0.0
 11
-338.8043040087871
 21
-327.4147503380135
 31
0.0
  0
LINE
  5
69
330
1F
100
AcDbEntity
  8
0-B_寸法
  6
Continuous
 62
   120
370
     5
100
AcDbLine
 10
-698.8043040087871
 20
-315.4146612596776
 30
0.0
 11
-338.8043040087871
 21
-315.4146612596776
 31
0.0
  0
LWPOLYLINE
  5
6A
330
1F
100
AcDbEntity
  8
0-B_寸法
  6
Continuous
 62
     7
370
     9
100
AcDbPolyline
 90
        4
 70
     1
 43
2.0
 10
-577.8043040087871
 20
-327.4147503380135
 42
0.4142135623731
 10
-578.8043040087871
 20
-326.4147503380135
 42
0.4142135623731
 10
-579.8043040087871
 20
-327.4147503380135
 42
0.4142135623731
 10
-578.8043040087871
 20
-328.4147503380135
 42
0.4142135623731
  0
LWPOLYLINE
  5
6B
330
1F
100
AcDbEntity
  8
0-B_寸法
  6
Continuous
 62
     7
370
     9
100
AcDbPolyline
 90
        4
 70
     1
 43
2.0
 10
-577.8043040087871
 20
-315.4146612596776
 42
0.4142135623731
 10
-578.8043040087871
 20
-314.4146612596776
 42
0.4142135623731
 10
-579.8043040087871
 20
-315.4146612596776
 42
0.4142135623731
 10
-578.8043040087871
 20
-316.4146612596776
 42
0.4142135623731
  0
LINE
  5
6C
330
1F
100
AcDbEntity
  8
0-0_補助線
  6
JWW_HOJO
 62
   120
370
     5
100
AcDbLine
 10
305.1958906438745
 20
204.5852397643932
 30
0.0
 11
-578.8043040087871
 21
204.5852397643932
 31
0.0
  0
LWPOLYLINE
  5
6D
330
1F
100
AcDbEntity
  8
0-B_寸法
  6
Continuous
 62
     7
370
     9
100
AcDbPolyline
 90
        4
 70
     1
 43
2.0
 10
-697.8043040087871
 20
-315.4146612596776
 42
0.4142135623731
 10
-698.8043040087871
 20
-314.4146612596776
 42
0.4142135623731
 10
-699.8043040087871
 20
-315.4146612596776
 42
0.4142135623731
 10
-698.8043040087871
 20
-316.4146612596776
 42
0.4142135623731
  0
LWPOLYLINE
  5
6E
330
1F
100
AcDbEntity
  8
0-B_寸法
  6
Continuous
 62
     7
370
     9
100
AcDbPolyline
 90
        4
 70
     1
 43
2.0
 10
-697.8043040087871
 20
-195.4147602356068
 42
0.4142135623731
 10
-698.8043040087871
 20
-194.4147602356068
 42
0.4142135623731
 10
-699.8043040087871
 20
-195.4147602356068
 42
0.4142135623731
 10
-698.8043040087871
 20
-196.4147602356068
 42
0.4142135623731
  0
LINE
  5
6F
330
1F
100
AcDbEntity
  8
0-B_寸法
  6
Continuous
 62
   120
370
     5
100
AcDbLine
 10
-818.8043040087871
 20
-195.4147602356068
 30
0.0
 11
-338.8043040087871
 21
-195.4147602356068
 31
0.0
  0
LWPOLYLINE
  5
70
330
1F
100
AcDbEntity
  8
0-B_寸法
  6
Continuous
 62
     7
370
     9
100
AcDbPolyline
 90
        4
 70
     1
 43
2.0
 10
-817.8043040087871
 20
-195.4147602356068
 42
0.4142135623731
 10
-818.8043040087871
 20
-194.4147602356068
 42
0.4142135623731
 10
-819.8043040087871
 20
-195.4147602356068
 42
0.4142135623731
 10
-818.8043040087871
 20
-196.4147602356068
 42
0.4142135623731
  0
LINE
  5
71
330
1F
100
AcDbEntity
  8
0-3_仕上げ
  6
Continuous
 62
     7
370
     9
100
AcDbLine
 10
289.1954419529964
 20
-195.4147602356068
 30
0.0
 11
423.1959830214078
 21
-195.4147602356068
 31
0.0
  0
LINE
  5
72
330
1F
100
AcDbEntity
  8
0-3_仕上げ
  6
Continuous
 62
     7
370
     9
100
AcDbLine
 10
423.1959830214078
 20
-215.4148262195594
 30
0.0
 11
423.1959830214078
 21
204.629712310557
 31
0.0
  0
LINE
  5
73
330
1F
100
AcDbEntity
  8
0-0_補助線
  6
JWW_HOJO
 62
   120
370
     5
100
AcDbLine
 10
403.1959170374557
 20
-155.4148757075239
 30
0.0
 11
403.1959170374557
 21
36.89733396308441
 31
0.0
  0
LINE
  5
74
330
1F
100
AcDbEntity
  8
0-0_補助線
  6
JWW_HOJO
 62
   120
370
     5
100
AcDbLine
 10
403.1959170374557
 20
-155.4148757075239
 30
0.0
 11
-338.8043040087871
 21
-155.4148757075239
 31
0.0
  0
LINE
  5
75
330
1F
100
AcDbEntity
  8
0-0_補助線
  6
JWW_HOJO
 62
   120
370
     5
100
AcDbLine
 10
403.1959170374557
 20
-195.4147602356068
 30
0.0
 11
-338.8043040087871
 21
-195.4147602356068
 31
0.0
  0
CIRCLE
  5
76
330
1F
100
AcDbEntity
  8
0-C_ハッチ
  6
Continuous
 62
   120
370
     5
100
AcDbCircle
 10
-61.28376650350788
 20
-0.1486139623801819
 30
0.0
 40
0.3999999749499399
  0
CIRCLE
  5
77
330
1F
100
AcDbEntity
  8
0-C_ハッチ
  6
Continuous
 62
   120
370
     5
100
AcDbCircle
 10
-24.53103476786623
 20
3.871788275795325
 30
0.0
 40
0.3999999749499399
  0
CIRCLE
  5
78
330
1F
100
AcDbEntity
  8
0-C_ハッチ
  6
Continuous
 62
   120
370
     5
100
AcDbCircle
 10
-48.65047891904737
 20
7.891200754680767
 30
0.0
 40
0.3999999749499399
  0
CIRCLE
  5
79
330
1F
100
AcDbEntity
  8
0-C_ハッチ
  6
Continuous
 62
   120
370
     5
100
AcDbCircle
 10
-27.97638685823699
 20
23.9708301888021
 30
0.0
 40
0.3999999749499399
  0
CIRCLE
  5
7A
330
1F
100
AcDbEntity
  8
0-C_ハッチ
  6
Continuous
 62
   120
370
     5
100
AcDbCircle
 10
-49.79859969607446
 20
25.69400111363336
 30
0.0
 40
0.3999999749499399
  0
CIRCLE
  5
7B
330
1F
100
AcDbEntity
  8
0-C_ハッチ
  6
Continuous
 62
   120
370
     5
100
AcDbCircle
 10
-58.9875249494537
 20
25.11994072511982
 30
0.0
 40
0.3999999749499399
  0
CIRCLE
  5
7C
330
1F
100
AcDbEntity
  8
0-C_ハッチ
  6
Continuous
 62
   120
370
     5
100
AcDbCircle
 10
-58.9875249494537
 20
14.78289469471463
 30
0.0
 40
0.3999999749499399
  0
CIRCLE
  5
7D
330
1F
100
AcDbEntity
  8
0-C_ハッチ
  6
Continuous
 62
   120
370
     5
100
AcDbCircle
 10
-49.79859969607446
 20
-4.168026441265056
 30
0.0
 40
0.3999999749499399
  0
CIRCLE
  5
7E
330
1F
100
AcDbEntity
  8
0-C_ハッチ
  6
Continuous
 62
   120
370
     5
100
AcDbCircle
 10
-44.05601629235775
 20
3.296738127991716
 30
0.0
 40
0.3999999749499399
  0
CIRCLE
  5
7F
330
1F
100
AcDbEntity
  8
0-C_ハッチ
  6
Continuous
 62
   120
370
     5
100
AcDbCircle
 10
-32.57084948492661
 20
10.76249245653855
 30
0.0
 40
0.3999999749499399
  0
CIRCLE
  5
80
330
1F
100
AcDbEntity
  8
0-C_ハッチ
  6
Continuous
 62
   120
370
     5
100
AcDbCircle
 10
-26.25321593340573
 20
-4.168026441265056
 30
0.0
 40
0.3999999749499399
  0
CIRCLE
  5
81
330
1F
100
AcDbEntity
  8
0-C_ハッチ
  6
Continuous
 62
   120
370
     5
100
AcDbCircle
 10
-48.07641853053497
 20
-2.082603616096321
 30
0.0
 40
0.3999999749499399
  0
CIRCLE
  5
82
330
1F
100
AcDbEntity
  8
0-C_ハッチ
  6
Continuous
 62
   120
370
     5
100
AcDbCircle
 10
-58.41247480164952
 20
-13.5677704235286
 30
0.0
 40
0.3999999749499399
  0
CIRCLE
  5
83
330
1F
100
AcDbEntity
  8
0-C_ハッチ
  6
Continuous
 62
   120
370
     5
100
AcDbCircle
 10
-50.37266008458914
 20
-16.43906212538695
 30
0.0
 40
0.3999999749499399
  0
CIRCLE
  5
84
330
1F
100
AcDbEntity
  8
0-C_ハッチ
  6
Continuous
 62
   120
370
     5
100
AcDbCircle
 10
-20.5779361614475
 20
-7.311501948021828
 30
0.0
 40
0.3999999749499399
  0
CIRCLE
  5
85
330
1F
100
AcDbEntity
  8
0-C_ハッチ
  6
Continuous
 62
   120
370
     5
100
AcDbCircle
 10
-39.65653624590573
 20
-10.94589806288695
 30
0.0
 40
0.3999999749499399
  0
CIRCLE
  5
86
330
1F
100
AcDbEntity
  8
0-C_ハッチ
  6
Continuous
 62
   120
370
     5
100
AcDbCircle
 10
-26.75601365300167
 20
-15.12466178754892
 30
0.0
 40
0.3999999749499399
  0
CIRCLE
  5
87
330
1F
100
AcDbEntity
  8
0-C_ハッチ
  6
Continuous
 62
   120
370
     5
100
AcDbCircle
 10
-38.56681126702028
 20
-0.043699477582777
 30
0.0
 40
0.3999999749499399
  0
CIRCLE
  5
88
330
1F
100
AcDbEntity
  8
0-C_ハッチ
  6
Continuous
 62
   120
370
     5
100
AcDbCircle
 10
-56.19145495367661
 20
12.67569716515368
 30
0.0
 40
0.3999999749499399
  0
CIRCLE
  5
89
330
1F
100
AcDbEntity
  8
0-C_ハッチ
  6
Continuous
 62
   120
370
     5
100
AcDbCircle
 10
-46.92433871634535
 20
8.67805939066045
 30
0.0
 40
0.3999999749499399
  0
CIRCLE
  5
8A
330
1F
100
AcDbEntity
  8
0-C_ハッチ
  6
Continuous
 62
   120
370
     5
100
AcDbCircle
 10
-35.29565681178497
 20
13.22105453424172
 30
0.0
 40
0.3999999749499399
  0
CIRCLE
  5
8B
330
1F
100
AcDbEntity
  8
0-C_ハッチ
  6
Continuous
 62
   120
370
     5
100
AcDbCircle
 10
-22.21301850942041
 20
5.77113635434273
 30
0.0
 40
0.3999999749499399
  0
CIRCLE
  5
8C
330
1F
100
AcDbEntity
  8
0-C_ハッチ
  6
Continuous
 62
   120
370
     5
100
AcDbCircle
 10
-50.5280522932037
 20
36.91985098694431
 30
0.0
 40
0.3999999749499399
  0
CIRCLE
  5
8D
330
1F
100
AcDbEntity
  8
0-C_ハッチ
  6
Continuous
 62
   120
370
     5
100
AcDbCircle
 10
-40.19100626279737
 20
40.36520307731564
 30
0.0
 40
0.3999999749499399
  0
CIRCLE
  5
8E
330
1F
100
AcDbEntity
  8
0-C_ハッチ
  6
Continuous
 62
   120
370
     5
100
AcDbCircle
 10
-31.0030707687099
 20
38.64302191177501
 30
0.0
 40
0.3999999749499399
  0
CIRCLE
  5
8F
330
1F
100
AcDbEntity
  8
0-C_ハッチ
  6
Continuous
 62
   120
370
     5
100
AcDbCircle
 10
-26.98365828982446
 20
53.57354080957919
 30
0.0
 40
0.3999999749499399
  0
CIRCLE
  5
90
330
1F
100
AcDbEntity
  8
0-C_ハッチ
  6
Continuous
 62
   120
370
     5
100
AcDbCircle
 10
-18.94384357276408
 20
40.36520307731564
 30
0.0
 40
0.3999999749499399
  0
CIRCLE
  5
91
330
1F
100
AcDbEntity
  8
0-C_ハッチ
  6
Continuous
 62
   120
370
     5
100
AcDbCircle
 10
-44.78546888948699
 20
77.69298496076146
 30
0.0
 40
0.3999999749499399
  0
CIRCLE
  5
92
330
1F
100
AcDbEntity
  8
0-C_ハッチ
  6
Continuous
 62
   120
370
     5
100
AcDbCircle
 10
-49.95399190468902
 20
59.31612421329532
 30
0.0
 40
0.3999999749499399
  0
CIRCLE
  5
93
330
1F
100
AcDbEntity
  8
0-C_ハッチ
  6
Continuous
 62
   120
370
     5
100
AcDbCircle
 10
-43.0632877239475
 20
48.97907818289013
 30
0.0
 40
0.3999999749499399
  0
CIRCLE
  5
94
330
1F
100
AcDbEntity
  8
0-C_ハッチ
  6
Continuous
 62
   120
370
     5
100
AcDbCircle
 10
-41.34011679911623
 20
68.505049466674
 30
0.0
 40
0.3999999749499399
  0
CIRCLE
  5
95
330
1F
100
AcDbEntity
  8
0-C_ハッチ
  6
Continuous
 62
   120
370
     5
100
AcDbCircle
 10
-23.53731644016193
 20
78.84209549707919
 30
0.0
 40
0.3999999749499399
  0
CIRCLE
  5
96
330
1F
100
AcDbEntity
  8
0-C_ハッチ
  6
Continuous
 62
   120
370
     5
100
AcDbCircle
 10
-18.94384357276408
 20
59.31612421329532
 30
0.0
 40
0.3999999749499399
  0
CIRCLE
  5
97
330
1F
100
AcDbEntity
  8
0-C_ハッチ
  6
Continuous
 62
   120
370
     5
100
AcDbCircle
 10
-21.24008512681826
 20
94.3466747833969
 30
0.0
 40
0.3999999749499399
  0
CIRCLE
  5
98
330
1F
100
AcDbEntity
  8
0-C_ハッチ
  6
Continuous
 62
   120
370
     5
100
AcDbCircle
 10
-33.30030208205585
 20
86.30686006633596
 30
0.0
 40
0.3999999749499399
  0
CIRCLE
  5
99
330
1F
100
AcDbEntity
  8
0-C_ハッチ
  6
Continuous
 62
   120
370
     5
100
AcDbCircle
 10
-49.37993151617661
 20
82.86150797596463
 30
0.0
 40
0.3999999749499399
  0
CIRCLE
  5
9A
330
1F
100
AcDbEntity
  8
0-C_ハッチ
  6
Continuous
 62
   120
370
     5
100
AcDbCircle
 10
-30.07863559134535
 20
72.38985468204532
 30
0.0
 40
0.3999999749499399
  0
CIRCLE
  5
9B
330
1F
100
AcDbEntity
  8
0-C_ハッチ
  6
Continuous
 62
   120
370
     5
100
AcDbCircle
 10
-36.61995474252876
 20
97.82864796751824
 30
0.0
 40
0.3999999749499399
  0
CIRCLE
  5
9C
330
1F
100
AcDbEntity
  8
0-C_ハッチ
  6
Continuous
 62
   120
370
     5
100
AcDbCircle
 10
-61.28376650350788
 20
-111.4069609323968
 30
0.0
 40
0.3999999749499399
  0
CIRCLE
  5
9D
330
1F
100
AcDbEntity
  8
0-C_ハッチ
  6
Continuous
 62
   120
370
     5
100
AcDbCircle
 10
-24.53103476786623
 20
-107.3865586942213
 30
0.0
 40
0.3999999749499399
  0
CIRCLE
  5
9E
330
1F
100
AcDbEntity
  8
0-C_ハッチ
  6
Continuous
 62
   120
370
     5
100
AcDbCircle
 10
-48.65047891904737
 20
-103.3671462153364
 30
0.0
 40
0.3999999749499399
  0
CIRCLE
  5
9F
330
1F
100
AcDbEntity
  8
0-C_ハッチ
  6
Continuous
 62
   120
370
     5
100
AcDbCircle
 10
-27.97638685823699
 20
-87.28751678121455
 30
0.0
 40
0.3999999749499399
  0
CIRCLE
  5
A0
330
1F
100
AcDbEntity
  8
0-C_ハッチ
  6
Continuous
 62
   120
370
     5
100
AcDbCircle
 10
-49.79859969607446
 20
-85.56434585638328
 30
0.0
 40
0.3999999749499399
  0
CIRCLE
  5
A1
330
1F
100
AcDbEntity
  8
0-C_ハッチ
  6
Continuous
 62
   120
370
     5
100
AcDbCircle
 10
-58.9875249494537
 20
-86.13840624489683
 30
0.0
 40
0.3999999749499399
  0
CIRCLE
  5
A2
330
1F
100
AcDbEntity
  8
0-C_ハッチ
  6
Continuous
 62
   120
370
     5
100
AcDbCircle
 10
-58.9875249494537
 20
-96.47545227530259
 30
0.0
 40
0.3999999749499399
  0
CIRCLE
  5
A3
330
1F
100
AcDbEntity
  8
0-C_ハッチ
  6
Continuous
 62
   120
370
     5
100
AcDbCircle
 10
-49.79859969607446
 20
-115.4263734112823
 30
0.0
 40
0.3999999749499399
  0
CIRCLE
  5
A4
330
1F
100
AcDbEntity
  8
0-C_ハッチ
  6
Continuous
 62
   120
370
     5
100
AcDbCircle
 10
-44.05601629235775
 20
-107.9616088420255
 30
0.0
 40
0.3999999749499399
  0
CIRCLE
  5
A5
330
1F
100
AcDbEntity
  8
0-C_ハッチ
  6
Continuous
 62
   120
370
     5
100
AcDbCircle
 10
-32.57084948492661
 20
-100.4958545134781
 30
0.0
 40
0.3999999749499399
  0
CIRCLE
  5
A6
330
1F
100
AcDbEntity
  8
0-C_ハッチ
  6
Continuous
 62
   120
370
     5
100
AcDbCircle
 10
-26.25321593340573
 20
-115.4263734112823
 30
0.0
 40
0.3999999749499399
  0
CIRCLE
  5
A7
330
1F
100
AcDbEntity
  8
0-C_ハッチ
  6
Continuous
 62
   120
370
     5
100
AcDbCircle
 10
-61.28376650350788
 20
-193.8618279087484
 30
0.0
 40
0.3999999749499399
  0
CIRCLE
  5
A8
330
1F
100
AcDbEntity
  8
0-C_ハッチ
  6
Continuous
 62
   120
370
     5
100
AcDbCircle
 10
-59.56158533796611
 20
-192.0159268318901
 30
0.0
 40
0.3999999749499399
  0
CIRCLE
  5
A9
330
1F
100
AcDbEntity
  8
0-C_ハッチ
  6
Continuous
 62
   120
370
     5
100
AcDbCircle
 10
-49.22453930756205
 20
-188.5705747415187
 30
0.0
 40
0.3999999749499399
  0
CIRCLE
  5
AA
330
1F
100
AcDbEntity
  8
0-C_ハッチ
  6
Continuous
 62
   120
370
     5
100
AcDbCircle
 10
-40.03660381347458
 20
-190.29374566635
 30
0.0
 40
0.3999999749499399
  0
CIRCLE
  5
AB
330
1F
100
AcDbEntity
  8
0-C_ハッチ
  6
Continuous
 62
   120
370
     5
100
AcDbCircle
 10
-36.01620157529737
 20
-175.3622370092552
 30
0.0
 40
0.3999999749499399
  0
CIRCLE
  5
AC
330
1F
100
AcDbEntity
  8
0-C_ハッチ
  6
Continuous
 62
   120
370
     5
100
AcDbCircle
 10
-21.65974306600788
 20
-190.29374566635
 30
0.0
 40
0.3999999749499399
  0
CIRCLE
  5
AD
330
1F
100
AcDbEntity
  8
0-C_ハッチ
  6
Continuous
 62
   120
370
     5
100
AcDbCircle
 10
-21.0846929182037
 20
-162.1538992769916
 30
0.0
 40
0.3999999749499399
  0
CIRCLE
  5
AE
330
1F
100
AcDbEntity
  8
0-C_ハッチ
  6
Continuous
 62
   120
370
     5
100
AcDbCircle
 10
-27.97638685823699
 20
-188.5705747415187
 30
0.0
 40
0.3999999749499399
  0
CIRCLE
  5
AF
330
1F
100
AcDbEntity
  8
0-C_ハッチ
  6
Continuous
 62
   120
370
     5
100
AcDbCircle
 10
-53.81900193425167
 20
-151.2427928580729
 30
0.0
 40
0.3999999749499399
  0
CIRCLE
  5
B0
330
1F
100
AcDbEntity
  8
0-C_ハッチ
  6
Continuous
 62
   120
370
     5
100
AcDbCircle
 10
-48.07641853053497
 20
-113.3409505861135
 30
0.0
 40
0.3999999749499399
  0
CIRCLE
  5
B1
330
1F
100
AcDbEntity
  8
0-C_ハッチ
  6
Continuous
 62
   120
370
     5
100
AcDbCircle
 10
-58.41247480164952
 20
-124.8261173935458
 30
0.0
 40
0.3999999749499399
  0
CIRCLE
  5
B2
330
1F
100
AcDbEntity
  8
0-C_ハッチ
  6
Continuous
 62
   120
370
     5
100
AcDbCircle
 10
-50.37266008458914
 20
-127.6974090954036
 30
0.0
 40
0.3999999749499399
  0
CIRCLE
  5
B3
330
1F
100
AcDbEntity
  8
0-C_ハッチ
  6
Continuous
 62
   120
370
     5
100
AcDbCircle
 10
-58.9875249494537
 20
-169.619653605539
 30
0.0
 40
0.3999999749499399
  0
CIRCLE
  5
B4
330
1F
100
AcDbEntity
  8
0-C_ハッチ
  6
Continuous
 62
   120
370
     5
100
AcDbCircle
 10
-52.09583100942041
 20
-179.9566996359442
 30
0.0
 40
0.3999999749499399
  0
CIRCLE
  5
B5
330
1F
100
AcDbEntity
  8
0-C_ハッチ
  6
Continuous
 62
   120
370
     5
100
AcDbCircle
 10
-50.37266008458914
 20
-160.431718111451
 30
0.0
 40
0.3999999749499399
  0
CIRCLE
  5
B6
330
1F
100
AcDbEntity
  8
0-C_ハッチ
  6
Continuous
 62
   120
370
     5
100
AcDbCircle
 10
-32.57084948492661
 20
-150.0946720810458
 30
0.0
 40
0.3999999749499399
  0
CIRCLE
  5
B7
330
1F
100
AcDbEntity
  8
0-C_ハッチ
  6
Continuous
 62
   120
370
     5
100
AcDbCircle
 10
-27.97638685823699
 20
-169.619653605539
 30
0.0
 40
0.3999999749499399
  0
CIRCLE
  5
B8
330
1F
100
AcDbEntity
  8
0-C_ハッチ
  6
Continuous
 62
   120
370
     5
100
AcDbCircle
 10
-20.51063252968902
 20
-136.3122739602687
 30
0.0
 40
0.3999999749499399
  0
CIRCLE
  5
B9
330
1F
100
AcDbEntity
  8
0-C_ハッチ
  6
Continuous
 62
   120
370
     5
100
AcDbCircle
 10
-30.27361817158294
 20
-134.5891030354375
 30
0.0
 40
0.3999999749499399
  0
CIRCLE
  5
BA
330
1F
100
AcDbEntity
  8
0-C_ハッチ
  6
Continuous
 62
   120
370
     5
100
AcDbCircle
 10
-24.53103476786623
 20
-143.202978141012
 30
0.0
 40
0.3999999749499399
  0
CIRCLE
  5
BB
330
1F
100
AcDbEntity
  8
0-C_ハッチ
  6
Continuous
 62
   120
370
     5
100
AcDbCircle
 10
-42.33284536752876
 20
-142.6289177524984
 30
0.0
 40
0.3999999749499399
  0
CIRCLE
  5
BC
330
1F
100
AcDbEntity
  8
0-C_ハッチ
  6
Continuous
 62
   120
370
     5
100
AcDbCircle
 10
-58.41247480164952
 20
-146.0742698428703
 30
0.0
 40
0.3999999749499399
  0
CIRCLE
  5
BD
330
1F
100
AcDbEntity
  8
0-C_ハッチ
  6
Continuous
 62
   120
370
     5
100
AcDbCircle
 10
-39.11117887681826
 20
-156.545923136789
 30
0.0
 40
0.3999999749499399
  0
CIRCLE
  5
BE
330
1F
100
AcDbEntity
  8
0-C_ハッチ
  6
Continuous
 62
   120
370
     5
100
AcDbCircle
 10
-20.5779361614475
 20
-118.569848918039
 30
0.0
 40
0.3999999749499399
  0
CIRCLE
  5
BF
330
1F
100
AcDbEntity
  8
0-C_ハッチ
  6
Continuous
 62
   120
370
     5
100
AcDbCircle
 10
-39.65653624590573
 20
-122.2042450329036
 30
0.0
 40
0.3999999749499399
  0
CIRCLE
  5
C0
330
1F
100
AcDbEntity
  8
0-C_ハッチ
  6
Continuous
 62
   120
370
     5
100
AcDbCircle
 10
-45.65249802800167
 20
-131.1081196106068
 30
0.0
 40
0.3999999749499399
  0
CIRCLE
  5
C1
330
1F
100
AcDbEntity
  8
0-C_ハッチ
  6
Continuous
 62
   120
370
     5
100
AcDbCircle
 10
-26.75601365300167
 20
-126.3830087575661
 30
0.0
 40
0.3999999749499399
  0
CIRCLE
  5
C2
330
1F
100
AcDbEntity
  8
0-C_ハッチ
  6
Continuous
 62
   120
370
     5
100
AcDbCircle
 10
-38.56681126702028
 20
-111.3020464476
 30
0.0
 40
0.3999999749499399
  0
CIRCLE
  5
C3
330
1F
100
AcDbEntity
  8
0-C_ハッチ
  6
Continuous
 62
   120
370
     5
100
AcDbCircle
 10
-56.19145495367661
 20
-98.58264980486354
 30
0.0
 40
0.3999999749499399
  0
CIRCLE
  5
C4
330
1F
100
AcDbEntity
  8
0-C_ハッチ
  6
Continuous
 62
   120
370
     5
100
AcDbCircle
 10
-46.92433871634535
 20
-102.5802875793568
 30
0.0
 40
0.3999999749499399
  0
CIRCLE
  5
C5
330
1F
100
AcDbEntity
  8
0-C_ハッチ
  6
Continuous
 62
   120
370
     5
100
AcDbCircle
 10
-35.29565681178497
 20
-98.0372924357755
 30
0.0
 40
0.3999999749499399
  0
CIRCLE
  5
C6
330
1F
100
AcDbEntity
  8
0-C_ハッチ
  6
Continuous
 62
   120
370
     5
100
AcDbCircle
 10
-22.21301850942041
 20
-105.4872106156739
 30
0.0
 40
0.3999999749499399
  0
CIRCLE
  5
C7
330
1F
100
AcDbEntity
  8
0-C_ハッチ
  6
Continuous
 62
   120
370
     5
100
AcDbCircle
 10
-50.5280522932037
 20
-74.3384959830729
 30
0.0
 40
0.3999999749499399
  0
CIRCLE
  5
C8
330
1F
100
AcDbEntity
  8
0-C_ハッチ
  6
Continuous
 62
   120
370
     5
100
AcDbCircle
 10
-40.19100626279737
 20
-70.893143892701
 30
0.0
 40
0.3999999749499399
  0
CIRCLE
  5
C9
330
1F
100
AcDbEntity
  8
0-C_ハッチ
  6
Continuous
 62
   120
370
     5
100
AcDbCircle
 10
-31.0030707687099
 20
-72.61532505824164
 30
0.0
 40
0.3999999749499399
  0
CIRCLE
  5
CA
330
1F
100
AcDbEntity
  8
0-C_ハッチ
  6
Continuous
 62
   120
370
     5
100
AcDbCircle
 10
-26.98365828982446
 20
-57.68480616043746
 30
0.0
 40
0.3999999749499399
  0
CIRCLE
  5
CB
330
1F
100
AcDbEntity
  8
0-C_ハッチ
  6
Continuous
 62
   120
370
     5
100
AcDbCircle
 10
-18.94384357276408
 20
-70.893143892701
 30
0.0
 40
0.3999999749499399
  0
CIRCLE
  5
CC
330
1F
100
AcDbEntity
  8
0-C_ハッチ
  6
Continuous
 62
   120
370
     5
100
AcDbCircle
 10
-44.78546888948699
 20
-33.56536200925518
 30
0.0
 40
0.3999999749499399
  0
CIRCLE
  5
CD
330
1F
100
AcDbEntity
  8
0-C_ハッチ
  6
Continuous
 62
   120
370
     5
100
AcDbCircle
 10
-49.95399190468902
 20
-51.94222275672132
 30
0.0
 40
0.3999999749499399
  0
CIRCLE
  5
CE
330
1F
100
AcDbEntity
  8
0-C_ハッチ
  6
Continuous
 62
   120
370
     5
100
AcDbCircle
 10
-43.0632877239475
 20
-62.27926878712651
 30
0.0
 40
0.3999999749499399
  0
CIRCLE
  5
CF
330
1F
100
AcDbEntity
  8
0-C_ハッチ
  6
Continuous
 62
   120
370
     5
100
AcDbCircle
 10
-41.34011679911623
 20
-42.75329750334322
 30
0.0
 40
0.3999999749499399
  0
CIRCLE
  5
D0
330
1F
100
AcDbEntity
  8
0-C_ハッチ
  6
Continuous
 62
   120
370
     5
100
AcDbCircle
 10
-23.53731644016193
 20
-32.41625147293746
 30
0.0
 40
0.3999999749499399
  0
CIRCLE
  5
D1
330
1F
100
AcDbEntity
  8
0-C_ハッチ
  6
Continuous
 62
   120
370
     5
100
AcDbCircle
 10
-18.94384357276408
 20
-51.94222275672132
 30
0.0
 40
0.3999999749499399
  0
CIRCLE
  5
D2
330
1F
100
AcDbEntity
  8
0-C_ハッチ
  6
Continuous
 62
   120
370
     5
100
AcDbCircle
 10
-21.24008512681826
 20
-16.91167218662031
 30
0.0
 40
0.3999999749499399
  0
CIRCLE
  5
D3
330
1F
100
AcDbEntity
  8
0-C_ハッチ
  6
Continuous
 62
   120
370
     5
100
AcDbCircle
 10
-33.30030208205585
 20
-24.95148690368069
 30
0.0
 40
0.3999999749499399
  0
CIRCLE
  5
D4
330
1F
100
AcDbEntity
  8
0-C_ハッチ
  6
Continuous
 62
   120
370
     5
100
AcDbCircle
 10
-49.37993151617661
 20
-28.39683899405259
 30
0.0
 40
0.3999999749499399
  0
CIRCLE
  5
D5
330
1F
100
AcDbEntity
  8
0-C_ハッチ
  6
Continuous
 62
   120
370
     5
100
AcDbCircle
 10
-30.07863559134535
 20
-38.86849228797132
 30
0.0
 40
0.3999999749499399
  0
CIRCLE
  5
D6
330
1F
100
AcDbEntity
  8
0-C_ハッチ
  6
Continuous
 62
   120
370
     5
100
AcDbCircle
 10
-36.61995474252876
 20
-13.42969900249841
 30
0.0
 40
0.3999999749499399
  0
CIRCLE
  5
D7
330
1F
100
AcDbEntity
  8
0-C_ハッチ
  6
Continuous
 62
   120
370
     5
100
AcDbCircle
 10
-61.28401394333082
 20
197.9311705340302
 30
0.0
 40
0.3999999749499399
  0
CIRCLE
  5
D8
330
1F
100
AcDbEntity
  8
0-C_ハッチ
  6
Continuous
 62
   120
370
     5
100
AcDbCircle
 10
-24.53128220768917
 20
193.9107682958547
 30
0.0
 40
0.3999999749499399
  0
CIRCLE
  5
D9
330
1F
100
AcDbEntity
  8
0-C_ハッチ
  6
Continuous
 62
   120
370
     5
100
AcDbCircle
 10
-48.65072635887032
 20
189.8913558169693
 30
0.0
 40
0.3999999749499399
  0
CIRCLE
  5
DA
330
1F
100
AcDbEntity
  8
0-C_ハッチ
  6
Continuous
 62
   120
370
     5
100
AcDbCircle
 10
-27.97663429805993
 20
173.811726382848
 30
0.0
 40
0.3999999749499399
  0
CIRCLE
  5
DB
330
1F
100
AcDbEntity
  8
0-C_ハッチ
  6
Continuous
 62
   120
370
     5
100
AcDbCircle
 10
-49.7988471358974
 20
172.0885554580167
 30
0.0
 40
0.3999999749499399
  0
CIRCLE
  5
DC
330
1F
100
AcDbEntity
  8
0-C_ハッチ
  6
Continuous
 62
   120
370
     5
100
AcDbCircle
 10
-58.98777238927664
 20
172.6626158465302
 30
0.0
 40
0.3999999749499399
  0
CIRCLE
  5
DD
330
1F
100
AcDbEntity
  8
0-C_ハッチ
  6
Continuous
 62
   120
370
     5
100
AcDbCircle
 10
-58.98777238927664
 20
182.999661876936
 30
0.0
 40
0.3999999749499399
  0
CIRCLE
  5
DE
330
1F
100
AcDbEntity
  8
0-C_ハッチ
  6
Continuous
 62
   120
370
     5
100
AcDbCircle
 10
-49.7988471358974
 20
201.9505830129157
 30
0.0
 40
0.3999999749499399
  0
CIRCLE
  5
DF
330
1F
100
AcDbEntity
  8
0-C_ハッチ
  6
Continuous
 62
   120
370
     5
100
AcDbCircle
 10
-44.0562637321807
 20
194.4853235640136
 30
0.0
 40
0.3999999749499399
  0
CIRCLE
  5
E0
330
1F
100
AcDbEntity
  8
0-C_ハッチ
  6
Continuous
 62
   120
370
     5
100
AcDbCircle
 10
-32.57109692474955
 20
187.0200641151115
 30
0.0
 40
0.3999999749499399
  0
CIRCLE
  5
E1
330
1F
100
AcDbEntity
  8
0-C_ハッチ
  6
Continuous
 62
   120
370
     5
100
AcDbCircle
 10
-26.25346337322867
 20
201.9505830129157
 30
0.0
 40
0.3999999749499399
  0
CIRCLE
  5
E2
330
1F
100
AcDbEntity
  8
0-C_ハッチ
  6
Continuous
 62
   120
370
     5
100
AcDbCircle
 10
-48.07666597035791
 20
199.8651601877464
 30
0.0
 40
0.3999999749499399
  0
CIRCLE
  5
E3
330
1F
100
AcDbEntity
  8
0-C_ハッチ
  6
Continuous
 62
   120
370
     5
100
AcDbCircle
 10
-38.56705870684323
 20
197.8262560492328
 30
0.0
 40
0.3999999749499399
  0
CIRCLE
  5
E4
330
1F
100
AcDbEntity
  8
0-C_ハッチ
  6
Continuous
 62
   120
370
     5
100
AcDbCircle
 10
-56.19170239349955
 20
185.1068594064964
 30
0.0
 40
0.3999999749499399
  0
CIRCLE
  5
E5
330
1F
100
AcDbEntity
  8
0-C_ハッチ
  6
Continuous
 62
   120
370
     5
100
AcDbCircle
 10
-46.92458615616829
 20
189.1044971809896
 30
0.0
 40
0.3999999749499399
  0
CIRCLE
  5
E6
330
1F
100
AcDbEntity
  8
0-C_ハッチ
  6
Continuous
 62
   120
370
     5
100
AcDbCircle
 10
-35.29590425160791
 20
184.5615020374089
 30
0.0
 40
0.3999999749499399
  0
CIRCLE
  5
E7
330
1F
100
AcDbEntity
  8
0-C_ハッチ
  6
Continuous
 62
   120
370
     5
100
AcDbCircle
 10
-22.21326594924335
 20
192.0114202173073
 30
0.0
 40
0.3999999749499399
  0
CIRCLE
  5
E8
330
1F
100
AcDbEntity
  8
0-C_ハッチ
  6
Continuous
 62
   120
370
     5
100
AcDbCircle
 10
-50.52829973302664
 20
160.862210705061
 30
0.0
 40
0.3999999749499399
  0
CIRCLE
  5
E9
330
1F
100
AcDbEntity
  8
0-C_ハッチ
  6
Continuous
 62
   120
370
     5
100
AcDbCircle
 10
-40.19125370262032
 20
157.4168586146891
 30
0.0
 40
0.3999999749499399
  0
CIRCLE
  5
EA
330
1F
100
AcDbEntity
  8
0-C_ハッチ
  6
Continuous
 62
   120
370
     5
100
AcDbCircle
 10
-31.00331820853285
 20
159.139534659875
 30
0.0
 40
0.3999999749499399
  0
CIRCLE
  5
EB
330
1F
100
AcDbEntity
  8
0-C_ハッチ
  6
Continuous
 62
   120
370
     5
100
AcDbCircle
 10
-26.9839057296474
 20
144.2085208824255
 30
0.0
 40
0.3999999749499399
  0
CIRCLE
  5
EC
330
1F
100
AcDbEntity
  8
0-C_ハッチ
  6
Continuous
 62
   120
370
     5
100
AcDbCircle
 10
-18.94409101258702
 20
157.4168586146891
 30
0.0
 40
0.3999999749499399
  0
CIRCLE
  5
ED
330
1F
100
AcDbEntity
  8
0-C_ハッチ
  6
Continuous
 62
   120
370
     5
100
AcDbCircle
 10
-44.78571632930993
 20
120.0890767312433
 30
0.0
 40
0.3999999749499399
  0
CIRCLE
  5
EE
330
1F
100
AcDbEntity
  8
0-C_ハッチ
  6
Continuous
 62
   120
370
     5
100
AcDbCircle
 10
-49.95423934451196
 20
138.4659374787094
 30
0.0
 40
0.3999999749499399
  0
CIRCLE
  5
EF
330
1F
100
AcDbEntity
  8
0-C_ハッチ
  6
Continuous
 62
   120
370
     5
100
AcDbCircle
 10
-43.06353516377044
 20
148.8029835091146
 30
0.0
 40
0.3999999749499399
  0
CIRCLE
  5
F0
330
1F
100
AcDbEntity
  8
0-C_ハッチ
  6
Continuous
 62
   120
370
     5
100
AcDbCircle
 10
-41.34036423893917
 20
129.2775071049761
 30
0.0
 40
0.3999999749499399
  0
CIRCLE
  5
F1
330
1F
100
AcDbEntity
  8
0-C_ハッチ
  6
Continuous
 62
   120
370
     5
100
AcDbCircle
 10
-23.53756387998487
 20
118.9404610745709
 30
0.0
 40
0.3999999749499399
  0
CIRCLE
  5
F2
330
1F
100
AcDbEntity
  8
0-C_ハッチ
  6
Continuous
 62
   120
370
     5
100
AcDbCircle
 10
-18.94409101258702
 20
138.4659374787094
 30
0.0
 40
0.3999999749499399
  0
CIRCLE
  5
F3
330
1F
100
AcDbEntity
  8
0-C_ハッチ
  6
Continuous
 62
   120
370
     5
100
AcDbCircle
 10
-21.2403325666412
 20
103.4353869086078
 30
0.0
 40
0.3999999749499399
  0
CIRCLE
  5
F4
330
1F
100
AcDbEntity
  8
0-C_ハッチ
  6
Continuous
 62
   120
370
     5
100
AcDbCircle
 10
-33.30054952187652
 20
111.4752016256688
 30
0.0
 40
0.3999999749499399
  0
CIRCLE
  5
F5
330
1F
100
AcDbEntity
  8
0-C_ハッチ
  6
Continuous
 62
   120
370
     5
100
AcDbCircle
 10
-49.38017895599955
 20
114.9205537160407
 30
0.0
 40
0.3999999749499399
  0
CIRCLE
  5
F6
330
1F
100
AcDbEntity
  8
0-C_ハッチ
  6
Continuous
 62
   120
370
     5
100
AcDbCircle
 10
-30.07888303116829
 20
125.3922070099594
 30
0.0
 40
0.3999999749499399
  0
CIRCLE
  5
F7
330
1F
100
AcDbEntity
  8
0-C_ハッチ
  6
Continuous
 62
   120
370
     5
100
AcDbCircle
 10
-36.62020218234943
 20
99.95390860413181
 30
0.0
 40
0.3999999749499399
  0
LINE
  5
F8
330
1F
100
AcDbEntity
  8
0-4_枠
  6
Continuous
 62
    92
370
    13
100
AcDbLine
 10
-98.80430400878708
 20
-315.4146612596776
 30
0.0
 11
289.1954419529964
 21
-315.4146612596776
 31
0.0
  0
LINE
  5
F9
330
1F
100
AcDbEntity
  8
0-4_枠
  6
Continuous
 62
    92
370
    13
100
AcDbLine
 10
-98.80430400878708
 20
-315.4146612596776
 30
0.0
 11
-98.80430400878708
 21
-195.4147602356068
 31
0.0
  0
LINE
  5
FA
330
1F
100
AcDbEntity
  8
0-4_枠
  6
Continuous
 62
    92
370
    13
100
AcDbLine
 10
-98.80430400878708
 20
-195.4147602356068
 30
0.0
 11
289.1954419529964
 21
-195.4147602356068
 31
0.0
  0
LINE
  5
FB
330
1F
100
AcDbEntity
  8
0-4_枠
  6
Continuous
 62
    92
370
    13
100
AcDbLine
 10
289.1954419529964
 20
-315.4146612596776
 30
0.0
 11
289.1954419529964
 21
-195.4147602356068
 31
0.0
  0
LINE
  5
FC
330
1F
100
AcDbEntity
  8
0-3_仕上げ
  6
Continuous
 62
     7
370
     9
100
AcDbLine
 10
-0.8041390489051992
 20
-2328.786272440399
 30
0.0
 11
-0.8041390489051992
 21
-2376.786272440399
 31
0.0
  0
LINE
  5
FD
330
1F
100
AcDbEntity
  8
0-3_仕上げ
  6
Continuous
 62
     7
370
     9
100
AcDbLine
 10
-0.8041390489051992
 20
-2340.786272440399
 30
0.0
 11
-409.38187135117
 21
-2340.786272440399
 31
0.0
  0
LINE
  5
FE
330
1F
100
AcDbEntity
  8
0-3_仕上げ
  6
Continuous
 62
     7
370
     9
100
AcDbLine
 10
-0.8041390489051992
 20
-2352.786272440399
 30
0.0
 11
-409.38187135117
 21
-2352.786272440399
 31
0.0
  0
LINE
  5
FF
330
1F
100
AcDbEntity
  8
0-3_仕上げ
  6
Continuous
 62
     7
370
     9
100
AcDbLine
 10
-0.8041390489051992
 20
-2364.786272440399
 30
0.0
 11
-409.38187135117
 21
-2364.786272440399
 31
0.0
  0
LINE
  5
100
330
1F
100
AcDbEntity
  8
0-3_仕上げ
  6
Continuous
 62
    40
370
    15
100
AcDbLine
 10
-0.8041390489051992
 20
-2328.786272440399
 30
0.0
 11
-409.38187135117
 21
-2328.786272440399
 31
0.0
  0
LINE
  5
101
330
1F
100
AcDbEntity
  8
0-3_仕上げ
  6
Continuous
 62
    40
370
    15
100
AcDbLine
 10
-0.8041390489051992
 20
-2376.786272440399
 30
0.0
 11
-409.38187135117
 21
-2376.786272440399
 31
0.0
  0
LINE
  5
102
330
1F
100
AcDbEntity
  8
0-B_寸法
  6
Continuous
 62
   120
370
     5
100
AcDbLine
 10
289.1954419529964
 20
-1427.356833339193
 30
0.0
 11
289.1954419529964
 21
-1474.936270962389
 31
0.0
  0
LINE
  5
103
330
1F
100
AcDbEntity
  8
0-C_ハッチ
  6
Continuous
 62
   120
370
     5
100
AcDbLine
 10
281.7281111572572
 20
-1667.414445162246
 30
0.0
 11
289.19544195301
 21
-1659.947114366493
 31
0.0
  0
LINE
  5
104
330
1F
100
AcDbEntity
  8
0-C_ハッチ
  6
Continuous
 62
   120
370
     5
100
AcDbLine
 10
253.4438399097928
 20
-1667.414445162244
 30
0.0
 11
289.1954419530077
 21
-1631.662843119027
 31
0.0
  0
LINE
  5
105
330
1F
100
AcDbEntity
  8
0-C_ハッチ
  6
Continuous
 62
   120
370
     5
100
AcDbLine
 10
225.1595686623284
 20
-1667.414445162241
 30
0.0
 11
289.1954419530055
 21
-1603.378571871563
 31
0.0
  0
LINE
  5
106
330
1F
100
AcDbEntity
  8
0-C_ハッチ
  6
Continuous
 62
   120
370
     5
100
AcDbLine
 10
196.875297414864
 20
-1667.414445162238
 30
0.0
 11
289.1954419530032
 21
-1575.094300624098
 31
0.0
  0
LINE
  5
107
330
1F
100
AcDbEntity
  8
0-C_ハッチ
  6
Continuous
 62
   120
370
     5
100
AcDbLine
 10
168.5910261674383
 20
-1667.414445162233
 30
0.0
 11
288.5910261674371
 21
-1547.414445162235
 31
0.0
  0
LINE
  5
108
330
1F
100
AcDbEntity
  8
0-C_ハッチ
  6
Continuous
 62
   120
370
     5
100
AcDbLine
 10
140.306754919975
 20
-1667.414445162231
 30
0.0
 11
260.3067549199739
 21
-1547.414445162232
 31
0.0
  0
LINE
  5
109
330
1F
100
AcDbEntity
  8
0-C_ハッチ
  6
Continuous
 62
   120
370
     5
100
AcDbLine
 10
112.0224836725117
 20
-1667.414445162228
 30
0.0
 11
232.0224836725095
 21
-1547.414445162229
 31
0.0
  0
LINE
  5
10A
330
1F
100
AcDbEntity
  8
0-C_ハッチ
  6
Continuous
 62
   120
370
     5
100
AcDbLine
 10
83.73821242504732
 20
-1667.414445162225
 30
0.0
 11
203.738212425045
 21
-1547.414445162227
 31
0.0
  0
LINE
  5
10B
330
1F
100
AcDbEntity
  8
0-C_ハッチ
  6
Continuous
 62
   120
370
     5
100
AcDbLine
 10
55.45394117756814
 20
-1667.414445162237
 30
0.0
 11
175.4539411775738
 21
-1547.414445162232
 31
0.0
  0
LINE
  5
10C
330
1F
100
AcDbEntity
  8
0-C_ハッチ
  6
Continuous
 62
   120
370
     5
100
AcDbLine
 10
27.16966993009805
 20
-1667.414445162241
 30
0.0
 11
147.1696699300958
 21
-1547.414445162242
 31
0.0
  0
LINE
  5
10D
330
1F
100
AcDbEntity
  8
0-C_ハッチ
  6
Continuous
 62
   120
370
     5
100
AcDbLine
 10
-1.11460131736635
 20
-1667.414445162239
 30
0.0
 11
118.8853986826314
 21
-1547.41444516224
 31
0.0
  0
LINE
  5
10E
330
1F
100
AcDbEntity
  8
0-C_ハッチ
  6
Continuous
 62
   120
370
     5
100
AcDbLine
 10
-29.39887256483075
 20
-1667.414445162236
 30
0.0
 11
90.60112743516697
 21
-1547.414445162238
 31
0.0
  0
LINE
  5
10F
330
1F
100
AcDbEntity
  8
0-C_ハッチ
  6
Continuous
 62
   120
370
     5
100
AcDbLine
 10
-57.68314381225537
 20
-1667.414445162231
 30
0.0
 11
62.3168561877435
 21
-1547.414445162232
 31
0.0
  0
LINE
  5
110
330
1F
100
AcDbEntity
  8
0-C_ハッチ
  6
Continuous
 62
   120
370
     5
100
AcDbLine
 10
-85.96741505971977
 20
-1667.414445162228
 30
0.0
 11
34.03258494027909
 21
-1547.414445162229
 31
0.0
  0
LINE
  5
111
330
1F
100
AcDbEntity
  8
0-C_ハッチ
  6
Continuous
 62
   120
370
     5
100
AcDbLine
 10
-98.80405656897096
 20
-1651.966815424012
 30
0.0
 11
5.748313692814691
 21
-1547.414445162227
 31
0.0
  0
LINE
  5
112
330
1F
100
AcDbEntity
  8
0-C_ハッチ
  6
Continuous
 62
   120
370
     5
100
AcDbLine
 10
-98.80405656896528
 20
-1623.68254417654
 30
0.0
 11
-22.53595755465199
 21
-1547.414445162226
 31
0.0
  0
LINE
  5
113
330
1F
100
AcDbEntity
  8
0-C_ハッチ
  6
Continuous
 62
   120
370
     5
100
AcDbLine
 10
-98.80405656895277
 20
-1595.398272929061
 30
0.0
 11
-50.82022880213458
 21
-1547.414445162243
 31
0.0
  0
LINE
  5
114
330
1F
100
AcDbEntity
  8
0-C_ハッチ
  6
Continuous
 62
   120
370
     5
100
AcDbLine
 10
-98.80405656895505
 20
-1567.114001681597
 30
0.0
 11
-79.10450004959898
 21
-1547.41444516224
 31
0.0
  0
LINE
  5
115
330
1F
100
AcDbEntity
  8
0-1_通り芯
  6
JWW_CENTER1
 62
   120
370
     5
100
AcDbLine
 10
193.1957190855962
 20
-2376.786272440399
 30
0.0
 11
193.1957190855962
 21
204.629712310557
 31
0.0
  0
LWPOLYLINE
  5
116
330
1F
100
AcDbEntity
  8
0-B_寸法
  6
Continuous
 62
     7
370
     9
100
AcDbPolyline
 90
        4
 70
     1
 43
2.0
 10
290.1954419529964
 20
-1427.356833339193
 42
0.4142135623731
 10
289.1954419529964
 20
-1426.356833339193
 42
0.4142135623731
 10
288.1954419529964
 20
-1427.356833339193
 42
0.4142135623731
 10
289.1954419529964
 20
-1428.356833339193
 42
0.4142135623731
  0
LINE
  5
117
330
1F
100
AcDbEntity
  8
0-B_寸法
  6
Continuous
 62
   120
370
     5
100
AcDbLine
 10
-578.8043040087871
 20
-315.4146612596776
 30
0.0
 11
-578.8043040087871
 21
-1547.415277371948
 31
0.0
  0
LINE
  5
118
330
1F
100
AcDbEntity
  8
0-B_寸法
  6
Continuous
 62
   120
370
     5
100
AcDbLine
 10
-698.8043040087871
 20
-1547.415277371948
 30
0.0
 11
-338.8043040087871
 21
-1547.415277371948
 31
0.0
  0
LWPOLYLINE
  5
119
330
1F
100
AcDbEntity
  8
0-B_寸法
  6
Continuous
 62
     7
370
     9
100
AcDbPolyline
 90
        4
 70
     1
 43
2.0
 10
-577.8043040087871
 20
-1547.415277371948
 42
0.4142135623731
 10
-578.8043040087871
 20
-1546.415277371948
 42
0.4142135623731
 10
-579.8043040087871
 20
-1547.415277371948
 42
0.4142135623731
 10
-578.8043040087871
 20
-1548.415277371948
 42
0.4142135623731
  0
LINE
  5
11A
330
1F
100
AcDbEntity
  8
0-B_寸法
  6
Continuous
 62
   120
370
     5
100
AcDbLine
 10
-698.8043040087871
 20
-195.4147602356068
 30
0.0
 11
-698.8043040087871
 21
-1667.414445162232
 31
0.0
  0
LWPOLYLINE
  5
11B
330
1F
100
AcDbEntity
  8
0-B_寸法
  6
Continuous
 62
     7
370
     9
100
AcDbPolyline
 90
        4
 70
     1
 43
2.0
 10
-697.8043040087871
 20
-1547.415277371948
 42
0.4142135623731
 10
-698.8043040087871
 20
-1546.415277371948
 42
0.4142135623731
 10
-699.8043040087871
 20
-1547.415277371948
 42
0.4142135623731
 10
-698.8043040087871
 20
-1548.415277371948
 42
0.4142135623731
  0
LWPOLYLINE
  5
11C
330
1F
100
AcDbEntity
  8
0-B_寸法
  6
Continuous
 62
     7
370
     9
100
AcDbPolyline
 90
        4
 70
     1
 43
2.0
 10
-697.8043040087871
 20
-1667.414445162232
 42
0.4142135623731
 10
-698.8043040087871
 20
-1666.414445162232
 42
0.4142135623731
 10
-699.8043040087871
 20
-1667.414445162232
 42
0.4142135623731
 10
-698.8043040087871
 20
-1668.414445162232
 42
0.4142135623731
  0
LINE
  5
11D
330
1F
100
AcDbEntity
  8
0-B_寸法
  6
Continuous
 62
   120
370
     5
100
AcDbLine
 10
-818.8043040087871
 20
-195.4147602356068
 30
0.0
 11
-818.8043040087871
 21
-1667.414445162232
 31
0.0
  0
LINE
  5
11E
330
1F
100
AcDbEntity
  8
0-B_寸法
  6
Continuous
 62
   120
370
     5
100
AcDbLine
 10
-818.8043040087871
 20
-1667.414445162232
 30
0.0
 11
-338.8043040087871
 21
-1667.414445162232
 31
0.0
  0
LWPOLYLINE
  5
11F
330
1F
100
AcDbEntity
  8
0-B_寸法
  6
Continuous
 62
     7
370
     9
100
AcDbPolyline
 90
        4
 70
     1
 43
2.0
 10
-817.8043040087871
 20
-1667.414445162232
 42
0.4142135623731
 10
-818.8043040087871
 20
-1666.414445162232
 42
0.4142135623731
 10
-819.8043040087871
 20
-1667.414445162232
 42
0.4142135623731
 10
-818.8043040087871
 20
-1668.414445162232
 42
0.4142135623731
  0
LINE
  5
120
330
1F
100
AcDbEntity
  8
0-0_補助線
  6
JWW_HOJO
 62
   120
370
     5
100
AcDbLine
 10
403.1959170374557
 20
-1734.611331379504
 30
0.0
 11
403.1959170374557
 21
-195.4147602356068
 31
0.0
  0
LINE
  5
121
330
1F
100
AcDbEntity
  8
0-0_補助線
  6
JWW_HOJO
 62
   120
370
     5
100
AcDbLine
 10
-338.8043040087871
 20
204.5852397643932
 30
0.0
 11
-338.8043040087871
 21
-1667.414445162232
 31
0.0
  0
LINE
  5
122
330
1F
100
AcDbEntity
  8
0-0_補助線
  6
JWW_HOJO
 62
   120
370
     5
100
AcDbLine
 10
-578.8043040087871
 20
204.5852397643932
 30
0.0
 11
-578.8043040087871
 21
-1667.414445162232
 31
0.0
  0
LINE
  5
123
330
1F
100
AcDbEntity
  8
0-0_補助線
  6
JWW_HOJO
 62
   120
370
     5
100
AcDbLine
 10
305.1958906438745
 20
-1667.414445162232
 30
0.0
 11
-578.8043040087871
 21
-1667.414445162232
 31
0.0
  0
LINE
  5
124
330
1F
100
AcDbEntity
  8
0-3_仕上げ
  6
Continuous
 62
     7
370
     9
100
AcDbLine
 10
419.1959434310365
 20
-1787.414445162232
 30
0.0
 11
-0.8040565689645973
 21
-1667.414445162232
 31
0.0
  0
LINE
  5
125
330
1F
100
AcDbEntity
  8
0-3_仕上げ
  6
Continuous
 62
    40
370
    15
100
AcDbLine
 10
419.1959434310365
 20
-1787.414445162232
 30
0.0
 11
-0.8040565689645973
 21
-1787.414445162232
 31
0.0
  0
LINE
  5
126
330
1F
100
AcDbEntity
  8
0-3_仕上げ
  6
Continuous
 62
    40
370
    15
100
AcDbLine
 10
419.1959434310365
 20
-1667.414445162232
 30
0.0
 11
419.1959434310365
 21
-1787.414445162232
 31
0.0
  0
LINE
  5
127
330
1F
100
AcDbEntity
  8
0-3_仕上げ
  6
Continuous
 62
    40
370
    15
100
AcDbLine
 10
-50.8040565689646
 20
-1667.414445162232
 30
0.0
 11
-50.8040565689646
 21
-1965.683112006688
 31
0.0
  0
LINE
  5
128
330
1F
100
AcDbEntity
  8
0-3_仕上げ
  6
Continuous
 62
    40
370
    15
100
AcDbLine
 10
-0.8040565689645973
 20
-1667.414445162232
 30
0.0
 11
-0.8040565689645973
 21
-1911.927452257617
 31
0.0
  0
LINE
  5
129
330
1F
100
AcDbEntity
  8
0-C_ハッチ
  6
JWW_DASHED1
 62
   120
370
     5
100
AcDbLine
 10
-78.33734765808003
 20
-2328.786272440397
 30
0.0
 11
-50.80405656896346
 21
-2301.25298135128
 31
0.0
  0
LINE
  5
12A
330
1F
100
AcDbEntity
  8
0-C_ハッチ
  6
JWW_DASHED1
 62
   120
370
     5
100
AcDbLine
 10
-86.80405656896937
 20
-2308.968710103819
 30
0.0
 11
-50.8040565689646
 21
-2272.968710103814
 31
0.0
  0
LINE
  5
12B
330
1F
100
AcDbEntity
  8
0-C_ハッチ
  6
JWW_DASHED1
 62
   120
370
     5
100
AcDbLine
 10
-86.80405656897165
 20
-2280.684438856355
 30
0.0
 11
-50.80405656896687
 21
-2244.68443885635
 31
0.0
  0
LINE
  5
12C
330
1F
100
AcDbEntity
  8
0-C_ハッチ
  6
JWW_DASHED1
 62
   120
370
     5
100
AcDbLine
 10
-86.80405656896369
 20
-2252.40016760888
 30
0.0
 11
-50.80405656896801
 21
-2216.400167608885
 31
0.0
  0
LINE
  5
12D
330
1F
100
AcDbEntity
  8
0-C_ハッチ
  6
JWW_DASHED1
 62
   120
370
     5
100
AcDbLine
 10
-86.804056568958
 20
-2224.115896361444
 30
0.0
 11
-50.80405656896232
 21
-2188.115896361449
 31
0.0
  0
LINE
  5
12E
330
1F
100
AcDbEntity
  8
0-C_ハッチ
  6
JWW_DASHED1
 62
   120
370
     5
100
AcDbLine
 10
-86.80405656895914
 20
-2195.831625113979
 30
0.0
 11
-50.80405656895437
 21
-2159.831625113974
 31
0.0
  0
LINE
  5
12F
330
1F
100
AcDbEntity
  8
0-C_ハッチ
  6
JWW_DASHED1
 62
   120
370
     5
100
AcDbLine
 10
-78.8040565689596
 20
-2159.547353866513
 30
0.0
 11
-50.80405656895664
 21
-2131.54735386651
 31
0.0
  0
LINE
  5
130
330
1F
100
AcDbEntity
  8
0-C_ハッチ
  6
JWW_DASHED1
 62
   120
370
     5
100
AcDbLine
 10
-86.80405656895914
 20
-2139.263082619046
 30
0.0
 11
-50.80405656895891
 21
-2103.263082619045
 31
0.0
  0
LINE
  5
131
330
1F
100
AcDbEntity
  8
0-C_ハッチ
  6
JWW_DASHED1
 62
   120
370
     5
100
AcDbLine
 10
-86.80405656896482
 20
-2110.978811371585
 30
0.0
 11
-64.61151763777934
 21
-2088.786272440399
 31
0.0
  0
LINE
  5
132
330
1F
100
AcDbEntity
  8
0-3_仕上げ
  6
Continuous
 62
    40
370
    15
100
AcDbLine
 10
-0.8040565689645973
 20
-2030.517605595943
 30
0.0
 11
-0.8040565689645973
 21
-2275.030612691327
 31
0.0
  0
LINE
  5
133
330
1F
100
AcDbEntity
  8
0-3_仕上げ
  6
Continuous
 62
     7
370
     9
100
AcDbLine
 10
289.1954419529964
 20
-1619.414445162232
 30
0.0
 11
719.9809016733775
 21
-1619.414445162232
 31
0.0
  0
LINE
  5
134
330
1F
100
AcDbEntity
  8
0-3_仕上げ
  6
Continuous
 62
     7
370
     9
100
AcDbLine
 10
289.1954419529964
 20
-1631.414445162232
 30
0.0
 11
719.9809016733775
 21
-1631.414445162232
 31
0.0
  0
LINE
  5
135
330
1F
100
AcDbEntity
  8
0-3_仕上げ
  6
Continuous
 62
     7
370
     9
100
AcDbLine
 10
289.1954419529964
 20
-1643.414445162232
 30
0.0
 11
719.9809016733775
 21
-1643.414445162232
 31
0.0
  0
LINE
  5
136
330
1F
100
AcDbEntity
  8
0-3_仕上げ
  6
Continuous
 62
     7
370
     9
100
AcDbLine
 10
289.1954419529964
 20
-1655.414445162232
 30
0.0
 11
719.9809016733775
 21
-1655.414445162232
 31
0.0
  0
LINE
  5
137
330
1F
100
AcDbEntity
  8
0-3_仕上げ
  6
Continuous
 62
     7
370
     9
100
AcDbLine
 10
289.1954419529964
 20
-1667.414445162232
 30
0.0
 11
719.9809016733775
 21
-1667.414445162232
 31
0.0
  0
LINE
  5
138
330
1F
100
AcDbEntity
  8
0-A_文字
  6
Continuous
 62
     7
370
     9
100
AcDbLine
 10
390.8429131335447
 20
-1624.278826947407
 30
0.0
 11
420.8429131335447
 21
-1572.31730272034
 31
0.0
  0
LINE
  5
139
330
1F
100
AcDbEntity
  8
0-A_文字
  6
Continuous
 62
     7
370
     9
100
AcDbLine
 10
390.8429131335447
 20
-1624.278826947407
 30
0.0
 11
442.804437360611
 21
-1594.278826947407
 31
0.0
  0
LINE
  5
13A
330
1F
100
AcDbEntity
  8
0-A_文字
  6
Continuous
 62
     7
370
     9
100
AcDbLine
 10
390.8429131335447
 20
-1624.278826947407
 30
0.0
 11
506.0504183202488
 21
-1509.071321760703
 31
0.0
  0
CIRCLE
  5
13B
330
1F
100
AcDbEntity
  8
0-C_ハッチ
  6
Continuous
 62
   120
370
     5
100
AcDbCircle
 10
-20.62010980481659
 20
-1858.855914096987
 30
0.0
 40
0.3999999749499399
  0
CIRCLE
  5
13C
330
1F
100
AcDbEntity
  8
0-C_ハッチ
  6
Continuous
 62
   120
370
     5
100
AcDbCircle
 10
-14.07879065363545
 20
-1833.417615691159
 30
0.0
 40
0.3999999749499399
  0
CIRCLE
  5
13D
330
1F
100
AcDbEntity
  8
0-C_ハッチ
  6
Continuous
 62
   120
370
     5
100
AcDbCircle
 10
-33.38008657846672
 20
-1843.889268985078
 30
0.0
 40
0.3999999749499399
  0
CIRCLE
  5
13E
330
1F
100
AcDbEntity
  8
0-C_ハッチ
  6
Continuous
 62
   120
370
     5
100
AcDbCircle
 10
-17.30045714434368
 20
-1847.33462107545
 30
0.0
 40
0.3999999749499399
  0
CIRCLE
  5
13F
330
1F
100
AcDbEntity
  8
0-C_ハッチ
  6
Continuous
 62
   120
370
     5
100
AcDbCircle
 10
-5.240240189108363
 20
-1855.374435792511
 30
0.0
 40
0.3999999749499399
  0
CIRCLE
  5
140
330
1F
100
AcDbEntity
  8
0-C_ハッチ
  6
Continuous
 62
   120
370
     5
100
AcDbCircle
 10
-2.943998635054186
 20
-1820.343885222409
 30
0.0
 40
0.3999999749499399
  0
CIRCLE
  5
141
330
1F
100
AcDbEntity
  8
0-C_ハッチ
  6
Continuous
 62
   120
370
     5
100
AcDbCircle
 10
-7.537471502452036
 20
-1839.869361626548
 30
0.0
 40
0.3999999749499399
  0
CIRCLE
  5
142
330
1F
100
AcDbEntity
  8
0-C_ハッチ
  6
Continuous
 62
   120
370
     5
100
AcDbCircle
 10
-25.3402718614052
 20
-1829.532315596143
 30
0.0
 40
0.3999999749499399
  0
CIRCLE
  5
143
330
1F
100
AcDbEntity
  8
0-C_ハッチ
  6
Continuous
 62
   120
370
     5
100
AcDbCircle
 10
-27.06344278623646
 20
-1810.006839192004
 30
0.0
 40
0.3999999749499399
  0
CIRCLE
  5
144
330
1F
100
AcDbEntity
  8
0-C_ハッチ
  6
Continuous
 62
   120
370
     5
100
AcDbCircle
 10
-33.95414696697912
 20
-1820.343885222409
 30
0.0
 40
0.3999999749499399
  0
CIRCLE
  5
145
330
1F
100
AcDbEntity
  8
0-C_ハッチ
  6
Continuous
 62
   120
370
     5
100
AcDbCircle
 10
-28.7856239517771
 20
-1838.720745969875
 30
0.0
 40
0.3999999749499399
  0
CIRCLE
  5
146
330
1F
100
AcDbEntity
  8
0-C_ハッチ
  6
Continuous
 62
   120
370
     5
100
AcDbCircle
 10
-2.943998635054186
 20
-1801.39296408643
 30
0.0
 40
0.3999999749499399
  0
CIRCLE
  5
147
330
1F
100
AcDbEntity
  8
0-C_ハッチ
  6
Continuous
 62
   120
370
     5
100
AcDbCircle
 10
-10.98381335211457
 20
-1814.601301818693
 30
0.0
 40
0.3999999749499399
  0
CIRCLE
  5
148
330
1F
100
AcDbEntity
  8
0-C_ハッチ
  6
Continuous
 62
   120
370
     5
100
AcDbCircle
 10
-15.00322583100001
 20
-1799.670288041244
 30
0.0
 40
0.3999999749499399
  0
CIRCLE
  5
149
330
1F
100
AcDbEntity
  8
0-C_ハッチ
  6
Continuous
 62
   120
370
     5
100
AcDbCircle
 10
-24.19116132508748
 20
-1801.39296408643
 30
0.0
 40
0.3999999749499399
  0
CIRCLE
  5
14A
330
1F
100
AcDbEntity
  8
0-C_ハッチ
  6
Continuous
 62
   120
370
     5
100
AcDbCircle
 10
-34.52820735549381
 20
-1797.947611996058
 30
0.0
 40
0.3999999749499399
  0
CIRCLE
  5
14B
330
1F
100
AcDbEntity
  8
0-C_ハッチ
  6
Continuous
 62
   120
370
     5
100
AcDbCircle
 10
-6.213173571709376
 20
-1766.798402483812
 30
0.0
 40
0.3999999749499399
  0
CIRCLE
  5
14C
330
1F
100
AcDbEntity
  8
0-C_ハッチ
  6
Continuous
 62
   120
370
     5
100
AcDbCircle
 10
-19.29581187407393
 20
-1774.24832066371
 30
0.0
 40
0.3999999749499399
  0
CIRCLE
  5
14D
330
1F
100
AcDbEntity
  8
0-C_ハッチ
  6
Continuous
 62
   120
370
     5
100
AcDbCircle
 10
-30.92449377863545
 20
-1769.705325520129
 30
0.0
 40
0.3999999749499399
  0
CIRCLE
  5
14E
330
1F
100
AcDbEntity
  8
0-C_ハッチ
  6
Continuous
 62
   120
370
     5
100
AcDbCircle
 10
-40.19161001596672
 20
-1773.702963294622
 30
0.0
 40
0.3999999749499399
  0
CIRCLE
  5
14F
330
1F
100
AcDbEntity
  8
0-C_ハッチ
  6
Continuous
 62
   120
370
     5
100
AcDbCircle
 10
-22.56696632931039
 20
-1760.983566651886
 30
0.0
 40
0.3999999749499399
  0
CIRCLE
  5
150
330
1F
100
AcDbEntity
  8
0-C_ハッチ
  6
Continuous
 62
   120
370
     5
100
AcDbCircle
 10
-10.7561687152895
 20
-1745.90260434192
 30
0.0
 40
0.3999999749499399
  0
CIRCLE
  5
151
330
1F
100
AcDbEntity
  8
0-C_ハッチ
  6
Continuous
 62
   120
370
     5
100
AcDbCircle
 10
-29.6526530902895
 20
-1741.177988368524
 30
0.0
 40
0.3999999749499399
  0
CIRCLE
  5
152
330
1F
100
AcDbEntity
  8
0-C_ハッチ
  6
Continuous
 62
   120
370
     5
100
AcDbCircle
 10
-23.65669130819583
 20
-1750.081368066582
 30
0.0
 40
0.3999999749499399
  0
CIRCLE
  5
153
330
1F
100
AcDbEntity
  8
0-C_ハッチ
  6
Continuous
 62
   120
370
     5
100
AcDbCircle
 10
-4.578091223736465
 20
-1753.715764181446
 30
0.0
 40
0.3999999749499399
  0
CIRCLE
  5
154
330
1F
100
AcDbEntity
  8
0-C_ハッチ
  6
Continuous
 62
   120
370
     5
100
AcDbCircle
 10
-23.11133393910836
 20
-1715.739689962696
 30
0.0
 40
0.3999999749499399
  0
CIRCLE
  5
155
330
1F
100
AcDbEntity
  8
0-C_ハッチ
  6
Continuous
 62
   120
370
     5
100
AcDbCircle
 10
-42.41262986393963
 20
-1726.211343256616
 30
0.0
 40
0.3999999749499399
  0
CIRCLE
  5
156
330
1F
100
AcDbEntity
  8
0-C_ハッチ
  6
Continuous
 62
   120
370
     5
100
AcDbCircle
 10
-26.33300042981659
 20
-1729.656695346987
 30
0.0
 40
0.3999999749499399
  0
CIRCLE
  5
157
330
1F
100
AcDbEntity
  8
0-C_ハッチ
  6
Continuous
 62
   120
370
     5
100
AcDbCircle
 10
-8.5311898301552
 20
-1729.082634958473
 30
0.0
 40
0.3999999749499399
  0
CIRCLE
  5
158
330
1F
100
AcDbEntity
  8
0-C_ハッチ
  6
Continuous
 62
   120
370
     5
100
AcDbCircle
 10
-14.27377323387077
 20
-1737.696510064048
 30
0.0
 40
0.3999999749499399
  0
CIRCLE
  5
159
330
1F
100
AcDbEntity
  8
0-C_ハッチ
  6
Continuous
 62
   120
370
     5
100
AcDbCircle
 10
-4.510787591979124
 20
-1735.973834018862
 30
0.0
 40
0.3999999749499399
  0
CIRCLE
  5
15A
330
1F
100
AcDbEntity
  8
0-C_ハッチ
  6
Continuous
 62
   120
370
     5
100
AcDbCircle
 10
-11.9765419205271
 20
-1702.665959493946
 30
0.0
 40
0.3999999749499399
  0
CIRCLE
  5
15B
330
1F
100
AcDbEntity
  8
0-C_ハッチ
  6
Continuous
 62
   120
370
     5
100
AcDbCircle
 10
-16.57100454721672
 20
-1722.191435898085
 30
0.0
 40
0.3999999749499399
  0
CIRCLE
  5
15C
330
1F
100
AcDbEntity
  8
0-C_ハッチ
  6
Continuous
 62
   120
370
     5
100
AcDbCircle
 10
-34.37281514687811
 20
-1711.85438986768
 30
0.0
 40
0.3999999749499399
  0
CIRCLE
  5
15D
330
1F
100
AcDbEntity
  8
0-C_ハッチ
  6
Continuous
 62
   120
370
     5
100
AcDbCircle
 10
-36.09598607170938
 20
-1692.328913463541
 30
0.0
 40
0.3999999749499399
  0
CIRCLE
  5
15E
330
1F
100
AcDbEntity
  8
0-C_ハッチ
  6
Continuous
 62
   120
370
     5
100
AcDbCircle
 10
-42.98768001174381
 20
-1702.665959493946
 30
0.0
 40
0.3999999749499399
  0
CIRCLE
  5
15F
330
1F
100
AcDbEntity
  8
0-C_ハッチ
  6
Continuous
 62
   120
370
     5
100
AcDbCircle
 10
-34.37281514687811
 20
-1744.588204004082
 30
0.0
 40
0.3999999749499399
  0
CIRCLE
  5
160
330
1F
100
AcDbEntity
  8
0-C_ハッチ
  6
Continuous
 62
   120
370
     5
100
AcDbCircle
 10
-42.41262986393963
 20
-1747.459495705939
 30
0.0
 40
0.3999999749499399
  0
CIRCLE
  5
161
330
1F
100
AcDbEntity
  8
0-C_ハッチ
  6
Continuous
 62
   120
370
     5
100
AcDbCircle
 10
-32.07657359282393
 20
-1758.944662513372
 30
0.0
 40
0.3999999749499399
  0
CIRCLE
  5
162
330
1F
100
AcDbEntity
  8
0-C_ハッチ
  6
Continuous
 62
   120
370
     5
100
AcDbCircle
 10
-37.8191569965395
 20
-1721.042820241413
 30
0.0
 40
0.3999999749499399
  0
CIRCLE
  5
163
330
1F
100
AcDbEntity
  8
0-C_ハッチ
  6
Continuous
 62
   120
370
     5
100
AcDbCircle
 10
-11.9765419205271
 20
-1683.715038357966
 30
0.0
 40
0.3999999749499399
  0
CIRCLE
  5
164
330
1F
100
AcDbEntity
  8
0-C_ハッチ
  6
Continuous
 62
   120
370
     5
100
AcDbCircle
 10
-5.084847980493805
 20
-1710.131713822494
 30
0.0
 40
0.3999999749499399
  0
CIRCLE
  5
165
330
1F
100
AcDbEntity
  8
0-C_ハッチ
  6
Continuous
 62
   120
370
     5
100
AcDbCircle
 10
-5.659898128296845
 20
-1681.992362312781
 30
0.0
 40
0.3999999749499399
  0
CIRCLE
  5
166
330
1F
100
AcDbEntity
  8
0-C_ハッチ
  6
Continuous
 62
   120
370
     5
100
AcDbCircle
 10
-20.59041702610102
 20
-1672.803931939048
 30
0.0
 40
0.3999999749499399
  0
CIRCLE
  5
167
330
1F
100
AcDbEntity
  8
0-C_ハッチ
  6
Continuous
 62
   120
370
     5
100
AcDbCircle
 10
-20.01635663758748
 20
-1696.92337609023
 30
0.0
 40
0.3999999749499399
  0
CIRCLE
  5
168
330
1F
100
AcDbEntity
  8
0-C_ハッチ
  6
Continuous
 62
   120
370
     5
100
AcDbCircle
 10
-24.03675887576242
 20
-1681.992362312781
 30
0.0
 40
0.3999999749499399
  0
CIRCLE
  5
169
330
1F
100
AcDbEntity
  8
0-C_ハッチ
  6
Continuous
 62
   120
370
     5
100
AcDbCircle
 10
-33.22469436985102
 20
-1683.715038357966
 30
0.0
 40
0.3999999749499399
  0
CIRCLE
  5
16A
330
1F
100
AcDbEntity
  8
0-C_ハッチ
  6
Continuous
 62
   120
370
     5
100
AcDbCircle
 10
-43.56174040025621
 20
-1680.269686267595
 30
0.0
 40
0.3999999749499399
  0
CIRCLE
  5
16B
330
1F
100
AcDbEntity
  8
0-C_ハッチ
  6
Continuous
 62
   120
370
     5
100
AcDbCircle
 10
-45.28392156579685
 20
-1678.424280070382
 30
0.0
 40
0.3999999749499399
  0
CIRCLE
  5
16C
330
1F
100
AcDbEntity
  8
0-C_ハッチ
  6
Continuous
 62
   120
370
     5
100
AcDbCircle
 10
-10.25337099569583
 20
-1756.859239688203
 30
0.0
 40
0.3999999749499399
  0
CIRCLE
  5
16D
330
1F
100
AcDbEntity
  8
0-C_ハッチ
  6
Continuous
 62
   120
370
     5
100
AcDbCircle
 10
-16.57100454721672
 20
-1771.789758586007
 30
0.0
 40
0.3999999749499399
  0
CIRCLE
  5
16E
330
1F
100
AcDbEntity
  8
0-C_ハッチ
  6
Continuous
 62
   120
370
     5
100
AcDbCircle
 10
-28.05617135464786
 20
-1764.324499137105
 30
0.0
 40
0.3999999749499399
  0
CIRCLE
  5
16F
330
1F
100
AcDbEntity
  8
0-C_ハッチ
  6
Continuous
 62
   120
370
     5
100
AcDbCircle
 10
-33.79875475836457
 20
-1756.859239688203
 30
0.0
 40
0.3999999749499399
  0
CIRCLE
  5
170
330
1F
100
AcDbEntity
  8
0-C_ハッチ
  6
Continuous
 62
   120
370
     5
100
AcDbCircle
 10
-42.98768001174381
 20
-1775.810160824183
 30
0.0
 40
0.3999999749499399
  0
CIRCLE
  5
171
330
1F
100
AcDbEntity
  8
0-C_ハッチ
  6
Continuous
 62
   120
370
     5
100
AcDbCircle
 10
-42.98768001174381
 20
-1786.147206854589
 30
0.0
 40
0.3999999749499399
  0
CIRCLE
  5
172
330
1F
100
AcDbEntity
  8
0-C_ハッチ
  6
Continuous
 62
   120
370
     5
100
AcDbCircle
 10
-33.79875475836457
 20
-1786.721267243102
 30
0.0
 40
0.3999999749499399
  0
CIRCLE
  5
173
330
1F
100
AcDbEntity
  8
0-C_ハッチ
  6
Continuous
 62
   120
370
     5
100
AcDbCircle
 10
-11.9765419205271
 20
-1784.998096318271
 30
0.0
 40
0.3999999749499399
  0
CIRCLE
  5
174
330
1F
100
AcDbEntity
  8
0-C_ハッチ
  6
Continuous
 62
   120
370
     5
100
AcDbCircle
 10
-32.65063398133748
 20
-1768.918466884149
 30
0.0
 40
0.3999999749499399
  0
CIRCLE
  5
175
330
1F
100
AcDbEntity
  8
0-C_ハッチ
  6
Continuous
 62
   120
370
     5
100
AcDbCircle
 10
-8.5311898301552
 20
-1764.899054405264
 30
0.0
 40
0.3999999749499399
  0
CIRCLE
  5
176
330
1F
100
AcDbEntity
  8
0-C_ハッチ
  6
Continuous
 62
   120
370
     5
100
AcDbCircle
 10
-45.28392156579685
 20
-1760.878652167089
 30
0.0
 40
0.3999999749499399
  0
CIRCLE
  5
177
330
1F
100
AcDbEntity
  8
0-C_ハッチ
  6
Continuous
 62
   120
370
     5
100
AcDbCircle
 10
-20.61986236499479
 20
-1860.9811747336
 30
0.0
 40
0.3999999749499399
  0
CIRCLE
  5
178
330
1F
100
AcDbEntity
  8
0-C_ハッチ
  6
Continuous
 62
   120
370
     5
100
AcDbCircle
 10
-14.07854321381251
 20
-1886.419968019073
 30
0.0
 40
0.3999999749499399
  0
CIRCLE
  5
179
330
1F
100
AcDbEntity
  8
0-C_ハッチ
  6
Continuous
 62
   120
370
     5
100
AcDbCircle
 10
-33.37983913864377
 20
-1875.948314725154
 30
0.0
 40
0.3999999749499399
  0
CIRCLE
  5
17A
330
1F
100
AcDbEntity
  8
0-C_ハッチ
  6
Continuous
 62
   120
370
     5
100
AcDbCircle
 10
-17.30020970452188
 20
-1872.502962634783
 30
0.0
 40
0.3999999749499399
  0
CIRCLE
  5
17B
330
1F
100
AcDbEntity
  8
0-C_ハッチ
  6
Continuous
 62
   120
370
     5
100
AcDbCircle
 10
-5.23999274928542
 20
-1864.463147917722
 30
0.0
 40
0.3999999749499399
  0
CIRCLE
  5
17C
330
1F
100
AcDbEntity
  8
0-C_ハッチ
  6
Continuous
 62
   120
370
     5
100
AcDbCircle
 10
-2.943751195231243
 20
-1899.493698487823
 30
0.0
 40
0.3999999749499399
  0
CIRCLE
  5
17D
330
1F
100
AcDbEntity
  8
0-C_ハッチ
  6
Continuous
 62
   120
370
     5
100
AcDbCircle
 10
-7.537224062629093
 20
-1879.967727204039
 30
0.0
 40
0.3999999749499399
  0
CIRCLE
  5
17E
330
1F
100
AcDbEntity
  8
0-C_ハッチ
  6
Continuous
 62
   120
370
     5
100
AcDbCircle
 10
-25.34002442158226
 20
-1890.304773234445
 30
0.0
 40
0.3999999749499399
  0
CIRCLE
  5
17F
330
1F
100
AcDbEntity
  8
0-C_ハッチ
  6
Continuous
 62
   120
370
     5
100
AcDbCircle
 10
-27.06319534641352
 20
-1909.830744518229
 30
0.0
 40
0.3999999749499399
  0
CIRCLE
  5
180
330
1F
100
AcDbEntity
  8
0-C_ハッチ
  6
Continuous
 62
   120
370
     5
100
AcDbCircle
 10
-33.95389952715618
 20
-1899.493698487823
 30
0.0
 40
0.3999999749499399
  0
CIRCLE
  5
181
330
1F
100
AcDbEntity
  8
0-C_ハッチ
  6
Continuous
 62
   120
370
     5
100
AcDbCircle
 10
-28.78537651195415
 20
-1881.116837740357
 30
0.0
 40
0.3999999749499399
  0
CIRCLE
  5
182
330
1F
100
AcDbEntity
  8
0-C_ハッチ
  6
Continuous
 62
   120
370
     5
100
AcDbCircle
 10
-2.943751195231243
 20
-1918.444619623803
 30
0.0
 40
0.3999999749499399
  0
CIRCLE
  5
183
330
1F
100
AcDbEntity
  8
0-C_ハッチ
  6
Continuous
 62
   120
370
     5
100
AcDbCircle
 10
-10.98356591229162
 20
-1905.236281891539
 30
0.0
 40
0.3999999749499399
  0
CIRCLE
  5
184
330
1F
100
AcDbEntity
  8
0-C_ハッチ
  6
Continuous
 62
   120
370
     5
100
AcDbCircle
 10
-15.00297839117707
 20
-1920.166800789344
 30
0.0
 40
0.3999999749499399
  0
CIRCLE
  5
185
330
1F
100
AcDbEntity
  8
0-C_ハッチ
  6
Continuous
 62
   120
370
     5
100
AcDbCircle
 10
-24.19091388526454
 20
-1918.444619623803
 30
0.0
 40
0.3999999749499399
  0
CIRCLE
  5
186
330
1F
100
AcDbEntity
  8
0-C_ハッチ
  6
Continuous
 62
   120
370
     5
100
AcDbCircle
 10
-34.52795991567086
 20
-1921.889971714174
 30
0.0
 40
0.3999999749499399
  0
CIRCLE
  5
187
330
1F
100
AcDbEntity
  8
0-C_ハッチ
  6
Continuous
 62
   120
370
     5
100
AcDbCircle
 10
-6.212926131886434
 20
-1953.038686346776
 30
0.0
 40
0.3999999749499399
  0
CIRCLE
  5
188
330
1F
100
AcDbEntity
  8
0-C_ハッチ
  6
Continuous
 62
   120
370
     5
100
AcDbCircle
 10
-19.29556443425213
 20
-1945.588768166877
 30
0.0
 40
0.3999999749499399
  0
CIRCLE
  5
189
330
1F
100
AcDbEntity
  8
0-C_ハッチ
  6
Continuous
 62
   120
370
     5
100
AcDbCircle
 10
-30.92424633881251
 20
-1950.131763310458
 30
0.0
 40
0.3999999749499399
  0
CIRCLE
  5
18A
330
1F
100
AcDbEntity
  8
0-C_ハッチ
  6
Continuous
 62
   120
370
     5
100
AcDbCircle
 10
-40.19136257614377
 20
-1946.134125535965
 30
0.0
 40
0.3999999749499399
  0
CIRCLE
  5
18B
330
1F
100
AcDbEntity
  8
0-C_ハッチ
  6
Continuous
 62
   120
370
     5
100
AcDbCircle
 10
-22.56671888948745
 20
-1958.853522178701
 30
0.0
 40
0.3999999749499399
  0
CIRCLE
  5
18C
330
1F
100
AcDbEntity
  8
0-C_ハッチ
  6
Continuous
 62
   120
370
     5
100
AcDbCircle
 10
-16.57075710739377
 20
-1948.04733024458
 30
0.0
 40
0.3999999749499399
  0
CIRCLE
  5
18D
330
1F
100
AcDbEntity
  8
0-C_ハッチ
  6
Continuous
 62
   120
370
     5
100
AcDbCircle
 10
-28.05592391482492
 20
-1955.513084573127
 30
0.0
 40
0.3999999749499399
  0
CIRCLE
  5
18E
330
1F
100
AcDbEntity
  8
0-C_ハッチ
  6
Continuous
 62
   120
370
     5
100
AcDbCircle
 10
-42.98743257192086
 20
-1944.026928006404
 30
0.0
 40
0.3999999749499399
  0
CIRCLE
  5
18F
330
1F
100
AcDbEntity
  8
0-C_ハッチ
  6
Continuous
 62
   120
370
     5
100
AcDbCircle
 10
-42.98743257192086
 20
-1933.689881975999
 30
0.0
 40
0.3999999749499399
  0
CIRCLE
  5
190
330
1F
100
AcDbEntity
  8
0-C_ハッチ
  6
Continuous
 62
   120
370
     5
100
AcDbCircle
 10
-33.79850731854162
 20
-1933.115821587485
 30
0.0
 40
0.3999999749499399
  0
CIRCLE
  5
191
330
1F
100
AcDbEntity
  8
0-C_ハッチ
  6
Continuous
 62
   120
370
     5
100
AcDbCircle
 10
-11.97629448070415
 20
-1934.838992512317
 30
0.0
 40
0.3999999749499399
  0
CIRCLE
  5
192
330
1F
100
AcDbEntity
  8
0-C_ハッチ
  6
Continuous
 62
   120
370
     5
100
AcDbCircle
 10
-32.65038654151454
 20
-1950.918621946438
 30
0.0
 40
0.3999999749499399
  0
CIRCLE
  5
193
330
1F
100
AcDbEntity
  8
0-C_ハッチ
  6
Continuous
 62
   120
370
     5
100
AcDbCircle
 10
-8.530942390332257
 20
-1954.938034425323
 30
0.0
 40
0.3999999749499399
  0
CIRCLE
  5
194
330
1F
100
AcDbEntity
  8
0-C_ハッチ
  6
Continuous
 62
   120
370
     5
100
AcDbCircle
 10
-45.28367412597504
 20
-1958.958436663499
 30
0.0
 40
0.3999999749499399
  0
CIRCLE
  5
195
330
1F
100
AcDbEntity
  8
0-C_ハッチ
  6
Continuous
 62
   120
370
     5
100
AcDbCircle
 10
-20.62010980481659
 20
-2221.959074530698
 30
0.0
 40
0.3999999749499399
  0
CIRCLE
  5
196
330
1F
100
AcDbEntity
  8
0-C_ハッチ
  6
Continuous
 62
   120
370
     5
100
AcDbCircle
 10
-14.07879065363545
 20
-2196.52077612487
 30
0.0
 40
0.3999999749499399
  0
CIRCLE
  5
197
330
1F
100
AcDbEntity
  8
0-C_ハッチ
  6
Continuous
 62
   120
370
     5
100
AcDbCircle
 10
-33.38008657846672
 20
-2206.992429418789
 30
0.0
 40
0.3999999749499399
  0
CIRCLE
  5
198
330
1F
100
AcDbEntity
  8
0-C_ハッチ
  6
Continuous
 62
   120
370
     5
100
AcDbCircle
 10
-17.30045714434368
 20
-2210.437781509161
 30
0.0
 40
0.3999999749499399
  0
CIRCLE
  5
199
330
1F
100
AcDbEntity
  8
0-C_ハッチ
  6
Continuous
 62
   120
370
     5
100
AcDbCircle
 10
-5.240240189108363
 20
-2218.477596226222
 30
0.0
 40
0.3999999749499399
  0
CIRCLE
  5
19A
330
1F
100
AcDbEntity
  8
0-C_ハッチ
  6
Continuous
 62
   120
370
     5
100
AcDbCircle
 10
-2.943998635054186
 20
-2183.44704565612
 30
0.0
 40
0.3999999749499399
  0
CIRCLE
  5
19B
330
1F
100
AcDbEntity
  8
0-C_ハッチ
  6
Continuous
 62
   120
370
     5
100
AcDbCircle
 10
-7.537471502452036
 20
-2202.972522060259
 30
0.0
 40
0.3999999749499399
  0
CIRCLE
  5
19C
330
1F
100
AcDbEntity
  8
0-C_ハッチ
  6
Continuous
 62
   120
370
     5
100
AcDbCircle
 10
-25.3402718614052
 20
-2192.635476029854
 30
0.0
 40
0.3999999749499399
  0
CIRCLE
  5
19D
330
1F
100
AcDbEntity
  8
0-C_ハッチ
  6
Continuous
 62
   120
370
     5
100
AcDbCircle
 10
-27.06344278623646
 20
-2173.109999625715
 30
0.0
 40
0.3999999749499399
  0
CIRCLE
  5
19E
330
1F
100
AcDbEntity
  8
0-C_ハッチ
  6
Continuous
 62
   120
370
     5
100
AcDbCircle
 10
-33.95414696697912
 20
-2183.44704565612
 30
0.0
 40
0.3999999749499399
  0
CIRCLE
  5
19F
330
1F
100
AcDbEntity
  8
0-C_ハッチ
  6
Continuous
 62
   120
370
     5
100
AcDbCircle
 10
-28.7856239517771
 20
-2201.823906403587
 30
0.0
 40
0.3999999749499399
  0
CIRCLE
  5
1A0
330
1F
100
AcDbEntity
  8
0-C_ハッチ
  6
Continuous
 62
   120
370
     5
100
AcDbCircle
 10
-2.943998635054186
 20
-2164.496124520141
 30
0.0
 40
0.3999999749499399
  0
CIRCLE
  5
1A1
330
1F
100
AcDbEntity
  8
0-C_ハッチ
  6
Continuous
 62
   120
370
     5
100
AcDbCircle
 10
-10.98381335211457
 20
-2177.704462252404
 30
0.0
 40
0.3999999749499399
  0
CIRCLE
  5
1A2
330
1F
100
AcDbEntity
  8
0-C_ハッチ
  6
Continuous
 62
   120
370
     5
100
AcDbCircle
 10
-15.00322583100001
 20
-2162.773448474955
 30
0.0
 40
0.3999999749499399
  0
CIRCLE
  5
1A3
330
1F
100
AcDbEntity
  8
0-C_ハッチ
  6
Continuous
 62
   120
370
     5
100
AcDbCircle
 10
-24.19116132508748
 20
-2164.496124520141
 30
0.0
 40
0.3999999749499399
  0
CIRCLE
  5
1A4
330
1F
100
AcDbEntity
  8
0-C_ハッチ
  6
Continuous
 62
   120
370
     5
100
AcDbCircle
 10
-34.52820735549381
 20
-2161.050772429769
 30
0.0
 40
0.3999999749499399
  0
CIRCLE
  5
1A5
330
1F
100
AcDbEntity
  8
0-C_ハッチ
  6
Continuous
 62
   120
370
     5
100
AcDbCircle
 10
-6.213173571709376
 20
-2129.901562917522
 30
0.0
 40
0.3999999749499399
  0
CIRCLE
  5
1A6
330
1F
100
AcDbEntity
  8
0-C_ハッチ
  6
Continuous
 62
   120
370
     5
100
AcDbCircle
 10
-19.29581187407393
 20
-2137.351481097421
 30
0.0
 40
0.3999999749499399
  0
CIRCLE
  5
1A7
330
1F
100
AcDbEntity
  8
0-C_ハッチ
  6
Continuous
 62
   120
370
     5
100
AcDbCircle
 10
-30.92449377863545
 20
-2132.80848595384
 30
0.0
 40
0.3999999749499399
  0
CIRCLE
  5
1A8
330
1F
100
AcDbEntity
  8
0-C_ハッチ
  6
Continuous
 62
   120
370
     5
100
AcDbCircle
 10
-40.19161001596672
 20
-2136.806123728333
 30
0.0
 40
0.3999999749499399
  0
CIRCLE
  5
1A9
330
1F
100
AcDbEntity
  8
0-C_ハッチ
  6
Continuous
 62
   120
370
     5
100
AcDbCircle
 10
-22.56696632931039
 20
-2124.086727085597
 30
0.0
 40
0.3999999749499399
  0
CIRCLE
  5
1AA
330
1F
100
AcDbEntity
  8
0-C_ハッチ
  6
Continuous
 62
   120
370
     5
100
AcDbCircle
 10
-10.7561687152895
 20
-2109.005764775631
 30
0.0
 40
0.3999999749499399
  0
CIRCLE
  5
1AB
330
1F
100
AcDbEntity
  8
0-C_ハッチ
  6
Continuous
 62
   120
370
     5
100
AcDbCircle
 10
-29.6526530902895
 20
-2104.281148802235
 30
0.0
 40
0.3999999749499399
  0
CIRCLE
  5
1AC
330
1F
100
AcDbEntity
  8
0-C_ハッチ
  6
Continuous
 62
   120
370
     5
100
AcDbCircle
 10
-23.65669130819583
 20
-2113.184528500293
 30
0.0
 40
0.3999999749499399
  0
CIRCLE
  5
1AD
330
1F
100
AcDbEntity
  8
0-C_ハッチ
  6
Continuous
 62
   120
370
     5
100
AcDbCircle
 10
-4.578091223736465
 20
-2116.818924615157
 30
0.0
 40
0.3999999749499399
  0
CIRCLE
  5
1AE
330
1F
100
AcDbEntity
  8
0-C_ハッチ
  6
Continuous
 62
   120
370
     5
100
AcDbCircle
 10
-23.11133393910836
 20
-2078.842850396407
 30
0.0
 40
0.3999999749499399
  0
CIRCLE
  5
1AF
330
1F
100
AcDbEntity
  8
0-C_ハッチ
  6
Continuous
 62
   120
370
     5
100
AcDbCircle
 10
-42.41262986393963
 20
-2089.314503690327
 30
0.0
 40
0.3999999749499399
  0
CIRCLE
  5
1B0
330
1F
100
AcDbEntity
  8
0-C_ハッチ
  6
Continuous
 62
   120
370
     5
100
AcDbCircle
 10
-26.33300042981659
 20
-2092.759855780698
 30
0.0
 40
0.3999999749499399
  0
CIRCLE
  5
1B1
330
1F
100
AcDbEntity
  8
0-C_ハッチ
  6
Continuous
 62
   120
370
     5
100
AcDbCircle
 10
-8.5311898301552
 20
-2092.185795392184
 30
0.0
 40
0.3999999749499399
  0
CIRCLE
  5
1B2
330
1F
100
AcDbEntity
  8
0-C_ハッチ
  6
Continuous
 62
   120
370
     5
100
AcDbCircle
 10
-14.27377323387077
 20
-2100.799670497759
 30
0.0
 40
0.3999999749499399
  0
CIRCLE
  5
1B3
330
1F
100
AcDbEntity
  8
0-C_ハッチ
  6
Continuous
 62
   120
370
     5
100
AcDbCircle
 10
-4.510787591979124
 20
-2099.076994452573
 30
0.0
 40
0.3999999749499399
  0
CIRCLE
  5
1B4
330
1F
100
AcDbEntity
  8
0-C_ハッチ
  6
Continuous
 62
   120
370
     5
100
AcDbCircle
 10
-11.9765419205271
 20
-2065.769119927657
 30
0.0
 40
0.3999999749499399
  0
CIRCLE
  5
1B5
330
1F
100
AcDbEntity
  8
0-C_ハッチ
  6
Continuous
 62
   120
370
     5
100
AcDbCircle
 10
-16.57100454721672
 20
-2085.294596331796
 30
0.0
 40
0.3999999749499399
  0
CIRCLE
  5
1B6
330
1F
100
AcDbEntity
  8
0-C_ハッチ
  6
Continuous
 62
   120
370
     5
100
AcDbCircle
 10
-34.37281514687811
 20
-2074.957550301391
 30
0.0
 40
0.3999999749499399
  0
CIRCLE
  5
1B7
330
1F
100
AcDbEntity
  8
0-C_ハッチ
  6
Continuous
 62
   120
370
     5
100
AcDbCircle
 10
-36.09598607170938
 20
-2055.432073897252
 30
0.0
 40
0.3999999749499399
  0
CIRCLE
  5
1B8
330
1F
100
AcDbEntity
  8
0-C_ハッチ
  6
Continuous
 62
   120
370
     5
100
AcDbCircle
 10
-42.98768001174381
 20
-2065.769119927657
 30
0.0
 40
0.3999999749499399
  0
CIRCLE
  5
1B9
330
1F
100
AcDbEntity
  8
0-C_ハッチ
  6
Continuous
 62
   120
370
     5
100
AcDbCircle
 10
-34.37281514687811
 20
-2107.691364437793
 30
0.0
 40
0.3999999749499399
  0
CIRCLE
  5
1BA
330
1F
100
AcDbEntity
  8
0-C_ハッチ
  6
Continuous
 62
   120
370
     5
100
AcDbCircle
 10
-42.41262986393963
 20
-2110.562656139651
 30
0.0
 40
0.3999999749499399
  0
CIRCLE
  5
1BB
330
1F
100
AcDbEntity
  8
0-C_ハッチ
  6
Continuous
 62
   120
370
     5
100
AcDbCircle
 10
-32.07657359282393
 20
-2122.047822947083
 30
0.0
 40
0.3999999749499399
  0
CIRCLE
  5
1BC
330
1F
100
AcDbEntity
  8
0-C_ハッチ
  6
Continuous
 62
   120
370
     5
100
AcDbCircle
 10
-37.8191569965395
 20
-2084.145980675124
 30
0.0
 40
0.3999999749499399
  0
CIRCLE
  5
1BD
330
1F
100
AcDbEntity
  8
0-C_ハッチ
  6
Continuous
 62
   120
370
     5
100
AcDbCircle
 10
-11.9765419205271
 20
-2046.818198791678
 30
0.0
 40
0.3999999749499399
  0
CIRCLE
  5
1BE
330
1F
100
AcDbEntity
  8
0-C_ハッチ
  6
Continuous
 62
   120
370
     5
100
AcDbCircle
 10
-5.084847980493805
 20
-2073.234874256205
 30
0.0
 40
0.3999999749499399
  0
CIRCLE
  5
1BF
330
1F
100
AcDbEntity
  8
0-C_ハッチ
  6
Continuous
 62
   120
370
     5
100
AcDbCircle
 10
-5.659898128296845
 20
-2045.095522746492
 30
0.0
 40
0.3999999749499399
  0
CIRCLE
  5
1C0
330
1F
100
AcDbEntity
  8
0-C_ハッチ
  6
Continuous
 62
   120
370
     5
100
AcDbCircle
 10
-20.59041702610102
 20
-2035.907092372759
 30
0.0
 40
0.3999999749499399
  0
CIRCLE
  5
1C1
330
1F
100
AcDbEntity
  8
0-C_ハッチ
  6
Continuous
 62
   120
370
     5
100
AcDbCircle
 10
-20.01635663758748
 20
-2060.026536523941
 30
0.0
 40
0.3999999749499399
  0
CIRCLE
  5
1C2
330
1F
100
AcDbEntity
  8
0-C_ハッチ
  6
Continuous
 62
   120
370
     5
100
AcDbCircle
 10
-24.03675887576242
 20
-2045.095522746492
 30
0.0
 40
0.3999999749499399
  0
CIRCLE
  5
1C3
330
1F
100
AcDbEntity
  8
0-C_ハッチ
  6
Continuous
 62
   120
370
     5
100
AcDbCircle
 10
-33.22469436985102
 20
-2046.818198791678
 30
0.0
 40
0.3999999749499399
  0
CIRCLE
  5
1C4
330
1F
100
AcDbEntity
  8
0-C_ハッチ
  6
Continuous
 62
   120
370
     5
100
AcDbCircle
 10
-43.56174040025621
 20
-2043.372846701306
 30
0.0
 40
0.3999999749499399
  0
CIRCLE
  5
1C5
330
1F
100
AcDbEntity
  8
0-C_ハッチ
  6
Continuous
 62
   120
370
     5
100
AcDbCircle
 10
-45.28392156579685
 20
-2041.527440504093
 30
0.0
 40
0.3999999749499399
  0
CIRCLE
  5
1C6
330
1F
100
AcDbEntity
  8
0-C_ハッチ
  6
Continuous
 62
   120
370
     5
100
AcDbCircle
 10
-10.25337099569583
 20
-2119.962400121914
 30
0.0
 40
0.3999999749499399
  0
CIRCLE
  5
1C7
330
1F
100
AcDbEntity
  8
0-C_ハッチ
  6
Continuous
 62
   120
370
     5
100
AcDbCircle
 10
-16.57100454721672
 20
-2134.892919019718
 30
0.0
 40
0.3999999749499399
  0
CIRCLE
  5
1C8
330
1F
100
AcDbEntity
  8
0-C_ハッチ
  6
Continuous
 62
   120
370
     5
100
AcDbCircle
 10
-28.05617135464786
 20
-2127.427659570816
 30
0.0
 40
0.3999999749499399
  0
CIRCLE
  5
1C9
330
1F
100
AcDbEntity
  8
0-C_ハッチ
  6
Continuous
 62
   120
370
     5
100
AcDbCircle
 10
-33.79875475836457
 20
-2119.962400121914
 30
0.0
 40
0.3999999749499399
  0
CIRCLE
  5
1CA
330
1F
100
AcDbEntity
  8
0-C_ハッチ
  6
Continuous
 62
   120
370
     5
100
AcDbCircle
 10
-42.98768001174381
 20
-2138.913321257894
 30
0.0
 40
0.3999999749499399
  0
CIRCLE
  5
1CB
330
1F
100
AcDbEntity
  8
0-C_ハッチ
  6
Continuous
 62
   120
370
     5
100
AcDbCircle
 10
-42.98768001174381
 20
-2149.250367288299
 30
0.0
 40
0.3999999749499399
  0
CIRCLE
  5
1CC
330
1F
100
AcDbEntity
  8
0-C_ハッチ
  6
Continuous
 62
   120
370
     5
100
AcDbCircle
 10
-33.79875475836457
 20
-2149.824427676813
 30
0.0
 40
0.3999999749499399
  0
CIRCLE
  5
1CD
330
1F
100
AcDbEntity
  8
0-C_ハッチ
  6
Continuous
 62
   120
370
     5
100
AcDbCircle
 10
-11.9765419205271
 20
-2148.101256751982
 30
0.0
 40
0.3999999749499399
  0
CIRCLE
  5
1CE
330
1F
100
AcDbEntity
  8
0-C_ハッチ
  6
Continuous
 62
   120
370
     5
100
AcDbCircle
 10
-32.65063398133748
 20
-2132.02162731786
 30
0.0
 40
0.3999999749499399
  0
CIRCLE
  5
1CF
330
1F
100
AcDbEntity
  8
0-C_ハッチ
  6
Continuous
 62
   120
370
     5
100
AcDbCircle
 10
-8.5311898301552
 20
-2128.002214838975
 30
0.0
 40
0.3999999749499399
  0
CIRCLE
  5
1D0
330
1F
100
AcDbEntity
  8
0-C_ハッチ
  6
Continuous
 62
   120
370
     5
100
AcDbCircle
 10
-45.28392156579685
 20
-2123.981812600799
 30
0.0
 40
0.3999999749499399
  0
CIRCLE
  5
1D1
330
1F
100
AcDbEntity
  8
0-C_ハッチ
  6
Continuous
 62
   120
370
     5
100
AcDbCircle
 10
-20.61986236499479
 20
-2224.084335167312
 30
0.0
 40
0.3999999749499399
  0
CIRCLE
  5
1D2
330
1F
100
AcDbEntity
  8
0-C_ハッチ
  6
Continuous
 62
   120
370
     5
100
AcDbCircle
 10
-14.07854321381251
 20
-2249.523128452784
 30
0.0
 40
0.3999999749499399
  0
CIRCLE
  5
1D3
330
1F
100
AcDbEntity
  8
0-C_ハッチ
  6
Continuous
 62
   120
370
     5
100
AcDbCircle
 10
-33.37983913864377
 20
-2239.051475158865
 30
0.0
 40
0.3999999749499399
  0
CIRCLE
  5
1D4
330
1F
100
AcDbEntity
  8
0-C_ハッチ
  6
Continuous
 62
   120
370
     5
100
AcDbCircle
 10
-17.30020970452188
 20
-2235.606123068494
 30
0.0
 40
0.3999999749499399
  0
CIRCLE
  5
1D5
330
1F
100
AcDbEntity
  8
0-C_ハッチ
  6
Continuous
 62
   120
370
     5
100
AcDbCircle
 10
-5.23999274928542
 20
-2227.566308351433
 30
0.0
 40
0.3999999749499399
  0
CIRCLE
  5
1D6
330
1F
100
AcDbEntity
  8
0-C_ハッチ
  6
Continuous
 62
   120
370
     5
100
AcDbCircle
 10
-2.943751195231243
 20
-2262.596858921534
 30
0.0
 40
0.3999999749499399
  0
CIRCLE
  5
1D7
330
1F
100
AcDbEntity
  8
0-C_ハッチ
  6
Continuous
 62
   120
370
     5
100
AcDbCircle
 10
-7.537224062629093
 20
-2243.070887637751
 30
0.0
 40
0.3999999749499399
  0
CIRCLE
  5
1D8
330
1F
100
AcDbEntity
  8
0-C_ハッチ
  6
Continuous
 62
   120
370
     5
100
AcDbCircle
 10
-25.34002442158226
 20
-2253.407933668156
 30
0.0
 40
0.3999999749499399
  0
CIRCLE
  5
1D9
330
1F
100
AcDbEntity
  8
0-C_ハッチ
  6
Continuous
 62
   120
370
     5
100
AcDbCircle
 10
-27.06319534641352
 20
-2272.933904951939
 30
0.0
 40
0.3999999749499399
  0
CIRCLE
  5
1DA
330
1F
100
AcDbEntity
  8
0-C_ハッチ
  6
Continuous
 62
   120
370
     5
100
AcDbCircle
 10
-33.95389952715618
 20
-2262.596858921534
 30
0.0
 40
0.3999999749499399
  0
CIRCLE
  5
1DB
330
1F
100
AcDbEntity
  8
0-C_ハッチ
  6
Continuous
 62
   120
370
     5
100
AcDbCircle
 10
-28.78537651195415
 20
-2244.219998174068
 30
0.0
 40
0.3999999749499399
  0
CIRCLE
  5
1DC
330
1F
100
AcDbEntity
  8
0-C_ハッチ
  6
Continuous
 62
   120
370
     5
100
AcDbCircle
 10
-2.943751195231243
 20
-2281.547780057514
 30
0.0
 40
0.3999999749499399
  0
CIRCLE
  5
1DD
330
1F
100
AcDbEntity
  8
0-C_ハッチ
  6
Continuous
 62
   120
370
     5
100
AcDbCircle
 10
-10.98356591229162
 20
-2268.339442325251
 30
0.0
 40
0.3999999749499399
  0
CIRCLE
  5
1DE
330
1F
100
AcDbEntity
  8
0-C_ハッチ
  6
Continuous
 62
   120
370
     5
100
AcDbCircle
 10
-15.00297839117707
 20
-2283.269961223055
 30
0.0
 40
0.3999999749499399
  0
CIRCLE
  5
1DF
330
1F
100
AcDbEntity
  8
0-C_ハッチ
  6
Continuous
 62
   120
370
     5
100
AcDbCircle
 10
-24.19091388526454
 20
-2281.547780057514
 30
0.0
 40
0.3999999749499399
  0
CIRCLE
  5
1E0
330
1F
100
AcDbEntity
  8
0-C_ハッチ
  6
Continuous
 62
   120
370
     5
100
AcDbCircle
 10
-34.52795991567086
 20
-2284.993132147885
 30
0.0
 40
0.3999999749499399
  0
CIRCLE
  5
1E1
330
1F
100
AcDbEntity
  8
0-C_ハッチ
  6
Continuous
 62
   120
370
     5
100
AcDbCircle
 10
-6.212926131886434
 20
-2316.141846780487
 30
0.0
 40
0.3999999749499399
  0
CIRCLE
  5
1E2
330
1F
100
AcDbEntity
  8
0-C_ハッチ
  6
Continuous
 62
   120
370
     5
100
AcDbCircle
 10
-19.29556443425213
 20
-2308.691928600588
 30
0.0
 40
0.3999999749499399
  0
CIRCLE
  5
1E3
330
1F
100
AcDbEntity
  8
0-C_ハッチ
  6
Continuous
 62
   120
370
     5
100
AcDbCircle
 10
-30.92424633881251
 20
-2313.234923744169
 30
0.0
 40
0.3999999749499399
  0
CIRCLE
  5
1E4
330
1F
100
AcDbEntity
  8
0-C_ハッチ
  6
Continuous
 62
   120
370
     5
100
AcDbCircle
 10
-40.19136257614377
 20
-2309.237285969676
 30
0.0
 40
0.3999999749499399
  0
CIRCLE
  5
1E5
330
1F
100
AcDbEntity
  8
0-C_ハッチ
  6
Continuous
 62
   120
370
     5
100
AcDbCircle
 10
-22.56671888948745
 20
-2321.956682612412
 30
0.0
 40
0.3999999749499399
  0
CIRCLE
  5
1E6
330
1F
100
AcDbEntity
  8
0-C_ハッチ
  6
Continuous
 62
   120
370
     5
100
AcDbCircle
 10
-16.57075710739377
 20
-2311.150490678291
 30
0.0
 40
0.3999999749499399
  0
CIRCLE
  5
1E7
330
1F
100
AcDbEntity
  8
0-C_ハッチ
  6
Continuous
 62
   120
370
     5
100
AcDbCircle
 10
-28.05592391482492
 20
-2318.616245006838
 30
0.0
 40
0.3999999749499399
  0
CIRCLE
  5
1E8
330
1F
100
AcDbEntity
  8
0-C_ハッチ
  6
Continuous
 62
   120
370
     5
100
AcDbCircle
 10
-42.98743257192086
 20
-2307.130088440115
 30
0.0
 40
0.3999999749499399
  0
CIRCLE
  5
1E9
330
1F
100
AcDbEntity
  8
0-C_ハッチ
  6
Continuous
 62
   120
370
     5
100
AcDbCircle
 10
-42.98743257192086
 20
-2296.79304240971
 30
0.0
 40
0.3999999749499399
  0
CIRCLE
  5
1EA
330
1F
100
AcDbEntity
  8
0-C_ハッチ
  6
Continuous
 62
   120
370
     5
100
AcDbCircle
 10
-33.79850731854162
 20
-2296.218982021197
 30
0.0
 40
0.3999999749499399
  0
CIRCLE
  5
1EB
330
1F
100
AcDbEntity
  8
0-C_ハッチ
  6
Continuous
 62
   120
370
     5
100
AcDbCircle
 10
-11.97629448070415
 20
-2297.942152946028
 30
0.0
 40
0.3999999749499399
  0
CIRCLE
  5
1EC
330
1F
100
AcDbEntity
  8
0-C_ハッチ
  6
Continuous
 62
   120
370
     5
100
AcDbCircle
 10
-32.65038654151454
 20
-2314.021782380149
 30
0.0
 40
0.3999999749499399
  0
CIRCLE
  5
1ED
330
1F
100
AcDbEntity
  8
0-C_ハッチ
  6
Continuous
 62
   120
370
     5
100
AcDbCircle
 10
-8.530942390332257
 20
-2318.041194859034
 30
0.0
 40
0.3999999749499399
  0
CIRCLE
  5
1EE
330
1F
100
AcDbEntity
  8
0-C_ハッチ
  6
Continuous
 62
   120
370
     5
100
AcDbCircle
 10
-45.28367412597504
 20
-2322.06159709721
 30
0.0
 40
0.3999999749499399
  0
LINE
  5
1EF
330
1F
100
AcDbEntity
  8
0-3_仕上げ
  6
Continuous
 62
    40
370
    15
100
AcDbLine
 10
-0.8041390489051992
 20
-2328.786272440399
 30
0.0
 11
-0.8041390489051992
 21
-2030.517605595943
 31
0.0
  0
LINE
  5
1F0
330
1F
100
AcDbEntity
  8
0-3_仕上げ
  6
Continuous
 62
    40
370
    15
100
AcDbLine
 10
-0.8041390489051992
 20
-1965.683112006688
 30
0.0
 11
-0.8041390489051992
 21
-1667.414445162232
 31
0.0
  0
LINE
  5
1F1
330
1F
100
AcDbEntity
  8
巾木
  6
Continuous
 62
     7
370
     9
100
AcDbLine
 10
-86.80405656896369
 20
-2148.786272440399
 30
0.0
 11
-78.80405656896414
 21
-2148.786272440399
 31
0.0
  0
LINE
  5
1F2
330
1F
100
AcDbEntity
  8
巾木
  6
Continuous
 62
     7
370
     9
100
AcDbLine
 10
-78.80405656896414
 20
-2148.786272440399
 30
0.0
 11
-78.80405656896414
 21
-2168.786272440399
 31
0.0
  0
LINE
  5
1F3
330
1F
100
AcDbEntity
  8
巾木
  6
Continuous
 62
     7
370
     9
100
AcDbLine
 10
-78.80405656896414
 20
-2168.786272440399
 30
0.0
 11
-86.80405656896369
 21
-2168.786272440399
 31
0.0
  0
LINE
  5
1F4
330
1F
100
AcDbEntity
  8
巾木
  6
Continuous
 62
     7
370
     9
100
AcDbLine
 10
-75.49034806997952
 20
-2088.786272440399
 30
0.0
 11
-50.8040565689646
 21
-2088.786272440399
 31
0.0
  0
LINE
  5
1F5
330
1F
100
AcDbEntity
  8
巾木
  6
Continuous
 62
     7
370
     9
100
AcDbLine
 10
-86.80405656896369
 20
-2100.099980939384
 30
0.0
 11
-86.80405656896369
 21
-2148.786272440399
 31
0.0
  0
LINE
  5
1F6
330
1F
100
AcDbEntity
  8
巾木
  6
Continuous
 62
     7
370
     9
100
AcDbLine
 10
-75.49034806997952
 20
-2088.786272440399
 30
0.0
 11
-86.80405656896369
 21
-2100.099980939384
 31
0.0
  0
LINE
  5
1F7
330
1F
100
AcDbEntity
  8
巾木
  6
Continuous
 62
     7
370
     9
100
AcDbLine
 10
-86.80405656896369
 20
-2328.786272440399
 30
0.0
 11
-86.80405656896369
 21
-2168.786272440399
 31
0.0
  0
LINE
  5
1F8
330
1F
100
AcDbEntity
  8
巾木
  6
Continuous
 62
    40
370
    15
100
AcDbLine
 10
-50.8040565689646
 20
-2030.517605595943
 30
0.0
 11
-50.8040565689646
 21
-2328.786272440399
 31
0.0
  0
LINE
  5
1F9
330
1F
100
AcDbEntity
  8
巾木
  6
Continuous
 62
     7
370
     9
100
AcDbLine
 10
-50.8040565689646
 20
-2328.786272440399
 30
0.0
 11
-86.80405656896369
 21
-2328.786272440399
 31
0.0
  0
LINE
  5
1FA
330
1F
100
AcDbEntity
  8
0-4_枠
  6
Continuous
 62
    92
370
    13
100
AcDbLine
 10
289.1954419529964
 20
-1547.414445162232
 30
0.0
 11
289.1954419529964
 21
-1667.414445162232
 31
0.0
  0
LINE
  5
1FB
330
1F
100
AcDbEntity
  8
0-4_枠
  6
Continuous
 62
   200
370
    20
100
AcDbLine
 10
-98.80405656896414
 20
-1667.414445162232
 30
0.0
 11
-50.8040565689646
 21
-1667.414445162232
 31
0.0
  0
LINE
  5
1FC
330
1F
100
AcDbEntity
  8
0-4_枠
  6
Continuous
 62
    92
370
    13
100
AcDbLine
 10
-98.80405656896414
 20
-1667.414445162232
 30
0.0
 11
-98.80405656896414
 21
-1547.414445162232
 31
0.0
  0
LINE
  5
1FD
330
1F
100
AcDbEntity
  8
0-4_枠
  6
Continuous
 62
    92
370
    13
100
AcDbLine
 10
-98.80405656896414
 20
-1547.414445162232
 30
0.0
 11
289.1954419529964
 21
-1547.414445162232
 31
0.0
  0
LINE
  5
1FE
330
1F
100
AcDbEntity
  8
0-4_枠
  6
Continuous
 62
    92
370
    13
100
AcDbLine
 10
-98.80405656896414
 20
-1667.414445162232
 30
0.0
 11
289.1954419529964
 21
-1667.414445162232
 31
0.0
  0
LINE
  5
1FF
330
1F
100
AcDbEntity
  8
0-0_補助線
  6
JWW_HOJO
 62
     7
370
     9
100
AcDbLine
 10
429.3752800898358
 20
-1965.683112006688
 30
0.0
 11
-530.983393227765
 21
-1965.683112006688
 31
0.0
  0
LINE
  5
200
330
1F
100
AcDbEntity
  8
0-0_補助線
  6
JWW_HOJO
 62
     7
370
     9
100
AcDbLine
 10
429.3752800898358
 20
-2030.517605606688
 30
0.0
 11
-530.983393227765
 21
-2030.517605606688
 31
0.0
  0
LINE
  5
201
330
1F
100
AcDbEntity
  8
0-0_補助線
  6
JWW_HOJO
 62
     7
370
     9
100
AcDbLine
 10
429.3752800898358
 20
-933.2511772880137
 30
0.0
 11
-530.983393227765
 21
-933.2511772880137
 31
0.0
  0
LINE
  5
202
330
1F
100
AcDbEntity
  8
0-0_補助線
  6
JWW_HOJO
 62
     7
370
     9
100
AcDbLine
 10
429.3752800898358
 20
-868.4166836880136
 30
0.0
 11
-530.983393227765
 21
-868.4166836880136
 31
0.0
  0
LINE
  5
203
330
1F
100
AcDbEntity
  8
0-C_ハッチ
  6
Continuous
 62
   120
370
     5
100
AcDbLine
 10
-1282.824294641723
 20
1126.666259765626
 30
0.0
 11
-1264.49370514109
 21
1144.997096706082
 31
0.0
  0
LINE
  5
204
330
1F
100
AcDbEntity
  8
0-C_ハッチ
  6
Continuous
 62
   120
370
     5
100
AcDbLine
 10
-1311.1086458875
 20
1126.666259765626
 30
0.0
 11
-1264.49370514109
 21
1173.281447951859
 31
0.0
  0
LINE
  5
205
330
1F
100
AcDbEntity
  8
0-C_ハッチ
  6
Continuous
 62
   120
370
     5
100
AcDbLine
 10
-1339.392749693455
 20
1126.666259765626
 30
0.0
 11
-1264.49370514109
 21
1201.565304317991
 31
0.0
  0
LINE
  5
206
330
1F
100
AcDbEntity
  8
0-C_ハッチ
  6
Continuous
 62
   120
370
     5
100
AcDbLine
 10
-1367.67685349941
 20
1126.666259765626
 30
0.0
 11
-1264.49370514109
 21
1229.849655563768
 31
0.0
  0
LINE
  5
207
330
1F
100
AcDbEntity
  8
0-C_ハッチ
  6
Continuous
 62
   120
370
     5
100
AcDbLine
 10
-1384.493606165161
 20
1138.134105785474
 30
0.0
 11
-1264.49370514109
 21
1258.134006809545
 31
0.0
  0
LINE
  5
208
330
1F
100
AcDbEntity
  8
0-C_ハッチ
  6
Continuous
 62
   120
370
     5
100
AcDbLine
 10
-1384.493606165161
 20
1166.418457031251
 30
0.0
 11
-1264.49370514109
 21
1286.418358055322
 31
0.0
  0
LINE
  5
209
330
1F
100
AcDbEntity
  8
0-C_ハッチ
  6
Continuous
 62
   120
370
     5
100
AcDbLine
 10
-1384.493606165161
 20
1194.702808277028
 30
0.0
 11
-1264.49370514109
 21
1314.702709301099
 31
0.0
  0
LINE
  5
20A
330
1F
100
AcDbEntity
  8
0-C_ハッチ
  6
Continuous
 62
   120
370
     5
100
AcDbLine
 10
-1384.493606165161
 20
1222.987159522805
 30
0.0
 11
-1264.49370514109
 21
1342.987060546876
 31
0.0
  0
LINE
  5
20B
330
1F
100
AcDbEntity
  8
0-C_ハッチ
  6
Continuous
 62
   120
370
     5
100
AcDbLine
 10
-1384.493606165161
 20
1251.271510768582
 30
0.0
 11
-1264.49370514109
 21
1371.271411792653
 31
0.0
  0
LINE
  5
20C
330
1F
100
AcDbEntity
  8
0-C_ハッチ
  6
Continuous
 62
   120
370
     5
100
AcDbLine
 10
-1384.493606165161
 20
1279.555862014359
 30
0.0
 11
-1264.49370514109
 21
1399.555268158785
 31
0.0
  0
LINE
  5
20D
330
1F
100
AcDbEntity
  8
0-C_ハッチ
  6
Continuous
 62
   120
370
     5
100
AcDbLine
 10
-1384.493606165161
 20
1307.839718380491
 30
0.0
 11
-1264.49370514109
 21
1427.839619404562
 31
0.0
  0
LINE
  5
20E
330
1F
100
AcDbEntity
  8
0-C_ハッチ
  6
Continuous
 62
   120
370
     5
100
AcDbLine
 10
-1384.493606165161
 20
1336.124069626268
 30
0.0
 11
-1264.49370514109
 21
1456.123970650339
 31
0.0
  0
LINE
  5
20F
330
1F
100
AcDbEntity
  8
0-C_ハッチ
  6
Continuous
 62
   120
370
     5
100
AcDbLine
 10
-1384.493606165161
 20
1364.408420872045
 30
0.0
 11
-1264.49370514109
 21
1484.408321896116
 31
0.0
  0
LINE
  5
210
330
1F
100
AcDbEntity
  8
0-C_ハッチ
  6
Continuous
 62
   120
370
     5
100
AcDbLine
 10
-1384.493606165161
 20
1392.692772117822
 30
0.0
 11
-1264.49370514109
 21
1512.692673141893
 31
0.0
  0
LINE
  5
211
330
1F
100
AcDbEntity
  8
0-C_ハッチ
  6
Continuous
 62
   120
370
     5
100
AcDbLine
 10
-1384.493606165161
 20
1420.976628483954
 30
0.0
 11
-1269.648618966048
 21
1535.82186312289
 31
0.0
  0
LINE
  5
212
330
1F
100
AcDbEntity
  8
0-C_ハッチ
  6
Continuous
 62
   120
370
     5
100
AcDbLine
 10
-1384.493606165161
 20
1449.260979729731
 30
0.0
 11
-1287.087930225549
 21
1546.666655669342
 31
0.0
  0
LINE
  5
213
330
1F
100
AcDbEntity
  8
0-C_ハッチ
  6
Continuous
 62
   120
370
     5
100
AcDbLine
 10
-1384.493606165161
 20
1477.545330975508
 30
0.0
 11
-1315.372281471326
 21
1546.666655669342
 31
0.0
  0
LINE
  5
214
330
1F
100
AcDbEntity
  8
0-C_ハッチ
  6
Continuous
 62
   120
370
     5
100
AcDbLine
 10
-1384.493606165161
 20
1505.829682221285
 30
0.0
 11
-1343.656632717103
 21
1546.666655669342
 31
0.0
  0
LINE
  5
215
330
1F
100
AcDbEntity
  8
0-C_ハッチ
  6
Continuous
 62
   120
370
     5
100
AcDbLine
 10
-1384.493606165161
 20
1534.114033467062
 30
0.0
 11
-1371.940736523057
 21
1546.666655669342
 31
0.0
  0
LINE
  5
216
330
1F
100
AcDbEntity
  8
0-C_ハッチ
  6
Continuous
 62
   120
370
     5
100
AcDbLine
 10
998.8244958724238
 20
1126.666259765626
 30
0.0
 11
980.4941538116123
 21
1144.997096706082
 31
0.0
  0
LINE
  5
217
330
1F
100
AcDbEntity
  8
0-C_ハッチ
  6
Continuous
 62
   120
370
     5
100
AcDbLine
 10
1027.108847118201
 20
1126.666259765626
 30
0.0
 11
980.4941538116123
 21
1173.281447951859
 31
0.0
  0
LINE
  5
218
330
1F
100
AcDbEntity
  8
0-C_ハッチ
  6
Continuous
 62
   120
370
     5
100
AcDbLine
 10
1055.393198363977
 20
1126.666259765626
 30
0.0
 11
980.4941538116123
 21
1201.565304317991
 31
0.0
  0
LINE
  5
219
330
1F
100
AcDbEntity
  8
0-C_ハッチ
  6
Continuous
 62
   120
370
     5
100
AcDbLine
 10
1083.677549609754
 20
1126.666259765626
 30
0.0
 11
980.4941538116123
 21
1229.849655563768
 31
0.0
  0
LINE
  5
21A
330
1F
100
AcDbEntity
  8
0-C_ハッチ
  6
Continuous
 62
   120
370
     5
100
AcDbLine
 10
1100.494054835683
 20
1138.134105785474
 30
0.0
 11
980.4941538116123
 21
1258.134006809545
 31
0.0
  0
LINE
  5
21B
330
1F
100
AcDbEntity
  8
0-C_ハッチ
  6
Continuous
 62
   120
370
     5
100
AcDbLine
 10
1100.494054835683
 20
1166.418457031251
 30
0.0
 11
980.4941538116123
 21
1286.418358055322
 31
0.0
  0
LINE
  5
21C
330
1F
100
AcDbEntity
  8
0-C_ハッチ
  6
Continuous
 62
   120
370
     5
100
AcDbLine
 10
1100.494054835683
 20
1194.702808277028
 30
0.0
 11
980.4941538116123
 21
1314.702709301099
 31
0.0
  0
LINE
  5
21D
330
1F
100
AcDbEntity
  8
0-C_ハッチ
  6
Continuous
 62
   120
370
     5
100
AcDbLine
 10
1100.494054835683
 20
1222.987159522805
 30
0.0
 11
980.4941538116123
 21
1342.987060546876
 31
0.0
  0
LINE
  5
21E
330
1F
100
AcDbEntity
  8
0-C_ハッチ
  6
Continuous
 62
   120
370
     5
100
AcDbLine
 10
1100.494054835683
 20
1251.271510768582
 30
0.0
 11
980.4941538116123
 21
1371.271411792653
 31
0.0
  0
LINE
  5
21F
330
1F
100
AcDbEntity
  8
0-C_ハッチ
  6
Continuous
 62
   120
370
     5
100
AcDbLine
 10
1100.494054835683
 20
1279.555862014359
 30
0.0
 11
980.4941538116123
 21
1399.555268158785
 31
0.0
  0
LINE
  5
220
330
1F
100
AcDbEntity
  8
0-C_ハッチ
  6
Continuous
 62
   120
370
     5
100
AcDbLine
 10
1100.494054835683
 20
1307.839718380491
 30
0.0
 11
980.4941538116123
 21
1427.839619404562
 31
0.0
  0
LINE
  5
221
330
1F
100
AcDbEntity
  8
0-C_ハッチ
  6
Continuous
 62
   120
370
     5
100
AcDbLine
 10
1100.494054835683
 20
1336.124069626268
 30
0.0
 11
980.4941538116123
 21
1456.123970650339
 31
0.0
  0
LINE
  5
222
330
1F
100
AcDbEntity
  8
0-C_ハッチ
  6
Continuous
 62
   120
370
     5
100
AcDbLine
 10
1100.494054835683
 20
1364.408420872045
 30
0.0
 11
980.4941538116123
 21
1484.408321896116
 31
0.0
  0
LINE
  5
223
330
1F
100
AcDbEntity
  8
0-C_ハッチ
  6
Continuous
 62
   120
370
     5
100
AcDbLine
 10
1100.494054835683
 20
1392.692772117822
 30
0.0
 11
980.4941538116123
 21
1512.692673141893
 31
0.0
  0
LINE
  5
224
330
1F
100
AcDbEntity
  8
0-C_ハッチ
  6
Continuous
 62
   120
370
     5
100
AcDbLine
 10
1100.494054835683
 20
1420.976628483954
 30
0.0
 11
985.6488201967477
 21
1535.82186312289
 31
0.0
  0
LINE
  5
225
330
1F
100
AcDbEntity
  8
0-C_ハッチ
  6
Continuous
 62
   120
370
     5
100
AcDbLine
 10
1100.494054835683
 20
1449.260979729731
 30
0.0
 11
1003.088378896072
 21
1546.666655669342
 31
0.0
  0
LINE
  5
226
330
1F
100
AcDbEntity
  8
0-C_ハッチ
  6
Continuous
 62
   120
370
     5
100
AcDbLine
 10
1100.494054835683
 20
1477.545330975508
 30
0.0
 11
1031.372730141849
 21
1546.666655669342
 31
0.0
  0
LINE
  5
227
330
1F
100
AcDbEntity
  8
0-C_ハッチ
  6
Continuous
 62
   120
370
     5
100
AcDbLine
 10
1100.494054835683
 20
1505.829682221285
 30
0.0
 11
1059.657081387626
 21
1546.666655669342
 31
0.0
  0
LINE
  5
228
330
1F
100
AcDbEntity
  8
0-C_ハッチ
  6
Continuous
 62
   120
370
     5
100
AcDbLine
 10
1100.494054835683
 20
1534.114033467062
 30
0.0
 11
1087.941432633403
 21
1546.666655669342
 31
0.0
  0
LINE
  5
229
330
1F
100
AcDbEntity
  8
0-0_補助線
  6
JWW_HOJO
 62
   120
370
     5
100
AcDbLine
 10
-141.9997756647388
 20
2084.857177734376
 30
0.0
 11
-141.9997756647388
 21
869.9335871516058
 31
0.0
  0
LINE
  5
22A
330
1F
100
AcDbEntity
  8
0-0_補助線
  6
JWW_HOJO
 62
   120
370
     5
100
AcDbLine
 10
-1384.493358725339
 20
1546.666655669342
 30
0.0
 11
-1423.256044140245
 21
1546.666655669342
 31
0.0
  0
LINE
  5
22B
330
1F
100
AcDbEntity
  8
0-0_補助線
  6
JWW_HOJO
 62
   120
370
     5
100
AcDbLine
 10
1100.493559956038
 20
1546.666655669342
 30
0.0
 11
1139.256492810767
 21
1546.666655669342
 31
0.0
  0
LINE
  5
22C
330
1F
100
AcDbEntity
  8
0-B_寸法
  6
Continuous
 62
   120
370
     5
100
AcDbLine
 10
-1716.49376122745
 20
1806.667018581082
 30
0.0
 11
-1716.49376122745
 21
2006.666688661318
 31
0.0
  0
LINE
  5
22D
330
1F
100
AcDbEntity
  8
0-B_寸法
  6
Continuous
 62
   120
370
     5
100
AcDbLine
 10
-1716.493513787627
 20
2006.666688661318
 30
0.0
 11
1432.49396245815
 21
2006.666688661318
 31
0.0
  0
LINE
  5
22E
330
1F
100
AcDbEntity
  8
0-B_寸法
  6
Continuous
 62
   120
370
     5
100
AcDbLine
 10
1222.494754265582
 20
1806.667018581082
 30
0.0
 11
1222.494754265582
 21
2006.666688661318
 31
0.0
  0
LINE
  5
22F
330
1F
100
AcDbEntity
  8
0-B_寸法
  6
Continuous
 62
   120
370
     5
100
AcDbLine
 10
1432.49396245815
 20
1806.667018581082
 30
0.0
 11
1432.49396245815
 21
2126.666589685388
 31
0.0
  0
LINE
  5
230
330
1F
100
AcDbEntity
  8
0-B_寸法
  6
Continuous
 62
   120
370
     5
100
AcDbLine
 10
-1716.493513787627
 20
1926.666424725507
 30
0.0
 11
-1716.493513787627
 21
2126.666589685388
 31
0.0
  0
LINE
  5
231
330
1F
100
AcDbEntity
  8
0-B_寸法
  6
Continuous
 62
   120
370
     5
100
AcDbLine
 10
-1264.49370514109
 20
766.6665566934131
 30
0.0
 11
980.4941538116123
 21
766.6665566934131
 31
0.0
  0
LINE
  5
232
330
1F
100
AcDbEntity
  8
0-B_寸法
  6
Continuous
 62
   120
370
     5
100
AcDbLine
 10
-1264.49370514109
 20
966.6667216532949
 30
0.0
 11
-1264.49370514109
 21
646.6666556693423
 31
0.0
  0
LINE
  5
233
330
1F
100
AcDbEntity
  8
0-B_寸法
  6
Continuous
 62
   120
370
     5
100
AcDbLine
 10
-1256.493728235473
 20
966.6667216532949
 30
0.0
 11
-1256.493728235473
 21
766.6665566934131
 31
0.0
  0
LINE
  5
234
330
1F
100
AcDbEntity
  8
0-B_寸法
  6
Continuous
 62
   120
370
     5
100
AcDbLine
 10
-145.9998878374586
 20
966.6667216532949
 30
0.0
 11
-145.9998878374586
 21
766.6665566934131
 31
0.0
  0
LINE
  5
235
330
1F
100
AcDbEntity
  8
0-B_寸法
  6
Continuous
 62
   120
370
     5
100
AcDbLine
 10
-137.999663492019
 20
966.6667216532949
 30
0.0
 11
-137.999663492019
 21
766.6665566934131
 31
0.0
  0
LINE
  5
236
330
1F
100
AcDbEntity
  8
0-B_寸法
  6
Continuous
 62
   120
370
     5
100
AcDbLine
 10
972.4939294661738
 20
966.6667216532949
 30
0.0
 11
972.4939294661738
 21
766.6665566934131
 31
0.0
  0
LINE
  5
237
330
1F
100
AcDbEntity
  8
0-B_寸法
  6
Continuous
 62
   120
370
     5
100
AcDbLine
 10
980.4941538116123
 20
966.6667216532949
 30
0.0
 11
980.4941538116123
 21
646.6666556693423
 31
0.0
  0
LINE
  5
238
330
1F
100
AcDbEntity
  8
0-B_寸法
  6
Continuous
 62
   120
370
     5
100
AcDbLine
 10
-1264.49370514109
 20
646.6666556693423
 30
0.0
 11
980.4941538116123
 21
646.6666556693423
 31
0.0
  0
LINE
  5
239
330
1F
100
AcDbEntity
  8
0-B_寸法
  6
Continuous
 62
   120
370
     5
100
AcDbLine
 10
-1384.493606165161
 20
526.6665072054485
 30
0.0
 11
1100.494054835683
 21
526.6665072054485
 31
0.0
  0
LINE
  5
23A
330
1F
100
AcDbEntity
  8
0-B_寸法
  6
Continuous
 62
   120
370
     5
100
AcDbLine
 10
-1474.886095211825
 20
1126.667744404562
 30
0.0
 11
-1474.886095211825
 21
1176.666424725508
 31
0.0
  0
LINE
  5
23B
330
1F
100
AcDbEntity
  8
0-B_寸法
  6
Continuous
 62
   120
370
     5
100
AcDbLine
 10
-1407.290237024536
 20
1126.667744404562
 30
0.0
 11
-1474.886095211825
 21
1126.667744404562
 31
0.0
  0
LINE
  5
23C
330
1F
100
AcDbEntity
  8
0-B_寸法
  6
Continuous
 62
   120
370
     5
100
AcDbLine
 10
-1407.290237024536
 20
1176.666424725508
 30
0.0
 11
-1474.886095211825
 21
1176.666424725508
 31
0.0
  0
LINE
  5
23D
330
1F
100
AcDbEntity
  8
0-B_寸法
  6
Continuous
 62
   120
370
     5
100
AcDbLine
 10
-1068.154412357095
 20
1126.666259765626
 30
0.0
 11
-1068.154412357095
 21
1546.666655669342
 31
0.0
  0
LINE
  5
23E
330
1F
100
AcDbEntity
  8
0-B_寸法
  6
Continuous
 62
   120
370
     5
100
AcDbLine
 10
-1185.098184131799
 20
1126.666259765626
 30
0.0
 11
-1068.154412357095
 21
1126.666259765626
 31
0.0
  0
LINE
  5
23F
330
1F
100
AcDbEntity
  8
0-B_寸法
  6
Continuous
 62
   120
370
     5
100
AcDbLine
 10
-1185.098184131799
 20
1546.666655669342
 30
0.0
 11
-1068.154412357095
 21
1546.666655669342
 31
0.0
  0
LINE
  5
240
330
1F
100
AcDbEntity
  8
0-B_寸法
  6
Continuous
 62
   120
370
     5
100
AcDbLine
 10
-1716.493513787627
 20
2126.666589685388
 30
0.0
 11
1432.49396245815
 21
2126.666589685388
 31
0.0
  0
LWPOLYLINE
  5
241
330
1F
100
AcDbEntity
  8
0-B_寸法
  6
Continuous
 62
     7
370
     9
100
AcDbPolyline
 90
        4
 70
     1
 43
2.0
 10
-1715.49376122745
 20
2006.666688661318
 42
0.4142135623731
 10
-1716.49376122745
 20
2007.666688661318
 42
0.4142135623731
 10
-1717.49376122745
 20
2006.666688661318
 42
0.4142135623731
 10
-1716.49376122745
 20
2005.666688661318
 42
0.4142135623731
  0
LWPOLYLINE
  5
242
330
1F
100
AcDbEntity
  8
0-B_寸法
  6
Continuous
 62
     7
370
     9
100
AcDbPolyline
 90
        4
 70
     1
 43
2.0
 10
-1505.493810715415
 20
2006.666688661318
 42
0.4142135623731
 10
-1506.493810715415
 20
2007.666688661318
 42
0.4142135623731
 10
-1507.493810715415
 20
2006.666688661318
 42
0.4142135623731
 10
-1506.493810715415
 20
2005.666688661318
 42
0.4142135623731
  0
LWPOLYLINE
  5
243
330
1F
100
AcDbEntity
  8
0-B_寸法
  6
Continuous
 62
     7
370
     9
100
AcDbPolyline
 90
        4
 70
     1
 43
2.0
 10
1223.494754265582
 20
2006.666688661318
 42
0.4142135623731
 10
1222.494754265582
 20
2007.666688661318
 42
0.4142135623731
 10
1221.494754265582
 20
2006.666688661318
 42
0.4142135623731
 10
1222.494754265582
 20
2005.666688661318
 42
0.4142135623731
  0
LWPOLYLINE
  5
244
330
1F
100
AcDbEntity
  8
0-B_寸法
  6
Continuous
 62
     7
370
     9
100
AcDbPolyline
 90
        4
 70
     1
 43
2.0
 10
1433.49396245815
 20
2006.666688661318
 42
0.4142135623731
 10
1432.49396245815
 20
2007.666688661318
 42
0.4142135623731
 10
1431.49396245815
 20
2006.666688661318
 42
0.4142135623731
 10
1432.49396245815
 20
2005.666688661318
 42
0.4142135623731
  0
LWPOLYLINE
  5
245
330
1F
100
AcDbEntity
  8
0-B_寸法
  6
Continuous
 62
     7
370
     9
100
AcDbPolyline
 90
        4
 70
     1
 43
2.0
 10
-1715.493513787627
 20
2126.666589685388
 42
0.4142135623731
 10
-1716.493513787627
 20
2127.666589685388
 42
0.4142135623731
 10
-1717.493513787627
 20
2126.666589685388
 42
0.4142135623731
 10
-1716.493513787627
 20
2125.666589685389
 42
0.4142135623731
  0
LWPOLYLINE
  5
246
330
1F
100
AcDbEntity
  8
0-B_寸法
  6
Continuous
 62
     7
370
     9
100
AcDbPolyline
 90
        4
 70
     1
 43
2.0
 10
1433.49396245815
 20
2126.666589685388
 42
0.4142135623731
 10
1432.49396245815
 20
2127.666589685388
 42
0.4142135623731
 10
1431.49396245815
 20
2126.666589685388
 42
0.4142135623731
 10
1432.49396245815
 20
2125.666589685389
 42
0.4142135623731
  0
LWPOLYLINE
  5
247
330
1F
100
AcDbEntity
  8
0-B_寸法
  6
Continuous
 62
     7
370
     9
100
AcDbPolyline
 90
        4
 70
     1
 43
2.0
 10
-1263.49370514109
 20
766.6665566934131
 42
0.4142135623731
 10
-1264.49370514109
 20
767.666556693413
 42
0.4142135623731
 10
-1265.49370514109
 20
766.6665566934131
 42
0.4142135623731
 10
-1264.49370514109
 20
765.6665566934132
 42
0.4142135623731
  0
LWPOLYLINE
  5
248
330
1F
100
AcDbEntity
  8
0-B_寸法
  6
Continuous
 62
     7
370
     9
100
AcDbPolyline
 90
        4
 70
     1
 43
2.0
 10
-1255.493728235473
 20
766.6665566934131
 42
0.4142135623731
 10
-1256.493728235473
 20
767.666556693413
 42
0.4142135623731
 10
-1257.493728235473
 20
766.6665566934131
 42
0.4142135623731
 10
-1256.493728235473
 20
765.6665566934132
 42
0.4142135623731
  0
LWPOLYLINE
  5
249
330
1F
100
AcDbEntity
  8
0-B_寸法
  6
Continuous
 62
     7
370
     9
100
AcDbPolyline
 90
        4
 70
     1
 43
2.0
 10
-144.9998878374586
 20
766.6665566934131
 42
0.4142135623731
 10
-145.9998878374586
 20
767.666556693413
 42
0.4142135623731
 10
-146.9998878374586
 20
766.6665566934131
 42
0.4142135623731
 10
-145.9998878374586
 20
765.6665566934132
 42
0.4142135623731
  0
LWPOLYLINE
  5
24A
330
1F
100
AcDbEntity
  8
0-B_寸法
  6
Continuous
 62
     7
370
     9
100
AcDbPolyline
 90
        4
 70
     1
 43
2.0
 10
-136.999663492019
 20
766.6665566934131
 42
0.4142135623731
 10
-137.999663492019
 20
767.666556693413
 42
0.4142135623731
 10
-138.999663492019
 20
766.6665566934131
 42
0.4142135623731
 10
-137.999663492019
 20
765.6665566934132
 42
0.4142135623731
  0
LWPOLYLINE
  5
24B
330
1F
100
AcDbEntity
  8
0-B_寸法
  6
Continuous
 62
     7
370
     9
100
AcDbPolyline
 90
        4
 70
     1
 43
2.0
 10
973.4939294661738
 20
766.6665566934131
 42
0.4142135623731
 10
972.4939294661738
 20
767.666556693413
 42
0.4142135623731
 10
971.4939294661738
 20
766.6665566934131
 42
0.4142135623731
 10
972.4939294661738
 20
765.6665566934132
 42
0.4142135623731
  0
LWPOLYLINE
  5
24C
330
1F
100
AcDbEntity
  8
0-B_寸法
  6
Continuous
 62
     7
370
     9
100
AcDbPolyline
 90
        4
 70
     1
 43
2.0
 10
981.4941538116123
 20
766.6665566934131
 42
0.4142135623731
 10
980.4941538116123
 20
767.666556693413
 42
0.4142135623731
 10
979.4941538116123
 20
766.6665566934131
 42
0.4142135623731
 10
980.4941538116123
 20
765.6665566934132
 42
0.4142135623731
  0
LWPOLYLINE
  5
24D
330
1F
100
AcDbEntity
  8
0-B_寸法
  6
Continuous
 62
     7
370
     9
100
AcDbPolyline
 90
        4
 70
     1
 43
2.0
 10
-1263.49370514109
 20
646.6666556693423
 42
0.4142135623731
 10
-1264.49370514109
 20
647.6666556693422
 42
0.4142135623731
 10
-1265.49370514109
 20
646.6666556693423
 42
0.4142135623731
 10
-1264.49370514109
 20
645.6666556693424
 42
0.4142135623731
  0
LWPOLYLINE
  5
24E
330
1F
100
AcDbEntity
  8
0-B_寸法
  6
Continuous
 62
     7
370
     9
100
AcDbPolyline
 90
        4
 70
     1
 43
2.0
 10
981.4941538116123
 20
646.6666556693423
 42
0.4142135623731
 10
980.4941538116123
 20
647.6666556693422
 42
0.4142135623731
 10
979.4941538116123
 20
646.6666556693423
 42
0.4142135623731
 10
980.4941538116123
 20
645.6666556693424
 42
0.4142135623731
  0
LWPOLYLINE
  5
24F
330
1F
100
AcDbEntity
  8
0-B_寸法
  6
Continuous
 62
     7
370
     9
100
AcDbPolyline
 90
        4
 70
     1
 43
2.0
 10
1101.494054835683
 20
526.6665072054485
 42
0.4142135623731
 10
1100.494054835683
 20
527.6665072054485
 42
0.4142135623731
 10
1099.494054835683
 20
526.6665072054485
 42
0.4142135623731
 10
1100.494054835683
 20
525.6665072054485
 42
0.4142135623731
  0
LWPOLYLINE
  5
250
330
1F
100
AcDbEntity
  8
0-B_寸法
  6
Continuous
 62
     7
370
     9
100
AcDbPolyline
 90
        4
 70
     1
 43
2.0
 10
-1473.886095211825
 20
1126.667744404562
 42
0.4142135623731
 10
-1474.886095211825
 20
1127.667744404562
 42
0.4142135623731
 10
-1475.886095211825
 20
1126.667744404562
 42
0.4142135623731
 10
-1474.886095211825
 20
1125.667744404562
 42
0.4142135623731
  0
LWPOLYLINE
  5
251
330
1F
100
AcDbEntity
  8
0-B_寸法
  6
Continuous
 62
     7
370
     9
100
AcDbPolyline
 90
        4
 70
     1
 43
2.0
 10
-1473.886095211825
 20
1176.666424725508
 42
0.4142135623731
 10
-1474.886095211825
 20
1177.666424725508
 42
0.4142135623731
 10
-1475.886095211825
 20
1176.666424725508
 42
0.4142135623731
 10
-1474.886095211825
 20
1175.666424725508
 42
0.4142135623731
  0
LWPOLYLINE
  5
252
330
1F
100
AcDbEntity
  8
0-B_寸法
  6
Continuous
 62
     7
370
     9
100
AcDbPolyline
 90
        4
 70
     1
 43
2.0
 10
-1067.154412357095
 20
1126.666259765626
 42
0.4142135623731
 10
-1068.154412357095
 20
1127.666259765626
 42
0.4142135623731
 10
-1069.154412357095
 20
1126.666259765626
 42
0.4142135623731
 10
-1068.154412357095
 20
1125.666259765626
 42
0.4142135623731
  0
LWPOLYLINE
  5
253
330
1F
100
AcDbEntity
  8
0-B_寸法
  6
Continuous
 62
     7
370
     9
100
AcDbPolyline
 90
        4
 70
     1
 43
2.0
 10
-1067.154412357095
 20
1546.666655669342
 42
0.4142135623731
 10
-1068.154412357095
 20
1547.666655669342
 42
0.4142135623731
 10
-1069.154412357095
 20
1546.666655669342
 42
0.4142135623731
 10
-1068.154412357095
 20
1545.666655669342
 42
0.4142135623731
  0
LWPOLYLINE
  5
254
330
1F
100
AcDbEntity
  8
0-B_寸法
  6
Continuous
 62
     7
370
     9
100
AcDbPolyline
 90
        4
 70
     1
 43
2.0
 10
-1383.493606165161
 20
526.6665072054485
 42
0.4142135623731
 10
-1384.493606165161
 20
527.6665072054485
 42
0.4142135623731
 10
-1385.493606165161
 20
526.6665072054485
 42
0.4142135623731
 10
-1384.493606165161
 20
525.6665072054485
 42
0.4142135623731
  0
LINE
  5
255
330
1F
100
AcDbEntity
  8
0-4_枠
  6
Continuous
 62
    92
370
    13
100
AcDbLine
 10
-1384.493606165161
 20
1126.666259765626
 30
0.0
 11
-1384.493606165161
 21
1646.666490709461
 31
0.0
  0
LINE
  5
256
330
1F
100
AcDbEntity
  8
0-4_枠
  6
Continuous
 62
    92
370
    13
100
AcDbLine
 10
-1280.493658952323
 20
1126.666259765626
 30
0.0
 11
-1384.493606165161
 21
1126.666259765626
 31
0.0
  0
LINE
  5
257
330
1F
100
AcDbEntity
  8
0-4_枠
  6
Continuous
 62
    92
370
    13
100
AcDbLine
 10
-1264.49370514109
 20
1142.666708456504
 30
0.0
 11
-1280.493658952323
 21
1126.666259765626
 31
0.0
  0
LINE
  5
258
330
1F
100
AcDbEntity
  8
0-4_枠
  6
Continuous
 62
    92
370
    13
100
AcDbLine
 10
-1384.493606165161
 20
1546.666655669342
 30
0.0
 11
-1280.493658952323
 21
1546.666655669342
 31
0.0
  0
LINE
  5
259
330
1F
100
AcDbEntity
  8
0-4_枠
  6
Continuous
 62
    92
370
    13
100
AcDbLine
 10
-1280.493658952323
 20
1546.666655669342
 30
0.0
 11
-1264.49370514109
 21
1530.666701858109
 31
0.0
  0
LINE
  5
25A
330
1F
100
AcDbEntity
  8
0-4_枠
  6
Continuous
 62
    92
370
    13
100
AcDbLine
 10
-1264.49370514109
 20
1530.666701858109
 30
0.0
 11
-1264.49370514109
 21
1142.666708456504
 31
0.0
  0
LINE
  5
25B
330
1F
100
AcDbEntity
  8
0-4_枠
  6
Continuous
 62
    92
370
    13
100
AcDbLine
 10
1100.494054835683
 20
1126.666259765626
 30
0.0
 11
1100.494054835683
 21
1646.666490709461
 31
0.0
  0
LINE
  5
25C
330
1F
100
AcDbEntity
  8
0-4_枠
  6
Continuous
 62
    92
370
    13
100
AcDbLine
 10
996.4941076228456
 20
1126.666259765626
 30
0.0
 11
1100.494054835683
 21
1126.666259765626
 31
0.0
  0
LINE
  5
25D
330
1F
100
AcDbEntity
  8
0-4_枠
  6
Continuous
 62
    92
370
    13
100
AcDbLine
 10
980.4941538116123
 20
1142.666708456504
 30
0.0
 11
996.4941076228456
 21
1126.666259765626
 31
0.0
  0
LINE
  5
25E
330
1F
100
AcDbEntity
  8
0-4_枠
  6
Continuous
 62
    92
370
    13
100
AcDbLine
 10
996.4941076228456
 20
1546.666655669342
 30
0.0
 11
980.4941538116123
 21
1530.666701858109
 31
0.0
  0
LINE
  5
25F
330
1F
100
AcDbEntity
  8
0-4_枠
  6
Continuous
 62
    92
370
    13
100
AcDbLine
 10
980.4941538116123
 20
1530.666701858109
 30
0.0
 11
980.4941538116123
 21
1142.666708456504
 31
0.0
  0
LINE
  5
260
330
1F
100
AcDbEntity
  8
0-4_枠
  6
Continuous
 62
    92
370
    13
100
AcDbLine
 10
996.4941076228456
 20
1546.666655669342
 30
0.0
 11
1100.493559956038
 21
1546.666655669342
 31
0.0
  0
LINE
  5
261
330
1F
100
AcDbEntity
  8
0-3_仕上げ
  6
Continuous
 62
     7
370
     9
100
AcDbLine
 10
1222.494259385937
 20
1646.666490709461
 30
0.0
 11
1642.494160410008
 21
1226.66658968539
 31
0.0
  0
LINE
  5
262
330
1F
100
AcDbEntity
  8
0-3_仕上げ
  6
Continuous
 62
     7
370
     9
100
AcDbLine
 10
1642.494160410008
 20
1646.666490709461
 30
0.0
 11
1222.494259385937
 21
1226.66658968539
 31
0.0
  0
LINE
  5
263
330
1F
100
AcDbEntity
  8
0-3_仕上げ
  6
Continuous
 62
     7
370
     9
100
AcDbLine
 10
-1926.493464299663
 20
1646.666490709461
 30
0.0
 11
-1506.493563275592
 21
1226.66658968539
 31
0.0
  0
LINE
  5
264
330
1F
100
AcDbEntity
  8
0-3_仕上げ
  6
Continuous
 62
     7
370
     9
100
AcDbLine
 10
-1506.493563275592
 20
1646.666490709461
 30
0.0
 11
-1926.493464299663
 21
1226.66658968539
 31
0.0
  0
LINE
  5
265
330
1F
100
AcDbEntity
  8
0-3_仕上げ
  6
Continuous
 62
     7
370
     9
100
AcDbLine
 10
-1384.493606165161
 20
1646.666490709461
 30
0.0
 11
-1506.493563275592
 21
1226.66658968539
 31
0.0
  0
LINE
  5
266
330
1F
100
AcDbEntity
  8
0-3_仕上げ
  6
Continuous
 62
     7
370
     9
100
AcDbLine
 10
-1364.493292741386
 20
1546.666655669342
 30
0.0
 11
-1364.493292741386
 21
1666.666556693414
 31
0.0
  0
LINE
  5
267
330
1F
100
AcDbEntity
  8
0-3_仕上げ
  6
Continuous
 62
     7
370
     9
100
AcDbLine
 10
-1486.493497291639
 20
1666.666556693414
 30
0.0
 11
-1364.493292741386
 21
1666.666556693414
 31
0.0
  0
LINE
  5
268
330
1F
100
AcDbEntity
  8
0-3_仕上げ
  6
Continuous
 62
     7
370
     9
100
AcDbLine
 10
-1486.493497291639
 20
1666.666556693414
 30
0.0
 11
-1486.493497291639
 21
2006.666688661318
 31
0.0
  0
LINE
  5
269
330
1F
100
AcDbEntity
  8
0-3_仕上げ
  6
Continuous
 62
     7
370
     9
100
AcDbLine
 10
-1506.493563275592
 20
1646.666490709461
 30
0.0
 11
-1506.493563275592
 21
2125.354663745778
 31
0.0
  0
LINE
  5
26A
330
1F
100
AcDbEntity
  8
0-3_仕上げ
  6
Continuous
 62
     7
370
     9
100
AcDbLine
 10
-1506.493563275592
 20
1646.666490709461
 30
0.0
 11
-1384.493606165161
 21
1646.666490709461
 31
0.0
  0
LINE
  5
26B
330
1F
100
AcDbEntity
  8
0-3_仕上げ
  6
Continuous
 62
     7
370
     9
100
AcDbLine
 10
-1384.493358725339
 20
1546.666655669342
 30
0.0
 11
-1384.493358725339
 21
1646.666490709461
 31
0.0
  0
LINE
  5
26C
330
1F
100
AcDbEntity
  8
0-3_仕上げ
  6
Continuous
 62
     7
370
     9
100
AcDbLine
 10
1222.494259385937
 20
1646.666490709461
 30
0.0
 11
1222.494259385937
 21
2125.354663745778
 31
0.0
  0
LINE
  5
26D
330
1F
100
AcDbEntity
  8
0-3_仕上げ
  6
Continuous
 62
     7
370
     9
100
AcDbLine
 10
1202.494688281629
 20
1666.666556693414
 30
0.0
 11
1202.494688281629
 21
2006.666688661318
 31
0.0
  0
LINE
  5
26E
330
1F
100
AcDbEntity
  8
0-3_仕上げ
  6
Continuous
 62
     7
370
     9
100
AcDbLine
 10
1202.494688281629
 20
1666.666556693414
 30
0.0
 11
1080.493988851731
 21
1666.666556693414
 31
0.0
  0
LINE
  5
26F
330
1F
100
AcDbEntity
  8
0-3_仕上げ
  6
Continuous
 62
     7
370
     9
100
AcDbLine
 10
1080.493988851731
 20
1546.666655669342
 30
0.0
 11
1080.493988851731
 21
1666.666556693414
 31
0.0
  0
LINE
  5
270
330
1F
100
AcDbEntity
  8
0-3_仕上げ
  6
Continuous
 62
     7
370
     9
100
AcDbLine
 10
1222.494259385937
 20
1226.66658968539
 30
0.0
 11
1100.494054835683
 21
1646.666490709461
 31
0.0
  0
LINE
  5
271
330
1F
100
AcDbEntity
  8
0-3_仕上げ
  6
Continuous
 62
     7
370
     9
100
AcDbLine
 10
1100.494054835683
 20
1546.666655669342
 30
0.0
 11
1100.494054835683
 21
1646.666490709461
 31
0.0
  0
LINE
  5
272
330
1F
100
AcDbEntity
  8
0-3_仕上げ
  6
Continuous
 62
     7
370
     9
100
AcDbLine
 10
1222.494259385937
 20
1646.666490709461
 30
0.0
 11
1100.494054835683
 21
1646.666490709461
 31
0.0
  0
LINE
  5
273
330
1F
100
AcDbEntity
  8
0-3_仕上げ
  6
Continuous
 62
    40
370
    15
100
AcDbLine
 10
-1384.493606165161
 20
1226.66658968539
 30
0.0
 11
-2331.182036538895
 21
1226.66658968539
 31
0.0
  0
LINE
  5
274
330
1F
100
AcDbEntity
  8
0-3_仕上げ
  6
Continuous
 62
    40
370
    15
100
AcDbLine
 10
-1926.493464299663
 20
1226.66658968539
 30
0.0
 11
-1926.493464299663
 21
1646.666490709461
 31
0.0
  0
LINE
  5
275
330
1F
100
AcDbEntity
  8
0-3_仕上げ
  6
Continuous
 62
    40
370
    15
100
AcDbLine
 10
-1926.493464299663
 20
1646.666490709461
 30
0.0
 11
-1506.493563275592
 21
1646.666490709461
 31
0.0
  0
LINE
  5
276
330
1F
100
AcDbEntity
  8
0-3_仕上げ
  6
Continuous
 62
    40
370
    15
100
AcDbLine
 10
-1506.493563275592
 20
1646.666490709461
 30
0.0
 11
-1506.493563275592
 21
1226.66658968539
 31
0.0
  0
LINE
  5
277
330
1F
100
AcDbEntity
  8
0-3_仕上げ
  6
Continuous
 62
    40
370
    15
100
AcDbLine
 10
1642.494160410008
 20
1226.66658968539
 30
0.0
 11
1642.494160410008
 21
1646.666490709461
 31
0.0
  0
LINE
  5
278
330
1F
100
AcDbEntity
  8
0-3_仕上げ
  6
Continuous
 62
    40
370
    15
100
AcDbLine
 10
1642.494160410008
 20
1646.666490709461
 30
0.0
 11
1222.494259385937
 21
1646.666490709461
 31
0.0
  0
LINE
  5
279
330
1F
100
AcDbEntity
  8
0-3_仕上げ
  6
Continuous
 62
    40
370
    15
100
AcDbLine
 10
1222.494259385937
 20
1646.666490709461
 30
0.0
 11
1222.494259385937
 21
1226.66658968539
 31
0.0
  0
LINE
  5
27A
330
1F
100
AcDbEntity
  8
0-3_仕上げ
  6
Continuous
 62
    40
370
    15
100
AcDbLine
 10
1100.494054835683
 20
1226.66658968539
 30
0.0
 11
2047.182485209416
 21
1226.66658968539
 31
0.0
  0
LINE
  5
27B
330
1F
100
AcDbEntity
  8
0-0_補助線
  6
JWW_HOJO
 62
     7
370
     9
100
AcDbLine
 10
-800.2436457555325
 20
766.6665566934131
 30
0.0
 11
-800.2436457555325
 21
1727.025230011014
 31
0.0
  0
LINE
  5
27C
330
1F
100
AcDbEntity
  8
0-0_補助線
  6
JWW_HOJO
 62
     7
370
     9
100
AcDbLine
 10
-682.2475124555331
 20
766.6665566934131
 30
0.0
 11
-682.2475124555331
 21
1727.025230011014
 31
0.0
  0
LINE
  5
27D
330
1F
100
AcDbEntity
  8
0-0_補助線
  6
JWW_HOJO
 62
     7
370
     9
100
AcDbLine
 10
398.2479615444674
 20
766.6665566934131
 30
0.0
 11
398.2479615444674
 21
1727.025230011014
 31
0.0
  0
LINE
  5
27E
330
1F
100
AcDbEntity
  8
0-0_補助線
  6
JWW_HOJO
 62
     7
370
     9
100
AcDbLine
 10
516.2440944444677
 20
766.6665566934131
 30
0.0
 11
516.2440944444677
 21
1727.025230011014
 31
0.0
  0
LINE
  5
27F
330
1F
100
AcDbEntity
  8
0-3_仕上げ
  6
Continuous
 62
    40
370
    15
100
AcDbLine
 10
1100.494054835683
 20
1176.666424725508
 30
0.0
 11
2047.182485209416
 21
1176.666424725508
 31
0.0
  0
LINE
  5
280
330
1F
100
AcDbEntity
  8
0-3_仕上げ
  6
Continuous
 62
    40
370
    15
100
AcDbLine
 10
-1384.493606165161
 20
1176.666424725508
 30
0.0
 11
-2331.182036543792
 21
1176.666424725508
 31
0.0
  0
LINE
  5
281
330
1F
100
AcDbEntity
  8
0-1_通り芯
  6
JWW_CENTER1
 62
   120
370
     5
100
AcDbLine
 10
-2331.182036543792
 20
1436.666292757602
 30
0.0
 11
2047.18248523467
 21
1436.666292757602
 31
0.0
  0
LINE
  5
282
330
1F
100
AcDbEntity
  8
0-0_補助線
  6
JWW_HOJO
 62
   120
370
     5
100
AcDbLine
 10
2047.18248523467
 20
1646.666490709461
 30
0.0
 11
-2331.182036543792
 21
1646.666490709461
 31
0.0
  0
LINE
  5
283
330
1F
100
AcDbEntity
  8
0-0_補助線
  6
JWW_HOJO
 62
   120
370
     5
100
AcDbLine
 10
-774.8471646797304
 20
766.6665566934131
 30
0.0
 11
-2331.182036543792
 21
766.6665566934131
 31
0.0
  0
LINE
  5
284
330
1F
100
AcDbEntity
  8
0-0_補助線
  6
JWW_HOJO
 62
   120
370
     5
100
AcDbLine
 10
-774.8471646797304
 20
646.6666556693423
 30
0.0
 11
-2331.182036543792
 21
646.6666556693423
 31
0.0
  0
LINE
  5
285
330
1F
100
AcDbEntity
  8
0-0_補助線
  6
JWW_HOJO
 62
   120
370
     5
100
AcDbLine
 10
2047.18248523467
 20
1126.666259765626
 30
0.0
 11
-2331.182036543792
 21
1126.666259765626
 31
0.0
  0
LINE
  5
286
330
1F
100
AcDbEntity
  8
0-0_補助線
  6
JWW_HOJO
 62
   120
370
     5
100
AcDbLine
 10
-2331.182036543792
 20
966.6667216574842
 30
0.0
 11
2047.18248523467
 21
966.6667216574842
 31
0.0
  0
LINE
  5
287
330
1F
100
AcDbEntity
  8
0-0_補助線
  6
JWW_HOJO
 62
   120
370
     5
100
AcDbLine
 10
-2331.182036543792
 20
526.6665072054485
 30
0.0
 11
2047.18248523467
 21
526.6665072054485
 31
0.0
  0
LINE
  5
288
330
1F
100
AcDbEntity
  8
0-B_寸法
  6
Continuous
 62
   120
370
     5
100
AcDbLine
 10
-1384.493606165161
 20
966.6667216532949
 30
0.0
 11
-1384.493606165161
 21
526.6665072054485
 31
0.0
  0
LINE
  5
289
330
1F
100
AcDbEntity
  8
0-B_寸法
  6
Continuous
 62
   120
370
     5
100
AcDbLine
 10
1100.494054835683
 20
966.6667216532949
 30
0.0
 11
1100.494054835683
 21
526.6665072054485
 31
0.0
  0
LINE
  5
28A
330
1F
100
AcDbEntity
  8
0-0_補助線
  6
JWW_HOJO
 62
   120
370
     5
100
AcDbLine
 10
-1946.493282843793
 20
526.6665072054485
 30
0.0
 11
-1946.493282843793
 21
2126.666589685388
 31
0.0
  0
LINE
  5
28B
330
1F
100
AcDbEntity
  8
0-0_補助線
  6
JWW_HOJO
 62
   120
370
     5
100
AcDbLine
 10
-1526.493381819722
 20
2126.666589685388
 30
0.0
 11
-1526.493381819722
 21
526.6665072054485
 31
0.0
  0
LINE
  5
28C
330
1F
100
AcDbEntity
  8
0-0_補助線
  6
JWW_HOJO
 62
   120
370
     5
100
AcDbLine
 10
1222.493764506291
 20
2126.666589685388
 30
0.0
 11
1222.493764506291
 21
526.6665072054485
 31
0.0
  0
LINE
  5
28D
330
1F
100
AcDbEntity
  8
0-0_補助線
  6
JWW_HOJO
 62
   120
370
     5
100
AcDbLine
 10
1432.49396245815
 20
2006.666688661318
 30
0.0
 11
-2331.182036543792
 21
2006.666688661318
 31
0.0
  0
LINE
  5
28E
330
1F
100
AcDbEntity
  8
0-0_補助線
  6
JWW_HOJO
 62
   120
370
     5
100
AcDbLine
 10
-2331.182036543792
 20
526.6665072054485
 30
0.0
 11
-2331.182036543792
 21
2226.666589685388
 31
0.0
  0
LINE
  5
28F
330
1F
100
AcDbEntity
  8
0-0_補助線
  6
JWW_HOJO
 62
   120
370
     5
100
AcDbLine
 10
2047.18248523467
 20
526.6665072054485
 30
0.0
 11
2047.18248523467
 21
2226.666589685388
 31
0.0
  0
LINE
  5
290
330
1F
100
AcDbEntity
  8
0-0_補助線
  6
JWW_HOJO
 62
   120
370
     5
100
AcDbLine
 10
-2331.182036543792
 20
2126.666589685388
 30
0.0
 11
2047.18248523467
 21
2126.666589685388
 31
0.0
  0
LINE
  5
291
330
1F
100
AcDbEntity
  8
0-0_補助線
  6
JWW_HOJO
 62
   120
370
     5
100
AcDbLine
 10
-2331.182036543792
 20
2226.666589685388
 30
0.0
 11
2047.18248523467
 21
2226.666589685388
 31
0.0
  0
LINE
  5
292
330
1F
100
AcDbEntity
  8
0-1_通り芯
  6
JWW_CENTER1
 62
   120
370
     5
100
AcDbLine
 10
1432.49396245815
 20
2226.666589685388
 30
0.0
 11
1432.49396245815
 21
526.6665072054485
 31
0.0
  0
LINE
  5
293
330
1F
100
AcDbEntity
  8
0-1_通り芯
  6
JWW_CENTER1
 62
   120
370
     5
100
AcDbLine
 10
-1716.493513787627
 20
2226.666589685388
 30
0.0
 11
-1716.493513787627
 21
526.6665072054485
 31
0.0
  0
CIRCLE
  5
294
330
1F
100
AcDbEntity
  8
0-C_ハッチ
  6
Continuous
 62
   120
370
     5
100
AcDbCircle
 10
-1982.756083730618
 20
1198.289695945947
 30
0.0
 40
0.3999999749499399
  0
CIRCLE
  5
295
330
1F
100
AcDbEntity
  8
0-C_ハッチ
  6
Continuous
 62
   120
370
     5
100
AcDbCircle
 10
-1957.31778532479
 20
1191.748376794765
 30
0.0
 40
0.3999999749499399
  0
CIRCLE
  5
296
330
1F
100
AcDbEntity
  8
0-C_ハッチ
  6
Continuous
 62
   120
370
     5
100
AcDbCircle
 10
-1967.789438618709
 20
1211.049672719595
 30
0.0
 40
0.3999999749499399
  0
CIRCLE
  5
297
330
1F
100
AcDbEntity
  8
0-C_ハッチ
  6
Continuous
 62
   120
370
     5
100
AcDbCircle
 10
-1971.23479070908
 20
1194.970043285474
 30
0.0
 40
0.3999999749499399
  0
CIRCLE
  5
298
330
1F
100
AcDbEntity
  8
0-C_ハッチ
  6
Continuous
 62
   120
370
     5
100
AcDbCircle
 10
-1970.660730320566
 20
1177.167242926521
 30
0.0
 40
0.3999999749499399
  0
CIRCLE
  5
299
330
1F
100
AcDbEntity
  8
0-C_ハッチ
  6
Continuous
 62
   120
370
     5
100
AcDbCircle
 10
-1979.274605426141
 20
1182.909826330238
 30
0.0
 40
0.3999999749499399
  0
CIRCLE
  5
29A
330
1F
100
AcDbEntity
  8
0-C_ハッチ
  6
Continuous
 62
   120
370
     5
100
AcDbCircle
 10
-1944.24405485604
 20
1180.613584776183
 30
0.0
 40
0.3999999749499399
  0
CIRCLE
  5
29B
330
1F
100
AcDbEntity
  8
0-C_ハッチ
  6
Continuous
 62
   120
370
     5
100
AcDbCircle
 10
-1963.769531260178
 20
1185.207057643582
 30
0.0
 40
0.3999999749499399
  0
CIRCLE
  5
29C
330
1F
100
AcDbEntity
  8
0-C_ハッチ
  6
Continuous
 62
   120
370
     5
100
AcDbCircle
 10
-1953.432485229772
 20
1203.009858002535
 30
0.0
 40
0.3999999749499399
  0
CIRCLE
  5
29D
330
1F
100
AcDbEntity
  8
0-C_ハッチ
  6
Continuous
 62
   120
370
     5
100
AcDbCircle
 10
-1933.907008825635
 20
1204.733028927366
 30
0.0
 40
0.3999999749499399
  0
CIRCLE
  5
29E
330
1F
100
AcDbEntity
  8
0-C_ハッチ
  6
Continuous
 62
   120
370
     5
100
AcDbCircle
 10
-1944.24405485604
 20
1211.623733108109
 30
0.0
 40
0.3999999749499399
  0
CIRCLE
  5
29F
330
1F
100
AcDbEntity
  8
0-C_ハッチ
  6
Continuous
 62
   120
370
     5
100
AcDbCircle
 10
-1962.620915603505
 20
1206.455210092906
 30
0.0
 40
0.3999999749499399
  0
CIRCLE
  5
2A0
330
1F
100
AcDbEntity
  8
0-C_ハッチ
  6
Continuous
 62
   120
370
     5
100
AcDbCircle
 10
-1925.29313372006
 20
1180.613584776183
 30
0.0
 40
0.3999999749499399
  0
CIRCLE
  5
2A1
330
1F
100
AcDbEntity
  8
0-C_ハッチ
  6
Continuous
 62
   120
370
     5
100
AcDbCircle
 10
-1938.501471452323
 20
1188.653399493244
 30
0.0
 40
0.3999999749499399
  0
CIRCLE
  5
2A2
330
1F
100
AcDbEntity
  8
0-C_ハッチ
  6
Continuous
 62
   120
370
     5
100
AcDbCircle
 10
-1923.570457674874
 20
1192.672811972129
 30
0.0
 40
0.3999999749499399
  0
CIRCLE
  5
2A3
330
1F
100
AcDbEntity
  8
0-C_ハッチ
  6
Continuous
 62
   120
370
     5
100
AcDbCircle
 10
-1925.29313372006
 20
1201.860747466217
 30
0.0
 40
0.3999999749499399
  0
CIRCLE
  5
2A4
330
1F
100
AcDbEntity
  8
0-C_ハッチ
  6
Continuous
 62
   120
370
     5
100
AcDbCircle
 10
-1921.847781629689
 20
1212.197793496623
 30
0.0
 40
0.3999999749499399
  0
CIRCLE
  5
2A5
330
1F
100
AcDbEntity
  8
0-C_ハッチ
  6
Continuous
 62
   120
370
     5
100
AcDbCircle
 10
-1890.698572117441
 20
1183.882759712839
 30
0.0
 40
0.3999999749499399
  0
CIRCLE
  5
2A6
330
1F
100
AcDbEntity
  8
0-C_ハッチ
  6
Continuous
 62
   120
370
     5
100
AcDbCircle
 10
-1898.148490297341
 20
1196.965398015204
 30
0.0
 40
0.3999999749499399
  0
CIRCLE
  5
2A7
330
1F
100
AcDbEntity
  8
0-C_ハッチ
  6
Continuous
 62
   120
370
     5
100
AcDbCircle
 10
-1893.60549515376
 20
1208.594079919765
 30
0.0
 40
0.3999999749499399
  0
CIRCLE
  5
2A8
330
1F
100
AcDbEntity
  8
0-C_ハッチ
  6
Continuous
 62
   120
370
     5
100
AcDbCircle
 10
-1897.603132928252
 20
1217.861196157095
 30
0.0
 40
0.3999999749499399
  0
CIRCLE
  5
2A9
330
1F
100
AcDbEntity
  8
0-C_ハッチ
  6
Continuous
 62
   120
370
     5
100
AcDbCircle
 10
-1884.883736285516
 20
1200.23655247044
 30
0.0
 40
0.3999999749499399
  0
CIRCLE
  5
2AA
330
1F
100
AcDbEntity
  8
0-C_ハッチ
  6
Continuous
 62
   120
370
     5
100
AcDbCircle
 10
-1869.802773975549
 20
1188.42575485642
 30
0.0
 40
0.3999999749499399
  0
CIRCLE
  5
2AB
330
1F
100
AcDbEntity
  8
0-C_ハッチ
  6
Continuous
 62
   120
370
     5
100
AcDbCircle
 10
-1865.078158002154
 20
1207.32223923142
 30
0.0
 40
0.3999999749499399
  0
CIRCLE
  5
2AC
330
1F
100
AcDbEntity
  8
0-C_ハッチ
  6
Continuous
 62
   120
370
     5
100
AcDbCircle
 10
-1873.981537700212
 20
1201.326277449325
 30
0.0
 40
0.3999999749499399
  0
CIRCLE
  5
2AD
330
1F
100
AcDbEntity
  8
0-C_ハッチ
  6
Continuous
 62
   120
370
     5
100
AcDbCircle
 10
-1877.615933815076
 20
1182.247677364866
 30
0.0
 40
0.3999999749499399
  0
CIRCLE
  5
2AE
330
1F
100
AcDbEntity
  8
0-C_ハッチ
  6
Continuous
 62
   120
370
     5
100
AcDbCircle
 10
-1839.639859596326
 20
1200.780920080238
 30
0.0
 40
0.3999999749499399
  0
CIRCLE
  5
2AF
330
1F
100
AcDbEntity
  8
0-C_ハッチ
  6
Continuous
 62
   120
370
     5
100
AcDbCircle
 10
-1850.111512890245
 20
1220.082216005068
 30
0.0
 40
0.3999999749499399
  0
CIRCLE
  5
2B0
330
1F
100
AcDbEntity
  8
0-C_ハッチ
  6
Continuous
 62
   120
370
     5
100
AcDbCircle
 10
-1853.556864980618
 20
1204.002586570947
 30
0.0
 40
0.3999999749499399
  0
CIRCLE
  5
2B1
330
1F
100
AcDbEntity
  8
0-C_ハッチ
  6
Continuous
 62
   120
370
     5
100
AcDbCircle
 10
-1852.982804592103
 20
1186.200775971285
 30
0.0
 40
0.3999999749499399
  0
CIRCLE
  5
2B2
330
1F
100
AcDbEntity
  8
0-C_ハッチ
  6
Continuous
 62
   120
370
     5
100
AcDbCircle
 10
-1861.596679697678
 20
1191.943359375001
 30
0.0
 40
0.3999999749499399
  0
CIRCLE
  5
2B3
330
1F
100
AcDbEntity
  8
0-C_ハッチ
  6
Continuous
 62
   120
370
     5
100
AcDbCircle
 10
-1859.874003652493
 20
1182.180373733109
 30
0.0
 40
0.3999999749499399
  0
CIRCLE
  5
2B4
330
1F
100
AcDbEntity
  8
0-C_ハッチ
  6
Continuous
 62
   120
370
     5
100
AcDbCircle
 10
-1826.566129127576
 20
1189.646128061656
 30
0.0
 40
0.3999999749499399
  0
CIRCLE
  5
2B5
330
1F
100
AcDbEntity
  8
0-C_ハッチ
  6
Continuous
 62
   120
370
     5
100
AcDbCircle
 10
-1846.091605531716
 20
1194.240590688345
 30
0.0
 40
0.3999999749499399
  0
CIRCLE
  5
2B6
330
1F
100
AcDbEntity
  8
0-C_ハッチ
  6
Continuous
 62
   120
370
     5
100
AcDbCircle
 10
-1835.75455950131
 20
1212.042401288008
 30
0.0
 40
0.3999999749499399
  0
CIRCLE
  5
2B7
330
1F
100
AcDbEntity
  8
0-C_ハッチ
  6
Continuous
 62
   120
370
     5
100
AcDbCircle
 10
-1816.229083097172
 20
1213.765572212839
 30
0.0
 40
0.3999999749499399
  0
CIRCLE
  5
2B8
330
1F
100
AcDbEntity
  8
0-C_ハッチ
  6
Continuous
 62
   120
370
     5
100
AcDbCircle
 10
-1826.566129127576
 20
1220.657266152873
 30
0.0
 40
0.3999999749499399
  0
CIRCLE
  5
2B9
330
1F
100
AcDbEntity
  8
0-C_ハッチ
  6
Continuous
 62
   120
370
     5
100
AcDbCircle
 10
-1868.488373637712
 20
1212.042401288008
 30
0.0
 40
0.3999999749499399
  0
CIRCLE
  5
2BA
330
1F
100
AcDbEntity
  8
0-C_ハッチ
  6
Continuous
 62
   120
370
     5
100
AcDbCircle
 10
-1871.35966533957
 20
1220.082216005068
 30
0.0
 40
0.3999999749499399
  0
CIRCLE
  5
2BB
330
1F
100
AcDbEntity
  8
0-C_ハッチ
  6
Continuous
 62
   120
370
     5
100
AcDbCircle
 10
-1882.844832147002
 20
1209.746159733954
 30
0.0
 40
0.3999999749499399
  0
CIRCLE
  5
2BC
330
1F
100
AcDbEntity
  8
0-C_ハッチ
  6
Continuous
 62
   120
370
     5
100
AcDbCircle
 10
-1844.942989875043
 20
1215.48874313767
 30
0.0
 40
0.3999999749499399
  0
CIRCLE
  5
2BD
330
1F
100
AcDbEntity
  8
0-C_ハッチ
  6
Continuous
 62
   120
370
     5
100
AcDbCircle
 10
-1807.615207991597
 20
1189.646128061656
 30
0.0
 40
0.3999999749499399
  0
CIRCLE
  5
2BE
330
1F
100
AcDbEntity
  8
0-C_ハッチ
  6
Continuous
 62
   120
370
     5
100
AcDbCircle
 10
-1834.031883456124
 20
1182.754434121623
 30
0.0
 40
0.3999999749499399
  0
CIRCLE
  5
2BF
330
1F
100
AcDbEntity
  8
0-C_ハッチ
  6
Continuous
 62
   120
370
     5
100
AcDbCircle
 10
-1794.981425527493
 20
1183.90354465794
 30
0.0
 40
0.3999999749499399
  0
CIRCLE
  5
2C0
330
1F
100
AcDbEntity
  8
0-C_ハッチ
  6
Continuous
 62
   120
370
     5
100
AcDbCircle
 10
-1805.892531946412
 20
1183.329484269427
 30
0.0
 40
0.3999999749499399
  0
CIRCLE
  5
2C1
330
1F
100
AcDbEntity
  8
0-C_ハッチ
  6
Continuous
 62
   120
370
     5
100
AcDbCircle
 10
-1796.704101572678
 20
1198.260003167231
 30
0.0
 40
0.3999999749499399
  0
CIRCLE
  5
2C2
330
1F
100
AcDbEntity
  8
0-C_ハッチ
  6
Continuous
 62
   120
370
     5
100
AcDbCircle
 10
-1820.823545723861
 20
1197.685942778717
 30
0.0
 40
0.3999999749499399
  0
CIRCLE
  5
2C3
330
1F
100
AcDbEntity
  8
0-C_ハッチ
  6
Continuous
 62
   120
370
     5
100
AcDbCircle
 10
-1805.892531946412
 20
1201.706345016893
 30
0.0
 40
0.3999999749499399
  0
CIRCLE
  5
2C4
330
1F
100
AcDbEntity
  8
0-C_ハッチ
  6
Continuous
 62
   120
370
     5
100
AcDbCircle
 10
-1807.615207991597
 20
1210.894280510981
 30
0.0
 40
0.3999999749499399
  0
CIRCLE
  5
2C5
330
1F
100
AcDbEntity
  8
0-C_ハッチ
  6
Continuous
 62
   120
370
     5
100
AcDbCircle
 10
-1804.169855901225
 20
1221.231326541386
 30
0.0
 40
0.3999999749499399
  0
CIRCLE
  5
2C6
330
1F
100
AcDbEntity
  8
0-C_ハッチ
  6
Continuous
 62
   120
370
     5
100
AcDbCircle
 10
-1790.961518168962
 20
1220.657266152873
 30
0.0
 40
0.3999999749499399
  0
CIRCLE
  5
2C7
330
1F
100
AcDbEntity
  8
0-C_ハッチ
  6
Continuous
 62
   120
370
     5
100
AcDbCircle
 10
-1781.773087795228
 20
1210.894280510981
 30
0.0
 40
0.3999999749499399
  0
CIRCLE
  5
2C8
330
1F
100
AcDbEntity
  8
0-C_ハッチ
  6
Continuous
 62
   120
370
     5
100
AcDbCircle
 10
-1792.109638945989
 20
1210.894280510981
 30
0.0
 40
0.3999999749499399
  0
CIRCLE
  5
2C9
330
1F
100
AcDbEntity
  8
0-C_ハッチ
  6
Continuous
 62
   120
370
     5
100
AcDbCircle
 10
-1784.644379497087
 20
1201.706345016893
 30
0.0
 40
0.3999999749499399
  0
CIRCLE
  5
2CA
330
1F
100
AcDbEntity
  8
0-C_ハッチ
  6
Continuous
 62
   120
370
     5
100
AcDbCircle
 10
-1776.604564780026
 20
1193.666530299832
 30
0.0
 40
0.3999999749499399
  0
CIRCLE
  5
2CB
330
1F
100
AcDbEntity
  8
0-C_ハッチ
  6
Continuous
 62
   120
370
     5
100
AcDbCircle
 10
-1780.624472138556
 20
1183.90354465794
 30
0.0
 40
0.3999999749499399
  0
CIRCLE
  5
2CC
330
1F
100
AcDbEntity
  8
0-C_ハッチ
  6
Continuous
 62
   120
370
     5
100
AcDbCircle
 10
-1789.23834724413
 20
1190.22018845017
 30
0.0
 40
0.3999999749499399
  0
CIRCLE
  5
2CD
330
1F
100
AcDbEntity
  8
0-C_ハッチ
  6
Continuous
 62
   120
370
     5
100
AcDbCircle
 10
-1761.099490614064
 20
1183.90354465794
 30
0.0
 40
0.3999999749499399
  0
CIRCLE
  5
2CE
330
1F
100
AcDbEntity
  8
0-C_ハッチ
  6
Continuous
 62
   120
370
     5
100
AcDbCircle
 10
-1762.247611391091
 20
1206.299817884291
 30
0.0
 40
0.3999999749499399
  0
CIRCLE
  5
2CF
330
1F
100
AcDbEntity
  8
0-C_ハッチ
  6
Continuous
 62
   120
370
     5
100
AcDbCircle
 10
-1776.030009511868
 20
1210.894280510981
 30
0.0
 40
0.3999999749499399
  0
CIRCLE
  5
2D0
330
1F
100
AcDbEntity
  8
0-C_ハッチ
  6
Continuous
 62
   120
370
     5
100
AcDbCircle
 10
-1758.22770403256
 20
1215.48874313767
 30
0.0
 40
0.3999999749499399
  0
CIRCLE
  5
2D1
330
1F
100
AcDbEntity
  8
0-C_ハッチ
  6
Continuous
 62
   120
370
     5
100
AcDbCircle
 10
-1742.148074598439
 20
1216.062803526183
 30
0.0
 40
0.3999999749499399
  0
CIRCLE
  5
2D2
330
1F
100
AcDbEntity
  8
0-C_ハッチ
  6
Continuous
 62
   120
370
     5
100
AcDbCircle
 10
-1743.870750643624
 20
1184.477605046454
 30
0.0
 40
0.3999999749499399
  0
CIRCLE
  5
2D3
330
1F
100
AcDbEntity
  8
0-C_ハッチ
  6
Continuous
 62
   120
370
     5
100
AcDbCircle
 10
-1737.554106851395
 20
1194.814651076859
 30
0.0
 40
0.3999999749499399
  0
CIRCLE
  5
2D4
330
1F
100
AcDbEntity
  8
0-C_ハッチ
  6
Continuous
 62
   120
370
     5
100
AcDbCircle
 10
-1727.791616089147
 20
1190.794248838683
 30
0.0
 40
0.3999999749499399
  0
CIRCLE
  5
2D5
330
1F
100
AcDbEntity
  8
0-C_ハッチ
  6
Continuous
 62
   120
370
     5
100
AcDbCircle
 10
-1707.692079296495
 20
1196.53782200169
 30
0.0
 40
0.3999999749499399
  0
CIRCLE
  5
2D6
330
1F
100
AcDbEntity
  8
0-C_ハッチ
  6
Continuous
 62
   120
370
     5
100
AcDbCircle
 10
-1720.90041702876
 20
1204.577636718751
 30
0.0
 40
0.3999999749499399
  0
CIRCLE
  5
2D7
330
1F
100
AcDbEntity
  8
0-C_ハッチ
  6
Continuous
 62
   120
370
     5
100
AcDbCircle
 10
-1734.682815149537
 20
1206.873878272805
 30
0.0
 40
0.3999999749499399
  0
CIRCLE
  5
2D8
330
1F
100
AcDbEntity
  8
0-C_ハッチ
  6
Continuous
 62
   120
370
     5
100
AcDbCircle
 10
-1720.3258617606
 20
1217.210924303211
 30
0.0
 40
0.3999999749499399
  0
CIRCLE
  5
2D9
330
1F
100
AcDbEntity
  8
0-C_ハッチ
  6
Continuous
 62
   120
370
     5
100
AcDbCircle
 10
-1699.652264579435
 20
1221.8053869299
 30
0.0
 40
0.3999999749499399
  0
CIRCLE
  5
2DA
330
1F
100
AcDbEntity
  8
0-C_ハッチ
  6
Continuous
 62
   120
370
     5
100
AcDbCircle
 10
-1689.315218549029
 20
1207.448928420609
 30
0.0
 40
0.3999999749499399
  0
CIRCLE
  5
2DB
330
1F
100
AcDbEntity
  8
0-C_ハッチ
  6
Continuous
 62
   120
370
     5
100
AcDbCircle
 10
-1687.592542503844
 20
1190.794248838683
 30
0.0
 40
0.3999999749499399
  0
CIRCLE
  5
2DC
330
1F
100
AcDbEntity
  8
0-C_ハッチ
  6
Continuous
 62
   120
370
     5
100
AcDbCircle
 10
-1701.37494062462
 20
1182.754434121623
 30
0.0
 40
0.3999999749499399
  0
CIRCLE
  5
2DD
330
1F
100
AcDbEntity
  8
0-C_ハッチ
  6
Continuous
 62
   120
370
     5
100
AcDbCircle
 10
-1700.800385356462
 20
1200.557234480575
 30
0.0
 40
0.3999999749499399
  0
CIRCLE
  5
2DE
330
1F
100
AcDbEntity
  8
0-C_ハッチ
  6
Continuous
 62
   120
370
     5
100
AcDbCircle
 10
-1704.246232326478
 20
1208.022988809123
 30
0.0
 40
0.3999999749499399
  0
CIRCLE
  5
2DF
330
1F
100
AcDbEntity
  8
0-C_ハッチ
  6
Continuous
 62
   120
370
     5
100
AcDbCircle
 10
-1713.434662700212
 20
1197.685942778717
 30
0.0
 40
0.3999999749499399
  0
CIRCLE
  5
2E0
330
1F
100
AcDbEntity
  8
0-C_ハッチ
  6
Continuous
 62
   120
370
     5
100
AcDbCircle
 10
-1718.029125326901
 20
1186.200775971285
 30
0.0
 40
0.3999999749499399
  0
CIRCLE
  5
2E1
330
1F
100
AcDbEntity
  8
0-C_ハッチ
  6
Continuous
 62
   120
370
     5
100
AcDbCircle
 10
-1677.255496473439
 20
1196.53782200169
 30
0.0
 40
0.3999999749499399
  0
CIRCLE
  5
2E2
330
1F
100
AcDbEntity
  8
0-C_ハッチ
  6
Continuous
 62
   120
370
     5
100
AcDbCircle
 10
-1654.284667978928
 20
1191.943359375001
 30
0.0
 40
0.3999999749499399
  0
CIRCLE
  5
2E3
330
1F
100
AcDbEntity
  8
0-C_ハッチ
  6
Continuous
 62
   120
370
     5
100
AcDbCircle
 10
-1652.561497054097
 20
1189.072067673143
 30
0.0
 40
0.3999999749499399
  0
CIRCLE
  5
2E4
330
1F
100
AcDbEntity
  8
0-C_ハッチ
  6
Continuous
 62
   120
370
     5
100
AcDbCircle
 10
-1648.542084575212
 20
1207.448928420609
 30
0.0
 40
0.3999999749499399
  0
CIRCLE
  5
2E5
330
1F
100
AcDbEntity
  8
0-C_ハッチ
  6
Continuous
 62
   120
370
     5
100
AcDbCircle
 10
-1665.195774397847
 20
1187.922957136825
 30
0.0
 40
0.3999999749499399
  0
CIRCLE
  5
2E6
330
1F
100
AcDbEntity
  8
0-C_ハッチ
  6
Continuous
 62
   120
370
     5
100
AcDbCircle
 10
-1671.512913069722
 20
1202.280405405406
 30
0.0
 40
0.3999999749499399
  0
CIRCLE
  5
2E7
330
1F
100
AcDbEntity
  8
0-C_ハッチ
  6
Continuous
 62
   120
370
     5
100
AcDbCircle
 10
-1678.978172518624
 20
1213.765572212839
 30
0.0
 40
0.3999999749499399
  0
CIRCLE
  5
2E8
330
1F
100
AcDbEntity
  8
0-C_ハッチ
  6
Continuous
 62
   120
370
     5
100
AcDbCircle
 10
-1802.324449704013
 20
1222.953507706927
 30
0.0
 40
0.3999999749499399
  0
CIRCLE
  5
2E9
330
1F
100
AcDbEntity
  8
0-C_ハッチ
  6
Continuous
 62
   120
370
     5
100
AcDbCircle
 10
-1650.838821008912
 20
1218.934095228041
 30
0.0
 40
0.3999999749499399
  0
CIRCLE
  5
2EA
330
1F
100
AcDbEntity
  8
0-C_ハッチ
  6
Continuous
 62
   120
370
     5
100
AcDbCircle
 10
-1657.730020069299
 20
1206.873878272805
 30
0.0
 40
0.3999999749499399
  0
CIRCLE
  5
2EB
330
1F
100
AcDbEntity
  8
0-C_ハッチ
  6
Continuous
 62
   120
370
     5
100
AcDbCircle
 10
-1647.967529307053
 20
1202.280405405406
 30
0.0
 40
0.3999999749499399
  0
CIRCLE
  5
2EC
330
1F
100
AcDbEntity
  8
0-C_ハッチ
  6
Continuous
 62
   120
370
     5
100
AcDbCircle
 10
-1762.699436507222
 20
1204.002586570947
 30
0.0
 40
0.3999999749499399
  0
CIRCLE
  5
2ED
330
1F
100
AcDbEntity
  8
0-C_ハッチ
  6
Continuous
 62
   120
370
     5
100
AcDbCircle
 10
-1633.036515529603
 20
1183.90354465794
 30
0.0
 40
0.3999999749499399
  0
CIRCLE
  5
2EE
330
1F
100
AcDbEntity
  8
0-C_ハッチ
  6
Continuous
 62
   120
370
     5
100
AcDbCircle
 10
-1609.927615614064
 20
1186.774836359798
 30
0.0
 40
0.3999999749499399
  0
CIRCLE
  5
2EF
330
1F
100
AcDbEntity
  8
0-C_ハッチ
  6
Continuous
 62
   120
370
     5
100
AcDbCircle
 10
-1638.205038544806
 20
1196.53782200169
 30
0.0
 40
0.3999999749499399
  0
CIRCLE
  5
2F0
330
1F
100
AcDbEntity
  8
0-C_ハッチ
  6
Continuous
 62
   120
370
     5
100
AcDbCircle
 10
-1638.205038544806
 20
1205.151697107265
 30
0.0
 40
0.3999999749499399
  0
CIRCLE
  5
2F1
330
1F
100
AcDbEntity
  8
0-C_ハッチ
  6
Continuous
 62
   120
370
     5
100
AcDbCircle
 10
-1633.610575918118
 20
1216.636863914697
 30
0.0
 40
0.3999999749499399
  0
CIRCLE
  5
2F2
330
1F
100
AcDbEntity
  8
0-C_ハッチ
  6
Continuous
 62
   120
370
     5
100
AcDbCircle
 10
-1760.976760462037
 20
1221.231326541386
 30
0.0
 40
0.3999999749499399
  0
CIRCLE
  5
2F3
330
1F
100
AcDbEntity
  8
0-C_ハッチ
  6
Continuous
 62
   120
370
     5
100
AcDbCircle
 10
-1759.828144805364
 20
1191.369298986488
 30
0.0
 40
0.3999999749499399
  0
CIRCLE
  5
2F4
330
1F
100
AcDbEntity
  8
0-C_ハッチ
  6
Continuous
 62
   120
370
     5
100
AcDbCircle
 10
-1751.788330088303
 20
1182.754434121623
 30
0.0
 40
0.3999999749499399
  0
CIRCLE
  5
2F5
330
1F
100
AcDbEntity
  8
0-C_ハッチ
  6
Continuous
 62
   120
370
     5
100
AcDbCircle
 10
-1600.877256661361
 20
1183.90354465794
 30
0.0
 40
0.3999999749499399
  0
CIRCLE
  5
2F6
330
1F
100
AcDbEntity
  8
0-C_ハッチ
  6
Continuous
 62
   120
370
     5
100
AcDbCircle
 10
-1595.134673257645
 20
1191.369298986488
 30
0.0
 40
0.3999999749499399
  0
CIRCLE
  5
2F7
330
1F
100
AcDbEntity
  8
0-C_ハッチ
  6
Continuous
 62
   120
370
     5
100
AcDbCircle
 10
-1606.619840065076
 20
1193.091480152028
 30
0.0
 40
0.3999999749499399
  0
CIRCLE
  5
2F8
330
1F
100
AcDbEntity
  8
0-C_ハッチ
  6
Continuous
 62
   120
370
     5
100
AcDbCircle
 10
-1606.619840065076
 20
1201.131294869089
 30
0.0
 40
0.3999999749499399
  0
CIRCLE
  5
2F9
330
1F
100
AcDbEntity
  8
0-C_ハッチ
  6
Continuous
 62
   120
370
     5
100
AcDbCircle
 10
-1757.53091349202
 20
1204.577636718751
 30
0.0
 40
0.3999999749499399
  0
CIRCLE
  5
2FA
330
1F
100
AcDbEntity
  8
0-C_ハッチ
  6
Continuous
 62
   120
370
     5
100
AcDbCircle
 10
-1754.085561401647
 20
1213.765572212839
 30
0.0
 40
0.3999999749499399
  0
CIRCLE
  5
2FB
330
1F
100
AcDbEntity
  8
0-C_ハッチ
  6
Continuous
 62
   120
370
     5
100
AcDbCircle
 10
-1599.154580616174
 20
1214.913692989866
 30
0.0
 40
0.3999999749499399
  0
CIRCLE
  5
2FC
330
1F
100
AcDbEntity
  8
0-C_ハッチ
  6
Continuous
 62
   120
370
     5
100
AcDbCircle
 10
-1595.708733646157
 20
1222.379447318413
 30
0.0
 40
0.3999999749499399
  0
CIRCLE
  5
2FD
330
1F
100
AcDbEntity
  8
0-C_ハッチ
  6
Continuous
 62
   120
370
     5
100
AcDbCircle
 10
-1583.649011570567
 20
1220.082216005068
 30
0.0
 40
0.3999999749499399
  0
CIRCLE
  5
2FE
330
1F
100
AcDbEntity
  8
0-C_ハッチ
  6
Continuous
 62
   120
370
     5
100
AcDbCircle
 10
-1581.352275136868
 20
1209.17110958615
 30
0.0
 40
0.3999999749499399
  0
CIRCLE
  5
2FF
330
1F
100
AcDbEntity
  8
0-C_ハッチ
  6
Continuous
 62
   120
370
     5
100
AcDbCircle
 10
-1587.094858540584
 20
1206.299817884291
 30
0.0
 40
0.3999999749499399
  0
CIRCLE
  5
300
330
1F
100
AcDbEntity
  8
0-C_ハッチ
  6
Continuous
 62
   120
370
     5
100
AcDbCircle
 10
-1594.56061286913
 20
1204.577636718751
 30
0.0
 40
0.3999999749499399
  0
CIRCLE
  5
301
330
1F
100
AcDbEntity
  8
0-C_ハッチ
  6
Continuous
 62
   120
370
     5
100
AcDbCircle
 10
-1587.668918929097
 20
1194.240590688345
 30
0.0
 40
0.3999999749499399
  0
CIRCLE
  5
302
330
1F
100
AcDbEntity
  8
0-C_ハッチ
  6
Continuous
 62
   120
370
     5
100
AcDbCircle
 10
-1581.92633552538
 20
1190.794248838683
 30
0.0
 40
0.3999999749499399
  0
CIRCLE
  5
303
330
1F
100
AcDbEntity
  8
0-C_ハッチ
  6
Continuous
 62
   120
370
     5
100
AcDbCircle
 10
-1585.371687615752
 20
1183.90354465794
 30
0.0
 40
0.3999999749499399
  0
CIRCLE
  5
304
330
1F
100
AcDbEntity
  8
0-C_ハッチ
  6
Continuous
 62
   120
370
     5
100
AcDbCircle
 10
-1556.658275717526
 20
1188.498007284629
 30
0.0
 40
0.3999999749499399
  0
CIRCLE
  5
305
330
1F
100
AcDbEntity
  8
0-C_ハッチ
  6
Continuous
 62
   120
370
     5
100
AcDbCircle
 10
-1565.84670609126
 20
1195.388711465373
 30
0.0
 40
0.3999999749499399
  0
CIRCLE
  5
306
330
1F
100
AcDbEntity
  8
0-C_ハッチ
  6
Continuous
 62
   120
370
     5
100
AcDbCircle
 10
-1579.629104212037
 20
1195.962771853886
 30
0.0
 40
0.3999999749499399
  0
CIRCLE
  5
307
330
1F
100
AcDbEntity
  8
0-C_ハッチ
  6
Continuous
 62
   120
370
     5
100
AcDbCircle
 10
-1575.035136464993
 20
1202.280405405406
 30
0.0
 40
0.3999999749499399
  0
CIRCLE
  5
308
330
1F
100
AcDbEntity
  8
0-C_ハッチ
  6
Continuous
 62
   120
370
     5
100
AcDbCircle
 10
-1561.826798732728
 20
1213.765572212839
 30
0.0
 40
0.3999999749499399
  0
CIRCLE
  5
309
330
1F
100
AcDbEntity
  8
0-C_ハッチ
  6
Continuous
 62
   120
370
     5
100
AcDbCircle
 10
-1570.441168717949
 20
1219.508155616555
 30
0.0
 40
0.3999999749499399
  0
CIRCLE
  5
30A
330
1F
100
AcDbEntity
  8
0-C_ハッチ
  6
Continuous
 62
   120
370
     5
100
AcDbCircle
 10
-1565.84670609126
 20
1210.894280510981
 30
0.0
 40
0.3999999749499399
  0
CIRCLE
  5
30B
330
1F
100
AcDbEntity
  8
0-C_ハッチ
  6
Continuous
 62
   120
370
     5
100
AcDbCircle
 10
-1549.767076657138
 20
1204.002586570947
 30
0.0
 40
0.3999999749499399
  0
CIRCLE
  5
30C
330
1F
100
AcDbEntity
  8
0-C_ハッチ
  6
Continuous
 62
   120
370
     5
100
AcDbCircle
 10
-1540.578646283404
 20
1193.666530299832
 30
0.0
 40
0.3999999749499399
  0
CIRCLE
  5
30D
330
1F
100
AcDbEntity
  8
0-C_ハッチ
  6
Continuous
 62
   120
370
     5
100
AcDbCircle
 10
-1558.95550703087
 20
1198.260003167231
 30
0.0
 40
0.3999999749499399
  0
CIRCLE
  5
30E
330
1F
100
AcDbEntity
  8
0-C_ハッチ
  6
Continuous
 62
   120
370
     5
100
AcDbCircle
 10
-1551.490247581969
 20
1213.191511824325
 30
0.0
 40
0.3999999749499399
  0
CIRCLE
  5
30F
330
1F
100
AcDbEntity
  8
0-C_ハッチ
  6
Continuous
 62
   120
370
     5
100
AcDbCircle
 10
-1562.975414389401
 20
1220.082216005068
 30
0.0
 40
0.3999999749499399
  0
CIRCLE
  5
310
330
1F
100
AcDbEntity
  8
0-C_ハッチ
  6
Continuous
 62
   120
370
     5
100
AcDbCircle
 10
-1526.796248162627
 20
1219.508155616555
 30
0.0
 40
0.3999999749499399
  0
CIRCLE
  5
311
330
1F
100
AcDbEntity
  8
0-C_ハッチ
  6
Continuous
 62
   120
370
     5
100
AcDbCircle
 10
-1547.469845343793
 20
1221.231326541386
 30
0.0
 40
0.3999999749499399
  0
CIRCLE
  5
312
330
1F
100
AcDbEntity
  8
0-C_ハッチ
  6
Continuous
 62
   120
370
     5
100
AcDbCircle
 10
-1530.816155521157
 20
1210.320220122467
 30
0.0
 40
0.3999999749499399
  0
CIRCLE
  5
313
330
1F
100
AcDbEntity
  8
0-C_ハッチ
  6
Continuous
 62
   120
370
     5
100
AcDbCircle
 10
-1540.578646283404
 20
1202.280405405406
 30
0.0
 40
0.3999999749499399
  0
CIRCLE
  5
314
330
1F
100
AcDbEntity
  8
0-C_ハッチ
  6
Continuous
 62
   120
370
     5
100
AcDbCircle
 10
-1544.598553641935
 20
1182.180373733109
 30
0.0
 40
0.3999999749499399
  0
CIRCLE
  5
315
330
1F
100
AcDbEntity
  8
0-C_ハッチ
  6
Continuous
 62
   120
370
     5
100
AcDbCircle
 10
-1524.499016849282
 20
1182.180373733109
 30
0.0
 40
0.3999999749499399
  0
CIRCLE
  5
316
330
1F
100
AcDbEntity
  8
0-C_ハッチ
  6
Continuous
 62
   120
370
     5
100
AcDbCircle
 10
-1547.469845343793
 20
1187.922957136825
 30
0.0
 40
0.3999999749499399
  0
CIRCLE
  5
317
330
1F
100
AcDbEntity
  8
0-C_ハッチ
  6
Continuous
 62
   120
370
     5
100
AcDbCircle
 10
-1533.113386834502
 20
1188.498007284629
 30
0.0
 40
0.3999999749499399
  0
CIRCLE
  5
318
330
1F
100
AcDbEntity
  8
0-C_ハッチ
  6
Continuous
 62
   120
370
     5
100
AcDbCircle
 10
-1526.796248162627
 20
1198.834063555744
 30
0.0
 40
0.3999999749499399
  0
CIRCLE
  5
319
330
1F
100
AcDbEntity
  8
0-C_ハッチ
  6
Continuous
 62
   120
370
     5
100
AcDbCircle
 10
-1511.865234385178
 20
1190.22018845017
 30
0.0
 40
0.3999999749499399
  0
CIRCLE
  5
31A
330
1F
100
AcDbEntity
  8
0-C_ハッチ
  6
Continuous
 62
   120
370
     5
100
AcDbCircle
 10
-1510.142063460347
 20
1197.685942778717
 30
0.0
 40
0.3999999749499399
  0
CIRCLE
  5
31B
330
1F
100
AcDbEntity
  8
0-C_ハッチ
  6
Continuous
 62
   120
370
     5
100
AcDbCircle
 10
-1515.885141743709
 20
1213.765572212839
 30
0.0
 40
0.3999999749499399
  0
CIRCLE
  5
31C
330
1F
100
AcDbEntity
  8
0-C_ハッチ
  6
Continuous
 62
   120
370
     5
100
AcDbCircle
 10
-1510.142063460347
 20
1222.379447318413
 30
0.0
 40
0.3999999749499399
  0
CIRCLE
  5
31D
330
1F
100
AcDbEntity
  8
0-C_ハッチ
  6
Continuous
 62
   120
370
     5
100
AcDbCircle
 10
-1880.759409321834
 20
1187.922957136825
 30
0.0
 40
0.3999999749499399
  0
CIRCLE
  5
31E
330
1F
100
AcDbEntity
  8
0-C_ハッチ
  6
Continuous
 62
   120
370
     5
100
AcDbCircle
 10
-1895.689928219638
 20
1194.240590688345
 30
0.0
 40
0.3999999749499399
  0
CIRCLE
  5
31F
330
1F
100
AcDbEntity
  8
0-C_ハッチ
  6
Continuous
 62
   120
370
     5
100
AcDbCircle
 10
-1888.224668770736
 20
1205.725757495778
 30
0.0
 40
0.3999999749499399
  0
CIRCLE
  5
320
330
1F
100
AcDbEntity
  8
0-C_ハッチ
  6
Continuous
 62
   120
370
     5
100
AcDbCircle
 10
-1880.759409321834
 20
1211.468340899494
 30
0.0
 40
0.3999999749499399
  0
CIRCLE
  5
321
330
1F
100
AcDbEntity
  8
0-C_ハッチ
  6
Continuous
 62
   120
370
     5
100
AcDbCircle
 10
-1899.710330457814
 20
1220.657266152873
 30
0.0
 40
0.3999999749499399
  0
CIRCLE
  5
322
330
1F
100
AcDbEntity
  8
0-C_ハッチ
  6
Continuous
 62
   120
370
     5
100
AcDbCircle
 10
-1910.047376488218
 20
1220.657266152873
 30
0.0
 40
0.3999999749499399
  0
CIRCLE
  5
323
330
1F
100
AcDbEntity
  8
0-C_ハッチ
  6
Continuous
 62
   120
370
     5
100
AcDbCircle
 10
-1910.621436876733
 20
1211.468340899494
 30
0.0
 40
0.3999999749499399
  0
CIRCLE
  5
324
330
1F
100
AcDbEntity
  8
0-C_ハッチ
  6
Continuous
 62
   120
370
     5
100
AcDbCircle
 10
-1908.898265951901
 20
1189.646128061656
 30
0.0
 40
0.3999999749499399
  0
CIRCLE
  5
325
330
1F
100
AcDbEntity
  8
0-C_ハッチ
  6
Continuous
 62
   120
370
     5
100
AcDbCircle
 10
-1892.818636517779
 20
1210.320220122467
 30
0.0
 40
0.3999999749499399
  0
CIRCLE
  5
326
330
1F
100
AcDbEntity
  8
0-C_ハッチ
  6
Continuous
 62
   120
370
     5
100
AcDbCircle
 10
-1888.799224038895
 20
1186.200775971285
 30
0.0
 40
0.3999999749499399
  0
CIRCLE
  5
327
330
1F
100
AcDbEntity
  8
0-C_ハッチ
  6
Continuous
 62
   120
370
     5
100
AcDbCircle
 10
-1884.778821800718
 20
1222.953507706927
 30
0.0
 40
0.3999999749499399
  0
CIRCLE
  5
328
330
1F
100
AcDbEntity
  8
0-C_ハッチ
  6
Continuous
 62
   120
370
     5
100
AcDbCircle
 10
-1470.08254593501
 20
1182.028940561656
 30
0.0
 40
0.3999999749499399
  0
CIRCLE
  5
329
330
1F
100
AcDbEntity
  8
0-C_ハッチ
  6
Continuous
 62
   120
370
     5
100
AcDbCircle
 10
-1477.532464114907
 20
1195.111578864021
 30
0.0
 40
0.3999999749499399
  0
CIRCLE
  5
32A
330
1F
100
AcDbEntity
  8
0-C_ハッチ
  6
Continuous
 62
   120
370
     5
100
AcDbCircle
 10
-1472.989468971326
 20
1206.740260768582
 30
0.0
 40
0.3999999749499399
  0
CIRCLE
  5
32B
330
1F
100
AcDbEntity
  8
0-C_ハッチ
  6
Continuous
 62
   120
370
     5
100
AcDbCircle
 10
-1476.98710674582
 20
1216.007377005913
 30
0.0
 40
0.3999999749499399
  0
CIRCLE
  5
32C
330
1F
100
AcDbEntity
  8
0-C_ハッチ
  6
Continuous
 62
   120
370
     5
100
AcDbCircle
 10
-1464.267710103084
 20
1198.381743559967
 30
0.0
 40
0.3999999749499399
  0
CIRCLE
  5
32D
330
1F
100
AcDbEntity
  8
0-C_ハッチ
  6
Continuous
 62
   120
370
     5
100
AcDbCircle
 10
-1449.186747793118
 20
1186.570945945947
 30
0.0
 40
0.3999999749499399
  0
CIRCLE
  5
32E
330
1F
100
AcDbEntity
  8
0-C_ハッチ
  6
Continuous
 62
   120
370
     5
100
AcDbCircle
 10
-1444.462131819722
 20
1205.468420080238
 30
0.0
 40
0.3999999749499399
  0
CIRCLE
  5
32F
330
1F
100
AcDbEntity
  8
0-C_ハッチ
  6
Continuous
 62
   120
370
     5
100
AcDbCircle
 10
-1453.365511517779
 20
1199.472458298143
 30
0.0
 40
0.3999999749499399
  0
CIRCLE
  5
330
330
1F
100
AcDbEntity
  8
0-C_ハッチ
  6
Continuous
 62
   120
370
     5
100
AcDbCircle
 10
-1419.023833413894
 20
1198.927100929055
 30
0.0
 40
0.3999999749499399
  0
CIRCLE
  5
331
330
1F
100
AcDbEntity
  8
0-C_ハッチ
  6
Continuous
 62
   120
370
     5
100
AcDbCircle
 10
-1429.495486707814
 20
1218.228396853886
 30
0.0
 40
0.3999999749499399
  0
CIRCLE
  5
332
330
1F
100
AcDbEntity
  8
0-C_ハッチ
  6
Continuous
 62
   120
370
     5
100
AcDbCircle
 10
-1432.940838798185
 20
1202.148767419765
 30
0.0
 40
0.3999999749499399
  0
CIRCLE
  5
333
330
1F
100
AcDbEntity
  8
0-C_ハッチ
  6
Continuous
 62
   120
370
     5
100
AcDbCircle
 10
-1432.366778409672
 20
1184.345967060812
 30
0.0
 40
0.3999999749499399
  0
CIRCLE
  5
334
330
1F
100
AcDbEntity
  8
0-C_ハッチ
  6
Continuous
 62
   120
370
     5
100
AcDbCircle
 10
-1440.980653515245
 20
1190.088550464528
 30
0.0
 40
0.3999999749499399
  0
CIRCLE
  5
335
330
1F
100
AcDbEntity
  8
0-C_ハッチ
  6
Continuous
 62
   120
370
     5
100
AcDbCircle
 10
-1405.950102945144
 20
1187.792308910474
 30
0.0
 40
0.3999999749499399
  0
CIRCLE
  5
336
330
1F
100
AcDbEntity
  8
0-C_ハッチ
  6
Continuous
 62
   120
370
     5
100
AcDbCircle
 10
-1425.475579349282
 20
1192.385781777873
 30
0.0
 40
0.3999999749499399
  0
CIRCLE
  5
337
330
1F
100
AcDbEntity
  8
0-C_ハッチ
  6
Continuous
 62
   120
370
     5
100
AcDbCircle
 10
-1415.138533318877
 20
1210.188582136825
 30
0.0
 40
0.3999999749499399
  0
CIRCLE
  5
338
330
1F
100
AcDbEntity
  8
0-C_ハッチ
  6
Continuous
 62
   120
370
     5
100
AcDbCircle
 10
-1395.613056914739
 20
1211.911753061656
 30
0.0
 40
0.3999999749499399
  0
CIRCLE
  5
339
330
1F
100
AcDbEntity
  8
0-C_ハッチ
  6
Continuous
 62
   120
370
     5
100
AcDbCircle
 10
-1405.950102945144
 20
1218.8024572424
 30
0.0
 40
0.3999999749499399
  0
CIRCLE
  5
33A
330
1F
100
AcDbEntity
  8
0-C_ハッチ
  6
Continuous
 62
   120
370
     5
100
AcDbCircle
 10
-1447.872347455279
 20
1210.188582136825
 30
0.0
 40
0.3999999749499399
  0
CIRCLE
  5
33B
330
1F
100
AcDbEntity
  8
0-C_ハッチ
  6
Continuous
 62
   120
370
     5
100
AcDbCircle
 10
-1450.743639157138
 20
1218.228396853886
 30
0.0
 40
0.3999999749499399
  0
CIRCLE
  5
33C
330
1F
100
AcDbEntity
  8
0-C_ハッチ
  6
Continuous
 62
   120
370
     5
100
AcDbCircle
 10
-1462.22880596457
 20
1207.891350823481
 30
0.0
 40
0.3999999749499399
  0
CIRCLE
  5
33D
330
1F
100
AcDbEntity
  8
0-C_ハッチ
  6
Continuous
 62
   120
370
     5
100
AcDbCircle
 10
-1424.326963692611
 20
1213.633934227197
 30
0.0
 40
0.3999999749499399
  0
CIRCLE
  5
33E
330
1F
100
AcDbEntity
  8
0-C_ハッチ
  6
Continuous
 62
   120
370
     5
100
AcDbCircle
 10
-1400.207519541428
 20
1195.832123627535
 30
0.0
 40
0.3999999749499399
  0
CIRCLE
  5
33F
330
1F
100
AcDbEntity
  8
0-C_ハッチ
  6
Continuous
 62
   120
370
     5
100
AcDbCircle
 10
-1460.143383139401
 20
1186.069137985643
 30
0.0
 40
0.3999999749499399
  0
CIRCLE
  5
340
330
1F
100
AcDbEntity
  8
0-C_ハッチ
  6
Continuous
 62
   120
370
     5
100
AcDbCircle
 10
-1475.073902037205
 20
1192.385781777873
 30
0.0
 40
0.3999999749499399
  0
CIRCLE
  5
341
330
1F
100
AcDbEntity
  8
0-C_ハッチ
  6
Continuous
 62
   120
370
     5
100
AcDbCircle
 10
-1467.608642588303
 20
1203.871938344595
 30
0.0
 40
0.3999999749499399
  0
CIRCLE
  5
342
330
1F
100
AcDbEntity
  8
0-C_ハッチ
  6
Continuous
 62
   120
370
     5
100
AcDbCircle
 10
-1460.143383139401
 20
1209.614521748312
 30
0.0
 40
0.3999999749499399
  0
CIRCLE
  5
343
330
1F
100
AcDbEntity
  8
0-C_ハッチ
  6
Continuous
 62
   120
370
     5
100
AcDbCircle
 10
-1479.09430427538
 20
1218.8024572424
 30
0.0
 40
0.3999999749499399
  0
CIRCLE
  5
344
330
1F
100
AcDbEntity
  8
0-C_ハッチ
  6
Continuous
 62
   120
370
     5
100
AcDbCircle
 10
-1489.431350305787
 20
1218.8024572424
 30
0.0
 40
0.3999999749499399
  0
CIRCLE
  5
345
330
1F
100
AcDbEntity
  8
0-C_ハッチ
  6
Continuous
 62
   120
370
     5
100
AcDbCircle
 10
-1490.005410694299
 20
1209.614521748312
 30
0.0
 40
0.3999999749499399
  0
CIRCLE
  5
346
330
1F
100
AcDbEntity
  8
0-C_ハッチ
  6
Continuous
 62
   120
370
     5
100
AcDbCircle
 10
-1495.173933709502
 20
1196.406184016048
 30
0.0
 40
0.3999999749499399
  0
CIRCLE
  5
347
330
1F
100
AcDbEntity
  8
0-C_ハッチ
  6
Continuous
 62
   120
370
     5
100
AcDbCircle
 10
-1493.450762784672
 20
1184.920027449325
 30
0.0
 40
0.3999999749499399
  0
CIRCLE
  5
348
330
1F
100
AcDbEntity
  8
0-C_ハッチ
  6
Continuous
 62
   120
370
     5
100
AcDbCircle
 10
-1488.282239769469
 20
1187.792308910474
 30
0.0
 40
0.3999999749499399
  0
CIRCLE
  5
349
330
1F
100
AcDbEntity
  8
0-C_ハッチ
  6
Continuous
 62
   120
370
     5
100
AcDbCircle
 10
-1472.202610335347
 20
1208.465411211994
 30
0.0
 40
0.3999999749499399
  0
CIRCLE
  5
34A
330
1F
100
AcDbEntity
  8
0-C_ハッチ
  6
Continuous
 62
   120
370
     5
100
AcDbCircle
 10
-1468.183197856462
 20
1184.345967060812
 30
0.0
 40
0.3999999749499399
  0
CIRCLE
  5
34B
330
1F
100
AcDbEntity
  8
0-C_ハッチ
  6
Continuous
 62
   120
370
     5
100
AcDbCircle
 10
-1464.162795618287
 20
1221.099688555744
 30
0.0
 40
0.3999999749499399
  0
CIRCLE
  5
34C
330
1F
100
AcDbEntity
  8
0-C_ハッチ
  6
Continuous
 62
   120
370
     5
100
AcDbCircle
 10
-2325.392192129056
 20
1182.096244193413
 30
0.0
 40
0.3999999749499399
  0
CIRCLE
  5
34D
330
1F
100
AcDbEntity
  8
0-C_ハッチ
  6
Continuous
 62
   120
370
     5
100
AcDbCircle
 10
-2321.372284770524
 20
1218.849965688345
 30
0.0
 40
0.3999999749499399
  0
CIRCLE
  5
34E
330
1F
100
AcDbEntity
  8
0-C_ハッチ
  6
Continuous
 62
   120
370
     5
100
AcDbCircle
 10
-2312.183854396791
 20
1209.086980046454
 30
0.0
 40
0.3999999749499399
  0
CIRCLE
  5
34F
330
1F
100
AcDbEntity
  8
0-C_ハッチ
  6
Continuous
 62
   120
370
     5
100
AcDbCircle
 10
-2322.520405547551
 20
1209.086980046454
 30
0.0
 40
0.3999999749499399
  0
CIRCLE
  5
350
330
1F
100
AcDbEntity
  8
0-C_ハッチ
  6
Continuous
 62
   120
370
     5
100
AcDbCircle
 10
-2315.055146098649
 20
1199.899044552366
 30
0.0
 40
0.3999999749499399
  0
CIRCLE
  5
351
330
1F
100
AcDbEntity
  8
0-C_ハッチ
  6
Continuous
 62
   120
370
     5
100
AcDbCircle
 10
-2307.015331381589
 20
1191.859229835305
 30
0.0
 40
0.3999999749499399
  0
CIRCLE
  5
352
330
1F
100
AcDbEntity
  8
0-C_ハッチ
  6
Continuous
 62
   120
370
     5
100
AcDbCircle
 10
-2311.03523874012
 20
1182.096244193413
 30
0.0
 40
0.3999999749499399
  0
CIRCLE
  5
353
330
1F
100
AcDbEntity
  8
0-C_ハッチ
  6
Continuous
 62
   120
370
     5
100
AcDbCircle
 10
-2319.649113845693
 20
1188.412887985643
 30
0.0
 40
0.3999999749499399
  0
CIRCLE
  5
354
330
1F
100
AcDbEntity
  8
0-C_ハッチ
  6
Continuous
 62
   120
370
     5
100
AcDbCircle
 10
-2291.510257215627
 20
1182.096244193413
 30
0.0
 40
0.3999999749499399
  0
CIRCLE
  5
355
330
1F
100
AcDbEntity
  8
0-C_ハッチ
  6
Continuous
 62
   120
370
     5
100
AcDbCircle
 10
-2292.658377992653
 20
1204.492517419765
 30
0.0
 40
0.3999999749499399
  0
CIRCLE
  5
356
330
1F
100
AcDbEntity
  8
0-C_ハッチ
  6
Continuous
 62
   120
370
     5
100
AcDbCircle
 10
-2306.440776113431
 20
1209.086980046454
 30
0.0
 40
0.3999999749499399
  0
CIRCLE
  5
357
330
1F
100
AcDbEntity
  8
0-C_ハッチ
  6
Continuous
 62
   120
370
     5
100
AcDbCircle
 10
-2288.638470634122
 20
1213.681442673143
 30
0.0
 40
0.3999999749499399
  0
CIRCLE
  5
358
330
1F
100
AcDbEntity
  8
0-C_ハッチ
  6
Continuous
 62
   120
370
     5
100
AcDbCircle
 10
-2272.558841200002
 20
1214.255503061656
 30
0.0
 40
0.3999999749499399
  0
CIRCLE
  5
359
330
1F
100
AcDbEntity
  8
0-C_ハッチ
  6
Continuous
 62
   120
370
     5
100
AcDbCircle
 10
-2274.281517245186
 20
1182.670304581927
 30
0.0
 40
0.3999999749499399
  0
CIRCLE
  5
35A
330
1F
100
AcDbEntity
  8
0-C_ハッチ
  6
Continuous
 62
   120
370
     5
100
AcDbCircle
 10
-2267.964873452957
 20
1193.007350612332
 30
0.0
 40
0.3999999749499399
  0
CIRCLE
  5
35B
330
1F
100
AcDbEntity
  8
0-C_ハッチ
  6
Continuous
 62
   120
370
     5
100
AcDbCircle
 10
-2258.20238269071
 20
1188.986948374156
 30
0.0
 40
0.3999999749499399
  0
CIRCLE
  5
35C
330
1F
100
AcDbEntity
  8
0-C_ハッチ
  6
Continuous
 62
   120
370
     5
100
AcDbCircle
 10
-2238.102845898057
 20
1194.730521537163
 30
0.0
 40
0.3999999749499399
  0
CIRCLE
  5
35D
330
1F
100
AcDbEntity
  8
0-C_ハッチ
  6
Continuous
 62
   120
370
     5
100
AcDbCircle
 10
-2251.311183630322
 20
1202.770336254224
 30
0.0
 40
0.3999999749499399
  0
CIRCLE
  5
35E
330
1F
100
AcDbEntity
  8
0-C_ハッチ
  6
Continuous
 62
   120
370
     5
100
AcDbCircle
 10
-2265.093581751099
 20
1205.066577808278
 30
0.0
 40
0.3999999749499399
  0
CIRCLE
  5
35F
330
1F
100
AcDbEntity
  8
0-C_ハッチ
  6
Continuous
 62
   120
370
     5
100
AcDbCircle
 10
-2250.736628362164
 20
1215.403623838683
 30
0.0
 40
0.3999999749499399
  0
CIRCLE
  5
360
330
1F
100
AcDbEntity
  8
0-C_ハッチ
  6
Continuous
 62
   120
370
     5
100
AcDbCircle
 10
-2230.063031180997
 20
1219.998086465373
 30
0.0
 40
0.3999999749499399
  0
CIRCLE
  5
361
330
1F
100
AcDbEntity
  8
0-C_ハッチ
  6
Continuous
 62
   120
370
     5
100
AcDbCircle
 10
-2219.725985150593
 20
1205.641627956082
 30
0.0
 40
0.3999999749499399
  0
CIRCLE
  5
362
330
1F
100
AcDbEntity
  8
0-C_ハッチ
  6
Continuous
 62
   120
370
     5
100
AcDbCircle
 10
-2218.003309105406
 20
1188.986948374156
 30
0.0
 40
0.3999999749499399
  0
CIRCLE
  5
363
330
1F
100
AcDbEntity
  8
0-C_ハッチ
  6
Continuous
 62
   120
370
     5
100
AcDbCircle
 10
-2231.785707226182
 20
1180.947133657095
 30
0.0
 40
0.3999999749499399
  0
CIRCLE
  5
364
330
1F
100
AcDbEntity
  8
0-C_ハッチ
  6
Continuous
 62
   120
370
     5
100
AcDbCircle
 10
-2231.211151958024
 20
1198.749934016048
 30
0.0
 40
0.3999999749499399
  0
CIRCLE
  5
365
330
1F
100
AcDbEntity
  8
0-C_ハッチ
  6
Continuous
 62
   120
370
     5
100
AcDbCircle
 10
-2234.656998928041
 20
1206.215688344595
 30
0.0
 40
0.3999999749499399
  0
CIRCLE
  5
366
330
1F
100
AcDbEntity
  8
0-C_ハッチ
  6
Continuous
 62
   120
370
     5
100
AcDbCircle
 10
-2243.845429301774
 20
1195.87864231419
 30
0.0
 40
0.3999999749499399
  0
CIRCLE
  5
367
330
1F
100
AcDbEntity
  8
0-C_ハッチ
  6
Continuous
 62
   120
370
     5
100
AcDbCircle
 10
-2248.439891928464
 20
1184.393475506758
 30
0.0
 40
0.3999999749499399
  0
CIRCLE
  5
368
330
1F
100
AcDbEntity
  8
0-C_ハッチ
  6
Continuous
 62
   120
370
     5
100
AcDbCircle
 10
-2207.666263075002
 20
1194.730521537163
 30
0.0
 40
0.3999999749499399
  0
CIRCLE
  5
369
330
1F
100
AcDbEntity
  8
0-C_ハッチ
  6
Continuous
 62
   120
370
     5
100
AcDbCircle
 10
-2184.695434580491
 20
1190.136058910474
 30
0.0
 40
0.3999999749499399
  0
CIRCLE
  5
36A
330
1F
100
AcDbEntity
  8
0-C_ハッチ
  6
Continuous
 62
   120
370
     5
100
AcDbCircle
 10
-2182.97226365566
 20
1187.264767208616
 30
0.0
 40
0.3999999749499399
  0
CIRCLE
  5
36B
330
1F
100
AcDbEntity
  8
0-C_ハッチ
  6
Continuous
 62
   120
370
     5
100
AcDbCircle
 10
-2178.952851176774
 20
1205.641627956082
 30
0.0
 40
0.3999999749499399
  0
CIRCLE
  5
36C
330
1F
100
AcDbEntity
  8
0-C_ハッチ
  6
Continuous
 62
   120
370
     5
100
AcDbCircle
 10
-2195.60654099941
 20
1186.115656672298
 30
0.0
 40
0.3999999749499399
  0
CIRCLE
  5
36D
330
1F
100
AcDbEntity
  8
0-C_ハッチ
  6
Continuous
 62
   120
370
     5
100
AcDbCircle
 10
-2201.923679671285
 20
1200.473104940879
 30
0.0
 40
0.3999999749499399
  0
CIRCLE
  5
36E
330
1F
100
AcDbEntity
  8
0-C_ハッチ
  6
Continuous
 62
   120
370
     5
100
AcDbCircle
 10
-2209.388939120186
 20
1211.958271748312
 30
0.0
 40
0.3999999749499399
  0
CIRCLE
  5
36F
330
1F
100
AcDbEntity
  8
0-C_ハッチ
  6
Continuous
 62
   120
370
     5
100
AcDbCircle
 10
-2181.249587610474
 20
1217.126794763515
 30
0.0
 40
0.3999999749499399
  0
CIRCLE
  5
370
330
1F
100
AcDbEntity
  8
0-C_ハッチ
  6
Continuous
 62
   120
370
     5
100
AcDbCircle
 10
-2188.140786670861
 20
1205.066577808278
 30
0.0
 40
0.3999999749499399
  0
CIRCLE
  5
371
330
1F
100
AcDbEntity
  8
0-C_ハッチ
  6
Continuous
 62
   120
370
     5
100
AcDbCircle
 10
-2178.378295908616
 20
1200.473104940879
 30
0.0
 40
0.3999999749499399
  0
CIRCLE
  5
372
330
1F
100
AcDbEntity
  8
0-C_ハッチ
  6
Continuous
 62
   120
370
     5
100
AcDbCircle
 10
-2293.110203108785
 20
1202.19528610642
 30
0.0
 40
0.3999999749499399
  0
CIRCLE
  5
373
330
1F
100
AcDbEntity
  8
0-C_ハッチ
  6
Continuous
 62
   120
370
     5
100
AcDbCircle
 10
-2163.447282131166
 20
1182.096244193413
 30
0.0
 40
0.3999999749499399
  0
CIRCLE
  5
374
330
1F
100
AcDbEntity
  8
0-C_ハッチ
  6
Continuous
 62
   120
370
     5
100
AcDbCircle
 10
-2140.338382215627
 20
1184.967535895271
 30
0.0
 40
0.3999999749499399
  0
CIRCLE
  5
375
330
1F
100
AcDbEntity
  8
0-C_ハッチ
  6
Continuous
 62
   120
370
     5
100
AcDbCircle
 10
-2168.61580514637
 20
1194.730521537163
 30
0.0
 40
0.3999999749499399
  0
CIRCLE
  5
376
330
1F
100
AcDbEntity
  8
0-C_ハッチ
  6
Continuous
 62
   120
370
     5
100
AcDbCircle
 10
-2168.61580514637
 20
1203.344396642738
 30
0.0
 40
0.3999999749499399
  0
CIRCLE
  5
377
330
1F
100
AcDbEntity
  8
0-C_ハッチ
  6
Continuous
 62
   120
370
     5
100
AcDbCircle
 10
-2164.021342519681
 20
1214.82956345017
 30
0.0
 40
0.3999999749499399
  0
CIRCLE
  5
378
330
1F
100
AcDbEntity
  8
0-C_ハッチ
  6
Continuous
 62
   120
370
     5
100
AcDbCircle
 10
-2291.387527063599
 20
1219.424026076859
 30
0.0
 40
0.3999999749499399
  0
CIRCLE
  5
379
330
1F
100
AcDbEntity
  8
0-C_ハッチ
  6
Continuous
 62
   120
370
     5
100
AcDbCircle
 10
-2290.238911406926
 20
1189.561998521961
 30
0.0
 40
0.3999999749499399
  0
CIRCLE
  5
37A
330
1F
100
AcDbEntity
  8
0-C_ハッチ
  6
Continuous
 62
   120
370
     5
100
AcDbCircle
 10
-2282.199096689866
 20
1180.947133657095
 30
0.0
 40
0.3999999749499399
  0
CIRCLE
  5
37B
330
1F
100
AcDbEntity
  8
0-C_ハッチ
  6
Continuous
 62
   120
370
     5
100
AcDbCircle
 10
-2131.288023262922
 20
1182.096244193413
 30
0.0
 40
0.3999999749499399
  0
CIRCLE
  5
37C
330
1F
100
AcDbEntity
  8
0-C_ハッチ
  6
Continuous
 62
   120
370
     5
100
AcDbCircle
 10
-2125.545439859207
 20
1189.561998521961
 30
0.0
 40
0.3999999749499399
  0
CIRCLE
  5
37D
330
1F
100
AcDbEntity
  8
0-C_ハッチ
  6
Continuous
 62
   120
370
     5
100
AcDbCircle
 10
-2137.030606666639
 20
1191.284179687501
 30
0.0
 40
0.3999999749499399
  0
CIRCLE
  5
37E
330
1F
100
AcDbEntity
  8
0-C_ハッチ
  6
Continuous
 62
   120
370
     5
100
AcDbCircle
 10
-2137.030606666639
 20
1199.323994404562
 30
0.0
 40
0.3999999749499399
  0
CIRCLE
  5
37F
330
1F
100
AcDbEntity
  8
0-C_ハッチ
  6
Continuous
 62
   120
370
     5
100
AcDbCircle
 10
-2287.941680093582
 20
1202.770336254224
 30
0.0
 40
0.3999999749499399
  0
CIRCLE
  5
380
330
1F
100
AcDbEntity
  8
0-C_ハッチ
  6
Continuous
 62
   120
370
     5
100
AcDbCircle
 10
-2284.49632800321
 20
1211.958271748312
 30
0.0
 40
0.3999999749499399
  0
CIRCLE
  5
381
330
1F
100
AcDbEntity
  8
0-C_ハッチ
  6
Continuous
 62
   120
370
     5
100
AcDbCircle
 10
-2129.565347217736
 20
1213.106392525339
 30
0.0
 40
0.3999999749499399
  0
CIRCLE
  5
382
330
1F
100
AcDbEntity
  8
0-C_ハッチ
  6
Continuous
 62
   120
370
     5
100
AcDbCircle
 10
-2126.11950024772
 20
1220.572146853886
 30
0.0
 40
0.3999999749499399
  0
CIRCLE
  5
383
330
1F
100
AcDbEntity
  8
0-C_ハッチ
  6
Continuous
 62
   120
370
     5
100
AcDbCircle
 10
-2114.059778172128
 20
1218.274915540541
 30
0.0
 40
0.3999999749499399
  0
CIRCLE
  5
384
330
1F
100
AcDbEntity
  8
0-C_ハッチ
  6
Continuous
 62
   120
370
     5
100
AcDbCircle
 10
-2111.763041738431
 20
1207.363809121623
 30
0.0
 40
0.3999999749499399
  0
CIRCLE
  5
385
330
1F
100
AcDbEntity
  8
0-C_ハッチ
  6
Continuous
 62
   120
370
     5
100
AcDbCircle
 10
-2117.505625142145
 20
1204.492517419765
 30
0.0
 40
0.3999999749499399
  0
CIRCLE
  5
386
330
1F
100
AcDbEntity
  8
0-C_ハッチ
  6
Continuous
 62
   120
370
     5
100
AcDbCircle
 10
-2124.971379470693
 20
1202.770336254224
 30
0.0
 40
0.3999999749499399
  0
CIRCLE
  5
387
330
1F
100
AcDbEntity
  8
0-C_ハッチ
  6
Continuous
 62
   120
370
     5
100
AcDbCircle
 10
-2118.07968553066
 20
1192.433290223818
 30
0.0
 40
0.3999999749499399
  0
CIRCLE
  5
388
330
1F
100
AcDbEntity
  8
0-C_ハッチ
  6
Continuous
 62
   120
370
     5
100
AcDbCircle
 10
-2112.337102126943
 20
1188.986948374156
 30
0.0
 40
0.3999999749499399
  0
CIRCLE
  5
389
330
1F
100
AcDbEntity
  8
0-C_ハッチ
  6
Continuous
 62
   120
370
     5
100
AcDbCircle
 10
-2115.782454217316
 20
1182.096244193413
 30
0.0
 40
0.3999999749499399
  0
CIRCLE
  5
38A
330
1F
100
AcDbEntity
  8
0-C_ハッチ
  6
Continuous
 62
   120
370
     5
100
AcDbCircle
 10
-2087.069042319089
 20
1186.690706820102
 30
0.0
 40
0.3999999749499399
  0
CIRCLE
  5
38B
330
1F
100
AcDbEntity
  8
0-C_ハッチ
  6
Continuous
 62
   120
370
     5
100
AcDbCircle
 10
-2096.257472692822
 20
1193.581411000845
 30
0.0
 40
0.3999999749499399
  0
CIRCLE
  5
38C
330
1F
100
AcDbEntity
  8
0-C_ハッチ
  6
Continuous
 62
   120
370
     5
100
AcDbCircle
 10
-2110.039870813599
 20
1194.155471389359
 30
0.0
 40
0.3999999749499399
  0
CIRCLE
  5
38D
330
1F
100
AcDbEntity
  8
0-C_ハッチ
  6
Continuous
 62
   120
370
     5
100
AcDbCircle
 10
-2105.445903066556
 20
1200.473104940879
 30
0.0
 40
0.3999999749499399
  0
CIRCLE
  5
38E
330
1F
100
AcDbEntity
  8
0-C_ハッチ
  6
Continuous
 62
   120
370
     5
100
AcDbCircle
 10
-2092.237565334291
 20
1211.958271748312
 30
0.0
 40
0.3999999749499399
  0
CIRCLE
  5
38F
330
1F
100
AcDbEntity
  8
0-C_ハッチ
  6
Continuous
 62
   120
370
     5
100
AcDbCircle
 10
-2100.85193531951
 20
1217.700855152028
 30
0.0
 40
0.3999999749499399
  0
CIRCLE
  5
390
330
1F
100
AcDbEntity
  8
0-C_ハッチ
  6
Continuous
 62
   120
370
     5
100
AcDbCircle
 10
-2096.257472692822
 20
1209.086980046454
 30
0.0
 40
0.3999999749499399
  0
CIRCLE
  5
391
330
1F
100
AcDbEntity
  8
0-C_ハッチ
  6
Continuous
 62
   120
370
     5
100
AcDbCircle
 10
-2080.177843258702
 20
1202.19528610642
 30
0.0
 40
0.3999999749499399
  0
CIRCLE
  5
392
330
1F
100
AcDbEntity
  8
0-C_ハッチ
  6
Continuous
 62
   120
370
     5
100
AcDbCircle
 10
-2070.989412884968
 20
1191.859229835305
 30
0.0
 40
0.3999999749499399
  0
CIRCLE
  5
393
330
1F
100
AcDbEntity
  8
0-C_ハッチ
  6
Continuous
 62
   120
370
     5
100
AcDbCircle
 10
-2089.366273632432
 20
1196.452702702704
 30
0.0
 40
0.3999999749499399
  0
CIRCLE
  5
394
330
1F
100
AcDbEntity
  8
0-C_ハッチ
  6
Continuous
 62
   120
370
     5
100
AcDbCircle
 10
-2081.901014183531
 20
1211.384211359798
 30
0.0
 40
0.3999999749499399
  0
CIRCLE
  5
395
330
1F
100
AcDbEntity
  8
0-C_ハッチ
  6
Continuous
 62
   120
370
     5
100
AcDbCircle
 10
-2093.386180990964
 20
1218.274915540541
 30
0.0
 40
0.3999999749499399
  0
CIRCLE
  5
396
330
1F
100
AcDbEntity
  8
0-C_ハッチ
  6
Continuous
 62
   120
370
     5
100
AcDbCircle
 10
-2057.207014764189
 20
1217.700855152028
 30
0.0
 40
0.3999999749499399
  0
CIRCLE
  5
397
330
1F
100
AcDbEntity
  8
0-C_ハッチ
  6
Continuous
 62
   120
370
     5
100
AcDbCircle
 10
-2077.880611945356
 20
1219.424026076859
 30
0.0
 40
0.3999999749499399
  0
CIRCLE
  5
398
330
1F
100
AcDbEntity
  8
0-C_ハッチ
  6
Continuous
 62
   120
370
     5
100
AcDbCircle
 10
-2061.22692212272
 20
1208.51291965794
 30
0.0
 40
0.3999999749499399
  0
CIRCLE
  5
399
330
1F
100
AcDbEntity
  8
0-C_ハッチ
  6
Continuous
 62
   120
370
     5
100
AcDbCircle
 10
-2070.989412884968
 20
1200.473104940879
 30
0.0
 40
0.3999999749499399
  0
CIRCLE
  5
39A
330
1F
100
AcDbEntity
  8
0-C_ハッチ
  6
Continuous
 62
   120
370
     5
100
AcDbCircle
 10
-2075.009320243497
 20
1180.373073268582
 30
0.0
 40
0.3999999749499399
  0
CIRCLE
  5
39B
330
1F
100
AcDbEntity
  8
0-C_ハッチ
  6
Continuous
 62
   120
370
     5
100
AcDbCircle
 10
-2054.909783450845
 20
1180.373073268582
 30
0.0
 40
0.3999999749499399
  0
CIRCLE
  5
39C
330
1F
100
AcDbEntity
  8
0-C_ハッチ
  6
Continuous
 62
   120
370
     5
100
AcDbCircle
 10
-2077.880611945356
 20
1186.115656672298
 30
0.0
 40
0.3999999749499399
  0
CIRCLE
  5
39D
330
1F
100
AcDbEntity
  8
0-C_ハッチ
  6
Continuous
 62
   120
370
     5
100
AcDbCircle
 10
-2063.524153436064
 20
1186.690706820102
 30
0.0
 40
0.3999999749499399
  0
CIRCLE
  5
39E
330
1F
100
AcDbEntity
  8
0-C_ハッチ
  6
Continuous
 62
   120
370
     5
100
AcDbCircle
 10
-2057.207014764189
 20
1197.026763091217
 30
0.0
 40
0.3999999749499399
  0
CIRCLE
  5
39F
330
1F
100
AcDbEntity
  8
0-C_ハッチ
  6
Continuous
 62
   120
370
     5
100
AcDbCircle
 10
-2042.276000986741
 20
1188.412887985643
 30
0.0
 40
0.3999999749499399
  0
CIRCLE
  5
3A0
330
1F
100
AcDbEntity
  8
0-C_ハッチ
  6
Continuous
 62
   120
370
     5
100
AcDbCircle
 10
-2040.55283006191
 20
1195.87864231419
 30
0.0
 40
0.3999999749499399
  0
CIRCLE
  5
3A1
330
1F
100
AcDbEntity
  8
0-C_ハッチ
  6
Continuous
 62
   120
370
     5
100
AcDbCircle
 10
-2046.295908345272
 20
1211.958271748312
 30
0.0
 40
0.3999999749499399
  0
CIRCLE
  5
3A2
330
1F
100
AcDbEntity
  8
0-C_ハッチ
  6
Continuous
 62
   120
370
     5
100
AcDbCircle
 10
-2040.55283006191
 20
1220.572146853886
 30
0.0
 40
0.3999999749499399
  0
CIRCLE
  5
3A3
330
1F
100
AcDbEntity
  8
0-C_ハッチ
  6
Continuous
 62
   120
370
     5
100
AcDbCircle
 10
-2000.493312536572
 20
1180.221640097129
 30
0.0
 40
0.3999999749499399
  0
CIRCLE
  5
3A4
330
1F
100
AcDbEntity
  8
0-C_ハッチ
  6
Continuous
 62
   120
370
     5
100
AcDbCircle
 10
-2007.94323071647
 20
1193.304278399494
 30
0.0
 40
0.3999999749499399
  0
CIRCLE
  5
3A5
330
1F
100
AcDbEntity
  8
0-C_ハッチ
  6
Continuous
 62
   120
370
     5
100
AcDbCircle
 10
-2003.400235572889
 20
1204.932960304055
 30
0.0
 40
0.3999999749499399
  0
CIRCLE
  5
3A6
330
1F
100
AcDbEntity
  8
0-C_ハッチ
  6
Continuous
 62
   120
370
     5
100
AcDbCircle
 10
-2007.397873347383
 20
1214.200076541386
 30
0.0
 40
0.3999999749499399
  0
CIRCLE
  5
3A7
330
1F
100
AcDbEntity
  8
0-C_ハッチ
  6
Continuous
 62
   120
370
     5
100
AcDbCircle
 10
-1994.678476704647
 20
1196.57444309544
 30
0.0
 40
0.3999999749499399
  0
CIRCLE
  5
3A8
330
1F
100
AcDbEntity
  8
0-C_ハッチ
  6
Continuous
 62
   120
370
     5
100
AcDbCircle
 10
-1983.776278119343
 20
1197.665157833616
 30
0.0
 40
0.3999999749499399
  0
CIRCLE
  5
3A9
330
1F
100
AcDbEntity
  8
0-C_ハッチ
  6
Continuous
 62
   120
370
     5
100
AcDbCircle
 10
-1992.639572566133
 20
1206.084050358954
 30
0.0
 40
0.3999999749499399
  0
CIRCLE
  5
3AA
330
1F
100
AcDbEntity
  8
0-C_ハッチ
  6
Continuous
 62
   120
370
     5
100
AcDbCircle
 10
-1990.554149740964
 20
1184.261837521116
 30
0.0
 40
0.3999999749499399
  0
CIRCLE
  5
3AB
330
1F
100
AcDbEntity
  8
0-C_ハッチ
  6
Continuous
 62
   120
370
     5
100
AcDbCircle
 10
-2005.484668638768
 20
1190.578481313345
 30
0.0
 40
0.3999999749499399
  0
CIRCLE
  5
3AC
330
1F
100
AcDbEntity
  8
0-C_ハッチ
  6
Continuous
 62
   120
370
     5
100
AcDbCircle
 10
-1998.019409189866
 20
1202.064637880068
 30
0.0
 40
0.3999999749499399
  0
CIRCLE
  5
3AD
330
1F
100
AcDbEntity
  8
0-C_ハッチ
  6
Continuous
 62
   120
370
     5
100
AcDbCircle
 10
-1990.554149740964
 20
1207.807221283785
 30
0.0
 40
0.3999999749499399
  0
CIRCLE
  5
3AE
330
1F
100
AcDbEntity
  8
0-C_ハッチ
  6
Continuous
 62
   120
370
     5
100
AcDbCircle
 10
-2009.505070876943
 20
1216.995156777873
 30
0.0
 40
0.3999999749499399
  0
CIRCLE
  5
3AF
330
1F
100
AcDbEntity
  8
0-C_ハッチ
  6
Continuous
 62
   120
370
     5
100
AcDbCircle
 10
-2019.842116907349
 20
1216.995156777873
 30
0.0
 40
0.3999999749499399
  0
CIRCLE
  5
3B0
330
1F
100
AcDbEntity
  8
0-C_ハッチ
  6
Continuous
 62
   120
370
     5
100
AcDbCircle
 10
-2020.416177295862
 20
1207.807221283785
 30
0.0
 40
0.3999999749499399
  0
CIRCLE
  5
3B1
330
1F
100
AcDbEntity
  8
0-C_ハッチ
  6
Continuous
 62
   120
370
     5
100
AcDbCircle
 10
-2025.584700311064
 20
1194.598883551521
 30
0.0
 40
0.3999999749499399
  0
CIRCLE
  5
3B2
330
1F
100
AcDbEntity
  8
0-C_ハッチ
  6
Continuous
 62
   120
370
     5
100
AcDbCircle
 10
-2023.861529386235
 20
1183.112726984798
 30
0.0
 40
0.3999999749499399
  0
CIRCLE
  5
3B3
330
1F
100
AcDbEntity
  8
0-C_ハッチ
  6
Continuous
 62
   120
370
     5
100
AcDbCircle
 10
-2018.69300637103
 20
1185.985008445947
 30
0.0
 40
0.3999999749499399
  0
CIRCLE
  5
3B4
330
1F
100
AcDbEntity
  8
0-C_ハッチ
  6
Continuous
 62
   120
370
     5
100
AcDbCircle
 10
-2002.61337693691
 20
1206.658110747467
 30
0.0
 40
0.3999999749499399
  0
CIRCLE
  5
3B5
330
1F
100
AcDbEntity
  8
0-C_ハッチ
  6
Continuous
 62
   120
370
     5
100
AcDbCircle
 10
-1998.593964458024
 20
1182.538666596285
 30
0.0
 40
0.3999999749499399
  0
CIRCLE
  5
3B6
330
1F
100
AcDbEntity
  8
0-C_ハッチ
  6
Continuous
 62
   120
370
     5
100
AcDbCircle
 10
-1994.573562219849
 20
1219.292388091217
 30
0.0
 40
0.3999999749499399
  0
CIRCLE
  5
3B7
330
1F
100
AcDbEntity
  8
0-C_ハッチ
  6
Continuous
 62
   120
370
     5
100
AcDbCircle
 10
1698.756532401139
 20
1198.289695945947
 30
0.0
 40
0.3999999749499399
  0
CIRCLE
  5
3B8
330
1F
100
AcDbEntity
  8
0-C_ハッチ
  6
Continuous
 62
   120
370
     5
100
AcDbCircle
 10
1673.318233995312
 20
1191.748376794765
 30
0.0
 40
0.3999999749499399
  0
CIRCLE
  5
3B9
330
1F
100
AcDbEntity
  8
0-C_ハッチ
  6
Continuous
 62
   120
370
     5
100
AcDbCircle
 10
1683.789887289231
 20
1211.049672719595
 30
0.0
 40
0.3999999749499399
  0
CIRCLE
  5
3BA
330
1F
100
AcDbEntity
  8
0-C_ハッチ
  6
Continuous
 62
   120
370
     5
100
AcDbCircle
 10
1687.235239379602
 20
1194.970043285474
 30
0.0
 40
0.3999999749499399
  0
CIRCLE
  5
3BB
330
1F
100
AcDbEntity
  8
0-C_ハッチ
  6
Continuous
 62
   120
370
     5
100
AcDbCircle
 10
1686.661178991089
 20
1177.167242926521
 30
0.0
 40
0.3999999749499399
  0
CIRCLE
  5
3BC
330
1F
100
AcDbEntity
  8
0-C_ハッチ
  6
Continuous
 62
   120
370
     5
100
AcDbCircle
 10
1695.275054096663
 20
1182.909826330238
 30
0.0
 40
0.3999999749499399
  0
CIRCLE
  5
3BD
330
1F
100
AcDbEntity
  8
0-C_ハッチ
  6
Continuous
 62
   120
370
     5
100
AcDbCircle
 10
1660.244503526562
 20
1180.613584776183
 30
0.0
 40
0.3999999749499399
  0
CIRCLE
  5
3BE
330
1F
100
AcDbEntity
  8
0-C_ハッチ
  6
Continuous
 62
   120
370
     5
100
AcDbCircle
 10
1679.769979930701
 20
1185.207057643582
 30
0.0
 40
0.3999999749499399
  0
CIRCLE
  5
3BF
330
1F
100
AcDbEntity
  8
0-C_ハッチ
  6
Continuous
 62
   120
370
     5
100
AcDbCircle
 10
1669.432933900295
 20
1203.009858002535
 30
0.0
 40
0.3999999749499399
  0
CIRCLE
  5
3C0
330
1F
100
AcDbEntity
  8
0-C_ハッチ
  6
Continuous
 62
   120
370
     5
100
AcDbCircle
 10
1649.907457496156
 20
1204.733028927366
 30
0.0
 40
0.3999999749499399
  0
CIRCLE
  5
3C1
330
1F
100
AcDbEntity
  8
0-C_ハッチ
  6
Continuous
 62
   120
370
     5
100
AcDbCircle
 10
1660.244503526562
 20
1211.623733108109
 30
0.0
 40
0.3999999749499399
  0
CIRCLE
  5
3C2
330
1F
100
AcDbEntity
  8
0-C_ハッチ
  6
Continuous
 62
   120
370
     5
100
AcDbCircle
 10
1678.621364274028
 20
1206.455210092906
 30
0.0
 40
0.3999999749499399
  0
CIRCLE
  5
3C3
330
1F
100
AcDbEntity
  8
0-C_ハッチ
  6
Continuous
 62
   120
370
     5
100
AcDbCircle
 10
1641.293582390582
 20
1180.613584776183
 30
0.0
 40
0.3999999749499399
  0
CIRCLE
  5
3C4
330
1F
100
AcDbEntity
  8
0-C_ハッチ
  6
Continuous
 62
   120
370
     5
100
AcDbCircle
 10
1654.501920122846
 20
1188.653399493244
 30
0.0
 40
0.3999999749499399
  0
CIRCLE
  5
3C5
330
1F
100
AcDbEntity
  8
0-C_ハッチ
  6
Continuous
 62
   120
370
     5
100
AcDbCircle
 10
1639.570906345397
 20
1192.672811972129
 30
0.0
 40
0.3999999749499399
  0
CIRCLE
  5
3C6
330
1F
100
AcDbEntity
  8
0-C_ハッチ
  6
Continuous
 62
   120
370
     5
100
AcDbCircle
 10
1641.293582390582
 20
1201.860747466217
 30
0.0
 40
0.3999999749499399
  0
CIRCLE
  5
3C7
330
1F
100
AcDbEntity
  8
0-C_ハッチ
  6
Continuous
 62
   120
370
     5
100
AcDbCircle
 10
1637.84823030021
 20
1212.197793496623
 30
0.0
 40
0.3999999749499399
  0
CIRCLE
  5
3C8
330
1F
100
AcDbEntity
  8
0-C_ハッチ
  6
Continuous
 62
   120
370
     5
100
AcDbCircle
 10
1606.699020787964
 20
1183.882759712839
 30
0.0
 40
0.3999999749499399
  0
CIRCLE
  5
3C9
330
1F
100
AcDbEntity
  8
0-C_ハッチ
  6
Continuous
 62
   120
370
     5
100
AcDbCircle
 10
1614.148938967862
 20
1196.965398015204
 30
0.0
 40
0.3999999749499399
  0
CIRCLE
  5
3CA
330
1F
100
AcDbEntity
  8
0-C_ハッチ
  6
Continuous
 62
   120
370
     5
100
AcDbCircle
 10
1609.605943824281
 20
1208.594079919765
 30
0.0
 40
0.3999999749499399
  0
CIRCLE
  5
3CB
330
1F
100
AcDbEntity
  8
0-C_ハッチ
  6
Continuous
 62
   120
370
     5
100
AcDbCircle
 10
1613.603581598775
 20
1217.861196157095
 30
0.0
 40
0.3999999749499399
  0
CIRCLE
  5
3CC
330
1F
100
AcDbEntity
  8
0-C_ハッチ
  6
Continuous
 62
   120
370
     5
100
AcDbCircle
 10
1600.884184956038
 20
1200.23655247044
 30
0.0
 40
0.3999999749499399
  0
CIRCLE
  5
3CD
330
1F
100
AcDbEntity
  8
0-C_ハッチ
  6
Continuous
 62
   120
370
     5
100
AcDbCircle
 10
1585.803222646072
 20
1188.42575485642
 30
0.0
 40
0.3999999749499399
  0
CIRCLE
  5
3CE
330
1F
100
AcDbEntity
  8
0-C_ハッチ
  6
Continuous
 62
   120
370
     5
100
AcDbCircle
 10
1581.078606672677
 20
1207.32223923142
 30
0.0
 40
0.3999999749499399
  0
CIRCLE
  5
3CF
330
1F
100
AcDbEntity
  8
0-C_ハッチ
  6
Continuous
 62
   120
370
     5
100
AcDbCircle
 10
1589.981986370734
 20
1201.326277449325
 30
0.0
 40
0.3999999749499399
  0
CIRCLE
  5
3D0
330
1F
100
AcDbEntity
  8
0-C_ハッチ
  6
Continuous
 62
   120
370
     5
100
AcDbCircle
 10
1593.616382485599
 20
1182.247677364866
 30
0.0
 40
0.3999999749499399
  0
CIRCLE
  5
3D1
330
1F
100
AcDbEntity
  8
0-C_ハッチ
  6
Continuous
 62
   120
370
     5
100
AcDbCircle
 10
1555.640308266849
 20
1200.780920080238
 30
0.0
 40
0.3999999749499399
  0
CIRCLE
  5
3D2
330
1F
100
AcDbEntity
  8
0-C_ハッチ
  6
Continuous
 62
   120
370
     5
100
AcDbCircle
 10
1566.111961560767
 20
1220.082216005068
 30
0.0
 40
0.3999999749499399
  0
CIRCLE
  5
3D3
330
1F
100
AcDbEntity
  8
0-C_ハッチ
  6
Continuous
 62
   120
370
     5
100
AcDbCircle
 10
1569.557313651139
 20
1204.002586570947
 30
0.0
 40
0.3999999749499399
  0
CIRCLE
  5
3D4
330
1F
100
AcDbEntity
  8
0-C_ハッチ
  6
Continuous
 62
   120
370
     5
100
AcDbCircle
 10
1568.983253262626
 20
1186.200775971285
 30
0.0
 40
0.3999999749499399
  0
CIRCLE
  5
3D5
330
1F
100
AcDbEntity
  8
0-C_ハッチ
  6
Continuous
 62
   120
370
     5
100
AcDbCircle
 10
1577.597128368201
 20
1191.943359375001
 30
0.0
 40
0.3999999749499399
  0
CIRCLE
  5
3D6
330
1F
100
AcDbEntity
  8
0-C_ハッチ
  6
Continuous
 62
   120
370
     5
100
AcDbCircle
 10
1575.874452323014
 20
1182.180373733109
 30
0.0
 40
0.3999999749499399
  0
CIRCLE
  5
3D7
330
1F
100
AcDbEntity
  8
0-C_ハッチ
  6
Continuous
 62
   120
370
     5
100
AcDbCircle
 10
1542.566577798099
 20
1189.646128061656
 30
0.0
 40
0.3999999749499399
  0
CIRCLE
  5
3D8
330
1F
100
AcDbEntity
  8
0-C_ハッチ
  6
Continuous
 62
   120
370
     5
100
AcDbCircle
 10
1562.092054202237
 20
1194.240590688345
 30
0.0
 40
0.3999999749499399
  0
CIRCLE
  5
3D9
330
1F
100
AcDbEntity
  8
0-C_ハッチ
  6
Continuous
 62
   120
370
     5
100
AcDbCircle
 10
1551.755008171832
 20
1212.042401288008
 30
0.0
 40
0.3999999749499399
  0
CIRCLE
  5
3DA
330
1F
100
AcDbEntity
  8
0-C_ハッチ
  6
Continuous
 62
   120
370
     5
100
AcDbCircle
 10
1532.229531767694
 20
1213.765572212839
 30
0.0
 40
0.3999999749499399
  0
CIRCLE
  5
3DB
330
1F
100
AcDbEntity
  8
0-C_ハッチ
  6
Continuous
 62
   120
370
     5
100
AcDbCircle
 10
1542.566577798099
 20
1220.657266152873
 30
0.0
 40
0.3999999749499399
  0
CIRCLE
  5
3DC
330
1F
100
AcDbEntity
  8
0-C_ハッチ
  6
Continuous
 62
   120
370
     5
100
AcDbCircle
 10
1584.488822308234
 20
1212.042401288008
 30
0.0
 40
0.3999999749499399
  0
CIRCLE
  5
3DD
330
1F
100
AcDbEntity
  8
0-C_ハッチ
  6
Continuous
 62
   120
370
     5
100
AcDbCircle
 10
1587.360114010093
 20
1220.082216005068
 30
0.0
 40
0.3999999749499399
  0
CIRCLE
  5
3DE
330
1F
100
AcDbEntity
  8
0-C_ハッチ
  6
Continuous
 62
   120
370
     5
100
AcDbCircle
 10
1598.845280817525
 20
1209.746159733954
 30
0.0
 40
0.3999999749499399
  0
CIRCLE
  5
3DF
330
1F
100
AcDbEntity
  8
0-C_ハッチ
  6
Continuous
 62
   120
370
     5
100
AcDbCircle
 10
1560.943438545565
 20
1215.48874313767
 30
0.0
 40
0.3999999749499399
  0
CIRCLE
  5
3E0
330
1F
100
AcDbEntity
  8
0-C_ハッチ
  6
Continuous
 62
   120
370
     5
100
AcDbCircle
 10
1523.61565666212
 20
1189.646128061656
 30
0.0
 40
0.3999999749499399
  0
CIRCLE
  5
3E1
330
1F
100
AcDbEntity
  8
0-C_ハッチ
  6
Continuous
 62
   120
370
     5
100
AcDbCircle
 10
1550.032332126647
 20
1182.754434121623
 30
0.0
 40
0.3999999749499399
  0
CIRCLE
  5
3E2
330
1F
100
AcDbEntity
  8
0-C_ハッチ
  6
Continuous
 62
   120
370
     5
100
AcDbCircle
 10
1510.981874198014
 20
1183.90354465794
 30
0.0
 40
0.3999999749499399
  0
CIRCLE
  5
3E3
330
1F
100
AcDbEntity
  8
0-C_ハッチ
  6
Continuous
 62
   120
370
     5
100
AcDbCircle
 10
1521.892980616933
 20
1183.329484269427
 30
0.0
 40
0.3999999749499399
  0
CIRCLE
  5
3E4
330
1F
100
AcDbEntity
  8
0-C_ハッチ
  6
Continuous
 62
   120
370
     5
100
AcDbCircle
 10
1512.704550243201
 20
1198.260003167231
 30
0.0
 40
0.3999999749499399
  0
CIRCLE
  5
3E5
330
1F
100
AcDbEntity
  8
0-C_ハッチ
  6
Continuous
 62
   120
370
     5
100
AcDbCircle
 10
1536.823994394383
 20
1197.685942778717
 30
0.0
 40
0.3999999749499399
  0
CIRCLE
  5
3E6
330
1F
100
AcDbEntity
  8
0-C_ハッチ
  6
Continuous
 62
   120
370
     5
100
AcDbCircle
 10
1521.892980616933
 20
1201.706345016893
 30
0.0
 40
0.3999999749499399
  0
CIRCLE
  5
3E7
330
1F
100
AcDbEntity
  8
0-C_ハッチ
  6
Continuous
 62
   120
370
     5
100
AcDbCircle
 10
1523.61565666212
 20
1210.894280510981
 30
0.0
 40
0.3999999749499399
  0
CIRCLE
  5
3E8
330
1F
100
AcDbEntity
  8
0-C_ハッチ
  6
Continuous
 62
   120
370
     5
100
AcDbCircle
 10
1520.170304571748
 20
1221.231326541386
 30
0.0
 40
0.3999999749499399
  0
CIRCLE
  5
3E9
330
1F
100
AcDbEntity
  8
0-C_ハッチ
  6
Continuous
 62
   120
370
     5
100
AcDbCircle
 10
1506.961966839484
 20
1220.657266152873
 30
0.0
 40
0.3999999749499399
  0
CIRCLE
  5
3EA
330
1F
100
AcDbEntity
  8
0-C_ハッチ
  6
Continuous
 62
   120
370
     5
100
AcDbCircle
 10
1497.773536465751
 20
1210.894280510981
 30
0.0
 40
0.3999999749499399
  0
CIRCLE
  5
3EB
330
1F
100
AcDbEntity
  8
0-C_ハッチ
  6
Continuous
 62
   120
370
     5
100
AcDbCircle
 10
1508.110087616511
 20
1210.894280510981
 30
0.0
 40
0.3999999749499399
  0
CIRCLE
  5
3EC
330
1F
100
AcDbEntity
  8
0-C_ハッチ
  6
Continuous
 62
   120
370
     5
100
AcDbCircle
 10
1500.644828167609
 20
1201.706345016893
 30
0.0
 40
0.3999999749499399
  0
CIRCLE
  5
3ED
330
1F
100
AcDbEntity
  8
0-C_ハッチ
  6
Continuous
 62
   120
370
     5
100
AcDbCircle
 10
1492.605013450549
 20
1193.666530299832
 30
0.0
 40
0.3999999749499399
  0
CIRCLE
  5
3EE
330
1F
100
AcDbEntity
  8
0-C_ハッチ
  6
Continuous
 62
   120
370
     5
100
AcDbCircle
 10
1496.624920809079
 20
1183.90354465794
 30
0.0
 40
0.3999999749499399
  0
CIRCLE
  5
3EF
330
1F
100
AcDbEntity
  8
0-C_ハッチ
  6
Continuous
 62
   120
370
     5
100
AcDbCircle
 10
1505.238795914653
 20
1190.22018845017
 30
0.0
 40
0.3999999749499399
  0
CIRCLE
  5
3F0
330
1F
100
AcDbEntity
  8
0-C_ハッチ
  6
Continuous
 62
   120
370
     5
100
AcDbCircle
 10
1477.099939284585
 20
1183.90354465794
 30
0.0
 40
0.3999999749499399
  0
CIRCLE
  5
3F1
330
1F
100
AcDbEntity
  8
0-C_ハッチ
  6
Continuous
 62
   120
370
     5
100
AcDbCircle
 10
1478.248060061612
 20
1206.299817884291
 30
0.0
 40
0.3999999749499399
  0
CIRCLE
  5
3F2
330
1F
100
AcDbEntity
  8
0-C_ハッチ
  6
Continuous
 62
   120
370
     5
100
AcDbCircle
 10
1492.030458182389
 20
1210.894280510981
 30
0.0
 40
0.3999999749499399
  0
CIRCLE
  5
3F3
330
1F
100
AcDbEntity
  8
0-C_ハッチ
  6
Continuous
 62
   120
370
     5
100
AcDbCircle
 10
1474.228152703082
 20
1215.48874313767
 30
0.0
 40
0.3999999749499399
  0
CIRCLE
  5
3F4
330
1F
100
AcDbEntity
  8
0-C_ハッチ
  6
Continuous
 62
   120
370
     5
100
AcDbCircle
 10
1458.14852326896
 20
1216.062803526183
 30
0.0
 40
0.3999999749499399
  0
CIRCLE
  5
3F5
330
1F
100
AcDbEntity
  8
0-C_ハッチ
  6
Continuous
 62
   120
370
     5
100
AcDbCircle
 10
1459.871199314147
 20
1184.477605046454
 30
0.0
 40
0.3999999749499399
  0
CIRCLE
  5
3F6
330
1F
100
AcDbEntity
  8
0-C_ハッチ
  6
Continuous
 62
   120
370
     5
100
AcDbCircle
 10
1453.554555521916
 20
1194.814651076859
 30
0.0
 40
0.3999999749499399
  0
CIRCLE
  5
3F7
330
1F
100
AcDbEntity
  8
0-C_ハッチ
  6
Continuous
 62
   120
370
     5
100
AcDbCircle
 10
1443.79206475967
 20
1190.794248838683
 30
0.0
 40
0.3999999749499399
  0
CIRCLE
  5
3F8
330
1F
100
AcDbEntity
  8
0-C_ハッチ
  6
Continuous
 62
   120
370
     5
100
AcDbCircle
 10
1423.692527967017
 20
1196.53782200169
 30
0.0
 40
0.3999999749499399
  0
CIRCLE
  5
3F9
330
1F
100
AcDbEntity
  8
0-C_ハッチ
  6
Continuous
 62
   120
370
     5
100
AcDbCircle
 10
1436.900865699281
 20
1204.577636718751
 30
0.0
 40
0.3999999749499399
  0
CIRCLE
  5
3FA
330
1F
100
AcDbEntity
  8
0-C_ハッチ
  6
Continuous
 62
   120
370
     5
100
AcDbCircle
 10
1450.683263820058
 20
1206.873878272805
 30
0.0
 40
0.3999999749499399
  0
CIRCLE
  5
3FB
330
1F
100
AcDbEntity
  8
0-C_ハッチ
  6
Continuous
 62
   120
370
     5
100
AcDbCircle
 10
1436.326310431123
 20
1217.210924303211
 30
0.0
 40
0.3999999749499399
  0
CIRCLE
  5
3FC
330
1F
100
AcDbEntity
  8
0-C_ハッチ
  6
Continuous
 62
   120
370
     5
100
AcDbCircle
 10
1415.652713249957
 20
1221.8053869299
 30
0.0
 40
0.3999999749499399
  0
CIRCLE
  5
3FD
330
1F
100
AcDbEntity
  8
0-C_ハッチ
  6
Continuous
 62
   120
370
     5
100
AcDbCircle
 10
1405.315667219552
 20
1207.448928420609
 30
0.0
 40
0.3999999749499399
  0
CIRCLE
  5
3FE
330
1F
100
AcDbEntity
  8
0-C_ハッチ
  6
Continuous
 62
   120
370
     5
100
AcDbCircle
 10
1403.592991174365
 20
1190.794248838683
 30
0.0
 40
0.3999999749499399
  0
CIRCLE
  5
3FF
330
1F
100
AcDbEntity
  8
0-C_ハッチ
  6
Continuous
 62
   120
370
     5
100
AcDbCircle
 10
1417.375389295142
 20
1182.754434121623
 30
0.0
 40
0.3999999749499399
  0
CIRCLE
  5
400
330
1F
100
AcDbEntity
  8
0-C_ハッチ
  6
Continuous
 62
   120
370
     5
100
AcDbCircle
 10
1416.800834026984
 20
1200.557234480575
 30
0.0
 40
0.3999999749499399
  0
CIRCLE
  5
401
330
1F
100
AcDbEntity
  8
0-C_ハッチ
  6
Continuous
 62
   120
370
     5
100
AcDbCircle
 10
1420.246680997001
 20
1208.022988809123
 30
0.0
 40
0.3999999749499399
  0
CIRCLE
  5
402
330
1F
100
AcDbEntity
  8
0-C_ハッチ
  6
Continuous
 62
   120
370
     5
100
AcDbCircle
 10
1429.435111370734
 20
1197.685942778717
 30
0.0
 40
0.3999999749499399
  0
CIRCLE
  5
403
330
1F
100
AcDbEntity
  8
0-C_ハッチ
  6
Continuous
 62
   120
370
     5
100
AcDbCircle
 10
1434.029573997424
 20
1186.200775971285
 30
0.0
 40
0.3999999749499399
  0
CIRCLE
  5
404
330
1F
100
AcDbEntity
  8
0-C_ハッチ
  6
Continuous
 62
   120
370
     5
100
AcDbCircle
 10
1393.25594514396
 20
1196.53782200169
 30
0.0
 40
0.3999999749499399
  0
CIRCLE
  5
405
330
1F
100
AcDbEntity
  8
0-C_ハッチ
  6
Continuous
 62
   120
370
     5
100
AcDbCircle
 10
1370.285116649451
 20
1191.943359375001
 30
0.0
 40
0.3999999749499399
  0
CIRCLE
  5
406
330
1F
100
AcDbEntity
  8
0-C_ハッチ
  6
Continuous
 62
   120
370
     5
100
AcDbCircle
 10
1368.56194572462
 20
1189.072067673143
 30
0.0
 40
0.3999999749499399
  0
CIRCLE
  5
407
330
1F
100
AcDbEntity
  8
0-C_ハッチ
  6
Continuous
 62
   120
370
     5
100
AcDbCircle
 10
1364.542533245734
 20
1207.448928420609
 30
0.0
 40
0.3999999749499399
  0
CIRCLE
  5
408
330
1F
100
AcDbEntity
  8
0-C_ハッチ
  6
Continuous
 62
   120
370
     5
100
AcDbCircle
 10
1381.19622306837
 20
1187.922957136825
 30
0.0
 40
0.3999999749499399
  0
CIRCLE
  5
409
330
1F
100
AcDbEntity
  8
0-C_ハッチ
  6
Continuous
 62
   120
370
     5
100
AcDbCircle
 10
1387.513361740245
 20
1202.280405405406
 30
0.0
 40
0.3999999749499399
  0
CIRCLE
  5
40A
330
1F
100
AcDbEntity
  8
0-C_ハッチ
  6
Continuous
 62
   120
370
     5
100
AcDbCircle
 10
1394.978621189147
 20
1213.765572212839
 30
0.0
 40
0.3999999749499399
  0
CIRCLE
  5
40B
330
1F
100
AcDbEntity
  8
0-C_ハッチ
  6
Continuous
 62
   120
370
     5
100
AcDbCircle
 10
1518.324898374535
 20
1222.953507706927
 30
0.0
 40
0.3999999749499399
  0
CIRCLE
  5
40C
330
1F
100
AcDbEntity
  8
0-C_ハッチ
  6
Continuous
 62
   120
370
     5
100
AcDbCircle
 10
1366.839269679433
 20
1218.934095228041
 30
0.0
 40
0.3999999749499399
  0
CIRCLE
  5
40D
330
1F
100
AcDbEntity
  8
0-C_ハッチ
  6
Continuous
 62
   120
370
     5
100
AcDbCircle
 10
1373.730468739822
 20
1206.873878272805
 30
0.0
 40
0.3999999749499399
  0
CIRCLE
  5
40E
330
1F
100
AcDbEntity
  8
0-C_ハッチ
  6
Continuous
 62
   120
370
     5
100
AcDbCircle
 10
1363.967977977576
 20
1202.280405405406
 30
0.0
 40
0.3999999749499399
  0
CIRCLE
  5
40F
330
1F
100
AcDbEntity
  8
0-C_ハッチ
  6
Continuous
 62
   120
370
     5
100
AcDbCircle
 10
1478.699885177745
 20
1204.002586570947
 30
0.0
 40
0.3999999749499399
  0
CIRCLE
  5
410
330
1F
100
AcDbEntity
  8
0-C_ハッチ
  6
Continuous
 62
   120
370
     5
100
AcDbCircle
 10
1349.036964200126
 20
1183.90354465794
 30
0.0
 40
0.3999999749499399
  0
CIRCLE
  5
411
330
1F
100
AcDbEntity
  8
0-C_ハッチ
  6
Continuous
 62
   120
370
     5
100
AcDbCircle
 10
1325.928064284585
 20
1186.774836359798
 30
0.0
 40
0.3999999749499399
  0
CIRCLE
  5
412
330
1F
100
AcDbEntity
  8
0-C_ハッチ
  6
Continuous
 62
   120
370
     5
100
AcDbCircle
 10
1354.205487215329
 20
1196.53782200169
 30
0.0
 40
0.3999999749499399
  0
CIRCLE
  5
413
330
1F
100
AcDbEntity
  8
0-C_ハッチ
  6
Continuous
 62
   120
370
     5
100
AcDbCircle
 10
1354.205487215329
 20
1205.151697107265
 30
0.0
 40
0.3999999749499399
  0
CIRCLE
  5
414
330
1F
100
AcDbEntity
  8
0-C_ハッチ
  6
Continuous
 62
   120
370
     5
100
AcDbCircle
 10
1349.611024588639
 20
1216.636863914697
 30
0.0
 40
0.3999999749499399
  0
CIRCLE
  5
415
330
1F
100
AcDbEntity
  8
0-C_ハッチ
  6
Continuous
 62
   120
370
     5
100
AcDbCircle
 10
1476.977209132558
 20
1221.231326541386
 30
0.0
 40
0.3999999749499399
  0
CIRCLE
  5
416
330
1F
100
AcDbEntity
  8
0-C_ハッチ
  6
Continuous
 62
   120
370
     5
100
AcDbCircle
 10
1475.828593475886
 20
1191.369298986488
 30
0.0
 40
0.3999999749499399
  0
CIRCLE
  5
417
330
1F
100
AcDbEntity
  8
0-C_ハッチ
  6
Continuous
 62
   120
370
     5
100
AcDbCircle
 10
1467.788778758826
 20
1182.754434121623
 30
0.0
 40
0.3999999749499399
  0
CIRCLE
  5
418
330
1F
100
AcDbEntity
  8
0-C_ハッチ
  6
Continuous
 62
   120
370
     5
100
AcDbCircle
 10
1316.877705331883
 20
1183.90354465794
 30
0.0
 40
0.3999999749499399
  0
CIRCLE
  5
419
330
1F
100
AcDbEntity
  8
0-C_ハッチ
  6
Continuous
 62
   120
370
     5
100
AcDbCircle
 10
1311.135121928166
 20
1191.369298986488
 30
0.0
 40
0.3999999749499399
  0
CIRCLE
  5
41A
330
1F
100
AcDbEntity
  8
0-C_ハッチ
  6
Continuous
 62
   120
370
     5
100
AcDbCircle
 10
1322.620288735599
 20
1193.091480152028
 30
0.0
 40
0.3999999749499399
  0
CIRCLE
  5
41B
330
1F
100
AcDbEntity
  8
0-C_ハッチ
  6
Continuous
 62
   120
370
     5
100
AcDbCircle
 10
1322.620288735599
 20
1201.131294869089
 30
0.0
 40
0.3999999749499399
  0
CIRCLE
  5
41C
330
1F
100
AcDbEntity
  8
0-C_ハッチ
  6
Continuous
 62
   120
370
     5
100
AcDbCircle
 10
1473.531362162541
 20
1204.577636718751
 30
0.0
 40
0.3999999749499399
  0
CIRCLE
  5
41D
330
1F
100
AcDbEntity
  8
0-C_ハッチ
  6
Continuous
 62
   120
370
     5
100
AcDbCircle
 10
1470.08601007217
 20
1213.765572212839
 30
0.0
 40
0.3999999749499399
  0
CIRCLE
  5
41E
330
1F
100
AcDbEntity
  8
0-C_ハッチ
  6
Continuous
 62
   120
370
     5
100
AcDbCircle
 10
1315.155029286697
 20
1214.913692989866
 30
0.0
 40
0.3999999749499399
  0
CIRCLE
  5
41F
330
1F
100
AcDbEntity
  8
0-C_ハッチ
  6
Continuous
 62
   120
370
     5
100
AcDbCircle
 10
1311.70918231668
 20
1222.379447318413
 30
0.0
 40
0.3999999749499399
  0
CIRCLE
  5
420
330
1F
100
AcDbEntity
  8
0-C_ハッチ
  6
Continuous
 62
   120
370
     5
100
AcDbCircle
 10
1299.649460241088
 20
1220.082216005068
 30
0.0
 40
0.3999999749499399
  0
CIRCLE
  5
421
330
1F
100
AcDbEntity
  8
0-C_ハッチ
  6
Continuous
 62
   120
370
     5
100
AcDbCircle
 10
1297.352723807389
 20
1209.17110958615
 30
0.0
 40
0.3999999749499399
  0
CIRCLE
  5
422
330
1F
100
AcDbEntity
  8
0-C_ハッチ
  6
Continuous
 62
   120
370
     5
100
AcDbCircle
 10
1303.095307211106
 20
1206.299817884291
 30
0.0
 40
0.3999999749499399
  0
CIRCLE
  5
423
330
1F
100
AcDbEntity
  8
0-C_ハッチ
  6
Continuous
 62
   120
370
     5
100
AcDbCircle
 10
1310.561061539653
 20
1204.577636718751
 30
0.0
 40
0.3999999749499399
  0
CIRCLE
  5
424
330
1F
100
AcDbEntity
  8
0-C_ハッチ
  6
Continuous
 62
   120
370
     5
100
AcDbCircle
 10
1303.66936759962
 20
1194.240590688345
 30
0.0
 40
0.3999999749499399
  0
CIRCLE
  5
425
330
1F
100
AcDbEntity
  8
0-C_ハッチ
  6
Continuous
 62
   120
370
     5
100
AcDbCircle
 10
1297.926784195903
 20
1190.794248838683
 30
0.0
 40
0.3999999749499399
  0
CIRCLE
  5
426
330
1F
100
AcDbEntity
  8
0-C_ハッチ
  6
Continuous
 62
   120
370
     5
100
AcDbCircle
 10
1301.372136286275
 20
1183.90354465794
 30
0.0
 40
0.3999999749499399
  0
CIRCLE
  5
427
330
1F
100
AcDbEntity
  8
0-C_ハッチ
  6
Continuous
 62
   120
370
     5
100
AcDbCircle
 10
1272.658724388049
 20
1188.498007284629
 30
0.0
 40
0.3999999749499399
  0
CIRCLE
  5
428
330
1F
100
AcDbEntity
  8
0-C_ハッチ
  6
Continuous
 62
   120
370
     5
100
AcDbCircle
 10
1281.847154761781
 20
1195.388711465373
 30
0.0
 40
0.3999999749499399
  0
CIRCLE
  5
429
330
1F
100
AcDbEntity
  8
0-C_ハッチ
  6
Continuous
 62
   120
370
     5
100
AcDbCircle
 10
1295.629552882558
 20
1195.962771853886
 30
0.0
 40
0.3999999749499399
  0
CIRCLE
  5
42A
330
1F
100
AcDbEntity
  8
0-C_ハッチ
  6
Continuous
 62
   120
370
     5
100
AcDbCircle
 10
1291.035585135514
 20
1202.280405405406
 30
0.0
 40
0.3999999749499399
  0
CIRCLE
  5
42B
330
1F
100
AcDbEntity
  8
0-C_ハッチ
  6
Continuous
 62
   120
370
     5
100
AcDbCircle
 10
1277.827247403251
 20
1213.765572212839
 30
0.0
 40
0.3999999749499399
  0
CIRCLE
  5
42C
330
1F
100
AcDbEntity
  8
0-C_ハッチ
  6
Continuous
 62
   120
370
     5
100
AcDbCircle
 10
1286.441617388471
 20
1219.508155616555
 30
0.0
 40
0.3999999749499399
  0
CIRCLE
  5
42D
330
1F
100
AcDbEntity
  8
0-C_ハッチ
  6
Continuous
 62
   120
370
     5
100
AcDbCircle
 10
1281.847154761781
 20
1210.894280510981
 30
0.0
 40
0.3999999749499399
  0
CIRCLE
  5
42E
330
1F
100
AcDbEntity
  8
0-C_ハッチ
  6
Continuous
 62
   120
370
     5
100
AcDbCircle
 10
1265.76752532766
 20
1204.002586570947
 30
0.0
 40
0.3999999749499399
  0
CIRCLE
  5
42F
330
1F
100
AcDbEntity
  8
0-C_ハッチ
  6
Continuous
 62
   120
370
     5
100
AcDbCircle
 10
1256.579094953927
 20
1193.666530299832
 30
0.0
 40
0.3999999749499399
  0
CIRCLE
  5
430
330
1F
100
AcDbEntity
  8
0-C_ハッチ
  6
Continuous
 62
   120
370
     5
100
AcDbCircle
 10
1274.955955701392
 20
1198.260003167231
 30
0.0
 40
0.3999999749499399
  0
CIRCLE
  5
431
330
1F
100
AcDbEntity
  8
0-C_ハッチ
  6
Continuous
 62
   120
370
     5
100
AcDbCircle
 10
1267.49069625249
 20
1213.191511824325
 30
0.0
 40
0.3999999749499399
  0
CIRCLE
  5
432
330
1F
100
AcDbEntity
  8
0-C_ハッチ
  6
Continuous
 62
   120
370
     5
100
AcDbCircle
 10
1278.975863059924
 20
1220.082216005068
 30
0.0
 40
0.3999999749499399
  0
CIRCLE
  5
433
330
1F
100
AcDbEntity
  8
0-C_ハッチ
  6
Continuous
 62
   120
370
     5
100
AcDbCircle
 10
1242.79669683315
 20
1219.508155616555
 30
0.0
 40
0.3999999749499399
  0
CIRCLE
  5
434
330
1F
100
AcDbEntity
  8
0-C_ハッチ
  6
Continuous
 62
   120
370
     5
100
AcDbCircle
 10
1263.470294014315
 20
1221.231326541386
 30
0.0
 40
0.3999999749499399
  0
CIRCLE
  5
435
330
1F
100
AcDbEntity
  8
0-C_ハッチ
  6
Continuous
 62
   120
370
     5
100
AcDbCircle
 10
1246.81660419168
 20
1210.320220122467
 30
0.0
 40
0.3999999749499399
  0
CIRCLE
  5
436
330
1F
100
AcDbEntity
  8
0-C_ハッチ
  6
Continuous
 62
   120
370
     5
100
AcDbCircle
 10
1256.579094953927
 20
1202.280405405406
 30
0.0
 40
0.3999999749499399
  0
CIRCLE
  5
437
330
1F
100
AcDbEntity
  8
0-C_ハッチ
  6
Continuous
 62
   120
370
     5
100
AcDbCircle
 10
1260.599002312457
 20
1182.180373733109
 30
0.0
 40
0.3999999749499399
  0
CIRCLE
  5
438
330
1F
100
AcDbEntity
  8
0-C_ハッチ
  6
Continuous
 62
   120
370
     5
100
AcDbCircle
 10
1240.499465519805
 20
1182.180373733109
 30
0.0
 40
0.3999999749499399
  0
CIRCLE
  5
439
330
1F
100
AcDbEntity
  8
0-C_ハッチ
  6
Continuous
 62
   120
370
     5
100
AcDbCircle
 10
1263.470294014315
 20
1187.922957136825
 30
0.0
 40
0.3999999749499399
  0
CIRCLE
  5
43A
330
1F
100
AcDbEntity
  8
0-C_ハッチ
  6
Continuous
 62
   120
370
     5
100
AcDbCircle
 10
1249.113835505025
 20
1188.498007284629
 30
0.0
 40
0.3999999749499399
  0
CIRCLE
  5
43B
330
1F
100
AcDbEntity
  8
0-C_ハッチ
  6
Continuous
 62
   120
370
     5
100
AcDbCircle
 10
1242.79669683315
 20
1198.834063555744
 30
0.0
 40
0.3999999749499399
  0
CIRCLE
  5
43C
330
1F
100
AcDbEntity
  8
0-C_ハッチ
  6
Continuous
 62
   120
370
     5
100
AcDbCircle
 10
1227.865683055701
 20
1190.22018845017
 30
0.0
 40
0.3999999749499399
  0
CIRCLE
  5
43D
330
1F
100
AcDbEntity
  8
0-C_ハッチ
  6
Continuous
 62
   120
370
     5
100
AcDbCircle
 10
1226.14251213087
 20
1197.685942778717
 30
0.0
 40
0.3999999749499399
  0
CIRCLE
  5
43E
330
1F
100
AcDbEntity
  8
0-C_ハッチ
  6
Continuous
 62
   120
370
     5
100
AcDbCircle
 10
1231.885590414231
 20
1213.765572212839
 30
0.0
 40
0.3999999749499399
  0
CIRCLE
  5
43F
330
1F
100
AcDbEntity
  8
0-C_ハッチ
  6
Continuous
 62
   120
370
     5
100
AcDbCircle
 10
1226.14251213087
 20
1222.379447318413
 30
0.0
 40
0.3999999749499399
  0
CIRCLE
  5
440
330
1F
100
AcDbEntity
  8
0-C_ハッチ
  6
Continuous
 62
   120
370
     5
100
AcDbCircle
 10
1596.759857992356
 20
1187.922957136825
 30
0.0
 40
0.3999999749499399
  0
CIRCLE
  5
441
330
1F
100
AcDbEntity
  8
0-C_ハッチ
  6
Continuous
 62
   120
370
     5
100
AcDbCircle
 10
1611.69037689016
 20
1194.240590688345
 30
0.0
 40
0.3999999749499399
  0
CIRCLE
  5
442
330
1F
100
AcDbEntity
  8
0-C_ハッチ
  6
Continuous
 62
   120
370
     5
100
AcDbCircle
 10
1604.225117441258
 20
1205.725757495778
 30
0.0
 40
0.3999999749499399
  0
CIRCLE
  5
443
330
1F
100
AcDbEntity
  8
0-C_ハッチ
  6
Continuous
 62
   120
370
     5
100
AcDbCircle
 10
1596.759857992356
 20
1211.468340899494
 30
0.0
 40
0.3999999749499399
  0
CIRCLE
  5
444
330
1F
100
AcDbEntity
  8
0-C_ハッチ
  6
Continuous
 62
   120
370
     5
100
AcDbCircle
 10
1615.710779128335
 20
1220.657266152873
 30
0.0
 40
0.3999999749499399
  0
CIRCLE
  5
445
330
1F
100
AcDbEntity
  8
0-C_ハッチ
  6
Continuous
 62
   120
370
     5
100
AcDbCircle
 10
1626.04782515874
 20
1220.657266152873
 30
0.0
 40
0.3999999749499399
  0
CIRCLE
  5
446
330
1F
100
AcDbEntity
  8
0-C_ハッチ
  6
Continuous
 62
   120
370
     5
100
AcDbCircle
 10
1626.621885547254
 20
1211.468340899494
 30
0.0
 40
0.3999999749499399
  0
CIRCLE
  5
447
330
1F
100
AcDbEntity
  8
0-C_ハッチ
  6
Continuous
 62
   120
370
     5
100
AcDbCircle
 10
1624.898714622424
 20
1189.646128061656
 30
0.0
 40
0.3999999749499399
  0
CIRCLE
  5
448
330
1F
100
AcDbEntity
  8
0-C_ハッチ
  6
Continuous
 62
   120
370
     5
100
AcDbCircle
 10
1608.819085188302
 20
1210.320220122467
 30
0.0
 40
0.3999999749499399
  0
CIRCLE
  5
449
330
1F
100
AcDbEntity
  8
0-C_ハッチ
  6
Continuous
 62
   120
370
     5
100
AcDbCircle
 10
1604.799672709416
 20
1186.200775971285
 30
0.0
 40
0.3999999749499399
  0
CIRCLE
  5
44A
330
1F
100
AcDbEntity
  8
0-C_ハッチ
  6
Continuous
 62
   120
370
     5
100
AcDbCircle
 10
1600.77927047124
 20
1222.953507706927
 30
0.0
 40
0.3999999749499399
  0
CIRCLE
  5
44B
330
1F
100
AcDbEntity
  8
0-C_ハッチ
  6
Continuous
 62
   120
370
     5
100
AcDbCircle
 10
1186.082994605531
 20
1182.028940561656
 30
0.0
 40
0.3999999749499399
  0
CIRCLE
  5
44C
330
1F
100
AcDbEntity
  8
0-C_ハッチ
  6
Continuous
 62
   120
370
     5
100
AcDbCircle
 10
1193.53291278543
 20
1195.111578864021
 30
0.0
 40
0.3999999749499399
  0
CIRCLE
  5
44D
330
1F
100
AcDbEntity
  8
0-C_ハッチ
  6
Continuous
 62
   120
370
     5
100
AcDbCircle
 10
1188.989917641849
 20
1206.740260768582
 30
0.0
 40
0.3999999749499399
  0
CIRCLE
  5
44E
330
1F
100
AcDbEntity
  8
0-C_ハッチ
  6
Continuous
 62
   120
370
     5
100
AcDbCircle
 10
1192.987555416343
 20
1216.007377005913
 30
0.0
 40
0.3999999749499399
  0
CIRCLE
  5
44F
330
1F
100
AcDbEntity
  8
0-C_ハッチ
  6
Continuous
 62
   120
370
     5
100
AcDbCircle
 10
1180.268158773606
 20
1198.381743559967
 30
0.0
 40
0.3999999749499399
  0
CIRCLE
  5
450
330
1F
100
AcDbEntity
  8
0-C_ハッチ
  6
Continuous
 62
   120
370
     5
100
AcDbCircle
 10
1165.187196463639
 20
1186.570945945947
 30
0.0
 40
0.3999999749499399
  0
CIRCLE
  5
451
330
1F
100
AcDbEntity
  8
0-C_ハッチ
  6
Continuous
 62
   120
370
     5
100
AcDbCircle
 10
1160.462580490245
 20
1205.468420080238
 30
0.0
 40
0.3999999749499399
  0
CIRCLE
  5
452
330
1F
100
AcDbEntity
  8
0-C_ハッチ
  6
Continuous
 62
   120
370
     5
100
AcDbCircle
 10
1169.365960188302
 20
1199.472458298143
 30
0.0
 40
0.3999999749499399
  0
CIRCLE
  5
453
330
1F
100
AcDbEntity
  8
0-C_ハッチ
  6
Continuous
 62
   120
370
     5
100
AcDbCircle
 10
1135.024282084416
 20
1198.927100929055
 30
0.0
 40
0.3999999749499399
  0
CIRCLE
  5
454
330
1F
100
AcDbEntity
  8
0-C_ハッチ
  6
Continuous
 62
   120
370
     5
100
AcDbCircle
 10
1145.495935378335
 20
1218.228396853886
 30
0.0
 40
0.3999999749499399
  0
CIRCLE
  5
455
330
1F
100
AcDbEntity
  8
0-C_ハッチ
  6
Continuous
 62
   120
370
     5
100
AcDbCircle
 10
1148.941287468707
 20
1202.148767419765
 30
0.0
 40
0.3999999749499399
  0
CIRCLE
  5
456
330
1F
100
AcDbEntity
  8
0-C_ハッチ
  6
Continuous
 62
   120
370
     5
100
AcDbCircle
 10
1148.367227080194
 20
1184.345967060812
 30
0.0
 40
0.3999999749499399
  0
CIRCLE
  5
457
330
1F
100
AcDbEntity
  8
0-C_ハッチ
  6
Continuous
 62
   120
370
     5
100
AcDbCircle
 10
1156.981102185767
 20
1190.088550464528
 30
0.0
 40
0.3999999749499399
  0
CIRCLE
  5
458
330
1F
100
AcDbEntity
  8
0-C_ハッチ
  6
Continuous
 62
   120
370
     5
100
AcDbCircle
 10
1121.950551615666
 20
1187.792308910474
 30
0.0
 40
0.3999999749499399
  0
CIRCLE
  5
459
330
1F
100
AcDbEntity
  8
0-C_ハッチ
  6
Continuous
 62
   120
370
     5
100
AcDbCircle
 10
1141.476028019805
 20
1192.385781777873
 30
0.0
 40
0.3999999749499399
  0
CIRCLE
  5
45A
330
1F
100
AcDbEntity
  8
0-C_ハッチ
  6
Continuous
 62
   120
370
     5
100
AcDbCircle
 10
1131.1389819894
 20
1210.188582136825
 30
0.0
 40
0.3999999749499399
  0
CIRCLE
  5
45B
330
1F
100
AcDbEntity
  8
0-C_ハッチ
  6
Continuous
 62
   120
370
     5
100
AcDbCircle
 10
1111.613505585261
 20
1211.911753061656
 30
0.0
 40
0.3999999749499399
  0
CIRCLE
  5
45C
330
1F
100
AcDbEntity
  8
0-C_ハッチ
  6
Continuous
 62
   120
370
     5
100
AcDbCircle
 10
1121.950551615666
 20
1218.8024572424
 30
0.0
 40
0.3999999749499399
  0
CIRCLE
  5
45D
330
1F
100
AcDbEntity
  8
0-C_ハッチ
  6
Continuous
 62
   120
370
     5
100
AcDbCircle
 10
1163.872796125802
 20
1210.188582136825
 30
0.0
 40
0.3999999749499399
  0
CIRCLE
  5
45E
330
1F
100
AcDbEntity
  8
0-C_ハッチ
  6
Continuous
 62
   120
370
     5
100
AcDbCircle
 10
1166.74408782766
 20
1218.228396853886
 30
0.0
 40
0.3999999749499399
  0
CIRCLE
  5
45F
330
1F
100
AcDbEntity
  8
0-C_ハッチ
  6
Continuous
 62
   120
370
     5
100
AcDbCircle
 10
1178.229254635093
 20
1207.891350823481
 30
0.0
 40
0.3999999749499399
  0
CIRCLE
  5
460
330
1F
100
AcDbEntity
  8
0-C_ハッチ
  6
Continuous
 62
   120
370
     5
100
AcDbCircle
 10
1140.327412363133
 20
1213.633934227197
 30
0.0
 40
0.3999999749499399
  0
CIRCLE
  5
461
330
1F
100
AcDbEntity
  8
0-C_ハッチ
  6
Continuous
 62
   120
370
     5
100
AcDbCircle
 10
1116.207968211951
 20
1195.832123627535
 30
0.0
 40
0.3999999749499399
  0
CIRCLE
  5
462
330
1F
100
AcDbEntity
  8
0-C_ハッチ
  6
Continuous
 62
   120
370
     5
100
AcDbCircle
 10
1176.143831809924
 20
1186.069137985643
 30
0.0
 40
0.3999999749499399
  0
CIRCLE
  5
463
330
1F
100
AcDbEntity
  8
0-C_ハッチ
  6
Continuous
 62
   120
370
     5
100
AcDbCircle
 10
1191.074350707727
 20
1192.385781777873
 30
0.0
 40
0.3999999749499399
  0
CIRCLE
  5
464
330
1F
100
AcDbEntity
  8
0-C_ハッチ
  6
Continuous
 62
   120
370
     5
100
AcDbCircle
 10
1183.609091258826
 20
1203.871938344595
 30
0.0
 40
0.3999999749499399
  0
CIRCLE
  5
465
330
1F
100
AcDbEntity
  8
0-C_ハッチ
  6
Continuous
 62
   120
370
     5
100
AcDbCircle
 10
1176.143831809924
 20
1209.614521748312
 30
0.0
 40
0.3999999749499399
  0
CIRCLE
  5
466
330
1F
100
AcDbEntity
  8
0-C_ハッチ
  6
Continuous
 62
   120
370
     5
100
AcDbCircle
 10
1195.094752945903
 20
1218.8024572424
 30
0.0
 40
0.3999999749499399
  0
CIRCLE
  5
467
330
1F
100
AcDbEntity
  8
0-C_ハッチ
  6
Continuous
 62
   120
370
     5
100
AcDbCircle
 10
1205.431798976308
 20
1218.8024572424
 30
0.0
 40
0.3999999749499399
  0
CIRCLE
  5
468
330
1F
100
AcDbEntity
  8
0-C_ハッチ
  6
Continuous
 62
   120
370
     5
100
AcDbCircle
 10
1206.005859364822
 20
1209.614521748312
 30
0.0
 40
0.3999999749499399
  0
CIRCLE
  5
469
330
1F
100
AcDbEntity
  8
0-C_ハッチ
  6
Continuous
 62
   120
370
     5
100
AcDbCircle
 10
1211.174382380025
 20
1196.406184016048
 30
0.0
 40
0.3999999749499399
  0
CIRCLE
  5
46A
330
1F
100
AcDbEntity
  8
0-C_ハッチ
  6
Continuous
 62
   120
370
     5
100
AcDbCircle
 10
1209.451211455194
 20
1184.920027449325
 30
0.0
 40
0.3999999749499399
  0
CIRCLE
  5
46B
330
1F
100
AcDbEntity
  8
0-C_ハッチ
  6
Continuous
 62
   120
370
     5
100
AcDbCircle
 10
1204.28268843999
 20
1187.792308910474
 30
0.0
 40
0.3999999749499399
  0
CIRCLE
  5
46C
330
1F
100
AcDbEntity
  8
0-C_ハッチ
  6
Continuous
 62
   120
370
     5
100
AcDbCircle
 10
1188.20305900587
 20
1208.465411211994
 30
0.0
 40
0.3999999749499399
  0
CIRCLE
  5
46D
330
1F
100
AcDbEntity
  8
0-C_ハッチ
  6
Continuous
 62
   120
370
     5
100
AcDbCircle
 10
1184.183646526984
 20
1184.345967060812
 30
0.0
 40
0.3999999749499399
  0
CIRCLE
  5
46E
330
1F
100
AcDbEntity
  8
0-C_ハッチ
  6
Continuous
 62
   120
370
     5
100
AcDbCircle
 10
1180.163244288808
 20
1221.099688555744
 30
0.0
 40
0.3999999749499399
  0
CIRCLE
  5
46F
330
1F
100
AcDbEntity
  8
0-C_ハッチ
  6
Continuous
 62
   120
370
     5
100
AcDbCircle
 10
2037.37298088087
 20
1218.849965688345
 30
0.0
 40
0.3999999749499399
  0
CIRCLE
  5
470
330
1F
100
AcDbEntity
  8
0-C_ハッチ
  6
Continuous
 62
   120
370
     5
100
AcDbCircle
 10
2028.18405562749
 20
1209.086980046454
 30
0.0
 40
0.3999999749499399
  0
CIRCLE
  5
471
330
1F
100
AcDbEntity
  8
0-C_ハッチ
  6
Continuous
 62
   120
370
     5
100
AcDbCircle
 10
2038.521101657897
 20
1209.086980046454
 30
0.0
 40
0.3999999749499399
  0
CIRCLE
  5
472
330
1F
100
AcDbEntity
  8
0-C_ハッチ
  6
Continuous
 62
   120
370
     5
100
AcDbCircle
 10
2031.055347329349
 20
1199.899044552366
 30
0.0
 40
0.3999999749499399
  0
CIRCLE
  5
473
330
1F
100
AcDbEntity
  8
0-C_ハッチ
  6
Continuous
 62
   120
370
     5
100
AcDbCircle
 10
2023.015532612288
 20
1191.859229835305
 30
0.0
 40
0.3999999749499399
  0
CIRCLE
  5
474
330
1F
100
AcDbEntity
  8
0-C_ハッチ
  6
Continuous
 62
   120
370
     5
100
AcDbCircle
 10
2027.035934850464
 20
1182.096244193413
 30
0.0
 40
0.3999999749499399
  0
CIRCLE
  5
475
330
1F
100
AcDbEntity
  8
0-C_ハッチ
  6
Continuous
 62
   120
370
     5
100
AcDbCircle
 10
2035.649809956038
 20
1188.412887985643
 30
0.0
 40
0.3999999749499399
  0
CIRCLE
  5
476
330
1F
100
AcDbEntity
  8
0-C_ハッチ
  6
Continuous
 62
   120
370
     5
100
AcDbCircle
 10
2007.510953325971
 20
1182.096244193413
 30
0.0
 40
0.3999999749499399
  0
CIRCLE
  5
477
330
1F
100
AcDbEntity
  8
0-C_ハッチ
  6
Continuous
 62
   120
370
     5
100
AcDbCircle
 10
2008.659074102998
 20
1204.492517419765
 30
0.0
 40
0.3999999749499399
  0
CIRCLE
  5
478
330
1F
100
AcDbEntity
  8
0-C_ハッチ
  6
Continuous
 62
   120
370
     5
100
AcDbCircle
 10
2022.441472223775
 20
1209.086980046454
 30
0.0
 40
0.3999999749499399
  0
CIRCLE
  5
479
330
1F
100
AcDbEntity
  8
0-C_ハッチ
  6
Continuous
 62
   120
370
     5
100
AcDbCircle
 10
2004.638671864822
 20
1213.681442673143
 30
0.0
 40
0.3999999749499399
  0
CIRCLE
  5
47A
330
1F
100
AcDbEntity
  8
0-C_ハッチ
  6
Continuous
 62
   120
370
     5
100
AcDbCircle
 10
1988.559042430701
 20
1214.255503061656
 30
0.0
 40
0.3999999749499399
  0
CIRCLE
  5
47B
330
1F
100
AcDbEntity
  8
0-C_ハッチ
  6
Continuous
 62
   120
370
     5
100
AcDbCircle
 10
1990.282213355531
 20
1182.670304581927
 30
0.0
 40
0.3999999749499399
  0
CIRCLE
  5
47C
330
1F
100
AcDbEntity
  8
0-C_ハッチ
  6
Continuous
 62
   120
370
     5
100
AcDbCircle
 10
1983.965569563302
 20
1193.007350612332
 30
0.0
 40
0.3999999749499399
  0
CIRCLE
  5
47D
330
1F
100
AcDbEntity
  8
0-C_ハッチ
  6
Continuous
 62
   120
370
     5
100
AcDbCircle
 10
1974.20258392141
 20
1188.986948374156
 30
0.0
 40
0.3999999749499399
  0
CIRCLE
  5
47E
330
1F
100
AcDbEntity
  8
0-C_ハッチ
  6
Continuous
 62
   120
370
     5
100
AcDbCircle
 10
1954.103542008403
 20
1194.730521537163
 30
0.0
 40
0.3999999749499399
  0
CIRCLE
  5
47F
330
1F
100
AcDbEntity
  8
0-C_ハッチ
  6
Continuous
 62
   120
370
     5
100
AcDbCircle
 10
1967.311879740666
 20
1202.770336254224
 30
0.0
 40
0.3999999749499399
  0
CIRCLE
  5
480
330
1F
100
AcDbEntity
  8
0-C_ハッチ
  6
Continuous
 62
   120
370
     5
100
AcDbCircle
 10
1981.094277861444
 20
1205.066577808278
 30
0.0
 40
0.3999999749499399
  0
CIRCLE
  5
481
330
1F
100
AcDbEntity
  8
0-C_ハッチ
  6
Continuous
 62
   120
370
     5
100
AcDbCircle
 10
1966.736829592862
 20
1215.403623838683
 30
0.0
 40
0.3999999749499399
  0
CIRCLE
  5
482
330
1F
100
AcDbEntity
  8
0-C_ハッチ
  6
Continuous
 62
   120
370
     5
100
AcDbCircle
 10
1946.063727291343
 20
1219.998086465373
 30
0.0
 40
0.3999999749499399
  0
CIRCLE
  5
483
330
1F
100
AcDbEntity
  8
0-C_ハッチ
  6
Continuous
 62
   120
370
     5
100
AcDbCircle
 10
1935.726681260937
 20
1205.641627956082
 30
0.0
 40
0.3999999749499399
  0
CIRCLE
  5
484
330
1F
100
AcDbEntity
  8
0-C_ハッチ
  6
Continuous
 62
   120
370
     5
100
AcDbCircle
 10
1934.003510336106
 20
1188.986948374156
 30
0.0
 40
0.3999999749499399
  0
CIRCLE
  5
485
330
1F
100
AcDbEntity
  8
0-C_ハッチ
  6
Continuous
 62
   120
370
     5
100
AcDbCircle
 10
1947.785908456883
 20
1180.947133657095
 30
0.0
 40
0.3999999749499399
  0
CIRCLE
  5
486
330
1F
100
AcDbEntity
  8
0-C_ハッチ
  6
Continuous
 62
   120
370
     5
100
AcDbCircle
 10
1947.21184806837
 20
1198.749934016048
 30
0.0
 40
0.3999999749499399
  0
CIRCLE
  5
487
330
1F
100
AcDbEntity
  8
0-C_ハッチ
  6
Continuous
 62
   120
370
     5
100
AcDbCircle
 10
1950.65720015874
 20
1206.215688344595
 30
0.0
 40
0.3999999749499399
  0
CIRCLE
  5
488
330
1F
100
AcDbEntity
  8
0-C_ハッチ
  6
Continuous
 62
   120
370
     5
100
AcDbCircle
 10
1959.84612541212
 20
1195.87864231419
 30
0.0
 40
0.3999999749499399
  0
CIRCLE
  5
489
330
1F
100
AcDbEntity
  8
0-C_ハッチ
  6
Continuous
 62
   120
370
     5
100
AcDbCircle
 10
1964.440588038808
 20
1184.393475506758
 30
0.0
 40
0.3999999749499399
  0
CIRCLE
  5
48A
330
1F
100
AcDbEntity
  8
0-C_ハッチ
  6
Continuous
 62
   120
370
     5
100
AcDbCircle
 10
1923.666464305701
 20
1194.730521537163
 30
0.0
 40
0.3999999749499399
  0
CIRCLE
  5
48B
330
1F
100
AcDbEntity
  8
0-C_ハッチ
  6
Continuous
 62
   120
370
     5
100
AcDbCircle
 10
1900.696130690835
 20
1190.136058910474
 30
0.0
 40
0.3999999749499399
  0
CIRCLE
  5
48C
330
1F
100
AcDbEntity
  8
0-C_ハッチ
  6
Continuous
 62
   120
370
     5
100
AcDbCircle
 10
1898.972959766004
 20
1187.264767208616
 30
0.0
 40
0.3999999749499399
  0
CIRCLE
  5
48D
330
1F
100
AcDbEntity
  8
0-C_ハッチ
  6
Continuous
 62
   120
370
     5
100
AcDbCircle
 10
1894.95354728712
 20
1205.641627956082
 30
0.0
 40
0.3999999749499399
  0
CIRCLE
  5
48E
330
1F
100
AcDbEntity
  8
0-C_ハッチ
  6
Continuous
 62
   120
370
     5
100
AcDbCircle
 10
1911.607237109754
 20
1186.115656672298
 30
0.0
 40
0.3999999749499399
  0
CIRCLE
  5
48F
330
1F
100
AcDbEntity
  8
0-C_ハッチ
  6
Continuous
 62
   120
370
     5
100
AcDbCircle
 10
1917.923880901984
 20
1200.473104940879
 30
0.0
 40
0.3999999749499399
  0
CIRCLE
  5
490
330
1F
100
AcDbEntity
  8
0-C_ハッチ
  6
Continuous
 62
   120
370
     5
100
AcDbCircle
 10
1925.389635230531
 20
1211.958271748312
 30
0.0
 40
0.3999999749499399
  0
CIRCLE
  5
491
330
1F
100
AcDbEntity
  8
0-C_ハッチ
  6
Continuous
 62
   120
370
     5
100
AcDbCircle
 10
1897.249788841174
 20
1217.126794763515
 30
0.0
 40
0.3999999749499399
  0
CIRCLE
  5
492
330
1F
100
AcDbEntity
  8
0-C_ハッチ
  6
Continuous
 62
   120
370
     5
100
AcDbCircle
 10
1904.141482781207
 20
1205.066577808278
 30
0.0
 40
0.3999999749499399
  0
CIRCLE
  5
493
330
1F
100
AcDbEntity
  8
0-C_ハッチ
  6
Continuous
 62
   120
370
     5
100
AcDbCircle
 10
1894.378497139315
 20
1200.473104940879
 30
0.0
 40
0.3999999749499399
  0
CIRCLE
  5
494
330
1F
100
AcDbEntity
  8
0-C_ハッチ
  6
Continuous
 62
   120
370
     5
100
AcDbCircle
 10
2009.110404339484
 20
1202.19528610642
 30
0.0
 40
0.3999999749499399
  0
CIRCLE
  5
495
330
1F
100
AcDbEntity
  8
0-C_ハッチ
  6
Continuous
 62
   120
370
     5
100
AcDbCircle
 10
1879.447978241511
 20
1182.096244193413
 30
0.0
 40
0.3999999749499399
  0
CIRCLE
  5
496
330
1F
100
AcDbEntity
  8
0-C_ハッチ
  6
Continuous
 62
   120
370
     5
100
AcDbCircle
 10
1856.339078325971
 20
1184.967535895271
 30
0.0
 40
0.3999999749499399
  0
CIRCLE
  5
497
330
1F
100
AcDbEntity
  8
0-C_ハッチ
  6
Continuous
 62
   120
370
     5
100
AcDbCircle
 10
1884.616501256714
 20
1194.730521537163
 30
0.0
 40
0.3999999749499399
  0
CIRCLE
  5
498
330
1F
100
AcDbEntity
  8
0-C_ハッチ
  6
Continuous
 62
   120
370
     5
100
AcDbCircle
 10
1884.616501256714
 20
1203.344396642738
 30
0.0
 40
0.3999999749499399
  0
CIRCLE
  5
499
330
1F
100
AcDbEntity
  8
0-C_ハッチ
  6
Continuous
 62
   120
370
     5
100
AcDbCircle
 10
1880.022038630025
 20
1214.82956345017
 30
0.0
 40
0.3999999749499399
  0
CIRCLE
  5
49A
330
1F
100
AcDbEntity
  8
0-C_ハッチ
  6
Continuous
 62
   120
370
     5
100
AcDbCircle
 10
2007.388223173944
 20
1219.424026076859
 30
0.0
 40
0.3999999749499399
  0
CIRCLE
  5
49B
330
1F
100
AcDbEntity
  8
0-C_ハッチ
  6
Continuous
 62
   120
370
     5
100
AcDbCircle
 10
2006.239112637626
 20
1189.561998521961
 30
0.0
 40
0.3999999749499399
  0
CIRCLE
  5
49C
330
1F
100
AcDbEntity
  8
0-C_ハッチ
  6
Continuous
 62
   120
370
     5
100
AcDbCircle
 10
1998.199297920565
 20
1180.947133657095
 30
0.0
 40
0.3999999749499399
  0
CIRCLE
  5
49D
330
1F
100
AcDbEntity
  8
0-C_ハッチ
  6
Continuous
 62
   120
370
     5
100
AcDbCircle
 10
1847.288719373267
 20
1182.096244193413
 30
0.0
 40
0.3999999749499399
  0
CIRCLE
  5
49E
330
1F
100
AcDbEntity
  8
0-C_ハッチ
  6
Continuous
 62
   120
370
     5
100
AcDbCircle
 10
1841.546135969552
 20
1189.561998521961
 30
0.0
 40
0.3999999749499399
  0
CIRCLE
  5
49F
330
1F
100
AcDbEntity
  8
0-C_ハッチ
  6
Continuous
 62
   120
370
     5
100
AcDbCircle
 10
1853.031302776984
 20
1191.284179687501
 30
0.0
 40
0.3999999749499399
  0
CIRCLE
  5
4A0
330
1F
100
AcDbEntity
  8
0-C_ハッチ
  6
Continuous
 62
   120
370
     5
100
AcDbCircle
 10
1853.031302776984
 20
1199.323994404562
 30
0.0
 40
0.3999999749499399
  0
CIRCLE
  5
4A1
330
1F
100
AcDbEntity
  8
0-C_ハッチ
  6
Continuous
 62
   120
370
     5
100
AcDbCircle
 10
2003.941881324281
 20
1202.770336254224
 30
0.0
 40
0.3999999749499399
  0
CIRCLE
  5
4A2
330
1F
100
AcDbEntity
  8
0-C_ハッチ
  6
Continuous
 62
   120
370
     5
100
AcDbCircle
 10
2000.49652923391
 20
1211.958271748312
 30
0.0
 40
0.3999999749499399
  0
CIRCLE
  5
4A3
330
1F
100
AcDbEntity
  8
0-C_ハッチ
  6
Continuous
 62
   120
370
     5
100
AcDbCircle
 10
1845.565548448437
 20
1213.106392525339
 30
0.0
 40
0.3999999749499399
  0
CIRCLE
  5
4A4
330
1F
100
AcDbEntity
  8
0-C_ハッチ
  6
Continuous
 62
   120
370
     5
100
AcDbCircle
 10
1842.120196358065
 20
1220.572146853886
 30
0.0
 40
0.3999999749499399
  0
CIRCLE
  5
4A5
330
1F
100
AcDbEntity
  8
0-C_ハッチ
  6
Continuous
 62
   120
370
     5
100
AcDbCircle
 10
1830.059979402829
 20
1218.274915540541
 30
0.0
 40
0.3999999749499399
  0
CIRCLE
  5
4A6
330
1F
100
AcDbEntity
  8
0-C_ハッチ
  6
Continuous
 62
   120
370
     5
100
AcDbCircle
 10
1827.763737848775
 20
1207.363809121623
 30
0.0
 40
0.3999999749499399
  0
CIRCLE
  5
4A7
330
1F
100
AcDbEntity
  8
0-C_ハッチ
  6
Continuous
 62
   120
370
     5
100
AcDbCircle
 10
1833.50632125249
 20
1204.492517419765
 30
0.0
 40
0.3999999749499399
  0
CIRCLE
  5
4A8
330
1F
100
AcDbEntity
  8
0-C_ハッチ
  6
Continuous
 62
   120
370
     5
100
AcDbCircle
 10
1840.972075581038
 20
1202.770336254224
 30
0.0
 40
0.3999999749499399
  0
CIRCLE
  5
4A9
330
1F
100
AcDbEntity
  8
0-C_ハッチ
  6
Continuous
 62
   120
370
     5
100
AcDbCircle
 10
1834.080381641004
 20
1192.433290223818
 30
0.0
 40
0.3999999749499399
  0
CIRCLE
  5
4AA
330
1F
100
AcDbEntity
  8
0-C_ハッチ
  6
Continuous
 62
   120
370
     5
100
AcDbCircle
 10
1828.337798237288
 20
1188.986948374156
 30
0.0
 40
0.3999999749499399
  0
CIRCLE
  5
4AB
330
1F
100
AcDbEntity
  8
0-C_ハッチ
  6
Continuous
 62
   120
370
     5
100
AcDbCircle
 10
1831.78315032766
 20
1182.096244193413
 30
0.0
 40
0.3999999749499399
  0
CIRCLE
  5
4AC
330
1F
100
AcDbEntity
  8
0-C_ハッチ
  6
Continuous
 62
   120
370
     5
100
AcDbCircle
 10
1803.069243549788
 20
1186.690706820102
 30
0.0
 40
0.3999999749499399
  0
CIRCLE
  5
4AD
330
1F
100
AcDbEntity
  8
0-C_ハッチ
  6
Continuous
 62
   120
370
     5
100
AcDbCircle
 10
1812.258168803166
 20
1193.581411000845
 30
0.0
 40
0.3999999749499399
  0
CIRCLE
  5
4AE
330
1F
100
AcDbEntity
  8
0-C_ハッチ
  6
Continuous
 62
   120
370
     5
100
AcDbCircle
 10
1826.040566923944
 20
1194.155471389359
 30
0.0
 40
0.3999999749499399
  0
CIRCLE
  5
4AF
330
1F
100
AcDbEntity
  8
0-C_ハッチ
  6
Continuous
 62
   120
370
     5
100
AcDbCircle
 10
1821.446104297254
 20
1200.473104940879
 30
0.0
 40
0.3999999749499399
  0
CIRCLE
  5
4B0
330
1F
100
AcDbEntity
  8
0-C_ハッチ
  6
Continuous
 62
   120
370
     5
100
AcDbCircle
 10
1808.23776656499
 20
1211.958271748312
 30
0.0
 40
0.3999999749499399
  0
CIRCLE
  5
4B1
330
1F
100
AcDbEntity
  8
0-C_ハッチ
  6
Continuous
 62
   120
370
     5
100
AcDbCircle
 10
1816.852631429856
 20
1217.700855152028
 30
0.0
 40
0.3999999749499399
  0
CIRCLE
  5
4B2
330
1F
100
AcDbEntity
  8
0-C_ハッチ
  6
Continuous
 62
   120
370
     5
100
AcDbCircle
 10
1812.258168803166
 20
1209.086980046454
 30
0.0
 40
0.3999999749499399
  0
CIRCLE
  5
4B3
330
1F
100
AcDbEntity
  8
0-C_ハッチ
  6
Continuous
 62
   120
370
     5
100
AcDbCircle
 10
1796.178539369045
 20
1202.19528610642
 30
0.0
 40
0.3999999749499399
  0
CIRCLE
  5
4B4
330
1F
100
AcDbEntity
  8
0-C_ハッチ
  6
Continuous
 62
   120
370
     5
100
AcDbCircle
 10
1786.989614115666
 20
1191.859229835305
 30
0.0
 40
0.3999999749499399
  0
CIRCLE
  5
4B5
330
1F
100
AcDbEntity
  8
0-C_ハッチ
  6
Continuous
 62
   120
370
     5
100
AcDbCircle
 10
1805.366474863133
 20
1196.452702702704
 30
0.0
 40
0.3999999749499399
  0
CIRCLE
  5
4B6
330
1F
100
AcDbEntity
  8
0-C_ハッチ
  6
Continuous
 62
   120
370
     5
100
AcDbCircle
 10
1797.901710293876
 20
1211.384211359798
 30
0.0
 40
0.3999999749499399
  0
CIRCLE
  5
4B7
330
1F
100
AcDbEntity
  8
0-C_ハッチ
  6
Continuous
 62
   120
370
     5
100
AcDbCircle
 10
1809.386877101308
 20
1218.274915540541
 30
0.0
 40
0.3999999749499399
  0
CIRCLE
  5
4B8
330
1F
100
AcDbEntity
  8
0-C_ハッチ
  6
Continuous
 62
   120
370
     5
100
AcDbCircle
 10
1773.207215994889
 20
1217.700855152028
 30
0.0
 40
0.3999999749499399
  0
CIRCLE
  5
4B9
330
1F
100
AcDbEntity
  8
0-C_ハッチ
  6
Continuous
 62
   120
370
     5
100
AcDbCircle
 10
1793.881308055701
 20
1219.424026076859
 30
0.0
 40
0.3999999749499399
  0
CIRCLE
  5
4BA
330
1F
100
AcDbEntity
  8
0-C_ハッチ
  6
Continuous
 62
   120
370
     5
100
AcDbCircle
 10
1777.227618233065
 20
1208.51291965794
 30
0.0
 40
0.3999999749499399
  0
CIRCLE
  5
4BB
330
1F
100
AcDbEntity
  8
0-C_ハッチ
  6
Continuous
 62
   120
370
     5
100
AcDbCircle
 10
1786.989614115666
 20
1200.473104940879
 30
0.0
 40
0.3999999749499399
  0
CIRCLE
  5
4BC
330
1F
100
AcDbEntity
  8
0-C_ハッチ
  6
Continuous
 62
   120
370
     5
100
AcDbCircle
 10
1791.010016353843
 20
1180.373073268582
 30
0.0
 40
0.3999999749499399
  0
CIRCLE
  5
4BD
330
1F
100
AcDbEntity
  8
0-C_ハッチ
  6
Continuous
 62
   120
370
     5
100
AcDbCircle
 10
1770.909984681545
 20
1180.373073268582
 30
0.0
 40
0.3999999749499399
  0
CIRCLE
  5
4BE
330
1F
100
AcDbEntity
  8
0-C_ハッチ
  6
Continuous
 62
   120
370
     5
100
AcDbCircle
 10
1793.881308055701
 20
1186.115656672298
 30
0.0
 40
0.3999999749499399
  0
CIRCLE
  5
4BF
330
1F
100
AcDbEntity
  8
0-C_ハッチ
  6
Continuous
 62
   120
370
     5
100
AcDbCircle
 10
1779.52484954641
 20
1186.690706820102
 30
0.0
 40
0.3999999749499399
  0
CIRCLE
  5
4C0
330
1F
100
AcDbEntity
  8
0-C_ハッチ
  6
Continuous
 62
   120
370
     5
100
AcDbCircle
 10
1773.207215994889
 20
1197.026763091217
 30
0.0
 40
0.3999999749499399
  0
CIRCLE
  5
4C1
330
1F
100
AcDbEntity
  8
0-C_ハッチ
  6
Continuous
 62
   120
370
     5
100
AcDbCircle
 10
1758.276697097085
 20
1188.412887985643
 30
0.0
 40
0.3999999749499399
  0
CIRCLE
  5
4C2
330
1F
100
AcDbEntity
  8
0-C_ハッチ
  6
Continuous
 62
   120
370
     5
100
AcDbCircle
 10
1756.553526172254
 20
1195.87864231419
 30
0.0
 40
0.3999999749499399
  0
CIRCLE
  5
4C3
330
1F
100
AcDbEntity
  8
0-C_ハッチ
  6
Continuous
 62
   120
370
     5
100
AcDbCircle
 10
1762.296109575971
 20
1211.958271748312
 30
0.0
 40
0.3999999749499399
  0
CIRCLE
  5
4C4
330
1F
100
AcDbEntity
  8
0-C_ハッチ
  6
Continuous
 62
   120
370
     5
100
AcDbCircle
 10
1756.553526172254
 20
1220.572146853886
 30
0.0
 40
0.3999999749499399
  0
CIRCLE
  5
4C5
330
1F
100
AcDbEntity
  8
0-C_ハッチ
  6
Continuous
 62
   120
370
     5
100
AcDbCircle
 10
1716.494008646916
 20
1180.221640097129
 30
0.0
 40
0.3999999749499399
  0
CIRCLE
  5
4C6
330
1F
100
AcDbEntity
  8
0-C_ハッチ
  6
Continuous
 62
   120
370
     5
100
AcDbCircle
 10
1723.943926826815
 20
1193.304278399494
 30
0.0
 40
0.3999999749499399
  0
CIRCLE
  5
4C7
330
1F
100
AcDbEntity
  8
0-C_ハッチ
  6
Continuous
 62
   120
370
     5
100
AcDbCircle
 10
1719.400931683234
 20
1204.932960304055
 30
0.0
 40
0.3999999749499399
  0
CIRCLE
  5
4C8
330
1F
100
AcDbEntity
  8
0-C_ハッチ
  6
Continuous
 62
   120
370
     5
100
AcDbCircle
 10
1723.398569457727
 20
1214.200076541386
 30
0.0
 40
0.3999999749499399
  0
CIRCLE
  5
4C9
330
1F
100
AcDbEntity
  8
0-C_ハッチ
  6
Continuous
 62
   120
370
     5
100
AcDbCircle
 10
1710.67917281499
 20
1196.57444309544
 30
0.0
 40
0.3999999749499399
  0
CIRCLE
  5
4CA
330
1F
100
AcDbEntity
  8
0-C_ハッチ
  6
Continuous
 62
   120
370
     5
100
AcDbCircle
 10
1699.776974229687
 20
1197.665157833616
 30
0.0
 40
0.3999999749499399
  0
CIRCLE
  5
4CB
330
1F
100
AcDbEntity
  8
0-C_ハッチ
  6
Continuous
 62
   120
370
     5
100
AcDbCircle
 10
1708.640268676477
 20
1206.084050358954
 30
0.0
 40
0.3999999749499399
  0
CIRCLE
  5
4CC
330
1F
100
AcDbEntity
  8
0-C_ハッチ
  6
Continuous
 62
   120
370
     5
100
AcDbCircle
 10
1706.554845851308
 20
1184.261837521116
 30
0.0
 40
0.3999999749499399
  0
CIRCLE
  5
4CD
330
1F
100
AcDbEntity
  8
0-C_ハッチ
  6
Continuous
 62
   120
370
     5
100
AcDbCircle
 10
1721.485364749112
 20
1190.578481313345
 30
0.0
 40
0.3999999749499399
  0
CIRCLE
  5
4CE
330
1F
100
AcDbEntity
  8
0-C_ハッチ
  6
Continuous
 62
   120
370
     5
100
AcDbCircle
 10
1714.019610420565
 20
1202.064637880068
 30
0.0
 40
0.3999999749499399
  0
CIRCLE
  5
4CF
330
1F
100
AcDbEntity
  8
0-C_ハッチ
  6
Continuous
 62
   120
370
     5
100
AcDbCircle
 10
1706.554845851308
 20
1207.807221283785
 30
0.0
 40
0.3999999749499399
  0
CIRCLE
  5
4D0
330
1F
100
AcDbEntity
  8
0-C_ハッチ
  6
Continuous
 62
   120
370
     5
100
AcDbCircle
 10
1725.505766987288
 20
1216.995156777873
 30
0.0
 40
0.3999999749499399
  0
CIRCLE
  5
4D1
330
1F
100
AcDbEntity
  8
0-C_ハッチ
  6
Continuous
 62
   120
370
     5
100
AcDbCircle
 10
1735.842813017694
 20
1216.995156777873
 30
0.0
 40
0.3999999749499399
  0
CIRCLE
  5
4D2
330
1F
100
AcDbEntity
  8
0-C_ハッチ
  6
Continuous
 62
   120
370
     5
100
AcDbCircle
 10
1736.416873406207
 20
1207.807221283785
 30
0.0
 40
0.3999999749499399
  0
CIRCLE
  5
4D3
330
1F
100
AcDbEntity
  8
0-C_ハッチ
  6
Continuous
 62
   120
370
     5
100
AcDbCircle
 10
1741.58539642141
 20
1194.598883551521
 30
0.0
 40
0.3999999749499399
  0
CIRCLE
  5
4D4
330
1F
100
AcDbEntity
  8
0-C_ハッチ
  6
Continuous
 62
   120
370
     5
100
AcDbCircle
 10
1739.862225496579
 20
1183.112726984798
 30
0.0
 40
0.3999999749499399
  0
CIRCLE
  5
4D5
330
1F
100
AcDbEntity
  8
0-C_ハッチ
  6
Continuous
 62
   120
370
     5
100
AcDbCircle
 10
1734.693702481376
 20
1185.985008445947
 30
0.0
 40
0.3999999749499399
  0
CIRCLE
  5
4D6
330
1F
100
AcDbEntity
  8
0-C_ハッチ
  6
Continuous
 62
   120
370
     5
100
AcDbCircle
 10
1718.614073047254
 20
1206.658110747467
 30
0.0
 40
0.3999999749499399
  0
CIRCLE
  5
4D7
330
1F
100
AcDbEntity
  8
0-C_ハッチ
  6
Continuous
 62
   120
370
     5
100
AcDbCircle
 10
1714.59466056837
 20
1182.538666596285
 30
0.0
 40
0.3999999749499399
  0
CIRCLE
  5
4D8
330
1F
100
AcDbEntity
  8
0-C_ハッチ
  6
Continuous
 62
   120
370
     5
100
AcDbCircle
 10
1710.574258330194
 20
1219.292388091217
 30
0.0
 40
0.3999999749499399
  0
LINE
  5
4D9
330
1F
100
AcDbEntity
  8
0-4_枠
  6
Continuous
 62
    92
370
    13
100
AcDbLine
 10
-1506.493563275592
 20
1226.66658968539
 30
0.0
 11
-1506.493563275592
 21
1646.666490709461
 31
0.0
  0
LINE
  5
4DA
330
1F
100
AcDbEntity
  8
0-4_枠
  6
Continuous
 62
    92
370
    13
100
AcDbLine
 10
-1384.493606165161
 20
1226.66658968539
 30
0.0
 11
-1506.493563275592
 21
1226.66658968539
 31
0.0
  0
LINE
  5
4DB
330
1F
100
AcDbEntity
  8
0-4_枠
  6
Continuous
 62
    92
370
    13
100
AcDbLine
 10
1222.494259385937
 20
1226.66658968539
 30
0.0
 11
1222.494259385937
 21
1646.666490709461
 31
0.0
  0
LINE
  5
4DC
330
1F
100
AcDbEntity
  8
0-4_枠
  6
Continuous
 62
    92
370
    13
100
AcDbLine
 10
1100.494054835683
 20
1226.66658968539
 30
0.0
 11
1222.494259385937
 21
1226.66658968539
 31
0.0
  0
MTEXT
  5
4DD
330
1F
100
AcDbEntity
  8
0-A_文字
  6
Continuous
 62
     7
370
     9
100
AcDbMText
 10
-2334.546658076563
 20
2194.440299424455
 30
0.0
 40
60.96
 41
400.0
 46
0.0
 71
     7
 72
     1
  1
{\fＭＳ ゴシック|b0|i0|c128|p49;■横断面図}
 73
     1
 44
1.0
  0
MTEXT
  5
4DE
330
1F
100
AcDbEntity
  8
0-A_文字
  6
Continuous
 62
     7
370
     9
100
AcDbMText
 10
-818.8043040087871
 20
195.0652397643932
 30
0.0
 40
60.96
 41
400.0
 46
0.0
 71
     7
 72
     1
  1
{\fＭＳ ゴシック|b0|i0|c128|p49;■縦断面図}
 73
     1
 44
1.0
  0
LINE
  5
4DF
330
1F
100
AcDbEntity
  8
F-0_補助線
  6
JWW_HOJO
 62
   120
370
     5
100
AcDbLine
 10
-4093.387555624515
 20
-2970.0
 30
0.0
 11
-4093.387555624515
 21
2949.99973606419
 31
0.0
  0
LINE
  5
4E0
330
1F
100
AcDbEntity
  8
F-0_補助線
  6
JWW_HOJO
 62
   120
370
     5
100
AcDbLine
 10
-4093.387555624515
 20
2949.99973606419
 30
0.0
 11
4106.611784535958
 21
2949.99973606419
 31
0.0
  0
LINE
  5
4E1
330
1F
100
AcDbEntity
  8
F-0_補助線
  6
JWW_HOJO
 62
   120
370
     5
100
AcDbLine
 10
4106.611784535958
 20
2949.99973606419
 30
0.0
 11
4106.611784535958
 21
-2970.0
 31
0.0
  0
LINE
  5
4E2
330
1F
100
AcDbEntity
  8
F-0_補助線
  6
JWW_HOJO
 62
   120
370
     5
100
AcDbLine
 10
4106.611784535958
 20
-2970.0
 30
0.0
 11
-4093.387555624515
 21
-2970.0
 31
0.0
  0
LINE
  5
4E3
330
1F
100
AcDbEntity
  8
F-0_補助線
  6
JWW_HOJO
 62
     7
370
     9
100
AcDbLine
 10
673.2788361090155
 20
-2530.000002061998
 30
0.0
 11
673.2788361090155
 21
-2796.666672165329
 31
0.0
  0
LINE
  5
4E4
330
1F
100
AcDbEntity
  8
F-0_補助線
  6
JWW_HOJO
 62
     7
370
     9
100
AcDbLine
 10
339.945722722191
 20
-2530.000002061998
 30
0.0
 11
339.945722722191
 21
-2796.666672165329
 31
0.0
  0
LINE
  5
4E5
330
1F
100
AcDbEntity
  8
F-1_枠
  6
Continuous
 62
   200
370
    20
100
AcDbLine
 10
3906.611619576076
 20
2783.333179370777
 30
0.0
 11
3906.611619576076
 21
-2803.333443306588
 31
0.0
  0
LINE
  5
4E6
330
1F
100
AcDbEntity
  8
F-1_枠
  6
Continuous
 62
   200
370
    20
100
AcDbLine
 10
-3893.387545314522
 20
2783.333179370777
 30
0.0
 11
-3893.387545314522
 21
-2803.333443306588
 31
0.0
  0
LINE
  5
4E7
330
1F
100
AcDbEntity
  8
F-1_枠
  6
Continuous
 62
   200
370
    20
100
AcDbLine
 10
3906.611619576076
 20
-2803.333335051665
 30
0.0
 11
-3893.387390664634
 21
-2803.333335051665
 31
0.0
  0
LINE
  5
4E8
330
1F
100
AcDbEntity
  8
F-1_枠
  6
Continuous
 62
   200
370
    20
100
AcDbLine
 10
-3886.720882428186
 20
2783.333179370777
 30
0.0
 11
-3886.720882428186
 21
-2803.333443306588
 31
0.0
  0
LINE
  5
4E9
330
1F
100
AcDbEntity
  8
F-1_枠
  6
Continuous
 62
   200
370
    20
100
AcDbLine
 10
-3890.054206138861
 20
2783.333179370777
 30
0.0
 11
-3890.054206138861
 21
-2803.333443306588
 31
0.0
  0
LINE
  5
4EA
330
1F
100
AcDbEntity
  8
F-1_枠
  6
Continuous
 62
   200
370
    20
100
AcDbLine
 10
3903.278110285536
 20
2783.333179370777
 30
0.0
 11
3903.278110285536
 21
-2803.333443306588
 31
0.0
  0
LINE
  5
4EB
330
1F
100
AcDbEntity
  8
F-1_枠
  6
Continuous
 62
   200
370
    20
100
AcDbLine
 10
3899.945095874641
 20
2783.333179370777
 30
0.0
 11
3899.945095874641
 21
-2803.333443306588
 31
0.0
  0
LINE
  5
4EC
330
1F
100
AcDbEntity
  8
F-1_枠
  6
Continuous
 62
   200
370
    20
100
AcDbLine
 10
3906.611619576076
 20
-2799.999995876003
 30
0.0
 11
-3893.387390664634
 21
-2799.999995876003
 31
0.0
  0
LINE
  5
4ED
330
1F
100
AcDbEntity
  8
F-1_枠
  6
Continuous
 62
   200
370
    20
100
AcDbLine
 10
3906.611619576076
 20
-2796.666672165329
 30
0.0
 11
-3893.387390664634
 21
-2796.666672165329
 31
0.0
  0
LINE
  5
4EE
330
1F
100
AcDbEntity
  8
F-1_枠
  6
Continuous
 62
   200
370
    20
100
AcDbLine
 10
2899.945260834522
 20
-2530.000002061998
 30
0.0
 11
2899.945260834522
 21
-2796.666672165329
 31
0.0
  0
LINE
  5
4EF
330
1F
100
AcDbEntity
  8
F-1_枠
  6
Continuous
 62
   200
370
    20
100
AcDbLine
 10
1899.944930914759
 20
-2530.000002061998
 30
0.0
 11
1899.944930914759
 21
-2796.666672165329
 31
0.0
  0
LINE
  5
4F0
330
1F
100
AcDbEntity
  8
F-1_枠
  6
Continuous
 62
   200
370
    20
100
AcDbLine
 10
6.612361895544154
 20
-2530.000002061998
 30
0.0
 11
6.612361895544154
 21
-2796.666672165329
 31
0.0
  0
LINE
  5
4F1
330
1F
100
AcDbEntity
  8
F-1_枠
  6
Continuous
 62
   200
370
    20
100
AcDbLine
 10
6.612361895544154
 20
-2663.333290718697
 30
0.0
 11
3899.945095874641
 21
-2663.336909526103
 31
0.0
  0
LINE
  5
4F2
330
1F
100
AcDbEntity
  8
F-1_枠
  6
Continuous
 62
   200
370
    20
100
AcDbLine
 10
-3893.387390664634
 20
2783.333179370777
 30
0.0
 11
3906.611619576076
 21
2783.333179370777
 31
0.0
  0
LINE
  5
4F3
330
1F
100
AcDbEntity
  8
F-1_枠
  6
Continuous
 62
   200
370
    20
100
AcDbLine
 10
-3893.387390664634
 20
2776.666655669342
 30
0.0
 11
3906.611619576076
 21
2776.666655669342
 31
0.0
  0
LINE
  5
4F4
330
1F
100
AcDbEntity
  8
F-1_枠
  6
Continuous
 62
   200
370
    20
100
AcDbLine
 10
-3893.387390664634
 20
2779.999670080237
 30
0.0
 11
3906.611619576076
 21
2779.999670080237
 31
0.0
  0
LINE
  5
4F5
330
1F
100
AcDbEntity
  8
F-0_補助線
  6
JWW_HOJO
 62
     7
370
     9
100
AcDbLine
 10
-3886.720882428186
 20
-2663.333290718927
 30
0.0
 11
6.612361895544154
 21
-2663.333290718927
 31
0.0
  0
LINE
  5
4F6
330
1F
100
AcDbEntity
  8
F-0_補助線
  6
JWW_HOJO
 62
     7
370
     9
100
AcDbLine
 10
-3886.720882428186
 20
-2603.333290718927
 30
0.0
 11
6.612361895544154
 21
-2603.333290718927
 31
0.0
  0
LINE
  5
4F7
330
1F
100
AcDbEntity
  8
F-0_補助線
  6
JWW_HOJO
 62
     7
370
     9
100
AcDbLine
 10
-3886.720882428186
 20
-2723.333290718927
 30
0.0
 11
6.612361895544154
 21
-2723.333290718927
 31
0.0
  0
LINE
  5
4F8
330
1F
100
AcDbEntity
  8
F-0_補助線
  6
JWW_HOJO
 62
     7
370
     9
100
AcDbLine
 10
6.612272045125565
 20
-2759.999826518655
 30
0.0
 11
3899.945006024222
 21
-2760.003445326061
 31
0.0
  0
LINE
  5
4F9
330
1F
100
AcDbEntity
  8
F-0_補助線
  6
JWW_HOJO
 62
     7
370
     9
100
AcDbLine
 10
6.612327814426635
 20
-2699.999826518681
 30
0.0
 11
3899.945061793523
 21
-2700.003445326087
 31
0.0
  0
LINE
  5
4FA
330
1F
100
AcDbEntity
  8
F-0_補助線
  6
JWW_HOJO
 62
     7
370
     9
100
AcDbLine
 10
6.612395976906669
 20
-2626.666491478713
 30
0.0
 11
3899.945129956002
 21
-2626.670110286119
 31
0.0
  0
LINE
  5
4FB
330
1F
100
AcDbEntity
  8
F-0_補助線
  6
JWW_HOJO
 62
     7
370
     9
100
AcDbLine
 10
6.612451746207739
 20
-2566.66649147874
 30
0.0
 11
3899.945185725303
 21
-2566.670110286145
 31
0.0
  0
LINE
  5
4FC
330
1F
100
AcDbEntity
  8
F-0_補助線
  6
JWW_HOJO
 62
     7
370
     9
100
AcDbLine
 10
1959.944930914759
 20
-2530.000002061998
 30
0.0
 11
1959.944930914759
 21
-2796.666672165329
 31
0.0
  0
LINE
  5
4FD
330
1F
100
AcDbEntity
  8
F-0_補助線
  6
JWW_HOJO
 62
     7
370
     9
100
AcDbLine
 10
66.61236189554415
 20
-2530.000002061998
 30
0.0
 11
66.61236189554415
 21
-2796.666672165329
 31
0.0
  0
LINE
  5
4FE
330
1F
100
AcDbEntity
  8
F-0_補助線
  6
JWW_HOJO
 62
     7
370
     9
100
AcDbLine
 10
2959.945260834522
 20
-2530.000002061998
 30
0.0
 11
2959.945260834522
 21
-2796.666672165329
 31
0.0
  0
MTEXT
  5
4FF
330
1F
100
AcDbEntity
  8
F-0_補助線
  6
Continuous
 62
     7
370
     0
100
AcDbMText
 10
339.945722722191
 20
-2630.997777915002
 30
0.0
 40
52.3875
 41
275.0
 46
0.0
 71
     7
 72
     1
  1
{\fＭＳ ゴシック|b0|i0|c128|p49;DOORETUS}
 73
     1
 44
1.0
  0
MTEXT
  5
500
330
1F
100
AcDbEntity
  8
F-0_補助線
  6
Continuous
 62
     7
370
     0
100
AcDbMText
 10
740.1396184035406
 20
-2631.156527915002
 30
0.0
 40
52.07
 41
410.0
 46
0.0
 71
     7
 72
     1
  1
{\fＭＳ ゴシック|b0|i0|c128|p49;建具納まり図}
 73
     1
 44
1.0
  0
MTEXT
  5
501
330
1F
100
AcDbEntity
  8
F-A_文字
  6
Continuous
 62
     7
370
     0
100
AcDbMText
 10
66.61236189554415
 20
-2591.426547247957
 30
0.0
 40
30.48
 41
120.0
 46
0.0
 71
     7
 72
     1
  1
{\fＭＳ ゴシック|b0|i0|c128|p49;図面名}
 73
     1
 44
1.0
  0
MTEXT
  5
502
330
1F
100
AcDbEntity
  8
F-A_文字
  6
Continuous
 62
     7
370
     0
100
AcDbMText
 10
1959.944930914759
 20
-2591.428307078516
 30
0.0
 40
30.48
 41
200.0
 46
0.0
 71
     7
 72
     1
  1
{\fＭＳ ゴシック|b0|i0|c128|p49;ＳＣＡＬＥ}
 73
     1
 44
1.0
  0
MTEXT
  5
503
330
1F
100
AcDbEntity
  8
F-A_文字
  6
Continuous
 62
     7
370
     0
100
AcDbMText
 10
2959.945260834522
 20
-2591.429236567169
 30
0.0
 40
30.48
 41
160.0
 46
0.0
 71
     7
 72
     1
  1
{\fＭＳ ゴシック|b0|i0|c128|p49;ＤＡＴＥ}
 73
     1
 44
1.0
  0
MTEXT
  5
504
330
1F
100
AcDbEntity
  8
F-A_文字
  6
Continuous
 62
     7
370
     0
100
AcDbMText
 10
2379.945095874641
 20
-2631.268743938205
 30
0.0
 40
50.8
 41
100.0
 46
0.0
 71
     7
 72
     1
  1
{\fＭＳ ゴシック|b0|i0|c128|p49;1/5}
 73
     1
 44
1.0
  0
LINE
  5
505
330
1F
100
AcDbEntity
  8
F-1_枠
  6
Continuous
 62
   200
370
    20
100
AcDbLine
 10
3906.611619576076
 20
-2530.000002061998
 30
0.0
 11
-3893.387390664634
 21
-2530.000002061998
 31
0.0
  0
LINE
  5
506
330
1F
100
AcDbEntity
  8
F-1_枠
  6
Continuous
 62
   200
370
    20
100
AcDbLine
 10
3906.611619576076
 20
-2526.666678351325
 30
0.0
 11
-3893.387390664634
 21
-2526.666678351325
 31
0.0
  0
LINE
  5
507
330
1F
100
AcDbEntity
  8
F-0_補助線
  6
JWW_HOJO
 62
     7
370
     9
100
AcDbLine
 10
-3391.752473459741
 20
-2530.000002061999
 30
0.0
 11
-3391.752473459741
 21
-2803.333443306588
 31
0.0
  0
MTEXT
  5
508
330
1F
100
AcDbEntity
  8
F-A_文字
  6
Continuous
 62
     7
370
     0
100
AcDbMText
 10
1959.944930914759
 20
-2724.761642118573
 30
0.0
 40
30.48
 41
160.0
 46
0.0
 71
     7
 72
     1
  1
{\fＭＳ ゴシック|b0|i0|c128|p49;ＦＩＬＥ}
 73
     1
 44
1.0
  0
LINE
  5
509
330
1F
100
AcDbEntity
  8
F-0_補助線
  6
JWW_HOJO
 62
     7
370
     9
100
AcDbLine
 10
-33.38763810445585
 20
-2530.000002061998
 30
0.0
 11
-33.38763810445585
 21
-2796.666672165329
 31
0.0
  0
MTEXT
  5
50A
330
1F
100
AcDbEntity
  8
F-A_文字
  6
Continuous
 62
     7
370
     0
100
AcDbMText
 10
2959.945260834522
 20
-2724.762571607227
 30
0.0
 40
30.48
 41
120.0
 46
0.0
 71
     7
 72
     1
  1
{\fＭＳ ゴシック|b0|i0|c128|p49;ＮＯ．}
 73
     1
 44
1.0
  0
MTEXT
  5
50B
330
1F
100
AcDbEntity
  8
F-A_文字
  6
Continuous
 62
     7
370
     0
100
AcDbMText
 10
929.9449309147587
 20
-2730.760446177432
 30
0.0
 40
30.48
 41
80.0
 46
0.0
 71
     7
 72
     1
  1
{\fＭＳ ゴシック|b0|i0|c128|p49;株式}
 73
     1
 44
1.0
  0
MTEXT
  5
50C
330
1F
100
AcDbEntity
  8
F-A_文字
  6
Continuous
 62
     7
370
     0
100
AcDbMText
 10
1069.944930914759
 20
-2776.187836349286
 30
0.0
 40
67.62750000000003
 41
710.0000000000002
 46
0.0
 71
     7
 72
     1
  1
{\fＭＳ ゴシック|b0|i0|c128|p49;ウッドワン・・・}
 73
     1
 44
1.0
  0
MTEXT
  5
50D
330
1F
100
AcDbEntity
  8
F-A_文字
  6
Continuous
 62
     7
370
     0
100
AcDbMText
 10
929.9449309147587
 20
-2778.760446177458
 30
0.0
 40
30.48
 41
80.0
 46
0.0
 71
     7
 72
     1
  1
{\fＭＳ ゴシック|b0|i0|c128|p49;会社}
 73
     1
 44
1.0
  0
MTEXT
  5
50E
330
1F
100
AcDbEntity
  8
F-A_文字
  6
Continuous
 62
     7
370
     0
100
AcDbMText
 10
3845.547985115293
 20
-2876.560946013945
 30
0.0
 40
45.72
 41
60.0
 46
0.0
 71
     7
 72
     1
  1
{\fＭＳ ゴシック|b0|i0|c128|p49;）}
 73
     1
 44
1.0
  0
MTEXT
  5
50F
330
1F
100
AcDbEntity
  8
F-A_文字
  6
Continuous
 62
     7
370
     0
100
AcDbMText
 10
3566.743078270199
 20
-2877.490295913237
 30
0.0
 40
45.72
 41
30.0
 46
0.0
 71
     7
 72
     1
  1
{\fＭＳ ゴシック|b0|i0|c128|p49;,}
 73
     1
 44
1.0
  0
MTEXT
  5
510
330
1F
100
AcDbEntity
  8
F-A_文字
  6
Continuous
 62
     7
370
     0
100
AcDbMText
 10
3389.2372856524
 20
-2876.514644858855
 30
0.0
 40
49.53
 41
65.0
 46
0.0
 71
     7
 72
     1
  1
{\fＭＳ ゴシック|b0|i0|c128|p49;$y}
 73
     1
 44
1.0
  0
MTEXT
  5
511
330
1F
100
AcDbEntity
  8
F-A_文字
  6
Continuous
 62
     7
370
     0
100
AcDbMText
 10
3492.395099678281
 20
-2876.514644858855
 30
0.0
 40
49.53
 41
65.0
 46
0.0
 71
     7
 72
     1
  1
{\fＭＳ ゴシック|b0|i0|c128|p49;$m}
 73
     1
 44
1.0
  0
MTEXT
  5
512
330
1F
100
AcDbEntity
  8
F-A_文字
  6
Continuous
 62
     7
370
     0
100
AcDbMText
 10
3595.552921333554
 20
-2876.514644858855
 30
0.0
 40
49.53
 41
65.0
 46
0.0
 71
     7
 72
     1
  1
{\fＭＳ ゴシック|b0|i0|c128|p49;$d}
 73
     1
 44
1.0
  0
MTEXT
  5
513
330
1F
100
AcDbEntity
  8
F-A_文字
  6
Continuous
 62
     7
370
     0
100
AcDbMText
 10
3698.710742988826
 20
-2876.514644858855
 30
0.0
 40
49.53
 41
130.0
 46
0.0
 71
     7
 72
     1
  1
{\fＭＳ ゴシック|b0|i0|c128|p49;印刷}
 73
     1
 44
1.0
  0
MTEXT
  5
514
330
1F
100
AcDbEntity
  8
F-A_文字
  6
Continuous
 62
     7
370
     0
100
AcDbMText
 10
3295.968027210818
 20
-2879.348995711821
 30
0.0
 40
45.72
 41
60.0
 46
0.0
 71
     7
 72
     1
  1
{\fＭＳ ゴシック|b0|i0|c128|p49;（}
 73
     1
 44
1.0
  0
MTEXT
  5
515
330
1F
100
AcDbEntity
  8
F-A_文字
  6
Continuous
 62
     7
370
     0
100
AcDbMText
 10
3460.797206917048
 20
-2879.348995711821
 30
0.0
 40
45.72
 41
30.0
 46
0.0
 71
     7
 72
     1
  1
{\fＭＳ ゴシック|b0|i0|c128|p49;,}
 73
     1
 44
1.0
  0
LINE
  5
516
330
1F
100
AcDbEntity
  8
0-A_文字
  6
Continuous
 62
    92
370
    13
100
AcDbLine
 10
-3786.557535095127
 20
2686.667051573058
 30
0.0
 11
-3786.557535095127
 21
2506.667051573058
 31
0.0
  0
MTEXT
  5
517
330
1F
100
AcDbEntity
  8
F-A_文字
  6
Continuous
 62
     7
370
     9
100
AcDbMText
 10
3397.445133429372
 20
-2765.238008466657
 30
0.0
 40
49.53
 41
65.0
 46
0.0
 71
     7
 72
     1
  1
{\fＭＳ ゴシック|b0|i0|c128|p49;01}
 73
     1
 44
1.0
  0
MTEXT
  5
518
330
1F
100
AcDbEntity
  8
0-B_寸法
  6
Continuous
 62
     7
370
     0
100
AcDbMText
 10
41.2857475906651
 20
-559.3171236488245
 30
0.0
 40
64.77
 41
85.0
 46
0.0
 71
     7
 72
     1
  1
{\fＭＳ ゴシック|b0|i0|c128|p49;97}
 73
     1
 44
1.0
  0
MTEXT
  5
519
330
1F
100
AcDbEntity
  8
0-B_寸法
  6
Continuous
 62
     7
370
    70
100
AcDbMText
 10
-708.8043040087871
 20
-305.5297107476422
 30
0.0
 40
64.77
 41
85.0
 46
0.0
 71
     7
 72
     1
  1
{\fＭＳ ゴシック|b0|i0|c128|p49;30}
 11
6.123031769111886E-17
 21
1.0
 31
0.0
 73
     1
 44
1.0
  0
MTEXT
  5
51A
330
1F
100
AcDbEntity
  8
0-B_寸法
  6
Continuous
 62
     7
370
    70
100
AcDbMText
 10
-588.8043040087871
 20
-373.3732727852907
 30
0.0
 40
60.96
 41
40.0
 46
0.0
 71
     7
 72
     1
  1
{\fＭＳ ゴシック|b0|i0|c128|p49;3}
 11
6.123031769111886E-17
 21
1.0
 31
0.0
 73
     1
 44
1.0
  0
MTEXT
  5
51B
330
1F
100
AcDbEntity
  8
0-B_寸法
  6
Continuous
 62
     7
370
    70
100
AcDbMText
 10
52.69569269201611
 20
-1424.971833339193
 30
0.0
 40
64.77
 41
85.0
 46
0.0
 71
     7
 72
     1
  1
{\fＭＳ ゴシック|b0|i0|c128|p49;97}
 73
     1
 44
1.0
  0
MTEXT
  5
51C
330
1F
100
AcDbEntity
  8
0-B_寸法
  6
Continuous
 62
     7
370
    70
100
AcDbMText
 10
-708.8043040087871
 20
-1657.529861267091
 30
0.0
 40
64.77
 41
85.0
 46
0.0
 71
     7
 72
     1
  1
{\fＭＳ ゴシック|b0|i0|c128|p49;30}
 11
6.123031769111886E-17
 21
1.0
 31
0.0
 73
     1
 44
1.0
  0
MTEXT
  5
51D
330
1F
100
AcDbEntity
  8
0-A_文字
  6
Continuous
 62
     7
370
     9
100
AcDbMText
 10
-444.8688962492076
 20
-2328.513356444646
 30
0.0
 40
64.77
 41
170.0
 46
0.0
 71
     7
 72
     1
  1
{\fＭＳ ゴシック|b0|i0|c128|p49;FL▼}
 73
     1
 44
1.0
  0
MTEXT
  5
51E
330
1F
100
AcDbEntity
  8
0-B_寸法
  6
Continuous
 62
     7
370
    70
100
AcDbMText
 10
-595.2964154464019
 20
-1333.548083671347
 30
0.0
 40
67.73333333333333
 41
800.0
 46
0.0
 71
     7
 72
     1
  1
{\fＭＳ ゴシック|b0|i0|c128|p49;ＤＨ＝780（1,135）}
 11
6.123031769111886E-17
 21
1.0
 31
0.0
 73
     1
 44
1.0
  0
MTEXT
  5
51F
330
1F
100
AcDbEntity
  8
0-B_寸法
  6
Continuous
 62
     7
370
     0
100
AcDbMText
 10
-207.0000231045617
 20
2129.686622677366
 30
0.0
 40
66.04
 41
130.0
 46
0.0
 71
     7
 72
     1
  1
{\fＭＳ ゴシック|b0|i0|c128|p49;910}
 73
     1
 44
1.0
  0
MTEXT
  5
520
330
1F
100
AcDbEntity
  8
0-B_寸法
  6
Continuous
 62
     7
370
     0
100
AcDbMText
 10
-206.9996519448273
 20
2009.686721653295
 30
0.0
 40
66.04
 41
130.0
 46
0.0
 71
     7
 72
     1
  1
{\fＭＳ ゴシック|b0|i0|c128|p49;805}
 73
     1
 44
1.0
  0
MTEXT
  5
521
330
1F
100
AcDbEntity
  8
0-B_寸法
  6
Continuous
 62
     7
370
     0
100
AcDbMText
 10
-1484.886128203801
 20
1094.051936101141
 30
0.0
 40
64.77
 41
85.0
 46
0.0
 71
     7
 72
     1
  1
{\fＭＳ ゴシック|b0|i0|c128|p49;12}
 11
6.123031769111886E-17
 21
1.0
 31
0.0
 73
     1
 44
1.0
  0
MTEXT
  5
522
330
1F
100
AcDbEntity
  8
0-B_寸法
  6
Continuous
 62
     7
370
     0
100
AcDbMText
 10
-1078.154445349071
 20
1264.686705157306
 30
0.0
 40
66.04
 41
130.0
 46
0.0
 71
     7
 72
     1
  1
{\fＭＳ ゴシック|b0|i0|c128|p49;105}
 11
6.123031769111886E-17
 21
1.0
 31
0.0
 73
     1
 44
1.0
  0
MTEXT
  5
523
330
1F
100
AcDbEntity
  8
0-B_寸法
  6
Continuous
 62
     7
370
     0
100
AcDbMText
 10
-1251.939857471465
 20
767.1465896853897
 30
0.0
 40
60.96
 41
40.0
 46
0.0
 71
     7
 72
     1
  1
{\fＭＳ ゴシック|b0|i0|c128|p49;2}
 73
     1
 44
1.0
  0
MTEXT
  5
524
330
1F
100
AcDbEntity
  8
0-B_寸法
  6
Continuous
 62
     7
370
     0
100
AcDbMText
 10
-131.7239312323306
 20
767.1465896853897
 30
0.0
 40
60.96
 41
40.0
 46
0.0
 71
     7
 72
     1
  1
{\fＭＳ ゴシック|b0|i0|c128|p49;2}
 73
     1
 44
1.0
  0
MTEXT
  5
525
330
1F
100
AcDbEntity
  8
0-B_寸法
  6
Continuous
 62
     7
370
     0
100
AcDbMText
 10
932.4811986948464
 20
767.1465896853897
 30
0.0
 40
60.96
 41
40.0
 46
0.0
 71
     7
 72
     1
  1
{\fＭＳ ゴシック|b0|i0|c128|p49;2}
 73
     1
 44
1.0
  0
MTEXT
  5
526
330
1F
100
AcDbEntity
  8
0-B_寸法
  6
Continuous
 62
     7
370
     0
100
AcDbMText
 10
-341.9997756647388
 20
650.533355327985
 30
0.0
 40
67.73333333333333
 41
400.0
 46
0.0
 71
     7
 72
     1
  1
{\fＭＳ ゴシック|b0|i0|c128|p49;枠内＝674}
 73
     1
 44
1.0
  0
MTEXT
  5
527
330
1F
100
AcDbEntity
  8
0-B_寸法
  6
Continuous
 62
     7
370
     0
100
AcDbMText
 10
-341.9997756647388
 20
530.5332068640918
 30
0.0
 40
67.73333333333333
 41
400.0
 46
0.0
 71
     7
 72
     1
  1
{\fＭＳ ゴシック|b0|i0|c128|p49;枠外＝734}
 73
     1
 44
1.0
  0
MTEXT
  5
528
330
1F
100
AcDbEntity
  8
0-B_寸法
  6
Continuous
 62
     7
370
     0
100
AcDbMText
 10
217.2471329870768
 20
770.5332563520564
 30
0.0
 40
67.73333333333333
 41
400.0
 46
0.0
 71
     7
 72
     1
  1
{\fＭＳ ゴシック|b0|i0|c128|p49;ＤＷ＝334}
 73
     1
 44
1.0
  0
MTEXT
  5
529
330
1F
100
AcDbEntity
  8
0-B_寸法
  6
Continuous
 62
     7
370
     0
100
AcDbMText
 10
-901.2468080364658
 20
770.5332563520564
 30
0.0
 40
67.73333333333333
 41
400.0
 46
0.0
 71
     7
 72
     1
  1
{\fＭＳ ゴシック|b0|i0|c128|p49;ＤＷ＝334}
 73
     1
 44
1.0
  0
MTEXT
  5
52A
330
1F
100
AcDbEntity
  8
0-B_寸法
  6
Continuous
 62
     7
370
     0
100
AcDbMText
 10
-1698.993785971433
 20
2010.004221653295
 30
0.0
 40
66.675
 41
175.0
 46
0.0
 71
     7
 72
     1
  1
{\fＭＳ ゴシック|b0|i0|c128|p49;52.5}
 73
     1
 44
1.0
  0
MTEXT
  5
52B
330
1F
100
AcDbEntity
  8
0-B_寸法
  6
Continuous
 62
     7
370
     0
100
AcDbMText
 10
1239.994358361866
 20
2014.596704761403
 30
0.0
 40
66.675
 41
175.0
 46
0.0
 71
     7
 72
     1
  1
{\fＭＳ ゴシック|b0|i0|c128|p49;52.5}
 73
     1
 44
1.0
  0
MTEXT
  5
52C
330
1F
100
AcDbEntity
  8
0-A_文字
  6
Continuous
 62
     7
370
     9
100
AcDbMText
 10
-1093.523296654522
 20
-1836.987742567856
 30
0.0
 40
52.73039999999999
 41
865.0
 46
0.0
 71
     7
 72
     1
  1
{\fＭＳ ゴシック|b0|i0|c128|p49;※（　)内寸法はH4尺タイプ}
 73
     1
 44
1.0
  0
MTEXT
  5
52D
330
1F
100
AcDbEntity
  8
0-A_文字
  6
Continuous
 62
     7
370
     9
100
AcDbMText
 10
504.4805104730198
 20
-1504.244193699675
 30
0.0
 40
52.25142857142858
 41
480.0000000000001
 46
0.0
 71
     7
 72
     1
  1
{\fＭＳ ゴシック|b0|i0|c128|p49;物入内部仕上げ}
 73
     1
 44
1.0
  0
LINE
  5
52E
330
1F
100
AcDbEntity
  8
0-A_文字
  6
Continuous
 62
     7
370
     9
100
AcDbLine
 10
506.0504183202488
 20
-1509.071321760703
 30
0.0
 11
984.4805104730199
 21
-1509.071321760703
 31
0.0
  0
MTEXT
  5
52F
330
1F
100
AcDbEntity
  8
0-B_寸法
  6
Continuous
 62
     7
370
    70
100
AcDbMText
 10
-588.8043040087871
 20
-1556.332963410597
 30
0.0
 40
60.96
 41
40.0
 46
0.0
 71
     7
 72
     1
  1
{\fＭＳ ゴシック|b0|i0|c128|p49;4}
 11
6.123031769111886E-17
 21
1.0
 31
0.0
 73
     1
 44
1.0
  0
MTEXT
  5
530
330
1F
100
AcDbEntity
  8
0-B_寸法
  6
Continuous
 62
     7
370
    70
100
AcDbMText
 10
-711.6928382655203
 20
-1333.548083671347
 30
0.0
 40
67.73333333333333
 41
800.0
 46
0.0
 71
     7
 72
     1
  1
{\fＭＳ ゴシック|b0|i0|c128|p49;枠内＝787（1,142）}
 11
6.123031769111886E-17
 21
1.0
 31
0.0
 73
     1
 44
1.0
  0
MTEXT
  5
531
330
1F
100
AcDbEntity
  8
0-B_寸法
  6
Continuous
 62
     7
370
    70
100
AcDbMText
 10
-822.7361455251423
 20
-1333.548083671347
 30
0.0
 40
67.73333333333333
 41
800.0
 46
0.0
 71
     7
 72
     1
  1
{\fＭＳ ゴシック|b0|i0|c128|p49;枠外＝847（1,202）}
 11
6.123031769111886E-17
 21
1.0
 31
0.0
 73
     1
 44
1.0
  0
LINE
  5
532
330
1F
100
AcDbEntity
  8
0-B_寸法
  6
Continuous
 62
   120
370
     5
100
AcDbLine
 10
-578.8043040087871
 20
-1531.415277371948
 30
0.0
 11
-338.8043040087871
 21
-1531.415277371948
 31
0.0
  0
LWPOLYLINE
  5
533
330
1F
100
AcDbEntity
  8
0-B_寸法
  6
Continuous
 62
     7
370
     9
100
AcDbPolyline
 90
        4
 70
     1
 43
2.0
 10
-577.8043040087871
 20
-1531.415277371948
 42
0.4142135623731
 10
-578.8043040087871
 20
-1530.415277371948
 42
0.4142135623731
 10
-579.8043040087871
 20
-1531.415277371948
 42
0.4142135623731
 10
-578.8043040087871
 20
-1532.415277371948
 42
0.4142135623731
  0
MTEXT
  5
534
330
1F
100
AcDbEntity
  8
0-A_文字
  6
Continuous
 62
    92
370
    13
100
AcDbMText
 10
-3729.057535095127
 20
2525.958926573057
 30
0.0
 40
98.58374999999997
 41
2070.0
 46
0.0
 71
     7
 72
     1
  1
{\fＭＳ ゴシック|b0|i0|c128|p49;収納両開き戸　中連タイプ　固定枠}
 73
     1
 44
1.0
  0
MTEXT
  5
535
330
1F
100
AcDbEntity
  8
F-A_文字
  6
Continuous
 62
     7
370
     0
100
AcDbMText
 10
-3386.720882428186
 20
-2696.736559949696
 30
0.0
 40
53.19346153846152
 41
1815.0
 46
0.0
 71
     7
 72
     1
  1
{\fＭＳ ゴシック|b0|i0|c128|p49;ドレタス　収納両開き戸　中連タイプ　固定枠　枠外W734}
 73
     1
 44
1.0
  0
LINE
  5
536
330
1F
100
AcDbEntity
  8
0-A_文字
  6
Continuous
 62
    92
370
    13
100
AcDbLine
 10
-1592.102016816596
 20
2686.667051573058
 30
0.0
 11
-1592.102016816596
 21
2506.667051573058
 31
0.0
  0
LINE
  5
537
330
1F
100
AcDbEntity
  8
0-A_文字
  6
Continuous
 62
    92
370
    13
100
AcDbLine
 10
-3786.557535095127
 20
2506.667051573058
 30
0.0
 11
-1592.102016816596
 21
2506.667051573058
 31
0.0
  0
LINE
  5
538
330
1F
100
AcDbEntity
  8
0-A_文字
  6
Continuous
 62
    92
370
    13
100
AcDbLine
 10
-3786.557535095127
 20
2686.667051573058
 30
0.0
 11
-1592.102016816596
 21
2686.667051573058
 31
0.0
  0
MTEXT
  5
539
330
1F
100
AcDbEntity
  8
F-A_文字
  6
Continuous
 62
     7
370
     0
100
AcDbMText
 10
3292.445195395262
 20
-2625.380673426644
 30
0.0
 40
52.57799999999999
 41
345.0
 46
0.0
 71
     7
 72
     1
  1
{\fＭＳ ゴシック|b0|i0|c128|p49;2024.04.01}
 73
     1
 44
1.0
  0
LWPOLYLINE
  5
53A
330
1F
100
AcDbEntity
  8
0-B_寸法
  6
Continuous
 62
     7
370
     9
100
AcDbPolyline
 90
        4
 70
     1
 43
2.0
 10
-97.80455804700361
 20
-1427.356833339193
 42
0.4142135623731
 10
-98.80455804700361
 20
-1426.356833339193
 42
0.4142135623731
 10
-99.80455804700361
 20
-1427.356833339193
 42
0.4142135623731
 10
-98.80455804700361
 20
-1428.356833339193
 42
0.4142135623731
  0
LWPOLYLINE
  5
53B
330
1F
100
AcDbEntity
  8
0-B_寸法
  6
Continuous
 62
     7
370
     9
100
AcDbPolyline
 90
        4
 70
     1
 43
2.0
 10
-97.80455804700361
 20
-560.9972005861135
 42
0.4142135623731
 10
-98.80455804700361
 20
-559.9972005861135
 42
0.4142135623731
 10
-99.80455804700361
 20
-560.9972005861135
 42
0.4142135623731
 10
-98.80455804700361
 20
-561.9972005861135
 42
0.4142135623731
  0
LINE
  5
53C
330
1F
100
AcDbEntity
  8
0-B_寸法
  6
Continuous
 62
   120
370
     5
100
AcDbLine
 10
-98.80455804700361
 20
-560.9972005861135
 30
0.0
 11
-98.80455804700361
 21
-455.5962490975151
 31
0.0
  0
LINE
  5
53D
330
1F
100
AcDbEntity
  8
0-6_扉
  6
Continuous
 62
   200
370
    20
100
AcDbLine
 10
-18.80455804700361
 20
-868.4166836880136
 30
0.0
 11
-18.80455804700361
 21
-327.4147503380135
 31
0.0
  0
LINE
  5
53E
330
1F
100
AcDbEntity
  8
0-6_扉
  6
Continuous
 62
   200
370
    20
100
AcDbLine
 10
-18.80455804700361
 20
-1531.415277371948
 30
0.0
 11
-18.80455804700361
 21
-933.2511772880137
 31
0.0
  0
LINE
  5
53F
330
1F
100
AcDbEntity
  8
0-B_寸法
  6
Continuous
 62
   120
370
     5
100
AcDbLine
 10
-98.80455804700361
 20
-560.9972005861135
 30
0.0
 11
289.1954419529964
 21
-560.9972005861135
 31
0.0
  0
LINE
  5
540
330
1F
100
AcDbEntity
  8
0-B_寸法
  6
Continuous
 62
   120
370
     5
100
AcDbLine
 10
-98.80455804700361
 20
-1427.356833339193
 30
0.0
 11
-98.80455804700361
 21
-1474.936270962389
 31
0.0
  0
LINE
  5
541
330
1F
100
AcDbEntity
  8
0-B_寸法
  6
Continuous
 62
   120
370
     5
100
AcDbLine
 10
-98.80455804700361
 20
-1427.356833339193
 30
0.0
 11
289.1954419529964
 21
-1427.356833339193
 31
0.0
  0
LINE
  5
542
330
1F
100
AcDbEntity
  8
0-0_補助線
  6
JWW_HOJO
 62
   120
370
     5
100
AcDbLine
 10
-98.80455804700361
 20
-327.4153689375703
 30
0.0
 11
-98.80455804700361
 21
-1427.196302214597
 31
0.0
  0
LINE
  5
543
330
1F
100
AcDbEntity
  8
0-6_扉
  6
Continuous
 62
   200
370
    20
100
AcDbLine
 10
-98.80455804700361
 20
-868.4166836880136
 30
0.0
 11
-98.80455804700361
 21
-327.4153689375703
 31
0.0
  0
LINE
  5
544
330
1F
100
AcDbEntity
  8
0-6_扉
  6
Continuous
 62
   200
370
    20
100
AcDbLine
 10
-98.80455804700361
 20
-327.4153689375703
 30
0.0
 11
-18.80455804700361
 21
-327.4153689375703
 31
0.0
  0
LINE
  5
545
330
1F
100
AcDbEntity
  8
0-6_扉
  6
Continuous
 62
   200
370
    20
100
AcDbLine
 10
-98.80455804700361
 20
-1531.415895971505
 30
0.0
 11
-98.80455804700361
 21
-933.2511772880137
 31
0.0
  0
LINE
  5
546
330
1F
100
AcDbEntity
  8
0-6_扉
  6
Continuous
 62
   200
370
    20
100
AcDbLine
 10
-98.80455804700361
 20
-1531.415895971505
 30
0.0
 11
-18.80455804700361
 21
-1531.415895971505
 31
0.0
  0
LINE
  5
547
330
1F
100
AcDbEntity
  8
0-C_ハッチ
  6
Continuous
 62
   120
370
     5
100
AcDbLine
 10
259.6055982029963
 20
-315.4146612596776
 30
0.0
 11
289.1954419529964
 21
-285.8248175096775
 31
0.0
  0
LINE
  5
548
330
1F
100
AcDbEntity
  8
0-6_扉
  6
Continuous
 62
   200
370
    20
100
AcDbLine
 10
-1256.493728235473
 20
1142.666708456504
 30
0.0
 11
-800.2436457555325
 21
1142.666708456504
 31
0.0
  0
LINE
  5
549
330
1F
100
AcDbEntity
  8
0-6_扉
  6
Continuous
 62
   200
370
    20
100
AcDbLine
 10
-1256.493728235473
 20
1222.666708456504
 30
0.0
 11
-800.2436457555325
 21
1222.666708456504
 31
0.0
  0
LINE
  5
54A
330
1F
100
AcDbEntity
  8
0-6_扉
  6
Continuous
 62
   200
370
    20
100
AcDbLine
 10
-682.2475124151606
 20
1222.666708456504
 30
0.0
 11
-145.9998878374586
 21
1222.666708456504
 31
0.0
  0
LINE
  5
54B
330
1F
100
AcDbEntity
  8
0-6_扉
  6
Continuous
 62
   200
370
    20
100
AcDbLine
 10
398.2479610856842
 20
1222.666708456504
 30
0.0
 11
-137.999663492019
 21
1222.666708456504
 31
0.0
  0
LINE
  5
54C
330
1F
100
AcDbEntity
  8
0-6_扉
  6
Continuous
 62
   200
370
    20
100
AcDbLine
 10
972.4939294661738
 20
1222.666708456504
 30
0.0
 11
516.244094426055
 21
1222.666708456504
 31
0.0
  0
LINE
  5
54D
330
1F
100
AcDbEntity
  8
0-6_扉
  6
Continuous
 62
   200
370
    20
100
AcDbLine
 10
-682.2475124151606
 20
1142.666708456504
 30
0.0
 11
-145.9998878374586
 21
1142.666708456504
 31
0.0
  0
LINE
  5
54E
330
1F
100
AcDbEntity
  8
0-6_扉
  6
Continuous
 62
   200
370
    20
100
AcDbLine
 10
972.4939294661738
 20
1142.666708456504
 30
0.0
 11
516.244094426055
 21
1142.666708456504
 31
0.0
  0
LINE
  5
54F
330
1F
100
AcDbEntity
  8
0-6_扉
  6
Continuous
 62
   200
370
    20
100
AcDbLine
 10
398.2479610856842
 20
1142.666708456504
 30
0.0
 11
-137.999663492019
 21
1142.666708456504
 31
0.0
  0
LINE
  5
550
330
1F
100
AcDbEntity
  8
0-6_扉
  6
Continuous
 62
   200
370
    20
100
AcDbLine
 10
-1256.493728235473
 20
1222.666708456504
 30
0.0
 11
-1256.493728235473
 21
1142.666708456504
 31
0.0
  0
LINE
  5
551
330
1F
100
AcDbEntity
  8
0-6_扉
  6
Continuous
 62
   200
370
    20
100
AcDbLine
 10
-145.9998878374586
 20
1222.666708456504
 30
0.0
 11
-145.9998878374586
 21
1142.666708456504
 31
0.0
  0
LINE
  5
552
330
1F
100
AcDbEntity
  8
0-6_扉
  6
Continuous
 62
   200
370
    20
100
AcDbLine
 10
-137.999663492019
 20
1222.666708456504
 30
0.0
 11
-137.999663492019
 21
1142.666708456504
 31
0.0
  0
LINE
  5
553
330
1F
100
AcDbEntity
  8
0-6_扉
  6
Continuous
 62
   200
370
    20
100
AcDbLine
 10
972.4939294661738
 20
1222.666708456504
 30
0.0
 11
972.4939294661738
 21
1142.666708456504
 31
0.0
  0
MTEXT
  5
554
330
1F
100
AcDbEntity
  8
0-0_補助線
  6
Continuous
 62
     9
370
     5
100
AcDbMText
 10
0.0
 20
-20030.0
 30
0.0
 40
0.0
 41
0.0
 46
0.0
 71
     7
 72
     1
  1
{\fＭＳ ゴシック|b0|i0|c128|p49;Printer_Orientation = 0}
 73
     1
 44
1.0
  0
MTEXT
  5
555
330
1F
100
AcDbEntity
  8
0-0_補助線
  6
Continuous
 62
     9
370
     5
100
AcDbMText
 10
0.0
 20
-20030.0
 30
0.0
 40
0.0
 41
0.0
 46
0.0
 71
     7
 72
     1
  1
{\fＭＳ ゴシック|b0|i0|c128|p49;Printer_PaperSize = 0}
 73
     1
 44
1.0
  0
MTEXT
  5
556
330
1F
100
AcDbEntity
  8
0-0_補助線
  6
Continuous
 62
     9
370
     5
100
AcDbMText
 10
0.0
 20
-20030.0
 30
0.0
 40
0.0
 41
0.0
 46
0.0
 71
     7
 72
     1
  1
{\fＭＳ ゴシック|b0|i0|c128|p49;Printer_D2dBMP = 0}
 73
     1
 44
1.0
  0
MTEXT
  5
557
330
1F
100
AcDbEntity
  8
0-0_補助線
  6
Continuous
 62
     9
370
     5
100
AcDbMText
 10
0.0
 20
-20030.0
 30
0.0
 40
0.0
 41
0.0
 46
0.0
 71
     7
 72
     1
  1
{\fＭＳ ゴシック|b0|i0|c128|p49;Printer_BmpZENTAI = 0}
 73
     1
 44
1.0
  0
MTEXT
  5
558
330
1F
100
AcDbEntity
  8
0-0_補助線
  6
Continuous
 62
     9
370
     5
100
AcDbMText
 10
0.0
 20
-20030.0
 30
0.0
 40
0.0
 41
0.0
 46
0.0
 71
     7
 72
     1
  1
{\fＭＳ ゴシック|b0|i0|c128|p49;View_Direct2d = 1}
 73
     1
 44
1.0
  0
MTEXT
  5
559
330
1F
100
AcDbEntity
  8
0-0_補助線
  6
Continuous
 62
     9
370
     5
100
AcDbMText
 10
0.0
 20
-20030.0
 30
0.0
 40
0.0
 41
0.0
 46
0.0
 71
     7
 72
     1
  1
{\fＭＳ ゴシック|b0|i0|c128|p49;Draw_BmpTOUKA = 1}
 73
     1
 44
1.0
  0
ENDSEC
  0
SECTION
  2
OBJECTS
  0
DICTIONARY
  5
C
330
0
100
AcDbDictionary
281
     1
  3
ACAD_GROUP
350
D
  3
ACAD_LAYOUT
350
1A
  3
ACAD_MATERIAL
350
3B
  3
ACAD_MLEADERSTYLE
350
55B
  3
ACAD_MLINESTYLE
350
17
  3
ACAD_PLOTSETTINGS
350
19
  3
ACAD_PLOTSTYLENAME
350
E
  3
ACAD_TABLESTYLE
350
55A
  3
ACAD_VISUALSTYLE
350
2A
  0
DICTIONARY
  5
D
102
{ACAD_REACTORS
330
C
102
}
330
C
100
AcDbDictionary
281
     1
  0
DICTIONARY
  5
1A
102
{ACAD_REACTORS
330
C
102
}
330
C
100
AcDbDictionary
281
     1
  3
Layout1
350
1E
  3
Layout2
350
26
  3
Model
350
22
  0
DICTIONARY
  5
3B
102
{ACAD_REACTORS
330
C
102
}
330
C
100
AcDbDictionary
281
     1
  3
ByBlock
350
3D
  3
ByLayer
350
3C
  3
Global
350
3E
  0
DICTIONARY
  5
55B
102
{ACAD_REACTORS
330
C
102
}
330
C
100
AcDbDictionary
281
     1
  0
DICTIONARY
  5
17
102
{ACAD_REACTORS
330
C
102
}
330
C
100
AcDbDictionary
281
     1
  3
Standard
350
18
  0
DICTIONARY
  5
19
102
{ACAD_REACTORS
330
C
102
}
330
C
100
AcDbDictionary
281
     1
  0
ACDBDICTIONARYWDFLT
  5
E
102
{ACAD_REACTORS
330
C
102
}
330
C
100
AcDbDictionary
281
     1
  3
Normal
350
F
100
AcDbDictionaryWithDefault
340
F
  0
DICTIONARY
  5
55A
102
{ACAD_REACTORS
330
C
102
}
330
C
100
AcDbDictionary
281
     1
  0
DICTIONARY
  5
2A
102
{ACAD_REACTORS
330
C
102
}
330
C
100
AcDbDictionary
281
     1
  3
2dWireframe
350
2F
  3
3D Hidden
350
31
  3
3dWireframe
350
30
  3
Basic
350
32
  3
Brighten
350
36
  3
ColorChange
350
3A
  3
Conceptual
350
34
  3
Dim
350
35
  3
Facepattern
350
39
  3
Flat
350
2B
  3
FlatWithEdges
350
2C
  3
Gouraud
350
2D
  3
GouraudWithEdges
350
2E
  3
Linepattern
350
38
  3
Realistic
350
33
  3
Thicken
350
37
  0
LAYOUT
  5
1E
102
{ACAD_REACTORS
330
1A
102
}
330
1A
100
AcDbPlotSettings
  1

  2
none_device
  4

  6

 40
0.0
 41
0.0
 42
0.0
 43
0.0
 44
0.0
 45
0.0
 46
0.0
 47
0.0
 48
0.0
 49
0.0
140
0.0
141
0.0
142
1.0
143
1.0
 70
   688
 72
     0
 73
     0
 74
     5
  7

 75
    16
 76
     0
 77
     5
 78
   300
147
1.0
148
0.0
149
0.0
100
AcDbLayout
  1
Layout1
 70
     1
 71
     1
 10
0.0
 20
0.0
 11
420.0
 21
297.0
 12
0.0
 22
0.0
 32
0.0
 14
1.000000000000000E+20
 24
1.000000000000000E+20
 34
1.000000000000000E+20
 15
-1.000000000000000E+20
 25
-1.000000000000000E+20
 35
-1.000000000000000E+20
146
0.0
 13
0.0
 23
0.0
 33
0.0
 16
1.0
 26
0.0
 36
0.0
 17
0.0
 27
1.0
 37
0.0
 76
     0
330
1B
  0
LAYOUT
  5
26
102
{ACAD_REACTORS
330
1A
102
}
330
1A
100
AcDbPlotSettings
  1

  2
none_device
  4

  6

 40
0.0
 41
0.0
 42
0.0
 43
0.0
 44
0.0
 45
0.0
 46
0.0
 47
0.0
 48
0.0
 49
0.0
140
0.0
141
0.0
142
1.0
143
1.0
 70
   688
 72
     0
 73
     0
 74
     5
  7

 75
    16
 76
     0
 77
     5
 78
   300
147
1.0
148
0.0
149
0.0
100
AcDbLayout
  1
Layout2
 70
     1
 71
     2
 10
0.0
 20
0.0
 11
0.0
 21
0.0
 12
0.0
 22
0.0
 32
0.0
 14
0.0
 24
0.0
 34
0.0
 15
0.0
 25
0.0
 35
0.0
146
0.0
 13
0.0
 23
0.0
 33
0.0
 16
1.0
 26
0.0
 36
0.0
 17
0.0
 27
1.0
 37
0.0
 76
     0
330
23
  0
LAYOUT
  5
22
102
{ACAD_REACTORS
330
1A
102
}
330
1A
100
AcDbPlotSettings
  1

  2
none_device
  4

  6

 40
0.0
 41
0.0
 42
0.0
 43
0.0
 44
0.0
 45
0.0
 46
0.0
 47
0.0
 48
0.0
 49
0.0
140
0.0
141
0.0
142
1.0
143
1.0
 70
  1712
 72
     0
 73
     0
 74
     0
  7

 75
     0
 76
     0
 77
     5
 78
   300
147
1.0
148
0.0
149
0.0
100
AcDbLayout
  1
Model
 70
     1
 71
     0
 10
-4200.0
 20
-2970.0
 11
4200.0
 21
2970.0
 12
0.0
 22
0.0
 32
0.0
 14
-4200.0
 24
-2970.0
 34
0.0
 15
4200.0
 25
2970.0
 35
0.0
146
0.0
 13
0.0
 23
0.0
 33
0.0
 16
1.0
 26
0.0
 36
0.0
 17
0.0
 27
1.0
 37
0.0
 76
     0
330
1F
331
29
  0
MATERIAL
  5
3D
102
{ACAD_REACTORS
330
3B
102
}
330
3B
100
AcDbMaterial
  1
ByBlock
 72
     1
 94
      127
  0
MATERIAL
  5
3C
102
{ACAD_REACTORS
330
3B
102
}
330
3B
100
AcDbMaterial
  1
ByLayer
 72
     1
 94
      127
  0
MATERIAL
  5
3E
102
{ACAD_REACTORS
330
3B
102
}
330
3B
100
AcDbMaterial
  1
Global
 72
     1
 94
      127
  0
MLINESTYLE
  5
18
102
{ACAD_REACTORS
330
17
102
}
330
17
100
AcDbMlineStyle
  2
Standard
 70
     0
  3

 62
   256
 51
90.0
 52
90.0
 71
     2
 49
0.5
 62
   256
  6
BYLAYER
 49
-0.5
 62
   256
  6
BYLAYER
  0
ACDBPLACEHOLDER
  5
F
102
{ACAD_REACTORS
330
E
102
}
330
E
  0
VISUALSTYLE
  5
2F
102
{ACAD_REACTORS
330
2A
102
}
330
2A
100
AcDbVisualStyle
  2
2dWireframe
 70
     4
177
     2
291
     0
 71
     0
176
     1
 72
     2
176
     1
 73
     0
176
     1
 90
        0
176
     1
 40
-0.6
176
     1
 41
-30.0
176
     1
 62
     5
 63
     7
421
 16777215
176
     1
 74
     1
176
     1
 91
        4
176
     1
 64
     7
176
     1
 65
   257
176
     1
 75
     1
176
     1
175
     1
176
     1
 42
1.0
176
     1
 92
        0
176
     1
 66
   257
176
     1
 43
1.0
176
     1
 76
     1
176
     1
 77
     6
176
     1
 78
     2
176
     1
 67
     7
176
     1
 79
     5
176
     1
170
     0
176
     1
171
     0
176
     1
290
     0
176
     1
 93
        1
176
     1
 44
0.0
176
     1
173
     0
176
     1
  0
VISUALSTYLE
  5
31
102
{ACAD_REACTORS
330
2A
102
}
330
2A
100
AcDbVisualStyle
  2
3D Hidden
 70
     6
177
     2
291
     0
 71
     1
176
     1
 72
     2
176
     1
 73
     2
176
     1
 90
        0
176
     1
 40
-0.6
176
     1
 41
-30.0
176
     1
 62
     5
 63
     7
421
 16777215
176
     1
 74
     2
176
     1
 91
        2
176
     1
 64
     7
176
     1
 65
   257
176
     1
 75
     2
176
     1
175
     1
176
     1
 42
40.0
176
     1
 92
        0
176
     1
 66
   257
176
     1
 43
1.0
176
     1
 76
     1
176
     1
 77
     6
176
     1
 78
     2
176
     1
 67
     7
176
     1
 79
     3
176
     1
170
     0
176
     1
171
     0
176
     1
290
     0
176
     1
 93
        1
176
     1
 44
0.0
176
     1
173
     0
176
     1
  0
VISUALSTYLE
  5
30
102
{ACAD_REACTORS
330
2A
102
}
330
2A
100
AcDbVisualStyle
  2
3dWireframe
 70
     5
177
     2
291
     0
 71
     0
176
     1
 72
     2
176
     1
 73
     0
176
     1
 90
        0
176
     1
 40
-0.6
176
     1
 41
-30.0
176
     1
 62
     5
 63
     7
421
 16777215
176
     1
 74
     1
176
     1
 91
        4
176
     1
 64
     7
176
     1
 65
   257
176
     1
 75
     1
176
     1
175
     1
176
     1
 42
1.0
176
     1
 92
        0
176
     1
 66
   257
176
     1
 43
1.0
176
     1
 76
     1
176
     1
 77
     6
176
     1
 78
     2
176
     1
 67
     7
176
     1
 79
     5
176
     1
170
     0
176
     1
171
     0
176
     1
290
     0
176
     1
 93
        1
176
     1
 44
0.0
176
     1
173
     0
176
     1
  0
VISUALSTYLE
  5
32
102
{ACAD_REACTORS
330
2A
102
}
330
2A
100
AcDbVisualStyle
  2
Basic
 70
     7
177
     2
291
     1
 71
     1
176
     1
 72
     0
176
     1
 73
     1
176
     1
 90
        0
176
     1
 40
-0.6
176
     1
 41
-30.0
176
     1
 62
     5
 63
     7
421
 16777215
176
     1
 74
     0
176
     1
 91
        4
176
     1
 64
     7
176
     1
 65
   257
176
     1
 75
     1
176
     1
175
     1
176
     1
 42
1.0
176
     1
 92
        8
176
     1
 66
     7
176
     1
 43
1.0
176
     1
 76
     1
176
     1
 77
     6
176
     1
 78
     2
176
     1
 67
     7
176
     1
 79
     5
176
     1
170
     0
176
     1
171
     0
176
     1
290
     0
176
     1
 93
        1
176
     1
 44
0.0
176
     1
173
     0
176
     1
  0
VISUALSTYLE
  5
36
102
{ACAD_REACTORS
330
2A
102
}
330
2A
100
AcDbVisualStyle
  2
Brighten
 70
    12
177
     2
291
     1
 71
     2
176
     1
 72
     2
176
     1
 73
     0
176
     1
 90
        0
176
     1
 40
-0.6
176
     1
 41
-30.0
176
     1
 62
     5
 63
     7
421
 16777215
176
     1
 74
     1
176
     1
 91
        4
176
     1
 64
     7
176
     1
 65
   257
176
     1
 75
     1
176
     1
175
     1
176
     1
 42
1.0
176
     1
 92
        8
176
     1
 66
     7
176
     1
 43
1.0
176
     1
 76
     1
176
     1
 77
     6
176
     1
 78
     2
176
     1
 67
     7
176
     1
 79
     5
176
     1
170
     0
176
     1
171
     0
176
     1
290
     0
176
     1
 93
        1
176
     1
 44
50.0
176
     1
173
     0
176
     1
  0
VISUALSTYLE
  5
3A
102
{ACAD_REACTORS
330
2A
102
}
330
2A
100
AcDbVisualStyle
  2
ColorChange
 70
    16
177
     2
291
     1
 71
     2
176
     1
 72
     2
176
     1
 73
     3
176
     1
 90
        0
176
     1
 40
-0.6
176
     1
 41
-30.0
176
     1
 62
     5
 63
     8
421
  8421504
176
     1
 74
     1
176
     1
 91
        4
176
     1
 64
     7
176
     1
 65
   257
176
     1
 75
     1
176
     1
175
     1
176
     1
 42
1.0
176
     1
 92
        8
176
     1
 66
     8
424
  8421504
176
     1
 43
1.0
176
     1
 76
     1
176
     1
 77
     6
176
     1
 78
     2
176
     1
 67
     7
176
     1
 79
     5
176
     1
170
     0
176
     1
171
     0
176
     1
290
     0
176
     1
 93
        1
176
     1
 44
0.0
176
     1
173
     0
176
     1
  0
VISUALSTYLE
  5
34
102
{ACAD_REACTORS
330
2A
102
}
330
2A
100
AcDbVisualStyle
  2
Conceptual
 70
     9
177
     2
291
     0
 71
     3
176
     1
 72
     2
176
     1
 73
     0
176
     1
 90
        0
176
     1
 40
-0.6
176
     1
 41
-30.0
176
     1
 62
     5
 63
     7
421
 16777215
176
     1
 74
     2
176
     1
 91
        2
176
     1
 64
     7
176
     1
 65
   257
176
     1
 75
     1
176
     1
175
     1
176
     1
 42
40.0
176
     1
 92
        8
176
     1
 66
     7
176
     1
 43
1.0
176
     1
 76
     1
176
     1
 77
     6
176
     1
 78
     2
176
     1
 67
     7
176
     1
 79
     3
176
     1
170
     0
176
     1
171
     0
176
     1
290
     0
176
     1
 93
        1
176
     1
 44
0.0
176
     1
173
     0
176
     1
  0
VISUALSTYLE
  5
35
102
{ACAD_REACTORS
330
2A
102
}
330
2A
100
AcDbVisualStyle
  2
Dim
 70
    11
177
     2
291
     1
 71
     2
176
     1
 72
     2
176
     1
 73
     0
176
     1
 90
        0
176
     1
 40
-0.6
176
     1
 41
-30.0
176
     1
 62
     5
 63
     7
421
 16777215
176
     1
 74
     1
176
     1
 91
        4
176
     1
 64
     7
176
     1
 65
   257
176
     1
 75
     1
176
     1
175
     1
176
     1
 42
1.0
176
     1
 92
        8
176
     1
 66
     7
176
     1
 43
1.0
176
     1
 76
     1
176
     1
 77
     6
176
     1
 78
     2
176
     1
 67
     7
176
     1
 79
     5
176
     1
170
     0
176
     1
171
     0
176
     1
290
     0
176
     1
 93
        1
176
     1
 44
-50.0
176
     1
173
     0
176
     1
  0
VISUALSTYLE
  5
39
102
{ACAD_REACTORS
330
2A
102
}
330
2A
100
AcDbVisualStyle
  2
Facepattern
 70
    15
177
     2
291
     1
 71
     2
176
     1
 72
     2
176
     1
 73
     0
176
     1
 90
        0
176
     1
 40
-0.6
176
     1
 41
-30.0
176
     1
 62
     5
 63
     7
421
 16777215
176
     1
 74
     1
176
     1
 91
        4
176
     1
 64
     7
176
     1
 65
   257
176
     1
 75
     1
176
     1
175
     1
176
     1
 42
1.0
176
     1
 92
        8
176
     1
 66
     7
176
     1
 43
1.0
176
     1
 76
     1
176
     1
 77
     6
176
     1
 78
     2
176
     1
 67
     7
176
     1
 79
     5
176
     1
170
     0
176
     1
171
     0
176
     1
290
     0
176
     1
 93
        1
176
     1
 44
0.0
176
     1
173
     0
176
     1
  0
VISUALSTYLE
  5
2B
102
{ACAD_REACTORS
330
2A
102
}
330
2A
100
AcDbVisualStyle
  2
Flat
 70
     0
177
     2
291
     1
 71
     2
176
     1
 72
     1
176
     1
 73
     1
176
     1
 90
        2
176
     1
 40
-0.6
176
     1
 41
30.0
176
     1
 62
     5
 63
     7
421
 16777215
176
     1
 74
     0
176
     1
 91
        4
176
     1
 64
     7
176
     1
 65
   257
176
     1
 75
     1
176
     1
175
     1
176
     1
 42
1.0
176
     1
 92
        8
176
     1
 66
     7
176
     1
 43
1.0
176
     1
 76
     1
176
     1
 77
     6
176
     1
 78
     2
176
     1
 67
     7
176
     1
 79
     5
176
     1
170
     0
176
     1
171
     0
176
     1
290
     0
176
     1
 93
       13
176
     1
 44
0.0
176
     1
173
     0
176
     1
  0
VISUALSTYLE
  5
2C
102
{ACAD_REACTORS
330
2A
102
}
330
2A
100
AcDbVisualStyle
  2
FlatWithEdges
 70
     1
177
     2
291
     1
 71
     2
176
     1
 72
     1
176
     1
 73
     1
176
     1
 90
        2
176
     1
 40
-0.6
176
     1
 41
30.0
176
     1
 62
     5
 63
     7
421
 16777215
176
     1
 74
     1
176
     1
 91
        4
176
     1
 64
     7
176
     1
 65
   257
176
     1
 75
     1
176
     1
175
     1
176
     1
 42
1.0
176
     1
 92
        0
176
     1
 66
   257
176
     1
 43
1.0
176
     1
 76
     1
176
     1
 77
     6
176
     1
 78
     2
176
     1
 67
     7
176
     1
 79
     5
176
     1
170
     0
176
     1
171
     0
176
     1
290
     0
176
     1
 93
       13
176
     1
 44
0.0
176
     1
173
     0
176
     1
  0
VISUALSTYLE
  5
2D
102
{ACAD_REACTORS
330
2A
102
}
330
2A
100
AcDbVisualStyle
  2
Gouraud
 70
     2
177
     2
291
     1
 71
     2
176
     1
 72
     2
176
     1
 73
     1
176
     1
 90
        2
176
     1
 40
-0.6
176
     1
 41
30.0
176
     1
 62
     5
 63
     7
421
 16777215
176
     1
 74
     0
176
     1
 91
        4
176
     1
 64
     7
176
     1
 65
   257
176
     1
 75
     1
176
     1
175
     1
176
     1
 42
1.0
176
     1
 92
        0
176
     1
 66
     7
176
     1
 43
1.0
176
     1
 76
     1
176
     1
 77
     6
176
     1
 78
     2
176
     1
 67
     7
176
     1
 79
     5
176
     1
170
     0
176
     1
171
     0
176
     1
290
     0
176
     1
 93
       13
176
     1
 44
0.0
176
     1
173
     0
176
     1
  0
VISUALSTYLE
  5
2E
102
{ACAD_REACTORS
330
2A
102
}
330
2A
100
AcDbVisualStyle
  2
GouraudWithEdges
 70
     3
177
     2
291
     1
 71
     2
176
     1
 72
     2
176
     1
 73
     1
176
     1
 90
        2
176
     1
 40
-0.6
176
     1
 41
30.0
176
     1
 62
     5
 63
     7
421
 16777215
176
     1
 74
     1
176
     1
 91
        4
176
     1
 64
     7
176
     1
 65
   257
176
     1
 75
     1
176
     1
175
     1
176
     1
 42
1.0
176
     1
 92
        0
176
     1
 66
   257
176
     1
 43
1.0
176
     1
 76
     1
176
     1
 77
     6
176
     1
 78
     2
176
     1
 67
     7
176
     1
 79
     5
176
     1
170
     0
176
     1
171
     0
176
     1
290
     0
176
     1
 93
       13
176
     1
 44
0.0
176
     1
173
     0
176
     1
  0
VISUALSTYLE
  5
38
102
{ACAD_REACTORS
330
2A
102
}
330
2A
100
AcDbVisualStyle
  2
Linepattern
 70
    14
177
     2
291
     1
 71
     2
176
     1
 72
     2
176
     1
 73
     0
176
     1
 90
        0
176
     1
 40
-0.6
176
     1
 41
-30.0
176
     1
 62
     5
 63
     7
421
 16777215
176
     1
 74
     1
176
     1
 91
        4
176
     1
 64
     7
176
     1
 65
   257
176
     1
 75
     7
176
     1
175
     7
176
     1
 42
1.0
176
     1
 92
        8
176
     1
 66
     7
176
     1
 43
1.0
176
     1
 76
     1
176
     1
 77
     6
176
     1
 78
     2
176
     1
 67
     7
176
     1
 79
     5
176
     1
170
     0
176
     1
171
     0
176
     1
290
     0
176
     1
 93
        1
176
     1
 44
0.0
176
     1
173
     0
176
     1
  0
VISUALSTYLE
  5
33
102
{ACAD_REACTORS
330
2A
102
}
330
2A
100
AcDbVisualStyle
  2
Realistic
 70
     8
177
     2
291
     0
 71
     2
176
     1
 72
     2
176
     1
 73
     0
176
     1
 90
        0
176
     1
 40
-0.6
176
     1
 41
-30.0
176
     1
 62
     5
 63
     7
421
 16777215
176
     1
 74
     1
176
     1
 91
        0
176
     1
 64
     7
176
     1
 65
   257
176
     1
 75
     1
176
     1
175
     1
176
     1
 42
1.0
176
     1
 92
        8
176
     1
 66
     8
424
  7895160
176
     1
 43
1.0
176
     1
 76
     1
176
     1
 77
     6
176
     1
 78
     2
176
     1
 67
     7
176
     1
 79
     5
176
     1
170
     0
176
     1
171
     0
176
     1
290
     0
176
     1
 93
       13
176
     1
 44
0.0
176
     1
173
     0
176
     1
  0
VISUALSTYLE
  5
37
102
{ACAD_REACTORS
330
2A
102
}
330
2A
100
AcDbVisualStyle
  2
Thicken
 70
    13
177
     2
291
     1
 71
     2
176
     1
 72
     2
176
     1
 73
     0
176
     1
 90
        0
176
     1
 40
-0.6
176
     1
 41
-30.0
176
     1
 62
     5
 63
     7
421
 16777215
176
     1
 74
     1
176
     1
 91
        4
176
     1
 64
     7
176
     1
 65
   257
176
     1
 75
     1
176
     1
175
     1
176
     1
 42
1.0
176
     1
 92
       12
176
     1
 66
     7
176
     1
 43
1.0
176
     1
 76
     1
176
     1
 77
     6
176
     1
 78
     2
176
     1
 67
     7
176
     1
 79
     5
176
     1
170
     0
176
     1
171
     0
176
     1
290
     0
176
     1
 93
        1
176
     1
 44
0.0
176
     1
173
     0
176
     1
  0
ENDSEC
  0
EOF
